  0
SECTION
  2
HEADER
  9
$ACADVER
  1
AC1015
  9
$ACADMAINTVER
 70
     6
  9
$DWGCODEPAGE
  3
ANSI_949
  9
$INSBASE
 10
0.0
 20
0.0
 30
0.0
  9
$EXTMIN
 10
1.000000000000000E+20
 20
1.000000000000000E+20
 30
1.000000000000000E+20
  9
$EXTMAX
 10
-1.000000000000000E+20
 20
-1.000000000000000E+20
 30
-1.000000000000000E+20
  9
$LIMMIN
 10
0.0
 20
0.0
  9
$LIMMAX
 10
12.0
 20
9.0
  9
$ORTHOMODE
 70
     0
  9
$REGENMODE
 70
     1
  9
$FILLMODE
 70
     1
  9
$QTEXTMODE
 70
     0
  9
$MIRRTEXT
 70
     1
  9
$LTSCALE
 40
1.0
  9
$ATTMODE
 70
     1
  9
$TEXTSIZE
 40
0.2
  9
$TRACEWID
 40
0.05
  9
$TEXTSTYLE
  7
Standard
  9
$CLAYER
  8
0
  9
$CELTYPE
  6
ByLayer
  9
$CECOLOR
 62
   256
  9
$CELTSCALE
 40
1.0
  9
$DISPSILH
 70
     0
  9
$DIMSCALE
 40
1.0
  9
$DIMASZ
 40
0.18
  9
$DIMEXO
 40
0.0625
  9
$DIMDLI
 40
0.38
  9
$DIMRND
 40
0.0
  9
$DIMDLE
 40
0.0
  9
$DIMEXE
 40
0.18
  9
$DIMTP
 40
0.0
  9
$DIMTM
 40
0.0
  9
$DIMTXT
 40
0.18
  9
$DIMCEN
 40
0.09
  9
$DIMTSZ
 40
0.0
  9
$DIMTOL
 70
     0
  9
$DIMLIM
 70
     0
  9
$DIMTIH
 70
     1
  9
$DIMTOH
 70
     1
  9
$DIMSE1
 70
     0
  9
$DIMSE2
 70
     0
  9
$DIMTAD
 70
     0
  9
$DIMZIN
 70
     0
  9
$DIMBLK
  1

  9
$DIMASO
 70
     1
  9
$DIMSHO
 70
     1
  9
$DIMPOST
  1

  9
$DIMAPOST
  1

  9
$DIMALT
 70
     0
  9
$DIMALTD
 70
     2
  9
$DIMALTF
 40
25.4
  9
$DIMLFAC
 40
1.0
  9
$DIMTOFL
 70
     0
  9
$DIMTVP
 40
0.0
  9
$DIMTIX
 70
     0
  9
$DIMSOXD
 70
     0
  9
$DIMSAH
 70
     0
  9
$DIMBLK1
  1

  9
$DIMBLK2
  1

  9
$DIMSTYLE
  2
Standard
  9
$DIMCLRD
 70
     0
  9
$DIMCLRE
 70
     0
  9
$DIMCLRT
 70
     0
  9
$DIMTFAC
 40
1.0
  9
$DIMGAP
 40
0.09
  9
$DIMJUST
 70
     0
  9
$DIMSD1
 70
     0
  9
$DIMSD2
 70
     0
  9
$DIMTOLJ
 70
     1
  9
$DIMTZIN
 70
     0
  9
$DIMALTZ
 70
     0
  9
$DIMALTTZ
 70
     0
  9
$DIMUPT
 70
     0
  9
$DIMDEC
 70
     4
  9
$DIMTDEC
 70
     4
  9
$DIMALTU
 70
     2
  9
$DIMALTTD
 70
     2
  9
$DIMTXSTY
  7
Standard
  9
$DIMAUNIT
 70
     0
  9
$DIMADEC
 70
     0
  9
$DIMALTRND
 40
0.0
  9
$DIMAZIN
 70
     0
  9
$DIMDSEP
 70
    46
  9
$DIMATFIT
 70
     3
  9
$DIMFRAC
 70
     0
  9
$DIMLDRBLK
  1

  9
$DIMLUNIT
 70
     2
  9
$DIMLWD
 70
    -2
  9
$DIMLWE
 70
    -2
  9
$DIMTMOVE
 70
     0
  9
$LUNITS
 70
     2
  9
$LUPREC
 70
     4
  9
$SKETCHINC
 40
0.1
  9
$FILLETRAD
 40
0.5
  9
$AUNITS
 70
     0
  9
$AUPREC
 70
     0
  9
$MENU
  1
.
  9
$ELEVATION
 40
0.0
  9
$PELEVATION
 40
0.0
  9
$THICKNESS
 40
0.0
  9
$LIMCHECK
 70
     0
  9
$CHAMFERA
 40
0.5
  9
$CHAMFERB
 40
0.5
  9
$CHAMFERC
 40
1.0
  9
$CHAMFERD
 40
0.0
  9
$SKPOLY
 70
     0
  9
$TDCREATE
 40
2456522.616614224
  9
$TDUCREATE
 40
2456522.116614224
  9
$TDUPDATE
 40
2456522.616654213
  9
$TDUUPDATE
 40
2456522.116654213
  9
$TDINDWG
 40
0.0000000116
  9
$TDUSRTIMER
 40
0.0000000116
  9
$USRTIMER
 70
     1
  9
$ANGBASE
 50
0.0
  9
$ANGDIR
 70
     0
  9
$PDMODE
 70
     0
  9
$PDSIZE
 40
0.0
  9
$PLINEWID
 40
0.0
  9
$SPLFRAME
 70
     0
  9
$SPLINETYPE
 70
     6
  9
$SPLINESEGS
 70
     8
  9
$HANDSEED
  5
178
  9
$SURFTAB1
 70
     6
  9
$SURFTAB2
 70
     6
  9
$SURFTYPE
 70
     6
  9
$SURFU
 70
     6
  9
$SURFV
 70
     6
  9
$UCSBASE
  2

  9
$UCSNAME
  2

  9
$UCSORG
 10
0.0
 20
0.0
 30
0.0
  9
$UCSXDIR
 10
1.0
 20
0.0
 30
0.0
  9
$UCSYDIR
 10
0.0
 20
1.0
 30
0.0
  9
$UCSORTHOREF
  2

  9
$UCSORTHOVIEW
 70
     0
  9
$UCSORGTOP
 10
0.0
 20
0.0
 30
0.0
  9
$UCSORGBOTTOM
 10
0.0
 20
0.0
 30
0.0
  9
$UCSORGLEFT
 10
0.0
 20
0.0
 30
0.0
  9
$UCSORGRIGHT
 10
0.0
 20
0.0
 30
0.0
  9
$UCSORGFRONT
 10
0.0
 20
0.0
 30
0.0
  9
$UCSORGBACK
 10
0.0
 20
0.0
 30
0.0
  9
$PUCSBASE
  2

  9
$PUCSNAME
  2

  9
$PUCSORG
 10
0.0
 20
0.0
 30
0.0
  9
$PUCSXDIR
 10
1.0
 20
0.0
 30
0.0
  9
$PUCSYDIR
 10
0.0
 20
1.0
 30
0.0
  9
$PUCSORTHOREF
  2

  9
$PUCSORTHOVIEW
 70
     0
  9
$PUCSORGTOP
 10
0.0
 20
0.0
 30
0.0
  9
$PUCSORGBOTTOM
 10
0.0
 20
0.0
 30
0.0
  9
$PUCSORGLEFT
 10
0.0
 20
0.0
 30
0.0
  9
$PUCSORGRIGHT
 10
0.0
 20
0.0
 30
0.0
  9
$PUCSORGFRONT
 10
0.0
 20
0.0
 30
0.0
  9
$PUCSORGBACK
 10
0.0
 20
0.0
 30
0.0
  9
$USERI1
 70
     0
  9
$USERI2
 70
     0
  9
$USERI3
 70
     0
  9
$USERI4
 70
     0
  9
$USERI5
 70
     0
  9
$USERR1
 40
0.0
  9
$USERR2
 40
0.0
  9
$USERR3
 40
0.0
  9
$USERR4
 40
0.0
  9
$USERR5
 40
0.0
  9
$WORLDVIEW
 70
     1
  9
$SHADEDGE
 70
     3
  9
$SHADEDIF
 70
    70
  9
$TILEMODE
 70
     1
  9
$MAXACTVP
 70
    64
  9
$PINSBASE
 10
0.0
 20
0.0
 30
0.0
  9
$PLIMCHECK
 70
     0
  9
$PEXTMIN
 10
1.000000000000000E+20
 20
1.000000000000000E+20
 30
1.000000000000000E+20
  9
$PEXTMAX
 10
-1.000000000000000E+20
 20
-1.000000000000000E+20
 30
-1.000000000000000E+20
  9
$PLIMMIN
 10
0.0
 20
0.0
  9
$PLIMMAX
 10
12.0
 20
9.0
  9
$UNITMODE
 70
     0
  9
$VISRETAIN
 70
     1
  9
$PLINEGEN
 70
     0
  9
$PSLTSCALE
 70
     1
  9
$TREEDEPTH
 70
  3020
  9
$CMLSTYLE
  2
Standard
  9
$CMLJUST
 70
     0
  9
$CMLSCALE
 40
1.0
  9
$PROXYGRAPHICS
 70
     1
  9
$MEASUREMENT
 70
     0
  9
$CELWEIGHT
370
    -1
  9
$ENDCAPS
280
     0
  9
$JOINSTYLE
280
     0
  9
$LWDISPLAY
290
     1
  9
$INSUNITS
 70
     4
  9
$HYPERLINKBASE
  1

  9
$STYLESHEET
  1

  9
$XEDIT
290
     1
  9
$CEPSNTYPE
380
     0
  9
$PSTYLEMODE
290
     1
  9
$FINGERPRINTGUID
  2
{F8AEFB6D-7921-4D3A-86FC-723A87D93D8A}
  9
$VERSIONGUID
  2
{FAEB1C32-E019-11D5-929B-00C0DF256EC4}
  9
$EXTNAMES
290
     1
  9
$PSVPSCALE
 40
0.0
  9
$OLESTARTUP
290
     0
  0
ENDSEC
  0
SECTION
  2
CLASSES
  0
CLASS
  1
ACDBDICTIONARYWDFLT
  2
AcDbDictionaryWithDefault
  3
ObjectDBX Classes
 90
        0
280
     0
281
     0
  0
CLASS
  1
VISUALSTYLE
  2
AcDbVisualStyle
  3
ObjectDBX Classes
 90
     4095
280
     0
281
     0
  0
CLASS
  1
MATERIAL
  2
AcDbMaterial
  3
ObjectDBX Classes
 90
     1153
280
     0
281
     0
  0
CLASS
  1
WIPEOUT
  2
AcDbWipeout
  3
WipeOut|AutoCAD Express Tool|expresstools@autodesk.com
 90
      127
280
     0
281
     1
  0
CLASS
  1
SPATIAL_FILTER
  2
AcDbSpatialFilter
  3
ObjectDBX Classes
 90
        0
280
     0
281
     0
  0
CLASS
  1
SCALE
  2
AcDbScale
  3
ObjectDBX Classes
 90
     1153
280
     0
281
     0
  0
CLASS
  1
DICTIONARYVAR
  2
AcDbDictionaryVar
  3
ObjectDBX Classes
 90
        0
280
     0
281
     0
  0
CLASS
  1
ACDBPLACEHOLDER
  2
AcDbPlaceHolder
  3
ObjectDBX Classes
 90
        0
280
     0
281
     0
  0
CLASS
  1
LAYOUT
  2
AcDbLayout
  3
ObjectDBX Classes
 90
        0
280
     0
281
     0
  0
ENDSEC
  0
SECTION
  2
TABLES
  0
TABLE
  2
VPORT
  5
8
330
0
100
AcDbSymbolTable
 70
     1
  0
VPORT
  5
29
330
8
100
AcDbSymbolTableRecord
100
AcDbViewportTableRecord
  2
*Active
 70
     0
 10
0.0
 20
0.0
 11
1.0
 21
1.0
 12
146.7029698688452
 22
107.3495143703782
 13
0.0
 23
0.0
 14
0.5
 24
0.5
 15
0.5
 25
0.5
 16
0.0
 26
0.0
 36
1.0
 17
0.0
 27
0.0
 37
0.0
 40
214.858097202183
 41
1.524783375069295
 42
50.0
 43
0.0
 44
0.0
 50
0.0
 51
0.0
 71
     0
 72
   100
 73
     1
 74
     3
 75
     0
 76
     0
 77
     0
 78
     0
281
     0
 65
     1
110
0.0
120
0.0
130
0.0
111
1.0
121
0.0
131
0.0
112
0.0
122
1.0
132
0.0
 79
     0
146
0.0
  0
ENDTAB
  0
TABLE
  2
LTYPE
  5
5
330
0
100
AcDbSymbolTable
 70
     2
  0
LTYPE
  5
14
330
5
100
AcDbSymbolTableRecord
100
AcDbLinetypeTableRecord
  2
ByBlock
 70
     0
  3

 72
    65
 73
     0
 40
0.0
  0
LTYPE
  5
15
330
5
100
AcDbSymbolTableRecord
100
AcDbLinetypeTableRecord
  2
ByLayer
 70
     0
  3

 72
    65
 73
     0
 40
0.0
  0
LTYPE
  5
16
330
5
100
AcDbSymbolTableRecord
100
AcDbLinetypeTableRecord
  2
Continuous
 70
     0
  3
Solid line
 72
    65
 73
     0
 40
0.0
  0
LTYPE
  5
E7
330
5
100
AcDbSymbolTableRecord
100
AcDbLinetypeTableRecord
  2
Wipeout_Contour
 70
     0
  3
- - - - - 
 72
    65
 73
     2
 40
1000.0
 49
0.0
 74
     0
 49
-1000.0
 74
     0
  0
ENDTAB
  0
TABLE
  2
LAYER
  5
2
330
0
100
AcDbSymbolTable
 70
     3
  0
LAYER
  5
10
330
2
100
AcDbSymbolTableRecord
100
AcDbLayerTableRecord
  2
0
 70
     0
 62
     7
  6
Continuous
370
    -3
390
F
  0
LAYER
  5
40
330
2
100
AcDbSymbolTableRecord
100
AcDbLayerTableRecord
  2
Doc_ Finishes
 70
     0
 62
     7
  6
Continuous
370
    -3
390
F
  0
LAYER
  5
DB
330
2
100
AcDbSymbolTableRecord
100
AcDbLayerTableRecord
  2
Doc_ Floor
 70
     0
 62
     7
  6
Continuous
370
    -3
390
F
  0
ENDTAB
  0
TABLE
  2
STYLE
  5
3
330
0
100
AcDbSymbolTable
 70
     5
  0
STYLE
  5
11
330
3
100
AcDbSymbolTableRecord
100
AcDbTextStyleTableRecord
  2
Standard
 70
     0
 40
0.0
 41
1.0
 50
0.0
 71
     0
 42
0.2
  3
txt
  4

  0
STYLE
  5
D6
330
3
100
AcDbSymbolTableRecord
100
AcDbTextStyleTableRecord
  2
GENERATED_STYLE_1
 70
     0
 40
0.0
 41
1.0
 50
0.0
 71
     0
 42
0.2
  3

  4

1001
ACAD
1000
Century Gothic
1071
       34
  0
STYLE
  5
D9
330
3
100
AcDbSymbolTableRecord
100
AcDbTextStyleTableRecord
  2
GENERATED_STYLE_2
 70
     0
 40
0.0
 41
1.0
 50
0.0
 71
     0
 42
0.2
  3

  4

1001
ACAD
1000
DilleniaUPC
1071
 33554450
  0
STYLE
  5
E8
330
3
100
AcDbSymbolTableRecord
100
AcDbTextStyleTableRecord
  2
GENERATED_STYLE_3
 70
     0
 40
0.0
 41
1.0
 50
0.0
 71
     0
 42
0.2
  3

  4

1001
ACAD
1000
Calibri
1071
       34
  0
STYLE
  5
F2
330
3
100
AcDbSymbolTableRecord
100
AcDbTextStyleTableRecord
  2
GENERATED_STYLE_4
 70
     0
 40
0.0
 41
1.0
 50
0.0
 71
     0
 42
0.2
  3

  4

1001
ACAD
1000
Arial
1071
       34
  0
ENDTAB
  0
TABLE
  2
VIEW
  5
6
330
0
100
AcDbSymbolTable
 70
     0
  0
ENDTAB
  0
TABLE
  2
UCS
  5
7
330
0
100
AcDbSymbolTable
 70
     0
  0
ENDTAB
  0
TABLE
  2
APPID
  5
9
330
0
100
AcDbSymbolTable
 70
     1
  0
APPID
  5
12
330
9
100
AcDbSymbolTableRecord
100
AcDbRegAppTableRecord
  2
ACAD
 70
     0
  0
ENDTAB
  0
TABLE
  2
DIMSTYLE
  5
A
330
0
100
AcDbSymbolTable
 70
     1
100
AcDbDimStyleTable
  0
DIMSTYLE
105
27
330
A
100
AcDbSymbolTableRecord
100
AcDbDimStyleTableRecord
  2
Standard
 70
     0
178
     0
340
11
  0
ENDTAB
  0
TABLE
  2
BLOCK_RECORD
  5
1
330
0
100
AcDbSymbolTable
 70
     3
  0
BLOCK_RECORD
  5
1F
330
1
100
AcDbSymbolTableRecord
100
AcDbBlockTableRecord
  2
*Model_Space
340
22
  0
BLOCK_RECORD
  5
1B
330
1
100
AcDbSymbolTableRecord
100
AcDbBlockTableRecord
  2
*Paper_Space
340
1E
  0
BLOCK_RECORD
  5
E3
330
1
100
AcDbSymbolTableRecord
100
AcDbBlockTableRecord
  2
Drawing_1_2
340
0
102
{BLKREFS
331
116
102
}
  0
BLOCK_RECORD
  5
11E
330
1
100
AcDbSymbolTableRecord
100
AcDbBlockTableRecord
  2
C-TRS9-00 PRODUCT TECHNICAL DAT_STORY_MARKER
340
0
  0
ENDTAB
  0
ENDSEC
  0
SECTION
  2
BLOCKS
  0
BLOCK
  5
20
330
1F
100
AcDbEntity
  8
0
100
AcDbBlockBegin
  2
*Model_Space
 70
     0
 10
0.0
 20
0.0
 30
0.0
  3
*Model_Space
  1

  0
ENDBLK
  5
21
330
1F
100
AcDbEntity
  8
0
100
AcDbBlockEnd
  0
BLOCK
  5
1C
330
1B
100
AcDbEntity
 67
     1
  8
0
100
AcDbBlockBegin
  2
*Paper_Space
 70
     0
 10
0.0
 20
0.0
 30
0.0
  3
*Paper_Space
  1

  0
ENDBLK
  5
1D
330
1B
100
AcDbEntity
 67
     1
  8
0
100
AcDbBlockEnd
  0
BLOCK
  5
E4
330
E3
100
AcDbEntity
  8
0
100
AcDbBlockBegin
  2
Drawing_1_2
 70
     0
 10
-1260.81517440009
 20
-398.7432417450617
 30
0.0
  3
Drawing_1_2
  1

  0
WIPEOUT
  5
E6
330
E3
100
AcDbEntity
  8
Doc_ Floor
  6
Wipeout_Contour
 62
   254
 48
858.2742986875078
370
     0
 92
      296
310
28010000060000000C0000000E000000120000000C00000016000000000000C20C00000014000000010000006C0000000700000004000000C0AB26E22195264008759EB9AEAE354000000000000000000E6399ABD5A1714008759EB9AEAE354000000000000000000E6399ABD5A171403AC01CBD7972694000000000000000
310
00C0AB26E2219526403AC01CBD7972694000000000000000000C0000000E000000FE000000840000000600000005000000C0AB26E22195264008759EB9AEAE354000000000000000000E6399ABD5A1714008759EB9AEAE354000000000000000000E6399ABD5A171403AC01CBD797269400000000000000000C0AB26E22195
310
26403AC01CBD797269400000000000000000C0AB26E22195264008759EB9AEAE35400000000000000000
100
AcDbWipeout
 90
        0
 10
11.29127413484632
 20
21.68235359304982
 30
0.0
 11
270.8233914679976
 21
0.0
 31
0.0
 12
0.0
 22
181.8950070905383
 32
0.0
 13
1.0
 23
1.0
340
0
 70
    15
280
     1
281
    50
282
    50
283
     0
360
0
 71
     2
 91
        5
 14
-0.5000000000000001
 24
0.4999999999999999
 14
0.5
 24
0.4999999999999999
 14
0.5
 24
-0.5
 14
-0.5000000000000001
 24
-0.5
 14
-0.5000000000000001
 24
0.4999999999999999
  0
MTEXT
  5
E9
102
{ACAD_XDICTIONARY
360
14E
102
}
330
E3
100
AcDbEntity
  8
Doc_ Floor
  6
Continuous
100
AcDbMText
 10
11.29127413484632
 20
201.8580004473994
 30
0.0
 40
4.621936118786758
 41
270.8233914679976
 71
     1
 72
     1
  3
\A1;{\fCentury Gothic|b0|i0|c0|p34;TRS 9\P\H0.352473x;\P\H1.534583x;\P\P\P\P\P\PDESCRIPTION\PTRS 9 profile is designed for commercial and industrial roofing. The profile is suitable for low pitch roofing as well as curved \Proofing. Commercial and i
  3
ndustrial roofing G550 grade steel with minimum 0.55 BMT gives more resilience to damage\fCalibri|b0|i0|c0|p34;\H0.882353x;.\P\fCentury Gothic|b0|i0|c0|p34;\H0.906169x;\P\H1.250686x;SPECIFICATION  AT A GLANCE\P\H0.900354x;GENERAL \fCalibri|b0|i0|c0|
  3
p34;\H0.882353x;                                               \fCentury Gothic|b0|i0|c0|p34;\H1.070159x;Minimum Roof Pitch \fCalibri|b0|i0|c0|p34;\H0.882353x;                    \fCentury Gothic|b0|i0|c0|p34;\H1.133333x;3 Degree\PEffective Cover   
  3
                                                                                910mm\PMax\fCalibri|b0|i0|c0|p34;\H0.882353x;.\fCentury Gothic|b0|i0|c0|p34;\H1.133333x; Unsupported Overhang                                                           C
  3
ontact "The Roofing Store"\P\H1.059033x;SPANS \fCalibri|b0|i0|c0|p34;\H0.882353x;                                                     \fCentury Gothic|b0|i0|c0|p34;\H1.070159x;End Span 0.55 BMT                   2300mm\PInternal Span 0.55 BMT       
  3
                                                                3200mm\P\H1.059033x;DRAPE CURVE \fCalibri|b0|i0|c0|p34;\H0.882353x;                                    \fCentury Gothic|b0|i0|c0|p34;\H1.070159x;0.55mm BMT G300                    Min\f
  3
Calibri|b0|i0|c0|p34;\H0.882353x;.\fCentury Gothic|b0|i0|c0|p34;\H1.133333x; 90m Radius\P\H1.059033x;WALL CLADDING FIXINGS\fCalibri|b0|i0|c0|p34;\H0.882353x;              \fCentury Gothic|b0|i0|c0|p34;\H1.070159x;Cladding fixing on 20mm\fCalibri|b0|
  3
i0|c0|p34;\H0.882353x;,\fCentury Gothic|b0|i0|c0|p34;\H1.133333x; \fCalibri|b0|i0|c0|p34;\H0.882353x;       \fCentury Gothic|b0|i0|c0|p34;\H1.133333x;12 Gauge class 4 screws with neo washers\fCalibri|b0|i0|c0|p34;\H0.882353x;,\fCentury Gothic|b0|i0|
  3
c0|p34;\H1.133333x; miss 2 pans\fCalibri|b0|i0|c0|p34;\H0.882353x;,\fCentury Gothic|b0|i0|c0|p34;\H1.133333x; miss 3pans\fCalibri|b0|i0|c0|p34;\H0.882353x;,\fCentury Gothic|b0|i0|c0|p34;\H1.133333x; every H 3.1 treated batterns\Psecond on ends \P\H1
  3
.059033x;ROOF FIXINGS \fCalibri|b0|i0|c0|p34;\H0.882353x;                                     \fCentury Gothic|b0|i0|c0|p34;\H1.070159x;Low / Medium wind Zone        Timber: class 4 14 x 75mm with neo washer and embossed washer\PSteeltite: 12 x 65mm
  3
 with neo washer and embossed washer\PHigh wind Zone \fCalibri|b0|i0|c0|p34;\H0.882353x;                                                                                                     \fCentury Gothic|b0|i0|c0|p34;\H1.133333x;Timber: class 4 14
  3
 x 75mm with neo washer and embossed washer\fCalibri|b0|i0|c0|p34;\H0.882353x;,\fCentury Gothic|b0|i0|c0|p34;\H1.133333x; approved \Pprofile's metal washer and EPDM washer\PSteeltite: 12 x 65mm with neo washer and embossed washer\fCalibri|b0|i0|c0|p
  3
34;\H0.882353x;,\fCentury Gothic|b0|i0|c0|p34;\H1.133333x; approved \Pprofile's metal washer and EPDM washer\PVery High Wind Zone \fCalibri|b0|i0|c0|p34;\H0.882353x;                                                                                    
  3
      \fCentury Gothic|b0|i0|c0|p34;\H1.133333x;Contact "The Roofing Store"\PSpecific Design Wind Zone \fCalibri|b0|i0|c0|p34;\H0.882353x;                                                                             \fCentury Gothic|b0|i0|c0|p34;\H1.
  3
133333x;Contact "The Roofing Store"\P\H1.059033x;ROOF FIXING LENGTHS\fCalibri|b0|i0|c0|p34;\H0.882353x;                    \fCentury Gothic|b0|i0|c0|p34;\H1.070159x;Dark Colour Up To 8 Meters\fCalibri|b0|i0|c0|p34;\H0.882353x;      \fCentury Gothic|
  3
b0|i0|c0|p34;\H1.133333x;Solid fix \PLight Colour Up To 12 Meters\fCalibri|b0|i0|c0|p34;\H0.882353x;                                                                           \fCentury Gothic|b0|i0|c0|p34;\H1.133333x;Solid fix \Psheet lengths Excess
  3
 Above* Oversize holes required for movement \P\H1.059033x;*Contact The Roofing Store for further information on specific design\P\H1.110674x;FIXINGS\fCalibri|b0|i0|c0|p34;\H0.882353x;,\fCentury Gothic|b0|i0|c0|p34;\H1.133333x; FASTENING AND UNDERLA
  3
Y\P\H0.850166x;All fixings and fasteners are to be of an approved type\fCalibri|b0|i0|c0|p34;\H0.882353x;,\fCentury Gothic|b0|i0|c0|p34;\H1.133333x; compatible with all materials\fCalibri|b0|i0|c0|p34;\H0.882353x;,\fCentury Gothic|b0|i0|c0|p34;\H1.1
  3
33333x; the environment and meeting the requirements of the NZ Building Code\fCalibri|b0|i0|c0|p34;\H0.882353x;.\fCentury Gothic|b0|i0|c0|p34;\H1.133333x; Installation is to be in\Paccordance with the NZ Metal Roof and Wall Cladding Code of Practice
  3
 or manufacturer's instructions\fCalibri|b0|i0|c0|p34;\H0.882353x;.\fCentury Gothic|b0|i0|c0|p34;\H1.133333x; Fix every crest to: Ridge\fCalibri|b0|i0|c0|p34;\H0.882353x;,\fCentury Gothic|b0|i0|c0|p34;\H1.133333x; Hip\fCalibri|b0|i0|c0|p34;\H0.88235
  3
3x;,\fCentury Gothic|b0|i0|c0|p34;\H1.133333x; Valley\fCalibri|b0|i0|c0|p34;\H0.882353x;,\fCentury Gothic|b0|i0|c0|p34;\H1.133333x; Gutter and Periphery area. Underlay as per the\Pproject specification is to be used\fCalibri|b0|i0|c0|p34;\H0.882353x
  3
;.\P\fCentury Gothic|b0|i0|c0|p34;\H1.333072x;COATINGS AND COMPLIANCE  WITH AS/NZS 2728 (CORROSION  RESISTANCE)\P\H0.850166x;The KiwiColour brand is available in two different product lines designed specifically to suit different environmental and a
  3
tmospheric conditions; KiwiColour VITOR & KiwiColour ZENEX.\PIndependent laboratory tests have confirmed that KiwiColour VITOR complies with the corrosion resistance performance requirements of AS/NZA 2728 with regards to Product Type 4 (the\Pcorros
  3
ivity category into which most populated areas of New Zealand fall) in all aspects of salt spray performance and humidity resistance and including other product properties such as\Pcoating thickness\fCalibri|b0|i0|c0|p34;\H0.882353x;,\fCentury Gothi
  3
c|b0|i0|c0|p34;\H1.133333x; gloss and cross hatch adhesion(Gloss category 2 )\fCalibri|b0|i0|c0|p34;\H0.882353x;.\fCentury Gothic|b0|i0|c0|p34;\H1.133333x; Independent testing demonstrated that Kiwicolour ZENEX samples met the corrosion resistance p
  3
erformance\Prequirements of AS/NZS 2728:20\fCalibri|b0|i0|c0|p34;\H0.882353x;0\fCentury Gothic|b0|i0|c0|p34;\H1.133333x;7 for Product Types 3 and 4. Refer to Product literature for selection of suitable finishing and warranty. All kiwi colour materi
  1
als are available on Master spec \fCalibri|b0|i0|c0|p34;\H0.882353x;.}
  7
GENERATED_STYLE_1
 73
     1
 44
0.9013580480043235
  0
LWPOLYLINE
  5
EA
330
E3
100
AcDbEntity
  8
Doc_ Floor
  6
Continuous
100
AcDbPolyline
 90
       52
 70
   128
 43
0.0
 10
210.9903027956153
 20
181.0848711731212
 10
208.8403027956154
 20
184.8848711731212
 10
201.8403027956153
 20
184.8848711731212
 10
197.5403027956151
 20
177.2848711731212
 10
192.0806467512282
 20
177.2848711731212
 10
190.9594861943513
 20
177.9328080805577
 10
188.4699087688253
 20
177.9328080805577
 10
187.3487482119485
 20
177.2848711731212
 10
181.9403027956153
 20
177.2848711731212
 10
177.6403027956153
 20
184.8848711731212
 10
170.6403027956152
 20
184.8848711731212
 10
166.3403027956152
 20
177.2848711731212
 10
160.8806467512283
 20
177.2848711731211
 10
159.7594861943512
 20
177.9328080805577
 10
157.2699087688252
 20
177.9328080805577
 10
156.1487482119483
 20
177.2848711731212
 10
150.7403027956151
 20
177.2848711731212
 10
146.4403027956151
 20
184.8848711731212
 10
139.440302795615
 20
184.8848711731212
 10
135.1403027956148
 20
177.2848711731212
 10
129.6806467512279
 20
177.2848711731212
 10
128.5594861943511
 20
177.9328080805577
 10
126.0699087688251
 20
177.9328080805577
 10
124.9487482119482
 20
177.2848711731212
 10
119.540302795615
 20
177.2848711731212
 10
115.1880160496728
 20
184.8848711731212
 10
108.2403027956149
 20
184.8848711731212
 10
103.9403027956149
 20
177.2848711731212
 10
98.48064675122781
 20
177.2848711731212
 10
97.35948619435098
 20
177.9328080805577
 10
94.86990876882496
 20
177.9328080805577
 10
93.74874821194811
 20
177.2848711731212
 10
88.34030279561489
 20
177.2848711731212
 10
84.04030279561492
 20
184.8848711731212
 10
77.0403027956148
 20
184.8848711731212
 10
72.74030279561484
 20
177.2848711731212
 10
67.28064675122769
 20
177.2848711731212
 10
66.15948619435086
 20
177.9328080805577
 10
63.66990876882483
 20
177.9328080805577
 10
62.548748211948
 20
177.2848711731212
 10
57.14030279561477
 20
177.2848711731212
 10
52.8403027956148
 20
184.8848711731212
 10
45.84030279561468
 20
184.8848711731212
 10
41.54030279561471
 20
177.2848711731212
 10
36.08064675122758
 20
177.2848711731212
 10
34.95948619435075
 20
177.9328080805577
 10
32.46990876882472
 20
177.9328080805577
 10
31.34874821194789
 20
177.2848711731212
 10
25.94030279561466
 20
177.2848711731212
 10
21.64030279561469
 20
184.8848711731212
 10
14.64030279561457
 20
184.8848711731212
 10
12.20274861189852
 20
180.5766358716696
  0
LINE
  5
EB
330
E3
100
AcDbEntity
  8
Doc_ Floor
  6
Continuous
100
AcDbLine
 10
44.86230211736086
 20
192.0012052461851
 30
0.0
 11
45.84030468193739
 21
192.0012052461851
 31
0.0
  0
LINE
  5
EC
330
E3
100
AcDbEntity
  8
Doc_ Floor
  6
Continuous
100
AcDbLine
 10
45.84030468193739
 20
192.0012052461851
 30
0.0
 11
52.84030049721063
 21
192.0012052461851
 31
0.0
  0
LINE
  5
ED
330
E3
100
AcDbEntity
  8
Doc_ Floor
  6
Continuous
100
AcDbLine
 10
46.41765466391588
 20
193.0012046483671
 30
0.0
 11
45.2629546999589
 21
191.0012058440032
 31
0.0
  0
LINE
  5
EE
330
E3
100
AcDbEntity
  8
Doc_ Floor
  6
Continuous
100
AcDbLine
 10
52.26295051523213
 20
191.0012058440032
 30
0.0
 11
53.41765047918911
 21
193.0012046483671
 31
0.0
  0
LINE
  5
EF
330
E3
100
AcDbEntity
  8
Doc_ Floor
  6
Continuous
100
AcDbLine
 10
52.84030049721063
 20
192.0012052461851
 30
0.0
 11
53.81830306178716
 21
192.0012052461851
 31
0.0
  0
LINE
  5
F0
330
E3
100
AcDbEntity
  8
Doc_ Floor
  6
Continuous
100
AcDbLine
 10
45.84030468193739
 20
190.5012085359539
 30
0.0
 11
45.84030468193739
 21
193.5012067424995
 31
0.0
  0
LINE
  5
F1
330
E3
100
AcDbEntity
  8
Doc_ Floor
  6
Continuous
100
AcDbLine
 10
52.84030049721063
 20
190.5012085359539
 30
0.0
 11
52.84030049721063
 21
193.5012067424995
 31
0.0
  0
MTEXT
  5
F3
330
E3
100
AcDbEntity
  8
Doc_ Floor
  6
Continuous
100
AcDbMText
 10
44.43145868664522
 20
192.5012069989056
 30
0.0
 40
2.5
 41
0.0
 71
     7
 72
     1
  1
{35MM}
  7
GENERATED_STYLE_4
 73
     1
 44
1.0
  0
LINE
  5
F4
330
E3
100
AcDbEntity
  8
Doc_ Floor
  6
Continuous
100
AcDbLine
 10
71.76230470177758
 20
192.0012052461851
 30
0.0
 11
72.74030248027107
 21
192.0012052461851
 31
0.0
  0
LINE
  5
F5
330
E3
100
AcDbEntity
  8
Doc_ Floor
  6
Continuous
100
AcDbLine
 10
72.74030248027107
 20
192.0012052461851
 30
0.0
 11
88.34030081204145
 21
192.0012052461851
 31
0.0
  0
LINE
  5
F6
330
E3
100
AcDbEntity
  8
Doc_ Floor
  6
Continuous
100
AcDbLine
 10
73.31765246224957
 20
193.0012046483671
 30
0.0
 11
72.1629524982926
 21
191.0012058440032
 31
0.0
  0
LINE
  5
F7
330
E3
100
AcDbEntity
  8
Doc_ Floor
  6
Continuous
100
AcDbLine
 10
87.76295083006295
 20
191.0012058440032
 30
0.0
 11
88.91765079401992
 21
193.0012046483671
 31
0.0
  0
LINE
  5
F8
330
E3
100
AcDbEntity
  8
Doc_ Floor
  6
Continuous
100
AcDbLine
 10
88.34030081204145
 20
192.0012052461851
 30
0.0
 11
89.31830337661796
 21
192.0012052461851
 31
0.0
  0
LINE
  5
F9
330
E3
100
AcDbEntity
  8
Doc_ Floor
  6
Continuous
100
AcDbLine
 10
72.74030248027107
 20
190.5012085359539
 30
0.0
 11
72.74030248027107
 21
193.5012067424995
 31
0.0
  0
LINE
  5
FA
330
E3
100
AcDbEntity
  8
Doc_ Floor
  6
Continuous
100
AcDbLine
 10
88.34030081204145
 20
190.5012085359539
 30
0.0
 11
88.34030081204145
 21
193.5012067424995
 31
0.0
  0
MTEXT
  5
FB
330
E3
100
AcDbEntity
  8
Doc_ Floor
  6
Continuous
100
AcDbMText
 10
75.78601507588823
 20
192.5012069728285
 30
0.0
 40
2.5
 41
0.0
 71
     7
 72
     1
  1
{78MM}
  7
GENERATED_STYLE_4
 73
     1
 44
1.0
  0
LINE
  5
FC
330
E3
100
AcDbEntity
  8
Doc_ Floor
  6
Continuous
100
AcDbLine
 10
110.9504797437726
 20
192.0012052461851
 30
0.0
 11
111.9284823083492
 21
192.0012052461851
 31
0.0
  0
LINE
  5
FD
330
E3
100
AcDbEntity
  8
Doc_ Floor
  6
Continuous
100
AcDbLine
 10
111.9284823083492
 20
192.0012052461851
 30
0.0
 11
143.5838891304329
 21
192.0012052461851
 31
0.0
  0
LINE
  5
FE
330
E3
100
AcDbEntity
  8
Doc_ Floor
  6
Continuous
100
AcDbLine
 10
112.5058322903277
 20
193.0012046483671
 30
0.0
 11
111.3511323263707
 21
191.0012058440032
 31
0.0
  0
LINE
  5
FF
330
E3
100
AcDbEntity
  8
Doc_ Floor
  6
Continuous
100
AcDbLine
 10
143.0065391484544
 20
191.0012058440032
 30
0.0
 11
144.1612391124114
 21
193.0012046483671
 31
0.0
  0
LINE
  5
100
330
E3
100
AcDbEntity
  8
Doc_ Floor
  6
Continuous
100
AcDbLine
 10
143.5838891304329
 20
192.0012052461851
 30
0.0
 11
144.5618916950095
 21
192.0012052461851
 31
0.0
  0
LINE
  5
101
330
E3
100
AcDbEntity
  8
Doc_ Floor
  6
Continuous
100
AcDbLine
 10
111.9284823083492
 20
190.5012085359539
 30
0.0
 11
111.9284823083492
 21
193.5012067424995
 31
0.0
  0
LINE
  5
102
330
E3
100
AcDbEntity
  8
Doc_ Floor
  6
Continuous
100
AcDbLine
 10
143.5838891304329
 20
190.5012085359539
 30
0.0
 11
143.5838891304329
 21
193.5012067424995
 31
0.0
  0
MTEXT
  5
103
330
E3
100
AcDbEntity
  8
Doc_ Floor
  6
Continuous
100
AcDbMText
 10
122.0533237009143
 20
192.5012069728285
 30
0.0
 40
2.5
 41
0.0
 71
     7
 72
     1
  1
{150MM}
  7
GENERATED_STYLE_4
 73
     1
 44
1.0
  0
LINE
  5
104
330
E3
100
AcDbEntity
  8
Doc_ Floor
  6
Continuous
100
AcDbLine
 10
149.7623011467124
 20
192.0012052461851
 30
0.0
 11
150.740303711289
 21
192.0012052461851
 31
0.0
  0
LINE
  5
105
330
E3
100
AcDbEntity
  8
Doc_ Floor
  6
Continuous
100
AcDbLine
 10
150.740303711289
 20
192.0012052461851
 30
0.0
 11
166.3403020430593
 21
192.0012052461851
 31
0.0
  0
LINE
  5
106
330
E3
100
AcDbEntity
  8
Doc_ Floor
  6
Continuous
100
AcDbLine
 10
151.3176536932675
 20
193.0012046483671
 30
0.0
 11
150.1629537293105
 21
191.0012058440032
 31
0.0
  0
LINE
  5
107
330
E3
100
AcDbEntity
  8
Doc_ Floor
  6
Continuous
100
AcDbLine
 10
165.7629520610808
 20
191.0012058440032
 30
0.0
 11
166.9176520250378
 21
193.0012046483671
 31
0.0
  0
LINE
  5
108
330
E3
100
AcDbEntity
  8
Doc_ Floor
  6
Continuous
100
AcDbLine
 10
166.3403020430593
 20
192.0012052461851
 30
0.0
 11
167.3183046076359
 21
192.0012052461851
 31
0.0
  0
LINE
  5
109
330
E3
100
AcDbEntity
  8
Doc_ Floor
  6
Continuous
100
AcDbLine
 10
150.740303711289
 20
190.5012085359539
 30
0.0
 11
150.740303711289
 21
193.5012067424995
 31
0.0
  0
LINE
  5
10A
330
E3
100
AcDbEntity
  8
Doc_ Floor
  6
Continuous
100
AcDbLine
 10
166.3403020430593
 20
190.5012085359539
 30
0.0
 11
166.3403020430593
 21
193.5012067424995
 31
0.0
  0
MTEXT
  5
10B
330
E3
100
AcDbEntity
  8
Doc_ Floor
  6
Continuous
100
AcDbMText
 10
153.7860150758885
 20
192.5012069728285
 30
0.0
 40
2.5
 41
0.0
 71
     7
 72
     1
  1
{78MM}
  7
GENERATED_STYLE_4
 73
     1
 44
1.0
  0
LINE
  5
10C
330
E3
100
AcDbEntity
  8
Doc_ Floor
  6
Continuous
100
AcDbLine
 10
215.5599348167118
 20
176.3068732178957
 30
0.0
 11
215.5599348167118
 21
177.2848709963892
 31
0.0
  0
LINE
  5
10D
330
E3
100
AcDbEntity
  8
Doc_ Floor
  6
Continuous
100
AcDbLine
 10
215.5599348167118
 20
177.2848709963892
 30
0.0
 11
215.5599348167118
 21
184.8848693246213
 31
0.0
  0
LINE
  5
10E
330
E3
100
AcDbEntity
  8
Doc_ Floor
  6
Continuous
100
AcDbLine
 10
214.5599354145299
 20
177.8622209783676
 30
0.0
 11
216.5599342188937
 21
176.7075210144107
 31
0.0
  0
LINE
  5
10F
330
E3
100
AcDbEntity
  8
Doc_ Floor
  6
Continuous
100
AcDbLine
 10
216.5599342188937
 20
184.3075193426429
 30
0.0
 11
214.5599354145299
 21
185.4622193065998
 31
0.0
  0
LINE
  5
110
330
E3
100
AcDbEntity
  8
Doc_ Floor
  6
Continuous
100
AcDbLine
 10
215.5599348167118
 20
184.8848693246213
 30
0.0
 11
215.5599348167118
 21
185.8628718891979
 31
0.0
  0
LINE
  5
111
330
E3
100
AcDbEntity
  8
Doc_ Floor
  6
Continuous
100
AcDbLine
 10
217.0599315269431
 20
177.2848709963892
 30
0.0
 11
214.0599333203975
 21
177.2848709963892
 31
0.0
  0
LINE
  5
112
330
E3
100
AcDbEntity
  8
Doc_ Floor
  6
Continuous
100
AcDbLine
 10
217.0599315269431
 20
184.8848693246213
 30
0.0
 11
214.0599333203975
 21
184.8848693246213
 31
0.0
  0
MTEXT
  5
113
330
E3
100
AcDbEntity
  8
Doc_ Floor
  6
Continuous
100
AcDbMText
 10
216.3995713231337
 20
179.8190239290505
 30
0.0
 40
2.5
 41
0.0
 71
     7
 72
     1
  1
{38MM}
  7
GENERATED_STYLE_4
 73
     1
 44
1.0
  0
WIPEOUT
  5
114
330
E3
100
AcDbEntity
  8
Doc_ Floor
  6
Wipeout_Contour
 62
   254
 48
817.8288858378662
370
     0
 92
      296
310
28010000060000000C0000000E000000120000000C00000016000000000000C20C00000014000000010000006C000000070000000400000020F56FFC1EA52940EBC56F584D9F64400000000000000000847A809A4B156540EBC56F584D9F64400000000000000000847A809A4B156540F58059885CBE654000000000000000
310
0020F56FFC1EA52940F58059885CBE654000000000000000000C0000000E000000FE00000084000000060000000500000020F56FFC1EA52940EBC56F584D9F64400000000000000000847A809A4B156540EBC56F584D9F64400000000000000000847A809A4B156540F58059885CBE6540000000000000000020F56FFC1EA5
310
2940F58059885CBE6540000000000000000020F56FFC1EA52940EBC56F584D9F64400000000000000000
100
AcDbWipeout
 90
        0
 10
12.82250203005475
 20
164.9781915839261
 30
0.0
 11
155.8429769156151
 21
0.0
 31
0.0
 12
0.0
 22
8.970603901391144
 32
0.0
 13
1.0
 23
1.0
340
0
 70
    15
280
     1
281
    50
282
    50
283
     0
360
0
 71
     2
 91
        5
 14
-0.5
 24
0.5
 14
0.5
 24
0.5
 14
0.5
 24
-0.5
 14
-0.5
 24
-0.5
 14
-0.5
 24
0.5
  0
MTEXT
  5
115
102
{ACAD_XDICTIONARY
360
150
102
}
330
E3
100
AcDbEntity
  8
Doc_ Floor
  6
Continuous
100
AcDbMText
 10
12.82250203005475
 20
173.0187954853172
 30
0.0
 40
2.499999999999999
 41
155.8429769156151
 71
     1
 72
     1
  3
\A1;{\fCentury Gothic|b0|i0|c0|p34;THICKNESS             END SPAN             INTERNAL SPAN               MINIMUM PITCH\P\fArial|b0|i0|c0|p34;\H1.029412x;0.55MM                 2.30M                    3.20M\fCentury Gothic|b0|i0|c0|p34;\H0.971429x;
  1
3\fArial|b0|i0|c0|p34;\H1.029412x;\U+00B0}
  7
GENERATED_STYLE_1
 73
     1
 44
1.056355725756043
  0
ENDBLK
  5
E5
330
E3
100
AcDbEntity
  8
0
100
AcDbBlockEnd
  0
BLOCK
  5
11F
330
11E
100
AcDbEntity
  8
0
100
AcDbBlockBegin
  2
C-TRS9-00 PRODUCT TECHNICAL DAT_STORY_MARKER
 70
     0
 10
0.0
 20
0.0
 30
0.0
  3
C-TRS9-00 PRODUCT TECHNICAL DAT_STORY_MARKER
  1

  0
ENDBLK
  5
120
330
11E
100
AcDbEntity
  8
0
100
AcDbBlockEnd
  0
ENDSEC
  0
SECTION
  2
ENTITIES
  0
HATCH
  5
3F
330
1F
100
AcDbEntity
  8
Doc_ Finishes
  6
Continuous
100
AcDbHatch
 10
0.0
 20
0.0
 30
0.0
210
0.0
220
0.0
230
1.0
  2
SOLID
 70
     1
 71
     0
 91
        1
 92
        3
 72
     0
 73
     1
 93
       54
 10
25.4117749414874
 20
16.87044408857867
 10
24.89356552397386
 20
16.5825499677378
 10
24.5480925789648
 20
16.29465584689693
 10
24.12584786839818
 20
16.02595466744544
 10
23.76118198199976
 20
15.60370995687884
 10
23.39651609560134
 20
15.33500877742737
 10
23.07023609198168
 20
14.89357112547136
 10
22.49444785029994
 20
14.45213347351537
 10
21.93785255000758
 20
14.02988876294876
 10
21.43883607388343
 20
13.81876640766546
 10
20.74789018386533
 20
13.39652169709885
 10
20.09533017662603
 20
12.99346992792163
 10
19.63469958328064
 20
12.55203227596564
 10
18.90536781048376
 20
12.12978756539902
 10
18.59828074825351
 20
11.7459287376112
 10
18.04168544796116
 20
11.28529814426581
 10
17.36993249933246
 20
10.8630534336992
 10
16.73656543348255
 20
10.42161578174319
 10
16.04561954346446
 20
10.15291460229172
 10
15.1051654153843
 20
9.692284008946325
 10
14.39502658397681
 20
9.020531060317637
 10
13.83843128368446
 20
8.598286349751023
 10
13.12829245227699
 20
8.137655756405634
 10
12.84039833143612
 20
7.98411222529051
 10
12.37976773809073
 20
7.81137575278599
 10
12.07268067586046
 20
7.523481631945121
 10
12.0151018516923
 20
7.216394569714853
 10
12.14945244141803
 20
6.890114566095209
 10
12.4373465622589
 20
6.563834562475543
 10
12.8787842142149
 20
6.659799269422514
 10
13.51215128006482
 20
7.06285103859973
 10
14.01116775618899
 20
7.389131042219374
 10
14.33744775980864
 20
7.696218104449641
 10
14.51018423231316
 20
7.907340459732938
 10
15.01303929671522
 20
8.421711288968723
 10
15.33548071205699
 20
8.652026585641417
 10
15.75004824606785
 20
8.99749953065046
 10
16.14158425041142
 20
9.204783297655894
 10
17.24709767444037
 20
9.75754000967037
 10
18.23745345013295
 20
10.47151742935572
 10
19.4120614631637
 20
11.1624633193738
 10
19.84966052684182
 20
11.64612544238645
 10
20.49454335752537
 20
12.06069297639732
 10
21.78430901889248
 20
12.9819541630881
 10
22.36009726057419
 20
13.25833251909534
 10
23.6498629219413
 20
14.24868829478776
 10
23.85714668894673
 20
14.64022429913134
 10
24.68628175696843
 20
15.23904407048036
 10
25.28510152831745
 20
15.72270619349301
 10
25.81482671066464
 20
16.1142421978366
 10
26.27545730401003
 20
16.52880973184745
 10
26.22939424467549
 20
16.7821565581874
 10
26.09120506667188
 20
16.89731420652375
 10
25.56147988432467
 20
16.89731420652375
 97
        0
 75
     0
 76
     1
 98
        0
  0
LINE
  5
41
330
1F
100
AcDbEntity
  8
Doc_ Finishes
  6
Continuous
100
AcDbLine
 10
25.41177616050354
 20
16.87044600708104
 30
0.0
 11
24.89356363099921
 21
16.58254868214004
 31
0.0
  0
LINE
  5
42
330
1F
100
AcDbEntity
  8
Doc_ Finishes
  6
Continuous
100
AcDbLine
 10
24.89356363099921
 20
16.58254868214004
 30
0.0
 11
24.54809303697876
 21
16.29465578284815
 31
0.0
  0
LINE
  5
43
330
1F
100
AcDbEntity
  8
Doc_ Finishes
  6
Continuous
100
AcDbLine
 10
24.54809303697876
 20
16.29465578284815
 30
0.0
 11
24.12584628245476
 21
16.02595249803305
 31
0.0
  0
LINE
  5
44
330
1F
100
AcDbEntity
  8
Doc_ Finishes
  6
Continuous
100
AcDbLine
 10
24.12584628245476
 20
16.02595249803305
 30
0.0
 11
23.76118164830842
 21
15.60371016915814
 31
0.0
  0
LINE
  5
45
330
1F
100
AcDbEntity
  8
Doc_ Finishes
  6
Continuous
100
AcDbLine
 10
23.76118164830842
 20
15.60371016915814
 30
0.0
 11
23.39651701416208
 21
15.33500688434304
 31
0.0
  0
LINE
  5
46
330
1F
100
AcDbEntity
  8
Doc_ Finishes
  6
Continuous
100
AcDbLine
 10
23.39651701416208
 20
15.33500688434304
 30
0.0
 11
23.07023603461841
 21
14.89357051534225
 31
0.0
  0
LINE
  5
47
330
1F
100
AcDbEntity
  8
Doc_ Finishes
  6
Continuous
100
AcDbLine
 10
23.07023603461841
 20
14.89357051534225
 30
0.0
 11
22.49444581038552
 21
14.45213414634146
 31
0.0
  0
LINE
  5
48
330
1F
100
AcDbEntity
  8
Doc_ Finishes
  6
Continuous
100
AcDbLine
 10
22.49444581038552
 20
14.45213414634146
 30
0.0
 11
21.93785405192762
 21
14.02988739181747
 31
0.0
  0
LINE
  5
49
330
1F
100
AcDbEntity
  8
Doc_ Finishes
  6
Continuous
100
AcDbLine
 10
21.93785405192762
 20
14.02988739181747
 30
0.0
 11
21.43883556254917
 21
13.81876622738001
 31
0.0
  0
LINE
  5
4A
330
1F
100
AcDbEntity
  8
Doc_ Finishes
  6
Continuous
100
AcDbLine
 10
21.43883556254917
 20
13.81876622738001
 30
0.0
 11
20.74788994885916
 21
13.39652389850511
 31
0.0
  0
LINE
  5
4B
330
1F
100
AcDbEntity
  8
Doc_ Finishes
  6
Continuous
100
AcDbLine
 10
20.74788994885916
 20
13.39652389850511
 30
0.0
 11
20.09532798977183
 21
12.993471184107
 31
0.0
  0
LINE
  5
4C
330
1F
100
AcDbEntity
  8
Doc_ Finishes
  6
Continuous
100
AcDbLine
 10
20.09532798977183
 20
12.993471184107
 30
0.0
 11
19.63469758064516
 21
12.55203038945712
 31
0.0
  0
LINE
  5
4D
330
1F
100
AcDbEntity
  8
Doc_ Finishes
  6
Continuous
100
AcDbLine
 10
19.63469758064516
 20
12.55203038945712
 30
0.0
 11
18.90536831235248
 21
12.12978806058222
 31
0.0
  0
LINE
  5
4E
330
1F
100
AcDbEntity
  8
Doc_ Finishes
  6
Continuous
100
AcDbLine
 10
18.90536831235248
 20
12.12978806058222
 30
0.0
 11
18.5982813729347
 21
11.74592938630999
 31
0.0
  0
LINE
  5
4F
330
1F
100
AcDbEntity
  8
Doc_ Finishes
  6
Continuous
100
AcDbLine
 10
18.5982813729347
 20
11.74592938630999
 30
0.0
 11
18.0416851888277
 21
11.28529897718332
 31
0.0
  0
LINE
  5
50
330
1F
100
AcDbEntity
  8
Doc_ Finishes
  6
Continuous
100
AcDbLine
 10
18.0416851888277
 20
11.28529897718332
 30
0.0
 11
17.36993361526357
 21
10.86305222265932
 31
0.0
  0
LINE
  5
51
330
1F
100
AcDbEntity
  8
Doc_ Finishes
  6
Continuous
100
AcDbLine
 10
17.36993361526357
 20
10.86305222265932
 30
0.0
 11
16.73656569630212
 21
10.42161585365854
 31
0.0
  0
LINE
  5
52
330
1F
100
AcDbEntity
  8
Doc_ Finishes
  6
Continuous
100
AcDbLine
 10
16.73656569630212
 20
10.42161585365854
 30
0.0
 11
16.04562008261211
 21
10.15291256884343
 31
0.0
  0
LINE
  5
53
330
1F
100
AcDbEntity
  8
Doc_ Finishes
  6
Continuous
100
AcDbLine
 10
16.04562008261211
 20
10.15291256884343
 30
0.0
 11
15.10516522423289
 21
9.692282159716758
 31
0.0
  0
LINE
  5
54
330
1F
100
AcDbEntity
  8
Doc_ Finishes
  6
Continuous
100
AcDbLine
 10
15.10516522423289
 20
9.692282159716758
 30
0.0
 11
14.39502557041699
 21
9.020530586152635
 31
0.0
  0
LINE
  5
55
330
1F
100
AcDbEntity
  8
Doc_ Finishes
  6
Continuous
100
AcDbLine
 10
14.39502557041699
 20
9.020530586152635
 30
0.0
 11
13.83842938630999
 21
8.598288257277733
 31
0.0
  0
LINE
  5
56
330
1F
100
AcDbEntity
  8
Doc_ Finishes
  6
Continuous
100
AcDbLine
 10
13.83842938630999
 20
8.598288257277733
 30
0.0
 11
13.12829415814319
 21
8.137657848151063
 31
0.0
  0
LINE
  5
57
330
1F
100
AcDbEntity
  8
Doc_ Finishes
  6
Continuous
100
AcDbLine
 10
13.12829415814319
 20
8.137657848151063
 30
0.0
 11
12.8403968332022
 21
7.984114378442171
 31
0.0
  0
LINE
  5
58
330
1F
100
AcDbEntity
  8
Doc_ Finishes
  6
Continuous
100
AcDbLine
 10
12.8403968332022
 20
7.984114378442171
 30
0.0
 11
12.37976642407553
 21
7.811376868607396
 31
0.0
  0
LINE
  5
59
330
1F
100
AcDbEntity
  8
Doc_ Finishes
  6
Continuous
100
AcDbLine
 10
12.37976642407553
 20
7.811376868607396
 30
0.0
 11
12.07267948465775
 21
7.523479543666405
 31
0.0
  0
LINE
  5
5A
330
1F
100
AcDbEntity
  8
Doc_ Finishes
  6
Continuous
100
AcDbLine
 10
12.07267948465775
 20
7.523479543666405
 30
0.0
 11
12.01510178992919
 21
7.216392604248622
 31
0.0
  0
LINE
  5
5B
330
1F
100
AcDbEntity
  8
Doc_ Finishes
  6
Continuous
100
AcDbLine
 10
12.01510178992919
 20
7.216392604248622
 30
0.0
 11
12.1494512195122
 21
6.890116050354051
 31
0.0
  0
LINE
  5
5C
330
1F
100
AcDbEntity
  8
Doc_ Finishes
  6
Continuous
100
AcDbLine
 10
12.1494512195122
 20
6.890116050354051
 30
0.0
 11
12.43734854445319
 21
6.563835070810386
 31
0.0
  0
LINE
  5
5D
330
1F
100
AcDbEntity
  8
Doc_ Finishes
  6
Continuous
100
AcDbLine
 10
12.43734854445319
 20
6.563835070810386
 30
0.0
 11
12.87878491345397
 21
6.659800845790715
 31
0.0
  0
LINE
  5
5E
330
1F
100
AcDbEntity
  8
Doc_ Finishes
  6
Continuous
100
AcDbLine
 10
12.87878491345397
 20
6.659800845790715
 30
0.0
 11
13.51215283241542
 21
7.062849134539732
 31
0.0
  0
LINE
  5
5F
330
1F
100
AcDbEntity
  8
Doc_ Finishes
  6
Continuous
100
AcDbLine
 10
13.51215283241542
 20
7.062849134539732
 30
0.0
 11
14.01116689614477
 21
7.389130114083398
 31
0.0
  0
LINE
  5
60
330
1F
100
AcDbEntity
  8
Doc_ Finishes
  6
Continuous
100
AcDbLine
 10
14.01116689614477
 20
7.389130114083398
 30
0.0
 11
14.33744787568843
 21
7.69621705350118
 31
0.0
  0
LINE
  5
61
330
1F
100
AcDbEntity
  8
Doc_ Finishes
  6
Continuous
100
AcDbLine
 10
14.33744787568843
 20
7.69621705350118
 30
0.0
 11
14.51018538552321
 21
7.907342643587726
 31
0.0
  0
LINE
  5
62
330
1F
100
AcDbEntity
  8
Doc_ Finishes
  6
Continuous
100
AcDbLine
 10
14.51018538552321
 20
7.907342643587726
 30
0.0
 11
15.01304091266719
 21
8.421709284028323
 31
0.0
  0
LINE
  5
63
330
1F
100
AcDbEntity
  8
Doc_ Finishes
  6
Continuous
100
AcDbLine
 10
15.01304091266719
 20
8.421709284028323
 30
0.0
 11
15.33548042879622
 21
8.65202448859166
 31
0.0
  0
LINE
  5
64
330
1F
100
AcDbEntity
  8
Doc_ Finishes
  6
Continuous
100
AcDbLine
 10
15.33548042879622
 20
8.65202448859166
 30
0.0
 11
15.75004868214005
 21
8.997499508261212
 31
0.0
  0
LINE
  5
65
330
1F
100
AcDbEntity
  8
Doc_ Finishes
  6
Continuous
100
AcDbLine
 10
15.75004868214005
 20
8.997499508261212
 30
0.0
 11
16.14158585759245
 21
9.204783634933122
 31
0.0
  0
LINE
  5
66
330
1F
100
AcDbEntity
  8
Doc_ Finishes
  6
Continuous
100
AcDbLine
 10
16.14158585759245
 20
9.204783634933122
 30
0.0
 11
17.24709972462628
 21
9.75753835562549
 31
0.0
  0
LINE
  5
67
330
1F
100
AcDbEntity
  8
Doc_ Finishes
  6
Continuous
100
AcDbLine
 10
17.24709972462628
 20
9.75753835562549
 30
0.0
 11
18.2374537765539
 21
10.47151947285602
 31
0.0
  0
LINE
  5
68
330
1F
100
AcDbEntity
  8
Doc_ Finishes
  6
Continuous
100
AcDbLine
 10
18.2374537765539
 20
10.47151947285602
 30
0.0
 11
19.41206087726199
 21
11.16246508654602
 31
0.0
  0
LINE
  5
69
330
1F
100
AcDbEntity
  8
Doc_ Finishes
  6
Continuous
100
AcDbLine
 10
19.41206087726199
 20
11.16246508654602
 30
0.0
 11
19.84966020849724
 21
11.64612657356412
 31
0.0
  0
LINE
  5
6A
330
1F
100
AcDbEntity
  8
Doc_ Finishes
  6
Continuous
100
AcDbLine
 10
19.84966020849724
 20
11.64612657356412
 30
0.0
 11
20.4945436664044
 21
12.06069482690795
 31
0.0
  0
LINE
  5
6B
330
1F
100
AcDbEntity
  8
Doc_ Finishes
  6
Continuous
100
AcDbLine
 10
20.4945436664044
 20
12.06069482690795
 30
0.0
 11
21.78431058221873
 21
12.98195564516129
 31
0.0
  0
LINE
  5
6C
330
1F
100
AcDbEntity
  8
Doc_ Finishes
  6
Continuous
100
AcDbLine
 10
21.78431058221873
 20
12.98195564516129
 30
0.0
 11
22.36009638080252
 21
13.25833300550747
 31
0.0
  0
LINE
  5
6D
330
1F
100
AcDbEntity
  8
Doc_ Finishes
  6
Continuous
100
AcDbLine
 10
22.36009638080252
 20
13.25833300550747
 30
0.0
 11
23.64986329661684
 21
14.24868705743509
 31
0.0
  0
LINE
  5
6E
330
1F
100
AcDbEntity
  8
Doc_ Finishes
  6
Continuous
100
AcDbLine
 10
23.64986329661684
 20
14.24868705743509
 30
0.0
 11
23.85714742328875
 21
14.64022423288749
 31
0.0
  0
LINE
  5
6F
330
1F
100
AcDbEntity
  8
Doc_ Finishes
  6
Continuous
100
AcDbLine
 10
23.85714742328875
 20
14.64022423288749
 30
0.0
 11
24.68628392997639
 21
15.2390455350118
 31
0.0
  0
LINE
  5
70
330
1F
100
AcDbEntity
  8
Doc_ Finishes
  6
Continuous
100
AcDbLine
 10
24.68628392997639
 20
15.2390455350118
 30
0.0
 11
25.28510080645161
 21
15.7227070220299
 31
0.0
  0
LINE
  5
71
330
1F
100
AcDbEntity
  8
Doc_ Finishes
  6
Continuous
100
AcDbLine
 10
25.28510080645161
 20
15.7227070220299
 30
0.0
 11
25.81482887490165
 21
16.1142441974823
 31
0.0
  0
LINE
  5
72
330
1F
100
AcDbEntity
  8
Doc_ Finishes
  6
Continuous
100
AcDbLine
 10
25.81482887490165
 20
16.1142441974823
 30
0.0
 11
26.27545928402832
 21
16.52880802517702
 31
0.0
  0
LINE
  5
73
330
1F
100
AcDbEntity
  8
Doc_ Finishes
  6
Continuous
100
AcDbLine
 10
26.27545928402832
 20
16.52880802517702
 30
0.0
 11
26.22939270259638
 21
16.78215873328088
 31
0.0
  0
LINE
  5
74
330
1F
100
AcDbEntity
  8
Doc_ Finishes
  6
Continuous
100
AcDbLine
 10
26.22939270259638
 20
16.78215873328088
 30
0.0
 11
26.09120623524784
 21
16.897314122738
 31
0.0
  0
LINE
  5
75
330
1F
100
AcDbEntity
  8
Doc_ Finishes
  6
Continuous
100
AcDbLine
 10
26.09120623524784
 20
16.897314122738
 30
0.0
 11
25.56147816679779
 21
16.897314122738
 31
0.0
  0
LINE
  5
76
330
1F
100
AcDbEntity
  8
Doc_ Finishes
  6
Continuous
100
AcDbLine
 10
25.56147816679779
 20
16.897314122738
 30
0.0
 11
25.41177616050354
 21
16.87044600708104
 31
0.0
  0
HATCH
  5
77
330
1F
100
AcDbEntity
  8
Doc_ Finishes
  6
Continuous
100
AcDbHatch
 10
0.0
 20
0.0
 30
0.0
210
0.0
220
0.0
230
1.0
  2
SOLID
 70
     1
 71
     0
 91
        1
 92
        3
 72
     0
 73
     1
 93
       39
 10
25.65360600299377
 20
13.12014334109181
 10
25.21600693931564
 20
12.77467039608275
 10
24.54809257896482
 20
12.24494521373555
 10
23.92624127794851
 20
11.85340920939199
 10
23.32742150659951
 20
11.32368402704478
 10
22.72860173525051
 20
11.04730567103754
 10
22.08371890456697
 20
10.56364354802488
 10
21.62308831122158
 20
10.33332825135219
 10
21.231552306878
 20
10.03391836567767
 10
20.81698477286715
 20
9.619350831666825
 10
20.4024172388563
 20
9.38903553499415
 10
19.91875511584363
 20
9.043562589985086
 10
19.66540828950367
 20
8.859310352646935
 10
19.25084075549282
 20
8.582931996639696
 10
18.09926427212933
 20
7.753796928618002
 10
17.75379132712029
 20
7.477418572610764
 10
17.2931607337749
 20
7.316197864939873
 10
17.22406614477309
 20
6.993756449598113
 10
17.3622553227767
 20
6.717378093590874
 10
17.63863367878394
 20
6.602220445254527
 10
18.00713815346025
 20
6.8325357419272
 10
18.26048497980021
 20
7.131945627601722
 10
18.55989486547472
 20
7.362260924274415
 10
19.31993534449462
 20
7.707733869283458
 10
19.84966052684182
 20
8.122301403294307
 10
20.88607936186895
 20
8.882341882314256
 10
21.20852077721072
 20
9.342972475659646
 10
22.01462431556515
 20
9.734508480003234
 10
22.5673810275796
 20
10.05694989534501
 10
23.46561068460312
 20
10.60970660735953
 10
23.88017821861399
 20
11.07033720070492
 10
24.31777728229212
 20
11.34671555671216
 10
24.70931328663568
 20
11.30065249737762
 10
25.21600693931562
 20
11.55399932371759
 10
26.0681735370046
 20
12.17585062473387
 10
26.41364648201364
 20
12.49829204007566
 10
26.39061495234636
 20
12.77467039608289
 10
26.22939424467547
 20
13.00498569275559
 10
26.04514200733731
 20
13.05104875209013
 97
        0
 75
     0
 76
     1
 98
        0
  0
LINE
  5
78
330
1F
100
AcDbEntity
  8
Doc_ Finishes
  6
Continuous
100
AcDbLine
 10
25.65360690401259
 20
13.12014211250983
 30
0.0
 11
25.21600757277734
 21
12.77467151848938
 31
0.0
  0
LINE
  5
79
330
1F
100
AcDbEntity
  8
Doc_ Finishes
  6
Continuous
100
AcDbLine
 10
25.21600757277734
 20
12.77467151848938
 30
0.0
 11
24.54809303697876
 21
12.24494345003934
 31
0.0
  0
LINE
  5
7A
330
1F
100
AcDbEntity
  8
Doc_ Finishes
  6
Continuous
100
AcDbLine
 10
24.54809303697876
 20
12.24494345003934
 30
0.0
 11
23.92624065696302
 21
11.85341070023603
 31
0.0
  0
LINE
  5
7B
330
1F
100
AcDbEntity
  8
Doc_ Finishes
  6
Continuous
100
AcDbLine
 10
23.92624065696302
 20
11.85341070023603
 30
0.0
 11
23.32741935483871
 21
11.32368263178599
 31
0.0
  0
LINE
  5
7C
330
1F
100
AcDbEntity
  8
Doc_ Finishes
  6
Continuous
100
AcDbLine
 10
23.32741935483871
 20
11.32368263178599
 30
0.0
 11
22.72860247836349
 21
11.04730527143981
 31
0.0
  0
LINE
  5
7D
330
1F
100
AcDbEntity
  8
Doc_ Finishes
  6
Continuous
100
AcDbLine
 10
22.72860247836349
 20
11.04730527143981
 30
0.0
 11
22.08371902045633
 21
10.56364378442171
 31
0.0
  0
LINE
  5
7E
330
1F
100
AcDbEntity
  8
Doc_ Finishes
  6
Continuous
100
AcDbLine
 10
22.08371902045633
 20
10.56364378442171
 30
0.0
 11
21.62308861132966
 21
10.33332857985838
 31
0.0
  0
LINE
  5
7F
330
1F
100
AcDbEntity
  8
Doc_ Finishes
  6
Continuous
100
AcDbLine
 10
21.62308861132966
 20
10.33332857985838
 30
0.0
 11
21.23155143587726
 21
10.03392014162077
 31
0.0
  0
LINE
  5
80
330
1F
100
AcDbEntity
  8
Doc_ Finishes
  6
Continuous
100
AcDbLine
 10
21.23155143587726
 20
10.03392014162077
 30
0.0
 11
20.81698318253344
 21
9.619351888276947
 31
0.0
  0
LINE
  5
81
330
1F
100
AcDbEntity
  8
Doc_ Finishes
  6
Continuous
100
AcDbLine
 10
20.81698318253344
 20
9.619351888276947
 30
0.0
 11
20.40241935483871
 21
9.389036683713611
 31
0.0
  0
LINE
  5
82
330
1F
100
AcDbEntity
  8
Doc_ Finishes
  6
Continuous
100
AcDbLine
 10
20.40241935483871
 20
9.389036683713611
 30
0.0
 11
19.91875344217151
 21
9.04356166404406
 31
0.0
  0
LINE
  5
83
330
1F
100
AcDbEntity
  8
Doc_ Finishes
  6
Continuous
100
AcDbLine
 10
19.91875344217151
 20
9.04356166404406
 30
0.0
 11
19.66540715971676
 21
8.859308615263572
 31
0.0
  0
LINE
  5
84
330
1F
100
AcDbEntity
  8
Doc_ Finishes
  6
Continuous
100
AcDbLine
 10
19.66540715971676
 20
8.859308615263572
 30
0.0
 11
19.25083890637293
 21
8.582931254917387
 31
0.0
  0
LINE
  5
85
330
1F
100
AcDbEntity
  8
Doc_ Finishes
  6
Continuous
100
AcDbLine
 10
19.25083890637293
 20
8.582931254917387
 30
0.0
 11
18.09926288355625
 21
7.75379474822974
 31
0.0
  0
LINE
  5
86
330
1F
100
AcDbEntity
  8
Doc_ Finishes
  6
Continuous
100
AcDbLine
 10
18.09926288355625
 20
7.75379474822974
 30
0.0
 11
17.7537922895358
 21
7.477417387883556
 31
0.0
  0
LINE
  5
87
330
1F
100
AcDbEntity
  8
Doc_ Finishes
  6
Continuous
100
AcDbLine
 10
17.7537922895358
 20
7.477417387883556
 30
0.0
 11
17.29316188040913
 21
7.316199842643588
 31
0.0
  0
LINE
  5
88
330
1F
100
AcDbEntity
  8
Doc_ Finishes
  6
Continuous
100
AcDbLine
 10
17.29316188040913
 20
7.316199842643588
 30
0.0
 11
17.22406422108576
 21
6.993755900865461
 31
0.0
  0
LINE
  5
89
330
1F
100
AcDbEntity
  8
Doc_ Finishes
  6
Continuous
100
AcDbLine
 10
17.22406422108576
 20
6.993755900865461
 30
0.0
 11
17.3622551140834
 21
6.717378540519276
 31
0.0
  0
LINE
  5
8A
330
1F
100
AcDbEntity
  8
Doc_ Finishes
  6
Continuous
100
AcDbLine
 10
17.3622551140834
 20
6.717378540519276
 30
0.0
 11
17.63863247442958
 21
6.602218725413059
 31
0.0
  0
LINE
  5
8B
330
1F
100
AcDbEntity
  8
Doc_ Finishes
  6
Continuous
100
AcDbLine
 10
17.63863247442958
 20
6.602218725413059
 30
0.0
 11
18.00713857199056
 21
6.832533929976396
 31
0.0
  0
LINE
  5
8C
330
1F
100
AcDbEntity
  8
Doc_ Finishes
  6
Continuous
100
AcDbLine
 10
18.00713857199056
 20
6.832533929976396
 30
0.0
 11
18.26048485444532
 21
7.1319467938631
 31
0.0
  0
LINE
  5
8D
330
1F
100
AcDbEntity
  8
Doc_ Finishes
  6
Continuous
100
AcDbLine
 10
18.26048485444532
 20
7.1319467938631
 30
0.0
 11
18.55989329268293
 21
7.362261998426435
 31
0.0
  0
LINE
  5
8E
330
1F
100
AcDbEntity
  8
Doc_ Finishes
  6
Continuous
100
AcDbLine
 10
18.55989329268293
 20
7.362261998426435
 30
0.0
 11
19.3199365656963
 21
7.707732592446892
 31
0.0
  0
LINE
  5
8F
330
1F
100
AcDbEntity
  8
Doc_ Finishes
  6
Continuous
100
AcDbLine
 10
19.3199365656963
 20
7.707732592446892
 30
0.0
 11
19.84966020849724
 21
8.122300845790717
 31
0.0
  0
LINE
  5
90
330
1F
100
AcDbEntity
  8
Doc_ Finishes
  6
Continuous
100
AcDbLine
 10
19.84966020849724
 20
8.122300845790717
 30
0.0
 11
20.8860808418568
 21
8.882339693154996
 31
0.0
  0
LINE
  5
91
330
1F
100
AcDbEntity
  8
Doc_ Finishes
  6
Continuous
100
AcDbLine
 10
20.8860808418568
 20
8.882339693154996
 30
0.0
 11
21.20852035798584
 21
9.342974527930762
 31
0.0
  0
LINE
  5
92
330
1F
100
AcDbEntity
  8
Doc_ Finishes
  6
Continuous
100
AcDbLine
 10
21.20852035798584
 20
9.342974527930762
 30
0.0
 11
22.01462578678206
 21
9.734507277734066
 31
0.0
  0
LINE
  5
93
330
1F
100
AcDbEntity
  8
Doc_ Finishes
  6
Continuous
100
AcDbLine
 10
22.01462578678206
 20
9.734507277734066
 30
0.0
 11
22.56738050747443
 21
10.05695121951219
 31
0.0
  0
LINE
  5
94
330
1F
100
AcDbEntity
  8
Doc_ Finishes
  6
Continuous
100
AcDbLine
 10
22.56738050747443
 20
10.05695121951219
 30
0.0
 11
23.46561024783635
 21
10.60970594020456
 31
0.0
  0
LINE
  5
95
330
1F
100
AcDbEntity
  8
Doc_ Finishes
  6
Continuous
100
AcDbLine
 10
23.46561024783635
 20
10.60970594020456
 30
0.0
 11
23.88017850118017
 21
11.07033634933124
 31
0.0
  0
LINE
  5
96
330
1F
100
AcDbEntity
  8
Doc_ Finishes
  6
Continuous
100
AcDbLine
 10
23.88017850118017
 20
11.07033634933124
 30
0.0
 11
24.31777783241542
 21
11.34671370967742
 31
0.0
  0
LINE
  5
97
330
1F
100
AcDbEntity
  8
Doc_ Finishes
  6
Continuous
100
AcDbLine
 10
24.31777783241542
 20
11.34671370967742
 30
0.0
 11
24.70931500786781
 21
11.30065155389457
 31
0.0
  0
LINE
  5
98
330
1F
100
AcDbEntity
  8
Doc_ Finishes
  6
Continuous
100
AcDbLine
 10
24.70931500786781
 20
11.30065155389457
 30
0.0
 11
25.21600757277734
 21
11.55399783634933
 31
0.0
  0
LINE
  5
99
330
1F
100
AcDbEntity
  8
Doc_ Finishes
  6
Continuous
100
AcDbLine
 10
25.21600757277734
 20
11.55399783634933
 30
0.0
 11
26.06817515735641
 21
12.17585021636507
 31
0.0
  0
LINE
  5
9A
330
1F
100
AcDbEntity
  8
Doc_ Finishes
  6
Continuous
100
AcDbLine
 10
26.06817515735641
 20
12.17585021636507
 30
0.0
 11
26.41364575137687
 21
12.49829415814319
 31
0.0
  0
LINE
  5
9B
330
1F
100
AcDbEntity
  8
Doc_ Finishes
  6
Continuous
100
AcDbLine
 10
26.41364575137687
 20
12.49829415814319
 30
0.0
 11
26.39061467348544
 21
12.77467151848938
 31
0.0
  0
LINE
  5
9C
330
1F
100
AcDbEntity
  8
Doc_ Finishes
  6
Continuous
100
AcDbLine
 10
26.39061467348544
 20
12.77467151848938
 30
0.0
 11
26.22939270259638
 21
13.00498672305271
 31
0.0
  0
LINE
  5
9D
330
1F
100
AcDbEntity
  8
Doc_ Finishes
  6
Continuous
100
AcDbLine
 10
26.22939270259638
 20
13.00498672305271
 30
0.0
 11
26.04514407946499
 21
13.05104887883556
 31
0.0
  0
LINE
  5
9E
330
1F
100
AcDbEntity
  8
Doc_ Finishes
  6
Continuous
100
AcDbLine
 10
26.04514407946499
 20
13.05104887883556
 30
0.0
 11
25.65360690401259
 21
13.12014211250983
 31
0.0
  0
HATCH
  5
9F
330
1F
100
AcDbEntity
  8
Doc_ Finishes
  6
Continuous
100
AcDbHatch
 10
0.0
 20
0.0
 30
0.0
210
0.0
220
0.0
230
1.0
  2
SOLID
 70
     1
 71
     0
 91
        1
 92
        3
 72
     0
 73
     1
 93
       47
 10
26.06817353700455
 20
15.74573772316067
 10
26.30309513961077
 20
15.62136746295728
 10
26.4412843176144
 20
15.4002647781515
 10
26.93876535842742
 20
15.17916209334572
 10
27.82317609765057
 20
14.40530269652538
 10
28.9286895216795
 20
13.74199464210799
 10
29.59199757609689
 20
13.3827027792986
 10
30.20002995931278
 20
13.07868658769064
 10
31.55428390374827
 20
12.08372450606458
 10
32.07940278016201
 20
11.69679480765445
 10
32.88090001258301
 20
11.08876242443854
 10
33.59948373820179
 20
10.50836787682334
 10
34.5668079842271
 20
9.817421986805197
 10
35.06428902504011
 20
9.458130123995785
 10
35.81051058625965
 20
8.933011247582023
 10
36.61200781868061
 20
8.407892371168286
 10
36.77783483228498
 20
8.186789686362482
 10
37.38586721550091
 20
7.744584316750918
 10
38.18736444792187
 20
6.915449248729224
 10
38.7953968311378
 20
6.44560604351692
 10
39.56925622795804
 20
6.169227687509681
 10
40.23256428237543
 20
6.086314180707507
 10
40.48130480278193
 20
6.30741686551329
 10
40.14965077557326
 20
6.611433057121246
 10
39.48634272115586
 20
6.998362755531397
 10
38.76775899553708
 20
7.357654618340788
 10
38.18736444792187
 20
8.048600508358874
 10
36.99893751709078
 20
8.822459905179112
 10
36.47381864067705
 20
9.319940945992132
 10
36.22507812027052
 20
9.734508480003
 10
35.174840367443
 20
10.31490302761817
 10
34.73263499783144
 20
10.78474623283046
 10
34.2351539570184
 20
11.17167593124059
 10
33.48893239579888
 20
11.61388130085215
 10
32.85326217698223
 20
12.16663801286669
 10
32.35578113616918
 20
12.58120554687754
 10
31.69247308175183
 20
12.99577308088841
 10
31.22262987653952
 20
13.32742710809708
 10
30.7251488357265
 20
13.5761676285036
 10
29.93747052110587
 20
14.06443605744977
 10
29.43077686842594
 20
14.38687747279155
 10
28.92408321574601
 20
14.70931888813342
 10
28.62467333007151
 20
15.100854892477
 10
27.95675896972068
 20
15.67664313415887
 10
27.47309684670803
 20
15.9530214901661
 10
26.82821401602446
 20
16.36758902417695
 10
26.50577260068269
 20
16.22939984617334
 97
        0
 75
     0
 76
     1
 98
        0
  0
LINE
  5
A0
330
1F
100
AcDbEntity
  8
Doc_ Finishes
  6
Continuous
100
AcDbLine
 10
26.30309303697875
 20
15.62136850904799
 30
0.0
 11
26.06817515735641
 21
15.74573809992132
 31
0.0
  0
LINE
  5
A1
330
1F
100
AcDbEntity
  8
Doc_ Finishes
  6
Continuous
100
AcDbLine
 10
26.4412839299764
 20
15.40026308025177
 30
0.0
 11
26.30309303697875
 21
15.62136850904799
 31
0.0
  0
LINE
  5
A2
330
1F
100
AcDbEntity
  8
Doc_ Finishes
  6
Continuous
100
AcDbLine
 10
26.9387667191188
 20
15.17916207710464
 30
0.0
 11
26.4412839299764
 21
15.40026308025177
 31
0.0
  0
LINE
  5
A3
330
1F
100
AcDbEntity
  8
Doc_ Finishes
  6
Continuous
100
AcDbLine
 10
27.82317515735641
 20
14.40530192761605
 30
0.0
 11
26.9387667191188
 21
15.17916207710464
 31
0.0
  0
LINE
  5
A4
330
1F
100
AcDbEntity
  8
Doc_ Finishes
  6
Continuous
100
AcDbLine
 10
28.92868902439024
 20
13.74199449252557
 30
0.0
 11
27.82317515735641
 21
14.40530192761605
 31
0.0
  0
LINE
  5
A5
330
1F
100
AcDbEntity
  8
Doc_ Finishes
  6
Continuous
100
AcDbLine
 10
29.59199645948072
 20
13.3827025963808
 30
0.0
 11
28.92868902439024
 21
13.74199449252557
 31
0.0
  0
LINE
  5
A6
330
1F
100
AcDbEntity
  8
Doc_ Finishes
  6
Continuous
100
AcDbLine
 10
30.20003196302124
 20
13.07868705743509
 30
0.0
 11
29.59199645948072
 21
13.3827025963808
 31
0.0
  0
LINE
  5
A7
330
1F
100
AcDbEntity
  8
Doc_ Finishes
  6
Continuous
100
AcDbLine
 10
31.55428501180173
 20
12.08372590479937
 30
0.0
 11
30.20003196302124
 21
13.07868705743509
 31
0.0
  0
LINE
  5
A8
330
1F
100
AcDbEntity
  8
Doc_ Finishes
  6
Continuous
100
AcDbLine
 10
32.07940155389457
 20
11.69679583005508
 30
0.0
 11
31.55428501180173
 21
12.08372590479937
 31
0.0
  0
LINE
  5
A9
330
1F
100
AcDbEntity
  8
Doc_ Finishes
  6
Continuous
100
AcDbLine
 10
32.88089988198269
 20
11.08876032651456
 30
0.0
 11
32.07940155389457
 21
11.69679583005508
 31
0.0
  0
LINE
  5
AA
330
1F
100
AcDbEntity
  8
Doc_ Finishes
  6
Continuous
100
AcDbLine
 10
33.59948367427223
 20
10.50836742722266
 30
0.0
 11
32.88089988198269
 21
11.08876032651456
 31
0.0
  0
LINE
  5
AB
330
1F
100
AcDbEntity
  8
Doc_ Finishes
  6
Continuous
100
AcDbLine
 10
34.56680664830842
 20
9.817421813532652
 30
0.0
 11
33.59948367427223
 21
10.50836742722266
 31
0.0
  0
LINE
  5
AC
330
1F
100
AcDbEntity
  8
Doc_ Finishes
  6
Continuous
100
AcDbLine
 10
35.06428943745082
 20
9.458129917387884
 30
0.0
 11
34.56680664830842
 21
9.817421813532652
 31
0.0
  0
LINE
  5
AD
330
1F
100
AcDbEntity
  8
Doc_ Finishes
  6
Continuous
100
AcDbLine
 10
35.81051140833988
 20
8.933013375295044
 30
0.0
 11
35.06428943745082
 21
9.458129917387884
 31
0.0
  0
LINE
  5
AE
330
1F
100
AcDbEntity
  8
Doc_ Finishes
  6
Continuous
100
AcDbLine
 10
36.61200973642801
 20
8.407892407553108
 30
0.0
 11
35.81051140833988
 21
8.933013375295044
 31
0.0
  0
LINE
  5
AF
330
1F
100
AcDbEntity
  8
Doc_ Finishes
  6
Continuous
100
AcDbLine
 10
36.77783438237608
 20
8.18679140440598
 30
0.0
 11
36.61200973642801
 21
8.407892407553108
 31
0.0
  0
LINE
  5
B0
330
1F
100
AcDbEntity
  8
Doc_ Finishes
  6
Continuous
100
AcDbLine
 10
37.38586546026751
 20
7.744584972462627
 30
0.0
 11
36.77783438237608
 21
8.18679140440598
 31
0.0
  0
LINE
  5
B1
330
1F
100
AcDbEntity
  8
Doc_ Finishes
  6
Continuous
100
AcDbLine
 10
38.18736378835562
 20
6.915448465774981
 30
0.0
 11
37.38586546026751
 21
7.744584972462627
 31
0.0
  0
LINE
  5
B2
330
1F
100
AcDbEntity
  8
Doc_ Finishes
  6
Continuous
100
AcDbLine
 10
38.79539486624704
 20
6.4456038552321
 30
0.0
 11
38.18736378835562
 21
6.915448465774981
 31
0.0
  0
LINE
  5
B3
330
1F
100
AcDbEntity
  8
Doc_ Finishes
  6
Continuous
100
AcDbLine
 10
39.56925501573564
 20
6.169226494885916
 30
0.0
 11
38.79539486624704
 21
6.4456038552321
 31
0.0
  0
LINE
  5
B4
330
1F
100
AcDbEntity
  8
Doc_ Finishes
  6
Continuous
100
AcDbLine
 10
40.23256245082612
 20
6.086316384736428
 30
0.0
 11
39.56925501573564
 21
6.169226494885916
 31
0.0
  0
LINE
  5
B5
330
1F
100
AcDbEntity
  8
Doc_ Finishes
  6
Continuous
100
AcDbLine
 10
40.48130605822187
 20
6.307417387883556
 30
0.0
 11
40.23256245082612
 21
6.086316384736428
 31
0.0
  0
LINE
  5
B6
330
1F
100
AcDbEntity
  8
Doc_ Finishes
  6
Continuous
100
AcDbLine
 10
40.14965234067663
 20
6.611432926829268
 30
0.0
 11
40.48130605822187
 21
6.307417387883556
 31
0.0
  0
LINE
  5
B7
330
1F
100
AcDbEntity
  8
Doc_ Finishes
  6
Continuous
100
AcDbLine
 10
39.48634490558615
 20
6.998363001573564
 30
0.0
 11
40.14965234067663
 21
6.611432926829268
 31
0.0
  0
LINE
  5
B8
330
1F
100
AcDbEntity
  8
Doc_ Finishes
  6
Continuous
100
AcDbLine
 10
38.76776111329661
 20
7.357654897718332
 30
0.0
 11
39.48634490558615
 21
6.998363001573564
 31
0.0
  0
LINE
  5
B9
330
1F
100
AcDbEntity
  8
Doc_ Finishes
  6
Continuous
100
AcDbLine
 10
38.18736378835562
 20
8.048600511408338
 30
0.0
 11
38.76776111329661
 21
7.357654897718332
 31
0.0
  0
LINE
  5
BA
330
1F
100
AcDbEntity
  8
Doc_ Finishes
  6
Continuous
100
AcDbLine
 10
36.9989353855232
 20
8.822460660896931
 30
0.0
 11
38.18736378835562
 21
8.048600511408338
 31
0.0
  0
LINE
  5
BB
330
1F
100
AcDbEntity
  8
Doc_ Finishes
  6
Continuous
100
AcDbLine
 10
36.47381884343037
 20
9.319939024390242
 30
0.0
 11
36.9989353855232
 21
8.822460660896931
 31
0.0
  0
LINE
  5
BC
330
1F
100
AcDbEntity
  8
Doc_ Finishes
  6
Continuous
100
AcDbLine
 10
36.22507966168371
 20
9.734507277734066
 30
0.0
 11
36.47381884343037
 21
9.319939024390242
 31
0.0
  0
LINE
  5
BD
330
1F
100
AcDbEntity
  8
Doc_ Finishes
  6
Continuous
100
AcDbLine
 10
35.17484215184894
 20
10.31490460267506
 30
0.0
 11
36.22507966168371
 21
9.734507277734066
 31
0.0
  0
LINE
  5
BE
330
1F
100
AcDbEntity
  8
Doc_ Finishes
  6
Continuous
100
AcDbLine
 10
34.73263571990559
 20
10.78474478756884
 30
0.0
 11
35.17484215184894
 21
10.31490460267506
 31
0.0
  0
LINE
  5
BF
330
1F
100
AcDbEntity
  8
Doc_ Finishes
  6
Continuous
100
AcDbLine
 10
34.23515293076317
 20
11.17167486231314
 30
0.0
 11
34.73263571990559
 21
10.78474478756884
 31
0.0
  0
LINE
  5
C0
330
1F
100
AcDbEntity
  8
Doc_ Finishes
  6
Continuous
100
AcDbLine
 10
33.48893095987412
 20
11.61388129425649
 30
0.0
 11
34.23515293076317
 21
11.17167486231314
 31
0.0
  0
LINE
  5
C1
330
1F
100
AcDbEntity
  8
Doc_ Finishes
  6
Continuous
100
AcDbLine
 10
32.85326170338316
 20
12.16663601494886
 30
0.0
 11
33.48893095987412
 21
11.61388129425649
 31
0.0
  0
LINE
  5
C2
330
1F
100
AcDbEntity
  8
Doc_ Finishes
  6
Continuous
100
AcDbLine
 10
32.35578333988985
 20
12.58120426829268
 30
0.0
 11
32.85326170338316
 21
12.16663601494886
 31
0.0
  0
LINE
  5
C3
330
1F
100
AcDbEntity
  8
Doc_ Finishes
  6
Continuous
100
AcDbLine
 10
31.69247147915027
 20
12.99577252163651
 30
0.0
 11
32.35578333988985
 21
12.58120426829268
 31
0.0
  0
LINE
  5
C4
330
1F
100
AcDbEntity
  8
Doc_ Finishes
  6
Continuous
100
AcDbLine
 10
31.22263129425649
 20
13.32742623918175
 30
0.0
 11
31.69247147915027
 21
12.99577252163651
 31
0.0
  0
LINE
  5
C5
330
1F
100
AcDbEntity
  8
Doc_ Finishes
  6
Continuous
100
AcDbLine
 10
30.72514850511408
 20
13.5761654209284
 30
0.0
 11
31.22263129425649
 21
13.32742623918175
 31
0.0
  0
LINE
  5
C6
330
1F
100
AcDbEntity
  8
Doc_ Finishes
  6
Continuous
100
AcDbLine
 10
29.93747147915028
 20
14.0644340086546
 30
0.0
 11
30.72514850511408
 21
13.5761654209284
 31
0.0
  0
LINE
  5
C7
330
1F
100
AcDbEntity
  8
Doc_ Finishes
  6
Continuous
100
AcDbLine
 10
29.43077891424075
 20
14.38687795043273
 30
0.0
 11
29.93747147915028
 21
14.0644340086546
 31
0.0
  0
LINE
  5
C8
330
1F
100
AcDbEntity
  8
Doc_ Finishes
  6
Continuous
100
AcDbLine
 10
28.92408192368214
 20
14.70931746656176
 30
0.0
 11
29.43077891424075
 21
14.38687795043273
 31
0.0
  0
LINE
  5
C9
330
1F
100
AcDbEntity
  8
Doc_ Finishes
  6
Continuous
100
AcDbLine
 10
28.62467348544453
 20
15.10085464201416
 30
0.0
 11
28.92408192368214
 21
14.70931746656176
 31
0.0
  0
LINE
  5
CA
330
1F
100
AcDbEntity
  8
Doc_ Finishes
  6
Continuous
100
AcDbLine
 10
27.95675894964595
 20
15.67664486624705
 30
0.0
 11
28.62467348544453
 21
15.10085464201416
 31
0.0
  0
LINE
  5
CB
330
1F
100
AcDbEntity
  8
Doc_ Finishes
  6
Continuous
100
AcDbLine
 10
27.47309746262785
 20
15.95302222659323
 30
0.0
 11
27.95675894964595
 21
15.67664486624705
 31
0.0
  0
LINE
  5
CC
330
1F
100
AcDbEntity
  8
Doc_ Finishes
  6
Continuous
100
AcDbLine
 10
26.82821400472069
 20
16.36759047993706
 30
0.0
 11
27.47309746262785
 21
15.95302222659323
 31
0.0
  0
LINE
  5
CD
330
1F
100
AcDbEntity
  8
Doc_ Finishes
  6
Continuous
100
AcDbLine
 10
26.50577448859166
 20
16.22939958693942
 30
0.0
 11
26.82821400472069
 21
16.36759047993706
 31
0.0
  0
LINE
  5
CE
330
1F
100
AcDbEntity
  8
Doc_ Finishes
  6
Continuous
100
AcDbLine
 10
26.06817515735641
 20
15.74573809992132
 30
0.0
 11
26.50577448859166
 21
16.22939958693942
 31
0.0
  0
LINE
  5
CF
330
1F
100
AcDbEntity
  8
Doc_ Finishes
  6
Continuous
 62
   254
370
    18
100
AcDbLine
 10
95.43333841463415
 20
5.093360051140834
 30
0.0
 11
95.43333841463415
 21
20.69901750590086
 31
0.0
  0
LINE
  5
D0
330
1F
100
AcDbEntity
  8
Doc_ Finishes
  6
Continuous
 62
   254
370
    18
100
AcDbLine
 10
5.000000983477577
 20
20.69901750590086
 30
0.0
 11
288.2406845003933
 21
20.69901750590086
 31
0.0
  0
LINE
  5
D1
330
1F
100
AcDbEntity
  8
Doc_ Finishes
  6
Continuous
 62
   254
370
    18
100
AcDbLine
 10
288.2406845003933
 20
20.69901750590086
 30
0.0
 11
288.2406845003933
 21
5.000000983477577
 31
0.0
  0
LINE
  5
D2
330
1F
100
AcDbEntity
  8
Doc_ Finishes
  6
Continuous
 62
   254
370
    18
100
AcDbLine
 10
288.2406845003933
 20
5.000000983477577
 30
0.0
 11
5.000000983477577
 21
5.000000983477577
 31
0.0
  0
LINE
  5
D3
330
1F
100
AcDbEntity
  8
Doc_ Finishes
  6
Continuous
 62
   254
370
    18
100
AcDbLine
 10
5.000000983477577
 20
20.69901750590086
 30
0.0
 11
5.000000983477577
 21
5.000000983477577
 31
0.0
  0
LINE
  5
D4
330
1F
100
AcDbEntity
  8
Doc_ Finishes
  6
Continuous
 62
   254
370
    18
100
AcDbLine
 10
188.291944826908
 20
5.093360051140834
 30
0.0
 11
188.291944826908
 21
20.69901750590086
 31
0.0
  0
LINE
  5
D5
330
1F
100
AcDbEntity
  8
Doc_ Finishes
  6
Continuous
 62
   254
370
    18
100
AcDbLine
 10
188.291944826908
 20
12.8961909913454
 30
0.0
 11
288.2406845003933
 21
12.8961909913454
 31
0.0
  0
MTEXT
  5
D7
330
1F
100
AcDbEntity
  8
0
  6
Continuous
100
AcDbMText
 10
208.3494767103412
 20
15.00228834043999
 30
0.0
 40
2.25
 41
0.0
 71
     7
 72
     1
  1
{C-TRS9-00}
  7
GENERATED_STYLE_1
 73
     1
 44
1.0
  0
MTEXT
  5
D8
330
1F
100
AcDbEntity
  8
0
  6
Continuous
100
AcDbMText
 10
208.3494767103412
 20
11.03300550383743
 30
0.0
 40
3.0
 41
0.0
 71
     1
 72
     1
  1
{PRODUCT TECHNICAL DATA}
  7
GENERATED_STYLE_1
 73
     1
 44
1.0
  0
MTEXT
  5
DA
330
1F
100
AcDbEntity
  8
Doc_ Floor
  6
Continuous
100
AcDbMText
 10
27.78353726544612
 20
13.33283672870609
 30
0.0
 40
5.603347280334726
 41
0.0
 71
     1
 72
     1
  1
{The Roofing Store}
  7
GENERATED_STYLE_2
 73
     1
 44
1.0
  0
MTEXT
  5
DC
102
{ACAD_XDICTIONARY
360
14C
102
}
330
1F
100
AcDbEntity
  8
0
  6
Continuous
100
AcDbMText
 10
100.7389238446655
 20
5.628836745729685
 30
0.0
 40
1.5
 41
0.0
 71
     7
 72
     1
  1
{P: HEAD OFFICE              09 277 2717\P    ALBANY             09 972 0060\P    KATIKAIT            07 549 5190\P    WELLINGTON              04 974 5792\P    CHRISTCHURCH03 348 6528}
  7
GENERATED_STYLE_1
 73
     1
 44
1.062946161486498
  0
MTEXT
  5
DD
330
1F
100
AcDbEntity
  8
0
  6
Continuous
100
AcDbMText
 10
147.4184566143587
 20
8.449084231526156
 30
0.0
 40
1.5
 41
0.0
 71
     7
 72
     1
  1
{WEB: www.theroofingstore.co.nz}
  7
GENERATED_STYLE_1
 73
     1
 44
1.0
  0
MTEXT
  5
DE
330
1F
100
AcDbEntity
  8
0
  6
Continuous
100
AcDbMText
 10
147.4184566143587
 20
5.870946023411262
 30
0.0
 40
1.5
 41
0.0
 71
     7
 72
     1
  1
{Copyright \U+00A9 The Roofing Store 2013}
  7
GENERATED_STYLE_1
 73
     1
 44
1.0
  0
MTEXT
  5
DF
330
1F
100
AcDbEntity
  8
0
  6
Continuous
100
AcDbMText
 10
271.9546684065315
 20
15.01595667428533
 30
0.0
 40
2.25
 41
0.0
 71
     7
 72
     1
  1
{1:5}
  7
GENERATED_STYLE_1
 73
     1
 44
1.0
  0
MTEXT
  5
E0
330
1F
100
AcDbEntity
  8
0
  6
Continuous
100
AcDbMText
 10
262.8396605309016
 20
15.51746459162148
 30
0.0
 40
1.5
 41
0.0
 71
     7
 72
     1
  1
{SCALE:}
  7
GENERATED_STYLE_1
 73
     1
 44
1.0
  0
MTEXT
  5
E1
330
1F
100
AcDbEntity
  8
0
  6
Continuous
100
AcDbMText
 10
189.5066235617487
 20
15.48695559872207
 30
0.0
 40
1.5
 41
0.0
 71
     7
 72
     1
  1
{DETAIL NUMBER:}
  7
GENERATED_STYLE_1
 73
     1
 44
1.0
  0
MTEXT
  5
E2
330
1F
100
AcDbEntity
  8
0
  6
Continuous
100
AcDbMText
 10
189.5066235617487
 20
9.005462392315325
 30
0.0
 40
1.5
 41
0.0
 71
     7
 72
     1
  1
{TITLE:}
  7
GENERATED_STYLE_1
 73
     1
 44
1.0
  0
INSERT
  5
116
102
{ACAD_XDICTIONARY
360
117
102
}
330
1F
100
AcDbEntity
  8
0
  6
Continuous
100
AcDbBlockReference
  2
Drawing_1_2
 10
-1260.81517440009
 20
-398.7432417450617
 30
0.0
  0
HATCH
  5
11A
330
1F
100
AcDbEntity
  8
Doc_ Finishes
  6
Continuous
 62
   255
370
    18
100
AcDbHatch
 10
0.0
 20
0.0
 30
0.0
210
0.0
220
0.0
230
1.0
  2
SOLID
 70
     1
 71
     0
 91
        1
 92
        3
 72
     0
 73
     1
 93
        4
 10
271.12824304483
 20
18.23636879525626
 10
277.5119489584424
 20
18.23636879525626
 10
277.5119489584424
 20
13.86152138592741
 10
271.12824304483
 20
13.86152138592741
 97
        0
 75
     0
 76
     1
 98
        0
  0
HATCH
  5
11B
330
1F
100
AcDbEntity
  8
Doc_ Finishes
  6
Continuous
100
AcDbHatch
 10
0.0
 20
0.0
 30
0.0
210
0.0
220
0.0
230
1.0
  2
Grid_600x600
 70
     0
 71
     0
 91
        1
 92
        3
 72
     0
 73
     1
 93
        4
 10
271.12824304483
 20
18.23636879525626
 10
277.5119489584424
 20
18.23636879525626
 10
277.5119489584424
 20
13.86152138592741
 10
271.12824304483
 20
13.86152138592741
 97
        0
 75
     0
 76
     2
 52
0.0
 41
1.0
 77
     0
 78
     2
 53
0.0
 43
0.0
 44
0.0
 45
0.0
 46
600.0
 79
     0
 53
90.00000000000001
 43
0.0
 44
0.0
 45
-600.0
 46
0.0
 79
     0
 98
        0
  0
WIPEOUT
  5
11C
330
1F
100
AcDbEntity
  8
Doc_ Floor
  6
Wipeout_Contour
 48
1103.199141616187
 92
      296
310
28010000060000000C0000000E000000120000000C00000016000000000000C20C00000014000000010000006C0000000700000004000000BA25DD1A0D067140A5D1C4BE7A8A32400000000000000000C4D9E7FCCA637140A5D1C4BE7A8A32400000000000000000C4D9E7FCCA637140EBEBCBB5771C2C4000000000000000
310
00BA25DD1A0D067140EBEBCBB5771C2C4000000000000000000C0000000E00000007000000840000000600000005000000BA25DD1A0D067140A5D1C4BE7A8A32400000000000000000C4D9E7FCCA637140A5D1C4BE7A8A32400000000000000000C4D9E7FCCA637140EBEBCBB5771C2C400000000000000000BA25DD1A0D06
310
7140EBEBCBB5771C2C400000000000000000BA25DD1A0D067140A5D1C4BE7A8A32400000000000000000
100
AcDbWipeout
 90
        0
 10
272.3781994474954
 20
14.05560081590916
 30
0.0
 11
5.858858148393324
 21
0.0
 31
0.0
 12
0.0
 22
4.485334627064445
 32
0.0
 13
1.0
 23
1.0
340
0
 70
    15
280
     1
281
    50
282
    50
283
     0
360
0
 71
     2
 91
        5
 14
-0.5
 24
-0.5000000000000002
 14
0.5
 24
-0.5000000000000002
 14
0.5
 24
0.4999999999999998
 14
-0.5
 24
0.4999999999999998
 14
-0.5
 24
-0.5000000000000002
  0
MTEXT
  5
11D
330
1F
100
AcDbEntity
  8
Doc_ Floor
  6
Continuous
100
AcDbMText
 10
272.3781994474954
 20
17.61093544297361
 30
0.0
 40
2.5
 41
0.0
 71
     1
 72
     1
  1
{NTS}
  7
GENERATED_STYLE_1
 73
     1
 44
1.0
  0
ENDSEC
  0
SECTION
  2
OBJECTS
  0
DICTIONARY
  5
C
330
0
100
AcDbDictionary
281
     1
  3
ACAD_GROUP
350
D
  3
ACAD_LAYOUT
350
1A
  3
ACAD_MATERIAL
350
3B
  3
ACAD_MLEADERSTYLE
350
147
  3
ACAD_MLINESTYLE
350
17
  3
ACAD_PLOTSETTINGS
350
19
  3
ACAD_PLOTSTYLENAME
350
E
  3
ACAD_SCALELIST
350
121
  3
ACAD_VISUALSTYLE
350
2A
  3
AcDbVariableDictionary
350
145
  3
WATERMARKS
350
143
  0
DICTIONARY
  5
14E
330
E9
100
AcDbDictionary
280
     1
281
     1
  3
ACAD_MTEXT_RT
360
14F
  0
DICTIONARY
  5
150
330
115
100
AcDbDictionary
280
     1
281
     1
  3
ACAD_MTEXT_RT
360
151
  0
DICTIONARY
  5
14C
330
DC
100
AcDbDictionary
280
     1
281
     1
  3
ACAD_MTEXT_RT
360
14D
  0
DICTIONARY
  5
117
330
116
100
AcDbDictionary
280
     1
281
     1
  3
ACAD_FILTER
360
118
  0
DICTIONARY
  5
D
102
{ACAD_REACTORS
330
C
102
}
330
C
100
AcDbDictionary
281
     1
  0
DICTIONARY
  5
1A
102
{ACAD_REACTORS
330
C
102
}
330
C
100
AcDbDictionary
281
     1
  3
Layout1
350
1E
  3
Model
350
22
  0
DICTIONARY
  5
3B
102
{ACAD_REACTORS
330
C
102
}
330
C
100
AcDbDictionary
281
     1
  3
ByBlock
350
3D
  3
ByLayer
350
3C
  3
Global
350
3E
  0
DICTIONARY
  5
147
102
{ACAD_REACTORS
330
C
102
}
330
C
100
AcDbDictionary
281
     1
  0
DICTIONARY
  5
17
102
{ACAD_REACTORS
330
C
102
}
330
C
100
AcDbDictionary
281
     1
  3
Standard
350
18
  0
DICTIONARY
  5
19
102
{ACAD_REACTORS
330
C
102
}
330
C
100
AcDbDictionary
281
     1
  0
ACDBDICTIONARYWDFLT
  5
E
102
{ACAD_REACTORS
330
C
102
}
330
C
100
AcDbDictionary
281
     1
  3
Normal
350
F
100
AcDbDictionaryWithDefault
340
F
  0
DICTIONARY
  5
121
102
{ACAD_REACTORS
330
C
102
}
330
C
100
AcDbDictionary
281
     1
  3
A0
350
122
  3
A1
350
123
  3
A2
350
124
  3
A3
350
125
  3
A4
350
126
  3
A5
350
127
  3
A6
350
128
  3
A7
350
129
  3
A8
350
12A
  3
A9
350
12B
  3
B0
350
12C
  3
B1
350
12D
  3
B2
350
12E
  3
B3
350
12F
  3
B4
350
130
  3
B5
350
131
  3
B6
350
132
  3
B7
350
133
  3
B8
350
134
  3
B9
350
135
  3
C0
350
136
  3
C1
350
137
  3
C2
350
138
  3
C3
350
139
  3
C4
350
13A
  3
C5
350
13B
  3
C6
350
13C
  3
C7
350
13D
  3
C8
350
13E
  3
C9
350
13F
  3
D0
350
140
  3
D1
350
141
  3
D2
350
142
  0
DICTIONARY
  5
2A
102
{ACAD_REACTORS
330
C
102
}
330
C
100
AcDbDictionary
281
     1
  3
2dWireframe
350
2F
  3
3D Hidden
350
31
  3
3dWireframe
350
30
  3
Basic
350
32
  3
Brighten
350
36
  3
ColorChange
350
3A
  3
Conceptual
350
34
  3
Dim
350
35
  3
Facepattern
350
39
  3
Flat
350
2B
  3
FlatWithEdges
350
2C
  3
Gouraud
350
2D
  3
GouraudWithEdges
350
2E
  3
Linepattern
350
38
  3
Realistic
350
33
  3
Thicken
350
37
  0
DICTIONARY
  5
145
102
{ACAD_REACTORS
330
C
102
}
330
C
100
AcDbDictionary
281
     1
  3
CANNOSCALE
350
149
  3
DIMASSOC
350
14A
  3
HIDETEXT
350
14B
  3
XCLIPFRAME
350
148
  0
DICTIONARY
  5
143
102
{ACAD_REACTORS
330
C
102
}
330
C
100
AcDbDictionary
281
     1
  3
AC_WATERMARK
350
144
  0
XRECORD
  5
14F
102
{ACAD_REACTORS
330
14E
102
}
330
14E
100
AcDbXrecord
280
     1
 40
1765180276.0
  1
\A1;{\fCentury Gothic|b0|i0|c0|p34;TRS 9\P\H0.352473x;\P\H1.534583x;\P\P\P\P\P\PDESCRIPTION\PTRS 9 profile is designed for commercial and industrial roofing. The profile is suitable for low pitch roofing as well as curved \Proofing. Commercial and in
  1
dustrial roofing G550 grade steel with minimum 0.55 BMT gives more resilience to damage\fCalibri|b0|i0|c0|p34;\H0.882353x;.\P\fCentury Gothic|b0|i0|c0|p34;\H0.906169x;\P\H1.250686x;SPECIFICATION  AT A GLANCE\P\pt47.9733,90.3146;\H0.900354x;GENERAL \f
  1
Calibri|b0|i0|c0|p34;\H0.882353x;^I\fCentury Gothic|b0|i0|c0|p34;\H1.070159x;Minimum Roof Pitch \fCalibri|b0|i0|c0|p34;\H0.882353x;^I\fCentury Gothic|b0|i0|c0|p34;\H1.133333x;3 Degree\P\pt90.3146;Effective Cover^I910mm\P\pt90.3146;Max\fCalibri|b0|i0|c0|
  1
p34;\H0.882353x;.\fCentury Gothic|b0|i0|c0|p34;\H1.133333x; Unsupported Overhang^IContact "The Roofing Store"\P\pt47.9733,90.3146;\H1.059033x;SPANS \fCalibri|b0|i0|c0|p34;\H0.882353x;^I\fCentury Gothic|b0|i0|c0|p34;\H1.070159x;End Span 0.55 BMT^I2300mm\
  1
P\pt90.3146;Internal Span 0.55 BMT^I3200mm\P\pt47.9733,90.3146;\H1.059033x;DRAPE CURVE \fCalibri|b0|i0|c0|p34;\H0.882353x;^I\fCentury Gothic|b0|i0|c0|p34;\H1.070159x;0.55mm BMT G300^IMin\fCalibri|b0|i0|c0|p34;\H0.882353x;.\fCentury Gothic|b0|i0|c0|p34;\
  1
H1.133333x; 90m Radius\P\pt47.9733,90.3146;\H1.059033x;WALL CLADDING FIXINGS\fCalibri|b0|i0|c0|p34;\H0.882353x;^I\fCentury Gothic|b0|i0|c0|p34;\H1.070159x;Cladding fixing on 20mm\fCalibri|b0|i0|c0|p34;\H0.882353x;,\fCentury Gothic|b0|i0|c0|p34;\H1.133
  1
333x; \fCalibri|b0|i0|c0|p34;\H0.882353x;^I\fCentury Gothic|b0|i0|c0|p34;\H1.133333x;12 Gauge class 4 screws with neo washers\fCalibri|b0|i0|c0|p34;\H0.882353x;,\fCentury Gothic|b0|i0|c0|p34;\H1.133333x; miss 2 pans\fCalibri|b0|i0|c0|p34;\H0.882353x;,
  1
\fCentury Gothic|b0|i0|c0|p34;\H1.133333x; miss 3pans\fCalibri|b0|i0|c0|p34;\H0.882353x;,\fCentury Gothic|b0|i0|c0|p34;\H1.133333x; every H 3.1 treated batterns\Psecond on ends \P\pt47.9733,90.3146;\H1.059033x;ROOF FIXINGS \fCalibri|b0|i0|c0|p34;\H0.
  1
882353x;^I\fCentury Gothic|b0|i0|c0|p34;\H1.070159x;Low / Medium wind Zone^ITimber: class 4 14 x 75mm with neo washer and embossed washer\PSteeltite: 12 x 65mm with neo washer and embossed washer\P\pt90.3146;High wind Zone \fCalibri|b0|i0|c0|p34;\H0.88
  1
2353x;^I\fCentury Gothic|b0|i0|c0|p34;\H1.133333x;Timber: class 4 14 x 75mm with neo washer and embossed washer\fCalibri|b0|i0|c0|p34;\H0.882353x;,\fCentury Gothic|b0|i0|c0|p34;\H1.133333x; approved \Pprofile's metal washer and EPDM washer\PSteeltite:
  1
 12 x 65mm with neo washer and embossed washer\fCalibri|b0|i0|c0|p34;\H0.882353x;,\fCentury Gothic|b0|i0|c0|p34;\H1.133333x; approved \Pprofile's metal washer and EPDM washer\P\pt90.3146;Very High Wind Zone \fCalibri|b0|i0|c0|p34;\H0.882353x;^I\fCentu
  1
ry Gothic|b0|i0|c0|p34;\H1.133333x;Contact "The Roofing Store"\P\pt90.3146;Specific Design Wind Zone \fCalibri|b0|i0|c0|p34;\H0.882353x;^I\fCentury Gothic|b0|i0|c0|p34;\H1.133333x;Contact "The Roofing Store"\P\pt47.9733,90.3146;\H1.059033x;ROOF FIXING
  1
 LENGTHS\fCalibri|b0|i0|c0|p34;\H0.882353x;^I\fCentury Gothic|b0|i0|c0|p34;\H1.070159x;Dark Colour Up To 8 Meters\fCalibri|b0|i0|c0|p34;\H0.882353x;^I\fCentury Gothic|b0|i0|c0|p34;\H1.133333x;Solid fix \P\pt90.3146;Light Colour Up To 12 Meters\fCalibri
  1
|b0|i0|c0|p34;\H0.882353x;^I\fCentury Gothic|b0|i0|c0|p34;\H1.133333x;Solid fix \P\pt90.3146;sheet lengths Excess Above* Oversize holes required for movement \P\H1.059033x;*Contact The Roofing Store for further information on specific design\P\H1.1106
  1
74x;FIXINGS\fCalibri|b0|i0|c0|p34;\H0.882353x;,\fCentury Gothic|b0|i0|c0|p34;\H1.133333x; FASTENING AND UNDERLAY\P\H0.850166x;All fixings and fasteners are to be of an approved type\fCalibri|b0|i0|c0|p34;\H0.882353x;,\fCentury Gothic|b0|i0|c0|p34;\H1
  1
.133333x; compatible with all materials\fCalibri|b0|i0|c0|p34;\H0.882353x;,\fCentury Gothic|b0|i0|c0|p34;\H1.133333x; the environment and meeting the requirements of the NZ Building Code\fCalibri|b0|i0|c0|p34;\H0.882353x;.\fCentury Gothic|b0|i0|c0|p3
  1
4;\H1.133333x; Installation is to be in accordance with the NZ Metal Roof and Wall Cladding Code of Practice or manufacturer's instructions\fCalibri|b0|i0|c0|p34;\H0.882353x;.\fCentury Gothic|b0|i0|c0|p34;\H1.133333x; Fix every crest to: Ridge\fCalib
  1
ri|b0|i0|c0|p34;\H0.882353x;,\fCentury Gothic|b0|i0|c0|p34;\H1.133333x; Hip\fCalibri|b0|i0|c0|p34;\H0.882353x;,\fCentury Gothic|b0|i0|c0|p34;\H1.133333x; Valley\fCalibri|b0|i0|c0|p34;\H0.882353x;,\fCentury Gothic|b0|i0|c0|p34;\H1.133333x; Gutter and 
  1
Periphery area. Underlay as per the project specification is to be used\fCalibri|b0|i0|c0|p34;\H0.882353x;.\P\fCentury Gothic|b0|i0|c0|p34;\H1.333072x;COATINGS AND COMPLIANCE  WITH AS/NZS 2728 (CORROSION  RESISTANCE)\P\H0.850166x;The KiwiColour brand
  1
 is available in two different product lines designed specifically to suit different environmental and atmospheric conditions; KiwiColour VITOR & KiwiColour ZENEX. Independent laboratory tests have confirmed that KiwiColour VITOR complies with the co
  1
rrosion resistance performance requirements of AS/NZA 2728 with regards to Product Type 4 (the corrosivity category into which most populated areas of New Zealand fall) in all aspects of salt spray performance and humidity resistance and including ot
  1
her product properties such as coating thickness\fCalibri|b0|i0|c0|p34;\H0.882353x;,\fCentury Gothic|b0|i0|c0|p34;\H1.133333x; gloss and cross hatch adhesion(Gloss category 2 )\fCalibri|b0|i0|c0|p34;\H0.882353x;.\fCentury Gothic|b0|i0|c0|p34;\H1.1333
  1
33x; Independent testing demonstrated that Kiwicolour ZENEX samples met the corrosion resistance performance requirements of AS/NZS 2728:20\fCalibri|b0|i0|c0|p34;\H0.882353x;0\fCentury Gothic|b0|i0|c0|p34;\H1.133333x;7 for Product Types 3 and 4. Refe
  1
r to Product literature for selection of suitable finishing and warranty. All kiwi colour materials are available on Master spec \fCalibri|b0|i0|c0|p34;\H0.882353x;.}
  0
XRECORD
  5
151
102
{ACAD_REACTORS
330
150
102
}
330
150
100
AcDbXrecord
280
     1
 40
2838079.0
  1
\A1;{\fCentury Gothic|b0|i0|c0|p34;THICKNESS^I^IEND SPAN^I^IINTERNAL SPAN^I^IMINIMUM PITCH\P\fArial|b0|i0|c0|p34;\H1.029412x;0.55MM^I^I2.30M^I^I^I3.20M\fCentury Gothic|b0|i0|c0|p34;\H0.971429x;^I^I^I^I3\fArial|b0|i0|c0|p34;\H1.029412x;°}
  0
XRECORD
  5
14D
102
{ACAD_REACTORS
330
14C
102
}
330
14C
100
AcDbXrecord
280
     1
 40
892718.0
  1
{P: HEAD OFFICE ^I^I09 277 2717\P    ALBANY ^I^I09 972 0060\P    KATIKAIT^I^I07 549 5190\P    WELLINGTON^I^I04 974 5792\P    CHRISTCHURCH^I03 348 6528}
  0
DICTIONARY
  5
118
102
{ACAD_REACTORS
330
117
102
}
330
117
100
AcDbDictionary
280
     1
281
     1
  3
SPATIAL
360
119
  0
LAYOUT
  5
1E
102
{ACAD_REACTORS
330
1A
102
}
330
1A
100
AcDbPlotSettings
  1

  2
none_device
  4

  6

 40
0.0
 41
0.0
 42
0.0
 43
0.0
 44
0.0
 45
0.0
 46
0.0
 47
0.0
 48
0.0
 49
0.0
140
0.0
141
0.0
142
1.0
143
1.0
 70
   688
 72
     0
 73
     0
 74
     5
  7

 75
    16
147
1.0
148
0.0
149
0.0
100
AcDbLayout
  1
Layout1
 70
     1
 71
     1
 10
0.0
 20
0.0
 11
12.0
 21
9.0
 12
0.0
 22
0.0
 32
0.0
 14
1.000000000000000E+20
 24
1.000000000000000E+20
 34
1.000000000000000E+20
 15
-1.000000000000000E+20
 25
-1.000000000000000E+20
 35
-1.000000000000000E+20
146
0.0
 13
0.0
 23
0.0
 33
0.0
 16
1.0
 26
0.0
 36
0.0
 17
0.0
 27
1.0
 37
0.0
 76
     0
330
1B
  0
LAYOUT
  5
22
102
{ACAD_REACTORS
330
1A
102
}
330
1A
100
AcDbPlotSettings
  1

  2
none_device
  4

  6

 40
0.0
 41
0.0
 42
0.0
 43
0.0
 44
0.0
 45
0.0
 46
0.0
 47
0.0
 48
0.0
 49
0.0
140
0.0
141
0.0
142
1.0
143
1.0
 70
  1712
 72
     0
 73
     0
 74
     0
  7

 75
     0
147
1.0
148
0.0
149
0.0
100
AcDbLayout
  1
Model
 70
     1
 71
     0
 10
0.0
 20
0.0
 11
12.0
 21
9.0
 12
0.0
 22
0.0
 32
0.0
 14
1.000000000000000E+20
 24
1.000000000000000E+20
 34
1.000000000000000E+20
 15
-1.000000000000000E+20
 25
-1.000000000000000E+20
 35
-1.000000000000000E+20
146
0.0
 13
0.0
 23
0.0
 33
0.0
 16
1.0
 26
0.0
 36
0.0
 17
0.0
 27
1.0
 37
0.0
 76
     0
330
1F
331
29
  0
MATERIAL
  5
3D
102
{ACAD_REACTORS
330
3B
102
}
102
{ACAD_XDICTIONARY
360
174
102
}
330
3B
100
AcDbMaterial
  1
ByBlock
  0
MATERIAL
  5
3C
102
{ACAD_REACTORS
330
3B
102
}
102
{ACAD_XDICTIONARY
360
172
102
}
330
3B
100
AcDbMaterial
  1
ByLayer
  0
MATERIAL
  5
3E
102
{ACAD_REACTORS
330
3B
102
}
102
{ACAD_XDICTIONARY
360
176
102
}
330
3B
100
AcDbMaterial
  1
Global
  0
MLINESTYLE
  5
18
102
{ACAD_REACTORS
330
17
102
}
330
17
100
AcDbMlineStyle
  2
Standard
 70
     0
  3

 62
   256
 51
90.0
 52
90.0
 71
     2
 49
0.5
 62
   256
  6
BYLAYER
 49
-0.5
 62
   256
  6
BYLAYER
  0
ACDBPLACEHOLDER
  5
F
102
{ACAD_REACTORS
330
E
102
}
330
E
  0
SCALE
  5
122
102
{ACAD_REACTORS
330
121
102
}
330
121
100
AcDbScale
 70
     0
300
1:1
140
1.0
141
1.0
290
     1
  0
SCALE
  5
123
102
{ACAD_REACTORS
330
121
102
}
330
121
100
AcDbScale
 70
     0
300
1:2
140
1.0
141
2.0
290
     0
  0
SCALE
  5
124
102
{ACAD_REACTORS
330
121
102
}
330
121
100
AcDbScale
 70
     0
300
1:4
140
1.0
141
4.0
290
     0
  0
SCALE
  5
125
102
{ACAD_REACTORS
330
121
102
}
330
121
100
AcDbScale
 70
     0
300
1:5
140
1.0
141
5.0
290
     0
  0
SCALE
  5
126
102
{ACAD_REACTORS
330
121
102
}
330
121
100
AcDbScale
 70
     0
300
1:8
140
1.0
141
8.0
290
     0
  0
SCALE
  5
127
102
{ACAD_REACTORS
330
121
102
}
330
121
100
AcDbScale
 70
     0
300
1:10
140
1.0
141
10.0
290
     0
  0
SCALE
  5
128
102
{ACAD_REACTORS
330
121
102
}
330
121
100
AcDbScale
 70
     0
300
1:16
140
1.0
141
16.0
290
     0
  0
SCALE
  5
129
102
{ACAD_REACTORS
330
121
102
}
330
121
100
AcDbScale
 70
     0
300
1:20
140
1.0
141
20.0
290
     0
  0
SCALE
  5
12A
102
{ACAD_REACTORS
330
121
102
}
330
121
100
AcDbScale
 70
     0
300
1:30
140
1.0
141
30.0
290
     0
  0
SCALE
  5
12B
102
{ACAD_REACTORS
330
121
102
}
330
121
100
AcDbScale
 70
     0
300
1:40
140
1.0
141
40.0
290
     0
  0
SCALE
  5
12C
102
{ACAD_REACTORS
330
121
102
}
330
121
100
AcDbScale
 70
     0
300
1:50
140
1.0
141
50.0
290
     0
  0
SCALE
  5
12D
102
{ACAD_REACTORS
330
121
102
}
330
121
100
AcDbScale
 70
     0
300
1:100
140
1.0
141
100.0
290
     0
  0
SCALE
  5
12E
102
{ACAD_REACTORS
330
121
102
}
330
121
100
AcDbScale
 70
     0
300
2:1
140
2.0
141
1.0
290
     0
  0
SCALE
  5
12F
102
{ACAD_REACTORS
330
121
102
}
330
121
100
AcDbScale
 70
     0
300
4:1
140
4.0
141
1.0
290
     0
  0
SCALE
  5
130
102
{ACAD_REACTORS
330
121
102
}
330
121
100
AcDbScale
 70
     0
300
8:1
140
8.0
141
1.0
290
     0
  0
SCALE
  5
131
102
{ACAD_REACTORS
330
121
102
}
330
121
100
AcDbScale
 70
     0
300
10:1
140
10.0
141
1.0
290
     0
  0
SCALE
  5
132
102
{ACAD_REACTORS
330
121
102
}
330
121
100
AcDbScale
 70
     0
300
100:1
140
100.0
141
1.0
290
     0
  0
SCALE
  5
133
102
{ACAD_REACTORS
330
121
102
}
330
121
100
AcDbScale
 70
     0
300
1/128" = 1'-0"
140
0.0078125
141
12.0
290
     0
  0
SCALE
  5
134
102
{ACAD_REACTORS
330
121
102
}
330
121
100
AcDbScale
 70
     0
300
1/64" = 1'-0"
140
0.015625
141
12.0
290
     0
  0
SCALE
  5
135
102
{ACAD_REACTORS
330
121
102
}
330
121
100
AcDbScale
 70
     0
300
1/32" = 1'-0"
140
0.03125
141
12.0
290
     0
  0
SCALE
  5
136
102
{ACAD_REACTORS
330
121
102
}
330
121
100
AcDbScale
 70
     0
300
1/16" = 1'-0"
140
0.0625
141
12.0
290
     0
  0
SCALE
  5
137
102
{ACAD_REACTORS
330
121
102
}
330
121
100
AcDbScale
 70
     0
300
3/32" = 1'-0"
140
0.09375
141
12.0
290
     0
  0
SCALE
  5
138
102
{ACAD_REACTORS
330
121
102
}
330
121
100
AcDbScale
 70
     0
300
1/8" = 1'-0"
140
0.125
141
12.0
290
     0
  0
SCALE
  5
139
102
{ACAD_REACTORS
330
121
102
}
330
121
100
AcDbScale
 70
     0
300
3/16" = 1'-0"
140
0.1875
141
12.0
290
     0
  0
SCALE
  5
13A
102
{ACAD_REACTORS
330
121
102
}
330
121
100
AcDbScale
 70
     0
300
1/4" = 1'-0"
140
0.25
141
12.0
290
     0
  0
SCALE
  5
13B
102
{ACAD_REACTORS
330
121
102
}
330
121
100
AcDbScale
 70
     0
300
3/8" = 1'-0"
140
0.375
141
12.0
290
     0
  0
SCALE
  5
13C
102
{ACAD_REACTORS
330
121
102
}
330
121
100
AcDbScale
 70
     0
300
1/2" = 1'-0"
140
0.5
141
12.0
290
     0
  0
SCALE
  5
13D
102
{ACAD_REACTORS
330
121
102
}
330
121
100
AcDbScale
 70
     0
300
3/4" = 1'-0"
140
0.75
141
12.0
290
     0
  0
SCALE
  5
13E
102
{ACAD_REACTORS
330
121
102
}
330
121
100
AcDbScale
 70
     0
300
1" = 1'-0"
140
1.0
141
12.0
290
     0
  0
SCALE
  5
13F
102
{ACAD_REACTORS
330
121
102
}
330
121
100
AcDbScale
 70
     0
300
1-1/2" = 1'-0"
140
1.5
141
12.0
290
     0
  0
SCALE
  5
140
102
{ACAD_REACTORS
330
121
102
}
330
121
100
AcDbScale
 70
     0
300
3" = 1'-0"
140
3.0
141
12.0
290
     0
  0
SCALE
  5
141
102
{ACAD_REACTORS
330
121
102
}
330
121
100
AcDbScale
 70
     0
300
6" = 1'-0"
140
6.0
141
12.0
290
     0
  0
SCALE
  5
142
102
{ACAD_REACTORS
330
121
102
}
330
121
100
AcDbScale
 70
     0
300
1'-0" = 1'-0"
140
12.0
141
12.0
290
     0
  0
VISUALSTYLE
  5
2F
102
{ACAD_REACTORS
330
2A
102
}
102
{ACAD_XDICTIONARY
360
15A
102
}
330
2A
100
AcDbVisualStyle
  2
2dWireframe
 70
     4
 71
     0
 72
     2
 73
     0
 90
        0
 40
-0.6
 41
-30.0
 62
     5
 63
     7
 74
     1
 91
        4
 64
     7
 65
   257
 75
     1
175
     1
 42
1.0
 92
        0
 66
   257
 43
1.0
 76
     1
 77
     6
 78
     2
 67
     7
 79
     5
170
     0
171
     0
290
     0
174
     0
 93
        1
 44
0.0
173
     0
291
     0
 45
0.0
1001
ACAD
1000
AcDbSavedByObjectVersion
1070
     0
  0
VISUALSTYLE
  5
31
102
{ACAD_REACTORS
330
2A
102
}
102
{ACAD_XDICTIONARY
360
15E
102
}
330
2A
100
AcDbVisualStyle
  2
3D Hidden
 70
     6
 71
     1
 72
     2
 73
     2
 90
        0
 40
-0.6
 41
-30.0
 62
     5
 63
     7
 74
     2
 91
        2
 64
     7
 65
   257
 75
     2
175
     1
 42
40.0
 92
        0
 66
   257
 43
1.0
 76
     1
 77
     6
 78
     2
 67
     7
 79
     3
170
     0
171
     0
290
     0
174
     0
 93
        1
 44
0.0
173
     0
291
     0
 45
0.0
1001
ACAD
1000
AcDbSavedByObjectVersion
1070
     0
  0
VISUALSTYLE
  5
30
102
{ACAD_REACTORS
330
2A
102
}
102
{ACAD_XDICTIONARY
360
15C
102
}
330
2A
100
AcDbVisualStyle
  2
3dWireframe
 70
     5
 71
     0
 72
     2
 73
     0
 90
        0
 40
-0.6
 41
-30.0
 62
     5
 63
     7
 74
     1
 91
        4
 64
     7
 65
   257
 75
     1
175
     1
 42
1.0
 92
        0
 66
   257
 43
1.0
 76
     1
 77
     6
 78
     2
 67
     7
 79
     5
170
     0
171
     0
290
     0
174
     0
 93
        1
 44
0.0
173
     0
291
     0
 45
0.0
1001
ACAD
1000
AcDbSavedByObjectVersion
1070
     0
  0
VISUALSTYLE
  5
32
102
{ACAD_REACTORS
330
2A
102
}
102
{ACAD_XDICTIONARY
360
160
102
}
330
2A
100
AcDbVisualStyle
  2
Basic
 70
     7
 71
     1
 72
     0
 73
     1
 90
        0
 40
-0.6
 41
-30.0
 62
     5
 63
     7
 74
     0
 91
        4
 64
     7
 65
   257
 75
     1
175
     1
 42
1.0
 92
        8
 66
     7
 43
1.0
 76
     1
 77
     6
 78
     2
 67
     7
 79
     5
170
     0
171
     0
290
     0
174
     0
 93
        1
 44
0.0
173
     0
291
     1
 45
0.0
1001
ACAD
1000
AcDbSavedByObjectVersion
1070
     0
  0
VISUALSTYLE
  5
36
102
{ACAD_REACTORS
330
2A
102
}
102
{ACAD_XDICTIONARY
360
168
102
}
330
2A
100
AcDbVisualStyle
  2
Brighten
 70
    12
 71
     2
 72
     2
 73
     0
 90
        0
 40
-0.6
 41
-30.0
 62
     5
 63
     7
 74
     1
 91
        4
 64
     7
 65
   257
 75
     1
175
     1
 42
1.0
 92
        8
 66
     7
 43
1.0
 76
     1
 77
     6
 78
     2
 67
     7
 79
     5
170
     0
171
     0
290
     0
174
     0
 93
        1
 44
50.0
173
     0
291
     1
 45
0.0
1001
ACAD
1000
AcDbSavedByObjectVersion
1070
     0
  0
VISUALSTYLE
  5
3A
102
{ACAD_REACTORS
330
2A
102
}
102
{ACAD_XDICTIONARY
360
170
102
}
330
2A
100
AcDbVisualStyle
  2
ColorChange
 70
    16
 71
     2
 72
     2
 73
     3
 90
        0
 40
-0.6
 41
-30.0
 62
     5
 63
     8
 74
     1
 91
        4
 64
     7
 65
   257
 75
     1
175
     1
 42
1.0
 92
        8
 66
     8
 43
1.0
 76
     1
 77
     6
 78
     2
 67
     7
 79
     5
170
     0
171
     0
290
     0
174
     0
 93
        1
 44
0.0
173
     0
291
     1
 45
0.0
1001
ACAD
1000
AcDbSavedByObjectVersion
1070
     0
  0
VISUALSTYLE
  5
34
102
{ACAD_REACTORS
330
2A
102
}
102
{ACAD_XDICTIONARY
360
164
102
}
330
2A
100
AcDbVisualStyle
  2
Conceptual
 70
     9
 71
     3
 72
     2
 73
     0
 90
        0
 40
-0.6
 41
-30.0
 62
     5
 63
     7
 74
     2
 91
        2
 64
     7
 65
   257
 75
     1
175
     1
 42
40.0
 92
        8
 66
     7
 43
1.0
 76
     1
 77
     6
 78
     2
 67
     7
 79
     3
170
     0
171
     0
290
     0
174
     0
 93
        1
 44
0.0
173
     0
291
     0
 45
0.0
1001
ACAD
1000
AcDbSavedByObjectVersion
1070
     0
  0
VISUALSTYLE
  5
35
102
{ACAD_REACTORS
330
2A
102
}
102
{ACAD_XDICTIONARY
360
166
102
}
330
2A
100
AcDbVisualStyle
  2
Dim
 70
    11
 71
     2
 72
     2
 73
     0
 90
        0
 40
-0.6
 41
-30.0
 62
     5
 63
     7
 74
     1
 91
        4
 64
     7
 65
   257
 75
     1
175
     1
 42
1.0
 92
        8
 66
     7
 43
1.0
 76
     1
 77
     6
 78
     2
 67
     7
 79
     5
170
     0
171
     0
290
     0
174
     0
 93
        1
 44
-50.0
173
     0
291
     1
 45
0.0
1001
ACAD
1000
AcDbSavedByObjectVersion
1070
     0
  0
VISUALSTYLE
  5
39
102
{ACAD_REACTORS
330
2A
102
}
102
{ACAD_XDICTIONARY
360
16E
102
}
330
2A
100
AcDbVisualStyle
  2
Facepattern
 70
    15
 71
     2
 72
     2
 73
     0
 90
        0
 40
-0.6
 41
-30.0
 62
     5
 63
     7
 74
     1
 91
        4
 64
     7
 65
   257
 75
     1
175
     1
 42
1.0
 92
        8
 66
     7
 43
1.0
 76
     1
 77
     6
 78
     2
 67
     7
 79
     5
170
     0
171
     0
290
     0
174
     0
 93
        1
 44
0.0
173
     0
291
     1
 45
0.0
1001
ACAD
1000
AcDbSavedByObjectVersion
1070
     0
  0
VISUALSTYLE
  5
2B
102
{ACAD_REACTORS
330
2A
102
}
102
{ACAD_XDICTIONARY
360
152
102
}
330
2A
100
AcDbVisualStyle
  2
Flat
 70
     0
 71
     2
 72
     1
 73
     1
 90
        2
 40
-0.6
 41
30.0
 62
     5
 63
     7
 74
     0
 91
        4
 64
     7
 65
   257
 75
     1
175
     1
 42
1.0
 92
        8
 66
     7
 43
1.0
 76
     1
 77
     6
 78
     2
 67
     7
 79
     5
170
     0
171
     0
290
     0
174
     0
 93
       13
 44
0.0
173
     0
291
     1
 45
0.0
1001
ACAD
1000
AcDbSavedByObjectVersion
1070
     0
  0
VISUALSTYLE
  5
2C
102
{ACAD_REACTORS
330
2A
102
}
102
{ACAD_XDICTIONARY
360
154
102
}
330
2A
100
AcDbVisualStyle
  2
FlatWithEdges
 70
     1
 71
     2
 72
     1
 73
     1
 90
        2
 40
-0.6
 41
30.0
 62
     5
 63
     7
 74
     1
 91
        4
 64
     7
 65
   257
 75
     1
175
     1
 42
1.0
 92
        0
 66
   257
 43
1.0
 76
     1
 77
     6
 78
     2
 67
     7
 79
     5
170
     0
171
     0
290
     0
174
     0
 93
       13
 44
0.0
173
     0
291
     1
 45
0.0
1001
ACAD
1000
AcDbSavedByObjectVersion
1070
     0
  0
VISUALSTYLE
  5
2D
102
{ACAD_REACTORS
330
2A
102
}
102
{ACAD_XDICTIONARY
360
156
102
}
330
2A
100
AcDbVisualStyle
  2
Gouraud
 70
     2
 71
     2
 72
     2
 73
     1
 90
        2
 40
-0.6
 41
30.0
 62
     5
 63
     7
 74
     0
 91
        4
 64
     7
 65
   257
 75
     1
175
     1
 42
1.0
 92
        0
 66
     7
 43
1.0
 76
     1
 77
     6
 78
     2
 67
     7
 79
     5
170
     0
171
     0
290
     0
174
     0
 93
       13
 44
0.0
173
     0
291
     1
 45
0.0
1001
ACAD
1000
AcDbSavedByObjectVersion
1070
     0
  0
VISUALSTYLE
  5
2E
102
{ACAD_REACTORS
330
2A
102
}
102
{ACAD_XDICTIONARY
360
158
102
}
330
2A
100
AcDbVisualStyle
  2
GouraudWithEdges
 70
     3
 71
     2
 72
     2
 73
     1
 90
        2
 40
-0.6
 41
30.0
 62
     5
 63
     7
 74
     1
 91
        4
 64
     7
 65
   257
 75
     1
175
     1
 42
1.0
 92
        0
 66
   257
 43
1.0
 76
     1
 77
     6
 78
     2
 67
     7
 79
     5
170
     0
171
     0
290
     0
174
     0
 93
       13
 44
0.0
173
     0
291
     1
 45
0.0
1001
ACAD
1000
AcDbSavedByObjectVersion
1070
     0
  0
VISUALSTYLE
  5
38
102
{ACAD_REACTORS
330
2A
102
}
102
{ACAD_XDICTIONARY
360
16C
102
}
330
2A
100
AcDbVisualStyle
  2
Linepattern
 70
    14
 71
     2
 72
     2
 73
     0
 90
        0
 40
-0.6
 41
-30.0
 62
     5
 63
     7
 74
     1
 91
        4
 64
     7
 65
   257
 75
     7
175
     7
 42
1.0
 92
        8
 66
     7
 43
1.0
 76
     1
 77
     6
 78
     2
 67
     7
 79
     5
170
     0
171
     0
290
     0
174
     0
 93
        1
 44
0.0
173
     0
291
     1
 45
0.0
1001
ACAD
1000
AcDbSavedByObjectVersion
1070
     0
  0
VISUALSTYLE
  5
33
102
{ACAD_REACTORS
330
2A
102
}
102
{ACAD_XDICTIONARY
360
162
102
}
330
2A
100
AcDbVisualStyle
  2
Realistic
 70
     8
 71
     2
 72
     2
 73
     0
 90
        0
 40
-0.6
 41
-30.0
 62
     5
 63
     7
 74
     1
 91
        0
 64
     7
 65
   257
 75
     1
175
     1
 42
1.0
 92
        8
 66
     8
 43
1.0
 76
     1
 77
     6
 78
     2
 67
     7
 79
     5
170
     0
171
     0
290
     0
174
     0
 93
       13
 44
0.0
173
     0
291
     0
 45
0.0
1001
ACAD
1000
AcDbSavedByObjectVersion
1070
     0
  0
VISUALSTYLE
  5
37
102
{ACAD_REACTORS
330
2A
102
}
102
{ACAD_XDICTIONARY
360
16A
102
}
330
2A
100
AcDbVisualStyle
  2
Thicken
 70
    13
 71
     2
 72
     2
 73
     0
 90
        0
 40
-0.6
 41
-30.0
 62
     5
 63
     7
 74
     1
 91
        4
 64
     7
 65
   257
 75
     1
175
     1
 42
1.0
 92
       12
 66
     7
 43
1.0
 76
     1
 77
     6
 78
     2
 67
     7
 79
     5
170
     0
171
     0
290
     0
174
     0
 93
        1
 44
0.0
173
     0
291
     1
 45
0.0
1001
ACAD
1000
AcDbSavedByObjectVersion
1070
     0
  0
DICTIONARYVAR
  5
149
102
{ACAD_REACTORS
330
145
102
}
330
145
100
DictionaryVariables
280
     0
  1
1:1
  0
DICTIONARYVAR
  5
14A
102
{ACAD_REACTORS
330
145
102
}
330
145
100
DictionaryVariables
280
     0
  1
2
  0
DICTIONARYVAR
  5
14B
102
{ACAD_REACTORS
330
145
102
}
330
145
100
DictionaryVariables
280
     0
  1
1
  0
DICTIONARYVAR
  5
148
102
{ACAD_REACTORS
330
145
102
}
330
145
100
DictionaryVariables
280
     0
  1
0
  0
XRECORD
  5
144
102
{ACAD_REACTORS
330
143
102
}
330
143
100
AcDbXrecord
280
     1
1000
This DWG file was created in ArchiCAD(TM)®
  0
SPATIAL_FILTER
  5
119
102
{ACAD_REACTORS
330
118
102
}
330
118
100
AcDbFilter
100
AcDbSpatialFilter
 70
     4
 10
-13.89117454924849
 20
12.58760323852287
 10
307.2971142869389
 20
12.58760323852287
 10
307.2971142869389
 20
212.672111038115
 10
-13.89117454924849
 20
212.672111038115
210
0.0
220
0.0
230
1.0
 11
0.0
 21
0.0
 31
0.0
 71
     1
 72
     0
 73
     0
 40
1.0
 40
0.0
 40
0.0
 40
0.0
 40
0.0
 40
1.0
 40
0.0
 40
0.0
 40
0.0
 40
0.0
 40
1.0
 40
0.0
 40
1.0
 40
0.0
 40
0.0
 40
0.0
 40
0.0
 40
1.0
 40
0.0
 40
0.0
 40
0.0
 40
0.0
 40
1.0
 40
0.0
  0
DICTIONARY
  5
174
330
3D
100
AcDbDictionary
280
     1
281
     1
  3
ACAD_XREC_ROUNDTRIP
360
175
  0
DICTIONARY
  5
172
330
3C
100
AcDbDictionary
280
     1
281
     1
  3
ACAD_XREC_ROUNDTRIP
360
173
  0
DICTIONARY
  5
176
330
3E
100
AcDbDictionary
280
     1
281
     1
  3
ACAD_XREC_ROUNDTRIP
360
177
  0
DICTIONARY
  5
15A
330
2F
100
AcDbDictionary
280
     1
281
     1
  3
ACAD_XREC_ROUNDTRIP
360
15B
  0
DICTIONARY
  5
15E
330
31
100
AcDbDictionary
280
     1
281
     1
  3
ACAD_XREC_ROUNDTRIP
360
15F
  0
DICTIONARY
  5
15C
330
30
100
AcDbDictionary
280
     1
281
     1
  3
ACAD_XREC_ROUNDTRIP
360
15D
  0
DICTIONARY
  5
160
330
32
100
AcDbDictionary
280
     1
281
     1
  3
ACAD_XREC_ROUNDTRIP
360
161
  0
DICTIONARY
  5
168
330
36
100
AcDbDictionary
280
     1
281
     1
  3
ACAD_XREC_ROUNDTRIP
360
169
  0
DICTIONARY
  5
170
330
3A
100
AcDbDictionary
280
     1
281
     1
  3
ACAD_XREC_ROUNDTRIP
360
171
  0
DICTIONARY
  5
164
330
34
100
AcDbDictionary
280
     1
281
     1
  3
ACAD_XREC_ROUNDTRIP
360
165
  0
DICTIONARY
  5
166
330
35
100
AcDbDictionary
280
     1
281
     1
  3
ACAD_XREC_ROUNDTRIP
360
167
  0
DICTIONARY
  5
16E
330
39
100
AcDbDictionary
280
     1
281
     1
  3
ACAD_XREC_ROUNDTRIP
360
16F
  0
DICTIONARY
  5
152
330
2B
100
AcDbDictionary
280
     1
281
     1
  3
ACAD_XREC_ROUNDTRIP
360
153
  0
DICTIONARY
  5
154
330
2C
100
AcDbDictionary
280
     1
281
     1
  3
ACAD_XREC_ROUNDTRIP
360
155
  0
DICTIONARY
  5
156
330
2D
100
AcDbDictionary
280
     1
281
     1
  3
ACAD_XREC_ROUNDTRIP
360
157
  0
DICTIONARY
  5
158
330
2E
100
AcDbDictionary
280
     1
281
     1
  3
ACAD_XREC_ROUNDTRIP
360
159
  0
DICTIONARY
  5
16C
330
38
100
AcDbDictionary
280
     1
281
     1
  3
ACAD_XREC_ROUNDTRIP
360
16D
  0
DICTIONARY
  5
162
330
33
100
AcDbDictionary
280
     1
281
     1
  3
ACAD_XREC_ROUNDTRIP
360
163
  0
DICTIONARY
  5
16A
330
37
100
AcDbDictionary
280
     1
281
     1
  3
ACAD_XREC_ROUNDTRIP
360
16B
  0
XRECORD
  5
175
102
{ACAD_REACTORS
330
174
102
}
330
174
100
AcDbXrecord
280
     1
102
MATERIAL
148
0.0
149
0.0
149
0.0
 93
        0
 94
      127
282
     0
 72
     1
 77
     1
171
     1
175
     1
179
     1
273
     0
  0
XRECORD
  5
173
102
{ACAD_REACTORS
330
172
102
}
330
172
100
AcDbXrecord
280
     1
102
MATERIAL
148
0.0
149
0.0
149
0.0
 93
        0
 94
      127
282
     0
 72
     1
 77
     1
171
     1
175
     1
179
     1
273
     0
  0
XRECORD
  5
177
102
{ACAD_REACTORS
330
176
102
}
330
176
100
AcDbXrecord
280
     1
102
MATERIAL
148
0.0
149
0.0
149
0.0
 93
        0
 94
      127
282
     0
 72
     1
 77
     1
171
     1
175
     1
179
     1
273
     0
  0
XRECORD
  5
15B
102
{ACAD_REACTORS
330
15A
102
}
330
15A
100
AcDbXrecord
280
     1
102
RTVSPropertyOp0
 70
     1
102
RTVSPropertyOp1
 70
     1
102
RTVSPropertyOp2
 70
     1
102
RTVSPropertyOp3
 70
     1
102
RTVSPropertyOp4
 70
     1
102
RTVSPropertyOp5
 70
     1
102
RTVSPropertyOp6
 70
     1
102
RTVSPropertyOp7
 70
     1
102
RTVSPropertyOp8
 70
     1
102
RTVSPropertyOp9
 70
     1
102
RTVSPropertyOp10
 70
     1
102
RTVSPropertyOp11
 70
     1
102
RTVSPropertyOp12
 70
     1
102
RTVSPropertyOp13
 70
     1
102
RTVSPropertyOp14
 70
     1
102
RTVSPropertyOp15
 70
     1
102
RTVSPropertyOp16
 70
     1
102
RTVSPropertyOp17
 70
     1
102
RTVSPropertyOp18
 70
     1
102
RTVSPropertyOp19
 70
     1
102
RTVSPropertyOp20
 70
     1
102
RTVSPropertyOp21
 70
     1
102
RTVSPropertyOp22
 70
     1
102
RTVSPropertyOp23
 70
     1
102
RTVSPropertyOp24
 70
     1
102
RTVSPropertyOp25
 70
     1
102
RTVSPropertyOp26
 70
     1
102
RTVSPropertyOp27
 70
     1
102
RTVSPropertyOp28
 70
     1
102
RTVSPropertyOp29
 70
     1
102
RTVSPropertyOp30
 70
     1
102
RTVSPropertyOp31
 70
     1
102
RTVSPropertyOp32
 70
     1
  0
XRECORD
  5
15F
102
{ACAD_REACTORS
330
15E
102
}
330
15E
100
AcDbXrecord
280
     1
102
RTVSPropertyOp0
 70
     1
102
RTVSPropertyOp1
 70
     1
102
RTVSPropertyOp2
 70
     1
102
RTVSPropertyOp3
 70
     1
102
RTVSPropertyOp4
 70
     1
102
RTVSPropertyOp5
 70
     1
102
RTVSPropertyOp6
 70
     1
102
RTVSPropertyOp7
 70
     1
102
RTVSPropertyOp8
 70
     1
102
RTVSPropertyOp9
 70
     1
102
RTVSPropertyOp10
 70
     1
102
RTVSPropertyOp11
 70
     1
102
RTVSPropertyOp12
 70
     1
102
RTVSPropertyOp13
 70
     1
102
RTVSPropertyOp14
 70
     1
102
RTVSPropertyOp15
 70
     1
102
RTVSPropertyOp16
 70
     1
102
RTVSPropertyOp17
 70
     1
102
RTVSPropertyOp18
 70
     1
102
RTVSPropertyOp19
 70
     1
102
RTVSPropertyOp20
 70
     1
102
RTVSPropertyOp21
 70
     1
102
RTVSPropertyOp22
 70
     1
102
RTVSPropertyOp23
 70
     1
102
RTVSPropertyOp24
 70
     1
102
RTVSPropertyOp25
 70
     1
102
RTVSPropertyOp26
 70
     1
102
RTVSPropertyOp27
 70
     1
102
RTVSPropertyOp28
 70
     1
102
RTVSPropertyOp29
 70
     1
102
RTVSPropertyOp30
 70
     1
102
RTVSPropertyOp31
 70
     1
102
RTVSPropertyOp32
 70
     1
  0
XRECORD
  5
15D
102
{ACAD_REACTORS
330
15C
102
}
330
15C
100
AcDbXrecord
280
     1
102
RTVSPropertyOp0
 70
     1
102
RTVSPropertyOp1
 70
     1
102
RTVSPropertyOp2
 70
     1
102
RTVSPropertyOp3
 70
     1
102
RTVSPropertyOp4
 70
     1
102
RTVSPropertyOp5
 70
     1
102
RTVSPropertyOp6
 70
     1
102
RTVSPropertyOp7
 70
     1
102
RTVSPropertyOp8
 70
     1
102
RTVSPropertyOp9
 70
     1
102
RTVSPropertyOp10
 70
     1
102
RTVSPropertyOp11
 70
     1
102
RTVSPropertyOp12
 70
     1
102
RTVSPropertyOp13
 70
     1
102
RTVSPropertyOp14
 70
     1
102
RTVSPropertyOp15
 70
     1
102
RTVSPropertyOp16
 70
     1
102
RTVSPropertyOp17
 70
     1
102
RTVSPropertyOp18
 70
     1
102
RTVSPropertyOp19
 70
     1
102
RTVSPropertyOp20
 70
     1
102
RTVSPropertyOp21
 70
     1
102
RTVSPropertyOp22
 70
     1
102
RTVSPropertyOp23
 70
     1
102
RTVSPropertyOp24
 70
     1
102
RTVSPropertyOp25
 70
     1
102
RTVSPropertyOp26
 70
     1
102
RTVSPropertyOp27
 70
     1
102
RTVSPropertyOp28
 70
     1
102
RTVSPropertyOp29
 70
     1
102
RTVSPropertyOp30
 70
     1
102
RTVSPropertyOp31
 70
     1
102
RTVSPropertyOp32
 70
     1
  0
XRECORD
  5
161
102
{ACAD_REACTORS
330
160
102
}
330
160
100
AcDbXrecord
280
     1
102
RTVSPropertyOp0
 70
     1
102
RTVSPropertyOp1
 70
     1
102
RTVSPropertyOp2
 70
     1
102
RTVSPropertyOp3
 70
     1
102
RTVSPropertyOp4
 70
     1
102
RTVSPropertyOp5
 70
     1
102
RTVSPropertyOp6
 70
     1
102
RTVSPropertyOp7
 70
     1
102
RTVSPropertyOp8
 70
     1
102
RTVSPropertyOp9
 70
     1
102
RTVSPropertyOp10
 70
     1
102
RTVSPropertyOp11
 70
     1
102
RTVSPropertyOp12
 70
     1
102
RTVSPropertyOp13
 70
     1
102
RTVSPropertyOp14
 70
     1
102
RTVSPropertyOp15
 70
     1
102
RTVSPropertyOp16
 70
     1
102
RTVSPropertyOp17
 70
     1
102
RTVSPropertyOp18
 70
     1
102
RTVSPropertyOp19
 70
     1
102
RTVSPropertyOp20
 70
     1
102
RTVSPropertyOp21
 70
     1
102
RTVSPropertyOp22
 70
     1
102
RTVSPropertyOp23
 70
     1
102
RTVSPropertyOp24
 70
     1
102
RTVSPropertyOp25
 70
     1
102
RTVSPropertyOp26
 70
     1
102
RTVSPropertyOp27
 70
     1
102
RTVSPropertyOp28
 70
     1
102
RTVSPropertyOp29
 70
     1
102
RTVSPropertyOp30
 70
     1
102
RTVSPropertyOp31
 70
     1
102
RTVSPropertyOp32
 70
     1
  0
XRECORD
  5
169
102
{ACAD_REACTORS
330
168
102
}
330
168
100
AcDbXrecord
280
     1
102
RTVSPropertyOp0
 70
     1
102
RTVSPropertyOp1
 70
     1
102
RTVSPropertyOp2
 70
     1
102
RTVSPropertyOp3
 70
     1
102
RTVSPropertyOp4
 70
     1
102
RTVSPropertyOp5
 70
     1
102
RTVSPropertyOp6
 70
     1
102
RTVSPropertyOp7
 70
     1
102
RTVSPropertyOp8
 70
     1
102
RTVSPropertyOp9
 70
     1
102
RTVSPropertyOp10
 70
     1
102
RTVSPropertyOp11
 70
     1
102
RTVSPropertyOp12
 70
     1
102
RTVSPropertyOp13
 70
     1
102
RTVSPropertyOp14
 70
     1
102
RTVSPropertyOp15
 70
     1
102
RTVSPropertyOp16
 70
     1
102
RTVSPropertyOp17
 70
     1
102
RTVSPropertyOp18
 70
     1
102
RTVSPropertyOp19
 70
     1
102
RTVSPropertyOp20
 70
     1
102
RTVSPropertyOp21
 70
     1
102
RTVSPropertyOp22
 70
     1
102
RTVSPropertyOp23
 70
     1
102
RTVSPropertyOp24
 70
     1
102
RTVSPropertyOp25
 70
     1
102
RTVSPropertyOp26
 70
     1
102
RTVSPropertyOp27
 70
     1
102
RTVSPropertyOp28
 70
     1
102
RTVSPropertyOp29
 70
     1
102
RTVSPropertyOp30
 70
     1
102
RTVSPropertyOp31
 70
     1
102
RTVSPropertyOp32
 70
     1
  0
XRECORD
  5
171
102
{ACAD_REACTORS
330
170
102
}
330
170
100
AcDbXrecord
280
     1
102
RTVSPropertyOp0
 70
     1
102
RTVSPropertyOp1
 70
     1
102
RTVSPropertyOp2
 70
     1
102
RTVSPropertyOp3
 70
     1
102
RTVSPropertyOp4
 70
     1
102
RTVSPropertyOp5
 70
     1
102
RTVSPropertyOp6
 70
     1
102
RTVSPropertyOp7
 70
     1
102
RTVSPropertyOp8
 70
     1
102
RTVSPropertyOp9
 70
     1
102
RTVSPropertyOp10
 70
     1
102
RTVSPropertyOp11
 70
     1
102
RTVSPropertyOp12
 70
     1
102
RTVSPropertyOp13
 70
     1
102
RTVSPropertyOp14
 70
     1
102
RTVSPropertyOp15
 70
     1
102
RTVSPropertyOp16
 70
     1
102
RTVSPropertyOp17
 70
     1
102
RTVSPropertyOp18
 70
     1
102
RTVSPropertyOp19
 70
     1
102
RTVSPropertyOp20
 70
     1
102
RTVSPropertyOp21
 70
     1
102
RTVSPropertyOp22
 70
     1
102
RTVSPropertyOp23
 70
     1
102
RTVSPropertyOp24
 70
     1
102
RTVSPropertyOp25
 70
     1
102
RTVSPropertyOp26
 70
     1
102
RTVSPropertyOp27
 70
     1
102
RTVSPropertyOp28
 70
     1
102
RTVSPropertyOp29
 70
     1
102
RTVSPropertyOp30
 70
     1
102
RTVSPropertyOp31
 70
     1
102
RTVSPropertyOp32
 70
     1
  0
XRECORD
  5
165
102
{ACAD_REACTORS
330
164
102
}
330
164
100
AcDbXrecord
280
     1
102
RTVSPropertyOp0
 70
     1
102
RTVSPropertyOp1
 70
     1
102
RTVSPropertyOp2
 70
     1
102
RTVSPropertyOp3
 70
     1
102
RTVSPropertyOp4
 70
     1
102
RTVSPropertyOp5
 70
     1
102
RTVSPropertyOp6
 70
     1
102
RTVSPropertyOp7
 70
     1
102
RTVSPropertyOp8
 70
     1
102
RTVSPropertyOp9
 70
     1
102
RTVSPropertyOp10
 70
     1
102
RTVSPropertyOp11
 70
     1
102
RTVSPropertyOp12
 70
     1
102
RTVSPropertyOp13
 70
     1
102
RTVSPropertyOp14
 70
     1
102
RTVSPropertyOp15
 70
     1
102
RTVSPropertyOp16
 70
     1
102
RTVSPropertyOp17
 70
     1
102
RTVSPropertyOp18
 70
     1
102
RTVSPropertyOp19
 70
     1
102
RTVSPropertyOp20
 70
     1
102
RTVSPropertyOp21
 70
     1
102
RTVSPropertyOp22
 70
     1
102
RTVSPropertyOp23
 70
     1
102
RTVSPropertyOp24
 70
     1
102
RTVSPropertyOp25
 70
     1
102
RTVSPropertyOp26
 70
     1
102
RTVSPropertyOp27
 70
     1
102
RTVSPropertyOp28
 70
     1
102
RTVSPropertyOp29
 70
     1
102
RTVSPropertyOp30
 70
     1
102
RTVSPropertyOp31
 70
     1
102
RTVSPropertyOp32
 70
     1
  0
XRECORD
  5
167
102
{ACAD_REACTORS
330
166
102
}
330
166
100
AcDbXrecord
280
     1
102
RTVSPropertyOp0
 70
     1
102
RTVSPropertyOp1
 70
     1
102
RTVSPropertyOp2
 70
     1
102
RTVSPropertyOp3
 70
     1
102
RTVSPropertyOp4
 70
     1
102
RTVSPropertyOp5
 70
     1
102
RTVSPropertyOp6
 70
     1
102
RTVSPropertyOp7
 70
     1
102
RTVSPropertyOp8
 70
     1
102
RTVSPropertyOp9
 70
     1
102
RTVSPropertyOp10
 70
     1
102
RTVSPropertyOp11
 70
     1
102
RTVSPropertyOp12
 70
     1
102
RTVSPropertyOp13
 70
     1
102
RTVSPropertyOp14
 70
     1
102
RTVSPropertyOp15
 70
     1
102
RTVSPropertyOp16
 70
     1
102
RTVSPropertyOp17
 70
     1
102
RTVSPropertyOp18
 70
     1
102
RTVSPropertyOp19
 70
     1
102
RTVSPropertyOp20
 70
     1
102
RTVSPropertyOp21
 70
     1
102
RTVSPropertyOp22
 70
     1
102
RTVSPropertyOp23
 70
     1
102
RTVSPropertyOp24
 70
     1
102
RTVSPropertyOp25
 70
     1
102
RTVSPropertyOp26
 70
     1
102
RTVSPropertyOp27
 70
     1
102
RTVSPropertyOp28
 70
     1
102
RTVSPropertyOp29
 70
     1
102
RTVSPropertyOp30
 70
     1
102
RTVSPropertyOp31
 70
     1
102
RTVSPropertyOp32
 70
     1
  0
XRECORD
  5
16F
102
{ACAD_REACTORS
330
16E
102
}
330
16E
100
AcDbXrecord
280
     1
102
RTVSPropertyOp0
 70
     1
102
RTVSPropertyOp1
 70
     1
102
RTVSPropertyOp2
 70
     1
102
RTVSPropertyOp3
 70
     1
102
RTVSPropertyOp4
 70
     1
102
RTVSPropertyOp5
 70
     1
102
RTVSPropertyOp6
 70
     1
102
RTVSPropertyOp7
 70
     1
102
RTVSPropertyOp8
 70
     1
102
RTVSPropertyOp9
 70
     1
102
RTVSPropertyOp10
 70
     1
102
RTVSPropertyOp11
 70
     1
102
RTVSPropertyOp12
 70
     1
102
RTVSPropertyOp13
 70
     1
102
RTVSPropertyOp14
 70
     1
102
RTVSPropertyOp15
 70
     1
102
RTVSPropertyOp16
 70
     1
102
RTVSPropertyOp17
 70
     1
102
RTVSPropertyOp18
 70
     1
102
RTVSPropertyOp19
 70
     1
102
RTVSPropertyOp20
 70
     1
102
RTVSPropertyOp21
 70
     1
102
RTVSPropertyOp22
 70
     1
102
RTVSPropertyOp23
 70
     1
102
RTVSPropertyOp24
 70
     1
102
RTVSPropertyOp25
 70
     1
102
RTVSPropertyOp26
 70
     1
102
RTVSPropertyOp27
 70
     1
102
RTVSPropertyOp28
 70
     1
102
RTVSPropertyOp29
 70
     1
102
RTVSPropertyOp30
 70
     1
102
RTVSPropertyOp31
 70
     1
102
RTVSPropertyOp32
 70
     1
  0
XRECORD
  5
153
102
{ACAD_REACTORS
330
152
102
}
330
152
100
AcDbXrecord
280
     1
102
RTVSPropertyOp0
 70
     1
102
RTVSPropertyOp1
 70
     1
102
RTVSPropertyOp2
 70
     1
102
RTVSPropertyOp3
 70
     1
102
RTVSPropertyOp4
 70
     1
102
RTVSPropertyOp5
 70
     1
102
RTVSPropertyOp6
 70
     1
102
RTVSPropertyOp7
 70
     1
102
RTVSPropertyOp8
 70
     1
102
RTVSPropertyOp9
 70
     1
102
RTVSPropertyOp10
 70
     1
102
RTVSPropertyOp11
 70
     1
102
RTVSPropertyOp12
 70
     1
102
RTVSPropertyOp13
 70
     1
102
RTVSPropertyOp14
 70
     1
102
RTVSPropertyOp15
 70
     1
102
RTVSPropertyOp16
 70
     1
102
RTVSPropertyOp17
 70
     1
102
RTVSPropertyOp18
 70
     1
102
RTVSPropertyOp19
 70
     1
102
RTVSPropertyOp20
 70
     1
102
RTVSPropertyOp21
 70
     1
102
RTVSPropertyOp22
 70
     1
102
RTVSPropertyOp23
 70
     1
102
RTVSPropertyOp24
 70
     1
102
RTVSPropertyOp25
 70
     1
102
RTVSPropertyOp26
 70
     1
102
RTVSPropertyOp27
 70
     1
102
RTVSPropertyOp28
 70
     1
102
RTVSPropertyOp29
 70
     1
102
RTVSPropertyOp30
 70
     1
102
RTVSPropertyOp31
 70
     1
102
RTVSPropertyOp32
 70
     1
  0
XRECORD
  5
155
102
{ACAD_REACTORS
330
154
102
}
330
154
100
AcDbXrecord
280
     1
102
RTVSPropertyOp0
 70
     1
102
RTVSPropertyOp1
 70
     1
102
RTVSPropertyOp2
 70
     1
102
RTVSPropertyOp3
 70
     1
102
RTVSPropertyOp4
 70
     1
102
RTVSPropertyOp5
 70
     1
102
RTVSPropertyOp6
 70
     1
102
RTVSPropertyOp7
 70
     1
102
RTVSPropertyOp8
 70
     1
102
RTVSPropertyOp9
 70
     1
102
RTVSPropertyOp10
 70
     1
102
RTVSPropertyOp11
 70
     1
102
RTVSPropertyOp12
 70
     1
102
RTVSPropertyOp13
 70
     1
102
RTVSPropertyOp14
 70
     1
102
RTVSPropertyOp15
 70
     1
102
RTVSPropertyOp16
 70
     1
102
RTVSPropertyOp17
 70
     1
102
RTVSPropertyOp18
 70
     1
102
RTVSPropertyOp19
 70
     1
102
RTVSPropertyOp20
 70
     1
102
RTVSPropertyOp21
 70
     1
102
RTVSPropertyOp22
 70
     1
102
RTVSPropertyOp23
 70
     1
102
RTVSPropertyOp24
 70
     1
102
RTVSPropertyOp25
 70
     1
102
RTVSPropertyOp26
 70
     1
102
RTVSPropertyOp27
 70
     1
102
RTVSPropertyOp28
 70
     1
102
RTVSPropertyOp29
 70
     1
102
RTVSPropertyOp30
 70
     1
102
RTVSPropertyOp31
 70
     1
102
RTVSPropertyOp32
 70
     1
  0
XRECORD
  5
157
102
{ACAD_REACTORS
330
156
102
}
330
156
100
AcDbXrecord
280
     1
102
RTVSPropertyOp0
 70
     1
102
RTVSPropertyOp1
 70
     1
102
RTVSPropertyOp2
 70
     1
102
RTVSPropertyOp3
 70
     1
102
RTVSPropertyOp4
 70
     1
102
RTVSPropertyOp5
 70
     1
102
RTVSPropertyOp6
 70
     1
102
RTVSPropertyOp7
 70
     1
102
RTVSPropertyOp8
 70
     1
102
RTVSPropertyOp9
 70
     1
102
RTVSPropertyOp10
 70
     1
102
RTVSPropertyOp11
 70
     1
102
RTVSPropertyOp12
 70
     1
102
RTVSPropertyOp13
 70
     1
102
RTVSPropertyOp14
 70
     1
102
RTVSPropertyOp15
 70
     1
102
RTVSPropertyOp16
 70
     1
102
RTVSPropertyOp17
 70
     1
102
RTVSPropertyOp18
 70
     1
102
RTVSPropertyOp19
 70
     1
102
RTVSPropertyOp20
 70
     1
102
RTVSPropertyOp21
 70
     1
102
RTVSPropertyOp22
 70
     1
102
RTVSPropertyOp23
 70
     1
102
RTVSPropertyOp24
 70
     1
102
RTVSPropertyOp25
 70
     1
102
RTVSPropertyOp26
 70
     1
102
RTVSPropertyOp27
 70
     1
102
RTVSPropertyOp28
 70
     1
102
RTVSPropertyOp29
 70
     1
102
RTVSPropertyOp30
 70
     1
102
RTVSPropertyOp31
 70
     1
102
RTVSPropertyOp32
 70
     1
  0
XRECORD
  5
159
102
{ACAD_REACTORS
330
158
102
}
330
158
100
AcDbXrecord
280
     1
102
RTVSPropertyOp0
 70
     1
102
RTVSPropertyOp1
 70
     1
102
RTVSPropertyOp2
 70
     1
102
RTVSPropertyOp3
 70
     1
102
RTVSPropertyOp4
 70
     1
102
RTVSPropertyOp5
 70
     1
102
RTVSPropertyOp6
 70
     1
102
RTVSPropertyOp7
 70
     1
102
RTVSPropertyOp8
 70
     1
102
RTVSPropertyOp9
 70
     1
102
RTVSPropertyOp10
 70
     1
102
RTVSPropertyOp11
 70
     1
102
RTVSPropertyOp12
 70
     1
102
RTVSPropertyOp13
 70
     1
102
RTVSPropertyOp14
 70
     1
102
RTVSPropertyOp15
 70
     1
102
RTVSPropertyOp16
 70
     1
102
RTVSPropertyOp17
 70
     1
102
RTVSPropertyOp18
 70
     1
102
RTVSPropertyOp19
 70
     1
102
RTVSPropertyOp20
 70
     1
102
RTVSPropertyOp21
 70
     1
102
RTVSPropertyOp22
 70
     1
102
RTVSPropertyOp23
 70
     1
102
RTVSPropertyOp24
 70
     1
102
RTVSPropertyOp25
 70
     1
102
RTVSPropertyOp26
 70
     1
102
RTVSPropertyOp27
 70
     1
102
RTVSPropertyOp28
 70
     1
102
RTVSPropertyOp29
 70
     1
102
RTVSPropertyOp30
 70
     1
102
RTVSPropertyOp31
 70
     1
102
RTVSPropertyOp32
 70
     1
  0
XRECORD
  5
16D
102
{ACAD_REACTORS
330
16C
102
}
330
16C
100
AcDbXrecord
280
     1
102
RTVSPropertyOp0
 70
     1
102
RTVSPropertyOp1
 70
     1
102
RTVSPropertyOp2
 70
     1
102
RTVSPropertyOp3
 70
     1
102
RTVSPropertyOp4
 70
     1
102
RTVSPropertyOp5
 70
     1
102
RTVSPropertyOp6
 70
     1
102
RTVSPropertyOp7
 70
     1
102
RTVSPropertyOp8
 70
     1
102
RTVSPropertyOp9
 70
     1
102
RTVSPropertyOp10
 70
     1
102
RTVSPropertyOp11
 70
     1
102
RTVSPropertyOp12
 70
     1
102
RTVSPropertyOp13
 70
     1
102
RTVSPropertyOp14
 70
     1
102
RTVSPropertyOp15
 70
     1
102
RTVSPropertyOp16
 70
     1
102
RTVSPropertyOp17
 70
     1
102
RTVSPropertyOp18
 70
     1
102
RTVSPropertyOp19
 70
     1
102
RTVSPropertyOp20
 70
     1
102
RTVSPropertyOp21
 70
     1
102
RTVSPropertyOp22
 70
     1
102
RTVSPropertyOp23
 70
     1
102
RTVSPropertyOp24
 70
     1
102
RTVSPropertyOp25
 70
     1
102
RTVSPropertyOp26
 70
     1
102
RTVSPropertyOp27
 70
     1
102
RTVSPropertyOp28
 70
     1
102
RTVSPropertyOp29
 70
     1
102
RTVSPropertyOp30
 70
     1
102
RTVSPropertyOp31
 70
     1
102
RTVSPropertyOp32
 70
     1
  0
XRECORD
  5
163
102
{ACAD_REACTORS
330
162
102
}
330
162
100
AcDbXrecord
280
     1
102
RTVSPropertyOp0
 70
     1
102
RTVSPropertyOp1
 70
     1
102
RTVSPropertyOp2
 70
     1
102
RTVSPropertyOp3
 70
     1
102
RTVSPropertyOp4
 70
     1
102
RTVSPropertyOp5
 70
     1
102
RTVSPropertyOp6
 70
     1
102
RTVSPropertyOp7
 70
     1
102
RTVSPropertyOp8
 70
     1
102
RTVSPropertyOp9
 70
     1
102
RTVSPropertyOp10
 70
     1
102
RTVSPropertyOp11
 70
     1
102
RTVSPropertyOp12
 70
     1
102
RTVSPropertyOp13
 70
     1
102
RTVSPropertyOp14
 70
     1
102
RTVSPropertyOp15
 70
     1
102
RTVSPropertyOp16
 70
     1
102
RTVSPropertyOp17
 70
     1
102
RTVSPropertyOp18
 70
     1
102
RTVSPropertyOp19
 70
     1
102
RTVSPropertyOp20
 70
     1
102
RTVSPropertyOp21
 70
     1
102
RTVSPropertyOp22
 70
     1
102
RTVSPropertyOp23
 70
     1
102
RTVSPropertyOp24
 70
     1
102
RTVSPropertyOp25
 70
     1
102
RTVSPropertyOp26
 70
     1
102
RTVSPropertyOp27
 70
     1
102
RTVSPropertyOp28
 70
     1
102
RTVSPropertyOp29
 70
     1
102
RTVSPropertyOp30
 70
     1
102
RTVSPropertyOp31
 70
     1
102
RTVSPropertyOp32
 70
     1
  0
XRECORD
  5
16B
102
{ACAD_REACTORS
330
16A
102
}
330
16A
100
AcDbXrecord
280
     1
102
RTVSPropertyOp0
 70
     1
102
RTVSPropertyOp1
 70
     1
102
RTVSPropertyOp2
 70
     1
102
RTVSPropertyOp3
 70
     1
102
RTVSPropertyOp4
 70
     1
102
RTVSPropertyOp5
 70
     1
102
RTVSPropertyOp6
 70
     1
102
RTVSPropertyOp7
 70
     1
102
RTVSPropertyOp8
 70
     1
102
RTVSPropertyOp9
 70
     1
102
RTVSPropertyOp10
 70
     1
102
RTVSPropertyOp11
 70
     1
102
RTVSPropertyOp12
 70
     1
102
RTVSPropertyOp13
 70
     1
102
RTVSPropertyOp14
 70
     1
102
RTVSPropertyOp15
 70
     1
102
RTVSPropertyOp16
 70
     1
102
RTVSPropertyOp17
 70
     1
102
RTVSPropertyOp18
 70
     1
102
RTVSPropertyOp19
 70
     1
102
RTVSPropertyOp20
 70
     1
102
RTVSPropertyOp21
 70
     1
102
RTVSPropertyOp22
 70
     1
102
RTVSPropertyOp23
 70
     1
102
RTVSPropertyOp24
 70
     1
102
RTVSPropertyOp25
 70
     1
102
RTVSPropertyOp26
 70
     1
102
RTVSPropertyOp27
 70
     1
102
RTVSPropertyOp28
 70
     1
102
RTVSPropertyOp29
 70
     1
102
RTVSPropertyOp30
 70
     1
102
RTVSPropertyOp31
 70
     1
102
RTVSPropertyOp32
 70
     1
  0
ENDSEC
  0
EOF
