  0
SECTION
  2
HEADER
  9
$ACADVER
  1
AC1015
  9
$ACADMAINTVER
 70
     6
  9
$DWGCODEPAGE
  3
ANSI_949
  9
$INSBASE
 10
0.0
 20
0.0
 30
0.0
  9
$EXTMIN
 10
1.000000000000000E+20
 20
1.000000000000000E+20
 30
1.000000000000000E+20
  9
$EXTMAX
 10
-1.000000000000000E+20
 20
-1.000000000000000E+20
 30
-1.000000000000000E+20
  9
$LIMMIN
 10
0.0
 20
0.0
  9
$LIMMAX
 10
12.0
 20
9.0
  9
$ORTHOMODE
 70
     0
  9
$REGENMODE
 70
     1
  9
$FILLMODE
 70
     1
  9
$QTEXTMODE
 70
     0
  9
$MIRRTEXT
 70
     1
  9
$LTSCALE
 40
1.0
  9
$ATTMODE
 70
     1
  9
$TEXTSIZE
 40
0.2
  9
$TRACEWID
 40
0.05
  9
$TEXTSTYLE
  7
Standard
  9
$CLAYER
  8
0
  9
$CELTYPE
  6
ByLayer
  9
$CECOLOR
 62
   256
  9
$CELTSCALE
 40
1.0
  9
$DISPSILH
 70
     0
  9
$DIMSCALE
 40
1.0
  9
$DIMASZ
 40
0.18
  9
$DIMEXO
 40
0.0625
  9
$DIMDLI
 40
0.38
  9
$DIMRND
 40
0.0
  9
$DIMDLE
 40
0.0
  9
$DIMEXE
 40
0.18
  9
$DIMTP
 40
0.0
  9
$DIMTM
 40
0.0
  9
$DIMTXT
 40
0.18
  9
$DIMCEN
 40
0.09
  9
$DIMTSZ
 40
0.0
  9
$DIMTOL
 70
     0
  9
$DIMLIM
 70
     0
  9
$DIMTIH
 70
     1
  9
$DIMTOH
 70
     1
  9
$DIMSE1
 70
     0
  9
$DIMSE2
 70
     0
  9
$DIMTAD
 70
     0
  9
$DIMZIN
 70
     0
  9
$DIMBLK
  1

  9
$DIMASO
 70
     1
  9
$DIMSHO
 70
     1
  9
$DIMPOST
  1

  9
$DIMAPOST
  1

  9
$DIMALT
 70
     0
  9
$DIMALTD
 70
     2
  9
$DIMALTF
 40
25.4
  9
$DIMLFAC
 40
1.0
  9
$DIMTOFL
 70
     0
  9
$DIMTVP
 40
0.0
  9
$DIMTIX
 70
     0
  9
$DIMSOXD
 70
     0
  9
$DIMSAH
 70
     0
  9
$DIMBLK1
  1

  9
$DIMBLK2
  1

  9
$DIMSTYLE
  2
Standard
  9
$DIMCLRD
 70
     0
  9
$DIMCLRE
 70
     0
  9
$DIMCLRT
 70
     0
  9
$DIMTFAC
 40
1.0
  9
$DIMGAP
 40
0.09
  9
$DIMJUST
 70
     0
  9
$DIMSD1
 70
     0
  9
$DIMSD2
 70
     0
  9
$DIMTOLJ
 70
     1
  9
$DIMTZIN
 70
     0
  9
$DIMALTZ
 70
     0
  9
$DIMALTTZ
 70
     0
  9
$DIMUPT
 70
     0
  9
$DIMDEC
 70
     4
  9
$DIMTDEC
 70
     4
  9
$DIMALTU
 70
     2
  9
$DIMALTTD
 70
     2
  9
$DIMTXSTY
  7
Standard
  9
$DIMAUNIT
 70
     0
  9
$DIMADEC
 70
     0
  9
$DIMALTRND
 40
0.0
  9
$DIMAZIN
 70
     0
  9
$DIMDSEP
 70
    46
  9
$DIMATFIT
 70
     3
  9
$DIMFRAC
 70
     0
  9
$DIMLDRBLK
  1

  9
$DIMLUNIT
 70
     2
  9
$DIMLWD
 70
    -2
  9
$DIMLWE
 70
    -2
  9
$DIMTMOVE
 70
     0
  9
$LUNITS
 70
     2
  9
$LUPREC
 70
     4
  9
$SKETCHINC
 40
0.1
  9
$FILLETRAD
 40
0.5
  9
$AUNITS
 70
     0
  9
$AUPREC
 70
     0
  9
$MENU
  1
.
  9
$ELEVATION
 40
0.0
  9
$PELEVATION
 40
0.0
  9
$THICKNESS
 40
0.0
  9
$LIMCHECK
 70
     0
  9
$CHAMFERA
 40
0.5
  9
$CHAMFERB
 40
0.5
  9
$CHAMFERC
 40
1.0
  9
$CHAMFERD
 40
0.0
  9
$SKPOLY
 70
     0
  9
$TDCREATE
 40
2456522.616718565
  9
$TDUCREATE
 40
2456522.116718565
  9
$TDUPDATE
 40
2456522.616746782
  9
$TDUUPDATE
 40
2456522.116746782
  9
$TDINDWG
 40
0.0000000116
  9
$TDUSRTIMER
 40
0.0000000116
  9
$USRTIMER
 70
     1
  9
$ANGBASE
 50
0.0
  9
$ANGDIR
 70
     0
  9
$PDMODE
 70
     0
  9
$PDSIZE
 40
0.0
  9
$PLINEWID
 40
0.0
  9
$SPLFRAME
 70
     0
  9
$SPLINETYPE
 70
     6
  9
$SPLINESEGS
 70
     8
  9
$HANDSEED
  5
506
  9
$SURFTAB1
 70
     6
  9
$SURFTAB2
 70
     6
  9
$SURFTYPE
 70
     6
  9
$SURFU
 70
     6
  9
$SURFV
 70
     6
  9
$UCSBASE
  2

  9
$UCSNAME
  2

  9
$UCSORG
 10
0.0
 20
0.0
 30
0.0
  9
$UCSXDIR
 10
1.0
 20
0.0
 30
0.0
  9
$UCSYDIR
 10
0.0
 20
1.0
 30
0.0
  9
$UCSORTHOREF
  2

  9
$UCSORTHOVIEW
 70
     0
  9
$UCSORGTOP
 10
0.0
 20
0.0
 30
0.0
  9
$UCSORGBOTTOM
 10
0.0
 20
0.0
 30
0.0
  9
$UCSORGLEFT
 10
0.0
 20
0.0
 30
0.0
  9
$UCSORGRIGHT
 10
0.0
 20
0.0
 30
0.0
  9
$UCSORGFRONT
 10
0.0
 20
0.0
 30
0.0
  9
$UCSORGBACK
 10
0.0
 20
0.0
 30
0.0
  9
$PUCSBASE
  2

  9
$PUCSNAME
  2

  9
$PUCSORG
 10
0.0
 20
0.0
 30
0.0
  9
$PUCSXDIR
 10
1.0
 20
0.0
 30
0.0
  9
$PUCSYDIR
 10
0.0
 20
1.0
 30
0.0
  9
$PUCSORTHOREF
  2

  9
$PUCSORTHOVIEW
 70
     0
  9
$PUCSORGTOP
 10
0.0
 20
0.0
 30
0.0
  9
$PUCSORGBOTTOM
 10
0.0
 20
0.0
 30
0.0
  9
$PUCSORGLEFT
 10
0.0
 20
0.0
 30
0.0
  9
$PUCSORGRIGHT
 10
0.0
 20
0.0
 30
0.0
  9
$PUCSORGFRONT
 10
0.0
 20
0.0
 30
0.0
  9
$PUCSORGBACK
 10
0.0
 20
0.0
 30
0.0
  9
$USERI1
 70
     0
  9
$USERI2
 70
     0
  9
$USERI3
 70
     0
  9
$USERI4
 70
     0
  9
$USERI5
 70
     0
  9
$USERR1
 40
0.0
  9
$USERR2
 40
0.0
  9
$USERR3
 40
0.0
  9
$USERR4
 40
0.0
  9
$USERR5
 40
0.0
  9
$WORLDVIEW
 70
     1
  9
$SHADEDGE
 70
     3
  9
$SHADEDIF
 70
    70
  9
$TILEMODE
 70
     1
  9
$MAXACTVP
 70
    64
  9
$PINSBASE
 10
0.0
 20
0.0
 30
0.0
  9
$PLIMCHECK
 70
     0
  9
$PEXTMIN
 10
1.000000000000000E+20
 20
1.000000000000000E+20
 30
1.000000000000000E+20
  9
$PEXTMAX
 10
-1.000000000000000E+20
 20
-1.000000000000000E+20
 30
-1.000000000000000E+20
  9
$PLIMMIN
 10
0.0
 20
0.0
  9
$PLIMMAX
 10
12.0
 20
9.0
  9
$UNITMODE
 70
     0
  9
$VISRETAIN
 70
     1
  9
$PLINEGEN
 70
     0
  9
$PSLTSCALE
 70
     1
  9
$TREEDEPTH
 70
  3020
  9
$CMLSTYLE
  2
Standard
  9
$CMLJUST
 70
     0
  9
$CMLSCALE
 40
1.0
  9
$PROXYGRAPHICS
 70
     1
  9
$MEASUREMENT
 70
     0
  9
$CELWEIGHT
370
    -1
  9
$ENDCAPS
280
     0
  9
$JOINSTYLE
280
     0
  9
$LWDISPLAY
290
     1
  9
$INSUNITS
 70
     4
  9
$HYPERLINKBASE
  1

  9
$STYLESHEET
  1

  9
$XEDIT
290
     1
  9
$CEPSNTYPE
380
     0
  9
$PSTYLEMODE
290
     1
  9
$FINGERPRINTGUID
  2
{F0371485-4BCA-40CF-9E3B-ED5DF164C6A7}
  9
$VERSIONGUID
  2
{FAEB1C32-E019-11D5-929B-00C0DF256EC4}
  9
$EXTNAMES
290
     1
  9
$PSVPSCALE
 40
0.0
  9
$OLESTARTUP
290
     0
  0
ENDSEC
  0
SECTION
  2
CLASSES
  0
CLASS
  1
ACDBDICTIONARYWDFLT
  2
AcDbDictionaryWithDefault
  3
ObjectDBX Classes
 90
        0
280
     0
281
     0
  0
CLASS
  1
VISUALSTYLE
  2
AcDbVisualStyle
  3
ObjectDBX Classes
 90
     4095
280
     0
281
     0
  0
CLASS
  1
MATERIAL
  2
AcDbMaterial
  3
ObjectDBX Classes
 90
     1153
280
     0
281
     0
  0
CLASS
  1
SPATIAL_FILTER
  2
AcDbSpatialFilter
  3
ObjectDBX Classes
 90
        0
280
     0
281
     0
  0
CLASS
  1
SCALE
  2
AcDbScale
  3
ObjectDBX Classes
 90
     1153
280
     0
281
     0
  0
CLASS
  1
DICTIONARYVAR
  2
AcDbDictionaryVar
  3
ObjectDBX Classes
 90
        0
280
     0
281
     0
  0
CLASS
  1
ACDBPLACEHOLDER
  2
AcDbPlaceHolder
  3
ObjectDBX Classes
 90
        0
280
     0
281
     0
  0
CLASS
  1
LAYOUT
  2
AcDbLayout
  3
ObjectDBX Classes
 90
        0
280
     0
281
     0
  0
ENDSEC
  0
SECTION
  2
TABLES
  0
TABLE
  2
VPORT
  5
8
330
0
100
AcDbSymbolTable
 70
     1
  0
VPORT
  5
29
330
8
100
AcDbSymbolTableRecord
100
AcDbViewportTableRecord
  2
*Active
 70
     0
 10
0.0
 20
0.0
 11
1.0
 21
1.0
 12
146.6665178733802
 22
97.27009299287371
 13
0.0
 23
0.0
 14
0.5
 24
0.5
 15
0.5
 25
0.5
 16
0.0
 26
0.0
 36
1.0
 17
0.0
 27
0.0
 37
0.0
 40
194.2960775920738
 41
1.487419087595574
 42
50.0
 43
0.0
 44
0.0
 50
0.0
 51
0.0
 71
     0
 72
   100
 73
     1
 74
     3
 75
     0
 76
     0
 77
     0
 78
     0
281
     0
 65
     1
110
0.0
120
0.0
130
0.0
111
1.0
121
0.0
131
0.0
112
0.0
122
1.0
132
0.0
 79
     0
146
0.0
  0
ENDTAB
  0
TABLE
  2
LTYPE
  5
5
330
0
100
AcDbSymbolTable
 70
     4
  0
LTYPE
  5
14
330
5
100
AcDbSymbolTableRecord
100
AcDbLinetypeTableRecord
  2
ByBlock
 70
     0
  3

 72
    65
 73
     0
 40
0.0
  0
LTYPE
  5
15
330
5
100
AcDbSymbolTableRecord
100
AcDbLinetypeTableRecord
  2
ByLayer
 70
     0
  3

 72
    65
 73
     0
 40
0.0
  0
LTYPE
  5
16
330
5
100
AcDbSymbolTableRecord
100
AcDbLinetypeTableRecord
  2
Continuous
 70
     0
  3
Solid line
 72
    65
 73
     0
 40
0.0
  0
LTYPE
  5
118
330
5
100
AcDbSymbolTableRecord
100
AcDbLinetypeTableRecord
  2
Double Dashed
 70
     0
  3
- - - - - 
 72
    65
 73
     4
 40
10.93611073493958
 49
5.291666507720947
 74
     0
 49
-2.116666555404663
 74
     0
 49
1.411111116409302
 74
     0
 49
-2.116666555404668
 74
     0
  0
LTYPE
  5
11A
330
5
100
AcDbSymbolTableRecord
100
AcDbLinetypeTableRecord
  2
Hidden Line
 70
     0
  3
- - - - - 
 72
    65
 73
     2
 40
3.912222232818603
 49
2.822222232818604
 74
     0
 49
-1.089999999999999
 74
     0
  0
LTYPE
  5
15A
330
5
100
AcDbSymbolTableRecord
100
AcDbLinetypeTableRecord
  2
Dot & Dashed
 70
     0
  3
- - - - - 
 72
    65
 73
     4
 40
6.702777624130249
 49
3.527777671813965
 74
     0
 49
-1.763888835906982
 74
     0
 49
0.0
 74
     0
 49
-1.411111116409302
 74
     0
  0
ENDTAB
  0
TABLE
  2
LAYER
  5
2
330
0
100
AcDbSymbolTable
 70
     4
  0
LAYER
  5
10
330
2
100
AcDbSymbolTableRecord
100
AcDbLayerTableRecord
  2
0
 70
     0
 62
     7
  6
Continuous
370
    -3
390
F
  0
LAYER
  5
40
330
2
100
AcDbSymbolTableRecord
100
AcDbLayerTableRecord
  2
Doc_ Finishes
 70
     0
 62
     7
  6
Continuous
370
    -3
390
F
  0
LAYER
  5
DB
330
2
100
AcDbSymbolTableRecord
100
AcDbLayerTableRecord
  2
Doc_ Floor
 70
     0
 62
     7
  6
Continuous
370
    -3
390
F
  0
LAYER
  5
E7
330
2
100
AcDbSymbolTableRecord
100
AcDbLayerTableRecord
  2
Des_ Furniture
 70
     0
 62
     7
  6
Continuous
370
    -3
390
F
  0
ENDTAB
  0
TABLE
  2
STYLE
  5
3
330
0
100
AcDbSymbolTable
 70
     4
  0
STYLE
  5
11
330
3
100
AcDbSymbolTableRecord
100
AcDbTextStyleTableRecord
  2
Standard
 70
     0
 40
0.0
 41
1.0
 50
0.0
 71
     0
 42
0.2
  3
txt
  4

  0
STYLE
  5
D6
330
3
100
AcDbSymbolTableRecord
100
AcDbTextStyleTableRecord
  2
GENERATED_STYLE_1
 70
     0
 40
0.0
 41
1.0
 50
0.0
 71
     0
 42
0.2
  3

  4

1001
ACAD
1000
Century Gothic
1071
       34
  0
STYLE
  5
D9
330
3
100
AcDbSymbolTableRecord
100
AcDbTextStyleTableRecord
  2
GENERATED_STYLE_2
 70
     0
 40
0.0
 41
1.0
 50
0.0
 71
     0
 42
0.2
  3

  4

1001
ACAD
1000
DilleniaUPC
1071
 33554450
  0
STYLE
  5
47D
330
3
100
AcDbSymbolTableRecord
100
AcDbTextStyleTableRecord
  2
GENERATED_STYLE_3
 70
     0
 40
0.0
 41
1.0
 50
0.0
 71
     0
 42
0.2
  3

  4

1001
ACAD
1000
Arial
1071
       34
  0
ENDTAB
  0
TABLE
  2
VIEW
  5
6
330
0
100
AcDbSymbolTable
 70
     0
  0
ENDTAB
  0
TABLE
  2
UCS
  5
7
330
0
100
AcDbSymbolTable
 70
     0
  0
ENDTAB
  0
TABLE
  2
APPID
  5
9
330
0
100
AcDbSymbolTable
 70
     1
  0
APPID
  5
12
330
9
100
AcDbSymbolTableRecord
100
AcDbRegAppTableRecord
  2
ACAD
 70
     0
  0
ENDTAB
  0
TABLE
  2
DIMSTYLE
  5
A
330
0
100
AcDbSymbolTable
 70
     1
100
AcDbDimStyleTable
  0
DIMSTYLE
105
27
330
A
100
AcDbSymbolTableRecord
100
AcDbDimStyleTableRecord
  2
Standard
 70
     0
178
     0
340
11
  0
ENDTAB
  0
TABLE
  2
BLOCK_RECORD
  5
1
330
0
100
AcDbSymbolTable
 70
     3
  0
BLOCK_RECORD
  5
1F
330
1
100
AcDbSymbolTableRecord
100
AcDbBlockTableRecord
  2
*Model_Space
340
22
  0
BLOCK_RECORD
  5
1B
330
1
100
AcDbSymbolTableRecord
100
AcDbBlockTableRecord
  2
*Paper_Space
340
1E
  0
BLOCK_RECORD
  5
E3
330
1
100
AcDbSymbolTableRecord
100
AcDbBlockTableRecord
  2
Drawing_1_2
340
0
102
{BLKREFS
331
4AC
102
}
  0
BLOCK_RECORD
  5
4B0
330
1
100
AcDbSymbolTableRecord
100
AcDbBlockTableRecord
  2
C-TRS9-03 GUTTER FLASHING DETAI_STORY_MARKER
340
0
  0
ENDTAB
  0
ENDSEC
  0
SECTION
  2
BLOCKS
  0
BLOCK
  5
20
330
1F
100
AcDbEntity
  8
0
100
AcDbBlockBegin
  2
*Model_Space
 70
     0
 10
0.0
 20
0.0
 30
0.0
  3
*Model_Space
  1

  0
ENDBLK
  5
21
330
1F
100
AcDbEntity
  8
0
100
AcDbBlockEnd
  0
BLOCK
  5
1C
330
1B
100
AcDbEntity
 67
     1
  8
0
100
AcDbBlockBegin
  2
*Paper_Space
 70
     0
 10
0.0
 20
0.0
 30
0.0
  3
*Paper_Space
  1

  0
ENDBLK
  5
1D
330
1B
100
AcDbEntity
 67
     1
  8
0
100
AcDbBlockEnd
  0
BLOCK
  5
E4
330
E3
100
AcDbEntity
  8
0
100
AcDbBlockBegin
  2
Drawing_1_2
 70
     0
 10
93.38266924981342
 20
-696.8049665656347
 30
0.0
  3
Drawing_1_2
  1

  0
HATCH
  5
E6
330
E3
100
AcDbEntity
  8
Des_ Furniture
  6
Continuous
 62
   255
370
     0
100
AcDbHatch
 10
0.0
 20
0.0
 30
0.0
210
0.0
220
0.0
230
1.0
  2
SOLID
 70
     1
 71
     0
 91
        1
 92
        3
 72
     0
 73
     1
 93
      140
 10
176.4220297902826
 20
104.878972722301
 10
176.4148297902823
 20
104.9623247223008
 10
176.3930297902826
 20
105.0431427223009
 10
176.3576297902825
 20
105.118972722301
 10
176.3098297902824
 20
105.1875107223009
 10
176.2506297902826
 20
105.2466741223009
 10
176.1820297902824
 20
105.294664922301
 10
176.1062297902827
 20
105.3300251223008
 10
176.0254297902827
 20
105.351680442301
 10
175.9420297902823
 20
105.3589727223009
 10
164.6220297902824
 20
105.3589727223009
 10
161.8720297902828
 20
103.7589727223009
 10
159.8720297902824
 20
103.7589727223009
 10
157.1220297902828
 20
105.3589727223009
 10
155.1220297902825
 20
105.3589727223009
 10
152.3720297902821
 20
103.7589727223009
 10
150.3720297902825
 20
103.7589727223009
 10
147.6220297902822
 20
105.3589727223009
 10
136.3020297902823
 20
105.3589727223009
 10
136.2186777902822
 20
105.351680442301
 10
136.1378597902822
 20
105.3300251223008
 10
136.0620297902821
 20
105.294664922301
 10
135.9934917902828
 20
105.2466741223009
 10
135.9343283902826
 20
105.1875107223009
 10
135.8863375902823
 20
105.118972722301
 10
135.8509773902826
 20
105.0431427223009
 10
135.8293220702828
 20
104.9623247223008
 10
135.8220297902827
 20
104.878972722301
 10
135.8220297902827
 20
90.8389727223008
 10
135.8293220702828
 20
90.75561272230081
 10
135.8509773902826
 20
90.67481272230094
 10
135.8863375902823
 20
90.59897272230089
 10
135.9343283902826
 20
90.53043272230087
 10
135.9934917902821
 20
90.47127272230082
 10
136.0620297902821
 20
90.42327272230088
 10
136.1378597902822
 20
90.38791272230084
 10
136.2186777902822
 20
90.3662727223009
 10
136.3020297902823
 20
90.35897272230086
 10
140.3420297902828
 20
90.35897272230086
 10
140.4253897902828
 20
90.3662727223009
 10
140.5061897902827
 20
90.38791272230084
 10
140.5820297902823
 20
90.42327272230088
 10
140.6505697902824
 20
90.47127272230082
 10
140.7097297902825
 20
90.53043272230087
 10
140.7577297902828
 20
90.59897272230089
 10
140.7930897902824
 20
90.67481272230094
 10
140.8147297902824
 20
90.75561272230081
 10
140.8220297902824
 20
90.8389727223008
 10
140.8220297902824
 20
92.35897272230088
 10
140.5820297902823
 20
92.35897272230088
 10
140.5820297902823
 20
90.8389727223008
 10
140.5783897902824
 20
90.79729272230085
 10
140.5675497902822
 20
90.75689272230092
 10
140.5498697902823
 20
90.71897272230089
 10
140.5258897902827
 20
90.68471272230094
 10
140.4962897902822
 20
90.65511272230087
 10
140.4620297902825
 20
90.63113272230095
 10
140.4241097902828
 20
90.61345272230092
 10
140.3837097902825
 20
90.60261272230096
 10
140.3420297902828
 20
90.59897272230089
 10
136.3020297902823
 20
90.59897272230089
 10
136.2603537902823
 20
90.60261272230096
 10
136.2199457902827
 20
90.61345272230092
 10
136.1820297902826
 20
90.63113272230095
 10
136.1477597902821
 20
90.65511272230087
 10
136.1181797902825
 20
90.68471272230094
 10
136.0941837902823
 20
90.71897272230089
 10
136.0765037902825
 20
90.75689272230092
 10
136.0656757902826
 20
90.79729272230085
 10
136.0620297902821
 20
90.8389727223008
 10
136.0620297902821
 20
104.878972722301
 10
136.0656757902826
 20
104.920648722301
 10
136.0765037902825
 20
104.9610567223009
 10
136.0941837902823
 20
104.9989727223008
 10
136.1181797902825
 20
105.033242722301
 10
136.1477597902821
 20
105.0628227223009
 10
136.1820297902826
 20
105.086818722301
 10
136.2199457902827
 20
105.104498722301
 10
136.2603537902823
 20
105.1153267223009
 10
136.3020297902823
 20
105.118972722301
 10
147.5572897902824
 20
105.118972722301
 10
150.3072897902827
 20
103.5189727223009
 10
152.4367697902827
 20
103.5189727223009
 10
155.1867697902823
 20
105.118972722301
 10
157.0572297902823
 20
105.118972722301
 10
159.8072297902826
 20
103.5189727223009
 10
161.9368297902826
 20
103.5189727223009
 10
164.6868297902822
 20
105.118972722301
 10
175.9420297902823
 20
105.118972722301
 10
175.9836297902824
 20
105.1153267223009
 10
176.0240297902828
 20
105.104498722301
 10
176.0620297902827
 20
105.086818722301
 10
176.0962297902823
 20
105.0628227223009
 10
176.1258297902822
 20
105.033242722301
 10
176.1498297902827
 20
104.9989727223008
 10
176.1676297902825
 20
104.9610567223009
 10
176.1784297902823
 20
104.920648722301
 10
176.1820297902824
 20
104.878972722301
 10
176.1820297902824
 20
90.8389727223008
 10
176.1784297902823
 20
90.79729272230085
 10
176.1676297902825
 20
90.75689272230092
 10
176.1498297902827
 20
90.71897272230089
 10
176.1258297902822
 20
90.68471272230094
 10
176.0962297902823
 20
90.65511272230087
 10
176.0620297902827
 20
90.63113272230095
 10
176.0240297902828
 20
90.61345272230092
 10
175.9836297902824
 20
90.60261272230096
 10
175.9420297902823
 20
90.59897272230089
 10
171.9020297902825
 20
90.59897272230089
 10
171.8604297902823
 20
90.60261272230096
 10
171.8200297902827
 20
90.61345272230092
 10
171.7820297902827
 20
90.63113272230095
 10
171.7478297902824
 20
90.65511272230087
 10
171.7182297902825
 20
90.68471272230094
 10
171.6942297902827
 20
90.71897272230089
 10
171.6764297902822
 20
90.75689272230092
 10
171.6656297902825
 20
90.79729272230085
 10
171.6620297902823
 20
90.8389727223008
 10
171.6620297902823
 20
92.35897272230088
 10
171.4220297902822
 20
92.35897272230088
 10
171.4220297902822
 20
90.8389727223008
 10
171.4292297902825
 20
90.75561272230081
 10
171.4510297902828
 20
90.67481272230094
 10
171.4864297902823
 20
90.59897272230089
 10
171.5342297902824
 20
90.53043272230087
 10
171.5934297902821
 20
90.47127272230082
 10
171.6620297902823
 20
90.42327272230088
 10
171.7378297902828
 20
90.38791272230084
 10
171.8186297902827
 20
90.3662727223009
 10
171.9020297902825
 20
90.35897272230086
 10
175.9420297902823
 20
90.35897272230086
 10
176.0254297902827
 20
90.3662727223009
 10
176.1062297902827
 20
90.38791272230084
 10
176.1820297902824
 20
90.42327272230088
 10
176.2506297902826
 20
90.47127272230082
 10
176.3098297902824
 20
90.53043272230087
 10
176.3576297902825
 20
90.59897272230089
 10
176.3930297902826
 20
90.67481272230094
 10
176.4148297902823
 20
90.75561272230081
 10
176.4220297902826
 20
90.8389727223008
 97
        0
 75
     0
 76
     1
 98
        0
  0
HATCH
  5
E8
330
E3
100
AcDbEntity
  8
Des_ Furniture
  6
Continuous
100
AcDbHatch
 10
0.0
 20
0.0
 30
0.0
210
0.0
220
0.0
230
1.0
  2
Steel_0002
 70
     0
 71
     0
 91
        1
 92
        3
 72
     0
 73
     1
 93
      140
 10
176.4220297902826
 20
104.878972722301
 10
176.4148297902823
 20
104.9623247223008
 10
176.3930297902826
 20
105.0431427223009
 10
176.3576297902825
 20
105.118972722301
 10
176.3098297902824
 20
105.1875107223009
 10
176.2506297902826
 20
105.2466741223009
 10
176.1820297902824
 20
105.294664922301
 10
176.1062297902827
 20
105.3300251223008
 10
176.0254297902827
 20
105.351680442301
 10
175.9420297902823
 20
105.3589727223009
 10
164.6220297902824
 20
105.3589727223009
 10
161.8720297902828
 20
103.7589727223009
 10
159.8720297902824
 20
103.7589727223009
 10
157.1220297902828
 20
105.3589727223009
 10
155.1220297902825
 20
105.3589727223009
 10
152.3720297902821
 20
103.7589727223009
 10
150.3720297902825
 20
103.7589727223009
 10
147.6220297902822
 20
105.3589727223009
 10
136.3020297902823
 20
105.3589727223009
 10
136.2186777902822
 20
105.351680442301
 10
136.1378597902822
 20
105.3300251223008
 10
136.0620297902821
 20
105.294664922301
 10
135.9934917902828
 20
105.2466741223009
 10
135.9343283902826
 20
105.1875107223009
 10
135.8863375902823
 20
105.118972722301
 10
135.8509773902826
 20
105.0431427223009
 10
135.8293220702828
 20
104.9623247223008
 10
135.8220297902827
 20
104.878972722301
 10
135.8220297902827
 20
90.8389727223008
 10
135.8293220702828
 20
90.75561272230081
 10
135.8509773902826
 20
90.67481272230094
 10
135.8863375902823
 20
90.59897272230089
 10
135.9343283902826
 20
90.53043272230087
 10
135.9934917902821
 20
90.47127272230082
 10
136.0620297902821
 20
90.42327272230088
 10
136.1378597902822
 20
90.38791272230084
 10
136.2186777902822
 20
90.3662727223009
 10
136.3020297902823
 20
90.35897272230086
 10
140.3420297902828
 20
90.35897272230086
 10
140.4253897902828
 20
90.3662727223009
 10
140.5061897902827
 20
90.38791272230084
 10
140.5820297902823
 20
90.42327272230088
 10
140.6505697902824
 20
90.47127272230082
 10
140.7097297902825
 20
90.53043272230087
 10
140.7577297902828
 20
90.59897272230089
 10
140.7930897902824
 20
90.67481272230094
 10
140.8147297902824
 20
90.75561272230081
 10
140.8220297902824
 20
90.8389727223008
 10
140.8220297902824
 20
92.35897272230088
 10
140.5820297902823
 20
92.35897272230088
 10
140.5820297902823
 20
90.8389727223008
 10
140.5783897902824
 20
90.79729272230085
 10
140.5675497902822
 20
90.75689272230092
 10
140.5498697902823
 20
90.71897272230089
 10
140.5258897902827
 20
90.68471272230094
 10
140.4962897902822
 20
90.65511272230087
 10
140.4620297902825
 20
90.63113272230095
 10
140.4241097902828
 20
90.61345272230092
 10
140.3837097902825
 20
90.60261272230096
 10
140.3420297902828
 20
90.59897272230089
 10
136.3020297902823
 20
90.59897272230089
 10
136.2603537902823
 20
90.60261272230096
 10
136.2199457902827
 20
90.61345272230092
 10
136.1820297902826
 20
90.63113272230095
 10
136.1477597902821
 20
90.65511272230087
 10
136.1181797902825
 20
90.68471272230094
 10
136.0941837902823
 20
90.71897272230089
 10
136.0765037902825
 20
90.75689272230092
 10
136.0656757902826
 20
90.79729272230085
 10
136.0620297902821
 20
90.8389727223008
 10
136.0620297902821
 20
104.878972722301
 10
136.0656757902826
 20
104.920648722301
 10
136.0765037902825
 20
104.9610567223009
 10
136.0941837902823
 20
104.9989727223008
 10
136.1181797902825
 20
105.033242722301
 10
136.1477597902821
 20
105.0628227223009
 10
136.1820297902826
 20
105.086818722301
 10
136.2199457902827
 20
105.104498722301
 10
136.2603537902823
 20
105.1153267223009
 10
136.3020297902823
 20
105.118972722301
 10
147.5572897902824
 20
105.118972722301
 10
150.3072897902827
 20
103.5189727223009
 10
152.4367697902827
 20
103.5189727223009
 10
155.1867697902823
 20
105.118972722301
 10
157.0572297902823
 20
105.118972722301
 10
159.8072297902826
 20
103.5189727223009
 10
161.9368297902826
 20
103.5189727223009
 10
164.6868297902822
 20
105.118972722301
 10
175.9420297902823
 20
105.118972722301
 10
175.9836297902824
 20
105.1153267223009
 10
176.0240297902828
 20
105.104498722301
 10
176.0620297902827
 20
105.086818722301
 10
176.0962297902823
 20
105.0628227223009
 10
176.1258297902822
 20
105.033242722301
 10
176.1498297902827
 20
104.9989727223008
 10
176.1676297902825
 20
104.9610567223009
 10
176.1784297902823
 20
104.920648722301
 10
176.1820297902824
 20
104.878972722301
 10
176.1820297902824
 20
90.8389727223008
 10
176.1784297902823
 20
90.79729272230085
 10
176.1676297902825
 20
90.75689272230092
 10
176.1498297902827
 20
90.71897272230089
 10
176.1258297902822
 20
90.68471272230094
 10
176.0962297902823
 20
90.65511272230087
 10
176.0620297902827
 20
90.63113272230095
 10
176.0240297902828
 20
90.61345272230092
 10
175.9836297902824
 20
90.60261272230096
 10
175.9420297902823
 20
90.59897272230089
 10
171.9020297902825
 20
90.59897272230089
 10
171.8604297902823
 20
90.60261272230096
 10
171.8200297902827
 20
90.61345272230092
 10
171.7820297902827
 20
90.63113272230095
 10
171.7478297902824
 20
90.65511272230087
 10
171.7182297902825
 20
90.68471272230094
 10
171.6942297902827
 20
90.71897272230089
 10
171.6764297902822
 20
90.75689272230092
 10
171.6656297902825
 20
90.79729272230085
 10
171.6620297902823
 20
90.8389727223008
 10
171.6620297902823
 20
92.35897272230088
 10
171.4220297902822
 20
92.35897272230088
 10
171.4220297902822
 20
90.8389727223008
 10
171.4292297902825
 20
90.75561272230081
 10
171.4510297902828
 20
90.67481272230094
 10
171.4864297902823
 20
90.59897272230089
 10
171.5342297902824
 20
90.53043272230087
 10
171.5934297902821
 20
90.47127272230082
 10
171.6620297902823
 20
90.42327272230088
 10
171.7378297902828
 20
90.38791272230084
 10
171.8186297902827
 20
90.3662727223009
 10
171.9020297902825
 20
90.35897272230086
 10
175.9420297902823
 20
90.35897272230086
 10
176.0254297902827
 20
90.3662727223009
 10
176.1062297902827
 20
90.38791272230084
 10
176.1820297902824
 20
90.42327272230088
 10
176.2506297902826
 20
90.47127272230082
 10
176.3098297902824
 20
90.53043272230087
 10
176.3576297902825
 20
90.59897272230089
 10
176.3930297902826
 20
90.67481272230094
 10
176.4148297902823
 20
90.75561272230081
 10
176.4220297902826
 20
90.8389727223008
 97
        0
 75
     0
 76
     2
 52
0.0
 41
1.0
 77
     0
 78
     2
 53
44.99999999999999
 43
93.38266924981342
 44
-696.8049665656347
 45
-1.590990257669732
 46
1.590990257669732
 79
     0
 53
44.99999999999999
 43
92.8523391639235
 44
-696.2746364797448
 45
-1.590990257669732
 46
1.590990257669732
 79
     0
 98
        0
  0
HATCH
  5
E9
330
E3
100
AcDbEntity
  8
Des_ Furniture
  6
Continuous
 62
   255
370
     0
100
AcDbHatch
 10
0.0
 20
0.0
 30
0.0
210
0.0
220
0.0
230
1.0
  2
SOLID
 70
     1
 71
     0
 91
        1
 92
        3
 72
     0
 73
     1
 93
      140
 10
136.3065874602819
 20
147.9389727223009
 10
136.2232354602819
 20
147.9317727223008
 10
136.1424174602819
 20
147.909972722301
 10
136.0665874602818
 20
147.8745727223009
 10
135.9980494602825
 20
147.8267727223009
 10
135.9388860602822
 20
147.767572722301
 10
135.8908952602819
 20
147.6989727223011
 10
135.8555350602822
 20
147.6231727223009
 10
135.8338797402824
 20
147.542372722301
 10
135.8265874602823
 20
147.4589727223009
 10
135.8265874602823
 20
136.1389727223009
 10
137.4265874602821
 20
133.388972722301
 10
137.4265874602821
 20
131.388972722301
 10
135.8265874602823
 20
128.6389727223008
 10
135.8265874602823
 20
126.6389727223008
 10
137.4265874602821
 20
123.8889727223009
 10
137.4265874602821
 20
121.8889727223009
 10
135.8265874602823
 20
119.138972722301
 10
135.8265874602823
 20
107.8189727223009
 10
135.8338797402824
 20
107.735620722301
 10
135.8555350602822
 20
107.654802722301
 10
135.8908952602819
 20
107.5789727223009
 10
135.9388860602822
 20
107.5104347223009
 10
135.9980494602825
 20
107.4512713223009
 10
136.0665874602818
 20
107.4032805223009
 10
136.1424174602819
 20
107.367920322301
 10
136.2232354602819
 20
107.3462650023008
 10
136.3065874602819
 20
107.338972722301
 10
150.3465874602819
 20
107.338972722301
 10
150.4299474602819
 20
107.3462650023008
 10
150.5107474602818
 20
107.367920322301
 10
150.586587460282
 20
107.4032805223009
 10
150.6551274602822
 20
107.4512713223009
 10
150.7142874602822
 20
107.5104347223009
 10
150.7622874602818
 20
107.5789727223009
 10
150.7976474602822
 20
107.654802722301
 10
150.8192874602821
 20
107.735620722301
 10
150.8265874602822
 20
107.8189727223009
 10
150.8265874602822
 20
111.8589727223008
 10
150.8192874602821
 20
111.9423327223009
 10
150.7976474602822
 20
112.023132722301
 10
150.7622874602818
 20
112.0989727223008
 10
150.7142874602822
 20
112.1675127223009
 10
150.6551274602822
 20
112.2266727223008
 10
150.586587460282
 20
112.274672722301
 10
150.5107474602818
 20
112.3100327223009
 10
150.4299474602819
 20
112.3316727223009
 10
150.3465874602819
 20
112.338972722301
 10
148.8265874602819
 20
112.338972722301
 10
148.8265874602819
 20
112.0989727223008
 10
150.3465874602819
 20
112.0989727223008
 10
150.3882674602822
 20
112.095332722301
 10
150.4286674602818
 20
112.0844927223009
 10
150.4665874602823
 20
112.0668127223009
 10
150.5008474602819
 20
112.042832722301
 10
150.5304474602818
 20
112.0132327223009
 10
150.5544274602821
 20
111.978972722301
 10
150.5721074602819
 20
111.941052722301
 10
150.5829474602821
 20
111.9006527223009
 10
150.586587460282
 20
111.8589727223008
 10
150.586587460282
 20
107.8189727223009
 10
150.5829474602821
 20
107.7772967223008
 10
150.5721074602819
 20
107.7368887223009
 10
150.5544274602821
 20
107.698972722301
 10
150.5304474602818
 20
107.6647027223009
 10
150.5008474602819
 20
107.6351227223009
 10
150.4665874602823
 20
107.6111267223009
 10
150.4286674602818
 20
107.5934467223009
 10
150.3882674602822
 20
107.5826187223009
 10
150.3465874602819
 20
107.5789727223009
 10
136.3065874602819
 20
107.5789727223009
 10
136.2649114602819
 20
107.5826187223009
 10
136.2245034602823
 20
107.5934467223009
 10
136.1865874602822
 20
107.6111267223009
 10
136.1523174602818
 20
107.6351227223009
 10
136.1227374602821
 20
107.6647027223009
 10
136.098741460282
 20
107.698972722301
 10
136.0810614602821
 20
107.7368887223009
 10
136.0702334602822
 20
107.7772967223008
 10
136.0665874602818
 20
107.8189727223009
 10
136.0665874602818
 20
119.074232722301
 10
137.6665874602823
 20
121.8242327223009
 10
137.6665874602823
 20
123.9537127223009
 10
136.0665874602818
 20
126.7037127223008
 10
136.0665874602818
 20
128.5741727223009
 10
137.6665874602823
 20
131.324172722301
 10
137.6665874602823
 20
133.453772722301
 10
136.0665874602818
 20
136.203772722301
 10
136.0665874602818
 20
147.4589727223009
 10
136.0702334602822
 20
147.500572722301
 10
136.0810614602821
 20
147.5409727223009
 10
136.098741460282
 20
147.5789727223009
 10
136.1227374602821
 20
147.6131727223009
 10
136.1523174602818
 20
147.642772722301
 10
136.1865874602822
 20
147.666772722301
 10
136.2245034602823
 20
147.6845727223009
 10
136.2649114602819
 20
147.6953727223008
 10
136.3065874602819
 20
147.6989727223011
 10
150.3465874602819
 20
147.6989727223011
 10
150.3882674602822
 20
147.6953727223008
 10
150.4286674602818
 20
147.6845727223009
 10
150.4665874602823
 20
147.666772722301
 10
150.5008474602819
 20
147.642772722301
 10
150.5304474602818
 20
147.6131727223009
 10
150.5544274602821
 20
147.5789727223009
 10
150.5721074602819
 20
147.5409727223009
 10
150.5829474602821
 20
147.500572722301
 10
150.586587460282
 20
147.4589727223009
 10
150.586587460282
 20
143.4189727223009
 10
150.5829474602821
 20
143.3773727223009
 10
150.5721074602819
 20
143.3369727223009
 10
150.5544274602821
 20
143.298972722301
 10
150.5304474602818
 20
143.264772722301
 10
150.5008474602819
 20
143.2351727223009
 10
150.4665874602823
 20
143.211172722301
 10
150.4286674602818
 20
143.1933727223009
 10
150.3882674602822
 20
143.1825727223008
 10
150.3465874602819
 20
143.1789727223008
 10
148.8265874602819
 20
143.1789727223008
 10
148.8265874602819
 20
142.9389727223009
 10
150.3465874602819
 20
142.9389727223009
 10
150.4299474602819
 20
142.9461727223008
 10
150.5107474602818
 20
142.9679727223009
 10
150.586587460282
 20
143.0033727223009
 10
150.6551274602822
 20
143.0511727223009
 10
150.7142874602822
 20
143.1103727223009
 10
150.7622874602818
 20
143.1789727223008
 10
150.7976474602822
 20
143.254772722301
 10
150.8192874602821
 20
143.3355727223009
 10
150.8265874602822
 20
143.4189727223009
 10
150.8265874602822
 20
147.4589727223009
 10
150.8192874602821
 20
147.542372722301
 10
150.7976474602822
 20
147.6231727223009
 10
150.7622874602818
 20
147.6989727223011
 10
150.7142874602822
 20
147.767572722301
 10
150.6551274602822
 20
147.8267727223009
 10
150.586587460282
 20
147.8745727223009
 10
150.5107474602818
 20
147.909972722301
 10
150.4299474602819
 20
147.9317727223008
 10
150.3465874602819
 20
147.9389727223009
 97
        0
 75
     0
 76
     1
 98
        0
  0
HATCH
  5
EA
330
E3
100
AcDbEntity
  8
Des_ Furniture
  6
Continuous
100
AcDbHatch
 10
0.0
 20
0.0
 30
0.0
210
0.0
220
0.0
230
1.0
  2
Steel_0002
 70
     0
 71
     0
 91
        1
 92
        3
 72
     0
 73
     1
 93
      140
 10
136.3065874602819
 20
147.9389727223009
 10
136.2232354602819
 20
147.9317727223008
 10
136.1424174602819
 20
147.909972722301
 10
136.0665874602818
 20
147.8745727223009
 10
135.9980494602825
 20
147.8267727223009
 10
135.9388860602822
 20
147.767572722301
 10
135.8908952602819
 20
147.6989727223011
 10
135.8555350602822
 20
147.6231727223009
 10
135.8338797402824
 20
147.542372722301
 10
135.8265874602823
 20
147.4589727223009
 10
135.8265874602823
 20
136.1389727223009
 10
137.4265874602821
 20
133.388972722301
 10
137.4265874602821
 20
131.388972722301
 10
135.8265874602823
 20
128.6389727223008
 10
135.8265874602823
 20
126.6389727223008
 10
137.4265874602821
 20
123.8889727223009
 10
137.4265874602821
 20
121.8889727223009
 10
135.8265874602823
 20
119.138972722301
 10
135.8265874602823
 20
107.8189727223009
 10
135.8338797402824
 20
107.735620722301
 10
135.8555350602822
 20
107.654802722301
 10
135.8908952602819
 20
107.5789727223009
 10
135.9388860602822
 20
107.5104347223009
 10
135.9980494602825
 20
107.4512713223009
 10
136.0665874602818
 20
107.4032805223009
 10
136.1424174602819
 20
107.367920322301
 10
136.2232354602819
 20
107.3462650023008
 10
136.3065874602819
 20
107.338972722301
 10
150.3465874602819
 20
107.338972722301
 10
150.4299474602819
 20
107.3462650023008
 10
150.5107474602818
 20
107.367920322301
 10
150.586587460282
 20
107.4032805223009
 10
150.6551274602822
 20
107.4512713223009
 10
150.7142874602822
 20
107.5104347223009
 10
150.7622874602818
 20
107.5789727223009
 10
150.7976474602822
 20
107.654802722301
 10
150.8192874602821
 20
107.735620722301
 10
150.8265874602822
 20
107.8189727223009
 10
150.8265874602822
 20
111.8589727223008
 10
150.8192874602821
 20
111.9423327223009
 10
150.7976474602822
 20
112.023132722301
 10
150.7622874602818
 20
112.0989727223008
 10
150.7142874602822
 20
112.1675127223009
 10
150.6551274602822
 20
112.2266727223008
 10
150.586587460282
 20
112.274672722301
 10
150.5107474602818
 20
112.3100327223009
 10
150.4299474602819
 20
112.3316727223009
 10
150.3465874602819
 20
112.338972722301
 10
148.8265874602819
 20
112.338972722301
 10
148.8265874602819
 20
112.0989727223008
 10
150.3465874602819
 20
112.0989727223008
 10
150.3882674602822
 20
112.095332722301
 10
150.4286674602818
 20
112.0844927223009
 10
150.4665874602823
 20
112.0668127223009
 10
150.5008474602819
 20
112.042832722301
 10
150.5304474602818
 20
112.0132327223009
 10
150.5544274602821
 20
111.978972722301
 10
150.5721074602819
 20
111.941052722301
 10
150.5829474602821
 20
111.9006527223009
 10
150.586587460282
 20
111.8589727223008
 10
150.586587460282
 20
107.8189727223009
 10
150.5829474602821
 20
107.7772967223008
 10
150.5721074602819
 20
107.7368887223009
 10
150.5544274602821
 20
107.698972722301
 10
150.5304474602818
 20
107.6647027223009
 10
150.5008474602819
 20
107.6351227223009
 10
150.4665874602823
 20
107.6111267223009
 10
150.4286674602818
 20
107.5934467223009
 10
150.3882674602822
 20
107.5826187223009
 10
150.3465874602819
 20
107.5789727223009
 10
136.3065874602819
 20
107.5789727223009
 10
136.2649114602819
 20
107.5826187223009
 10
136.2245034602823
 20
107.5934467223009
 10
136.1865874602822
 20
107.6111267223009
 10
136.1523174602818
 20
107.6351227223009
 10
136.1227374602821
 20
107.6647027223009
 10
136.098741460282
 20
107.698972722301
 10
136.0810614602821
 20
107.7368887223009
 10
136.0702334602822
 20
107.7772967223008
 10
136.0665874602818
 20
107.8189727223009
 10
136.0665874602818
 20
119.074232722301
 10
137.6665874602823
 20
121.8242327223009
 10
137.6665874602823
 20
123.9537127223009
 10
136.0665874602818
 20
126.7037127223008
 10
136.0665874602818
 20
128.5741727223009
 10
137.6665874602823
 20
131.324172722301
 10
137.6665874602823
 20
133.453772722301
 10
136.0665874602818
 20
136.203772722301
 10
136.0665874602818
 20
147.4589727223009
 10
136.0702334602822
 20
147.500572722301
 10
136.0810614602821
 20
147.5409727223009
 10
136.098741460282
 20
147.5789727223009
 10
136.1227374602821
 20
147.6131727223009
 10
136.1523174602818
 20
147.642772722301
 10
136.1865874602822
 20
147.666772722301
 10
136.2245034602823
 20
147.6845727223009
 10
136.2649114602819
 20
147.6953727223008
 10
136.3065874602819
 20
147.6989727223011
 10
150.3465874602819
 20
147.6989727223011
 10
150.3882674602822
 20
147.6953727223008
 10
150.4286674602818
 20
147.6845727223009
 10
150.4665874602823
 20
147.666772722301
 10
150.5008474602819
 20
147.642772722301
 10
150.5304474602818
 20
147.6131727223009
 10
150.5544274602821
 20
147.5789727223009
 10
150.5721074602819
 20
147.5409727223009
 10
150.5829474602821
 20
147.500572722301
 10
150.586587460282
 20
147.4589727223009
 10
150.586587460282
 20
143.4189727223009
 10
150.5829474602821
 20
143.3773727223009
 10
150.5721074602819
 20
143.3369727223009
 10
150.5544274602821
 20
143.298972722301
 10
150.5304474602818
 20
143.264772722301
 10
150.5008474602819
 20
143.2351727223009
 10
150.4665874602823
 20
143.211172722301
 10
150.4286674602818
 20
143.1933727223009
 10
150.3882674602822
 20
143.1825727223008
 10
150.3465874602819
 20
143.1789727223008
 10
148.8265874602819
 20
143.1789727223008
 10
148.8265874602819
 20
142.9389727223009
 10
150.3465874602819
 20
142.9389727223009
 10
150.4299474602819
 20
142.9461727223008
 10
150.5107474602818
 20
142.9679727223009
 10
150.586587460282
 20
143.0033727223009
 10
150.6551274602822
 20
143.0511727223009
 10
150.7142874602822
 20
143.1103727223009
 10
150.7622874602818
 20
143.1789727223008
 10
150.7976474602822
 20
143.254772722301
 10
150.8192874602821
 20
143.3355727223009
 10
150.8265874602822
 20
143.4189727223009
 10
150.8265874602822
 20
147.4589727223009
 10
150.8192874602821
 20
147.542372722301
 10
150.7976474602822
 20
147.6231727223009
 10
150.7622874602818
 20
147.6989727223011
 10
150.7142874602822
 20
147.767572722301
 10
150.6551274602822
 20
147.8267727223009
 10
150.586587460282
 20
147.8745727223009
 10
150.5107474602818
 20
147.909972722301
 10
150.4299474602819
 20
147.9317727223008
 10
150.3465874602819
 20
147.9389727223009
 97
        0
 75
     0
 76
     2
 52
0.0
 41
1.0
 77
     0
 78
     2
 53
44.99999999999999
 43
93.38266924981342
 44
-696.8049665656347
 45
-1.590990257669732
 46
1.590990257669732
 79
     0
 53
44.99999999999999
 43
92.8523391639235
 44
-696.2746364797448
 45
-1.590990257669732
 46
1.590990257669732
 79
     0
 98
        0
  0
LINE
  5
EB
330
E3
100
AcDbEntity
  8
Des_ Furniture
  6
Continuous
100
AcDbLine
 10
140.8220325729514
 20
92.35897006858848
 30
0.0
 11
140.5820325416582
 21
92.35897006858848
 31
0.0
  0
LINE
  5
EC
330
E3
100
AcDbEntity
  8
Des_ Furniture
  6
Continuous
100
AcDbLine
 10
147.557293167206
 20
105.118973087675
 30
0.0
 11
150.3072870879313
 21
103.518971523719
 31
0.0
  0
LINE
  5
ED
330
E3
100
AcDbEntity
  8
Des_ Furniture
  6
Continuous
100
AcDbLine
 10
147.6220321042549
 20
105.3589731189681
 30
0.0
 11
150.3720260249803
 21
103.7589715550122
 31
0.0
  0
LINE
  5
EE
330
E3
100
AcDbEntity
  8
Des_ Furniture
  6
Continuous
100
AcDbLine
 10
152.3720330624319
 20
103.7589715550122
 30
0.0
 11
150.3720260249803
 21
103.7589715550122
 31
0.0
  0
LINE
  5
EF
330
E3
100
AcDbEntity
  8
Des_ Furniture
  6
Continuous
100
AcDbLine
 10
152.4367719994808
 20
103.518971523719
 30
0.0
 11
150.3072870879313
 21
103.518971523719
 31
0.0
  0
LINE
  5
F0
330
E3
100
AcDbEntity
  8
Des_ Furniture
  6
Continuous
100
AcDbLine
 10
155.1220269831572
 20
105.3589731189681
 30
0.0
 11
152.3720330624319
 21
103.7589715550122
 31
0.0
  0
LINE
  5
F1
330
E3
100
AcDbEntity
  8
Des_ Furniture
  6
Continuous
100
AcDbLine
 10
155.1867699862115
 20
105.118973087675
 30
0.0
 11
152.4367719994808
 21
103.518971523719
 31
0.0
  0
LINE
  5
F2
330
E3
100
AcDbEntity
  8
Des_ Furniture
  6
Continuous
100
AcDbLine
 10
157.0572259614692
 20
105.118973087675
 30
0.0
 11
155.1867699862115
 21
105.118973087675
 31
0.0
  0
LINE
  5
F3
330
E3
100
AcDbEntity
  8
Des_ Furniture
  6
Continuous
100
AcDbLine
 10
157.1220299546036
 20
105.3589731189681
 30
0.0
 11
155.1220269831572
 21
105.3589731189681
 31
0.0
  0
LINE
  5
F4
330
E3
100
AcDbEntity
  8
Des_ Furniture
  6
Continuous
100
AcDbLine
 10
157.0572259614692
 20
105.118973087675
 30
0.0
 11
159.8072280142052
 21
103.518971523719
 31
0.0
  0
LINE
  5
F5
330
E3
100
AcDbEntity
  8
Des_ Furniture
  6
Continuous
100
AcDbLine
 10
157.1220299546036
 20
105.3589731189681
 30
0.0
 11
159.8720279413342
 21
103.7589715550122
 31
0.0
  0
LINE
  5
F6
330
E3
100
AcDbEntity
  8
Des_ Furniture
  6
Continuous
100
AcDbLine
 10
161.8720309127805
 20
103.7589715550122
 30
0.0
 11
159.8720279413342
 21
103.7589715550122
 31
0.0
  0
LINE
  5
F7
330
E3
100
AcDbEntity
  8
Des_ Furniture
  6
Continuous
100
AcDbLine
 10
161.9368308399096
 20
103.518971523719
 30
0.0
 11
159.8072280142052
 21
103.518971523719
 31
0.0
  0
LINE
  5
F8
330
E3
100
AcDbEntity
  8
Des_ Furniture
  6
Continuous
100
AcDbLine
 10
164.6220288995112
 20
105.3589731189681
 30
0.0
 11
161.8720309127805
 21
103.7589715550122
 31
0.0
  0
LINE
  5
F9
330
E3
100
AcDbEntity
  8
Des_ Furniture
  6
Continuous
100
AcDbLine
 10
164.6868288266402
 20
105.118973087675
 30
0.0
 11
161.9368308399096
 21
103.518971523719
 31
0.0
  0
LINE
  5
FA
330
E3
100
AcDbEntity
  8
Des_ Furniture
  6
Continuous
100
AcDbLine
 10
171.6620284621079
 20
92.35897006858848
 30
0.0
 11
171.4220284308148
 21
92.35897006858848
 31
0.0
  0
LINE
  5
FB
330
E3
100
AcDbEntity
  8
Des_ Furniture
  6
Continuous
 62
   251
370
    18
100
AcDbLine
 10
180.1420322784687
 20
105.7267555001316
 30
0.0
 11
180.1690305539369
 21
105.7011315344689
 31
0.0
  0
LINE
  5
FC
330
E3
100
AcDbEntity
  8
Des_ Furniture
  6
Continuous
 62
   251
370
    18
100
AcDbLine
 10
178.4220347648715
 20
49.55336929187004
 30
0.0
 11
178.4220347648715
 21
107.3589784283244
 31
0.0
  0
LINE
  5
FD
330
E3
100
AcDbEntity
  8
Des_ Furniture
  6
Continuous
 62
   251
370
    18
100
AcDbLine
 10
178.4220347648715
 20
107.3589784283244
 30
0.0
 11
288.3330357831792
 21
113.1191709123912
 31
0.0
  0
LINE
  5
FE
330
E3
100
AcDbEntity
  8
Des_ Furniture
  6
Continuous
 62
   251
370
    18
100
AcDbLine
 10
180.1420322784687
 20
49.55336929187004
 30
0.0
 11
180.1420322784687
 21
105.7267578380417
 31
0.0
  0
LINE
  5
FF
330
E3
100
AcDbEntity
  8
Des_ Furniture
  6
Continuous
 62
   251
370
    18
100
AcDbLine
 10
180.1420322784687
 20
105.7267578380417
 30
0.0
 11
288.3330357831792
 21
111.3968017228312
 31
0.0
  0
LINE
  5
100
330
E3
100
AcDbEntity
  8
Des_ Furniture
  6
Continuous
100
AcDbLine
 10
135.8265872023289
 20
128.6389761544017
 30
0.0
 11
135.8265872023289
 21
126.6389691169501
 31
0.0
  0
LINE
  5
101
330
E3
100
AcDbEntity
  8
Des_ Furniture
  6
Continuous
100
AcDbLine
 10
136.066587233622
 20
128.5741721612674
 30
0.0
 11
136.066587233622
 21
126.7037121200044
 31
0.0
  0
LINE
  5
102
330
E3
100
AcDbEntity
  8
Des_ Furniture
  6
Continuous
100
AcDbLine
 10
137.4265887662849
 20
121.8889722247785
 30
0.0
 11
135.8265872023289
 21
119.1389742380478
 31
0.0
  0
LINE
  5
103
330
E3
100
AcDbEntity
  8
Des_ Furniture
  6
Continuous
100
AcDbLine
 10
135.8265872023289
 20
136.138971033304
 30
0.0
 11
137.4265887662849
 21
133.3889689805681
 31
0.0
  0
LINE
  5
104
330
E3
100
AcDbEntity
  8
Des_ Furniture
  6
Continuous
100
AcDbLine
 10
135.8265872023289
 20
126.6389691169501
 30
0.0
 11
137.4265887662849
 21
123.8889751962248
 31
0.0
  0
LINE
  5
105
330
E3
100
AcDbEntity
  8
Des_ Furniture
  6
Continuous
100
AcDbLine
 10
137.4265887662849
 20
131.3889700751271
 30
0.0
 11
135.8265872023289
 21
128.6389761544017
 31
0.0
  0
LINE
  5
106
330
E3
100
AcDbEntity
  8
Des_ Furniture
  6
Continuous
100
AcDbLine
 10
137.4265887662849
 20
133.3889689805681
 30
0.0
 11
137.4265887662849
 21
131.3889700751271
 31
0.0
  0
LINE
  5
107
330
E3
100
AcDbEntity
  8
Des_ Furniture
  6
Continuous
100
AcDbLine
 10
137.4265887662849
 20
123.8889751962248
 30
0.0
 11
137.4265887662849
 21
121.8889722247785
 31
0.0
  0
LINE
  5
108
330
E3
100
AcDbEntity
  8
Des_ Furniture
  6
Continuous
100
AcDbLine
 10
137.666588797578
 20
121.8242332877295
 30
0.0
 11
136.066587233622
 21
119.0742312349935
 31
0.0
  0
LINE
  5
109
330
E3
100
AcDbEntity
  8
Des_ Furniture
  6
Continuous
100
AcDbLine
 10
136.066587233622
 20
126.7037121200044
 30
0.0
 11
137.666588797578
 21
123.9537141332737
 31
0.0
  0
LINE
  5
10A
330
E3
100
AcDbEntity
  8
Des_ Furniture
  6
Continuous
100
AcDbLine
 10
136.066587233622
 20
136.2037709604331
 30
0.0
 11
137.666588797578
 21
133.4537729737024
 31
0.0
  0
LINE
  5
10B
330
E3
100
AcDbEntity
  8
Des_ Furniture
  6
Continuous
100
AcDbLine
 10
137.666588797578
 20
131.324170147998
 30
0.0
 11
136.066587233622
 21
128.5741721612674
 31
0.0
  0
LINE
  5
10C
330
E3
100
AcDbEntity
  8
Des_ Furniture
  6
Continuous
100
AcDbLine
 10
137.666588797578
 20
133.4537729737024
 30
0.0
 11
137.666588797578
 21
131.324170147998
 31
0.0
  0
LINE
  5
10D
330
E3
100
AcDbEntity
  8
Des_ Furniture
  6
Continuous
100
AcDbLine
 10
137.666588797578
 20
123.9537141332737
 30
0.0
 11
137.666588797578
 21
121.8242332877295
 31
0.0
  0
LINE
  5
10E
330
E3
100
AcDbEntity
  8
Des_ Furniture
  6
Continuous
100
AcDbLine
 10
148.8265902527085
 20
112.3389747067442
 30
0.0
 11
148.8265902527085
 21
112.0989746754511
 31
0.0
  0
LINE
  5
10F
330
E3
100
AcDbEntity
  8
Des_ Furniture
  6
Continuous
100
AcDbLine
 10
148.8265902527085
 20
143.1789705959008
 30
0.0
 11
148.8265902527085
 21
142.9389705646076
 31
0.0
  0
LWPOLYLINE
  5
110
330
E3
100
AcDbEntity
  8
Des_ Furniture
  6
Continuous
100
AcDbPolyline
 90
       32
 70
   128
 43
0.0
 10
147.6220297902822
 20
105.3589727223009
 10
136.3020297902823
 20
105.3589727223009
 10
136.2186777902822
 20
105.351680442301
 10
136.1378597902822
 20
105.3300251223008
 10
136.0620297902821
 20
105.294664922301
 10
135.9934917902828
 20
105.2466741223009
 10
135.9343283902826
 20
105.1875107223009
 10
135.8863375902823
 20
105.118972722301
 10
135.8509773902826
 20
105.0431427223009
 10
135.8293220702828
 20
104.9623247223008
 10
135.8220297902827
 20
104.878972722301
 10
135.8220297902827
 20
90.8389727223008
 10
135.8293220702828
 20
90.75561272230081
 10
135.8509773902826
 20
90.67481272230094
 10
135.8863375902823
 20
90.59897272230089
 10
135.9343283902826
 20
90.53043272230087
 10
135.9934917902821
 20
90.47127272230082
 10
136.0620297902821
 20
90.42327272230088
 10
136.1378597902822
 20
90.38791272230084
 10
136.2186777902822
 20
90.3662727223009
 10
136.3020297902823
 20
90.35897272230086
 10
140.3420297902828
 20
90.35897272230086
 10
140.4253897902828
 20
90.3662727223009
 10
140.5061897902827
 20
90.38791272230084
 10
140.5820297902823
 20
90.42327272230088
 10
140.6505697902824
 20
90.47127272230082
 10
140.7097297902825
 20
90.53043272230087
 10
140.7577297902828
 20
90.59897272230089
 10
140.7930897902824
 20
90.67481272230094
 10
140.8147297902824
 20
90.75561272230081
 10
140.8220297902824
 20
90.8389727223008
 10
140.8220297902824
 20
92.35897272230088
  0
LWPOLYLINE
  5
111
330
E3
100
AcDbEntity
  8
Des_ Furniture
  6
Continuous
100
AcDbPolyline
 90
       32
 70
   128
 43
0.0
 10
147.5572897902824
 20
105.118972722301
 10
136.3020297902823
 20
105.118972722301
 10
136.2603537902823
 20
105.1153267223009
 10
136.2199457902827
 20
105.104498722301
 10
136.1820297902826
 20
105.086818722301
 10
136.1477597902821
 20
105.0628227223009
 10
136.1181797902825
 20
105.033242722301
 10
136.0941837902823
 20
104.9989727223008
 10
136.0765037902825
 20
104.9610567223009
 10
136.0656757902826
 20
104.920648722301
 10
136.0620297902821
 20
104.878972722301
 10
136.0620297902821
 20
90.8389727223008
 10
136.0656757902826
 20
90.79729272230085
 10
136.0765037902825
 20
90.75689272230092
 10
136.0941837902823
 20
90.71897272230089
 10
136.1181797902825
 20
90.68471272230094
 10
136.1477597902821
 20
90.65511272230087
 10
136.1820297902826
 20
90.63113272230095
 10
136.2199457902827
 20
90.61345272230092
 10
136.2603537902823
 20
90.60261272230096
 10
136.3020297902823
 20
90.59897272230089
 10
140.3420297902828
 20
90.59897272230089
 10
140.3837097902825
 20
90.60261272230096
 10
140.4241097902828
 20
90.61345272230092
 10
140.4620297902825
 20
90.63113272230095
 10
140.4962897902822
 20
90.65511272230087
 10
140.5258897902827
 20
90.68471272230094
 10
140.5498697902823
 20
90.71897272230089
 10
140.5675497902822
 20
90.75689272230092
 10
140.5783897902824
 20
90.79729272230085
 10
140.5820297902823
 20
90.8389727223008
 10
140.5820297902823
 20
92.35897272230088
  0
LWPOLYLINE
  5
112
330
E3
100
AcDbEntity
  8
Des_ Furniture
  6
Continuous
100
AcDbPolyline
 90
       32
 70
   128
 43
0.0
 10
171.4220297902822
 20
92.35897272230088
 10
171.4220297902822
 20
90.8389727223008
 10
171.4292297902825
 20
90.75561272230081
 10
171.4510297902828
 20
90.67481272230094
 10
171.4864297902823
 20
90.59897272230089
 10
171.5342297902824
 20
90.53043272230087
 10
171.5934297902821
 20
90.47127272230082
 10
171.6620297902823
 20
90.42327272230088
 10
171.7378297902828
 20
90.38791272230084
 10
171.8186297902827
 20
90.3662727223009
 10
171.9020297902825
 20
90.35897272230086
 10
175.9420297902823
 20
90.35897272230086
 10
176.0254297902827
 20
90.3662727223009
 10
176.1062297902827
 20
90.38791272230084
 10
176.1820297902824
 20
90.42327272230088
 10
176.2506297902826
 20
90.47127272230082
 10
176.3098297902824
 20
90.53043272230087
 10
176.3576297902825
 20
90.59897272230089
 10
176.3930297902826
 20
90.67481272230094
 10
176.4148297902823
 20
90.75561272230081
 10
176.4220297902826
 20
90.8389727223008
 10
176.4220297902826
 20
104.878972722301
 10
176.4148297902823
 20
104.9623247223008
 10
176.3930297902826
 20
105.0431427223009
 10
176.3576297902825
 20
105.118972722301
 10
176.3098297902824
 20
105.1875107223009
 10
176.2506297902826
 20
105.2466741223009
 10
176.1820297902824
 20
105.294664922301
 10
176.1062297902827
 20
105.3300251223008
 10
176.0254297902827
 20
105.351680442301
 10
175.9420297902823
 20
105.3589727223009
 10
164.6220297902824
 20
105.3589727223009
  0
LWPOLYLINE
  5
113
330
E3
100
AcDbEntity
  8
Des_ Furniture
  6
Continuous
100
AcDbPolyline
 90
       32
 70
   128
 43
0.0
 10
171.6620297902823
 20
92.35897272230088
 10
171.6620297902823
 20
90.8389727223008
 10
171.6656297902825
 20
90.79729272230085
 10
171.6764297902822
 20
90.75689272230092
 10
171.6942297902827
 20
90.71897272230089
 10
171.7182297902825
 20
90.68471272230094
 10
171.7478297902824
 20
90.65511272230087
 10
171.7820297902827
 20
90.63113272230095
 10
171.8200297902827
 20
90.61345272230092
 10
171.8604297902823
 20
90.60261272230096
 10
171.9020297902825
 20
90.59897272230089
 10
175.9420297902823
 20
90.59897272230089
 10
175.9836297902824
 20
90.60261272230096
 10
176.0240297902828
 20
90.61345272230092
 10
176.0620297902827
 20
90.63113272230095
 10
176.0962297902823
 20
90.65511272230087
 10
176.1258297902822
 20
90.68471272230094
 10
176.1498297902827
 20
90.71897272230089
 10
176.1676297902825
 20
90.75689272230092
 10
176.1784297902823
 20
90.79729272230085
 10
176.1820297902824
 20
90.8389727223008
 10
176.1820297902824
 20
104.878972722301
 10
176.1784297902823
 20
104.920648722301
 10
176.1676297902825
 20
104.9610567223009
 10
176.1498297902827
 20
104.9989727223008
 10
176.1258297902822
 20
105.033242722301
 10
176.0962297902823
 20
105.0628227223009
 10
176.0620297902827
 20
105.086818722301
 10
176.0240297902828
 20
105.104498722301
 10
175.9836297902824
 20
105.1153267223009
 10
175.9420297902823
 20
105.118972722301
 10
164.6868297902822
 20
105.118972722301
  0
LWPOLYLINE
  5
114
330
E3
100
AcDbEntity
  8
Des_ Furniture
  6
Continuous
100
AcDbPolyline
 90
       32
 70
   128
 43
0.0
 10
135.8265874602823
 20
119.138972722301
 10
135.8265874602823
 20
107.8189727223009
 10
135.8338797402824
 20
107.735620722301
 10
135.8555350602822
 20
107.654802722301
 10
135.8908952602819
 20
107.5789727223009
 10
135.9388860602822
 20
107.5104347223009
 10
135.9980494602825
 20
107.4512713223009
 10
136.0665874602818
 20
107.4032805223009
 10
136.1424174602819
 20
107.367920322301
 10
136.2232354602819
 20
107.3462650023008
 10
136.3065874602819
 20
107.338972722301
 10
150.3465874602819
 20
107.338972722301
 10
150.4299474602819
 20
107.3462650023008
 10
150.5107474602818
 20
107.367920322301
 10
150.586587460282
 20
107.4032805223009
 10
150.6551274602822
 20
107.4512713223009
 10
150.7142874602822
 20
107.5104347223009
 10
150.7622874602818
 20
107.5789727223009
 10
150.7976474602822
 20
107.654802722301
 10
150.8192874602821
 20
107.735620722301
 10
150.8265874602822
 20
107.8189727223009
 10
150.8265874602822
 20
111.8589727223008
 10
150.8192874602821
 20
111.9423327223009
 10
150.7976474602822
 20
112.023132722301
 10
150.7622874602818
 20
112.0989727223008
 10
150.7142874602822
 20
112.1675127223009
 10
150.6551274602822
 20
112.2266727223008
 10
150.586587460282
 20
112.274672722301
 10
150.5107474602818
 20
112.3100327223009
 10
150.4299474602819
 20
112.3316727223009
 10
150.3465874602819
 20
112.338972722301
 10
148.8265874602819
 20
112.338972722301
  0
LWPOLYLINE
  5
115
330
E3
100
AcDbEntity
  8
Des_ Furniture
  6
Continuous
100
AcDbPolyline
 90
       32
 70
   128
 43
0.0
 10
148.8265874602819
 20
142.9389727223009
 10
150.3465874602819
 20
142.9389727223009
 10
150.4299474602819
 20
142.9461727223008
 10
150.5107474602818
 20
142.9679727223009
 10
150.586587460282
 20
143.0033727223009
 10
150.6551274602822
 20
143.0511727223009
 10
150.7142874602822
 20
143.1103727223009
 10
150.7622874602818
 20
143.1789727223008
 10
150.7976474602822
 20
143.254772722301
 10
150.8192874602821
 20
143.3355727223009
 10
150.8265874602822
 20
143.4189727223009
 10
150.8265874602822
 20
147.4589727223009
 10
150.8192874602821
 20
147.542372722301
 10
150.7976474602822
 20
147.6231727223009
 10
150.7622874602818
 20
147.6989727223011
 10
150.7142874602822
 20
147.767572722301
 10
150.6551274602822
 20
147.8267727223009
 10
150.586587460282
 20
147.8745727223009
 10
150.5107474602818
 20
147.909972722301
 10
150.4299474602819
 20
147.9317727223008
 10
150.3465874602819
 20
147.9389727223009
 10
136.3065874602819
 20
147.9389727223009
 10
136.2232354602819
 20
147.9317727223008
 10
136.1424174602819
 20
147.909972722301
 10
136.0665874602818
 20
147.8745727223009
 10
135.9980494602825
 20
147.8267727223009
 10
135.9388860602822
 20
147.767572722301
 10
135.8908952602819
 20
147.6989727223011
 10
135.8555350602822
 20
147.6231727223009
 10
135.8338797402824
 20
147.542372722301
 10
135.8265874602823
 20
147.4589727223009
 10
135.8265874602823
 20
136.1389727223009
  0
LWPOLYLINE
  5
116
330
E3
100
AcDbEntity
  8
Des_ Furniture
  6
Continuous
100
AcDbPolyline
 90
       32
 70
   128
 43
0.0
 10
136.0665874602818
 20
119.074232722301
 10
136.0665874602818
 20
107.8189727223009
 10
136.0702334602822
 20
107.7772967223008
 10
136.0810614602821
 20
107.7368887223009
 10
136.098741460282
 20
107.698972722301
 10
136.1227374602821
 20
107.6647027223009
 10
136.1523174602818
 20
107.6351227223009
 10
136.1865874602822
 20
107.6111267223009
 10
136.2245034602823
 20
107.5934467223009
 10
136.2649114602819
 20
107.5826187223009
 10
136.3065874602819
 20
107.5789727223009
 10
150.3465874602819
 20
107.5789727223009
 10
150.3882674602822
 20
107.5826187223009
 10
150.4286674602818
 20
107.5934467223009
 10
150.4665874602823
 20
107.6111267223009
 10
150.5008474602819
 20
107.6351227223009
 10
150.5304474602818
 20
107.6647027223009
 10
150.5544274602821
 20
107.698972722301
 10
150.5721074602819
 20
107.7368887223009
 10
150.5829474602821
 20
107.7772967223008
 10
150.586587460282
 20
107.8189727223009
 10
150.586587460282
 20
111.8589727223008
 10
150.5829474602821
 20
111.9006527223009
 10
150.5721074602819
 20
111.941052722301
 10
150.5544274602821
 20
111.978972722301
 10
150.5304474602818
 20
112.0132327223009
 10
150.5008474602819
 20
112.042832722301
 10
150.4665874602823
 20
112.0668127223009
 10
150.4286674602818
 20
112.0844927223009
 10
150.3882674602822
 20
112.095332722301
 10
150.3465874602819
 20
112.0989727223008
 10
148.8265874602819
 20
112.0989727223008
  0
LWPOLYLINE
  5
117
330
E3
100
AcDbEntity
  8
Des_ Furniture
  6
Continuous
100
AcDbPolyline
 90
       32
 70
   128
 43
0.0
 10
148.8265874602819
 20
143.1789727223008
 10
150.3465874602819
 20
143.1789727223008
 10
150.3882674602822
 20
143.1825727223008
 10
150.4286674602818
 20
143.1933727223009
 10
150.4665874602823
 20
143.211172722301
 10
150.5008474602819
 20
143.2351727223009
 10
150.5304474602818
 20
143.264772722301
 10
150.5544274602821
 20
143.298972722301
 10
150.5721074602819
 20
143.3369727223009
 10
150.5829474602821
 20
143.3773727223009
 10
150.586587460282
 20
143.4189727223009
 10
150.586587460282
 20
147.4589727223009
 10
150.5829474602821
 20
147.500572722301
 10
150.5721074602819
 20
147.5409727223009
 10
150.5544274602821
 20
147.5789727223009
 10
150.5304474602818
 20
147.6131727223009
 10
150.5008474602819
 20
147.642772722301
 10
150.4665874602823
 20
147.666772722301
 10
150.4286674602818
 20
147.6845727223009
 10
150.3882674602822
 20
147.6953727223008
 10
150.3465874602819
 20
147.6989727223011
 10
136.3065874602819
 20
147.6989727223011
 10
136.2649114602819
 20
147.6953727223008
 10
136.2245034602823
 20
147.6845727223009
 10
136.1865874602822
 20
147.666772722301
 10
136.1523174602818
 20
147.642772722301
 10
136.1227374602821
 20
147.6131727223009
 10
136.098741460282
 20
147.5789727223009
 10
136.0810614602821
 20
147.5409727223009
 10
136.0702334602822
 20
147.500572722301
 10
136.0665874602818
 20
147.4589727223009
 10
136.0665874602818
 20
136.203772722301
  0
LINE
  5
119
330
E3
100
AcDbEntity
  8
Des_ Furniture
  6
Double Dashed
 62
   251
370
    18
100
AcDbLine
 10
122.6838654855295
 20
149.1412905748869
 30
0.0
 11
288.3330350614397
 21
157.8225904023961
 31
0.0
  0
LINE
  5
11B
330
E3
100
AcDbEntity
  8
Des_ Furniture
  6
Hidden Line
100
AcDbLine
 10
122.3633107638626
 20
150.2206332799994
 30
0.0
 11
288.3330329618649
 21
158.9187331974443
 31
0.0
  0
LINE
  5
11C
330
E3
100
AcDbEntity
  8
Des_ Furniture
  6
Continuous
 62
   251
370
    18
100
AcDbLine
 10
111.7300404840073
 20
150.7353097894342
 30
0.0
 11
288.3330356836638
 21
159.9906779380713
 31
0.0
  0
LINE
  5
11D
330
E3
100
AcDbEntity
  8
Des_ Furniture
  6
Continuous
 62
   251
370
    18
100
AcDbLine
 10
111.3119241763277
 20
158.7133981219688
 30
0.0
 11
288.3330356836638
 21
167.990675085433
 31
0.0
  0
HATCH
  5
11E
330
E3
100
AcDbEntity
  8
Des_ Furniture
  6
Continuous
 62
   255
370
     0
100
AcDbHatch
 10
0.0
 20
0.0
 30
0.0
210
0.0
220
0.0
230
1.0
  2
SOLID
 70
     1
 71
     0
 91
        1
 92
        3
 72
     0
 73
     1
 93
        6
 10
141.4443852818356
 20
107.9783956609154
 10
141.4443852818356
 20
101.5675003438469
 10
141.5723852818356
 20
101.4395003438469
 10
143.7163852818356
 20
101.4395003438469
 10
143.8443852818356
 20
101.5675003438469
 10
143.8443852818356
 20
107.9783956609154
 97
        0
 75
     0
 76
     1
 98
        0
  0
LINE
  5
11F
330
E3
100
AcDbEntity
  8
Des_ Furniture
  6
Continuous
100
AcDbLine
 10
141.444383482547
 20
107.9783954101587
 30
0.0
 11
141.444383482547
 21
101.56750039203
 31
0.0
  0
LINE
  5
120
330
E3
100
AcDbEntity
  8
Des_ Furniture
  6
Continuous
100
AcDbLine
 10
141.444383482547
 20
101.56750039203
 30
0.0
 11
141.5723853967058
 21
101.4394984778712
 31
0.0
  0
LINE
  5
121
330
E3
100
AcDbEntity
  8
Des_ Furniture
  6
Continuous
100
AcDbLine
 10
141.5723853967058
 20
101.4394984778712
 30
0.0
 11
143.7163859473248
 21
101.4394984778712
 31
0.0
  0
LINE
  5
122
330
E3
100
AcDbEntity
  8
Des_ Furniture
  6
Continuous
100
AcDbLine
 10
143.7163859473248
 20
101.4394984778712
 30
0.0
 11
143.8443837954783
 21
101.56750039203
 31
0.0
  0
LINE
  5
123
330
E3
100
AcDbEntity
  8
Des_ Furniture
  6
Continuous
100
AcDbLine
 10
143.8443837954783
 20
101.56750039203
 30
0.0
 11
143.8443837954783
 21
107.9783954101587
 31
0.0
  0
LINE
  5
124
330
E3
100
AcDbEntity
  8
Des_ Furniture
  6
Continuous
100
AcDbLine
 10
143.8443837954783
 20
107.9783954101587
 30
0.0
 11
141.444383482547
 21
107.9783954101587
 31
0.0
  0
LINE
  5
125
330
E3
100
AcDbEntity
  8
Des_ Furniture
  6
Continuous
100
AcDbLine
 10
141.444383482547
 20
101.56750039203
 30
0.0
 11
143.8443837954783
 21
101.56750039203
 31
0.0
  0
LINE
  5
126
330
E3
100
AcDbEntity
  8
Des_ Furniture
  6
Continuous
100
AcDbLine
 10
141.444383482547
 20
107.4394992601994
 30
0.0
 11
143.8443837954783
 21
107.4394992601994
 31
0.0
  0
LINE
  5
127
330
E3
100
AcDbEntity
  8
Des_ Furniture
  6
Continuous
100
AcDbLine
 10
141.5723853967058
 20
107.311501412046
 30
0.0
 11
143.7163859473248
 21
107.311501412046
 31
0.0
  0
LINE
  5
128
330
E3
100
AcDbEntity
  8
Des_ Furniture
  6
Continuous
100
AcDbLine
 10
141.5723853967058
 20
107.311501412046
 30
0.0
 11
141.444383482547
 21
107.4394992601994
 31
0.0
  0
LINE
  5
129
330
E3
100
AcDbEntity
  8
Des_ Furniture
  6
Continuous
100
AcDbLine
 10
143.7163859473248
 20
107.311501412046
 30
0.0
 11
143.8443837954783
 21
107.4394992601994
 31
0.0
  0
LINE
  5
12A
330
E3
100
AcDbEntity
  8
Des_ Furniture
  6
Continuous
100
AcDbLine
 10
141.5723853967058
 20
107.311501412046
 30
0.0
 11
141.5723853967058
 21
101.4394984778712
 31
0.0
  0
LINE
  5
12B
330
E3
100
AcDbEntity
  8
Des_ Furniture
  6
Continuous
100
AcDbLine
 10
143.7163859473248
 20
107.311501412046
 30
0.0
 11
143.7163859473248
 21
101.4394984778712
 31
0.0
  0
HATCH
  5
12C
330
E3
100
AcDbEntity
  8
Des_ Furniture
  6
Continuous
 62
   255
370
     0
100
AcDbHatch
 10
0.0
 20
0.0
 30
0.0
210
0.0
220
0.0
230
1.0
  2
SOLID
 70
     1
 71
     0
 91
        1
 92
        3
 72
     0
 73
     1
 93
        4
 10
144.2032310086476
 20
109.4783956609154
 10
141.0855395550236
 20
109.4783956609154
 10
141.0855395550236
 20
107.9783956609154
 10
144.2032310086476
 20
107.9783956609154
 97
        0
 75
     0
 76
     1
 98
        0
  0
HATCH
  5
12D
330
E3
100
AcDbEntity
  8
Des_ Furniture
  6
Continuous
 62
   255
370
     0
100
AcDbHatch
 10
0.0
 20
0.0
 30
0.0
210
0.0
220
0.0
230
1.0
  2
SOLID
 70
     1
 71
     0
 91
        1
 92
        3
 72
     1
 73
     1
 93
        4
 10
143.683615766377
 20
109.2283956609155
 42
0.2405626121623441
 10
141.6051547972943
 20
109.2283956609155
 42
0.0
 10
141.6051547972943
 20
107.9783956609154
 42
0.0
 10
143.683615766377
 20
107.9783956609154
 42
0.0
 97
        0
 75
     0
 76
     1
 98
        0
  0
ARC
  5
12E
330
E3
100
AcDbEntity
  8
Des_ Furniture
  6
Continuous
100
AcDbCircle
 10
142.6443852818356
 20
107.1933956609155
 30
0.0
 40
2.284999999999995
100
AcDbArc
 50
62.94758187956862
 51
117.0524181204314
  0
LINE
  5
12F
330
E3
100
AcDbEntity
  8
Des_ Furniture
  6
Continuous
100
AcDbLine
 10
141.6051533337537
 20
109.22839523431
 30
0.0
 11
141.6051533337537
 21
107.9783954101587
 31
0.0
  0
LINE
  5
130
330
E3
100
AcDbEntity
  8
Des_ Furniture
  6
Continuous
100
AcDbLine
 10
141.6051533337537
 20
107.9783954101587
 30
0.0
 11
143.6836139442715
 21
107.9783954101587
 31
0.0
  0
LINE
  5
131
330
E3
100
AcDbEntity
  8
Des_ Furniture
  6
Continuous
100
AcDbLine
 10
143.6836139442715
 20
107.9783954101587
 30
0.0
 11
143.6836139442715
 21
109.22839523431
 31
0.0
  0
HATCH
  5
132
330
E3
100
AcDbEntity
  8
Des_ Furniture
  6
Continuous
 62
   255
370
     0
100
AcDbHatch
 10
0.0
 20
0.0
 30
0.0
210
0.0
220
0.0
230
1.0
  2
SOLID
 70
     1
 71
     0
 91
        1
 92
        3
 72
     1
 73
     1
 93
        4
 10
144.7228462509183
 20
109.2283956609155
 42
0.4811252243246882
 10
143.683615766377
 20
109.2283956609155
 42
0.0
 10
143.683615766377
 20
107.9783956609154
 42
0.0
 10
144.7228462509183
 20
107.9783956609154
 42
0.0
 97
        0
 75
     0
 76
     1
 98
        0
  0
ARC
  5
133
330
E3
100
AcDbEntity
  8
Des_ Furniture
  6
Continuous
100
AcDbCircle
 10
144.2032310086476
 20
108.8133956609155
 30
0.0
 40
0.6649999999999795
100
AcDbArc
 50
38.61323819100262
 51
141.3867618089989
  0
LINE
  5
134
330
E3
100
AcDbEntity
  8
Des_ Furniture
  6
Continuous
100
AcDbLine
 10
143.6836139442715
 20
109.22839523431
 30
0.0
 11
143.6836139442715
 21
107.9783954101587
 31
0.0
  0
LINE
  5
135
330
E3
100
AcDbEntity
  8
Des_ Furniture
  6
Continuous
100
AcDbLine
 10
143.6836139442715
 20
107.9783954101587
 30
0.0
 11
144.7228442495304
 21
107.9783954101587
 31
0.0
  0
LINE
  5
136
330
E3
100
AcDbEntity
  8
Des_ Furniture
  6
Continuous
100
AcDbLine
 10
144.7228442495304
 20
107.9783954101587
 30
0.0
 11
144.7228442495304
 21
109.22839523431
 31
0.0
  0
HATCH
  5
137
330
E3
100
AcDbEntity
  8
Des_ Furniture
  6
Continuous
 62
   255
370
     0
100
AcDbHatch
 10
0.0
 20
0.0
 30
0.0
210
0.0
220
0.0
230
1.0
  2
SOLID
 70
     1
 71
     0
 91
        1
 92
        3
 72
     1
 73
     1
 93
        4
 10
140.565924312753
 20
109.2283956609155
 42
0.0
 10
140.565924312753
 20
107.9783956609154
 42
0.0
 10
141.6051547972943
 20
107.9783956609154
 42
0.0
 10
141.6051547972943
 20
109.2283956609155
 42
0.4811252243246882
 97
        0
 75
     0
 76
     1
 98
        0
  0
LINE
  5
138
330
E3
100
AcDbEntity
  8
Des_ Furniture
  6
Continuous
100
AcDbLine
 10
140.5659230284948
 20
107.9783954101587
 30
0.0
 11
140.5659230284948
 21
109.22839523431
 31
0.0
  0
LINE
  5
139
330
E3
100
AcDbEntity
  8
Des_ Furniture
  6
Continuous
100
AcDbLine
 10
141.6051533337537
 20
107.9783954101587
 30
0.0
 11
140.5659230284948
 21
107.9783954101587
 31
0.0
  0
LINE
  5
13A
330
E3
100
AcDbEntity
  8
Des_ Furniture
  6
Continuous
100
AcDbLine
 10
141.6051533337537
 20
109.22839523431
 30
0.0
 11
141.6051533337537
 21
107.9783954101587
 31
0.0
  0
ARC
  5
13B
330
E3
100
AcDbEntity
  8
Des_ Furniture
  6
Continuous
100
AcDbCircle
 10
141.0855395550236
 20
108.8133956609155
 30
0.0
 40
0.6650000000000185
100
AcDbArc
 50
38.613238191003
 51
141.3867618089955
  0
HATCH
  5
13C
330
E3
100
AcDbEntity
  8
Des_ Furniture
  6
Continuous
 62
   255
370
     0
100
AcDbHatch
 10
0.0
 20
0.0
 30
0.0
210
0.0
220
0.0
230
1.0
  2
SOLID
 70
     1
 71
     0
 91
        1
 92
        3
 72
     0
 73
     1
 93
        4
 10
144.2032310086476
 20
104.7195003438469
 10
141.0855395550236
 20
104.7195003438469
 10
141.0855395550236
 20
102.6395003438468
 10
144.2032310086476
 20
102.6395003438468
 97
        0
 75
     0
 76
     1
 98
        0
  0
HATCH
  5
13D
330
E3
100
AcDbEntity
  8
Des_ Furniture
  6
Continuous
 62
   255
370
     0
100
AcDbHatch
 10
0.0
 20
0.0
 30
0.0
210
0.0
220
0.0
230
1.0
  2
SOLID
 70
     1
 71
     0
 91
        1
 92
        3
 72
     1
 73
     1
 93
        4
 10
143.683615766377
 20
104.3728336771803
 42
0.3335801555317839
 10
141.6051547972943
 20
104.3728336771803
 42
0.0
 10
141.6051547972943
 20
102.9861670105136
 42
0.3335801555317839
 10
143.683615766377
 20
102.9861670105136
 42
0.0
 97
        0
 75
     0
 76
     1
 98
        0
  0
ARC
  5
13E
330
E3
100
AcDbEntity
  8
Des_ Furniture
  6
Continuous
100
AcDbCircle
 10
142.6443852818356
 20
102.9884747028213
 30
0.0
 40
1.731025641025638
100
AcDbArc
 50
53.1046488728494
 51
126.8953511271506
  0
LINE
  5
13F
330
E3
100
AcDbEntity
  8
Des_ Furniture
  6
Continuous
100
AcDbLine
 10
141.6051533337537
 20
104.3728326454545
 30
0.0
 11
141.6051533337537
 21
102.9861662497614
 31
0.0
  0
ARC
  5
140
330
E3
100
AcDbEntity
  8
Des_ Furniture
  6
Continuous
100
AcDbCircle
 10
142.6443852818356
 20
104.3705259848725
 30
0.0
 40
1.731025641025638
100
AcDbArc
 50
233.1046488728493
 51
306.8953511271506
  0
LINE
  5
141
330
E3
100
AcDbEntity
  8
Des_ Furniture
  6
Continuous
100
AcDbLine
 10
143.6836139442715
 20
102.9861662497614
 30
0.0
 11
143.6836139442715
 21
104.3728326454545
 31
0.0
  0
HATCH
  5
142
330
E3
100
AcDbEntity
  8
Des_ Furniture
  6
Continuous
 62
   255
370
     0
100
AcDbHatch
 10
0.0
 20
0.0
 30
0.0
210
0.0
220
0.0
230
1.0
  2
SOLID
 70
     1
 71
     0
 91
        1
 92
        3
 72
     1
 73
     1
 93
        4
 10
144.7228462509183
 20
104.3728336771803
 42
0.6671603110635675
 10
143.683615766377
 20
104.3728336771803
 42
0.0
 10
143.683615766377
 20
102.9861670105136
 42
0.6671603110635675
 10
144.7228462509183
 20
102.9861670105136
 42
0.0
 97
        0
 75
     0
 76
     1
 98
        0
  0
ARC
  5
143
330
E3
100
AcDbEntity
  8
Des_ Furniture
  6
Continuous
100
AcDbCircle
 10
144.2032310086476
 20
104.1567439335906
 30
0.0
 40
0.5627564102563936
100
AcDbArc
 50
22.58071176780094
 51
157.4192882322002
  0
LINE
  5
144
330
E3
100
AcDbEntity
  8
Des_ Furniture
  6
Continuous
100
AcDbLine
 10
143.6836139442715
 20
104.3728326454545
 30
0.0
 11
143.6836139442715
 21
102.9861662497614
 31
0.0
  0
ARC
  5
145
330
E3
100
AcDbEntity
  8
Des_ Furniture
  6
Continuous
100
AcDbCircle
 10
144.2032310086476
 20
103.2022567541033
 30
0.0
 40
0.5627564102564245
100
AcDbArc
 50
202.5807117678011
 51
337.4192882321977
  0
LINE
  5
146
330
E3
100
AcDbEntity
  8
Des_ Furniture
  6
Continuous
100
AcDbLine
 10
144.7228442495304
 20
102.9861662497614
 30
0.0
 11
144.7228442495304
 21
104.3728326454545
 31
0.0
  0
HATCH
  5
147
330
E3
100
AcDbEntity
  8
Des_ Furniture
  6
Continuous
 62
   255
370
     0
100
AcDbHatch
 10
0.0
 20
0.0
 30
0.0
210
0.0
220
0.0
230
1.0
  2
SOLID
 70
     1
 71
     0
 91
        1
 92
        3
 72
     1
 73
     1
 93
        4
 10
140.565924312753
 20
104.3728336771803
 42
0.0
 10
140.565924312753
 20
102.9861670105136
 42
0.6671603110635675
 10
141.6051547972943
 20
102.9861670105136
 42
0.0
 10
141.6051547972943
 20
104.3728336771803
 42
0.6671603110635675
 97
        0
 75
     0
 76
     1
 98
        0
  0
LINE
  5
148
330
E3
100
AcDbEntity
  8
Des_ Furniture
  6
Continuous
100
AcDbLine
 10
140.5659230284948
 20
102.9861662497614
 30
0.0
 11
140.5659230284948
 21
104.3728326454545
 31
0.0
  0
ARC
  5
149
330
E3
100
AcDbEntity
  8
Des_ Furniture
  6
Continuous
100
AcDbCircle
 10
141.0855395550236
 20
103.2022567541033
 30
0.0
 40
0.5627564102563936
100
AcDbArc
 50
202.5807117678009
 51
337.4192882322001
  0
LINE
  5
14A
330
E3
100
AcDbEntity
  8
Des_ Furniture
  6
Continuous
100
AcDbLine
 10
141.6051533337537
 20
104.3728326454545
 30
0.0
 11
141.6051533337537
 21
102.9861662497614
 31
0.0
  0
ARC
  5
14B
330
E3
100
AcDbEntity
  8
Des_ Furniture
  6
Continuous
100
AcDbCircle
 10
141.0855395550236
 20
104.1567439335906
 30
0.0
 40
0.5627564102564245
100
AcDbArc
 50
22.58071176780116
 51
157.4192882321978
  0
HATCH
  5
14C
330
E3
100
AcDbEntity
  8
Des_ Furniture
  6
Continuous
 62
   255
370
     0
100
AcDbHatch
 10
0.0
 20
0.0
 30
0.0
210
0.0
220
0.0
230
1.0
  2
SOLID
 70
     1
 71
     0
 91
        1
 92
        3
 72
     0
 73
     1
 93
        4
 10
140.1443852818356
 20
107.5783956609154
 10
145.1443852818356
 20
107.5783956609154
 10
145.1443852818356
 20
107.9783956609154
 10
140.1443852818356
 20
107.9783956609154
 97
        0
 75
     0
 76
     1
 98
        0
  0
LINE
  5
14D
330
E3
100
AcDbEntity
  8
Des_ Furniture
  6
Continuous
100
AcDbLine
 10
140.1443839907101
 20
107.5783940026684
 30
0.0
 11
145.1443832873152
 21
107.5783940026684
 31
0.0
  0
LINE
  5
14E
330
E3
100
AcDbEntity
  8
Des_ Furniture
  6
Continuous
100
AcDbLine
 10
145.1443832873152
 20
107.5783940026684
 30
0.0
 11
145.1443832873152
 21
107.9783954101587
 31
0.0
  0
LINE
  5
14F
330
E3
100
AcDbEntity
  8
Des_ Furniture
  6
Continuous
100
AcDbLine
 10
145.1443832873152
 20
107.9783954101587
 30
0.0
 11
140.1443839907101
 21
107.9783954101587
 31
0.0
  0
LINE
  5
150
330
E3
100
AcDbEntity
  8
Des_ Furniture
  6
Continuous
100
AcDbLine
 10
140.1443839907101
 20
107.9783954101587
 30
0.0
 11
140.1443839907101
 21
107.5783940026684
 31
0.0
  0
HATCH
  5
151
330
E3
100
AcDbEntity
  8
Des_ Furniture
  6
Continuous
 62
   255
370
     0
100
AcDbHatch
 10
0.0
 20
0.0
 30
0.0
210
0.0
220
0.0
230
1.0
  2
SOLID
 70
     1
 71
     0
 91
        1
 92
        3
 72
     0
 73
     1
 93
        4
 10
140.1443852818356
 20
105.1195003438469
 10
140.1443852818356
 20
104.7195003438469
 10
145.1443852818356
 20
104.7195003438469
 10
145.1443852818356
 20
105.1195003438469
 97
        0
 75
     0
 76
     1
 98
        0
  0
LINE
  5
152
330
E3
100
AcDbEntity
  8
Des_ Furniture
  6
Continuous
100
AcDbLine
 10
140.1443839907101
 20
105.1195016683694
 30
0.0
 11
140.1443839907101
 21
104.7195002608791
 31
0.0
  0
LINE
  5
153
330
E3
100
AcDbEntity
  8
Des_ Furniture
  6
Continuous
100
AcDbLine
 10
140.1443839907101
 20
104.7195002608791
 30
0.0
 11
145.1443832873152
 21
104.7195002608791
 31
0.0
  0
LINE
  5
154
330
E3
100
AcDbEntity
  8
Des_ Furniture
  6
Continuous
100
AcDbLine
 10
145.1443832873152
 20
104.7195002608791
 30
0.0
 11
145.1443832873152
 21
105.1195016683694
 31
0.0
  0
LINE
  5
155
330
E3
100
AcDbEntity
  8
Des_ Furniture
  6
Continuous
100
AcDbLine
 10
145.1443832873152
 20
105.1195016683694
 30
0.0
 11
140.1443839907101
 21
105.1195016683694
 31
0.0
  0
LINE
  5
156
330
E3
100
AcDbEntity
  8
Des_ Furniture
  6
Continuous
100
AcDbLine
 10
144.2032290969009
 20
109.4783976387435
 30
0.0
 11
141.0855381811243
 21
109.4783976387435
 31
0.0
  0
LINE
  5
157
330
E3
100
AcDbEntity
  8
Des_ Furniture
  6
Continuous
100
AcDbLine
 10
141.0855381811243
 20
107.9783954101587
 30
0.0
 11
144.2032290969009
 21
107.9783954101587
 31
0.0
  0
LINE
  5
158
330
E3
100
AcDbEntity
  8
Des_ Furniture
  6
Continuous
100
AcDbLine
 10
144.2032290969009
 20
104.7195002608791
 30
0.0
 11
141.0855381811243
 21
104.7195002608791
 31
0.0
  0
LINE
  5
159
330
E3
100
AcDbEntity
  8
Des_ Furniture
  6
Continuous
100
AcDbLine
 10
141.0855381811243
 20
102.6394986343368
 30
0.0
 11
144.2032290969009
 21
102.6394986343368
 31
0.0
  0
LINE
  5
15B
330
E3
100
AcDbEntity
  8
Des_ Furniture
  6
Dot & Dashed
100
AcDbLine
 10
142.6443836390126
 20
111.1783944720654
 30
0.0
 11
142.6443836390126
 21
99.83950097992056
 31
0.0
  0
HATCH
  5
15C
330
E3
100
AcDbEntity
  8
Des_ Furniture
  6
Continuous
 62
   255
370
     0
100
AcDbHatch
 10
0.0
 20
0.0
 30
0.0
210
0.0
220
0.0
230
1.0
  2
SOLID
 70
     1
 71
     0
 91
        1
 92
        3
 72
     0
 73
     1
 93
        6
 10
169.4217365224679
 20
107.9783956609154
 10
169.4217365224679
 20
101.5675003438469
 10
169.5497365224679
 20
101.4395003438469
 10
171.6937365224679
 20
101.4395003438469
 10
171.8217365224679
 20
101.5675003438469
 10
171.8217365224679
 20
107.9783956609154
 97
        0
 75
     0
 76
     1
 98
        0
  0
LINE
  5
15D
330
E3
100
AcDbEntity
  8
Des_ Furniture
  6
Continuous
100
AcDbLine
 10
169.4217367729892
 20
107.9783954101587
 30
0.0
 11
169.4217367729892
 21
101.56750039203
 31
0.0
  0
LINE
  5
15E
330
E3
100
AcDbEntity
  8
Des_ Furniture
  6
Continuous
100
AcDbLine
 10
169.4217367729892
 20
101.56750039203
 30
0.0
 11
169.5497346211427
 21
101.4394984778712
 31
0.0
  0
LINE
  5
15F
330
E3
100
AcDbEntity
  8
Des_ Furniture
  6
Continuous
100
AcDbLine
 10
169.5497346211427
 20
101.4394984778712
 30
0.0
 11
171.6937351717617
 21
101.4394984778712
 31
0.0
  0
LINE
  5
160
330
E3
100
AcDbEntity
  8
Des_ Furniture
  6
Continuous
100
AcDbLine
 10
171.6937351717617
 20
101.4394984778712
 30
0.0
 11
171.8217370859205
 21
101.56750039203
 31
0.0
  0
LINE
  5
161
330
E3
100
AcDbEntity
  8
Des_ Furniture
  6
Continuous
100
AcDbLine
 10
171.8217370859205
 20
101.56750039203
 30
0.0
 11
171.8217370859205
 21
107.9783954101587
 31
0.0
  0
LINE
  5
162
330
E3
100
AcDbEntity
  8
Des_ Furniture
  6
Continuous
100
AcDbLine
 10
171.8217370859205
 20
107.9783954101587
 30
0.0
 11
169.4217367729892
 21
107.9783954101587
 31
0.0
  0
LINE
  5
163
330
E3
100
AcDbEntity
  8
Des_ Furniture
  6
Continuous
100
AcDbLine
 10
169.4217367729892
 20
101.56750039203
 30
0.0
 11
171.8217370859205
 21
101.56750039203
 31
0.0
  0
LINE
  5
164
330
E3
100
AcDbEntity
  8
Des_ Furniture
  6
Continuous
100
AcDbLine
 10
169.4217367729892
 20
107.4394992601994
 30
0.0
 11
171.8217370859205
 21
107.4394992601994
 31
0.0
  0
LINE
  5
165
330
E3
100
AcDbEntity
  8
Des_ Furniture
  6
Continuous
100
AcDbLine
 10
169.5497346211427
 20
107.311501412046
 30
0.0
 11
171.6937351717617
 21
107.311501412046
 31
0.0
  0
LINE
  5
166
330
E3
100
AcDbEntity
  8
Des_ Furniture
  6
Continuous
100
AcDbLine
 10
169.5497346211427
 20
107.311501412046
 30
0.0
 11
169.4217367729892
 21
107.4394992601994
 31
0.0
  0
LINE
  5
167
330
E3
100
AcDbEntity
  8
Des_ Furniture
  6
Continuous
100
AcDbLine
 10
171.6937351717617
 20
107.311501412046
 30
0.0
 11
171.8217370859205
 21
107.4394992601994
 31
0.0
  0
LINE
  5
168
330
E3
100
AcDbEntity
  8
Des_ Furniture
  6
Continuous
100
AcDbLine
 10
169.5497346211427
 20
107.311501412046
 30
0.0
 11
169.5497346211427
 21
101.4394984778712
 31
0.0
  0
LINE
  5
169
330
E3
100
AcDbEntity
  8
Des_ Furniture
  6
Continuous
100
AcDbLine
 10
171.6937351717617
 20
107.311501412046
 30
0.0
 11
171.6937351717617
 21
101.4394984778712
 31
0.0
  0
HATCH
  5
16A
330
E3
100
AcDbEntity
  8
Des_ Furniture
  6
Continuous
 62
   255
370
     0
100
AcDbHatch
 10
0.0
 20
0.0
 30
0.0
210
0.0
220
0.0
230
1.0
  2
SOLID
 70
     1
 71
     0
 91
        1
 92
        3
 72
     0
 73
     1
 93
        4
 10
172.1805822492798
 20
109.4783956609154
 10
169.0628907956559
 20
109.4783956609154
 10
169.0628907956559
 20
107.9783956609154
 10
172.1805822492798
 20
107.9783956609154
 97
        0
 75
     0
 76
     1
 98
        0
  0
HATCH
  5
16B
330
E3
100
AcDbEntity
  8
Des_ Furniture
  6
Continuous
 62
   255
370
     0
100
AcDbHatch
 10
0.0
 20
0.0
 30
0.0
210
0.0
220
0.0
230
1.0
  2
SOLID
 70
     1
 71
     0
 91
        1
 92
        3
 72
     1
 73
     1
 93
        4
 10
171.6609670070092
 20
109.2283956609155
 42
0.2405626121623441
 10
169.5825060379265
 20
109.2283956609155
 42
0.0
 10
169.5825060379265
 20
107.9783956609154
 42
0.0
 10
171.6609670070092
 20
107.9783956609154
 42
0.0
 97
        0
 75
     0
 76
     1
 98
        0
  0
ARC
  5
16C
330
E3
100
AcDbEntity
  8
Des_ Furniture
  6
Continuous
100
AcDbCircle
 10
170.6217365224679
 20
107.1933956609155
 30
0.0
 40
2.284999999999995
100
AcDbArc
 50
62.94758187956862
 51
117.0524181204314
  0
LINE
  5
16D
330
E3
100
AcDbEntity
  8
Des_ Furniture
  6
Continuous
100
AcDbLine
 10
169.582506624196
 20
109.22839523431
 30
0.0
 11
169.582506624196
 21
107.9783954101587
 31
0.0
  0
LINE
  5
16E
330
E3
100
AcDbEntity
  8
Des_ Furniture
  6
Continuous
100
AcDbLine
 10
169.582506624196
 20
107.9783954101587
 30
0.0
 11
171.6609672347138
 21
107.9783954101587
 31
0.0
  0
LINE
  5
16F
330
E3
100
AcDbEntity
  8
Des_ Furniture
  6
Continuous
100
AcDbLine
 10
171.6609672347138
 20
107.9783954101587
 30
0.0
 11
171.6609672347138
 21
109.22839523431
 31
0.0
  0
HATCH
  5
170
330
E3
100
AcDbEntity
  8
Des_ Furniture
  6
Continuous
 62
   255
370
     0
100
AcDbHatch
 10
0.0
 20
0.0
 30
0.0
210
0.0
220
0.0
230
1.0
  2
SOLID
 70
     1
 71
     0
 91
        1
 92
        3
 72
     1
 73
     1
 93
        4
 10
172.7001974915505
 20
109.2283956609155
 42
0.4811252243246882
 10
171.6609670070092
 20
109.2283956609155
 42
0.0
 10
171.6609670070092
 20
107.9783956609154
 42
0.0
 10
172.7001974915505
 20
107.9783956609154
 42
0.0
 97
        0
 75
     0
 76
     1
 98
        0
  0
ARC
  5
171
330
E3
100
AcDbEntity
  8
Des_ Furniture
  6
Continuous
100
AcDbCircle
 10
172.1805822492798
 20
108.8133956609155
 30
0.0
 40
0.6650000000000185
100
AcDbArc
 50
38.613238191003
 51
141.3867618089955
  0
LINE
  5
172
330
E3
100
AcDbEntity
  8
Des_ Furniture
  6
Continuous
100
AcDbLine
 10
171.6609672347138
 20
109.22839523431
 30
0.0
 11
171.6609672347138
 21
107.9783954101587
 31
0.0
  0
LINE
  5
173
330
E3
100
AcDbEntity
  8
Des_ Furniture
  6
Continuous
100
AcDbLine
 10
171.6609672347138
 20
107.9783954101587
 30
0.0
 11
172.7001975399726
 21
107.9783954101587
 31
0.0
  0
LINE
  5
174
330
E3
100
AcDbEntity
  8
Des_ Furniture
  6
Continuous
100
AcDbLine
 10
172.7001975399726
 20
107.9783954101587
 30
0.0
 11
172.7001975399726
 21
109.22839523431
 31
0.0
  0
HATCH
  5
175
330
E3
100
AcDbEntity
  8
Des_ Furniture
  6
Continuous
 62
   255
370
     0
100
AcDbHatch
 10
0.0
 20
0.0
 30
0.0
210
0.0
220
0.0
230
1.0
  2
SOLID
 70
     1
 71
     0
 91
        1
 92
        3
 72
     1
 73
     1
 93
        4
 10
168.5432755533852
 20
109.2283956609155
 42
0.0
 10
168.5432755533852
 20
107.9783956609154
 42
0.0
 10
169.5825060379265
 20
107.9783956609154
 42
0.0
 10
169.5825060379265
 20
109.2283956609155
 42
0.4811252243246882
 97
        0
 75
     0
 76
     1
 98
        0
  0
LINE
  5
176
330
E3
100
AcDbEntity
  8
Des_ Furniture
  6
Continuous
100
AcDbLine
 10
168.5432763189371
 20
107.9783954101587
 30
0.0
 11
168.5432763189371
 21
109.22839523431
 31
0.0
  0
LINE
  5
177
330
E3
100
AcDbEntity
  8
Des_ Furniture
  6
Continuous
100
AcDbLine
 10
169.582506624196
 20
107.9783954101587
 30
0.0
 11
168.5432763189371
 21
107.9783954101587
 31
0.0
  0
LINE
  5
178
330
E3
100
AcDbEntity
  8
Des_ Furniture
  6
Continuous
100
AcDbLine
 10
169.582506624196
 20
109.22839523431
 30
0.0
 11
169.582506624196
 21
107.9783954101587
 31
0.0
  0
ARC
  5
179
330
E3
100
AcDbEntity
  8
Des_ Furniture
  6
Continuous
100
AcDbCircle
 10
169.0628907956559
 20
108.8133956609155
 30
0.0
 40
0.6649999999999795
100
AcDbArc
 50
38.61323819100262
 51
141.3867618089989
  0
HATCH
  5
17A
330
E3
100
AcDbEntity
  8
Des_ Furniture
  6
Continuous
 62
   255
370
     0
100
AcDbHatch
 10
0.0
 20
0.0
 30
0.0
210
0.0
220
0.0
230
1.0
  2
SOLID
 70
     1
 71
     0
 91
        1
 92
        3
 72
     0
 73
     1
 93
        4
 10
172.1805822492798
 20
104.7195003438469
 10
169.0628907956559
 20
104.7195003438469
 10
169.0628907956559
 20
102.6395003438468
 10
172.1805822492798
 20
102.6395003438468
 97
        0
 75
     0
 76
     1
 98
        0
  0
HATCH
  5
17B
330
E3
100
AcDbEntity
  8
Des_ Furniture
  6
Continuous
 62
   255
370
     0
100
AcDbHatch
 10
0.0
 20
0.0
 30
0.0
210
0.0
220
0.0
230
1.0
  2
SOLID
 70
     1
 71
     0
 91
        1
 92
        3
 72
     1
 73
     1
 93
        4
 10
171.6609670070092
 20
104.3728336771803
 42
0.3335801555317839
 10
169.5825060379265
 20
104.3728336771803
 42
0.0
 10
169.5825060379265
 20
102.9861670105136
 42
0.3335801555317839
 10
171.6609670070092
 20
102.9861670105136
 42
0.0
 97
        0
 75
     0
 76
     1
 98
        0
  0
ARC
  5
17C
330
E3
100
AcDbEntity
  8
Des_ Furniture
  6
Continuous
100
AcDbCircle
 10
170.6217365224678
 20
102.9884747028213
 30
0.0
 40
1.731025641025638
100
AcDbArc
 50
53.1046488728494
 51
126.8953511271506
  0
LINE
  5
17D
330
E3
100
AcDbEntity
  8
Des_ Furniture
  6
Continuous
100
AcDbLine
 10
169.582506624196
 20
104.3728326454545
 30
0.0
 11
169.582506624196
 21
102.9861662497614
 31
0.0
  0
ARC
  5
17E
330
E3
100
AcDbEntity
  8
Des_ Furniture
  6
Continuous
100
AcDbCircle
 10
170.6217365224678
 20
104.3705259848725
 30
0.0
 40
1.731025641025638
100
AcDbArc
 50
233.1046488728493
 51
306.8953511271506
  0
LINE
  5
17F
330
E3
100
AcDbEntity
  8
Des_ Furniture
  6
Continuous
100
AcDbLine
 10
171.6609672347138
 20
102.9861662497614
 30
0.0
 11
171.6609672347138
 21
104.3728326454545
 31
0.0
  0
HATCH
  5
180
330
E3
100
AcDbEntity
  8
Des_ Furniture
  6
Continuous
 62
   255
370
     0
100
AcDbHatch
 10
0.0
 20
0.0
 30
0.0
210
0.0
220
0.0
230
1.0
  2
SOLID
 70
     1
 71
     0
 91
        1
 92
        3
 72
     1
 73
     1
 93
        4
 10
172.7001974915505
 20
104.3728336771803
 42
0.6671603110635675
 10
171.6609670070092
 20
104.3728336771803
 42
0.0
 10
171.6609670070092
 20
102.9861670105136
 42
0.6671603110635675
 10
172.7001974915505
 20
102.9861670105136
 42
0.0
 97
        0
 75
     0
 76
     1
 98
        0
  0
ARC
  5
181
330
E3
100
AcDbEntity
  8
Des_ Furniture
  6
Continuous
100
AcDbCircle
 10
172.1805822492798
 20
104.1567439335906
 30
0.0
 40
0.5627564102564245
100
AcDbArc
 50
22.58071176780116
 51
157.4192882321989
  0
LINE
  5
182
330
E3
100
AcDbEntity
  8
Des_ Furniture
  6
Continuous
100
AcDbLine
 10
171.6609672347138
 20
104.3728326454545
 30
0.0
 11
171.6609672347138
 21
102.9861662497614
 31
0.0
  0
ARC
  5
183
330
E3
100
AcDbEntity
  8
Des_ Furniture
  6
Continuous
100
AcDbCircle
 10
172.1805822492798
 20
103.2022567541033
 30
0.0
 40
0.5627564102564245
100
AcDbArc
 50
202.5807117678011
 51
337.4192882321988
  0
LINE
  5
184
330
E3
100
AcDbEntity
  8
Des_ Furniture
  6
Continuous
100
AcDbLine
 10
172.7001975399726
 20
102.9861662497614
 30
0.0
 11
172.7001975399726
 21
104.3728326454545
 31
0.0
  0
HATCH
  5
185
330
E3
100
AcDbEntity
  8
Des_ Furniture
  6
Continuous
 62
   255
370
     0
100
AcDbHatch
 10
0.0
 20
0.0
 30
0.0
210
0.0
220
0.0
230
1.0
  2
SOLID
 70
     1
 71
     0
 91
        1
 92
        3
 72
     1
 73
     1
 93
        4
 10
168.5432755533852
 20
104.3728336771803
 42
0.0
 10
168.5432755533852
 20
102.9861670105136
 42
0.6671603110635675
 10
169.5825060379265
 20
102.9861670105136
 42
0.0
 10
169.5825060379265
 20
104.3728336771803
 42
0.6671603110635675
 97
        0
 75
     0
 76
     1
 98
        0
  0
LINE
  5
186
330
E3
100
AcDbEntity
  8
Des_ Furniture
  6
Continuous
100
AcDbLine
 10
168.5432763189371
 20
102.9861662497614
 30
0.0
 11
168.5432763189371
 21
104.3728326454545
 31
0.0
  0
ARC
  5
187
330
E3
100
AcDbEntity
  8
Des_ Furniture
  6
Continuous
100
AcDbCircle
 10
169.0628907956559
 20
103.2022567541033
 30
0.0
 40
0.5627564102563936
100
AcDbArc
 50
202.5807117678009
 51
337.419288232199
  0
LINE
  5
188
330
E3
100
AcDbEntity
  8
Des_ Furniture
  6
Continuous
100
AcDbLine
 10
169.582506624196
 20
104.3728326454545
 30
0.0
 11
169.582506624196
 21
102.9861662497614
 31
0.0
  0
ARC
  5
189
330
E3
100
AcDbEntity
  8
Des_ Furniture
  6
Continuous
100
AcDbCircle
 10
169.0628907956559
 20
104.1567439335906
 30
0.0
 40
0.5627564102563936
100
AcDbArc
 50
22.58071176780094
 51
157.4192882321991
  0
HATCH
  5
18A
330
E3
100
AcDbEntity
  8
Des_ Furniture
  6
Continuous
 62
   255
370
     0
100
AcDbHatch
 10
0.0
 20
0.0
 30
0.0
210
0.0
220
0.0
230
1.0
  2
SOLID
 70
     1
 71
     0
 91
        1
 92
        3
 72
     0
 73
     1
 93
        4
 10
168.1217365224679
 20
107.5783956609154
 10
173.1217365224679
 20
107.5783956609154
 10
173.1217365224679
 20
107.9783956609154
 10
168.1217365224679
 20
107.9783956609154
 97
        0
 75
     0
 76
     1
 98
        0
  0
LINE
  5
18B
330
E3
100
AcDbEntity
  8
Des_ Furniture
  6
Continuous
100
AcDbLine
 10
168.1217372811523
 20
107.5783940026684
 30
0.0
 11
173.1217365777574
 21
107.5783940026684
 31
0.0
  0
LINE
  5
18C
330
E3
100
AcDbEntity
  8
Des_ Furniture
  6
Continuous
100
AcDbLine
 10
173.1217365777574
 20
107.5783940026684
 30
0.0
 11
173.1217365777574
 21
107.9783954101587
 31
0.0
  0
LINE
  5
18D
330
E3
100
AcDbEntity
  8
Des_ Furniture
  6
Continuous
100
AcDbLine
 10
173.1217365777574
 20
107.9783954101587
 30
0.0
 11
168.1217372811523
 21
107.9783954101587
 31
0.0
  0
LINE
  5
18E
330
E3
100
AcDbEntity
  8
Des_ Furniture
  6
Continuous
100
AcDbLine
 10
168.1217372811523
 20
107.9783954101587
 30
0.0
 11
168.1217372811523
 21
107.5783940026684
 31
0.0
  0
HATCH
  5
18F
330
E3
100
AcDbEntity
  8
Des_ Furniture
  6
Continuous
 62
   255
370
     0
100
AcDbHatch
 10
0.0
 20
0.0
 30
0.0
210
0.0
220
0.0
230
1.0
  2
SOLID
 70
     1
 71
     0
 91
        1
 92
        3
 72
     0
 73
     1
 93
        4
 10
168.1217365224679
 20
105.1195003438469
 10
168.1217365224679
 20
104.7195003438469
 10
173.1217365224679
 20
104.7195003438469
 10
173.1217365224679
 20
105.1195003438469
 97
        0
 75
     0
 76
     1
 98
        0
  0
LINE
  5
190
330
E3
100
AcDbEntity
  8
Des_ Furniture
  6
Continuous
100
AcDbLine
 10
168.1217372811523
 20
105.1195016683694
 30
0.0
 11
168.1217372811523
 21
104.7195002608791
 31
0.0
  0
LINE
  5
191
330
E3
100
AcDbEntity
  8
Des_ Furniture
  6
Continuous
100
AcDbLine
 10
168.1217372811523
 20
104.7195002608791
 30
0.0
 11
173.1217365777574
 21
104.7195002608791
 31
0.0
  0
LINE
  5
192
330
E3
100
AcDbEntity
  8
Des_ Furniture
  6
Continuous
100
AcDbLine
 10
173.1217365777574
 20
104.7195002608791
 30
0.0
 11
173.1217365777574
 21
105.1195016683694
 31
0.0
  0
LINE
  5
193
330
E3
100
AcDbEntity
  8
Des_ Furniture
  6
Continuous
100
AcDbLine
 10
173.1217365777574
 20
105.1195016683694
 30
0.0
 11
168.1217372811523
 21
105.1195016683694
 31
0.0
  0
LINE
  5
194
330
E3
100
AcDbEntity
  8
Des_ Furniture
  6
Continuous
100
AcDbLine
 10
172.1805823873432
 20
109.4783976387435
 30
0.0
 11
169.0628914715665
 21
109.4783976387435
 31
0.0
  0
LINE
  5
195
330
E3
100
AcDbEntity
  8
Des_ Furniture
  6
Continuous
100
AcDbLine
 10
169.0628914715665
 20
107.9783954101587
 30
0.0
 11
172.1805823873432
 21
107.9783954101587
 31
0.0
  0
LINE
  5
196
330
E3
100
AcDbEntity
  8
Des_ Furniture
  6
Continuous
100
AcDbLine
 10
172.1805823873432
 20
104.7195002608791
 30
0.0
 11
169.0628914715665
 21
104.7195002608791
 31
0.0
  0
LINE
  5
197
330
E3
100
AcDbEntity
  8
Des_ Furniture
  6
Continuous
100
AcDbLine
 10
169.0628914715665
 20
102.6394986343368
 30
0.0
 11
172.1805823873432
 21
102.6394986343368
 31
0.0
  0
LINE
  5
198
330
E3
100
AcDbEntity
  8
Des_ Furniture
  6
Dot & Dashed
100
AcDbLine
 10
170.6217369294549
 20
111.1783944720654
 30
0.0
 11
170.6217369294549
 21
99.83950097992056
 31
0.0
  0
HATCH
  5
199
330
E3
100
AcDbEntity
  8
Des_ Furniture
  6
Continuous
 62
   255
370
     0
100
AcDbHatch
 10
0.0
 20
0.0
 30
0.0
210
0.0
220
0.0
230
1.0
  2
SOLID
 70
     1
 71
     0
 91
        1
 92
        3
 72
     1
 73
     1
 93
        2
 10
132.959148049584
 20
99.0153834285007
 42
0.4999999999999998
 10
132.959148049584
 20
96.61538342850085
 42
0.0
 97
        0
 75
     0
 76
     1
 98
        0
  0
ARC
  5
19A
330
E3
100
AcDbEntity
  8
Des_ Furniture
  6
Continuous
100
AcDbCircle
 10
133.859148049584
 20
97.81538342850077
 30
0.0
 40
1.499999999999913
100
AcDbArc
 50
126.8698976458444
 51
233.1301023541556
  0
LINE
  5
19B
330
E3
100
AcDbEntity
  8
Des_ Furniture
  6
Continuous
100
AcDbLine
 10
132.9591467173115
 20
96.61538237432757
 30
0.0
 11
132.9591467173115
 21
99.01538268725888
 31
0.0
  0
HATCH
  5
19C
330
E3
100
AcDbEntity
  8
Des_ Furniture
  6
Continuous
 62
   255
370
     0
100
AcDbHatch
 10
0.0
 20
0.0
 30
0.0
210
0.0
220
0.0
230
1.0
  2
SOLID
 70
     1
 71
     0
 91
        1
 92
        3
 72
     0
 73
     1
 93
        4
 10
132.359148049584
 20
97.17538342850074
 10
132.5025346190151
 20
97.17538342850074
 10
132.5025346190151
 20
98.4553834285008
 10
132.359148049584
 20
98.4553834285008
 97
        0
 75
     0
 76
     1
 98
        0
  0
LINE
  5
19D
330
E3
100
AcDbEntity
  8
Des_ Furniture
  6
Continuous
100
AcDbLine
 10
132.3591466390787
 20
97.1753851580151
 30
0.0
 11
132.5025343174501
 21
97.1753851580151
 31
0.0
  0
LINE
  5
19E
330
E3
100
AcDbEntity
  8
Des_ Furniture
  6
Continuous
100
AcDbLine
 10
132.5025343174501
 20
97.1753851580151
 30
0.0
 11
132.5025343174501
 21
98.45538396957669
 31
0.0
  0
LINE
  5
19F
330
E3
100
AcDbEntity
  8
Des_ Furniture
  6
Continuous
100
AcDbLine
 10
132.5025343174501
 20
98.45538396957669
 30
0.0
 11
132.3591466390787
 21
98.45538396957669
 31
0.0
  0
LINE
  5
1A0
330
E3
100
AcDbEntity
  8
Des_ Furniture
  6
Continuous
100
AcDbLine
 10
132.3591466390787
 20
98.45538396957669
 30
0.0
 11
132.3591466390787
 21
97.1753851580151
 31
0.0
  0
HATCH
  5
1A1
330
E3
100
AcDbEntity
  8
Des_ Furniture
  6
Continuous
 62
   255
370
     0
100
AcDbHatch
 10
0.0
 20
0.0
 30
0.0
210
0.0
220
0.0
230
1.0
  2
SOLID
 70
     1
 71
     0
 91
        1
 92
        3
 72
     1
 73
     1
 93
        4
 10
132.959148049584
 20
96.41538342850076
 42
0.0
 10
133.759148049584
 20
96.41538342850076
 42
-0.4285714285714285
 10
133.759148049584
 20
99.21538342850079
 42
0.0
 10
132.959148049584
 20
99.21538342850079
 42
0.0
 97
        0
 75
     0
 76
     1
 98
        0
  0
LINE
  5
1A2
330
E3
100
AcDbEntity
  8
Des_ Furniture
  6
Continuous
100
AcDbLine
 10
132.9591467173115
 20
96.41538370358509
 30
0.0
 11
133.7591495322922
 21
96.41538370358509
 31
0.0
  0
ARC
  5
1A3
330
E3
100
AcDbEntity
  8
Des_ Furniture
  6
Continuous
100
AcDbCircle
 10
135.0924813829174
 20
97.81538342850077
 30
0.0
 40
1.933333333333356
100
AcDbArc
 50
133.6028189727038
 51
226.3971810272961
  0
LINE
  5
1A4
330
E3
100
AcDbEntity
  8
Des_ Furniture
  6
Continuous
100
AcDbLine
 10
133.7591495322922
 20
99.21538542400671
 30
0.0
 11
132.9591467173115
 21
99.21538542400671
 31
0.0
  0
LINE
  5
1A5
330
E3
100
AcDbEntity
  8
Des_ Furniture
  6
Continuous
100
AcDbLine
 10
132.9591467173115
 20
99.21538542400671
 30
0.0
 11
132.9591467173115
 21
96.41538370358509
 31
0.0
  0
HATCH
  5
1A6
330
E3
100
AcDbEntity
  8
Des_ Furniture
  6
Continuous
 62
   255
370
     0
100
AcDbHatch
 10
0.0
 20
0.0
 30
0.0
210
0.0
220
0.0
230
1.0
  2
SOLID
 70
     1
 71
     0
 91
        1
 92
        3
 72
     0
 73
     1
 93
        5
 10
133.159148049584
 20
97.49538342850084
 10
142.519148049584
 20
97.49538342850084
 10
143.159148049584
 20
97.81538342850082
 10
142.519148049584
 20
98.1353834285007
 10
133.159148049584
 20
98.1353834285007
 97
        0
 75
     0
 76
     1
 98
        0
  0
LINE
  5
1A7
330
E3
100
AcDbEntity
  8
Des_ Furniture
  6
Continuous
100
AcDbLine
 10
133.1591494540594
 20
97.49538384440416
 30
0.0
 11
142.5191466084861
 21
97.49538384440416
 31
0.0
  0
LINE
  5
1A8
330
E3
100
AcDbEntity
  8
Des_ Furniture
  6
Continuous
100
AcDbLine
 10
142.5191466084861
 20
97.49538384440416
 30
0.0
 11
143.1591480472695
 21
97.81538253079322
 31
0.0
  0
LINE
  5
1A9
330
E3
100
AcDbEntity
  8
Des_ Furniture
  6
Continuous
100
AcDbLine
 10
143.1591480472695
 20
97.81538253079322
 30
0.0
 11
142.5191466084861
 21
98.13538528318763
 31
0.0
  0
LINE
  5
1AA
330
E3
100
AcDbEntity
  8
Des_ Furniture
  6
Continuous
100
AcDbLine
 10
142.5191466084861
 20
98.13538528318763
 30
0.0
 11
133.1591494540594
 21
98.13538528318763
 31
0.0
  0
LINE
  5
1AB
330
E3
100
AcDbEntity
  8
Des_ Furniture
  6
Continuous
100
AcDbLine
 10
133.1591494540594
 20
98.13538528318763
 30
0.0
 11
133.1591494540594
 21
97.49538384440416
 31
0.0
  0
LINE
  5
1AC
330
E3
100
AcDbEntity
  8
Des_ Furniture
  6
Continuous
100
AcDbLine
 10
133.1591494540594
 20
98.33538395393013
 30
0.0
 11
133.2980360645176
 21
98.33340380932876
 31
0.0
  0
LINE
  5
1AD
330
E3
100
AcDbEntity
  8
Des_ Furniture
  6
Continuous
100
AcDbLine
 10
133.2980360645176
 20
98.33340380932876
 30
0.0
 11
133.4369267409812
 21
98.32748370555139
 31
0.0
  0
LINE
  5
1AE
330
E3
100
AcDbEntity
  8
Des_ Furniture
  6
Continuous
100
AcDbLine
 10
133.4369267409812
 20
98.32748370555139
 30
0.0
 11
133.5758133514396
 21
98.31766430265144
 31
0.0
  0
LINE
  5
1AF
330
E3
100
AcDbEntity
  8
Des_ Furniture
  6
Continuous
100
AcDbLine
 10
133.5758133514396
 20
98.31766430265144
 30
0.0
 11
133.7147040279032
 21
98.30402285473038
 31
0.0
  0
LINE
  5
1B0
330
E3
100
AcDbEntity
  8
Des_ Furniture
  6
Continuous
100
AcDbLine
 10
133.7147040279032
 20
98.30402285473038
 30
0.0
 11
133.8535906383615
 21
98.28666507792711
 31
0.0
  0
LINE
  5
1B1
330
E3
100
AcDbEntity
  8
Des_ Furniture
  6
Continuous
100
AcDbLine
 10
133.8535906383615
 20
98.28666507792711
 30
0.0
 11
133.9924813148251
 21
98.2657170184072
 31
0.0
  0
LINE
  5
1B2
330
E3
100
AcDbEntity
  8
Des_ Furniture
  6
Continuous
100
AcDbLine
 10
133.9924813148251
 20
98.2657170184072
 30
0.0
 11
134.1313719912887
 21
98.24134131638432
 31
0.0
  0
LINE
  5
1B3
330
E3
100
AcDbEntity
  8
Des_ Furniture
  6
Continuous
100
AcDbLine
 10
134.1313719912887
 20
98.24134131638432
 30
0.0
 11
134.270258601747
 21
98.21372500810419
 31
0.0
  0
LINE
  5
1B4
330
E3
100
AcDbEntity
  8
Des_ Furniture
  6
Continuous
100
AcDbLine
 10
134.270258601747
 20
98.21372500810419
 30
0.0
 11
134.4091492782106
 21
98.18307952584456
 31
0.0
  0
LINE
  5
1B5
330
E3
100
AcDbEntity
  8
Des_ Furniture
  6
Continuous
100
AcDbLine
 10
134.4091492782106
 20
98.18307952584456
 30
0.0
 11
134.5480358886689
 21
98.14963256590458
 31
0.0
  0
LINE
  5
1B6
330
E3
100
AcDbEntity
  8
Des_ Furniture
  6
Continuous
100
AcDbLine
 10
134.5480358886689
 20
98.14963256590458
 30
0.0
 11
134.6869265651325
 21
98.11364435262611
 31
0.0
  0
LINE
  5
1B7
330
E3
100
AcDbEntity
  8
Des_ Furniture
  6
Continuous
100
AcDbLine
 10
134.6869265651325
 20
98.11364435262611
 30
0.0
 11
134.8258131755908
 21
98.07538324236168
 31
0.0
  0
LINE
  5
1B8
330
E3
100
AcDbEntity
  8
Des_ Furniture
  6
Continuous
100
AcDbLine
 10
134.8258131755908
 20
98.07538324236168
 30
0.0
 11
134.9647038520544
 21
98.03514605350122
 31
0.0
  0
LINE
  5
1B9
330
E3
100
AcDbEntity
  8
Des_ Furniture
  6
Continuous
100
AcDbLine
 10
134.9647038520544
 20
98.03514605350122
 30
0.0
 11
135.1035904625127
 21
97.99323367044003
 31
0.0
  0
LINE
  5
1BA
330
E3
100
AcDbEntity
  8
Des_ Furniture
  6
Continuous
100
AcDbLine
 10
135.1035904625127
 20
97.99323367044003
 30
0.0
 11
135.2424811389764
 21
97.9499673076001
 31
0.0
  0
LINE
  5
1BB
330
E3
100
AcDbEntity
  8
Des_ Furniture
  6
Continuous
100
AcDbLine
 10
135.2424811389764
 20
97.9499673076001
 30
0.0
 11
135.38137181544
 21
97.90568037741943
 31
0.0
  0
LINE
  5
1BC
330
E3
100
AcDbEntity
  8
Des_ Furniture
  6
Continuous
100
AcDbLine
 10
135.38137181544
 20
97.90568037741943
 30
0.0
 11
135.5202584258983
 21
97.860706292336
 31
0.0
  0
LINE
  5
1BD
330
E3
100
AcDbEntity
  8
Des_ Furniture
  6
Continuous
100
AcDbLine
 10
135.5202584258983
 20
97.860706292336
 30
0.0
 11
135.6591491023619
 21
97.81538253079322
 31
0.0
  0
LINE
  5
1BE
330
E3
100
AcDbEntity
  8
Des_ Furniture
  6
Continuous
100
AcDbLine
 10
135.6591491023619
 20
97.81538253079322
 30
0.0
 11
135.7980357128202
 21
97.77006283525577
 31
0.0
  0
LINE
  5
1BF
330
E3
100
AcDbEntity
  8
Des_ Furniture
  6
Continuous
100
AcDbLine
 10
135.7980357128202
 20
97.77006283525577
 30
0.0
 11
135.9369263892838
 21
97.72508468416703
 31
0.0
  0
LINE
  5
1C0
330
E3
100
AcDbEntity
  8
Des_ Furniture
  6
Continuous
100
AcDbLine
 10
135.9369263892838
 20
97.72508468416703
 30
0.0
 11
136.0758129997421
 21
97.68079775398635
 31
0.0
  0
LINE
  5
1C1
330
E3
100
AcDbEntity
  8
Des_ Furniture
  6
Continuous
100
AcDbLine
 10
136.0758129997421
 20
97.68079775398635
 30
0.0
 11
136.2147036762057
 21
97.63753139114641
 31
0.0
  0
LINE
  5
1C2
330
E3
100
AcDbEntity
  8
Des_ Furniture
  6
Continuous
100
AcDbLine
 10
136.2147036762057
 20
97.63753139114641
 30
0.0
 11
136.3535943526693
 21
97.59562307409055
 31
0.0
  0
LINE
  5
1C3
330
E3
100
AcDbEntity
  8
Des_ Furniture
  6
Continuous
100
AcDbLine
 10
136.3535943526693
 20
97.59562307409055
 30
0.0
 11
136.4924809631276
 21
97.55538181922478
 31
0.0
  0
LINE
  5
1C4
330
E3
100
AcDbEntity
  8
Des_ Furniture
  6
Continuous
100
AcDbLine
 10
136.4924809631276
 20
97.55538181922478
 30
0.0
 11
136.6313716395912
 21
97.51712477496568
 31
0.0
  0
LINE
  5
1C5
330
E3
100
AcDbEntity
  8
Des_ Furniture
  6
Continuous
100
AcDbLine
 10
136.6313716395912
 20
97.51712477496568
 30
0.0
 11
136.7702582500496
 21
97.48113249568186
 31
0.0
  0
LINE
  5
1C6
330
E3
100
AcDbEntity
  8
Des_ Furniture
  6
Continuous
100
AcDbLine
 10
136.7702582500496
 20
97.48113249568186
 30
0.0
 11
136.9091489265132
 21
97.44768960174724
 31
0.0
  0
LINE
  5
1C7
330
E3
100
AcDbEntity
  8
Des_ Furniture
  6
Continuous
100
AcDbLine
 10
136.9091489265132
 20
97.44768960174724
 30
0.0
 11
137.0480355369714
 21
97.41704005348227
 31
0.0
  0
LINE
  5
1C8
330
E3
100
AcDbEntity
  8
Des_ Furniture
  6
Continuous
100
AcDbLine
 10
137.0480355369714
 20
97.41704005348227
 30
0.0
 11
137.1869262134351
 21
97.38942374520214
 31
0.0
  0
LINE
  5
1C9
330
E3
100
AcDbEntity
  8
Des_ Furniture
  6
Continuous
100
AcDbLine
 10
137.1869262134351
 20
97.38942374520214
 30
0.0
 11
137.3258128238934
 21
97.36505210918462
 31
0.0
  0
LINE
  5
1CA
330
E3
100
AcDbEntity
  8
Des_ Furniture
  6
Continuous
100
AcDbLine
 10
137.3258128238934
 20
97.36505210918462
 30
0.0
 11
137.464703500357
 21
97.3441040496647
 31
0.0
  0
LINE
  5
1CB
330
E3
100
AcDbEntity
  8
Des_ Furniture
  6
Continuous
100
AcDbLine
 10
137.464703500357
 20
97.3441040496647
 30
0.0
 11
137.6035941768206
 21
97.32674220685607
 31
0.0
  0
LINE
  5
1CC
330
E3
100
AcDbEntity
  8
Des_ Furniture
  6
Continuous
100
AcDbLine
 10
137.6035941768206
 20
97.32674220685607
 30
0.0
 11
137.7424807872789
 21
97.31310075893501
 31
0.0
  0
LINE
  5
1CD
330
E3
100
AcDbEntity
  8
Des_ Furniture
  6
Continuous
100
AcDbLine
 10
137.7424807872789
 20
97.31310075893501
 30
0.0
 11
137.8813714637425
 21
97.30328542204039
 31
0.0
  0
LINE
  5
1CE
330
E3
100
AcDbEntity
  8
Des_ Furniture
  6
Continuous
100
AcDbLine
 10
137.8813714637425
 20
97.30328542204039
 30
0.0
 11
138.0202580742008
 21
97.29736125225769
 31
0.0
  0
LINE
  5
1CF
330
E3
100
AcDbEntity
  8
Des_ Furniture
  6
Continuous
100
AcDbLine
 10
138.0202580742008
 20
97.29736125225769
 30
0.0
 11
138.1591487506645
 21
97.29538517366167
 31
0.0
  0
LINE
  5
1D0
330
E3
100
AcDbEntity
  8
Des_ Furniture
  6
Continuous
100
AcDbLine
 10
138.1591487506645
 20
97.29538517366167
 30
0.0
 11
138.2980353611227
 21
97.29736125225769
 31
0.0
  0
LINE
  5
1D1
330
E3
100
AcDbEntity
  8
Des_ Furniture
  6
Continuous
100
AcDbLine
 10
135.6591491023619
 20
98.33538395393013
 30
0.0
 11
135.7980357128202
 21
98.33340380932876
 31
0.0
  0
LINE
  5
1D2
330
E3
100
AcDbEntity
  8
Des_ Furniture
  6
Continuous
100
AcDbLine
 10
135.7980357128202
 20
98.33340380932876
 30
0.0
 11
135.9369263892838
 21
98.32748370555139
 31
0.0
  0
LINE
  5
1D3
330
E3
100
AcDbEntity
  8
Des_ Furniture
  6
Continuous
100
AcDbLine
 10
135.9369263892838
 20
98.32748370555139
 30
0.0
 11
136.0758129997421
 21
98.31766430265144
 31
0.0
  0
LINE
  5
1D4
330
E3
100
AcDbEntity
  8
Des_ Furniture
  6
Continuous
100
AcDbLine
 10
136.0758129997421
 20
98.31766430265144
 30
0.0
 11
136.2147036762057
 21
98.30402285473038
 31
0.0
  0
LINE
  5
1D5
330
E3
100
AcDbEntity
  8
Des_ Furniture
  6
Continuous
100
AcDbLine
 10
136.2147036762057
 20
98.30402285473038
 30
0.0
 11
136.3535943526693
 21
98.28666507792711
 31
0.0
  0
LINE
  5
1D6
330
E3
100
AcDbEntity
  8
Des_ Furniture
  6
Continuous
100
AcDbLine
 10
136.3535943526693
 20
98.28666507792711
 30
0.0
 11
136.4924809631276
 21
98.2657170184072
 31
0.0
  0
LINE
  5
1D7
330
E3
100
AcDbEntity
  8
Des_ Furniture
  6
Continuous
100
AcDbLine
 10
136.4924809631276
 20
98.2657170184072
 30
0.0
 11
136.6313716395912
 21
98.24134131638432
 31
0.0
  0
LINE
  5
1D8
330
E3
100
AcDbEntity
  8
Des_ Furniture
  6
Continuous
100
AcDbLine
 10
136.6313716395912
 20
98.24134131638432
 30
0.0
 11
136.7702582500496
 21
98.21372500810419
 31
0.0
  0
LINE
  5
1D9
330
E3
100
AcDbEntity
  8
Des_ Furniture
  6
Continuous
100
AcDbLine
 10
136.7702582500496
 20
98.21372500810419
 30
0.0
 11
136.9091489265132
 21
98.18307952584456
 31
0.0
  0
LINE
  5
1DA
330
E3
100
AcDbEntity
  8
Des_ Furniture
  6
Continuous
100
AcDbLine
 10
136.9091489265132
 20
98.18307952584456
 30
0.0
 11
137.0480355369714
 21
98.14963256590458
 31
0.0
  0
LINE
  5
1DB
330
E3
100
AcDbEntity
  8
Des_ Furniture
  6
Continuous
100
AcDbLine
 10
137.0480355369714
 20
98.14963256590458
 30
0.0
 11
137.1869262134351
 21
98.11364435262611
 31
0.0
  0
LINE
  5
1DC
330
E3
100
AcDbEntity
  8
Des_ Furniture
  6
Continuous
100
AcDbLine
 10
137.1869262134351
 20
98.11364435262611
 30
0.0
 11
137.3258128238934
 21
98.07538324236168
 31
0.0
  0
LINE
  5
1DD
330
E3
100
AcDbEntity
  8
Des_ Furniture
  6
Continuous
100
AcDbLine
 10
137.3258128238934
 20
98.07538324236168
 30
0.0
 11
137.464703500357
 21
98.03514605350122
 31
0.0
  0
LINE
  5
1DE
330
E3
100
AcDbEntity
  8
Des_ Furniture
  6
Continuous
100
AcDbLine
 10
137.464703500357
 20
98.03514605350122
 30
0.0
 11
137.6035941768206
 21
97.99323367044003
 31
0.0
  0
LINE
  5
1DF
330
E3
100
AcDbEntity
  8
Des_ Furniture
  6
Continuous
100
AcDbLine
 10
137.6035941768206
 20
97.99323367044003
 30
0.0
 11
137.7424807872789
 21
97.9499673076001
 31
0.0
  0
LINE
  5
1E0
330
E3
100
AcDbEntity
  8
Des_ Furniture
  6
Continuous
100
AcDbLine
 10
137.7424807872789
 20
97.9499673076001
 30
0.0
 11
137.8813714637425
 21
97.90568037741943
 31
0.0
  0
LINE
  5
1E1
330
E3
100
AcDbEntity
  8
Des_ Furniture
  6
Continuous
100
AcDbLine
 10
137.8813714637425
 20
97.90568037741943
 30
0.0
 11
138.0202580742008
 21
97.860706292336
 31
0.0
  0
LINE
  5
1E2
330
E3
100
AcDbEntity
  8
Des_ Furniture
  6
Continuous
100
AcDbLine
 10
138.0202580742008
 20
97.860706292336
 30
0.0
 11
138.1591487506645
 21
97.81538253079322
 31
0.0
  0
LINE
  5
1E3
330
E3
100
AcDbEntity
  8
Des_ Furniture
  6
Continuous
100
AcDbLine
 10
138.1591487506645
 20
97.81538253079322
 30
0.0
 11
138.2980353611227
 21
97.77006283525577
 31
0.0
  0
LINE
  5
1E4
330
E3
100
AcDbEntity
  8
Des_ Furniture
  6
Continuous
100
AcDbLine
 10
138.2980353611227
 20
97.77006283525577
 30
0.0
 11
138.4369260375864
 21
97.72508468416703
 31
0.0
  0
LINE
  5
1E5
330
E3
100
AcDbEntity
  8
Des_ Furniture
  6
Continuous
100
AcDbLine
 10
138.4369260375864
 20
97.72508468416703
 30
0.0
 11
138.57581671405
 21
97.68079775398635
 31
0.0
  0
LINE
  5
1E6
330
E3
100
AcDbEntity
  8
Des_ Furniture
  6
Continuous
100
AcDbLine
 10
138.57581671405
 20
97.68079775398635
 30
0.0
 11
138.7147033245082
 21
97.63753139114641
 31
0.0
  0
LINE
  5
1E7
330
E3
100
AcDbEntity
  8
Des_ Furniture
  6
Continuous
100
AcDbLine
 10
138.7147033245082
 20
97.63753139114641
 30
0.0
 11
138.8535940009719
 21
97.59562307409055
 31
0.0
  0
LINE
  5
1E8
330
E3
100
AcDbEntity
  8
Des_ Furniture
  6
Continuous
100
AcDbLine
 10
138.8535940009719
 20
97.59562307409055
 30
0.0
 11
138.9924806114302
 21
97.55538181922478
 31
0.0
  0
LINE
  5
1E9
330
E3
100
AcDbEntity
  8
Des_ Furniture
  6
Continuous
100
AcDbLine
 10
138.9924806114302
 20
97.55538181922478
 30
0.0
 11
139.1313712878938
 21
97.51712477496568
 31
0.0
  0
LINE
  5
1EA
330
E3
100
AcDbEntity
  8
Des_ Furniture
  6
Continuous
100
AcDbLine
 10
139.1313712878938
 20
97.51712477496568
 30
0.0
 11
139.2702578983521
 21
97.48113249568186
 31
0.0
  0
LINE
  5
1EB
330
E3
100
AcDbEntity
  8
Des_ Furniture
  6
Continuous
100
AcDbLine
 10
139.2702578983521
 20
97.48113249568186
 30
0.0
 11
139.4091485748157
 21
97.44768960174724
 31
0.0
  0
LINE
  5
1EC
330
E3
100
AcDbEntity
  8
Des_ Furniture
  6
Continuous
100
AcDbLine
 10
139.4091485748157
 20
97.44768960174724
 30
0.0
 11
139.548035185274
 21
97.41704005348227
 31
0.0
  0
LINE
  5
1ED
330
E3
100
AcDbEntity
  8
Des_ Furniture
  6
Continuous
100
AcDbLine
 10
139.548035185274
 20
97.41704005348227
 30
0.0
 11
139.6869258617376
 21
97.38942374520214
 31
0.0
  0
LINE
  5
1EE
330
E3
100
AcDbEntity
  8
Des_ Furniture
  6
Continuous
100
AcDbLine
 10
139.6869258617376
 20
97.38942374520214
 30
0.0
 11
139.8258165382013
 21
97.36505210918462
 31
0.0
  0
LINE
  5
1EF
330
E3
100
AcDbEntity
  8
Des_ Furniture
  6
Continuous
100
AcDbLine
 10
139.8258165382013
 20
97.36505210918462
 30
0.0
 11
139.9647031486595
 21
97.3441040496647
 31
0.0
  0
LINE
  5
1F0
330
E3
100
AcDbEntity
  8
Des_ Furniture
  6
Continuous
100
AcDbLine
 10
139.9647031486595
 20
97.3441040496647
 30
0.0
 11
140.1035938251232
 21
97.32674220685607
 31
0.0
  0
LINE
  5
1F1
330
E3
100
AcDbEntity
  8
Des_ Furniture
  6
Continuous
100
AcDbLine
 10
140.1035938251232
 20
97.32674220685607
 30
0.0
 11
140.2424804355815
 21
97.31310075893501
 31
0.0
  0
LINE
  5
1F2
330
E3
100
AcDbEntity
  8
Des_ Furniture
  6
Continuous
100
AcDbLine
 10
140.2424804355815
 20
97.31310075893501
 30
0.0
 11
140.3813711120451
 21
97.30328542204039
 31
0.0
  0
LINE
  5
1F3
330
E3
100
AcDbEntity
  8
Des_ Furniture
  6
Continuous
100
AcDbLine
 10
140.3813711120451
 20
97.30328542204039
 30
0.0
 11
140.5202577225034
 21
97.29736125225769
 31
0.0
  0
LINE
  5
1F4
330
E3
100
AcDbEntity
  8
Des_ Furniture
  6
Continuous
100
AcDbLine
 10
140.5202577225034
 20
97.29736125225769
 30
0.0
 11
140.659148398967
 21
97.29538517366167
 31
0.0
  0
LINE
  5
1F5
330
E3
100
AcDbEntity
  8
Des_ Furniture
  6
Continuous
100
AcDbLine
 10
140.659148398967
 20
97.29538517366167
 30
0.0
 11
140.7980350094253
 21
97.29736125225769
 31
0.0
  0
LINE
  5
1F6
330
E3
100
AcDbEntity
  8
Des_ Furniture
  6
Continuous
100
AcDbLine
 10
138.1591487506645
 20
98.33538395393013
 30
0.0
 11
138.2980353611227
 21
98.33340380932876
 31
0.0
  0
LINE
  5
1F7
330
E3
100
AcDbEntity
  8
Des_ Furniture
  6
Continuous
100
AcDbLine
 10
138.2980353611227
 20
98.33340380932876
 30
0.0
 11
138.4369260375864
 21
98.32748370555139
 31
0.0
  0
LINE
  5
1F8
330
E3
100
AcDbEntity
  8
Des_ Furniture
  6
Continuous
100
AcDbLine
 10
138.4369260375864
 20
98.32748370555139
 30
0.0
 11
138.57581671405
 21
98.31766430265144
 31
0.0
  0
LINE
  5
1F9
330
E3
100
AcDbEntity
  8
Des_ Furniture
  6
Continuous
100
AcDbLine
 10
138.57581671405
 20
98.31766430265144
 30
0.0
 11
138.7147033245082
 21
98.30402285473038
 31
0.0
  0
LINE
  5
1FA
330
E3
100
AcDbEntity
  8
Des_ Furniture
  6
Continuous
100
AcDbLine
 10
138.7147033245082
 20
98.30402285473038
 30
0.0
 11
138.8535940009719
 21
98.28666507792711
 31
0.0
  0
LINE
  5
1FB
330
E3
100
AcDbEntity
  8
Des_ Furniture
  6
Continuous
100
AcDbLine
 10
138.8535940009719
 20
98.28666507792711
 30
0.0
 11
138.9924806114302
 21
98.2657170184072
 31
0.0
  0
LINE
  5
1FC
330
E3
100
AcDbEntity
  8
Des_ Furniture
  6
Continuous
100
AcDbLine
 10
138.9924806114302
 20
98.2657170184072
 30
0.0
 11
139.1313712878938
 21
98.24134131638432
 31
0.0
  0
LINE
  5
1FD
330
E3
100
AcDbEntity
  8
Des_ Furniture
  6
Continuous
100
AcDbLine
 10
139.1313712878938
 20
98.24134131638432
 30
0.0
 11
139.2702578983521
 21
98.21372500810419
 31
0.0
  0
LINE
  5
1FE
330
E3
100
AcDbEntity
  8
Des_ Furniture
  6
Continuous
100
AcDbLine
 10
139.2702578983521
 20
98.21372500810419
 30
0.0
 11
139.4091485748157
 21
98.18307952584456
 31
0.0
  0
LINE
  5
1FF
330
E3
100
AcDbEntity
  8
Des_ Furniture
  6
Continuous
100
AcDbLine
 10
139.4091485748157
 20
98.18307952584456
 30
0.0
 11
139.548035185274
 21
98.14963256590458
 31
0.0
  0
LINE
  5
200
330
E3
100
AcDbEntity
  8
Des_ Furniture
  6
Continuous
100
AcDbLine
 10
139.548035185274
 20
98.14963256590458
 30
0.0
 11
139.6869258617376
 21
98.11364435262611
 31
0.0
  0
LINE
  5
201
330
E3
100
AcDbEntity
  8
Des_ Furniture
  6
Continuous
100
AcDbLine
 10
139.6869258617376
 20
98.11364435262611
 30
0.0
 11
139.8258165382013
 21
98.07538324236168
 31
0.0
  0
LINE
  5
202
330
E3
100
AcDbEntity
  8
Des_ Furniture
  6
Continuous
100
AcDbLine
 10
139.8258165382013
 20
98.07538324236168
 30
0.0
 11
139.9647031486595
 21
98.03514605350122
 31
0.0
  0
LINE
  5
203
330
E3
100
AcDbEntity
  8
Des_ Furniture
  6
Continuous
100
AcDbLine
 10
139.9647031486595
 20
98.03514605350122
 30
0.0
 11
140.1035938251232
 21
97.99323367044003
 31
0.0
  0
LINE
  5
204
330
E3
100
AcDbEntity
  8
Des_ Furniture
  6
Continuous
100
AcDbLine
 10
140.1035938251232
 20
97.99323367044003
 30
0.0
 11
140.2424804355815
 21
97.9499673076001
 31
0.0
  0
LINE
  5
205
330
E3
100
AcDbEntity
  8
Des_ Furniture
  6
Continuous
100
AcDbLine
 10
140.2424804355815
 20
97.9499673076001
 30
0.0
 11
140.3813711120451
 21
97.90568037741943
 31
0.0
  0
LINE
  5
206
330
E3
100
AcDbEntity
  8
Des_ Furniture
  6
Continuous
100
AcDbLine
 10
140.3813711120451
 20
97.90568037741943
 30
0.0
 11
140.5202577225034
 21
97.860706292336
 31
0.0
  0
LINE
  5
207
330
E3
100
AcDbEntity
  8
Des_ Furniture
  6
Continuous
100
AcDbLine
 10
140.5202577225034
 20
97.860706292336
 30
0.0
 11
140.659148398967
 21
97.81538253079322
 31
0.0
  0
LINE
  5
208
330
E3
100
AcDbEntity
  8
Des_ Furniture
  6
Continuous
100
AcDbLine
 10
140.659148398967
 20
97.81538253079322
 30
0.0
 11
140.7980350094253
 21
97.77006283525577
 31
0.0
  0
LINE
  5
209
330
E3
100
AcDbEntity
  8
Des_ Furniture
  6
Continuous
100
AcDbLine
 10
140.7980350094253
 20
97.77006283525577
 30
0.0
 11
140.9369256858889
 21
97.72508468416703
 31
0.0
  0
LINE
  5
20A
330
E3
100
AcDbEntity
  8
Des_ Furniture
  6
Continuous
100
AcDbLine
 10
140.9369256858889
 20
97.72508468416703
 30
0.0
 11
141.0758163623525
 21
97.68079775398635
 31
0.0
  0
LINE
  5
20B
330
E3
100
AcDbEntity
  8
Des_ Furniture
  6
Continuous
100
AcDbLine
 10
141.0758163623525
 20
97.68079775398635
 30
0.0
 11
141.2147029728108
 21
97.63753139114641
 31
0.0
  0
LINE
  5
20C
330
E3
100
AcDbEntity
  8
Des_ Furniture
  6
Continuous
100
AcDbLine
 10
141.2147029728108
 20
97.63753139114641
 30
0.0
 11
141.3535936492744
 21
97.59562307409055
 31
0.0
  0
LINE
  5
20D
330
E3
100
AcDbEntity
  8
Des_ Furniture
  6
Continuous
100
AcDbLine
 10
141.3535936492744
 20
97.59562307409055
 30
0.0
 11
141.4924802597327
 21
97.55538181922478
 31
0.0
  0
LINE
  5
20E
330
E3
100
AcDbEntity
  8
Des_ Furniture
  6
Continuous
100
AcDbLine
 10
141.4924802597327
 20
97.55538181922478
 30
0.0
 11
141.6313709361964
 21
97.51712477496568
 31
0.0
  0
LINE
  5
20F
330
E3
100
AcDbEntity
  8
Des_ Furniture
  6
Continuous
100
AcDbLine
 10
141.6313709361964
 20
97.51712477496568
 30
0.0
 11
141.7702575466546
 21
97.48113249568186
 31
0.0
  0
LINE
  5
210
330
E3
100
AcDbEntity
  8
Des_ Furniture
  6
Continuous
100
AcDbLine
 10
141.7702575466546
 20
97.48113249568186
 30
0.0
 11
141.9091482231183
 21
97.44768960174724
 31
0.0
  0
LINE
  5
211
330
E3
100
AcDbEntity
  8
Des_ Furniture
  6
Continuous
100
AcDbLine
 10
133.1591494540594
 20
97.81538253079322
 30
0.0
 11
133.2980360645176
 21
97.77006283525577
 31
0.0
  0
LINE
  5
212
330
E3
100
AcDbEntity
  8
Des_ Furniture
  6
Continuous
100
AcDbLine
 10
133.2980360645176
 20
97.77006283525577
 30
0.0
 11
133.4369267409812
 21
97.72508468416703
 31
0.0
  0
LINE
  5
213
330
E3
100
AcDbEntity
  8
Des_ Furniture
  6
Continuous
100
AcDbLine
 10
133.4369267409812
 20
97.72508468416703
 30
0.0
 11
133.5758133514396
 21
97.68079775398635
 31
0.0
  0
LINE
  5
214
330
E3
100
AcDbEntity
  8
Des_ Furniture
  6
Continuous
100
AcDbLine
 10
133.5758133514396
 20
97.68079775398635
 30
0.0
 11
133.7147040279032
 21
97.63753139114641
 31
0.0
  0
LINE
  5
215
330
E3
100
AcDbEntity
  8
Des_ Furniture
  6
Continuous
100
AcDbLine
 10
133.7147040279032
 20
97.63753139114641
 30
0.0
 11
133.8535906383615
 21
97.59562307409055
 31
0.0
  0
LINE
  5
216
330
E3
100
AcDbEntity
  8
Des_ Furniture
  6
Continuous
100
AcDbLine
 10
133.8535906383615
 20
97.59562307409055
 30
0.0
 11
133.9924813148251
 21
97.55538181922478
 31
0.0
  0
LINE
  5
217
330
E3
100
AcDbEntity
  8
Des_ Furniture
  6
Continuous
100
AcDbLine
 10
133.9924813148251
 20
97.55538181922478
 30
0.0
 11
134.1313719912887
 21
97.51712477496568
 31
0.0
  0
LINE
  5
218
330
E3
100
AcDbEntity
  8
Des_ Furniture
  6
Continuous
100
AcDbLine
 10
134.1313719912887
 20
97.51712477496568
 30
0.0
 11
134.270258601747
 21
97.48113249568186
 31
0.0
  0
LINE
  5
219
330
E3
100
AcDbEntity
  8
Des_ Furniture
  6
Continuous
100
AcDbLine
 10
134.270258601747
 20
97.48113249568186
 30
0.0
 11
134.4091492782106
 21
97.44768960174724
 31
0.0
  0
LINE
  5
21A
330
E3
100
AcDbEntity
  8
Des_ Furniture
  6
Continuous
100
AcDbLine
 10
134.4091492782106
 20
97.44768960174724
 30
0.0
 11
134.5480358886689
 21
97.41704005348227
 31
0.0
  0
LINE
  5
21B
330
E3
100
AcDbEntity
  8
Des_ Furniture
  6
Continuous
100
AcDbLine
 10
134.5480358886689
 20
97.41704005348227
 30
0.0
 11
134.6869265651325
 21
97.38942374520214
 31
0.0
  0
LINE
  5
21C
330
E3
100
AcDbEntity
  8
Des_ Furniture
  6
Continuous
100
AcDbLine
 10
134.6869265651325
 20
97.38942374520214
 30
0.0
 11
134.8258131755908
 21
97.36505210918462
 31
0.0
  0
LINE
  5
21D
330
E3
100
AcDbEntity
  8
Des_ Furniture
  6
Continuous
100
AcDbLine
 10
134.8258131755908
 20
97.36505210918462
 30
0.0
 11
134.9647038520544
 21
97.3441040496647
 31
0.0
  0
LINE
  5
21E
330
E3
100
AcDbEntity
  8
Des_ Furniture
  6
Continuous
100
AcDbLine
 10
134.9647038520544
 20
97.3441040496647
 30
0.0
 11
135.1035904625127
 21
97.32674220685607
 31
0.0
  0
LINE
  5
21F
330
E3
100
AcDbEntity
  8
Des_ Furniture
  6
Continuous
100
AcDbLine
 10
135.1035904625127
 20
97.32674220685607
 30
0.0
 11
135.2424811389764
 21
97.31310075893501
 31
0.0
  0
LINE
  5
220
330
E3
100
AcDbEntity
  8
Des_ Furniture
  6
Continuous
100
AcDbLine
 10
135.2424811389764
 20
97.31310075893501
 30
0.0
 11
135.38137181544
 21
97.30328542204039
 31
0.0
  0
LINE
  5
221
330
E3
100
AcDbEntity
  8
Des_ Furniture
  6
Continuous
100
AcDbLine
 10
135.38137181544
 20
97.30328542204039
 30
0.0
 11
135.5202584258983
 21
97.29736125225769
 31
0.0
  0
LINE
  5
222
330
E3
100
AcDbEntity
  8
Des_ Furniture
  6
Continuous
100
AcDbLine
 10
135.5202584258983
 20
97.29736125225769
 30
0.0
 11
135.6591491023619
 21
97.29538517366167
 31
0.0
  0
LINE
  5
223
330
E3
100
AcDbEntity
  8
Des_ Furniture
  6
Continuous
100
AcDbLine
 10
135.6591491023619
 20
97.29538517366167
 30
0.0
 11
135.7980357128202
 21
97.29736125225769
 31
0.0
  0
LINE
  5
224
330
E3
100
AcDbEntity
  8
Des_ Furniture
  6
Continuous
100
AcDbLine
 10
140.659148398967
 20
98.33538395393013
 30
0.0
 11
140.7980350094253
 21
98.33340380932876
 31
0.0
  0
LINE
  5
225
330
E3
100
AcDbEntity
  8
Des_ Furniture
  6
Continuous
100
AcDbLine
 10
140.7980350094253
 20
98.33340380932876
 30
0.0
 11
140.9369256858889
 21
98.32748370555139
 31
0.0
  0
LINE
  5
226
330
E3
100
AcDbEntity
  8
Des_ Furniture
  6
Continuous
100
AcDbLine
 10
140.9369256858889
 20
98.32748370555139
 30
0.0
 11
141.0758163623525
 21
98.31766430265144
 31
0.0
  0
LINE
  5
227
330
E3
100
AcDbEntity
  8
Des_ Furniture
  6
Continuous
100
AcDbLine
 10
141.0758163623525
 20
98.31766430265144
 30
0.0
 11
141.2147029728108
 21
98.30402285473038
 31
0.0
  0
LINE
  5
228
330
E3
100
AcDbEntity
  8
Des_ Furniture
  6
Continuous
100
AcDbLine
 10
141.2147029728108
 20
98.30402285473038
 30
0.0
 11
141.3535936492744
 21
98.28666507792711
 31
0.0
  0
LINE
  5
229
330
E3
100
AcDbEntity
  8
Des_ Furniture
  6
Continuous
100
AcDbLine
 10
141.3535936492744
 20
98.28666507792711
 30
0.0
 11
141.4924802597327
 21
98.2657170184072
 31
0.0
  0
LINE
  5
22A
330
E3
100
AcDbEntity
  8
Des_ Furniture
  6
Continuous
100
AcDbLine
 10
141.4924802597327
 20
98.2657170184072
 30
0.0
 11
141.6313709361964
 21
98.24134131638432
 31
0.0
  0
LINE
  5
22B
330
E3
100
AcDbEntity
  8
Des_ Furniture
  6
Continuous
100
AcDbLine
 10
141.6313709361964
 20
98.24134131638432
 30
0.0
 11
141.7702575466546
 21
98.21372500810419
 31
0.0
  0
LINE
  5
22C
330
E3
100
AcDbEntity
  8
Des_ Furniture
  6
Continuous
100
AcDbLine
 10
141.7702575466546
 20
98.21372500810419
 30
0.0
 11
141.9091482231183
 21
98.18307952584456
 31
0.0
  0
LINE
  5
22D
330
E3
100
AcDbEntity
  8
Des_ Furniture
  6
Continuous
 62
   251
370
    35
100
AcDbLine
 10
122.6158390290889
 20
146.3603758153803
 30
0.0
 11
124.6158420005352
 21
146.3603758153803
 31
0.0
  0
LINE
  5
22E
330
E3
100
AcDbEntity
  8
Des_ Furniture
  6
Continuous
 62
   251
370
    35
100
AcDbLine
 10
124.6158420005352
 20
146.3603758153803
 30
0.0
 11
124.6158420005352
 21
131.5603765963075
 31
0.0
  0
LINE
  5
22F
330
E3
100
AcDbEntity
  8
Des_ Furniture
  6
Continuous
 62
   251
370
    35
100
AcDbLine
 10
123.4158418440695
 20
130.3603764398418
 30
0.0
 11
119.1158419610685
 21
130.3603764398418
 31
0.0
  0
LINE
  5
230
330
E3
100
AcDbEntity
  8
Des_ Furniture
  6
Continuous
 62
   251
370
    35
100
AcDbLine
 10
119.1158419610685
 20
130.3603764398418
 30
0.0
 11
118.1158404753454
 21
131.360377925565
 31
0.0
  0
LINE
  5
231
330
E3
100
AcDbEntity
  8
Des_ Furniture
  6
Continuous
 62
   251
370
    35
100
AcDbLine
 10
118.1158404753454
 20
131.360377925565
 30
0.0
 11
116.1158415699044
 21
131.360377925565
 31
0.0
  0
LINE
  5
232
330
E3
100
AcDbEntity
  8
Des_ Furniture
  6
Continuous
 62
   251
370
    35
100
AcDbLine
 10
116.1158415699044
 20
131.360377925565
 30
0.0
 11
115.1158400841812
 21
130.3603764398418
 31
0.0
  0
LINE
  5
233
330
E3
100
AcDbEntity
  8
Des_ Furniture
  6
Continuous
 62
   251
370
    35
100
AcDbLine
 10
115.1158400841812
 20
130.3603764398418
 30
0.0
 11
111.6158389501555
 21
130.3603764398418
 31
0.0
  0
LINE
  5
234
330
E3
100
AcDbEntity
  8
Des_ Furniture
  6
Continuous
 62
   251
370
    35
100
AcDbLine
 10
111.6158389501555
 20
130.3603764398418
 30
0.0
 11
110.6158415304377
 21
131.360377925565
 31
0.0
  0
LINE
  5
235
330
E3
100
AcDbEntity
  8
Des_ Furniture
  6
Continuous
 62
   251
370
    35
100
AcDbLine
 10
110.6158415304377
 20
131.360377925565
 30
0.0
 11
108.6158385589914
 21
131.360377925565
 31
0.0
  0
LINE
  5
236
330
E3
100
AcDbEntity
  8
Des_ Furniture
  6
Continuous
 62
   251
370
    35
100
AcDbLine
 10
108.6158385589914
 20
131.360377925565
 30
0.0
 11
107.6158411392736
 21
130.3603764398418
 31
0.0
  0
LINE
  5
237
330
E3
100
AcDbEntity
  8
Des_ Furniture
  6
Continuous
 62
   251
370
    35
100
AcDbLine
 10
107.6158411392736
 20
130.3603764398418
 30
0.0
 11
104.1158400052479
 21
130.3603764398418
 31
0.0
  0
LINE
  5
238
330
E3
100
AcDbEntity
  8
Des_ Furniture
  6
Continuous
 62
   251
370
    35
100
AcDbLine
 10
104.1158400052479
 20
130.3603764398418
 30
0.0
 11
103.1158385195247
 21
131.360377925565
 31
0.0
  0
LINE
  5
239
330
E3
100
AcDbEntity
  8
Des_ Furniture
  6
Continuous
 62
   251
370
    35
100
AcDbLine
 10
103.1158385195247
 20
131.360377925565
 30
0.0
 11
101.1158396140838
 21
131.360377925565
 31
0.0
  0
LINE
  5
23A
330
E3
100
AcDbEntity
  8
Des_ Furniture
  6
Continuous
 62
   251
370
    35
100
AcDbLine
 10
101.1158396140838
 20
131.360377925565
 30
0.0
 11
100.1158381283606
 21
130.3603764398418
 31
0.0
  0
LINE
  5
23B
330
E3
100
AcDbEntity
  8
Des_ Furniture
  6
Continuous
 62
   251
370
    35
100
AcDbLine
 10
100.1158381283606
 20
130.3603764398418
 30
0.0
 11
95.81583824535959
 21
130.3603764398418
 31
0.0
  0
LINE
  5
23C
330
E3
100
AcDbEntity
  8
Des_ Furniture
  6
Continuous
 62
   251
370
    35
100
AcDbLine
 10
94.61583808889392
 20
131.5603765963075
 30
0.0
 11
94.61583808889392
 21
135.8603764793085
 31
0.0
  0
LINE
  5
23D
330
E3
100
AcDbEntity
  8
Des_ Furniture
  6
Continuous
 62
   251
370
    35
100
AcDbLine
 10
94.61583808889392
 20
135.8603764793085
 30
0.0
 11
95.61583957461708
 21
136.8603779650316
 31
0.0
  0
LINE
  5
23E
330
E3
100
AcDbEntity
  8
Des_ Furniture
  6
Continuous
 62
   251
370
    35
100
AcDbLine
 10
95.61583957461708
 20
136.8603779650316
 30
0.0
 11
95.61583957461708
 21
138.8603768704726
 31
0.0
  0
LINE
  5
23F
330
E3
100
AcDbEntity
  8
Des_ Furniture
  6
Continuous
 62
   251
370
    35
100
AcDbLine
 10
95.61583957461708
 20
138.8603768704726
 30
0.0
 11
94.61583808889392
 21
139.8603783561958
 31
0.0
  0
LINE
  5
240
330
E3
100
AcDbEntity
  8
Des_ Furniture
  6
Continuous
 62
   251
370
    35
100
AcDbLine
 10
94.61583808889392
 20
139.8603783561958
 30
0.0
 11
94.61583808889392
 21
143.3603754242162
 31
0.0
  0
LINE
  5
241
330
E3
100
AcDbEntity
  8
Des_ Furniture
  6
Continuous
 62
   251
370
    35
100
AcDbLine
 10
94.61583808889392
 20
143.3603754242162
 30
0.0
 11
95.61583957461708
 21
144.3603769099393
 31
0.0
  0
LINE
  5
242
330
E3
100
AcDbEntity
  8
Des_ Furniture
  6
Continuous
 62
   251
370
    35
100
AcDbLine
 10
95.61583957461708
 20
144.3603769099393
 30
0.0
 11
95.61583957461708
 21
146.3603758153803
 31
0.0
  0
LINE
  5
243
330
E3
100
AcDbEntity
  8
Des_ Furniture
  6
Continuous
 62
   251
370
    35
100
AcDbLine
 10
95.61583957461708
 20
146.3603758153803
 30
0.0
 11
94.61583808889392
 21
147.3603773011034
 31
0.0
  0
LINE
  5
244
330
E3
100
AcDbEntity
  8
Des_ Furniture
  6
Continuous
 62
   251
370
    35
100
AcDbLine
 10
94.61583808889392
 20
147.3603773011034
 30
0.0
 11
94.61583808889392
 21
150.8603784351291
 31
0.0
  0
LINE
  5
245
330
E3
100
AcDbEntity
  8
Des_ Furniture
  6
Continuous
 62
   251
370
    35
100
AcDbLine
 10
94.61583808889392
 20
150.8603784351291
 30
0.0
 11
95.61583957461708
 21
151.8603758548469
 31
0.0
  0
LINE
  5
246
330
E3
100
AcDbEntity
  8
Des_ Furniture
  6
Continuous
 62
   251
370
    35
100
AcDbLine
 10
95.61583957461708
 20
151.8603758548469
 30
0.0
 11
95.61583957461708
 21
153.8603788262932
 31
0.0
  0
LINE
  5
247
330
E3
100
AcDbEntity
  8
Des_ Furniture
  6
Continuous
 62
   251
370
    35
100
AcDbLine
 10
95.61583957461708
 20
153.8603788262932
 30
0.0
 11
94.61583808889392
 21
154.860376246011
 31
0.0
  0
LINE
  5
248
330
E3
100
AcDbEntity
  8
Des_ Furniture
  6
Continuous
 62
   251
370
    35
100
AcDbLine
 10
94.61583808889392
 20
154.860376246011
 30
0.0
 11
94.61583808889392
 21
159.1603761290121
 31
0.0
  0
LINE
  5
249
330
E3
100
AcDbEntity
  8
Des_ Furniture
  6
Continuous
 62
   251
370
    35
100
AcDbLine
 10
95.81583824535959
 20
160.3603762854777
 30
0.0
 11
97.41583980931556
 21
160.3603762854777
 31
0.0
  0
LINE
  5
24A
330
E3
100
AcDbEntity
  8
Des_ Furniture
  6
Continuous
 62
   251
370
    35
100
AcDbLine
 10
98.61583996578122
 20
159.1603761290121
 30
0.0
 11
98.61583996578122
 21
157.9603759725464
 31
0.0
  0
ARC
  5
24B
330
E3
100
AcDbEntity
  8
Des_ Furniture
  6
Continuous
 62
   251
370
    35
100
AcDbCircle
 10
123.415840077959
 20
131.5603772974249
 30
0.0
 40
1.2
100
AcDbArc
 50
270.0
 51
0.0
  0
ARC
  5
24C
330
E3
100
AcDbEntity
  8
Des_ Furniture
  6
Continuous
 62
   251
370
    35
100
AcDbCircle
 10
95.81584007795898
 20
131.5603772974249
 30
0.0
 40
1.200000000000001
100
AcDbArc
 50
180.0
 51
270.0
  0
ARC
  5
24D
330
E3
100
AcDbEntity
  8
Des_ Furniture
  6
Continuous
 62
   251
370
    35
100
AcDbCircle
 10
95.81584007795898
 20
159.1603772974249
 30
0.0
 40
1.200000000000001
100
AcDbArc
 50
90.0
 51
180.0
  0
ARC
  5
24E
330
E3
100
AcDbEntity
  8
Des_ Furniture
  6
Continuous
 62
   251
370
    35
100
AcDbCircle
 10
97.41584007795898
 20
159.1603772974249
 30
0.0
 40
1.200000000000001
100
AcDbArc
 50
0.0
 51
90.0
  0
HATCH
  5
24F
330
E3
100
AcDbEntity
  8
Des_ Furniture
  6
Continuous
 62
   255
370
     0
100
AcDbHatch
 10
0.0
 20
0.0
 30
0.0
210
0.0
220
0.0
230
1.0
  2
SOLID
 70
     1
 71
     0
 91
        1
 92
        3
 72
     1
 73
     1
 93
        2
 10
131.9561954799768
 20
142.733172034229
 42
0.4999999999999998
 10
131.9561954799768
 20
140.3331720342288
 42
0.0
 97
        0
 75
     0
 76
     1
 98
        0
  0
ARC
  5
250
330
E3
100
AcDbEntity
  8
Des_ Furniture
  6
Continuous
100
AcDbCircle
 10
132.8561954799768
 20
141.5331720342289
 30
0.0
 40
1.500000000000112
100
AcDbArc
 50
126.869897645844
 51
233.130102354156
  0
LINE
  5
251
330
E3
100
AcDbEntity
  8
Des_ Furniture
  6
Continuous
100
AcDbLine
 10
131.9561973777157
 20
140.3331734573167
 30
0.0
 11
131.9561973777157
 21
142.733173770248
 31
0.0
  0
HATCH
  5
252
330
E3
100
AcDbEntity
  8
Des_ Furniture
  6
Continuous
 62
   255
370
     0
100
AcDbHatch
 10
0.0
 20
0.0
 30
0.0
210
0.0
220
0.0
230
1.0
  2
SOLID
 70
     1
 71
     0
 91
        1
 92
        3
 72
     0
 73
     1
 93
        4
 10
131.3561954799767
 20
140.8931720342289
 10
131.4995820494078
 20
140.8931720342289
 10
131.4995820494078
 20
142.1731720342289
 10
131.3561954799767
 20
142.1731720342289
 97
        0
 75
     0
 76
     1
 98
        0
  0
LINE
  5
253
330
E3
100
AcDbEntity
  8
Des_ Furniture
  6
Continuous
100
AcDbLine
 10
131.3561972994829
 20
140.8931721749989
 30
0.0
 11
131.499580911849
 21
140.8931721749989
 31
0.0
  0
LINE
  5
254
330
E3
100
AcDbEntity
  8
Des_ Furniture
  6
Continuous
100
AcDbLine
 10
131.499580911849
 20
140.8931721749989
 30
0.0
 11
131.499580911849
 21
142.1731709865605
 31
0.0
  0
LINE
  5
255
330
E3
100
AcDbEntity
  8
Des_ Furniture
  6
Continuous
100
AcDbLine
 10
131.499580911849
 20
142.1731709865605
 30
0.0
 11
131.3561972994829
 21
142.1731709865605
 31
0.0
  0
LINE
  5
256
330
E3
100
AcDbEntity
  8
Des_ Furniture
  6
Continuous
100
AcDbLine
 10
131.3561972994829
 20
142.1731709865605
 30
0.0
 11
131.3561972994829
 21
140.8931721749989
 31
0.0
  0
HATCH
  5
257
330
E3
100
AcDbEntity
  8
Des_ Furniture
  6
Continuous
 62
   255
370
     0
100
AcDbHatch
 10
0.0
 20
0.0
 30
0.0
210
0.0
220
0.0
230
1.0
  2
SOLID
 70
     1
 71
     0
 91
        1
 92
        3
 72
     1
 73
     1
 93
        4
 10
131.9561954799768
 20
140.1331720342289
 42
0.0
 10
132.7561954799768
 20
140.1331720342289
 42
-0.4285714285714285
 10
132.7561954799768
 20
142.9331720342288
 42
0.0
 10
131.9561954799768
 20
142.9331720342288
 42
0.0
 97
        0
 75
     0
 76
     1
 98
        0
  0
LINE
  5
258
330
E3
100
AcDbEntity
  8
Des_ Furniture
  6
Continuous
100
AcDbLine
 10
131.9561973777157
 20
140.1331707205688
 30
0.0
 11
132.756196126691
 21
140.1331707205688
 31
0.0
  0
ARC
  5
259
330
E3
100
AcDbEntity
  8
Des_ Furniture
  6
Continuous
100
AcDbCircle
 10
134.0895288133101
 20
141.5331720342289
 30
0.0
 40
1.933333333333277
100
AcDbArc
 50
133.6028189727037
 51
226.3971810272962
  0
LINE
  5
25A
330
E3
100
AcDbEntity
  8
Des_ Furniture
  6
Continuous
100
AcDbLine
 10
132.756196126691
 20
142.9331724409905
 30
0.0
 11
131.9561973777157
 21
142.9331724409905
 31
0.0
  0
LINE
  5
25B
330
E3
100
AcDbEntity
  8
Des_ Furniture
  6
Continuous
100
AcDbLine
 10
131.9561973777157
 20
142.9331724409905
 30
0.0
 11
131.9561973777157
 21
140.1331707205688
 31
0.0
  0
HATCH
  5
25C
330
E3
100
AcDbEntity
  8
Des_ Furniture
  6
Continuous
 62
   255
370
     0
100
AcDbHatch
 10
0.0
 20
0.0
 30
0.0
210
0.0
220
0.0
230
1.0
  2
SOLID
 70
     1
 71
     0
 91
        1
 92
        3
 72
     0
 73
     1
 93
        5
 10
132.1561954799768
 20
141.2131720342289
 10
141.5161954799768
 20
141.2131720342289
 10
142.1561954799768
 20
141.5331720342289
 10
141.5161954799768
 20
141.8531720342289
 10
132.1561954799768
 20
141.8531720342289
 97
        0
 75
     0
 76
     1
 98
        0
  0
LINE
  5
25D
330
E3
100
AcDbEntity
  8
Des_ Furniture
  6
Continuous
100
AcDbLine
 10
132.1561960484582
 20
141.213170861388
 30
0.0
 11
141.5161972688903
 21
141.213170861388
 31
0.0
  0
LINE
  5
25E
330
E3
100
AcDbEntity
  8
Des_ Furniture
  6
Continuous
100
AcDbLine
 10
141.5161972688903
 20
141.213170861388
 30
0.0
 11
142.1561946416684
 21
141.5331736137824
 31
0.0
  0
LINE
  5
25F
330
E3
100
AcDbEntity
  8
Des_ Furniture
  6
Continuous
100
AcDbLine
 10
142.1561946416684
 20
141.5331736137824
 30
0.0
 11
141.5161972688903
 21
141.8531723001714
 31
0.0
  0
LINE
  5
260
330
E3
100
AcDbEntity
  8
Des_ Furniture
  6
Continuous
100
AcDbLine
 10
141.5161972688903
 20
141.8531723001714
 30
0.0
 11
132.1561960484582
 21
141.8531723001714
 31
0.0
  0
LINE
  5
261
330
E3
100
AcDbEntity
  8
Des_ Furniture
  6
Continuous
100
AcDbLine
 10
132.1561960484582
 20
141.8531723001714
 30
0.0
 11
132.1561960484582
 21
141.213170861388
 31
0.0
  0
LINE
  5
262
330
E3
100
AcDbEntity
  8
Des_ Furniture
  6
Continuous
100
AcDbLine
 10
132.1561960484582
 20
142.0531709709139
 30
0.0
 11
132.2950826589165
 21
142.0511948923179
 31
0.0
  0
LINE
  5
263
330
E3
100
AcDbEntity
  8
Des_ Furniture
  6
Continuous
100
AcDbLine
 10
132.2950826589165
 20
142.0511948923179
 30
0.0
 11
132.4339733353801
 21
142.0452707225352
 31
0.0
  0
LINE
  5
264
330
E3
100
AcDbEntity
  8
Des_ Furniture
  6
Continuous
100
AcDbLine
 10
132.4339733353801
 20
142.0452707225352
 30
0.0
 11
132.5728640118437
 21
142.0354553856405
 31
0.0
  0
LINE
  5
265
330
E3
100
AcDbEntity
  8
Des_ Furniture
  6
Continuous
100
AcDbLine
 10
132.5728640118437
 20
142.0354553856405
 30
0.0
 11
132.711750622302
 21
142.0218139377195
 31
0.0
  0
LINE
  5
266
330
E3
100
AcDbEntity
  8
Des_ Furniture
  6
Continuous
100
AcDbLine
 10
132.711750622302
 20
142.0218139377195
 30
0.0
 11
132.8506412987657
 21
142.0044520949109
 31
0.0
  0
LINE
  5
267
330
E3
100
AcDbEntity
  8
Des_ Furniture
  6
Continuous
100
AcDbLine
 10
132.8506412987657
 20
142.0044520949109
 30
0.0
 11
132.9895279092239
 21
141.983504035391
 31
0.0
  0
LINE
  5
268
330
E3
100
AcDbEntity
  8
Des_ Furniture
  6
Continuous
100
AcDbLine
 10
132.9895279092239
 20
141.983504035391
 30
0.0
 11
133.1284185856875
 21
141.9591323993734
 31
0.0
  0
LINE
  5
269
330
E3
100
AcDbEntity
  8
Des_ Furniture
  6
Continuous
100
AcDbLine
 10
133.1284185856875
 20
141.9591323993734
 30
0.0
 11
133.2673051961458
 21
141.9315160910933
 31
0.0
  0
LINE
  5
26A
330
E3
100
AcDbEntity
  8
Des_ Furniture
  6
Continuous
100
AcDbLine
 10
133.2673051961458
 20
141.9315160910933
 30
0.0
 11
133.4061958726095
 21
141.9008665428283
 31
0.0
  0
LINE
  5
26B
330
E3
100
AcDbEntity
  8
Des_ Furniture
  6
Continuous
100
AcDbLine
 10
133.4061958726095
 20
141.9008665428283
 30
0.0
 11
133.5450824830678
 21
141.8674195828884
 31
0.0
  0
LINE
  5
26C
330
E3
100
AcDbEntity
  8
Des_ Furniture
  6
Continuous
100
AcDbLine
 10
133.5450824830678
 20
141.8674195828884
 30
0.0
 11
133.6839731595314
 21
141.8314313696099
 31
0.0
  0
LINE
  5
26D
330
E3
100
AcDbEntity
  8
Des_ Furniture
  6
Continuous
100
AcDbLine
 10
133.6839731595314
 20
141.8314313696099
 30
0.0
 11
133.822863835995
 21
141.7931702593455
 31
0.0
  0
LINE
  5
26E
330
E3
100
AcDbEntity
  8
Des_ Furniture
  6
Continuous
100
AcDbLine
 10
133.822863835995
 20
141.7931702593455
 30
0.0
 11
133.9617504464533
 21
141.752933070485
 31
0.0
  0
LINE
  5
26F
330
E3
100
AcDbEntity
  8
Des_ Furniture
  6
Continuous
100
AcDbLine
 10
133.9617504464533
 20
141.752933070485
 30
0.0
 11
134.1006411229169
 21
141.7110206874238
 31
0.0
  0
LINE
  5
270
330
E3
100
AcDbEntity
  8
Des_ Furniture
  6
Continuous
100
AcDbLine
 10
134.1006411229169
 20
141.7110206874238
 30
0.0
 11
134.2395277333752
 21
141.6677583905892
 31
0.0
  0
LINE
  5
271
330
E3
100
AcDbEntity
  8
Des_ Furniture
  6
Continuous
100
AcDbLine
 10
134.2395277333752
 20
141.6677583905892
 30
0.0
 11
134.3784184098388
 21
141.6234673944032
 31
0.0
  0
LINE
  5
272
330
E3
100
AcDbEntity
  8
Des_ Furniture
  6
Continuous
100
AcDbLine
 10
134.3784184098388
 20
141.6234673944032
 30
0.0
 11
134.5173050202971
 21
141.5784933093198
 31
0.0
  0
LINE
  5
273
330
E3
100
AcDbEntity
  8
Des_ Furniture
  6
Continuous
100
AcDbLine
 10
134.5173050202971
 20
141.5784933093198
 30
0.0
 11
134.6561956967607
 21
141.5331736137824
 31
0.0
  0
LINE
  5
274
330
E3
100
AcDbEntity
  8
Des_ Furniture
  6
Continuous
100
AcDbLine
 10
134.6561956967607
 20
141.5331736137824
 30
0.0
 11
134.7950863732244
 21
141.4878498522395
 31
0.0
  0
LINE
  5
275
330
E3
100
AcDbEntity
  8
Des_ Furniture
  6
Continuous
100
AcDbLine
 10
134.7950863732244
 20
141.4878498522395
 30
0.0
 11
134.9339729836827
 21
141.4428757671562
 31
0.0
  0
LINE
  5
276
330
E3
100
AcDbEntity
  8
Des_ Furniture
  6
Continuous
100
AcDbLine
 10
134.9339729836827
 20
141.4428757671562
 30
0.0
 11
135.0728636601463
 21
141.3985847709701
 31
0.0
  0
LINE
  5
277
330
E3
100
AcDbEntity
  8
Des_ Furniture
  6
Continuous
100
AcDbLine
 10
135.0728636601463
 20
141.3985847709701
 30
0.0
 11
135.2117502706046
 21
141.3553224741355
 31
0.0
  0
LINE
  5
278
330
E3
100
AcDbEntity
  8
Des_ Furniture
  6
Continuous
100
AcDbLine
 10
135.2117502706046
 20
141.3553224741355
 30
0.0
 11
135.3506409470682
 21
141.3134100910743
 31
0.0
  0
LINE
  5
279
330
E3
100
AcDbEntity
  8
Des_ Furniture
  6
Continuous
100
AcDbLine
 10
135.3506409470682
 20
141.3134100910743
 30
0.0
 11
135.4895275575265
 21
141.2731729022139
 31
0.0
  0
LINE
  5
27A
330
E3
100
AcDbEntity
  8
Des_ Furniture
  6
Continuous
100
AcDbLine
 10
135.4895275575265
 20
141.2731729022139
 30
0.0
 11
135.6284182339901
 21
141.2349117919495
 31
0.0
  0
LINE
  5
27B
330
E3
100
AcDbEntity
  8
Des_ Furniture
  6
Continuous
100
AcDbLine
 10
135.6284182339901
 20
141.2349117919495
 30
0.0
 11
135.7673048444484
 21
141.198923578671
 31
0.0
  0
LINE
  5
27C
330
E3
100
AcDbEntity
  8
Des_ Furniture
  6
Continuous
100
AcDbLine
 10
135.7673048444484
 20
141.198923578671
 30
0.0
 11
135.906195520912
 21
141.165476618731
 31
0.0
  0
LINE
  5
27D
330
E3
100
AcDbEntity
  8
Des_ Furniture
  6
Continuous
100
AcDbLine
 10
135.906195520912
 20
141.165476618731
 30
0.0
 11
136.0450861973757
 21
141.134827070466
 31
0.0
  0
LINE
  5
27E
330
E3
100
AcDbEntity
  8
Des_ Furniture
  6
Continuous
100
AcDbLine
 10
136.0450861973757
 20
141.134827070466
 30
0.0
 11
136.1839728078339
 21
141.1072148281913
 31
0.0
  0
LINE
  5
27F
330
E3
100
AcDbEntity
  8
Des_ Furniture
  6
Continuous
100
AcDbLine
 10
136.1839728078339
 20
141.1072148281913
 30
0.0
 11
136.3228634842976
 21
141.0828391261684
 31
0.0
  0
LINE
  5
280
330
E3
100
AcDbEntity
  8
Des_ Furniture
  6
Continuous
100
AcDbLine
 10
136.3228634842976
 20
141.0828391261684
 30
0.0
 11
136.4617500947558
 21
141.0618910666485
 31
0.0
  0
LINE
  5
281
330
E3
100
AcDbEntity
  8
Des_ Furniture
  6
Continuous
100
AcDbLine
 10
136.4617500947558
 20
141.0618910666485
 30
0.0
 11
136.6006407712194
 21
141.0445332898452
 31
0.0
  0
LINE
  5
282
330
E3
100
AcDbEntity
  8
Des_ Furniture
  6
Continuous
100
AcDbLine
 10
136.6006407712194
 20
141.0445332898452
 30
0.0
 11
136.7395273816777
 21
141.0308918419241
 31
0.0
  0
LINE
  5
283
330
E3
100
AcDbEntity
  8
Des_ Furniture
  6
Continuous
100
AcDbLine
 10
136.7395273816777
 20
141.0308918419241
 30
0.0
 11
136.8784180581414
 21
141.0210724390242
 31
0.0
  0
LINE
  5
284
330
E3
100
AcDbEntity
  8
Des_ Furniture
  6
Continuous
100
AcDbLine
 10
136.8784180581414
 20
141.0210724390242
 30
0.0
 11
137.0173046685996
 21
141.0151523352468
 31
0.0
  0
LINE
  5
285
330
E3
100
AcDbEntity
  8
Des_ Furniture
  6
Continuous
100
AcDbLine
 10
137.0173046685996
 20
141.0151523352468
 30
0.0
 11
137.1561953450633
 21
141.0131721906455
 31
0.0
  0
LINE
  5
286
330
E3
100
AcDbEntity
  8
Des_ Furniture
  6
Continuous
100
AcDbLine
 10
137.1561953450633
 20
141.0131721906455
 30
0.0
 11
137.2950860215269
 21
141.0151523352468
 31
0.0
  0
LINE
  5
287
330
E3
100
AcDbEntity
  8
Des_ Furniture
  6
Continuous
100
AcDbLine
 10
134.6561956967607
 20
142.0531709709139
 30
0.0
 11
134.7950863732244
 21
142.0511948923179
 31
0.0
  0
LINE
  5
288
330
E3
100
AcDbEntity
  8
Des_ Furniture
  6
Continuous
100
AcDbLine
 10
134.7950863732244
 20
142.0511948923179
 30
0.0
 11
134.9339729836827
 21
142.0452707225352
 31
0.0
  0
LINE
  5
289
330
E3
100
AcDbEntity
  8
Des_ Furniture
  6
Continuous
100
AcDbLine
 10
134.9339729836827
 20
142.0452707225352
 30
0.0
 11
135.0728636601463
 21
142.0354553856405
 31
0.0
  0
LINE
  5
28A
330
E3
100
AcDbEntity
  8
Des_ Furniture
  6
Continuous
100
AcDbLine
 10
135.0728636601463
 20
142.0354553856405
 30
0.0
 11
135.2117502706046
 21
142.0218139377195
 31
0.0
  0
LINE
  5
28B
330
E3
100
AcDbEntity
  8
Des_ Furniture
  6
Continuous
100
AcDbLine
 10
135.2117502706046
 20
142.0218139377195
 30
0.0
 11
135.3506409470682
 21
142.0044520949109
 31
0.0
  0
LINE
  5
28C
330
E3
100
AcDbEntity
  8
Des_ Furniture
  6
Continuous
100
AcDbLine
 10
135.3506409470682
 20
142.0044520949109
 30
0.0
 11
135.4895275575265
 21
141.983504035391
 31
0.0
  0
LINE
  5
28D
330
E3
100
AcDbEntity
  8
Des_ Furniture
  6
Continuous
100
AcDbLine
 10
135.4895275575265
 20
141.983504035391
 30
0.0
 11
135.6284182339901
 21
141.9591323993734
 31
0.0
  0
LINE
  5
28E
330
E3
100
AcDbEntity
  8
Des_ Furniture
  6
Continuous
100
AcDbLine
 10
135.6284182339901
 20
141.9591323993734
 30
0.0
 11
135.7673048444484
 21
141.9315160910933
 31
0.0
  0
LINE
  5
28F
330
E3
100
AcDbEntity
  8
Des_ Furniture
  6
Continuous
100
AcDbLine
 10
135.7673048444484
 20
141.9315160910933
 30
0.0
 11
135.906195520912
 21
141.9008665428283
 31
0.0
  0
LINE
  5
290
330
E3
100
AcDbEntity
  8
Des_ Furniture
  6
Continuous
100
AcDbLine
 10
135.906195520912
 20
141.9008665428283
 30
0.0
 11
136.0450861973757
 21
141.8674195828884
 31
0.0
  0
LINE
  5
291
330
E3
100
AcDbEntity
  8
Des_ Furniture
  6
Continuous
100
AcDbLine
 10
136.0450861973757
 20
141.8674195828884
 30
0.0
 11
136.1839728078339
 21
141.8314313696099
 31
0.0
  0
LINE
  5
292
330
E3
100
AcDbEntity
  8
Des_ Furniture
  6
Continuous
100
AcDbLine
 10
136.1839728078339
 20
141.8314313696099
 30
0.0
 11
136.3228634842976
 21
141.7931702593455
 31
0.0
  0
LINE
  5
293
330
E3
100
AcDbEntity
  8
Des_ Furniture
  6
Continuous
100
AcDbLine
 10
136.3228634842976
 20
141.7931702593455
 30
0.0
 11
136.4617500947558
 21
141.752933070485
 31
0.0
  0
LINE
  5
294
330
E3
100
AcDbEntity
  8
Des_ Furniture
  6
Continuous
100
AcDbLine
 10
136.4617500947558
 20
141.752933070485
 30
0.0
 11
136.6006407712194
 21
141.7110206874238
 31
0.0
  0
LINE
  5
295
330
E3
100
AcDbEntity
  8
Des_ Furniture
  6
Continuous
100
AcDbLine
 10
136.6006407712194
 20
141.7110206874238
 30
0.0
 11
136.7395273816777
 21
141.6677583905892
 31
0.0
  0
LINE
  5
296
330
E3
100
AcDbEntity
  8
Des_ Furniture
  6
Continuous
100
AcDbLine
 10
136.7395273816777
 20
141.6677583905892
 30
0.0
 11
136.8784180581414
 21
141.6234673944032
 31
0.0
  0
LINE
  5
297
330
E3
100
AcDbEntity
  8
Des_ Furniture
  6
Continuous
100
AcDbLine
 10
136.8784180581414
 20
141.6234673944032
 30
0.0
 11
137.0173046685996
 21
141.5784933093198
 31
0.0
  0
LINE
  5
298
330
E3
100
AcDbEntity
  8
Des_ Furniture
  6
Continuous
100
AcDbLine
 10
137.0173046685996
 20
141.5784933093198
 30
0.0
 11
137.1561953450633
 21
141.5331736137824
 31
0.0
  0
LINE
  5
299
330
E3
100
AcDbEntity
  8
Des_ Furniture
  6
Continuous
100
AcDbLine
 10
137.1561953450633
 20
141.5331736137824
 30
0.0
 11
137.2950860215269
 21
141.4878498522395
 31
0.0
  0
LINE
  5
29A
330
E3
100
AcDbEntity
  8
Des_ Furniture
  6
Continuous
100
AcDbLine
 10
137.2950860215269
 20
141.4878498522395
 30
0.0
 11
137.4339726319852
 21
141.4428757671562
 31
0.0
  0
LINE
  5
29B
330
E3
100
AcDbEntity
  8
Des_ Furniture
  6
Continuous
100
AcDbLine
 10
137.4339726319852
 20
141.4428757671562
 30
0.0
 11
137.5728633084488
 21
141.3985847709701
 31
0.0
  0
LINE
  5
29C
330
E3
100
AcDbEntity
  8
Des_ Furniture
  6
Continuous
100
AcDbLine
 10
137.5728633084488
 20
141.3985847709701
 30
0.0
 11
137.7117499189071
 21
141.3553224741355
 31
0.0
  0
LINE
  5
29D
330
E3
100
AcDbEntity
  8
Des_ Furniture
  6
Continuous
100
AcDbLine
 10
137.7117499189071
 20
141.3553224741355
 30
0.0
 11
137.8506405953707
 21
141.3134100910743
 31
0.0
  0
LINE
  5
29E
330
E3
100
AcDbEntity
  8
Des_ Furniture
  6
Continuous
100
AcDbLine
 10
137.8506405953707
 20
141.3134100910743
 30
0.0
 11
137.989527205829
 21
141.2731729022139
 31
0.0
  0
LINE
  5
29F
330
E3
100
AcDbEntity
  8
Des_ Furniture
  6
Continuous
100
AcDbLine
 10
137.989527205829
 20
141.2731729022139
 30
0.0
 11
138.1284178822927
 21
141.2349117919495
 31
0.0
  0
LINE
  5
2A0
330
E3
100
AcDbEntity
  8
Des_ Furniture
  6
Continuous
100
AcDbLine
 10
138.1284178822927
 20
141.2349117919495
 30
0.0
 11
138.2673085587563
 21
141.198923578671
 31
0.0
  0
LINE
  5
2A1
330
E3
100
AcDbEntity
  8
Des_ Furniture
  6
Continuous
100
AcDbLine
 10
138.2673085587563
 20
141.198923578671
 30
0.0
 11
138.4061951692146
 21
141.165476618731
 31
0.0
  0
LINE
  5
2A2
330
E3
100
AcDbEntity
  8
Des_ Furniture
  6
Continuous
100
AcDbLine
 10
138.4061951692146
 20
141.165476618731
 30
0.0
 11
138.5450858456782
 21
141.134827070466
 31
0.0
  0
LINE
  5
2A3
330
E3
100
AcDbEntity
  8
Des_ Furniture
  6
Continuous
100
AcDbLine
 10
138.5450858456782
 20
141.134827070466
 30
0.0
 11
138.6839724561365
 21
141.1072148281913
 31
0.0
  0
LINE
  5
2A4
330
E3
100
AcDbEntity
  8
Des_ Furniture
  6
Continuous
100
AcDbLine
 10
138.6839724561365
 20
141.1072148281913
 30
0.0
 11
138.8228631326001
 21
141.0828391261684
 31
0.0
  0
LINE
  5
2A5
330
E3
100
AcDbEntity
  8
Des_ Furniture
  6
Continuous
100
AcDbLine
 10
138.8228631326001
 20
141.0828391261684
 30
0.0
 11
138.9617497430584
 21
141.0618910666485
 31
0.0
  0
LINE
  5
2A6
330
E3
100
AcDbEntity
  8
Des_ Furniture
  6
Continuous
100
AcDbLine
 10
138.9617497430584
 20
141.0618910666485
 30
0.0
 11
139.100640419522
 21
141.0445332898452
 31
0.0
  0
LINE
  5
2A7
330
E3
100
AcDbEntity
  8
Des_ Furniture
  6
Continuous
100
AcDbLine
 10
139.100640419522
 20
141.0445332898452
 30
0.0
 11
139.2395270299803
 21
141.0308918419241
 31
0.0
  0
LINE
  5
2A8
330
E3
100
AcDbEntity
  8
Des_ Furniture
  6
Continuous
100
AcDbLine
 10
139.2395270299803
 20
141.0308918419241
 30
0.0
 11
139.3784177064439
 21
141.0210724390242
 31
0.0
  0
LINE
  5
2A9
330
E3
100
AcDbEntity
  8
Des_ Furniture
  6
Continuous
100
AcDbLine
 10
139.3784177064439
 20
141.0210724390242
 30
0.0
 11
139.5173083829075
 21
141.0151523352468
 31
0.0
  0
LINE
  5
2AA
330
E3
100
AcDbEntity
  8
Des_ Furniture
  6
Continuous
100
AcDbLine
 10
139.5173083829075
 20
141.0151523352468
 30
0.0
 11
139.6561949933659
 21
141.0131721906455
 31
0.0
  0
LINE
  5
2AB
330
E3
100
AcDbEntity
  8
Des_ Furniture
  6
Continuous
100
AcDbLine
 10
139.6561949933659
 20
141.0131721906455
 30
0.0
 11
139.7950856698295
 21
141.0151523352468
 31
0.0
  0
LINE
  5
2AC
330
E3
100
AcDbEntity
  8
Des_ Furniture
  6
Continuous
100
AcDbLine
 10
137.1561953450633
 20
142.0531709709139
 30
0.0
 11
137.2950860215269
 21
142.0511948923179
 31
0.0
  0
LINE
  5
2AD
330
E3
100
AcDbEntity
  8
Des_ Furniture
  6
Continuous
100
AcDbLine
 10
137.2950860215269
 20
142.0511948923179
 30
0.0
 11
137.4339726319852
 21
142.0452707225352
 31
0.0
  0
LINE
  5
2AE
330
E3
100
AcDbEntity
  8
Des_ Furniture
  6
Continuous
100
AcDbLine
 10
137.4339726319852
 20
142.0452707225352
 30
0.0
 11
137.5728633084488
 21
142.0354553856405
 31
0.0
  0
LINE
  5
2AF
330
E3
100
AcDbEntity
  8
Des_ Furniture
  6
Continuous
100
AcDbLine
 10
137.5728633084488
 20
142.0354553856405
 30
0.0
 11
137.7117499189071
 21
142.0218139377195
 31
0.0
  0
LINE
  5
2B0
330
E3
100
AcDbEntity
  8
Des_ Furniture
  6
Continuous
100
AcDbLine
 10
137.7117499189071
 20
142.0218139377195
 30
0.0
 11
137.8506405953707
 21
142.0044520949109
 31
0.0
  0
LINE
  5
2B1
330
E3
100
AcDbEntity
  8
Des_ Furniture
  6
Continuous
100
AcDbLine
 10
137.8506405953707
 20
142.0044520949109
 30
0.0
 11
137.989527205829
 21
141.983504035391
 31
0.0
  0
LINE
  5
2B2
330
E3
100
AcDbEntity
  8
Des_ Furniture
  6
Continuous
100
AcDbLine
 10
137.989527205829
 20
141.983504035391
 30
0.0
 11
138.1284178822927
 21
141.9591323993734
 31
0.0
  0
LINE
  5
2B3
330
E3
100
AcDbEntity
  8
Des_ Furniture
  6
Continuous
100
AcDbLine
 10
138.1284178822927
 20
141.9591323993734
 30
0.0
 11
138.2673085587563
 21
141.9315160910933
 31
0.0
  0
LINE
  5
2B4
330
E3
100
AcDbEntity
  8
Des_ Furniture
  6
Continuous
100
AcDbLine
 10
138.2673085587563
 20
141.9315160910933
 30
0.0
 11
138.4061951692146
 21
141.9008665428283
 31
0.0
  0
LINE
  5
2B5
330
E3
100
AcDbEntity
  8
Des_ Furniture
  6
Continuous
100
AcDbLine
 10
138.4061951692146
 20
141.9008665428283
 30
0.0
 11
138.5450858456782
 21
141.8674195828884
 31
0.0
  0
LINE
  5
2B6
330
E3
100
AcDbEntity
  8
Des_ Furniture
  6
Continuous
100
AcDbLine
 10
138.5450858456782
 20
141.8674195828884
 30
0.0
 11
138.6839724561365
 21
141.8314313696099
 31
0.0
  0
LINE
  5
2B7
330
E3
100
AcDbEntity
  8
Des_ Furniture
  6
Continuous
100
AcDbLine
 10
138.6839724561365
 20
141.8314313696099
 30
0.0
 11
138.8228631326001
 21
141.7931702593455
 31
0.0
  0
LINE
  5
2B8
330
E3
100
AcDbEntity
  8
Des_ Furniture
  6
Continuous
100
AcDbLine
 10
138.8228631326001
 20
141.7931702593455
 30
0.0
 11
138.9617497430584
 21
141.752933070485
 31
0.0
  0
LINE
  5
2B9
330
E3
100
AcDbEntity
  8
Des_ Furniture
  6
Continuous
100
AcDbLine
 10
138.9617497430584
 20
141.752933070485
 30
0.0
 11
139.100640419522
 21
141.7110206874238
 31
0.0
  0
LINE
  5
2BA
330
E3
100
AcDbEntity
  8
Des_ Furniture
  6
Continuous
100
AcDbLine
 10
139.100640419522
 20
141.7110206874238
 30
0.0
 11
139.2395270299803
 21
141.6677583905892
 31
0.0
  0
LINE
  5
2BB
330
E3
100
AcDbEntity
  8
Des_ Furniture
  6
Continuous
100
AcDbLine
 10
139.2395270299803
 20
141.6677583905892
 30
0.0
 11
139.3784177064439
 21
141.6234673944032
 31
0.0
  0
LINE
  5
2BC
330
E3
100
AcDbEntity
  8
Des_ Furniture
  6
Continuous
100
AcDbLine
 10
139.3784177064439
 20
141.6234673944032
 30
0.0
 11
139.5173083829075
 21
141.5784933093198
 31
0.0
  0
LINE
  5
2BD
330
E3
100
AcDbEntity
  8
Des_ Furniture
  6
Continuous
100
AcDbLine
 10
139.5173083829075
 20
141.5784933093198
 30
0.0
 11
139.6561949933659
 21
141.5331736137824
 31
0.0
  0
LINE
  5
2BE
330
E3
100
AcDbEntity
  8
Des_ Furniture
  6
Continuous
100
AcDbLine
 10
139.6561949933659
 20
141.5331736137824
 30
0.0
 11
139.7950856698295
 21
141.4878498522395
 31
0.0
  0
LINE
  5
2BF
330
E3
100
AcDbEntity
  8
Des_ Furniture
  6
Continuous
100
AcDbLine
 10
139.7950856698295
 20
141.4878498522395
 30
0.0
 11
139.9339722802877
 21
141.4428757671562
 31
0.0
  0
LINE
  5
2C0
330
E3
100
AcDbEntity
  8
Des_ Furniture
  6
Continuous
100
AcDbLine
 10
139.9339722802877
 20
141.4428757671562
 30
0.0
 11
140.0728629567514
 21
141.3985847709701
 31
0.0
  0
LINE
  5
2C1
330
E3
100
AcDbEntity
  8
Des_ Furniture
  6
Continuous
100
AcDbLine
 10
140.0728629567514
 20
141.3985847709701
 30
0.0
 11
140.2117495672097
 21
141.3553224741355
 31
0.0
  0
LINE
  5
2C2
330
E3
100
AcDbEntity
  8
Des_ Furniture
  6
Continuous
100
AcDbLine
 10
140.2117495672097
 20
141.3553224741355
 30
0.0
 11
140.3506402436733
 21
141.3134100910743
 31
0.0
  0
LINE
  5
2C3
330
E3
100
AcDbEntity
  8
Des_ Furniture
  6
Continuous
100
AcDbLine
 10
140.3506402436733
 20
141.3134100910743
 30
0.0
 11
140.4895268541316
 21
141.2731729022139
 31
0.0
  0
LINE
  5
2C4
330
E3
100
AcDbEntity
  8
Des_ Furniture
  6
Continuous
100
AcDbLine
 10
140.4895268541316
 20
141.2731729022139
 30
0.0
 11
140.6284175305952
 21
141.2349117919495
 31
0.0
  0
LINE
  5
2C5
330
E3
100
AcDbEntity
  8
Des_ Furniture
  6
Continuous
100
AcDbLine
 10
140.6284175305952
 20
141.2349117919495
 30
0.0
 11
140.7673082070588
 21
141.198923578671
 31
0.0
  0
LINE
  5
2C6
330
E3
100
AcDbEntity
  8
Des_ Furniture
  6
Continuous
100
AcDbLine
 10
140.7673082070588
 20
141.198923578671
 30
0.0
 11
140.9061948175171
 21
141.165476618731
 31
0.0
  0
LINE
  5
2C7
330
E3
100
AcDbEntity
  8
Des_ Furniture
  6
Continuous
100
AcDbLine
 10
132.1561960484582
 20
141.5331736137824
 30
0.0
 11
132.2950826589165
 21
141.4878498522395
 31
0.0
  0
LINE
  5
2C8
330
E3
100
AcDbEntity
  8
Des_ Furniture
  6
Continuous
100
AcDbLine
 10
132.2950826589165
 20
141.4878498522395
 30
0.0
 11
132.4339733353801
 21
141.4428757671562
 31
0.0
  0
LINE
  5
2C9
330
E3
100
AcDbEntity
  8
Des_ Furniture
  6
Continuous
100
AcDbLine
 10
132.4339733353801
 20
141.4428757671562
 30
0.0
 11
132.5728640118437
 21
141.3985847709701
 31
0.0
  0
LINE
  5
2CA
330
E3
100
AcDbEntity
  8
Des_ Furniture
  6
Continuous
100
AcDbLine
 10
132.5728640118437
 20
141.3985847709701
 30
0.0
 11
132.711750622302
 21
141.3553224741355
 31
0.0
  0
LINE
  5
2CB
330
E3
100
AcDbEntity
  8
Des_ Furniture
  6
Continuous
100
AcDbLine
 10
132.711750622302
 20
141.3553224741355
 30
0.0
 11
132.8506412987657
 21
141.3134100910743
 31
0.0
  0
LINE
  5
2CC
330
E3
100
AcDbEntity
  8
Des_ Furniture
  6
Continuous
100
AcDbLine
 10
132.8506412987657
 20
141.3134100910743
 30
0.0
 11
132.9895279092239
 21
141.2731729022139
 31
0.0
  0
LINE
  5
2CD
330
E3
100
AcDbEntity
  8
Des_ Furniture
  6
Continuous
100
AcDbLine
 10
132.9895279092239
 20
141.2731729022139
 30
0.0
 11
133.1284185856875
 21
141.2349117919495
 31
0.0
  0
LINE
  5
2CE
330
E3
100
AcDbEntity
  8
Des_ Furniture
  6
Continuous
100
AcDbLine
 10
133.1284185856875
 20
141.2349117919495
 30
0.0
 11
133.2673051961458
 21
141.198923578671
 31
0.0
  0
LINE
  5
2CF
330
E3
100
AcDbEntity
  8
Des_ Furniture
  6
Continuous
100
AcDbLine
 10
133.2673051961458
 20
141.198923578671
 30
0.0
 11
133.4061958726095
 21
141.165476618731
 31
0.0
  0
LINE
  5
2D0
330
E3
100
AcDbEntity
  8
Des_ Furniture
  6
Continuous
100
AcDbLine
 10
133.4061958726095
 20
141.165476618731
 30
0.0
 11
133.5450824830678
 21
141.134827070466
 31
0.0
  0
LINE
  5
2D1
330
E3
100
AcDbEntity
  8
Des_ Furniture
  6
Continuous
100
AcDbLine
 10
133.5450824830678
 20
141.134827070466
 30
0.0
 11
133.6839731595314
 21
141.1072148281913
 31
0.0
  0
LINE
  5
2D2
330
E3
100
AcDbEntity
  8
Des_ Furniture
  6
Continuous
100
AcDbLine
 10
133.6839731595314
 20
141.1072148281913
 30
0.0
 11
133.822863835995
 21
141.0828391261684
 31
0.0
  0
LINE
  5
2D3
330
E3
100
AcDbEntity
  8
Des_ Furniture
  6
Continuous
100
AcDbLine
 10
133.822863835995
 20
141.0828391261684
 30
0.0
 11
133.9617504464533
 21
141.0618910666485
 31
0.0
  0
LINE
  5
2D4
330
E3
100
AcDbEntity
  8
Des_ Furniture
  6
Continuous
100
AcDbLine
 10
133.9617504464533
 20
141.0618910666485
 30
0.0
 11
134.1006411229169
 21
141.0445332898452
 31
0.0
  0
LINE
  5
2D5
330
E3
100
AcDbEntity
  8
Des_ Furniture
  6
Continuous
100
AcDbLine
 10
134.1006411229169
 20
141.0445332898452
 30
0.0
 11
134.2395277333752
 21
141.0308918419241
 31
0.0
  0
LINE
  5
2D6
330
E3
100
AcDbEntity
  8
Des_ Furniture
  6
Continuous
100
AcDbLine
 10
134.2395277333752
 20
141.0308918419241
 30
0.0
 11
134.3784184098388
 21
141.0210724390242
 31
0.0
  0
LINE
  5
2D7
330
E3
100
AcDbEntity
  8
Des_ Furniture
  6
Continuous
100
AcDbLine
 10
134.3784184098388
 20
141.0210724390242
 30
0.0
 11
134.5173050202971
 21
141.0151523352468
 31
0.0
  0
LINE
  5
2D8
330
E3
100
AcDbEntity
  8
Des_ Furniture
  6
Continuous
100
AcDbLine
 10
134.5173050202971
 20
141.0151523352468
 30
0.0
 11
134.6561956967607
 21
141.0131721906455
 31
0.0
  0
LINE
  5
2D9
330
E3
100
AcDbEntity
  8
Des_ Furniture
  6
Continuous
100
AcDbLine
 10
134.6561956967607
 20
141.0131721906455
 30
0.0
 11
134.7950863732244
 21
141.0151523352468
 31
0.0
  0
LINE
  5
2DA
330
E3
100
AcDbEntity
  8
Des_ Furniture
  6
Continuous
100
AcDbLine
 10
139.6561949933659
 20
142.0531709709139
 30
0.0
 11
139.7950856698295
 21
142.0511948923179
 31
0.0
  0
LINE
  5
2DB
330
E3
100
AcDbEntity
  8
Des_ Furniture
  6
Continuous
100
AcDbLine
 10
139.7950856698295
 20
142.0511948923179
 30
0.0
 11
139.9339722802877
 21
142.0452707225352
 31
0.0
  0
LINE
  5
2DC
330
E3
100
AcDbEntity
  8
Des_ Furniture
  6
Continuous
100
AcDbLine
 10
139.9339722802877
 20
142.0452707225352
 30
0.0
 11
140.0728629567514
 21
142.0354553856405
 31
0.0
  0
LINE
  5
2DD
330
E3
100
AcDbEntity
  8
Des_ Furniture
  6
Continuous
100
AcDbLine
 10
140.0728629567514
 20
142.0354553856405
 30
0.0
 11
140.2117495672097
 21
142.0218139377195
 31
0.0
  0
LINE
  5
2DE
330
E3
100
AcDbEntity
  8
Des_ Furniture
  6
Continuous
100
AcDbLine
 10
140.2117495672097
 20
142.0218139377195
 30
0.0
 11
140.3506402436733
 21
142.0044520949109
 31
0.0
  0
LINE
  5
2DF
330
E3
100
AcDbEntity
  8
Des_ Furniture
  6
Continuous
100
AcDbLine
 10
140.3506402436733
 20
142.0044520949109
 30
0.0
 11
140.4895268541316
 21
141.983504035391
 31
0.0
  0
LINE
  5
2E0
330
E3
100
AcDbEntity
  8
Des_ Furniture
  6
Continuous
100
AcDbLine
 10
140.4895268541316
 20
141.983504035391
 30
0.0
 11
140.6284175305952
 21
141.9591323993734
 31
0.0
  0
LINE
  5
2E1
330
E3
100
AcDbEntity
  8
Des_ Furniture
  6
Continuous
100
AcDbLine
 10
140.6284175305952
 20
141.9591323993734
 30
0.0
 11
140.7673082070588
 21
141.9315160910933
 31
0.0
  0
LINE
  5
2E2
330
E3
100
AcDbEntity
  8
Des_ Furniture
  6
Continuous
100
AcDbLine
 10
140.7673082070588
 20
141.9315160910933
 30
0.0
 11
140.9061948175171
 21
141.9008665428283
 31
0.0
  0
HATCH
  5
2E3
330
E3
100
AcDbEntity
  8
Des_ Furniture
  6
Continuous
 62
   255
370
     0
100
AcDbHatch
 10
0.0
 20
0.0
 30
0.0
210
0.0
220
0.0
230
1.0
  2
SOLID
 70
     1
 71
     0
 91
        1
 92
        3
 72
     0
 73
     1
 93
        8
 10
204.7673761595052
 20
131.684190304713
 10
192.8371562916689
 20
130.3526850917659
 10
198.9069391322993
 20
129.0211748758121
 10
201.2112589910045
 20
85.05212519306477
 10
288.3330327581097
 20
85.05212519306477
 10
288.3330327581097
 20
176.9847452004074
 10
196.3932734601697
 20
176.9847452004074
 10
198.697593318875
 20
133.0156955176601
 97
        0
 75
     0
 76
     1
 98
        0
  0
LINE
  5
2E4
330
E3
100
AcDbEntity
  8
Des_ Furniture
  6
Continuous
100
AcDbLine
 10
201.2112587575583
 20
85.05212670743342
 30
0.0
 11
198.9069396823255
 21
129.0211765905066
 31
0.0
  0
LINE
  5
2E5
330
E3
100
AcDbEntity
  8
Des_ Furniture
  6
Continuous
100
AcDbLine
 10
198.697597331308
 20
133.015693426188
 30
0.0
 11
196.3932741900698
 21
176.9847473752666
 31
0.0
  0
LINE
  5
2E6
330
E3
100
AcDbEntity
  8
Des_ Furniture
  6
Continuous
100
AcDbLine
 10
198.697597331308
 20
133.015693426188
 30
0.0
 11
204.7673748313034
 21
131.6841905249644
 31
0.0
  0
LINE
  5
2E7
330
E3
100
AcDbEntity
  8
Des_ Furniture
  6
Continuous
100
AcDbLine
 10
204.7673748313034
 20
131.6841905249644
 30
0.0
 11
192.8371581163247
 21
130.3526835577355
 31
0.0
  0
LINE
  5
2E8
330
E3
100
AcDbEntity
  8
Des_ Furniture
  6
Continuous
100
AcDbLine
 10
192.8371581163247
 20
130.3526835577355
 30
0.0
 11
198.9069396823255
 21
129.0211765905066
 31
0.0
  0
HATCH
  5
2E9
330
E3
100
AcDbEntity
  8
Des_ Furniture
  6
Continuous
 62
   255
370
     0
100
AcDbHatch
 10
0.0
 20
0.0
 30
0.0
210
0.0
220
0.0
230
1.0
  2
SOLID
 70
     1
 71
     0
 91
        1
 92
        3
 72
     1
 73
     1
 93
        2
 10
131.9561954799768
 20
134.9252550619463
 42
0.4999999999999998
 10
131.9561954799768
 20
132.5252550619461
 42
0.0
 97
        0
 75
     0
 76
     1
 98
        0
  0
ARC
  5
2EA
330
E3
100
AcDbEntity
  8
Des_ Furniture
  6
Continuous
100
AcDbCircle
 10
132.8561954799768
 20
133.7252550619462
 30
0.0
 40
1.500000000000112
100
AcDbArc
 50
126.869897645844
 51
233.130102354156
  0
LINE
  5
2EB
330
E3
100
AcDbEntity
  8
Des_ Furniture
  6
Continuous
100
AcDbLine
 10
131.9561973777157
 20
132.5252559278899
 30
0.0
 11
131.9561973777157
 21
134.9252562408212
 31
0.0
  0
HATCH
  5
2EC
330
E3
100
AcDbEntity
  8
Des_ Furniture
  6
Continuous
 62
   255
370
     0
100
AcDbHatch
 10
0.0
 20
0.0
 30
0.0
210
0.0
220
0.0
230
1.0
  2
SOLID
 70
     1
 71
     0
 91
        1
 92
        3
 72
     0
 73
     1
 93
        4
 10
131.3561954799767
 20
133.0852550619462
 10
131.4995820494078
 20
133.0852550619462
 10
131.4995820494078
 20
134.3652550619462
 10
131.3561954799767
 20
134.3652550619462
 97
        0
 75
     0
 76
     1
 98
        0
  0
LINE
  5
2ED
330
E3
100
AcDbEntity
  8
Des_ Furniture
  6
Continuous
100
AcDbLine
 10
131.3561972994829
 20
133.0852546455721
 30
0.0
 11
131.499580911849
 21
133.0852546455721
 31
0.0
  0
LINE
  5
2EE
330
E3
100
AcDbEntity
  8
Des_ Furniture
  6
Continuous
100
AcDbLine
 10
131.499580911849
 20
133.0852546455721
 30
0.0
 11
131.499580911849
 21
134.3652534571337
 31
0.0
  0
LINE
  5
2EF
330
E3
100
AcDbEntity
  8
Des_ Furniture
  6
Continuous
100
AcDbLine
 10
131.499580911849
 20
134.3652534571337
 30
0.0
 11
131.3561972994829
 21
134.3652534571337
 31
0.0
  0
LINE
  5
2F0
330
E3
100
AcDbEntity
  8
Des_ Furniture
  6
Continuous
100
AcDbLine
 10
131.3561972994829
 20
134.3652534571337
 30
0.0
 11
131.3561972994829
 21
133.0852546455721
 31
0.0
  0
HATCH
  5
2F1
330
E3
100
AcDbEntity
  8
Des_ Furniture
  6
Continuous
 62
   255
370
     0
100
AcDbHatch
 10
0.0
 20
0.0
 30
0.0
210
0.0
220
0.0
230
1.0
  2
SOLID
 70
     1
 71
     0
 91
        1
 92
        3
 72
     1
 73
     1
 93
        4
 10
131.9561954799768
 20
132.3252550619463
 42
0.0
 10
132.7561954799768
 20
132.3252550619463
 42
-0.4285714285714285
 10
132.7561954799768
 20
135.1252550619462
 42
0.0
 10
131.9561954799768
 20
135.1252550619462
 42
0.0
 97
        0
 75
     0
 76
     1
 98
        0
  0
LINE
  5
2F2
330
E3
100
AcDbEntity
  8
Des_ Furniture
  6
Continuous
100
AcDbLine
 10
131.9561973777157
 20
132.3252531911421
 30
0.0
 11
132.756196126691
 21
132.3252531911421
 31
0.0
  0
ARC
  5
2F3
330
E3
100
AcDbEntity
  8
Des_ Furniture
  6
Continuous
100
AcDbCircle
 10
134.0895288133101
 20
133.7252550619462
 30
0.0
 40
1.933333333333277
100
AcDbArc
 50
133.6028189727037
 51
226.3971810272962
  0
LINE
  5
2F4
330
E3
100
AcDbEntity
  8
Des_ Furniture
  6
Continuous
100
AcDbLine
 10
132.756196126691
 20
135.1252549115637
 30
0.0
 11
131.9561973777157
 21
135.1252549115637
 31
0.0
  0
LINE
  5
2F5
330
E3
100
AcDbEntity
  8
Des_ Furniture
  6
Continuous
100
AcDbLine
 10
131.9561973777157
 20
135.1252549115637
 30
0.0
 11
131.9561973777157
 21
132.3252531911421
 31
0.0
  0
HATCH
  5
2F6
330
E3
100
AcDbEntity
  8
Des_ Furniture
  6
Continuous
 62
   255
370
     0
100
AcDbHatch
 10
0.0
 20
0.0
 30
0.0
210
0.0
220
0.0
230
1.0
  2
SOLID
 70
     1
 71
     0
 91
        1
 92
        3
 72
     0
 73
     1
 93
        5
 10
132.1561954799768
 20
133.4052550619462
 10
141.5161954799768
 20
133.4052550619462
 10
142.1561954799768
 20
133.7252550619462
 10
141.5161954799768
 20
134.0452550619462
 10
132.1561954799768
 20
134.0452550619462
 97
        0
 75
     0
 76
     1
 98
        0
  0
LINE
  5
2F7
330
E3
100
AcDbEntity
  8
Des_ Furniture
  6
Continuous
100
AcDbLine
 10
132.1561960484582
 20
133.4052533319611
 30
0.0
 11
141.5161972688903
 21
133.4052533319611
 31
0.0
  0
LINE
  5
2F8
330
E3
100
AcDbEntity
  8
Des_ Furniture
  6
Continuous
100
AcDbLine
 10
141.5161972688903
 20
133.4052533319611
 30
0.0
 11
142.1561946416684
 21
133.7252560843556
 31
0.0
  0
LINE
  5
2F9
330
E3
100
AcDbEntity
  8
Des_ Furniture
  6
Continuous
100
AcDbLine
 10
142.1561946416684
 20
133.7252560843556
 30
0.0
 11
141.5161972688903
 21
134.0452547707446
 31
0.0
  0
LINE
  5
2FA
330
E3
100
AcDbEntity
  8
Des_ Furniture
  6
Continuous
100
AcDbLine
 10
141.5161972688903
 20
134.0452547707446
 30
0.0
 11
132.1561960484582
 21
134.0452547707446
 31
0.0
  0
LINE
  5
2FB
330
E3
100
AcDbEntity
  8
Des_ Furniture
  6
Continuous
100
AcDbLine
 10
132.1561960484582
 20
134.0452547707446
 30
0.0
 11
132.1561960484582
 21
133.4052533319611
 31
0.0
  0
LINE
  5
2FC
330
E3
100
AcDbEntity
  8
Des_ Furniture
  6
Continuous
100
AcDbLine
 10
132.1561960484582
 20
134.2452534414871
 30
0.0
 11
132.2950826589165
 21
134.2432773628911
 31
0.0
  0
LINE
  5
2FD
330
E3
100
AcDbEntity
  8
Des_ Furniture
  6
Continuous
100
AcDbLine
 10
132.2950826589165
 20
134.2432773628911
 30
0.0
 11
132.4339733353801
 21
134.2373531931084
 31
0.0
  0
LINE
  5
2FE
330
E3
100
AcDbEntity
  8
Des_ Furniture
  6
Continuous
100
AcDbLine
 10
132.4339733353801
 20
134.2373531931084
 30
0.0
 11
132.5728640118437
 21
134.2275378562138
 31
0.0
  0
LINE
  5
2FF
330
E3
100
AcDbEntity
  8
Des_ Furniture
  6
Continuous
100
AcDbLine
 10
132.5728640118437
 20
134.2275378562138
 30
0.0
 11
132.711750622302
 21
134.2138964082927
 31
0.0
  0
LINE
  5
300
330
E3
100
AcDbEntity
  8
Des_ Furniture
  6
Continuous
100
AcDbLine
 10
132.711750622302
 20
134.2138964082927
 30
0.0
 11
132.8506412987657
 21
134.1965345654841
 31
0.0
  0
LINE
  5
301
330
E3
100
AcDbEntity
  8
Des_ Furniture
  6
Continuous
100
AcDbLine
 10
132.8506412987657
 20
134.1965345654841
 30
0.0
 11
132.9895279092239
 21
134.1755865059642
 31
0.0
  0
LINE
  5
302
330
E3
100
AcDbEntity
  8
Des_ Furniture
  6
Continuous
100
AcDbLine
 10
132.9895279092239
 20
134.1755865059642
 30
0.0
 11
133.1284185856875
 21
134.1512148699466
 31
0.0
  0
LINE
  5
303
330
E3
100
AcDbEntity
  8
Des_ Furniture
  6
Continuous
100
AcDbLine
 10
133.1284185856875
 20
134.1512148699466
 30
0.0
 11
133.2673051961458
 21
134.1235985616665
 31
0.0
  0
LINE
  5
304
330
E3
100
AcDbEntity
  8
Des_ Furniture
  6
Continuous
100
AcDbLine
 10
133.2673051961458
 20
134.1235985616665
 30
0.0
 11
133.4061958726095
 21
134.0929490134015
 31
0.0
  0
LINE
  5
305
330
E3
100
AcDbEntity
  8
Des_ Furniture
  6
Continuous
100
AcDbLine
 10
133.4061958726095
 20
134.0929490134015
 30
0.0
 11
133.5450824830678
 21
134.0595061194669
 31
0.0
  0
LINE
  5
306
330
E3
100
AcDbEntity
  8
Des_ Furniture
  6
Continuous
100
AcDbLine
 10
133.5450824830678
 20
134.0595061194669
 30
0.0
 11
133.6839731595314
 21
134.0235138401831
 31
0.0
  0
LINE
  5
307
330
E3
100
AcDbEntity
  8
Des_ Furniture
  6
Continuous
100
AcDbLine
 10
133.6839731595314
 20
134.0235138401831
 30
0.0
 11
133.822863835995
 21
133.985256795924
 31
0.0
  0
LINE
  5
308
330
E3
100
AcDbEntity
  8
Des_ Furniture
  6
Continuous
100
AcDbLine
 10
133.822863835995
 20
133.985256795924
 30
0.0
 11
133.9617504464533
 21
133.9450155410582
 31
0.0
  0
LINE
  5
309
330
E3
100
AcDbEntity
  8
Des_ Furniture
  6
Continuous
100
AcDbLine
 10
133.9617504464533
 20
133.9450155410582
 30
0.0
 11
134.1006411229169
 21
133.9031072240023
 31
0.0
  0
LINE
  5
30A
330
E3
100
AcDbEntity
  8
Des_ Furniture
  6
Continuous
100
AcDbLine
 10
134.1006411229169
 20
133.9031072240023
 30
0.0
 11
134.2395277333752
 21
133.8598408611624
 31
0.0
  0
LINE
  5
30B
330
E3
100
AcDbEntity
  8
Des_ Furniture
  6
Continuous
100
AcDbLine
 10
134.2395277333752
 20
133.8598408611624
 30
0.0
 11
134.3784184098388
 21
133.8155539309817
 31
0.0
  0
LINE
  5
30C
330
E3
100
AcDbEntity
  8
Des_ Furniture
  6
Continuous
100
AcDbLine
 10
134.3784184098388
 20
133.8155539309817
 30
0.0
 11
134.5173050202971
 21
133.770575779893
 31
0.0
  0
LINE
  5
30D
330
E3
100
AcDbEntity
  8
Des_ Furniture
  6
Continuous
100
AcDbLine
 10
134.5173050202971
 20
133.770575779893
 30
0.0
 11
134.6561956967607
 21
133.7252560843556
 31
0.0
  0
LINE
  5
30E
330
E3
100
AcDbEntity
  8
Des_ Furniture
  6
Continuous
100
AcDbLine
 10
134.6561956967607
 20
133.7252560843556
 30
0.0
 11
134.7950863732244
 21
133.6799323228128
 31
0.0
  0
LINE
  5
30F
330
E3
100
AcDbEntity
  8
Des_ Furniture
  6
Continuous
100
AcDbLine
 10
134.7950863732244
 20
133.6799323228128
 30
0.0
 11
134.9339729836827
 21
133.6349582377294
 31
0.0
  0
LINE
  5
310
330
E3
100
AcDbEntity
  8
Des_ Furniture
  6
Continuous
100
AcDbLine
 10
134.9339729836827
 20
133.6349582377294
 30
0.0
 11
135.0728636601463
 21
133.5906672415433
 31
0.0
  0
LINE
  5
311
330
E3
100
AcDbEntity
  8
Des_ Furniture
  6
Continuous
100
AcDbLine
 10
135.0728636601463
 20
133.5906672415433
 30
0.0
 11
135.2117502706046
 21
133.5474049447087
 31
0.0
  0
LINE
  5
312
330
E3
100
AcDbEntity
  8
Des_ Furniture
  6
Continuous
100
AcDbLine
 10
135.2117502706046
 20
133.5474049447087
 30
0.0
 11
135.3506409470682
 21
133.5054925616475
 31
0.0
  0
LINE
  5
313
330
E3
100
AcDbEntity
  8
Des_ Furniture
  6
Continuous
100
AcDbLine
 10
135.3506409470682
 20
133.5054925616475
 30
0.0
 11
135.4895275575265
 21
133.4652553727871
 31
0.0
  0
LINE
  5
314
330
E3
100
AcDbEntity
  8
Des_ Furniture
  6
Continuous
100
AcDbLine
 10
135.4895275575265
 20
133.4652553727871
 30
0.0
 11
135.6284182339901
 21
133.4269942625227
 31
0.0
  0
LINE
  5
315
330
E3
100
AcDbEntity
  8
Des_ Furniture
  6
Continuous
100
AcDbLine
 10
135.6284182339901
 20
133.4269942625227
 30
0.0
 11
135.7673048444484
 21
133.3910060492442
 31
0.0
  0
LINE
  5
316
330
E3
100
AcDbEntity
  8
Des_ Furniture
  6
Continuous
100
AcDbLine
 10
135.7673048444484
 20
133.3910060492442
 30
0.0
 11
135.906195520912
 21
133.3575590893042
 31
0.0
  0
LINE
  5
317
330
E3
100
AcDbEntity
  8
Des_ Furniture
  6
Continuous
100
AcDbLine
 10
135.906195520912
 20
133.3575590893042
 30
0.0
 11
136.0450861973757
 21
133.3269136070446
 31
0.0
  0
LINE
  5
318
330
E3
100
AcDbEntity
  8
Des_ Furniture
  6
Continuous
100
AcDbLine
 10
136.0450861973757
 20
133.3269136070446
 30
0.0
 11
136.1839728078339
 21
133.2992972987644
 31
0.0
  0
LINE
  5
319
330
E3
100
AcDbEntity
  8
Des_ Furniture
  6
Continuous
100
AcDbLine
 10
136.1839728078339
 20
133.2992972987644
 30
0.0
 11
136.3228634842976
 21
133.2749215967416
 31
0.0
  0
LINE
  5
31A
330
E3
100
AcDbEntity
  8
Des_ Furniture
  6
Continuous
100
AcDbLine
 10
136.3228634842976
 20
133.2749215967416
 30
0.0
 11
136.4617500947558
 21
133.2539735372217
 31
0.0
  0
LINE
  5
31B
330
E3
100
AcDbEntity
  8
Des_ Furniture
  6
Continuous
100
AcDbLine
 10
136.4617500947558
 20
133.2539735372217
 30
0.0
 11
136.6006407712194
 21
133.2366157604184
 31
0.0
  0
LINE
  5
31C
330
E3
100
AcDbEntity
  8
Des_ Furniture
  6
Continuous
100
AcDbLine
 10
136.6006407712194
 20
133.2366157604184
 30
0.0
 11
136.7395273816777
 21
133.2229743124973
 31
0.0
  0
LINE
  5
31D
330
E3
100
AcDbEntity
  8
Des_ Furniture
  6
Continuous
100
AcDbLine
 10
136.7395273816777
 20
133.2229743124973
 30
0.0
 11
136.8784180581414
 21
133.2131549095974
 31
0.0
  0
LINE
  5
31E
330
E3
100
AcDbEntity
  8
Des_ Furniture
  6
Continuous
100
AcDbLine
 10
136.8784180581414
 20
133.2131549095974
 30
0.0
 11
137.0173046685996
 21
133.20723480582
 31
0.0
  0
LINE
  5
31F
330
E3
100
AcDbEntity
  8
Des_ Furniture
  6
Continuous
100
AcDbLine
 10
137.0173046685996
 20
133.20723480582
 30
0.0
 11
137.1561953450633
 21
133.2052546612186
 31
0.0
  0
LINE
  5
320
330
E3
100
AcDbEntity
  8
Des_ Furniture
  6
Continuous
100
AcDbLine
 10
137.1561953450633
 20
133.2052546612186
 30
0.0
 11
137.2950860215269
 21
133.20723480582
 31
0.0
  0
LINE
  5
321
330
E3
100
AcDbEntity
  8
Des_ Furniture
  6
Continuous
100
AcDbLine
 10
134.6561956967607
 20
134.2452534414871
 30
0.0
 11
134.7950863732244
 21
134.2432773628911
 31
0.0
  0
LINE
  5
322
330
E3
100
AcDbEntity
  8
Des_ Furniture
  6
Continuous
100
AcDbLine
 10
134.7950863732244
 20
134.2432773628911
 30
0.0
 11
134.9339729836827
 21
134.2373531931084
 31
0.0
  0
LINE
  5
323
330
E3
100
AcDbEntity
  8
Des_ Furniture
  6
Continuous
100
AcDbLine
 10
134.9339729836827
 20
134.2373531931084
 30
0.0
 11
135.0728636601463
 21
134.2275378562138
 31
0.0
  0
LINE
  5
324
330
E3
100
AcDbEntity
  8
Des_ Furniture
  6
Continuous
100
AcDbLine
 10
135.0728636601463
 20
134.2275378562138
 30
0.0
 11
135.2117502706046
 21
134.2138964082927
 31
0.0
  0
LINE
  5
325
330
E3
100
AcDbEntity
  8
Des_ Furniture
  6
Continuous
100
AcDbLine
 10
135.2117502706046
 20
134.2138964082927
 30
0.0
 11
135.3506409470682
 21
134.1965345654841
 31
0.0
  0
LINE
  5
326
330
E3
100
AcDbEntity
  8
Des_ Furniture
  6
Continuous
100
AcDbLine
 10
135.3506409470682
 20
134.1965345654841
 30
0.0
 11
135.4895275575265
 21
134.1755865059642
 31
0.0
  0
LINE
  5
327
330
E3
100
AcDbEntity
  8
Des_ Furniture
  6
Continuous
100
AcDbLine
 10
135.4895275575265
 20
134.1755865059642
 30
0.0
 11
135.6284182339901
 21
134.1512148699466
 31
0.0
  0
LINE
  5
328
330
E3
100
AcDbEntity
  8
Des_ Furniture
  6
Continuous
100
AcDbLine
 10
135.6284182339901
 20
134.1512148699466
 30
0.0
 11
135.7673048444484
 21
134.1235985616665
 31
0.0
  0
LINE
  5
329
330
E3
100
AcDbEntity
  8
Des_ Furniture
  6
Continuous
100
AcDbLine
 10
135.7673048444484
 20
134.1235985616665
 30
0.0
 11
135.906195520912
 21
134.0929490134015
 31
0.0
  0
LINE
  5
32A
330
E3
100
AcDbEntity
  8
Des_ Furniture
  6
Continuous
100
AcDbLine
 10
135.906195520912
 20
134.0929490134015
 30
0.0
 11
136.0450861973757
 21
134.0595061194669
 31
0.0
  0
LINE
  5
32B
330
E3
100
AcDbEntity
  8
Des_ Furniture
  6
Continuous
100
AcDbLine
 10
136.0450861973757
 20
134.0595061194669
 30
0.0
 11
136.1839728078339
 21
134.0235138401831
 31
0.0
  0
LINE
  5
32C
330
E3
100
AcDbEntity
  8
Des_ Furniture
  6
Continuous
100
AcDbLine
 10
136.1839728078339
 20
134.0235138401831
 30
0.0
 11
136.3228634842976
 21
133.985256795924
 31
0.0
  0
LINE
  5
32D
330
E3
100
AcDbEntity
  8
Des_ Furniture
  6
Continuous
100
AcDbLine
 10
136.3228634842976
 20
133.985256795924
 30
0.0
 11
136.4617500947558
 21
133.9450155410582
 31
0.0
  0
LINE
  5
32E
330
E3
100
AcDbEntity
  8
Des_ Furniture
  6
Continuous
100
AcDbLine
 10
136.4617500947558
 20
133.9450155410582
 30
0.0
 11
136.6006407712194
 21
133.9031072240023
 31
0.0
  0
LINE
  5
32F
330
E3
100
AcDbEntity
  8
Des_ Furniture
  6
Continuous
100
AcDbLine
 10
136.6006407712194
 20
133.9031072240023
 30
0.0
 11
136.7395273816777
 21
133.8598408611624
 31
0.0
  0
LINE
  5
330
330
E3
100
AcDbEntity
  8
Des_ Furniture
  6
Continuous
100
AcDbLine
 10
136.7395273816777
 20
133.8598408611624
 30
0.0
 11
136.8784180581414
 21
133.8155539309817
 31
0.0
  0
LINE
  5
331
330
E3
100
AcDbEntity
  8
Des_ Furniture
  6
Continuous
100
AcDbLine
 10
136.8784180581414
 20
133.8155539309817
 30
0.0
 11
137.0173046685996
 21
133.770575779893
 31
0.0
  0
LINE
  5
332
330
E3
100
AcDbEntity
  8
Des_ Furniture
  6
Continuous
100
AcDbLine
 10
137.0173046685996
 20
133.770575779893
 30
0.0
 11
137.1561953450633
 21
133.7252560843556
 31
0.0
  0
LINE
  5
333
330
E3
100
AcDbEntity
  8
Des_ Furniture
  6
Continuous
100
AcDbLine
 10
137.1561953450633
 20
133.7252560843556
 30
0.0
 11
137.2950860215269
 21
133.6799323228128
 31
0.0
  0
LINE
  5
334
330
E3
100
AcDbEntity
  8
Des_ Furniture
  6
Continuous
100
AcDbLine
 10
137.2950860215269
 20
133.6799323228128
 30
0.0
 11
137.4339726319852
 21
133.6349582377294
 31
0.0
  0
LINE
  5
335
330
E3
100
AcDbEntity
  8
Des_ Furniture
  6
Continuous
100
AcDbLine
 10
137.4339726319852
 20
133.6349582377294
 30
0.0
 11
137.5728633084488
 21
133.5906672415433
 31
0.0
  0
LINE
  5
336
330
E3
100
AcDbEntity
  8
Des_ Furniture
  6
Continuous
100
AcDbLine
 10
137.5728633084488
 20
133.5906672415433
 30
0.0
 11
137.7117499189071
 21
133.5474049447087
 31
0.0
  0
LINE
  5
337
330
E3
100
AcDbEntity
  8
Des_ Furniture
  6
Continuous
100
AcDbLine
 10
137.7117499189071
 20
133.5474049447087
 30
0.0
 11
137.8506405953707
 21
133.5054925616475
 31
0.0
  0
LINE
  5
338
330
E3
100
AcDbEntity
  8
Des_ Furniture
  6
Continuous
100
AcDbLine
 10
137.8506405953707
 20
133.5054925616475
 30
0.0
 11
137.989527205829
 21
133.4652553727871
 31
0.0
  0
LINE
  5
339
330
E3
100
AcDbEntity
  8
Des_ Furniture
  6
Continuous
100
AcDbLine
 10
137.989527205829
 20
133.4652553727871
 30
0.0
 11
138.1284178822927
 21
133.4269942625227
 31
0.0
  0
LINE
  5
33A
330
E3
100
AcDbEntity
  8
Des_ Furniture
  6
Continuous
100
AcDbLine
 10
138.1284178822927
 20
133.4269942625227
 30
0.0
 11
138.2673085587563
 21
133.3910060492442
 31
0.0
  0
LINE
  5
33B
330
E3
100
AcDbEntity
  8
Des_ Furniture
  6
Continuous
100
AcDbLine
 10
138.2673085587563
 20
133.3910060492442
 30
0.0
 11
138.4061951692146
 21
133.3575590893042
 31
0.0
  0
LINE
  5
33C
330
E3
100
AcDbEntity
  8
Des_ Furniture
  6
Continuous
100
AcDbLine
 10
138.4061951692146
 20
133.3575590893042
 30
0.0
 11
138.5450858456782
 21
133.3269136070446
 31
0.0
  0
LINE
  5
33D
330
E3
100
AcDbEntity
  8
Des_ Furniture
  6
Continuous
100
AcDbLine
 10
138.5450858456782
 20
133.3269136070446
 30
0.0
 11
138.6839724561365
 21
133.2992972987644
 31
0.0
  0
LINE
  5
33E
330
E3
100
AcDbEntity
  8
Des_ Furniture
  6
Continuous
100
AcDbLine
 10
138.6839724561365
 20
133.2992972987644
 30
0.0
 11
138.8228631326001
 21
133.2749215967416
 31
0.0
  0
LINE
  5
33F
330
E3
100
AcDbEntity
  8
Des_ Furniture
  6
Continuous
100
AcDbLine
 10
138.8228631326001
 20
133.2749215967416
 30
0.0
 11
138.9617497430584
 21
133.2539735372217
 31
0.0
  0
LINE
  5
340
330
E3
100
AcDbEntity
  8
Des_ Furniture
  6
Continuous
100
AcDbLine
 10
138.9617497430584
 20
133.2539735372217
 30
0.0
 11
139.100640419522
 21
133.2366157604184
 31
0.0
  0
LINE
  5
341
330
E3
100
AcDbEntity
  8
Des_ Furniture
  6
Continuous
100
AcDbLine
 10
139.100640419522
 20
133.2366157604184
 30
0.0
 11
139.2395270299803
 21
133.2229743124973
 31
0.0
  0
LINE
  5
342
330
E3
100
AcDbEntity
  8
Des_ Furniture
  6
Continuous
100
AcDbLine
 10
139.2395270299803
 20
133.2229743124973
 30
0.0
 11
139.3784177064439
 21
133.2131549095974
 31
0.0
  0
LINE
  5
343
330
E3
100
AcDbEntity
  8
Des_ Furniture
  6
Continuous
100
AcDbLine
 10
139.3784177064439
 20
133.2131549095974
 30
0.0
 11
139.5173083829075
 21
133.20723480582
 31
0.0
  0
LINE
  5
344
330
E3
100
AcDbEntity
  8
Des_ Furniture
  6
Continuous
100
AcDbLine
 10
139.5173083829075
 20
133.20723480582
 30
0.0
 11
139.6561949933659
 21
133.2052546612186
 31
0.0
  0
LINE
  5
345
330
E3
100
AcDbEntity
  8
Des_ Furniture
  6
Continuous
100
AcDbLine
 10
139.6561949933659
 20
133.2052546612186
 30
0.0
 11
139.7950856698295
 21
133.20723480582
 31
0.0
  0
LINE
  5
346
330
E3
100
AcDbEntity
  8
Des_ Furniture
  6
Continuous
100
AcDbLine
 10
137.1561953450633
 20
134.2452534414871
 30
0.0
 11
137.2950860215269
 21
134.2432773628911
 31
0.0
  0
LINE
  5
347
330
E3
100
AcDbEntity
  8
Des_ Furniture
  6
Continuous
100
AcDbLine
 10
137.2950860215269
 20
134.2432773628911
 30
0.0
 11
137.4339726319852
 21
134.2373531931084
 31
0.0
  0
LINE
  5
348
330
E3
100
AcDbEntity
  8
Des_ Furniture
  6
Continuous
100
AcDbLine
 10
137.4339726319852
 20
134.2373531931084
 30
0.0
 11
137.5728633084488
 21
134.2275378562138
 31
0.0
  0
LINE
  5
349
330
E3
100
AcDbEntity
  8
Des_ Furniture
  6
Continuous
100
AcDbLine
 10
137.5728633084488
 20
134.2275378562138
 30
0.0
 11
137.7117499189071
 21
134.2138964082927
 31
0.0
  0
LINE
  5
34A
330
E3
100
AcDbEntity
  8
Des_ Furniture
  6
Continuous
100
AcDbLine
 10
137.7117499189071
 20
134.2138964082927
 30
0.0
 11
137.8506405953707
 21
134.1965345654841
 31
0.0
  0
LINE
  5
34B
330
E3
100
AcDbEntity
  8
Des_ Furniture
  6
Continuous
100
AcDbLine
 10
137.8506405953707
 20
134.1965345654841
 30
0.0
 11
137.989527205829
 21
134.1755865059642
 31
0.0
  0
LINE
  5
34C
330
E3
100
AcDbEntity
  8
Des_ Furniture
  6
Continuous
100
AcDbLine
 10
137.989527205829
 20
134.1755865059642
 30
0.0
 11
138.1284178822927
 21
134.1512148699466
 31
0.0
  0
LINE
  5
34D
330
E3
100
AcDbEntity
  8
Des_ Furniture
  6
Continuous
100
AcDbLine
 10
138.1284178822927
 20
134.1512148699466
 30
0.0
 11
138.2673085587563
 21
134.1235985616665
 31
0.0
  0
LINE
  5
34E
330
E3
100
AcDbEntity
  8
Des_ Furniture
  6
Continuous
100
AcDbLine
 10
138.2673085587563
 20
134.1235985616665
 30
0.0
 11
138.4061951692146
 21
134.0929490134015
 31
0.0
  0
LINE
  5
34F
330
E3
100
AcDbEntity
  8
Des_ Furniture
  6
Continuous
100
AcDbLine
 10
138.4061951692146
 20
134.0929490134015
 30
0.0
 11
138.5450858456782
 21
134.0595061194669
 31
0.0
  0
LINE
  5
350
330
E3
100
AcDbEntity
  8
Des_ Furniture
  6
Continuous
100
AcDbLine
 10
138.5450858456782
 20
134.0595061194669
 30
0.0
 11
138.6839724561365
 21
134.0235138401831
 31
0.0
  0
LINE
  5
351
330
E3
100
AcDbEntity
  8
Des_ Furniture
  6
Continuous
100
AcDbLine
 10
138.6839724561365
 20
134.0235138401831
 30
0.0
 11
138.8228631326001
 21
133.985256795924
 31
0.0
  0
LINE
  5
352
330
E3
100
AcDbEntity
  8
Des_ Furniture
  6
Continuous
100
AcDbLine
 10
138.8228631326001
 20
133.985256795924
 30
0.0
 11
138.9617497430584
 21
133.9450155410582
 31
0.0
  0
LINE
  5
353
330
E3
100
AcDbEntity
  8
Des_ Furniture
  6
Continuous
100
AcDbLine
 10
138.9617497430584
 20
133.9450155410582
 30
0.0
 11
139.100640419522
 21
133.9031072240023
 31
0.0
  0
LINE
  5
354
330
E3
100
AcDbEntity
  8
Des_ Furniture
  6
Continuous
100
AcDbLine
 10
139.100640419522
 20
133.9031072240023
 30
0.0
 11
139.2395270299803
 21
133.8598408611624
 31
0.0
  0
LINE
  5
355
330
E3
100
AcDbEntity
  8
Des_ Furniture
  6
Continuous
100
AcDbLine
 10
139.2395270299803
 20
133.8598408611624
 30
0.0
 11
139.3784177064439
 21
133.8155539309817
 31
0.0
  0
LINE
  5
356
330
E3
100
AcDbEntity
  8
Des_ Furniture
  6
Continuous
100
AcDbLine
 10
139.3784177064439
 20
133.8155539309817
 30
0.0
 11
139.5173083829075
 21
133.770575779893
 31
0.0
  0
LINE
  5
357
330
E3
100
AcDbEntity
  8
Des_ Furniture
  6
Continuous
100
AcDbLine
 10
139.5173083829075
 20
133.770575779893
 30
0.0
 11
139.6561949933659
 21
133.7252560843556
 31
0.0
  0
LINE
  5
358
330
E3
100
AcDbEntity
  8
Des_ Furniture
  6
Continuous
100
AcDbLine
 10
139.6561949933659
 20
133.7252560843556
 30
0.0
 11
139.7950856698295
 21
133.6799323228128
 31
0.0
  0
LINE
  5
359
330
E3
100
AcDbEntity
  8
Des_ Furniture
  6
Continuous
100
AcDbLine
 10
139.7950856698295
 20
133.6799323228128
 30
0.0
 11
139.9339722802877
 21
133.6349582377294
 31
0.0
  0
LINE
  5
35A
330
E3
100
AcDbEntity
  8
Des_ Furniture
  6
Continuous
100
AcDbLine
 10
139.9339722802877
 20
133.6349582377294
 30
0.0
 11
140.0728629567514
 21
133.5906672415433
 31
0.0
  0
LINE
  5
35B
330
E3
100
AcDbEntity
  8
Des_ Furniture
  6
Continuous
100
AcDbLine
 10
140.0728629567514
 20
133.5906672415433
 30
0.0
 11
140.2117495672097
 21
133.5474049447087
 31
0.0
  0
LINE
  5
35C
330
E3
100
AcDbEntity
  8
Des_ Furniture
  6
Continuous
100
AcDbLine
 10
140.2117495672097
 20
133.5474049447087
 30
0.0
 11
140.3506402436733
 21
133.5054925616475
 31
0.0
  0
LINE
  5
35D
330
E3
100
AcDbEntity
  8
Des_ Furniture
  6
Continuous
100
AcDbLine
 10
140.3506402436733
 20
133.5054925616475
 30
0.0
 11
140.4895268541316
 21
133.4652553727871
 31
0.0
  0
LINE
  5
35E
330
E3
100
AcDbEntity
  8
Des_ Furniture
  6
Continuous
100
AcDbLine
 10
140.4895268541316
 20
133.4652553727871
 30
0.0
 11
140.6284175305952
 21
133.4269942625227
 31
0.0
  0
LINE
  5
35F
330
E3
100
AcDbEntity
  8
Des_ Furniture
  6
Continuous
100
AcDbLine
 10
140.6284175305952
 20
133.4269942625227
 30
0.0
 11
140.7673082070588
 21
133.3910060492442
 31
0.0
  0
LINE
  5
360
330
E3
100
AcDbEntity
  8
Des_ Furniture
  6
Continuous
100
AcDbLine
 10
140.7673082070588
 20
133.3910060492442
 30
0.0
 11
140.9061948175171
 21
133.3575590893042
 31
0.0
  0
LINE
  5
361
330
E3
100
AcDbEntity
  8
Des_ Furniture
  6
Continuous
100
AcDbLine
 10
132.1561960484582
 20
133.7252560843556
 30
0.0
 11
132.2950826589165
 21
133.6799323228128
 31
0.0
  0
LINE
  5
362
330
E3
100
AcDbEntity
  8
Des_ Furniture
  6
Continuous
100
AcDbLine
 10
132.2950826589165
 20
133.6799323228128
 30
0.0
 11
132.4339733353801
 21
133.6349582377294
 31
0.0
  0
LINE
  5
363
330
E3
100
AcDbEntity
  8
Des_ Furniture
  6
Continuous
100
AcDbLine
 10
132.4339733353801
 20
133.6349582377294
 30
0.0
 11
132.5728640118437
 21
133.5906672415433
 31
0.0
  0
LINE
  5
364
330
E3
100
AcDbEntity
  8
Des_ Furniture
  6
Continuous
100
AcDbLine
 10
132.5728640118437
 20
133.5906672415433
 30
0.0
 11
132.711750622302
 21
133.5474049447087
 31
0.0
  0
LINE
  5
365
330
E3
100
AcDbEntity
  8
Des_ Furniture
  6
Continuous
100
AcDbLine
 10
132.711750622302
 20
133.5474049447087
 30
0.0
 11
132.8506412987657
 21
133.5054925616475
 31
0.0
  0
LINE
  5
366
330
E3
100
AcDbEntity
  8
Des_ Furniture
  6
Continuous
100
AcDbLine
 10
132.8506412987657
 20
133.5054925616475
 30
0.0
 11
132.9895279092239
 21
133.4652553727871
 31
0.0
  0
LINE
  5
367
330
E3
100
AcDbEntity
  8
Des_ Furniture
  6
Continuous
100
AcDbLine
 10
132.9895279092239
 20
133.4652553727871
 30
0.0
 11
133.1284185856875
 21
133.4269942625227
 31
0.0
  0
LINE
  5
368
330
E3
100
AcDbEntity
  8
Des_ Furniture
  6
Continuous
100
AcDbLine
 10
133.1284185856875
 20
133.4269942625227
 30
0.0
 11
133.2673051961458
 21
133.3910060492442
 31
0.0
  0
LINE
  5
369
330
E3
100
AcDbEntity
  8
Des_ Furniture
  6
Continuous
100
AcDbLine
 10
133.2673051961458
 20
133.3910060492442
 30
0.0
 11
133.4061958726095
 21
133.3575590893042
 31
0.0
  0
LINE
  5
36A
330
E3
100
AcDbEntity
  8
Des_ Furniture
  6
Continuous
100
AcDbLine
 10
133.4061958726095
 20
133.3575590893042
 30
0.0
 11
133.5450824830678
 21
133.3269136070446
 31
0.0
  0
LINE
  5
36B
330
E3
100
AcDbEntity
  8
Des_ Furniture
  6
Continuous
100
AcDbLine
 10
133.5450824830678
 20
133.3269136070446
 30
0.0
 11
133.6839731595314
 21
133.2992972987644
 31
0.0
  0
LINE
  5
36C
330
E3
100
AcDbEntity
  8
Des_ Furniture
  6
Continuous
100
AcDbLine
 10
133.6839731595314
 20
133.2992972987644
 30
0.0
 11
133.822863835995
 21
133.2749215967416
 31
0.0
  0
LINE
  5
36D
330
E3
100
AcDbEntity
  8
Des_ Furniture
  6
Continuous
100
AcDbLine
 10
133.822863835995
 20
133.2749215967416
 30
0.0
 11
133.9617504464533
 21
133.2539735372217
 31
0.0
  0
LINE
  5
36E
330
E3
100
AcDbEntity
  8
Des_ Furniture
  6
Continuous
100
AcDbLine
 10
133.9617504464533
 20
133.2539735372217
 30
0.0
 11
134.1006411229169
 21
133.2366157604184
 31
0.0
  0
LINE
  5
36F
330
E3
100
AcDbEntity
  8
Des_ Furniture
  6
Continuous
100
AcDbLine
 10
134.1006411229169
 20
133.2366157604184
 30
0.0
 11
134.2395277333752
 21
133.2229743124973
 31
0.0
  0
LINE
  5
370
330
E3
100
AcDbEntity
  8
Des_ Furniture
  6
Continuous
100
AcDbLine
 10
134.2395277333752
 20
133.2229743124973
 30
0.0
 11
134.3784184098388
 21
133.2131549095974
 31
0.0
  0
LINE
  5
371
330
E3
100
AcDbEntity
  8
Des_ Furniture
  6
Continuous
100
AcDbLine
 10
134.3784184098388
 20
133.2131549095974
 30
0.0
 11
134.5173050202971
 21
133.20723480582
 31
0.0
  0
LINE
  5
372
330
E3
100
AcDbEntity
  8
Des_ Furniture
  6
Continuous
100
AcDbLine
 10
134.5173050202971
 20
133.20723480582
 30
0.0
 11
134.6561956967607
 21
133.2052546612186
 31
0.0
  0
LINE
  5
373
330
E3
100
AcDbEntity
  8
Des_ Furniture
  6
Continuous
100
AcDbLine
 10
134.6561956967607
 20
133.2052546612186
 30
0.0
 11
134.7950863732244
 21
133.20723480582
 31
0.0
  0
LINE
  5
374
330
E3
100
AcDbEntity
  8
Des_ Furniture
  6
Continuous
100
AcDbLine
 10
139.6561949933659
 20
134.2452534414871
 30
0.0
 11
139.7950856698295
 21
134.2432773628911
 31
0.0
  0
LINE
  5
375
330
E3
100
AcDbEntity
  8
Des_ Furniture
  6
Continuous
100
AcDbLine
 10
139.7950856698295
 20
134.2432773628911
 30
0.0
 11
139.9339722802877
 21
134.2373531931084
 31
0.0
  0
LINE
  5
376
330
E3
100
AcDbEntity
  8
Des_ Furniture
  6
Continuous
100
AcDbLine
 10
139.9339722802877
 20
134.2373531931084
 30
0.0
 11
140.0728629567514
 21
134.2275378562138
 31
0.0
  0
LINE
  5
377
330
E3
100
AcDbEntity
  8
Des_ Furniture
  6
Continuous
100
AcDbLine
 10
140.0728629567514
 20
134.2275378562138
 30
0.0
 11
140.2117495672097
 21
134.2138964082927
 31
0.0
  0
LINE
  5
378
330
E3
100
AcDbEntity
  8
Des_ Furniture
  6
Continuous
100
AcDbLine
 10
140.2117495672097
 20
134.2138964082927
 30
0.0
 11
140.3506402436733
 21
134.1965345654841
 31
0.0
  0
LINE
  5
379
330
E3
100
AcDbEntity
  8
Des_ Furniture
  6
Continuous
100
AcDbLine
 10
140.3506402436733
 20
134.1965345654841
 30
0.0
 11
140.4895268541316
 21
134.1755865059642
 31
0.0
  0
LINE
  5
37A
330
E3
100
AcDbEntity
  8
Des_ Furniture
  6
Continuous
100
AcDbLine
 10
140.4895268541316
 20
134.1755865059642
 30
0.0
 11
140.6284175305952
 21
134.1512148699466
 31
0.0
  0
LINE
  5
37B
330
E3
100
AcDbEntity
  8
Des_ Furniture
  6
Continuous
100
AcDbLine
 10
140.6284175305952
 20
134.1512148699466
 30
0.0
 11
140.7673082070588
 21
134.1235985616665
 31
0.0
  0
LINE
  5
37C
330
E3
100
AcDbEntity
  8
Des_ Furniture
  6
Continuous
100
AcDbLine
 10
140.7673082070588
 20
134.1235985616665
 30
0.0
 11
140.9061948175171
 21
134.0929490134015
 31
0.0
  0
HATCH
  5
37D
330
E3
100
AcDbEntity
  8
Des_ Furniture
  6
Continuous
 62
   255
370
     0
100
AcDbHatch
 10
0.0
 20
0.0
 30
0.0
210
0.0
220
0.0
230
1.0
  2
SOLID
 70
     1
 71
     0
 91
        1
 92
        3
 72
     1
 73
     1
 93
        2
 10
143.4993834723937
 20
161.201366460106
 42
0.4999999999999998
 10
141.1026725889827
 20
161.0757601651229
 42
0.0
 97
        0
 75
     0
 76
     1
 98
        0
  0
ARC
  5
37E
330
E3
100
AcDbEntity
  8
Des_ Furniture
  6
Continuous
100
AcDbCircle
 10
142.3481303913069
 20
160.2397967313353
 30
0.0
 40
1.50000000000001
100
AcDbArc
 50
39.86989764584379
 51
146.1301023541549
  0
LINE
  5
37F
330
E3
100
AcDbEntity
  8
Des_ Furniture
  6
Continuous
100
AcDbLine
 10
141.1026723276338
 20
161.0757614632944
 30
0.0
 11
143.4993832422437
 21
161.2013644343017
 31
0.0
  0
HATCH
  5
380
330
E3
100
AcDbEntity
  8
Des_ Furniture
  6
Continuous
 62
   255
370
     0
100
AcDbHatch
 10
0.0
 20
0.0
 30
0.0
210
0.0
220
0.0
230
1.0
  2
SOLID
 70
     1
 71
     0
 91
        1
 92
        3
 72
     0
 73
     1
 93
        4
 10
141.6305035546995
 20
161.7042460214717
 10
141.6380078279231
 20
161.5610559583507
 10
142.9162536324089
 20
161.6280459823416
 10
142.9087493591854
 20
161.7712360454627
 97
        0
 75
     0
 76
     1
 98
        0
  0
LINE
  5
381
330
E3
100
AcDbEntity
  8
Des_ Furniture
  6
Continuous
100
AcDbLine
 10
141.6305048770586
 20
161.7042479749504
 30
0.0
 11
141.6380066569138
 21
161.5610554648354
 31
0.0
  0
LINE
  5
382
330
E3
100
AcDbEntity
  8
Des_ Furniture
  6
Continuous
100
AcDbLine
 10
141.6380066569138
 20
161.5610554648354
 30
0.0
 11
142.9162530201732
 21
161.6280469688436
 31
0.0
  0
LINE
  5
383
330
E3
100
AcDbEntity
  8
Des_ Furniture
  6
Continuous
100
AcDbLine
 10
142.9162530201732
 20
161.6280469688436
 30
0.0
 11
142.9087512403179
 21
161.7712354129533
 31
0.0
  0
LINE
  5
384
330
E3
100
AcDbEntity
  8
Des_ Furniture
  6
Continuous
100
AcDbLine
 10
142.9087512403179
 20
161.7712354129533
 30
0.0
 11
141.6305048770586
 21
161.7042479749504
 31
0.0
  0
HATCH
  5
385
330
E3
100
AcDbEntity
  8
Des_ Furniture
  6
Continuous
 62
   255
370
     0
100
AcDbHatch
 10
0.0
 20
0.0
 30
0.0
210
0.0
220
0.0
230
1.0
  2
SOLID
 70
     1
 71
     0
 91
        1
 92
        3
 72
     1
 73
     1
 93
        4
 10
140.9029466820319
 20
161.0652929738743
 42
0.0
 10
140.9448154470262
 20
160.2663893460706
 42
-0.4285714285714285
 10
143.740978144339
 20
160.412930023551
 42
0.0
 10
143.6991093793446
 20
161.2118336513546
 42
0.0
 97
        0
 75
     0
 76
     1
 98
        0
  0
LINE
  5
386
330
E3
100
AcDbEntity
  8
Des_ Furniture
  6
Continuous
100
AcDbLine
 10
140.9029460792492
 20
161.0652914995398
 30
0.0
 11
140.9448137362516
 21
160.2663905720067
 31
0.0
  0
ARC
  5
387
330
E3
100
AcDbEntity
  8
Des_ Furniture
  6
Continuous
100
AcDbCircle
 10
142.4126780706732
 20
159.0081536384714
 30
0.0
 40
1.933333333333346
100
AcDbArc
 50
46.60281897270549
 51
139.3971810272978
  0
LINE
  5
388
330
E3
100
AcDbEntity
  8
Des_ Furniture
  6
Continuous
100
AcDbLine
 10
143.7409771476308
 20
160.4129294045179
 30
0.0
 11
143.6991094906283
 21
161.2118343980563
 31
0.0
  0
LINE
  5
389
330
E3
100
AcDbEntity
  8
Des_ Furniture
  6
Continuous
100
AcDbLine
 10
143.6991094906283
 20
161.2118343980563
 30
0.0
 11
140.9029460792492
 21
161.0652914995398
 31
0.0
  0
HATCH
  5
38A
330
E3
100
AcDbEntity
  8
Des_ Furniture
  6
Continuous
 62
   255
370
     0
100
AcDbHatch
 10
0.0
 20
0.0
 30
0.0
210
0.0
220
0.0
230
1.0
  2
SOLID
 70
     1
 71
     0
 91
        1
 92
        3
 72
     0
 73
     1
 93
        5
 10
141.9919337708154
 20
160.9220898996657
 10
143.0051578836788
 20
141.5886221068172
 10
143.3582143467958
 20
140.966246710572
 10
143.6442807859218
 20
141.6221171188127
 10
142.6310566730583
 20
160.9555849116614
 97
        0
 75
     0
 76
     1
 98
        0
  0
LINE
  5
38B
330
E3
100
AcDbEntity
  8
Des_ Furniture
  6
Continuous
100
AcDbLine
 10
141.9919320918732
 20
160.922090857414
 30
0.0
 11
143.0051562269672
 21
141.5886217286257
 31
0.0
  0
LINE
  5
38C
330
E3
100
AcDbEntity
  8
Des_ Furniture
  6
Continuous
100
AcDbLine
 10
143.0051562269672
 20
141.5886217286257
 30
0.0
 11
143.3582156027888
 21
140.9662464229981
 31
0.0
  0
LINE
  5
38D
330
E3
100
AcDbEntity
  8
Des_ Furniture
  6
Continuous
100
AcDbLine
 10
143.3582156027888
 20
140.9662464229981
 30
0.0
 11
143.6442794085969
 21
141.6221174806298
 31
0.0
  0
LINE
  5
38E
330
E3
100
AcDbEntity
  8
Des_ Furniture
  6
Continuous
100
AcDbLine
 10
143.6442794085969
 20
141.6221174806298
 30
0.0
 11
142.6310552735029
 21
160.9555866094181
 31
0.0
  0
LINE
  5
38F
330
E3
100
AcDbEntity
  8
Des_ Furniture
  6
Continuous
100
AcDbLine
 10
142.6310552735029
 20
160.9555866094181
 30
0.0
 11
141.9919320918732
 21
160.922090857414
 31
0.0
  0
LINE
  5
390
330
E3
100
AcDbEntity
  8
Des_ Furniture
  6
Continuous
100
AcDbLine
 10
142.8307815218875
 20
160.9660525071674
 30
0.0
 11
142.843345478393
 21
160.6885517086087
 31
0.0
  0
LINE
  5
391
330
E3
100
AcDbEntity
  8
Des_ Furniture
  6
Continuous
100
AcDbLine
 10
142.843345478393
 20
160.6885517086087
 30
0.0
 11
142.8519694757225
 21
160.4108435437776
 31
0.0
  0
LINE
  5
392
330
E3
100
AcDbEntity
  8
Des_ Furniture
  6
Continuous
100
AcDbLine
 10
142.8519694757225
 20
160.4108435437776
 30
0.0
 11
142.8567023059401
 21
160.1329320786795
 31
0.0
  0
LINE
  5
393
330
E3
100
AcDbEntity
  8
Des_ Furniture
  6
Continuous
100
AcDbLine
 10
142.8567023059401
 20
160.1329320786795
 30
0.0
 11
142.857617157142
 21
159.8548213793195
 31
0.0
  0
LINE
  5
394
330
E3
100
AcDbEntity
  8
Des_ Furniture
  6
Continuous
100
AcDbLine
 10
142.857617157142
 20
159.8548213793195
 30
0.0
 11
142.854819745467
 21
159.5765155117032
 31
0.0
  0
LINE
  5
395
330
E3
100
AcDbEntity
  8
Des_ Furniture
  6
Continuous
100
AcDbLine
 10
142.854819745467
 20
159.5765155117032
 30
0.0
 11
142.8484361170807
 21
159.2980226078412
 31
0.0
  0
LINE
  5
396
330
E3
100
AcDbEntity
  8
Des_ Furniture
  6
Continuous
100
AcDbLine
 10
142.8484361170807
 20
159.2980226078412
 30
0.0
 11
142.8386329782021
 21
159.0193507997441
 31
0.0
  0
LINE
  5
397
330
E3
100
AcDbEntity
  8
Des_ Furniture
  6
Continuous
100
AcDbLine
 10
142.8386329782021
 20
159.0193507997441
 30
0.0
 11
142.8255932990716
 21
158.7405082194227
 31
0.0
  0
LINE
  5
398
330
E3
100
AcDbEntity
  8
Des_ Furniture
  6
Continuous
100
AcDbLine
 10
142.8255932990716
 20
158.7405082194227
 30
0.0
 11
142.8095285119669
 21
158.4615070648929
 31
0.0
  0
LINE
  5
399
330
E3
100
AcDbEntity
  8
Des_ Furniture
  6
Continuous
100
AcDbLine
 10
142.8095285119669
 20
158.4615070648929
 30
0.0
 11
142.7906663131873
 21
158.1823595341709
 31
0.0
  0
LINE
  5
39A
330
E3
100
AcDbEntity
  8
Des_ Furniture
  6
Continuous
100
AcDbLine
 10
142.7906663131873
 20
158.1823595341709
 30
0.0
 11
142.7692628610691
 21
157.9030778252726
 31
0.0
  0
LINE
  5
39B
330
E3
100
AcDbEntity
  8
Des_ Furniture
  6
Continuous
100
AcDbLine
 10
142.7692628610691
 20
157.9030778252726
 30
0.0
 11
142.7455905779703
 21
157.6236782022194
 31
0.0
  0
LINE
  5
39C
330
E3
100
AcDbEntity
  8
Des_ Furniture
  6
Continuous
100
AcDbLine
 10
142.7455905779703
 20
157.6236782022194
 30
0.0
 11
142.7199462822809
 21
157.3441769290327
 31
0.0
  0
LINE
  5
39D
330
E3
100
AcDbEntity
  8
Des_ Furniture
  6
Continuous
100
AcDbLine
 10
142.7199462822809
 20
157.3441769290327
 30
0.0
 11
142.692630858396
 21
157.0645862037284
 31
0.0
  0
LINE
  5
39E
330
E3
100
AcDbEntity
  8
Des_ Furniture
  6
Continuous
100
AcDbLine
 10
142.692630858396
 20
157.0645862037284
 30
0.0
 11
142.6639614547324
 21
156.7849263563333
 31
0.0
  0
LINE
  5
39F
330
E3
100
AcDbEntity
  8
Des_ Furniture
  6
Continuous
100
AcDbLine
 10
142.6639614547324
 20
156.7849263563333
 30
0.0
 11
142.6342714837281
 21
156.5052095848635
 31
0.0
  0
LINE
  5
3A0
330
E3
100
AcDbEntity
  8
Des_ Furniture
  6
Continuous
100
AcDbLine
 10
142.6342714837281
 20
156.5052095848635
 30
0.0
 11
142.603894357821
 21
156.2254602853509
 31
0.0
  0
LINE
  5
3A1
330
E3
100
AcDbEntity
  8
Des_ Furniture
  6
Continuous
100
AcDbLine
 10
142.603894357821
 20
156.2254602853509
 30
0.0
 11
142.5731756874652
 21
155.9456906558116
 31
0.0
  0
LINE
  5
3A2
330
E3
100
AcDbEntity
  8
Des_ Furniture
  6
Continuous
100
AcDbLine
 10
142.5731756874652
 20
155.9456906558116
 30
0.0
 11
142.5424529511041
 21
155.6659210262723
 31
0.0
  0
LINE
  5
3A3
330
E3
100
AcDbEntity
  8
Des_ Furniture
  6
Continuous
100
AcDbLine
 10
142.5424529511041
 20
155.6659210262723
 30
0.0
 11
142.512075825197
 21
155.3861717267597
 31
0.0
  0
LINE
  5
3A4
330
E3
100
AcDbEntity
  8
Des_ Furniture
  6
Continuous
100
AcDbLine
 10
142.512075825197
 20
155.3861717267597
 30
0.0
 11
142.4823858541927
 21
155.1064549552898
 31
0.0
  0
LINE
  5
3A5
330
E3
100
AcDbEntity
  8
Des_ Furniture
  6
Continuous
100
AcDbLine
 10
142.4823858541927
 20
155.1064549552898
 30
0.0
 11
142.4537205165344
 21
154.8267951078948
 31
0.0
  0
LINE
  5
3A6
330
E3
100
AcDbEntity
  8
Des_ Furniture
  6
Continuous
100
AcDbLine
 10
142.4537205165344
 20
154.8267951078948
 30
0.0
 11
142.4264050926496
 21
154.5472043825905
 31
0.0
  0
LINE
  5
3A7
330
E3
100
AcDbEntity
  8
Des_ Furniture
  6
Continuous
100
AcDbLine
 10
142.4264050926496
 20
154.5472043825905
 30
0.0
 11
142.4007567309548
 21
154.2676990433984
 31
0.0
  0
LINE
  5
3A8
330
E3
100
AcDbEntity
  8
Des_ Furniture
  6
Continuous
100
AcDbLine
 10
142.4007567309548
 20
154.2676990433984
 30
0.0
 11
142.3770885138613
 21
153.9882994203452
 31
0.0
  0
LINE
  5
3A9
330
E3
100
AcDbEntity
  8
Des_ Furniture
  6
Continuous
100
AcDbLine
 10
142.3770885138613
 20
153.9882994203452
 30
0.0
 11
142.3556850617432
 21
153.7090177114469
 31
0.0
  0
LINE
  5
3AA
330
E3
100
AcDbEntity
  8
Des_ Furniture
  6
Continuous
100
AcDbLine
 10
142.3556850617432
 20
153.7090177114469
 30
0.0
 11
142.3368228629635
 21
153.4298701807249
 31
0.0
  0
LINE
  5
3AB
330
E3
100
AcDbEntity
  8
Des_ Furniture
  6
Continuous
100
AcDbLine
 10
142.3368228629635
 20
153.4298701807249
 30
0.0
 11
142.3207540098535
 21
153.1508730922005
 31
0.0
  0
LINE
  5
3AC
330
E3
100
AcDbEntity
  8
Des_ Furniture
  6
Continuous
100
AcDbLine
 10
142.3207540098535
 20
153.1508730922005
 30
0.0
 11
142.307714330723
 21
152.8720305118791
 31
0.0
  0
LINE
  5
3AD
330
E3
100
AcDbEntity
  8
Des_ Furniture
  6
Continuous
100
AcDbLine
 10
142.307714330723
 20
152.8720305118791
 30
0.0
 11
142.2979111918444
 21
152.5933546377767
 31
0.0
  0
LINE
  5
3AE
330
E3
100
AcDbEntity
  8
Des_ Furniture
  6
Continuous
100
AcDbLine
 10
142.2979111918444
 20
152.5933546377767
 30
0.0
 11
142.2915316294635
 21
152.3148617339147
 31
0.0
  0
LINE
  5
3AF
330
E3
100
AcDbEntity
  8
Des_ Furniture
  6
Continuous
100
AcDbLine
 10
142.2915316294635
 20
152.3148617339147
 30
0.0
 11
142.2887342177884
 21
152.0365558662983
 31
0.0
  0
LINE
  5
3B0
330
E3
100
AcDbEntity
  8
Des_ Furniture
  6
Continuous
100
AcDbLine
 10
142.2887342177884
 20
152.0365558662983
 30
0.0
 11
142.2896490689903
 21
151.7584451669384
 31
0.0
  0
LINE
  5
3B1
330
E3
100
AcDbEntity
  8
Des_ Furniture
  6
Continuous
100
AcDbLine
 10
142.2896490689903
 20
151.7584451669384
 30
0.0
 11
142.2943818992079
 21
151.4805337018402
 31
0.0
  0
LINE
  5
3B2
330
E3
100
AcDbEntity
  8
Des_ Furniture
  6
Continuous
100
AcDbLine
 10
142.2943818992079
 20
151.4805337018402
 30
0.0
 11
142.3030058965374
 21
151.2028296030145
 31
0.0
  0
LINE
  5
3B3
330
E3
100
AcDbEntity
  8
Des_ Furniture
  6
Continuous
100
AcDbLine
 10
142.3030058965374
 20
151.2028296030145
 30
0.0
 11
142.3155657870376
 21
150.9253288044558
 31
0.0
  0
LINE
  5
3B4
330
E3
100
AcDbEntity
  8
Des_ Furniture
  6
Continuous
100
AcDbLine
 10
142.3155657870376
 20
150.9253288044558
 30
0.0
 11
142.3320819007352
 21
150.6480353721695
 31
0.0
  0
LINE
  5
3B5
330
E3
100
AcDbEntity
  8
Des_ Furniture
  6
Continuous
100
AcDbLine
 10
143.092461493662
 20
155.9729044295629
 30
0.0
 11
143.1050254501675
 21
155.6954036310042
 31
0.0
  0
LINE
  5
3B6
330
E3
100
AcDbEntity
  8
Des_ Furniture
  6
Continuous
100
AcDbLine
 10
143.1050254501675
 20
155.6954036310042
 30
0.0
 11
143.113649447497
 21
155.4176954661731
 31
0.0
  0
LINE
  5
3B7
330
E3
100
AcDbEntity
  8
Des_ Furniture
  6
Continuous
100
AcDbLine
 10
143.113649447497
 20
155.4176954661731
 30
0.0
 11
143.1183822777147
 21
155.1397840010749
 31
0.0
  0
LINE
  5
3B8
330
E3
100
AcDbEntity
  8
Des_ Furniture
  6
Continuous
100
AcDbLine
 10
143.1183822777147
 20
155.1397840010749
 30
0.0
 11
143.1192971289165
 21
154.861673301715
 31
0.0
  0
LINE
  5
3B9
330
E3
100
AcDbEntity
  8
Des_ Furniture
  6
Continuous
100
AcDbLine
 10
143.1192971289165
 20
154.861673301715
 30
0.0
 11
143.1164997172415
 21
154.5833674340987
 31
0.0
  0
LINE
  5
3BA
330
E3
100
AcDbEntity
  8
Des_ Furniture
  6
Continuous
100
AcDbLine
 10
143.1164997172415
 20
154.5833674340987
 30
0.0
 11
143.1101160888552
 21
154.3048745302367
 31
0.0
  0
LINE
  5
3BB
330
E3
100
AcDbEntity
  8
Des_ Furniture
  6
Continuous
100
AcDbLine
 10
143.1101160888552
 20
154.3048745302367
 30
0.0
 11
143.1003129499766
 21
154.0262027221396
 31
0.0
  0
LINE
  5
3BC
330
E3
100
AcDbEntity
  8
Des_ Furniture
  6
Continuous
100
AcDbLine
 10
143.1003129499766
 20
154.0262027221396
 30
0.0
 11
143.0872732708461
 21
153.7473601418182
 31
0.0
  0
LINE
  5
3BD
330
E3
100
AcDbEntity
  8
Des_ Furniture
  6
Continuous
100
AcDbLine
 10
143.0872732708461
 20
153.7473601418182
 30
0.0
 11
143.0712084837415
 21
153.4683589872884
 31
0.0
  0
LINE
  5
3BE
330
E3
100
AcDbEntity
  8
Des_ Furniture
  6
Continuous
100
AcDbLine
 10
143.0712084837415
 20
153.4683589872884
 30
0.0
 11
143.0523422189565
 21
153.1892114565665
 31
0.0
  0
LINE
  5
3BF
330
E3
100
AcDbEntity
  8
Des_ Furniture
  6
Continuous
100
AcDbLine
 10
143.0523422189565
 20
153.1892114565665
 30
0.0
 11
143.0309428328436
 21
152.9099297476681
 31
0.0
  0
LINE
  5
3C0
330
E3
100
AcDbEntity
  8
Des_ Furniture
  6
Continuous
100
AcDbLine
 10
143.0309428328436
 20
152.9099297476681
 30
0.0
 11
143.0072705497448
 21
152.6305301246149
 31
0.0
  0
LINE
  5
3C1
330
E3
100
AcDbEntity
  8
Des_ Furniture
  6
Continuous
100
AcDbLine
 10
143.0072705497448
 20
152.6305301246149
 30
0.0
 11
142.9816262540554
 21
152.3510288514281
 31
0.0
  0
LINE
  5
3C2
330
E3
100
AcDbEntity
  8
Des_ Furniture
  6
Continuous
100
AcDbLine
 10
142.9816262540554
 20
152.3510288514281
 30
0.0
 11
142.9543108301706
 21
152.0714381261239
 31
0.0
  0
LINE
  5
3C3
330
E3
100
AcDbEntity
  8
Des_ Furniture
  6
Continuous
100
AcDbLine
 10
142.9543108301706
 20
152.0714381261239
 30
0.0
 11
142.9256414265069
 21
151.7917782787288
 31
0.0
  0
LINE
  5
3C4
330
E3
100
AcDbEntity
  8
Des_ Furniture
  6
Continuous
100
AcDbLine
 10
142.9256414265069
 20
151.7917782787288
 30
0.0
 11
142.8959514555026
 21
151.512061507259
 31
0.0
  0
LINE
  5
3C5
330
E3
100
AcDbEntity
  8
Des_ Furniture
  6
Continuous
100
AcDbLine
 10
142.8959514555026
 20
151.512061507259
 30
0.0
 11
142.8655743295955
 21
151.2323122077464
 31
0.0
  0
LINE
  5
3C6
330
E3
100
AcDbEntity
  8
Des_ Furniture
  6
Continuous
100
AcDbLine
 10
142.8655743295955
 20
151.2323122077464
 30
0.0
 11
142.8348556592398
 21
150.9525425782071
 31
0.0
  0
LINE
  5
3C7
330
E3
100
AcDbEntity
  8
Des_ Furniture
  6
Continuous
100
AcDbLine
 10
142.8348556592398
 20
150.9525425782071
 30
0.0
 11
142.8041329228786
 21
150.6727729486678
 31
0.0
  0
LINE
  5
3C8
330
E3
100
AcDbEntity
  8
Des_ Furniture
  6
Continuous
100
AcDbLine
 10
142.8041329228786
 20
150.6727729486678
 30
0.0
 11
142.7737557969716
 21
150.3930236491552
 31
0.0
  0
LINE
  5
3C9
330
E3
100
AcDbEntity
  8
Des_ Furniture
  6
Continuous
100
AcDbLine
 10
142.7737557969716
 20
150.3930236491552
 30
0.0
 11
142.7440658259672
 21
150.1133068776854
 31
0.0
  0
LINE
  5
3CA
330
E3
100
AcDbEntity
  8
Des_ Furniture
  6
Continuous
100
AcDbLine
 10
142.7440658259672
 20
150.1133068776854
 30
0.0
 11
142.7154004883089
 21
149.8336470302903
 31
0.0
  0
LINE
  5
3CB
330
E3
100
AcDbEntity
  8
Des_ Furniture
  6
Continuous
100
AcDbLine
 10
142.7154004883089
 20
149.8336470302903
 30
0.0
 11
142.6880850644241
 21
149.554056304986
 31
0.0
  0
LINE
  5
3CC
330
E3
100
AcDbEntity
  8
Des_ Furniture
  6
Continuous
100
AcDbLine
 10
142.6880850644241
 20
149.554056304986
 30
0.0
 11
142.6624367027293
 21
149.274550965794
 31
0.0
  0
LINE
  5
3CD
330
E3
100
AcDbEntity
  8
Des_ Furniture
  6
Continuous
100
AcDbLine
 10
142.6624367027293
 20
149.274550965794
 30
0.0
 11
142.6387684856359
 21
148.9951513427407
 31
0.0
  0
LINE
  5
3CE
330
E3
100
AcDbEntity
  8
Des_ Furniture
  6
Continuous
100
AcDbLine
 10
142.6387684856359
 20
148.9951513427407
 30
0.0
 11
142.6173650335177
 21
148.7158736998477
 31
0.0
  0
LINE
  5
3CF
330
E3
100
AcDbEntity
  8
Des_ Furniture
  6
Continuous
100
AcDbLine
 10
142.6173650335177
 20
148.7158736998477
 30
0.0
 11
142.598502834738
 21
148.4367261691257
 31
0.0
  0
LINE
  5
3D0
330
E3
100
AcDbEntity
  8
Des_ Furniture
  6
Continuous
100
AcDbLine
 10
142.598502834738
 20
148.4367261691257
 30
0.0
 11
142.582433981628
 21
148.157725014596
 31
0.0
  0
LINE
  5
3D1
330
E3
100
AcDbEntity
  8
Des_ Furniture
  6
Continuous
100
AcDbLine
 10
142.582433981628
 20
148.157725014596
 30
0.0
 11
142.5693943024976
 21
147.8788824342746
 31
0.0
  0
LINE
  5
3D2
330
E3
100
AcDbEntity
  8
Des_ Furniture
  6
Continuous
100
AcDbLine
 10
142.5693943024976
 20
147.8788824342746
 30
0.0
 11
142.5595911636189
 21
147.6002065601722
 31
0.0
  0
LINE
  5
3D3
330
E3
100
AcDbEntity
  8
Des_ Furniture
  6
Continuous
100
AcDbLine
 10
142.5595911636189
 20
147.6002065601722
 30
0.0
 11
142.553211601238
 21
147.3217136563102
 31
0.0
  0
LINE
  5
3D4
330
E3
100
AcDbEntity
  8
Des_ Furniture
  6
Continuous
100
AcDbLine
 10
142.553211601238
 20
147.3217136563102
 30
0.0
 11
142.550414189563
 21
147.0434077886939
 31
0.0
  0
LINE
  5
3D5
330
E3
100
AcDbEntity
  8
Des_ Furniture
  6
Continuous
100
AcDbLine
 10
142.550414189563
 20
147.0434077886939
 30
0.0
 11
142.5513290407648
 21
146.7652970893339
 31
0.0
  0
LINE
  5
3D6
330
E3
100
AcDbEntity
  8
Des_ Furniture
  6
Continuous
100
AcDbLine
 10
142.5513290407648
 20
146.7652970893339
 30
0.0
 11
142.5560618709824
 21
146.4873856242357
 31
0.0
  0
LINE
  5
3D7
330
E3
100
AcDbEntity
  8
Des_ Furniture
  6
Continuous
100
AcDbLine
 10
142.5560618709824
 20
146.4873856242357
 30
0.0
 11
142.564685868312
 21
146.20968152541
 31
0.0
  0
LINE
  5
3D8
330
E3
100
AcDbEntity
  8
Des_ Furniture
  6
Continuous
100
AcDbLine
 10
142.564685868312
 20
146.20968152541
 30
0.0
 11
142.5772457588122
 21
145.9321807268513
 31
0.0
  0
LINE
  5
3D9
330
E3
100
AcDbEntity
  8
Des_ Furniture
  6
Continuous
100
AcDbLine
 10
142.5772457588122
 20
145.9321807268513
 30
0.0
 11
142.5937618725097
 21
145.654887294565
 31
0.0
  0
LINE
  5
3DA
330
E3
100
AcDbEntity
  8
Des_ Furniture
  6
Continuous
100
AcDbLine
 10
143.3541414654365
 20
150.9797563519584
 30
0.0
 11
143.366705421942
 21
150.7022555533997
 31
0.0
  0
LINE
  5
3DB
330
E3
100
AcDbEntity
  8
Des_ Furniture
  6
Continuous
100
AcDbLine
 10
143.366705421942
 20
150.7022555533997
 30
0.0
 11
143.3753294192716
 21
150.4245473885686
 31
0.0
  0
LINE
  5
3DC
330
E3
100
AcDbEntity
  8
Des_ Furniture
  6
Continuous
100
AcDbLine
 10
143.3753294192716
 20
150.4245473885686
 30
0.0
 11
143.3800622494892
 21
150.1466399894758
 31
0.0
  0
LINE
  5
3DD
330
E3
100
AcDbEntity
  8
Des_ Furniture
  6
Continuous
100
AcDbLine
 10
143.3800622494892
 20
150.1466399894758
 30
0.0
 11
143.3809771006911
 21
149.8685252241105
 31
0.0
  0
LINE
  5
3DE
330
E3
100
AcDbEntity
  8
Des_ Furniture
  6
Continuous
100
AcDbLine
 10
143.3809771006911
 20
149.8685252241105
 30
0.0
 11
143.378179689016
 21
149.5902234224995
 31
0.0
  0
LINE
  5
3DF
330
E3
100
AcDbEntity
  8
Des_ Furniture
  6
Continuous
100
AcDbLine
 10
143.378179689016
 20
149.5902234224995
 30
0.0
 11
143.3717960606297
 21
149.3117264526322
 31
0.0
  0
LINE
  5
3E0
330
E3
100
AcDbEntity
  8
Des_ Furniture
  6
Continuous
100
AcDbLine
 10
143.3717960606297
 20
149.3117264526322
 30
0.0
 11
143.3619929217512
 21
149.0330546445351
 31
0.0
  0
LINE
  5
3E1
330
E3
100
AcDbEntity
  8
Des_ Furniture
  6
Continuous
100
AcDbLine
 10
143.3619929217512
 20
149.0330546445351
 30
0.0
 11
143.3489532426206
 21
148.7542120642137
 31
0.0
  0
LINE
  5
3E2
330
E3
100
AcDbEntity
  8
Des_ Furniture
  6
Continuous
100
AcDbLine
 10
143.3489532426206
 20
148.7542120642137
 30
0.0
 11
143.3328843895106
 21
148.475210909684
 31
0.0
  0
LINE
  5
3E3
330
E3
100
AcDbEntity
  8
Des_ Furniture
  6
Continuous
100
AcDbLine
 10
143.3328843895106
 20
148.475210909684
 30
0.0
 11
143.314022190731
 21
148.1960633789619
 31
0.0
  0
LINE
  5
3E4
330
E3
100
AcDbEntity
  8
Des_ Furniture
  6
Continuous
100
AcDbLine
 10
143.314022190731
 20
148.1960633789619
 30
0.0
 11
143.2926228046182
 21
147.916785736069
 31
0.0
  0
LINE
  5
3E5
330
E3
100
AcDbEntity
  8
Des_ Furniture
  6
Continuous
100
AcDbLine
 10
143.2926228046182
 20
147.916785736069
 30
0.0
 11
143.2689505215194
 21
147.6373861130157
 31
0.0
  0
LINE
  5
3E6
330
E3
100
AcDbEntity
  8
Des_ Furniture
  6
Continuous
100
AcDbLine
 10
143.2689505215194
 20
147.6373861130157
 30
0.0
 11
143.2433062258299
 21
147.3578807738237
 31
0.0
  0
LINE
  5
3E7
330
E3
100
AcDbEntity
  8
Des_ Furniture
  6
Continuous
100
AcDbLine
 10
143.2433062258299
 20
147.3578807738237
 30
0.0
 11
143.2159908019451
 21
147.0782900485194
 31
0.0
  0
LINE
  5
3E8
330
E3
100
AcDbEntity
  8
Des_ Furniture
  6
Continuous
100
AcDbLine
 10
143.2159908019451
 20
147.0782900485194
 30
0.0
 11
143.1873213982815
 21
146.7986302011243
 31
0.0
  0
LINE
  5
3E9
330
E3
100
AcDbEntity
  8
Des_ Furniture
  6
Continuous
100
AcDbLine
 10
143.1873213982815
 20
146.7986302011243
 30
0.0
 11
143.1576314272771
 21
146.5189134296544
 31
0.0
  0
LINE
  5
3EA
330
E3
100
AcDbEntity
  8
Des_ Furniture
  6
Continuous
100
AcDbLine
 10
143.1576314272771
 20
146.5189134296544
 30
0.0
 11
143.12725430137
 21
146.2391641301419
 31
0.0
  0
LINE
  5
3EB
330
E3
100
AcDbEntity
  8
Des_ Furniture
  6
Continuous
100
AcDbLine
 10
143.12725430137
 20
146.2391641301419
 30
0.0
 11
143.0965356310143
 21
145.9593945006026
 31
0.0
  0
LINE
  5
3EC
330
E3
100
AcDbEntity
  8
Des_ Furniture
  6
Continuous
100
AcDbLine
 10
143.0965356310143
 20
145.9593945006026
 30
0.0
 11
143.0658128946532
 21
145.6796248710633
 31
0.0
  0
LINE
  5
3ED
330
E3
100
AcDbEntity
  8
Des_ Furniture
  6
Continuous
100
AcDbLine
 10
143.0658128946532
 20
145.6796248710633
 30
0.0
 11
143.0354357687461
 21
145.3998755715507
 31
0.0
  0
LINE
  5
3EE
330
E3
100
AcDbEntity
  8
Des_ Furniture
  6
Continuous
100
AcDbLine
 10
143.0354357687461
 20
145.3998755715507
 30
0.0
 11
143.0057457977418
 21
145.1201588000808
 31
0.0
  0
LINE
  5
3EF
330
E3
100
AcDbEntity
  8
Des_ Furniture
  6
Continuous
100
AcDbLine
 10
143.0057457977418
 20
145.1201588000808
 30
0.0
 11
142.9770804600835
 21
144.8404989526858
 31
0.0
  0
LINE
  5
3F0
330
E3
100
AcDbEntity
  8
Des_ Furniture
  6
Continuous
100
AcDbLine
 10
142.9770804600835
 20
144.8404989526858
 30
0.0
 11
142.9497650361986
 21
144.5609082273815
 31
0.0
  0
LINE
  5
3F1
330
E3
100
AcDbEntity
  8
Des_ Furniture
  6
Continuous
100
AcDbLine
 10
142.9497650361986
 20
144.5609082273815
 30
0.0
 11
142.9241166745038
 21
144.2814028881894
 31
0.0
  0
LINE
  5
3F2
330
E3
100
AcDbEntity
  8
Des_ Furniture
  6
Continuous
100
AcDbLine
 10
142.9241166745038
 20
144.2814028881894
 30
0.0
 11
142.9004484574104
 21
144.0020032651362
 31
0.0
  0
LINE
  5
3F3
330
E3
100
AcDbEntity
  8
Des_ Furniture
  6
Continuous
100
AcDbLine
 10
142.9004484574104
 20
144.0020032651362
 30
0.0
 11
142.8790450052922
 21
143.7227256222432
 31
0.0
  0
LINE
  5
3F4
330
E3
100
AcDbEntity
  8
Des_ Furniture
  6
Continuous
100
AcDbLine
 10
142.8790450052922
 20
143.7227256222432
 30
0.0
 11
142.8601828065125
 21
143.4435780915213
 31
0.0
  0
LINE
  5
3F5
330
E3
100
AcDbEntity
  8
Des_ Furniture
  6
Continuous
100
AcDbLine
 10
142.8601828065125
 20
143.4435780915213
 30
0.0
 11
142.8441139534025
 21
143.1645769369915
 31
0.0
  0
LINE
  5
3F6
330
E3
100
AcDbEntity
  8
Des_ Furniture
  6
Continuous
100
AcDbLine
 10
142.8441139534025
 20
143.1645769369915
 30
0.0
 11
142.8310742742721
 21
142.8857343566701
 31
0.0
  0
LINE
  5
3F7
330
E3
100
AcDbEntity
  8
Des_ Furniture
  6
Continuous
100
AcDbLine
 10
142.8310742742721
 20
142.8857343566701
 30
0.0
 11
142.8212711353935
 21
142.607062548573
 31
0.0
  0
LINE
  5
3F8
330
E3
100
AcDbEntity
  8
Des_ Furniture
  6
Continuous
100
AcDbLine
 10
142.8212711353935
 20
142.607062548573
 30
0.0
 11
142.8148915730125
 21
142.3285655787056
 31
0.0
  0
LINE
  5
3F9
330
E3
100
AcDbEntity
  8
Des_ Furniture
  6
Continuous
100
AcDbLine
 10
142.8148915730125
 20
142.3285655787056
 30
0.0
 11
142.8120941613375
 21
142.0502597110893
 31
0.0
  0
LINE
  5
3FA
330
E3
100
AcDbEntity
  8
Des_ Furniture
  6
Continuous
100
AcDbLine
 10
142.3114957156907
 20
160.9388387334161
 30
0.0
 11
142.2807729793296
 21
160.6590691038768
 31
0.0
  0
LINE
  5
3FB
330
E3
100
AcDbEntity
  8
Des_ Furniture
  6
Continuous
100
AcDbLine
 10
142.2807729793296
 20
160.6590691038768
 30
0.0
 11
142.2503958534225
 21
160.3793157383589
 31
0.0
  0
LINE
  5
3FC
330
E3
100
AcDbEntity
  8
Des_ Furniture
  6
Continuous
100
AcDbLine
 10
142.2503958534225
 20
160.3793157383589
 30
0.0
 11
142.2207058824182
 21
160.0996030328944
 31
0.0
  0
LINE
  5
3FD
330
E3
100
AcDbEntity
  8
Des_ Furniture
  6
Continuous
100
AcDbLine
 10
142.2207058824182
 20
160.0996030328944
 30
0.0
 11
142.1920405447599
 21
159.8199391194939
 31
0.0
  0
LINE
  5
3FE
330
E3
100
AcDbEntity
  8
Des_ Furniture
  6
Continuous
100
AcDbLine
 10
142.1920405447599
 20
159.8199391194939
 30
0.0
 11
142.1647251208751
 21
159.540352460195
 31
0.0
  0
LINE
  5
3FF
330
E3
100
AcDbEntity
  8
Des_ Furniture
  6
Continuous
100
AcDbLine
 10
142.1647251208751
 20
159.540352460195
 30
0.0
 11
142.1390767591803
 21
159.2608471210029
 31
0.0
  0
LINE
  5
400
330
E3
100
AcDbEntity
  8
Des_ Furniture
  6
Continuous
100
AcDbLine
 10
142.1390767591803
 20
159.2608471210029
 30
0.0
 11
142.1154085420868
 21
158.9814474979497
 31
0.0
  0
LINE
  5
401
330
E3
100
AcDbEntity
  8
Des_ Furniture
  6
Continuous
100
AcDbLine
 10
142.1154085420868
 20
158.9814474979497
 30
0.0
 11
142.0940050899686
 21
158.7021657890514
 31
0.0
  0
LINE
  5
402
330
E3
100
AcDbEntity
  8
Des_ Furniture
  6
Continuous
100
AcDbLine
 10
142.0940050899686
 20
158.7021657890514
 30
0.0
 11
142.075142891189
 21
158.4230182583294
 31
0.0
  0
LINE
  5
403
330
E3
100
AcDbEntity
  8
Des_ Furniture
  6
Continuous
100
AcDbLine
 10
142.075142891189
 20
158.4230182583294
 30
0.0
 11
142.059074038079
 21
158.1440171037997
 31
0.0
  0
LINE
  5
404
330
E3
100
AcDbEntity
  8
Des_ Furniture
  6
Continuous
100
AcDbLine
 10
142.059074038079
 20
158.1440171037997
 30
0.0
 11
142.0460343589485
 21
157.8651745234783
 31
0.0
  0
LINE
  5
405
330
E3
100
AcDbEntity
  8
Des_ Furniture
  6
Continuous
100
AcDbLine
 10
142.0460343589485
 20
157.8651745234783
 30
0.0
 11
142.0362312200699
 21
157.5865027153812
 31
0.0
  0
LINE
  5
406
330
E3
100
AcDbEntity
  8
Des_ Furniture
  6
Continuous
100
AcDbLine
 10
142.0362312200699
 20
157.5865027153812
 30
0.0
 11
142.0298516576889
 21
157.3080098115192
 31
0.0
  0
LINE
  5
407
330
E3
100
AcDbEntity
  8
Des_ Furniture
  6
Continuous
100
AcDbLine
 10
142.0298516576889
 20
157.3080098115192
 30
0.0
 11
142.0270542460139
 21
157.0297039439028
 31
0.0
  0
LINE
  5
408
330
E3
100
AcDbEntity
  8
Des_ Furniture
  6
Continuous
100
AcDbLine
 10
142.0270542460139
 20
157.0297039439028
 30
0.0
 11
142.0279690972158
 21
156.7515932445429
 31
0.0
  0
LINE
  5
409
330
E3
100
AcDbEntity
  8
Des_ Furniture
  6
Continuous
100
AcDbLine
 10
142.0279690972158
 20
156.7515932445429
 30
0.0
 11
142.0327019274334
 21
156.4736817794447
 31
0.0
  0
LINE
  5
40A
330
E3
100
AcDbEntity
  8
Des_ Furniture
  6
Continuous
100
AcDbLine
 10
142.0327019274334
 20
156.4736817794447
 30
0.0
 11
142.0413259247629
 21
156.195977680619
 31
0.0
  0
LINE
  5
40B
330
E3
100
AcDbEntity
  8
Des_ Furniture
  6
Continuous
100
AcDbLine
 10
142.0413259247629
 20
156.195977680619
 30
0.0
 11
142.0538858152631
 21
155.9184768820603
 31
0.0
  0
LINE
  5
40C
330
E3
100
AcDbEntity
  8
Des_ Furniture
  6
Continuous
100
AcDbLine
 10
142.0538858152631
 20
155.9184768820603
 30
0.0
 11
142.0704019289607
 21
155.641183449774
 31
0.0
  0
LINE
  5
40D
330
E3
100
AcDbEntity
  8
Des_ Furniture
  6
Continuous
100
AcDbLine
 10
143.6158214372111
 20
145.9866082743539
 30
0.0
 11
143.6283853937166
 21
145.7091074757952
 31
0.0
  0
LINE
  5
40E
330
E3
100
AcDbEntity
  8
Des_ Furniture
  6
Continuous
100
AcDbLine
 10
143.6283853937166
 20
145.7091074757952
 30
0.0
 11
143.6370093910461
 21
145.4314033769695
 31
0.0
  0
LINE
  5
40F
330
E3
100
AcDbEntity
  8
Des_ Furniture
  6
Continuous
100
AcDbLine
 10
143.6370093910461
 20
145.4314033769695
 30
0.0
 11
143.6417422212637
 21
145.1534919118713
 31
0.0
  0
LINE
  5
410
330
E3
100
AcDbEntity
  8
Des_ Furniture
  6
Continuous
100
AcDbLine
 10
143.6417422212637
 20
145.1534919118713
 30
0.0
 11
143.6426570724656
 21
144.8753812125114
 31
0.0
  0
LINE
  5
411
330
E3
100
AcDbEntity
  8
Des_ Furniture
  6
Continuous
100
AcDbLine
 10
143.6426570724656
 20
144.8753812125114
 30
0.0
 11
143.6398555947852
 21
144.597075344895
 31
0.0
  0
LINE
  5
412
330
E3
100
AcDbEntity
  8
Des_ Furniture
  6
Continuous
100
AcDbLine
 10
143.6398555947852
 20
144.597075344895
 30
0.0
 11
143.6334760324042
 21
144.318582441033
 31
0.0
  0
LINE
  5
413
330
E3
100
AcDbEntity
  8
Des_ Furniture
  6
Continuous
100
AcDbLine
 10
143.6334760324042
 20
144.318582441033
 30
0.0
 11
143.6236728935257
 21
144.0399065669306
 31
0.0
  0
LINE
  5
414
330
E3
100
AcDbEntity
  8
Des_ Furniture
  6
Continuous
100
AcDbLine
 10
143.6236728935257
 20
144.0399065669306
 30
0.0
 11
143.6106332143952
 21
143.7610639866092
 31
0.0
  0
LINE
  5
415
330
E3
100
AcDbEntity
  8
Des_ Furniture
  6
Continuous
100
AcDbLine
 10
143.6106332143952
 20
143.7610639866092
 30
0.0
 11
143.5945643612852
 21
143.4820628320795
 31
0.0
  0
LINE
  5
416
330
E3
100
AcDbEntity
  8
Des_ Furniture
  6
Continuous
100
AcDbLine
 10
143.5945643612852
 20
143.4820628320795
 30
0.0
 11
143.5757021625055
 21
143.2029153013574
 31
0.0
  0
LINE
  5
417
330
E3
100
AcDbEntity
  8
Des_ Furniture
  6
Continuous
100
AcDbLine
 10
143.5757021625055
 20
143.2029153013574
 30
0.0
 11
143.5543027763927
 21
142.9236376584644
 31
0.0
  0
LINE
  5
418
330
E3
100
AcDbEntity
  8
Des_ Furniture
  6
Continuous
100
AcDbLine
 10
143.5543027763927
 20
142.9236376584644
 30
0.0
 11
143.5306304932939
 21
142.6442380354113
 31
0.0
  0
LINE
  5
419
330
E3
100
AcDbEntity
  8
Des_ Furniture
  6
Continuous
100
AcDbLine
 10
143.5306304932939
 20
142.6442380354113
 30
0.0
 11
143.5049861976044
 21
142.3647326962192
 31
0.0
  0
LINE
  5
41A
330
E3
100
AcDbEntity
  8
Des_ Furniture
  6
Continuous
100
AcDbLine
 10
143.5049861976044
 20
142.3647326962192
 30
0.0
 11
143.4776707737196
 21
142.0851419709149
 31
0.0
  0
HATCH
  5
41B
330
E3
100
AcDbEntity
  8
Des_ Furniture
  6
Continuous
 62
   255
370
     0
100
AcDbHatch
 10
0.0
 20
0.0
 30
0.0
210
0.0
220
0.0
230
1.0
  2
SOLID
 70
     1
 71
     0
 91
        1
 92
        3
 72
     0
 73
     1
 93
        6
 10
92.95619547997677
 20
155.4053417271939
 10
96.43175258586682
 20
155.4053417271939
 10
96.49575258586681
 20
155.4693417271939
 10
96.49575258586681
 20
156.5413417271939
 10
96.43175258586682
 20
156.605341727194
 10
92.95619547997677
 20
156.605341727194
 97
        0
 75
     0
 76
     1
 98
        0
  0
LINE
  5
41C
330
E3
100
AcDbEntity
  8
Des_ Furniture
  6
Continuous
100
AcDbLine
 10
92.9561963585874
 20
155.4053429419453
 30
0.0
 11
96.43175266849943
 21
155.4053429419453
 31
0.0
  0
LINE
  5
41D
330
E3
100
AcDbEntity
  8
Des_ Furniture
  6
Continuous
100
AcDbLine
 10
96.43175266849943
 20
155.4053429419453
 30
0.0
 11
96.49575159257617
 21
155.4693418660221
 31
0.0
  0
LINE
  5
41E
330
E3
100
AcDbEntity
  8
Des_ Furniture
  6
Continuous
100
AcDbLine
 10
96.49575159257617
 20
155.4693418660221
 30
0.0
 11
96.49575159257617
 21
156.5413401083289
 31
0.0
  0
LINE
  5
41F
330
E3
100
AcDbEntity
  8
Des_ Furniture
  6
Continuous
100
AcDbLine
 10
96.49575159257617
 20
156.5413401083289
 30
0.0
 11
96.43175266849943
 21
156.605343098411
 31
0.0
  0
LINE
  5
420
330
E3
100
AcDbEntity
  8
Des_ Furniture
  6
Continuous
100
AcDbLine
 10
96.43175266849943
 20
156.605343098411
 30
0.0
 11
92.9561963585874
 21
156.605343098411
 31
0.0
  0
LINE
  5
421
330
E3
100
AcDbEntity
  8
Des_ Furniture
  6
Continuous
100
AcDbLine
 10
92.9561963585874
 20
156.605343098411
 30
0.0
 11
92.9561963585874
 21
155.4053429419453
 31
0.0
  0
LINE
  5
422
330
E3
100
AcDbEntity
  8
Des_ Furniture
  6
Continuous
100
AcDbLine
 10
96.43175266849943
 20
155.4053429419453
 30
0.0
 11
96.43175266849943
 21
156.605343098411
 31
0.0
  0
LINE
  5
423
330
E3
100
AcDbEntity
  8
Des_ Furniture
  6
Continuous
100
AcDbLine
 10
92.9561963585874
 20
155.4053429419453
 30
0.0
 11
92.9561963585874
 21
156.605343098411
 31
0.0
  0
LINE
  5
424
330
E3
100
AcDbEntity
  8
Des_ Furniture
  6
Continuous
100
AcDbLine
 10
93.02019528266418
 20
155.4693418660221
 30
0.0
 11
93.02019528266418
 21
156.5413401083289
 31
0.0
  0
LINE
  5
425
330
E3
100
AcDbEntity
  8
Des_ Furniture
  6
Continuous
100
AcDbLine
 10
93.02019528266418
 20
155.4693418660221
 30
0.0
 11
92.9561963585874
 21
155.4053429419453
 31
0.0
  0
LINE
  5
426
330
E3
100
AcDbEntity
  8
Des_ Furniture
  6
Continuous
100
AcDbLine
 10
93.02019528266418
 20
156.5413401083289
 30
0.0
 11
92.9561963585874
 21
156.605343098411
 31
0.0
  0
LINE
  5
427
330
E3
100
AcDbEntity
  8
Des_ Furniture
  6
Continuous
100
AcDbLine
 10
93.02019528266418
 20
155.4693418660221
 30
0.0
 11
96.49575159257617
 21
155.4693418660221
 31
0.0
  0
LINE
  5
428
330
E3
100
AcDbEntity
  8
Des_ Furniture
  6
Continuous
100
AcDbLine
 10
93.02019528266418
 20
156.5413401083289
 30
0.0
 11
96.49575159257617
 21
156.5413401083289
 31
0.0
  0
HATCH
  5
429
330
E3
100
AcDbEntity
  8
Des_ Furniture
  6
Continuous
 62
   255
370
     0
100
AcDbHatch
 10
0.0
 20
0.0
 30
0.0
210
0.0
220
0.0
230
1.0
  2
SOLID
 70
     1
 71
     0
 91
        1
 92
        3
 72
     0
 73
     1
 93
        4
 10
92.20619547997677
 20
156.7847645905999
 10
92.20619547997677
 20
155.225918863788
 10
92.95619547997677
 20
155.225918863788
 10
92.95619547997677
 20
156.7847645905999
 97
        0
 75
     0
 76
     1
 98
        0
  0
HATCH
  5
42A
330
E3
100
AcDbEntity
  8
Des_ Furniture
  6
Continuous
 62
   255
370
     0
100
AcDbHatch
 10
0.0
 20
0.0
 30
0.0
210
0.0
220
0.0
230
1.0
  2
SOLID
 70
     1
 71
     0
 91
        1
 92
        3
 72
     1
 73
     1
 93
        4
 10
92.33119547997677
 20
156.5249569694647
 42
0.2405626121623441
 10
92.33119547997677
 20
155.4857264849232
 42
0.0
 10
92.95619547997677
 20
155.4857264849232
 42
0.0
 10
92.95619547997677
 20
156.5249569694647
 42
0.0
 97
        0
 75
     0
 76
     1
 98
        0
  0
ARC
  5
42B
330
E3
100
AcDbEntity
  8
Des_ Furniture
  6
Continuous
100
AcDbCircle
 10
93.3486954799769
 20
156.0053417271939
 30
0.0
 40
1.142500000000147
100
AcDbArc
 50
152.9475818795685
 51
207.0524181204314
  0
LINE
  5
42C
330
E3
100
AcDbEntity
  8
Des_ Furniture
  6
Continuous
100
AcDbLine
 10
92.3311944135091
 20
155.4857278675487
 30
0.0
 11
92.9561963585874
 21
155.4857278675487
 31
0.0
  0
LINE
  5
42D
330
E3
100
AcDbEntity
  8
Des_ Furniture
  6
Continuous
100
AcDbLine
 10
92.9561963585874
 20
155.4857278675487
 30
0.0
 11
92.9561963585874
 21
156.5249581728076
 31
0.0
  0
LINE
  5
42E
330
E3
100
AcDbEntity
  8
Des_ Furniture
  6
Continuous
100
AcDbLine
 10
92.9561963585874
 20
156.5249581728076
 30
0.0
 11
92.3311944135091
 21
156.5249581728076
 31
0.0
  0
HATCH
  5
42F
330
E3
100
AcDbEntity
  8
Des_ Furniture
  6
Continuous
 62
   255
370
     0
100
AcDbHatch
 10
0.0
 20
0.0
 30
0.0
210
0.0
220
0.0
230
1.0
  2
SOLID
 70
     1
 71
     0
 91
        1
 92
        3
 72
     1
 73
     1
 93
        4
 10
92.33119547997677
 20
157.0445722117352
 42
0.4811252243246882
 10
92.33119547997677
 20
156.5249569694647
 42
0.0
 10
92.95619547997677
 20
156.5249569694647
 42
0.0
 10
92.95619547997677
 20
157.0445722117352
 42
0.0
 97
        0
 75
     0
 76
     1
 98
        0
  0
ARC
  5
430
330
E3
100
AcDbEntity
  8
Des_ Furniture
  6
Continuous
100
AcDbCircle
 10
92.53869547997671
 20
156.7847645905999
 30
0.0
 40
0.3324999999999052
100
AcDbArc
 50
128.6132381910035
 51
231.3867618089964
  0
LINE
  5
431
330
E3
100
AcDbEntity
  8
Des_ Furniture
  6
Continuous
100
AcDbLine
 10
92.3311944135091
 20
156.5249581728076
 30
0.0
 11
92.9561963585874
 21
156.5249581728076
 31
0.0
  0
LINE
  5
432
330
E3
100
AcDbEntity
  8
Des_ Furniture
  6
Continuous
100
AcDbLine
 10
92.9561963585874
 20
156.5249581728076
 30
0.0
 11
92.9561963585874
 21
157.0445733254371
 31
0.0
  0
LINE
  5
433
330
E3
100
AcDbEntity
  8
Des_ Furniture
  6
Continuous
100
AcDbLine
 10
92.9561963585874
 20
157.0445733254371
 30
0.0
 11
92.3311944135091
 21
157.0445733254371
 31
0.0
  0
HATCH
  5
434
330
E3
100
AcDbEntity
  8
Des_ Furniture
  6
Continuous
 62
   255
370
     0
100
AcDbHatch
 10
0.0
 20
0.0
 30
0.0
210
0.0
220
0.0
230
1.0
  2
SOLID
 70
     1
 71
     0
 91
        1
 92
        3
 72
     1
 73
     1
 93
        4
 10
92.33119547997677
 20
154.9661112426527
 42
0.0
 10
92.95619547997677
 20
154.9661112426527
 42
0.0
 10
92.95619547997677
 20
155.4857264849232
 42
0.0
 10
92.33119547997677
 20
155.4857264849232
 42
0.4811252243246882
 97
        0
 75
     0
 76
     1
 98
        0
  0
LINE
  5
435
330
E3
100
AcDbEntity
  8
Des_ Furniture
  6
Continuous
100
AcDbLine
 10
92.9561963585874
 20
154.9661127149193
 30
0.0
 11
92.3311944135091
 21
154.9661127149193
 31
0.0
  0
LINE
  5
436
330
E3
100
AcDbEntity
  8
Des_ Furniture
  6
Continuous
100
AcDbLine
 10
92.9561963585874
 20
155.4857278675487
 30
0.0
 11
92.9561963585874
 21
154.9661127149193
 31
0.0
  0
LINE
  5
437
330
E3
100
AcDbEntity
  8
Des_ Furniture
  6
Continuous
100
AcDbLine
 10
92.3311944135091
 20
155.4857278675487
 30
0.0
 11
92.9561963585874
 21
155.4857278675487
 31
0.0
  0
ARC
  5
438
330
E3
100
AcDbEntity
  8
Des_ Furniture
  6
Continuous
100
AcDbCircle
 10
92.53869547997671
 20
155.2259188637879
 30
0.0
 40
0.3324999999999052
100
AcDbArc
 50
128.6132381910035
 51
231.3867618089964
  0
HATCH
  5
439
330
E3
100
AcDbEntity
  8
Des_ Furniture
  6
Continuous
 62
   255
370
     0
100
AcDbHatch
 10
0.0
 20
0.0
 30
0.0
210
0.0
220
0.0
230
1.0
  2
SOLID
 70
     1
 71
     0
 91
        1
 92
        3
 72
     0
 73
     1
 93
        4
 10
95.0351523392697
 20
156.7847645905999
 10
95.0351523392697
 20
155.225918863788
 10
96.0751523392697
 20
155.225918863788
 10
96.0751523392697
 20
156.7847645905999
 97
        0
 75
     0
 76
     1
 98
        0
  0
HATCH
  5
43A
330
E3
100
AcDbEntity
  8
Des_ Furniture
  6
Continuous
 62
   255
370
     0
100
AcDbHatch
 10
0.0
 20
0.0
 30
0.0
210
0.0
220
0.0
230
1.0
  2
SOLID
 70
     1
 71
     0
 91
        1
 92
        3
 72
     1
 73
     1
 93
        4
 10
95.20848567260305
 20
156.5249569694647
 42
0.3335801555317839
 10
95.20848567260305
 20
155.4857264849232
 42
0.0
 10
95.90181900593637
 20
155.4857264849232
 42
0.3335801555317839
 10
95.90181900593637
 20
156.5249569694647
 42
0.0
 97
        0
 75
     0
 76
     1
 98
        0
  0
ARC
  5
43B
330
E3
100
AcDbEntity
  8
Des_ Furniture
  6
Continuous
100
AcDbCircle
 10
95.90066515978263
 20
156.0053417271939
 30
0.0
 40
0.8655128205129327
100
AcDbArc
 50
143.1046488728493
 51
216.8953511271507
  0
LINE
  5
43C
330
E3
100
AcDbEntity
  8
Des_ Furniture
  6
Continuous
100
AcDbLine
 10
95.20848682946917
 20
155.4857278675487
 30
0.0
 11
95.90181799431302
 21
155.4857278675487
 31
0.0
  0
ARC
  5
43D
330
E3
100
AcDbEntity
  8
Des_ Furniture
  6
Continuous
100
AcDbCircle
 10
95.2096395187568
 20
156.0053417271939
 30
0.0
 40
0.8655128205129327
100
AcDbArc
 50
323.1046488728493
 51
36.89535112715069
  0
LINE
  5
43E
330
E3
100
AcDbEntity
  8
Des_ Furniture
  6
Continuous
100
AcDbLine
 10
95.90181799431302
 20
156.5249581728076
 30
0.0
 11
95.20848682946917
 21
156.5249581728076
 31
0.0
  0
HATCH
  5
43F
330
E3
100
AcDbEntity
  8
Des_ Furniture
  6
Continuous
 62
   255
370
     0
100
AcDbHatch
 10
0.0
 20
0.0
 30
0.0
210
0.0
220
0.0
230
1.0
  2
SOLID
 70
     1
 71
     0
 91
        1
 92
        3
 72
     1
 73
     1
 93
        4
 10
95.20848567260305
 20
157.0445722117352
 42
0.6671603110635675
 10
95.20848567260305
 20
156.5249569694647
 42
0.0
 10
95.90181900593637
 20
156.5249569694647
 42
0.6671603110635675
 10
95.90181900593637
 20
157.0445722117352
 42
0.0
 97
        0
 75
     0
 76
     1
 98
        0
  0
ARC
  5
440
330
E3
100
AcDbEntity
  8
Des_ Furniture
  6
Continuous
100
AcDbCircle
 10
95.31653054439789
 20
156.7847645905999
 30
0.0
 40
0.2813782051281247
100
AcDbArc
 50
112.5807117678025
 51
247.4192882321975
  0
LINE
  5
441
330
E3
100
AcDbEntity
  8
Des_ Furniture
  6
Continuous
100
AcDbLine
 10
95.20848682946917
 20
156.5249581728076
 30
0.0
 11
95.90181799431302
 21
156.5249581728076
 31
0.0
  0
ARC
  5
442
330
E3
100
AcDbEntity
  8
Des_ Furniture
  6
Continuous
100
AcDbCircle
 10
95.79377413414153
 20
156.7847645905999
 30
0.0
 40
0.2813782051281247
100
AcDbArc
 50
292.5807117678025
 51
67.41928823219756
  0
LINE
  5
443
330
E3
100
AcDbEntity
  8
Des_ Furniture
  6
Continuous
100
AcDbLine
 10
95.90181799431302
 20
157.0445733254371
 30
0.0
 11
95.20848682946917
 21
157.0445733254371
 31
0.0
  0
HATCH
  5
444
330
E3
100
AcDbEntity
  8
Des_ Furniture
  6
Continuous
 62
   255
370
     0
100
AcDbHatch
 10
0.0
 20
0.0
 30
0.0
210
0.0
220
0.0
230
1.0
  2
SOLID
 70
     1
 71
     0
 91
        1
 92
        3
 72
     1
 73
     1
 93
        4
 10
95.20848567260305
 20
154.9661112426527
 42
0.0
 10
95.90181900593637
 20
154.9661112426527
 42
0.6671603110635675
 10
95.90181900593637
 20
155.4857264849232
 42
0.0
 10
95.20848567260305
 20
155.4857264849232
 42
0.6671603110635675
 97
        0
 75
     0
 76
     1
 98
        0
  0
LINE
  5
445
330
E3
100
AcDbEntity
  8
Des_ Furniture
  6
Continuous
100
AcDbLine
 10
95.90181799431302
 20
154.9661127149193
 30
0.0
 11
95.20848682946917
 21
154.9661127149193
 31
0.0
  0
ARC
  5
446
330
E3
100
AcDbEntity
  8
Des_ Furniture
  6
Continuous
100
AcDbCircle
 10
95.79377413414153
 20
155.2259188637879
 30
0.0
 40
0.2813782051281247
100
AcDbArc
 50
292.5807117678025
 51
67.41928823219756
  0
LINE
  5
447
330
E3
100
AcDbEntity
  8
Des_ Furniture
  6
Continuous
100
AcDbLine
 10
95.20848682946917
 20
155.4857278675487
 30
0.0
 11
95.90181799431302
 21
155.4857278675487
 31
0.0
  0
ARC
  5
448
330
E3
100
AcDbEntity
  8
Des_ Furniture
  6
Continuous
100
AcDbCircle
 10
95.31653054439789
 20
155.2259188637879
 30
0.0
 40
0.2813782051281247
100
AcDbArc
 50
112.5807117678025
 51
247.4192882321975
  0
HATCH
  5
449
330
E3
100
AcDbEntity
  8
Des_ Furniture
  6
Continuous
 62
   255
370
     0
100
AcDbHatch
 10
0.0
 20
0.0
 30
0.0
210
0.0
220
0.0
230
1.0
  2
SOLID
 70
     1
 71
     0
 91
        1
 92
        3
 72
     0
 73
     1
 93
        4
 10
93.35619547997679
 20
154.755341727194
 10
93.35619547997679
 20
157.2553417271939
 10
92.95619547997677
 20
157.2553417271939
 10
92.95619547997677
 20
154.755341727194
 97
        0
 75
     0
 76
     1
 98
        0
  0
LINE
  5
44A
330
E3
100
AcDbEntity
  8
Des_ Furniture
  6
Continuous
100
AcDbLine
 10
93.3561937000724
 20
154.7553431960269
 30
0.0
 11
93.3561937000724
 21
157.2553428443294
 31
0.0
  0
LINE
  5
44B
330
E3
100
AcDbEntity
  8
Des_ Furniture
  6
Continuous
100
AcDbLine
 10
93.3561937000724
 20
157.2553428443294
 30
0.0
 11
92.9561963585874
 21
157.2553428443294
 31
0.0
  0
LINE
  5
44C
330
E3
100
AcDbEntity
  8
Des_ Furniture
  6
Continuous
100
AcDbLine
 10
92.9561963585874
 20
157.2553428443294
 30
0.0
 11
92.9561963585874
 21
154.7553431960269
 31
0.0
  0
LINE
  5
44D
330
E3
100
AcDbEntity
  8
Des_ Furniture
  6
Continuous
100
AcDbLine
 10
92.9561963585874
 20
154.7553431960269
 30
0.0
 11
93.3561937000724
 21
154.7553431960269
 31
0.0
  0
HATCH
  5
44E
330
E3
100
AcDbEntity
  8
Des_ Furniture
  6
Continuous
 62
   255
370
     0
100
AcDbHatch
 10
0.0
 20
0.0
 30
0.0
210
0.0
220
0.0
230
1.0
  2
SOLID
 70
     1
 71
     0
 91
        1
 92
        3
 72
     0
 73
     1
 93
        4
 10
94.63515233926971
 20
154.755341727194
 10
95.0351523392697
 20
154.755341727194
 10
95.0351523392697
 20
157.2553417271939
 10
94.63515233926971
 20
157.2553417271939
 97
        0
 75
     0
 76
     1
 98
        0
  0
LINE
  5
44F
330
E3
100
AcDbEntity
  8
Des_ Furniture
  6
Continuous
100
AcDbLine
 10
94.63515161426653
 20
154.7553431960269
 30
0.0
 11
95.03515302175686
 21
154.7553431960269
 31
0.0
  0
LINE
  5
450
330
E3
100
AcDbEntity
  8
Des_ Furniture
  6
Continuous
100
AcDbLine
 10
95.03515302175686
 20
154.7553431960269
 30
0.0
 11
95.03515302175686
 21
157.2553428443294
 31
0.0
  0
LINE
  5
451
330
E3
100
AcDbEntity
  8
Des_ Furniture
  6
Continuous
100
AcDbLine
 10
95.03515302175686
 20
157.2553428443294
 30
0.0
 11
94.63515161426653
 21
157.2553428443294
 31
0.0
  0
LINE
  5
452
330
E3
100
AcDbEntity
  8
Des_ Furniture
  6
Continuous
100
AcDbLine
 10
94.63515161426653
 20
157.2553428443294
 30
0.0
 11
94.63515161426653
 21
154.7553431960269
 31
0.0
  0
LINE
  5
453
330
E3
100
AcDbEntity
  8
Des_ Furniture
  6
Continuous
100
AcDbLine
 10
92.2061972772977
 20
156.7847637161197
 30
0.0
 11
92.2061972772977
 21
155.2259182582313
 31
0.0
  0
LINE
  5
454
330
E3
100
AcDbEntity
  8
Des_ Furniture
  6
Continuous
100
AcDbLine
 10
92.9561963585874
 20
155.2259182582313
 30
0.0
 11
92.9561963585874
 21
156.7847637161197
 31
0.0
  0
LINE
  5
455
330
E3
100
AcDbEntity
  8
Des_ Furniture
  6
Continuous
100
AcDbLine
 10
95.03515302175686
 20
156.7847637161197
 30
0.0
 11
95.03515302175686
 21
155.2259182582313
 31
0.0
  0
LINE
  5
456
330
E3
100
AcDbEntity
  8
Des_ Furniture
  6
Continuous
100
AcDbLine
 10
96.0751518020253
 20
155.2259182582313
 30
0.0
 11
96.0751518020253
 21
156.7847637161197
 31
0.0
  0
LINE
  5
457
330
E3
100
AcDbEntity
  8
Des_ Furniture
  6
Dot & Dashed
100
AcDbLine
 10
91.55619346537391
 20
156.0053430201781
 30
0.0
 11
97.49575307829933
 21
156.0053430201781
 31
0.0
  0
LWPOLYLINE
  5
458
330
E3
100
AcDbEntity
  8
Doc_ Floor
  6
Continuous
100
AcDbPolyline
 90
        4
 70
   128
 43
0.0
 10
178.4220221727383
 20
107.3589787571864
 10
136.5530416778228
 20
107.3589787571864
 10
136.5530416778228
 20
105.3589727223009
 10
178.4220335236286
 20
105.3589727223009
  0
LWPOLYLINE
  5
459
330
E3
100
AcDbEntity
  8
Des_ Furniture
  6
Hidden Line
 62
   251
370
    18
100
AcDbPolyline
 90
        2
 70
   128
 43
0.0
 10
134.9176777133909
 20
147.6231727223009
 10
134.9176777133909
 20
49.55337101996536
  0
LWPOLYLINE
  5
45A
330
E3
100
AcDbEntity
  8
Doc_ Floor
  6
Continuous
100
AcDbPolyline
 90
        2
 70
   128
 43
0.0
 10
133.759148049584
 20
145.3294671712239
 10
133.759148049584
 20
49.55337101996536
  0
LWPOLYLINE
  5
45B
330
E3
100
AcDbEntity
  8
Doc_ Floor
  6
Continuous
100
AcDbPolyline
 90
        2
 70
   128
 43
0.0
 10
125.759148049584
 20
147.6231727223009
 10
125.759148049584
 20
49.55337101996536
  0
LWPOLYLINE
  5
45C
330
E3
100
AcDbEntity
  8
Des_ Furniture
  6
Continuous
 62
   251
370
    18
100
AcDbPolyline
 90
        2
 70
   128
 43
0.0
 10
111.7994731331302
 20
149.4104412758084
 10
111.3119261805994
 20
158.7133963892876
  0
LWPOLYLINE
  5
45D
330
E3
100
AcDbEntity
  8
Des_ Furniture
  6
Continuous
 62
   251
370
    18
100
AcDbPolyline
 90
        2
 70
   128
 43
0.0
 10
111.7994731331302
 20
149.4104412758084
 10
115.8557975022954
 20
150.9515304648111
  0
LWPOLYLINE
  5
45E
330
E3
100
AcDbEntity
  8
Des_ Furniture
  6
Continuous
100
AcDbPolyline
 90
        4
 70
   128
 43
0.0
 10
121.7300398070264
 20
148.0206835839969
 10
161.6752212568441
 20
150.1141206958161
 42
0.7961715683664126
 10
161.6260553294652
 20
150.5085681059997
 10
159.6287253595811
 20
150.4052579351436
  0
LWPOLYLINE
  5
45F
330
E3
100
AcDbEntity
  8
Des_ Furniture
  6
Continuous
100
AcDbPolyline
 90
        2
 70
   128
 43
0.0
 10
121.7300398070264
 20
148.0206835839969
 10
118.006034557928
 20
140.6231727223008
  0
LWPOLYLINE
  5
460
330
E3
100
AcDbEntity
  8
Des_ Furniture
  6
Hidden Line
 62
   251
370
    18
100
AcDbPolyline
 90
        2
 70
   128
 43
0.0
 10
122.3633099675191
 20
150.2206337350713
 10
118.2246794679918
 20
146.3784179187311
  0
LWPOLYLINE
  5
461
330
E3
100
AcDbEntity
  8
Doc_ Floor
  6
Continuous
100
AcDbPolyline
 90
        2
 70
   128
 43
0.0
 10
125.759148049584
 20
147.6231727223009
 10
131.4481445223916
 20
147.6231727223009
  0
LWPOLYLINE
  5
462
330
E3
100
AcDbEntity
  8
Doc_ Floor
  6
Continuous
100
AcDbPolyline
 90
        2
 70
   128
 43
0.0
 10
131.4481445223916
 20
147.6231727223009
 42
-0.4164158239105591
 10
133.759148049584
 20
144.6207976115203
  0
LWPOLYLINE
  5
463
330
E3
100
AcDbEntity
  8
Doc_ Floor
  6
Continuous
100
AcDbPolyline
 90
       12
 70
   129
 43
0.0
 10
133.3561954799768
 20
145.1859438471553
 10
133.3561954799768
 20
130.1859438471552
 42
-0.414213562373095
 10
132.3561954799768
 20
129.1859438471553
 10
94.35619547997676
 20
129.1859438471553
 42
-0.414213562373095
 10
93.35619547997679
 20
130.1859438471552
 10
93.35619547997679
 20
158.1859438471552
 10
94.15619547997677
 20
158.1859438471552
 10
94.15619547997677
 20
130.9859438471551
 42
0.414213562373095
 10
95.15619547997674
 20
129.9859438471552
 10
131.7561954799768
 20
129.9859438471552
 42
0.4142135623730951
 10
132.7561954799768
 20
130.9859438471551
 10
132.7561954799768
 20
145.1859438471553
  0
LWPOLYLINE
  5
464
330
E3
100
AcDbEntity
  8
Doc_ Floor
  6
Continuous
100
AcDbPolyline
 90
        3
 70
   128
 43
0.0
 10
167.6839864991368
 20
165.9214772967317
 10
187.6839864991369
 20
165.9214772967317
 10
167.7113958040454
 20
164.8747581718728
  0
LWPOLYLINE
  5
465
330
E3
100
AcDbEntity
  8
Doc_ Floor
  6
Continuous
100
AcDbPolyline
 90
        2
 70
   128
 43
0.0
 10
169.5596312933457
 20
167.2522212673682
 42
0.1172793849241032
 10
169.7997373482078
 20
163.7005725039369
  0
LINE
  5
466
330
E3
100
AcDbEntity
  8
Doc_ Floor
  6
Continuous
100
AcDbLine
 10
110.7520405113652
 20
180.5963400258924
 30
0.0
 11
111.730040842185
 21
180.5963400258924
 31
0.0
  0
LINE
  5
467
330
E3
100
AcDbEntity
  8
Doc_ Floor
  6
Continuous
100
AcDbLine
 10
111.730040842185
 20
180.5963400258924
 30
0.0
 11
121.7300394353952
 21
180.5963400258924
 31
0.0
  0
LINE
  5
468
330
E3
100
AcDbEntity
  8
Doc_ Floor
  6
Continuous
100
AcDbLine
 10
112.3073892046598
 20
181.5963415116155
 30
0.0
 11
111.1526884137049
 21
179.5963426061745
 31
0.0
  0
LINE
  5
469
330
E3
100
AcDbEntity
  8
Doc_ Floor
  6
Continuous
100
AcDbLine
 10
121.1526910729204
 20
179.5963426061745
 30
0.0
 11
122.3073877978699
 21
181.5963415116155
 31
0.0
  0
LINE
  5
46A
330
E3
100
AcDbEntity
  8
Doc_ Floor
  6
Continuous
100
AcDbLine
 10
121.7300394353952
 20
180.5963400258924
 30
0.0
 11
122.7080397662149
 21
180.5963400258924
 31
0.0
  0
LINE
  5
46B
330
E3
100
AcDbEntity
  8
Doc_ Floor
  6
Continuous
100
AcDbLine
 10
111.730040842185
 20
160.596342839472
 30
0.0
 11
111.730040842185
 21
182.0963422544771
 31
0.0
  0
LINE
  5
46C
330
E3
100
AcDbEntity
  8
Doc_ Floor
  6
Continuous
100
AcDbLine
 10
121.7300394353952
 20
160.596342839472
 30
0.0
 11
121.7300394353952
 21
182.0963422544771
 31
0.0
  0
MTEXT
  5
46D
330
E3
100
AcDbEntity
  8
Doc_ Floor
  6
Continuous
100
AcDbMText
 10
111.4182486464839
 20
182.5830745784067
 30
0.0
 40
2.5
 41
0.0
 71
     7
 72
     1
  1
{50mm}
  7
GENERATED_STYLE_1
 73
     1
 44
1.0
  0
LINE
  5
46E
330
E3
100
AcDbEntity
  8
Doc_ Floor
  6
Continuous
100
AcDbLine
 10
119.7178628439561
 20
167.7283520369437
 30
0.0
 11
120.6945213930131
 21
167.7795349121837
 31
0.0
  0
LINE
  5
46F
330
E3
100
AcDbEntity
  8
Doc_ Floor
  6
Continuous
100
AcDbLine
 10
120.6945213930131
 20
167.7795349121837
 30
0.0
 11
160.6397060138492
 21
169.87297468638
 31
0.0
  0
LINE
  5
470
330
E3
100
AcDbEntity
  8
Doc_ Floor
  6
Continuous
100
AcDbLine
 10
121.2187473957
 20
168.8083806398002
 30
0.0
 11
120.1702994563317
 21
166.7506891845672
 31
0.0
  0
LINE
  5
471
330
E3
100
AcDbEntity
  8
Doc_ Floor
  6
Continuous
100
AcDbLine
 10
160.1154800111624
 20
168.8441289587635
 30
0.0
 11
161.1639279505307
 21
170.9018204139964
 31
0.0
  0
LINE
  5
472
330
E3
100
AcDbEntity
  8
Doc_ Floor
  6
Continuous
100
AcDbLine
 10
160.6397060138492
 20
169.87297468638
 30
0.0
 11
161.6163645629062
 21
169.92415756162
 31
0.0
  0
LINE
  5
473
330
E3
100
AcDbEntity
  8
Doc_ Floor
  6
Continuous
100
AcDbLine
 10
121.2178813365622
 20
157.7932387569747
 30
0.0
 11
120.6160190278829
 21
169.2774797420656
 31
0.0
  0
LINE
  5
474
330
E3
100
AcDbEntity
  8
Doc_ Floor
  6
Continuous
100
AcDbLine
 10
161.1630618913929
 20
159.886678531171
 30
0.0
 11
160.5611995827136
 21
171.3709154502565
 31
0.0
  0
MTEXT
  5
475
330
E3
100
AcDbEntity
  8
Doc_ Floor
  6
Continuous
100
AcDbMText
 10
134.4024443366216
 20
168.998623197228
 30
0.0
 40
2.5
 41
0.0
 71
     7
 72
     1
  1
{125mm}
  7
GENERATED_STYLE_1
 11
0.9986295362454418
 21
0.05233592779548155
 31
0.0
 73
     1
 44
1.0
  0
LINE
  5
476
330
E3
100
AcDbEntity
  8
Doc_ Floor
  6
Continuous
100
AcDbLine
 10
82.01013184051034
 20
139.6451728254757
 30
0.0
 11
82.01013184051034
 21
140.6231731562955
 31
0.0
  0
LINE
  5
477
330
E3
100
AcDbEntity
  8
Doc_ Floor
  6
Continuous
100
AcDbLine
 10
82.01013184051034
 20
140.6231731562955
 30
0.0
 11
82.01013184051034
 21
147.6231713583415
 31
0.0
  0
LINE
  5
478
330
E3
100
AcDbEntity
  8
Doc_ Floor
  6
Continuous
100
AcDbLine
 10
81.01013442079253
 20
141.2005215187702
 30
0.0
 11
83.0101333262335
 21
140.0458207278153
 31
0.0
  0
LINE
  5
479
330
E3
100
AcDbEntity
  8
Doc_ Floor
  6
Continuous
100
AcDbLine
 10
83.0101333262335
 20
147.0458229958667
 30
0.0
 11
81.01013442079253
 21
148.2005237868216
 31
0.0
  0
LINE
  5
47A
330
E3
100
AcDbEntity
  8
Doc_ Floor
  6
Continuous
100
AcDbLine
 10
82.01013184051034
 20
147.6231713583415
 30
0.0
 11
82.01013184051034
 21
148.6011716891613
 31
0.0
  0
LINE
  5
47B
330
E3
100
AcDbEntity
  8
Doc_ Floor
  6
Continuous
100
AcDbLine
 10
112.0101316861463
 20
140.6231731562955
 30
0.0
 11
80.51013367793097
 21
140.6231731562955
 31
0.0
  0
LINE
  5
47C
330
E3
100
AcDbEntity
  8
Doc_ Floor
  6
Continuous
100
AcDbLine
 10
112.0101316861463
 20
147.6231713583415
 30
0.0
 11
80.51013367793097
 21
147.6231713583415
 31
0.0
  0
MTEXT
  5
47E
330
E3
100
AcDbEntity
  8
Doc_ Floor
  6
Continuous
100
AcDbMText
 10
81.5101330832933
 20
142.226022630474
 30
0.0
 40
2.5
 41
0.0
 71
     7
 72
     1
  1
{35}
  7
GENERATED_STYLE_3
 11
6.123233995736766E-17
 21
1.0
 31
0.0
 73
     1
 44
1.0
  0
MTEXT
  5
47F
330
E3
100
AcDbEntity
  8
Doc_ Floor
  6
Continuous
100
AcDbMText
 10
80.06633795336751
 20
183.5074854072053
 30
0.0
 40
2.5
 41
58.53255654718743
 71
     6
 72
     1
  1
{12X55 STEELTEK & NEO WITH SELECTED WASHER SYSTEM, FASTEN EAVES AT EVERY CREST}
  7
GENERATED_STYLE_1
 73
     1
 44
1.065340909090909
  0
LINE
  5
480
330
E3
100
AcDbEntity
  8
Doc_ Floor
  6
Continuous
100
AcDbLine
 10
142.8609756775542
 20
161.8385318673621
 30
0.0
 11
139.4258435927483
 21
163.6071628708501
 31
0.0
  0
LINE
  5
481
330
E3
100
AcDbEntity
  8
Doc_ Floor
  6
Continuous
100
AcDbLine
 10
142.8609756775542
 20
161.8385318673621
 30
0.0
 11
140.7703821070971
 21
165.0877783859661
 31
0.0
  0
LINE
  5
482
330
E3
100
AcDbEntity
  8
Doc_ Floor
  6
Continuous
100
AcDbLine
 10
139.4258435927483
 20
163.6071628708501
 30
0.0
 11
140.7703821070971
 21
165.0877783859661
 31
0.0
  0
LWPOLYLINE
  5
483
330
E3
100
AcDbEntity
  8
Doc_ Floor
  6
Continuous
100
AcDbPolyline
 90
       17
 70
   128
 43
0.0
 10
140.0981129100607
 20
164.3474710093417
 10
137.0518707876524
 20
166.9225885770648
 10
134.0094686781717
 20
169.2827306055839
 10
130.951705327066
 20
171.43463599659
 10
127.8593794797827
 20
173.3850436517738
 10
124.7132898817691
 20
175.1406924728261
 10
121.4942352784726
 20
176.7083213614379
 10
118.1830144153406
 20
178.0946692193
 10
114.7604260378204
 20
179.3064749481032
 10
111.2072688913594
 20
180.3504774495383
 10
107.5043417214049
 20
181.2334156252962
 10
103.6324432734043
 20
181.9620283770678
 10
99.57237229280503
 20
182.5430546065438
 10
95.30492752505431
 20
182.9832332154152
 10
90.8109077155996
 20
183.2893031053728
 10
86.0711116098882
 20
183.4680031781074
 10
81.06633795336751
 20
183.5260723353098
  0
MTEXT
  5
484
330
E3
100
AcDbEntity
  8
Doc_ Floor
  6
Continuous
100
AcDbMText
 10
80.59421343997741
 20
134.8694087934774
 30
0.0
 40
2.5
 41
0.0
 71
     6
 72
     1
  1
{DRIP EDGE}
  7
GENERATED_STYLE_1
 73
     1
 44
1.0
  0
LINE
  5
485
330
E3
100
AcDbEntity
  8
Doc_ Floor
  6
Continuous
100
AcDbLine
 10
111.7994719493981
 20
149.4104409303155
 30
0.0
 11
109.9387825189709
 21
146.0242879458545
 31
0.0
  0
LINE
  5
486
330
E3
100
AcDbEntity
  8
Doc_ Floor
  6
Continuous
100
AcDbLine
 10
111.7994719493981
 20
149.4104409303155
 30
0.0
 11
108.4949928142338
 21
147.4082951740541
 31
0.0
  0
LINE
  5
487
330
E3
100
AcDbEntity
  8
Doc_ Floor
  6
Continuous
100
AcDbLine
 10
109.9387825189709
 20
146.0242879458545
 30
0.0
 11
108.4949928142338
 21
147.4082951740541
 31
0.0
  0
LWPOLYLINE
  5
488
330
E3
100
AcDbEntity
  8
Doc_ Floor
  6
Continuous
100
AcDbPolyline
 90
       13
 70
   128
 43
0.0
 10
109.2168863360316
 20
146.7162914308743
 10
105.9708696074433
 20
143.6800737921949
 10
102.8002430374084
 20
141.1535720724011
 10
101.2221884306718
 20
140.071362133889
 10
99.63776620616177
 20
139.1044581172615
 10
98.03857131140752
 20
138.2488190032398
 10
96.41619869393848
 20
137.5004037725448
 10
94.762243301284
 20
136.8551714058978
 10
93.06830008097346
 20
136.3090808840197
 10
91.3259639805362
 20
135.8580911876317
 10
89.52682994750164
 20
135.4981612974549
 10
85.72454787375797
 20
135.0353168586189
 10
81.59421343997741
 20
134.8882194132806
  0
MTEXT
  5
489
330
E3
100
AcDbEntity
  8
Doc_ Floor
  6
Continuous
100
AcDbMText
 10
80.59421343997741
 20
116.3802205319643
 30
0.0
 40
2.5
 41
0.0
 71
     6
 72
     1
  1
{WALL CLADDING}
  7
GENERATED_STYLE_1
 73
     1
 44
1.0
  0
LINE
  5
48A
330
E3
100
AcDbEntity
  8
Doc_ Floor
  6
Continuous
100
AcDbLine
 10
125.7591498445229
 20
116.3990314825269
 30
0.0
 11
122.0270977196469
 21
115.3990299968037
 31
0.0
  0
LINE
  5
48B
330
E3
100
AcDbEntity
  8
Doc_ Floor
  6
Continuous
100
AcDbLine
 10
125.7591498445229
 20
116.3990314825269
 30
0.0
 11
122.0270977196469
 21
117.3990329682501
 31
0.0
  0
LINE
  5
48C
330
E3
100
AcDbEntity
  8
Doc_ Floor
  6
Continuous
100
AcDbLine
 10
122.0270977196469
 20
115.3990299968037
 30
0.0
 11
122.0270977196469
 21
117.3990329682501
 31
0.0
  0
LWPOLYLINE
  5
48D
330
E3
100
AcDbEntity
  8
Doc_ Floor
  6
Continuous
100
AcDbPolyline
 90
        2
 70
   128
 43
0.0
 10
122.0270980266443
 20
116.3990311517675
 10
81.59421343997741
 20
116.3990311517675
  0
MTEXT
  5
48E
330
E3
100
AcDbEntity
  8
Doc_ Floor
  6
Continuous
100
AcDbMText
 10
221.6963587157066
 20
183.5072617155066
 30
0.0
 40
2.5
 41
0.0
 71
     4
 72
     1
  1
{TRS PROFILED METAL ROOFING}
  7
GENERATED_STYLE_1
 73
     1
 44
1.0
  0
LINE
  5
48F
330
E3
100
AcDbEntity
  8
Doc_ Floor
  6
Continuous
100
AcDbLine
 10
158.9017204926207
 20
161.8385318673621
 30
0.0
 11
160.9923140630779
 21
165.0877783859661
 31
0.0
  0
LINE
  5
490
330
E3
100
AcDbEntity
  8
Doc_ Floor
  6
Continuous
100
AcDbLine
 10
158.9017204926207
 20
161.8385318673621
 30
0.0
 11
162.3368525774266
 21
163.6071628708501
 31
0.0
  0
LINE
  5
491
330
E3
100
AcDbEntity
  8
Doc_ Floor
  6
Continuous
100
AcDbLine
 10
160.9923140630779
 20
165.0877783859661
 30
0.0
 11
162.3368525774266
 21
163.6071628708501
 31
0.0
  0
LWPOLYLINE
  5
492
330
E3
100
AcDbEntity
  8
Doc_ Floor
  6
Continuous
100
AcDbPolyline
 90
       17
 70
   128
 43
0.0
 10
161.6645837590134
 20
164.3474710093417
 10
164.7108258814218
 20
166.9225885770648
 10
167.7532279909025
 20
169.2827306055839
 10
170.8109913420082
 20
171.43463599659
 10
173.9033171892915
 20
173.3850436517738
 10
177.0494067873051
 20
175.1406924728261
 10
180.2684613906015
 20
176.7083213614379
 10
183.5796822537335
 20
178.0946692193
 10
187.0022706312537
 20
179.3064749481032
 10
190.5554277777147
 20
180.3504774495383
 10
194.2583549476692
 20
181.2334156252962
 10
198.1302533956698
 20
181.9620283770678
 10
202.1903243762691
 20
182.5430546065438
 10
206.4577691440198
 20
182.9832332154152
 10
210.9517889534746
 20
183.2893031053728
 10
215.6915850591859
 20
183.4680031781074
 10
220.6963587157066
 20
183.5260723353098
  0
MTEXT
  5
493
330
E3
100
AcDbEntity
  8
Doc_ Floor
  6
Continuous
100
AcDbMText
 10
221.6963587157066
 20
140.7139417725303
 30
0.0
 40
2.500000000000001
 41
48.01923862440946
 71
     4
 72
     1
  1
{ROOFING UNDERLAY LAID OVER SAFETY NETTING}
  7
GENERATED_STYLE_1
 73
     1
 44
1.070162922071087
  0
LINE
  5
494
330
E3
100
AcDbEntity
  8
Doc_ Floor
  6
Continuous
100
AcDbLine
 10
177.71736351113
 20
152.0254719357371
 30
0.0
 11
180.4326012181953
 21
149.2767100146303
 31
0.0
  0
LINE
  5
495
330
E3
100
AcDbEntity
  8
Doc_ Floor
  6
Continuous
100
AcDbLine
 10
177.71736351113
 20
152.0254719357371
 30
0.0
 11
178.6944489907478
 21
148.2873573968968
 31
0.0
  0
LINE
  5
496
330
E3
100
AcDbEntity
  8
Doc_ Floor
  6
Continuous
100
AcDbLine
 10
180.4326012181953
 20
149.2767100146303
 30
0.0
 11
178.6944489907478
 21
148.2873573968968
 31
0.0
  0
LWPOLYLINE
  5
497
330
E3
100
AcDbEntity
  8
Doc_ Floor
  6
Continuous
100
AcDbPolyline
 90
       14
 70
   128
 43
0.0
 10
179.5635247045837
 20
148.7820333425497
 10
180.5412504280881
 20
147.7088482761328
 10
181.6847498040523
 20
146.7239309504006
 10
183.0040163755832
 20
145.8246555649303
 10
184.5090436857878
 20
145.0083963192985
 10
186.209825277773
 20
144.2725274130821
 10
188.1163546946456
 20
143.6144230458581
 10
190.2386254795127
 20
143.0314574172033
 10
192.5866311754811
 20
142.5210047266946
 10
195.1703653256577
 20
142.0804391739088
 10
197.9998214731496
 20
141.7071349584228
 10
204.4358739325064
 20
141.1518073376579
 10
211.9747368984069
 20
140.8340154610145
 10
220.6963587157066
 20
140.7327529251079
  0
MTEXT
  5
498
330
E3
100
AcDbEntity
  8
Doc_ Floor
  6
Continuous
100
AcDbMText
 10
221.795047043441
 20
126.7379515404523
 30
0.0
 40
2.500000000000001
 41
58.53255654718748
 71
     4
 72
     1
  1
{EAVE FLASHING\PHEM TO TOP EDGE}
  7
GENERATED_STYLE_1
 73
     1
 44
1.070162922071087
  0
LINE
  5
499
330
E3
100
AcDbEntity
  8
Doc_ Floor
  6
Continuous
100
AcDbLine
 10
154.1991372887375
 20
149.722315738032
 30
0.0
 11
157.5417636860167
 21
147.7845267143175
 31
0.0
  0
LINE
  5
49A
330
E3
100
AcDbEntity
  8
Doc_ Floor
  6
Continuous
100
AcDbLine
 10
154.1991372887375
 20
149.722315738032
 30
0.0
 11
156.1250413788385
 21
146.3728259237362
 31
0.0
  0
LINE
  5
49B
330
E3
100
AcDbEntity
  8
Doc_ Floor
  6
Continuous
100
AcDbLine
 10
157.5417636860167
 20
147.7845267143175
 30
0.0
 11
156.1250413788385
 21
146.3728259237362
 31
0.0
  0
LWPOLYLINE
  5
49C
330
E3
100
AcDbEntity
  8
Doc_ Floor
  6
Continuous
100
AcDbPolyline
 90
       17
 70
   128
 43
0.0
 10
156.8334031271224
 20
147.078675024362
 10
159.7945299057783
 20
144.3499858743552
 10
162.7972017649476
 20
141.8491029513739
 10
165.8621297864092
 20
139.5688840533211
 10
169.0100250519423
 20
137.5021869780998
 10
172.2615986433256
 20
135.6418695236132
 10
175.6375616423381
 20
133.9807894877644
 10
179.1586251307589
 20
132.5118046684564
 10
182.8455001903668
 20
131.2277728635923
 10
186.7188979029408
 20
130.1215518710752
 10
190.7995293502598
 20
129.1859994888082
 10
195.1081056141028
 20
128.4139735146944
 10
199.6653377762487
 20
127.7983317466367
 10
204.4919369184766
 20
127.3319319825384
 10
209.6086141225653
 20
127.0076320203024
 10
215.0360804702938
 20
126.8182896578319
 10
220.795047043441
 20
126.7567626930299
  0
MTEXT
  5
49D
330
E3
100
AcDbEntity
  8
Doc_ Floor
  6
Continuous
100
AcDbMText
 10
80.59421343997741
 20
103.6450502122033
 30
0.0
 40
2.5
 41
0.0
 71
     6
 72
     1
  1
{WALL UNDERLAY}
  7
GENERATED_STYLE_1
 73
     1
 44
1.0
  0
LINE
  5
49E
330
E3
100
AcDbEntity
  8
Doc_ Floor
  6
Continuous
100
AcDbLine
 10
134.9176764342735
 20
103.6956272577954
 30
0.0
 11
131.1856283754028
 21
102.6956257720722
 31
0.0
  0
LINE
  5
49F
330
E3
100
AcDbEntity
  8
Doc_ Floor
  6
Continuous
100
AcDbLine
 10
134.9176764342735
 20
103.6956272577954
 30
0.0
 11
131.1856283754028
 21
104.6956246775132
 31
0.0
  0
LINE
  5
4A0
330
E3
100
AcDbEntity
  8
Doc_ Floor
  6
Continuous
100
AcDbLine
 10
131.1856283754028
 20
102.6956257720722
 30
0.0
 11
131.1856283754028
 21
104.6956246775132
 31
0.0
  0
LWPOLYLINE
  5
4A1
330
E3
100
AcDbEntity
  8
Doc_ Floor
  6
Continuous
100
AcDbPolyline
 90
        2
 70
   128
 43
0.0
 10
131.1856276995096
 20
103.6956255378888
 10
81.59421343997741
 20
103.6956255378888
  0
MTEXT
  5
4A2
330
E3
100
AcDbEntity
  8
Doc_ Floor
  6
Continuous
100
AcDbMText
 10
116.6776698604717
 20
179.8989807824789
 30
0.0
 40
2.0
 41
0.0
 71
     2
 72
     1
  1
{MIN.\POVERHANG}
  7
GENERATED_STYLE_1
 73
     1
 44
1.069900142653353
  0
MTEXT
  5
4A3
330
E3
100
AcDbEntity
  8
Doc_ Floor
  6
Continuous
100
AcDbMText
 10
163.1831545406943
 20
172.1064374424714
 30
0.0
 40
2.5
 41
0.0
 71
     1
 72
     1
  1
{ROOF PITCH 3° MIN.}
  7
GENERATED_STYLE_1
 73
     1
 44
1.0
  0
MTEXT
  5
4A4
330
E3
100
AcDbEntity
  8
Doc_ Floor
  6
Continuous
100
AcDbMText
 10
83.48002253851782
 20
144.00404344259
 30
0.0
 40
2.0
 41
0.0
 71
     2
 72
     1
  1
{MIN.\PLAP}
  7
GENERATED_STYLE_1
 11
6.123233995736766E-17
 21
1.0
 31
0.0
 73
     1
 44
1.085821426876157
  0
MTEXT
  5
4A5
330
E3
100
AcDbEntity
  8
Doc_ Floor
  6
Continuous
100
AcDbMText
 10
141.2077531399481
 20
167.6560744124608
 30
0.0
 40
2.0
 41
0.0
 71
     2
 72
     1
  1
{MIN. COVER}
  7
GENERATED_STYLE_1
 11
0.9986295347545733
 21
0.05233595624295567
 31
0.0
 73
     1
 44
1.0
  0
HATCH
  5
4A6
330
E3
100
AcDbEntity
  8
Des_ Furniture
  6
Continuous
 62
   255
370
     0
100
AcDbHatch
 10
0.0
 20
0.0
 30
0.0
210
0.0
220
0.0
230
1.0
  2
SOLID
 70
     1
 71
     0
 91
        1
 92
        3
 72
     0
 73
     1
 93
        8
 10
113.7325972649858
 20
58.34945170099938
 10
113.7325972649858
 20
49.55337289340414
 10
202.073276286009
 20
49.55337289340414
 10
202.073276286009
 20
58.34945170099938
 10
159.902937713941
 20
58.34945170099938
 10
158.5696051103137
 20
52.34945091867113
 10
157.2362684406811
 20
64.34945248332762
 10
155.9029358370537
 20
58.34945170099938
 97
        0
 75
     0
 76
     1
 98
        0
  0
LINE
  5
4A7
330
E3
100
AcDbEntity
  8
Des_ Furniture
  6
Continuous
100
AcDbLine
 10
113.7325972649858
 20
58.34945389356594
 30
0.0
 11
155.9029358370537
 21
58.34945389356594
 31
0.0
  0
LINE
  5
4A8
330
E3
100
AcDbEntity
  8
Des_ Furniture
  6
Continuous
100
AcDbLine
 10
159.902937713941
 20
58.34945389356594
 30
0.0
 11
202.073276286009
 21
58.34945389356594
 31
0.0
  0
LINE
  5
4A9
330
E3
100
AcDbEntity
  8
Des_ Furniture
  6
Continuous
100
AcDbLine
 10
159.902937713941
 20
58.34945389356594
 30
0.0
 11
158.5696051103137
 21
52.34945311123769
 31
0.0
  0
LINE
  5
4AA
330
E3
100
AcDbEntity
  8
Des_ Furniture
  6
Continuous
100
AcDbLine
 10
158.5696051103137
 20
52.34945311123769
 30
0.0
 11
157.2362684406811
 21
64.34945060988885
 31
0.0
  0
LINE
  5
4AB
330
E3
100
AcDbEntity
  8
Des_ Furniture
  6
Continuous
100
AcDbLine
 10
157.2362684406811
 20
64.34945060988885
 30
0.0
 11
155.9029358370537
 21
58.34945389356594
 31
0.0
  0
ENDBLK
  5
E5
330
E3
100
AcDbEntity
  8
0
100
AcDbBlockEnd
  0
BLOCK
  5
4B1
330
4B0
100
AcDbEntity
  8
0
100
AcDbBlockBegin
  2
C-TRS9-03 GUTTER FLASHING DETAI_STORY_MARKER
 70
     0
 10
0.0
 20
0.0
 30
0.0
  3
C-TRS9-03 GUTTER FLASHING DETAI_STORY_MARKER
  1

  0
ENDBLK
  5
4B2
330
4B0
100
AcDbEntity
  8
0
100
AcDbBlockEnd
  0
ENDSEC
  0
SECTION
  2
ENTITIES
  0
HATCH
  5
3F
330
1F
100
AcDbEntity
  8
Doc_ Finishes
  6
Continuous
100
AcDbHatch
 10
0.0
 20
0.0
 30
0.0
210
0.0
220
0.0
230
1.0
  2
SOLID
 70
     1
 71
     0
 91
        1
 92
        3
 72
     0
 73
     1
 93
       54
 10
25.4117749414874
 20
16.87044408857867
 10
24.89356552397386
 20
16.5825499677378
 10
24.5480925789648
 20
16.29465584689693
 10
24.12584786839818
 20
16.02595466744544
 10
23.76118198199976
 20
15.60370995687884
 10
23.39651609560134
 20
15.33500877742737
 10
23.07023609198168
 20
14.89357112547136
 10
22.49444785029994
 20
14.45213347351537
 10
21.93785255000758
 20
14.02988876294876
 10
21.43883607388343
 20
13.81876640766546
 10
20.74789018386533
 20
13.39652169709885
 10
20.09533017662603
 20
12.99346992792163
 10
19.63469958328064
 20
12.55203227596564
 10
18.90536781048376
 20
12.12978756539902
 10
18.59828074825351
 20
11.7459287376112
 10
18.04168544796116
 20
11.28529814426581
 10
17.36993249933246
 20
10.8630534336992
 10
16.73656543348255
 20
10.42161578174319
 10
16.04561954346446
 20
10.15291460229172
 10
15.1051654153843
 20
9.692284008946325
 10
14.39502658397681
 20
9.020531060317637
 10
13.83843128368446
 20
8.598286349751023
 10
13.12829245227699
 20
8.137655756405634
 10
12.84039833143612
 20
7.98411222529051
 10
12.37976773809073
 20
7.81137575278599
 10
12.07268067586046
 20
7.523481631945121
 10
12.0151018516923
 20
7.216394569714853
 10
12.14945244141803
 20
6.890114566095209
 10
12.4373465622589
 20
6.563834562475543
 10
12.8787842142149
 20
6.659799269422514
 10
13.51215128006482
 20
7.06285103859973
 10
14.01116775618899
 20
7.389131042219374
 10
14.33744775980864
 20
7.696218104449641
 10
14.51018423231316
 20
7.907340459732938
 10
15.01303929671522
 20
8.421711288968723
 10
15.33548071205699
 20
8.652026585641417
 10
15.75004824606785
 20
8.99749953065046
 10
16.14158425041142
 20
9.204783297655894
 10
17.24709767444037
 20
9.75754000967037
 10
18.23745345013295
 20
10.47151742935572
 10
19.4120614631637
 20
11.1624633193738
 10
19.84966052684182
 20
11.64612544238645
 10
20.49454335752537
 20
12.06069297639732
 10
21.78430901889248
 20
12.9819541630881
 10
22.36009726057419
 20
13.25833251909534
 10
23.6498629219413
 20
14.24868829478776
 10
23.85714668894673
 20
14.64022429913134
 10
24.68628175696843
 20
15.23904407048036
 10
25.28510152831745
 20
15.72270619349301
 10
25.81482671066464
 20
16.1142421978366
 10
26.27545730401003
 20
16.52880973184745
 10
26.22939424467549
 20
16.7821565581874
 10
26.09120506667188
 20
16.89731420652375
 10
25.56147988432467
 20
16.89731420652375
 97
        0
 75
     0
 76
     1
 98
        0
  0
LINE
  5
41
330
1F
100
AcDbEntity
  8
Doc_ Finishes
  6
Continuous
100
AcDbLine
 10
25.41177616050354
 20
16.87044600708104
 30
0.0
 11
24.89356363099921
 21
16.58254868214004
 31
0.0
  0
LINE
  5
42
330
1F
100
AcDbEntity
  8
Doc_ Finishes
  6
Continuous
100
AcDbLine
 10
24.89356363099921
 20
16.58254868214004
 30
0.0
 11
24.54809303697876
 21
16.29465578284815
 31
0.0
  0
LINE
  5
43
330
1F
100
AcDbEntity
  8
Doc_ Finishes
  6
Continuous
100
AcDbLine
 10
24.54809303697876
 20
16.29465578284815
 30
0.0
 11
24.12584628245476
 21
16.02595249803305
 31
0.0
  0
LINE
  5
44
330
1F
100
AcDbEntity
  8
Doc_ Finishes
  6
Continuous
100
AcDbLine
 10
24.12584628245476
 20
16.02595249803305
 30
0.0
 11
23.76118164830842
 21
15.60371016915814
 31
0.0
  0
LINE
  5
45
330
1F
100
AcDbEntity
  8
Doc_ Finishes
  6
Continuous
100
AcDbLine
 10
23.76118164830842
 20
15.60371016915814
 30
0.0
 11
23.39651701416208
 21
15.33500688434304
 31
0.0
  0
LINE
  5
46
330
1F
100
AcDbEntity
  8
Doc_ Finishes
  6
Continuous
100
AcDbLine
 10
23.39651701416208
 20
15.33500688434304
 30
0.0
 11
23.07023603461841
 21
14.89357051534225
 31
0.0
  0
LINE
  5
47
330
1F
100
AcDbEntity
  8
Doc_ Finishes
  6
Continuous
100
AcDbLine
 10
23.07023603461841
 20
14.89357051534225
 30
0.0
 11
22.49444581038552
 21
14.45213414634146
 31
0.0
  0
LINE
  5
48
330
1F
100
AcDbEntity
  8
Doc_ Finishes
  6
Continuous
100
AcDbLine
 10
22.49444581038552
 20
14.45213414634146
 30
0.0
 11
21.93785405192762
 21
14.02988739181747
 31
0.0
  0
LINE
  5
49
330
1F
100
AcDbEntity
  8
Doc_ Finishes
  6
Continuous
100
AcDbLine
 10
21.93785405192762
 20
14.02988739181747
 30
0.0
 11
21.43883556254917
 21
13.81876622738001
 31
0.0
  0
LINE
  5
4A
330
1F
100
AcDbEntity
  8
Doc_ Finishes
  6
Continuous
100
AcDbLine
 10
21.43883556254917
 20
13.81876622738001
 30
0.0
 11
20.74788994885916
 21
13.39652389850511
 31
0.0
  0
LINE
  5
4B
330
1F
100
AcDbEntity
  8
Doc_ Finishes
  6
Continuous
100
AcDbLine
 10
20.74788994885916
 20
13.39652389850511
 30
0.0
 11
20.09532798977183
 21
12.993471184107
 31
0.0
  0
LINE
  5
4C
330
1F
100
AcDbEntity
  8
Doc_ Finishes
  6
Continuous
100
AcDbLine
 10
20.09532798977183
 20
12.993471184107
 30
0.0
 11
19.63469758064516
 21
12.55203038945712
 31
0.0
  0
LINE
  5
4D
330
1F
100
AcDbEntity
  8
Doc_ Finishes
  6
Continuous
100
AcDbLine
 10
19.63469758064516
 20
12.55203038945712
 30
0.0
 11
18.90536831235248
 21
12.12978806058222
 31
0.0
  0
LINE
  5
4E
330
1F
100
AcDbEntity
  8
Doc_ Finishes
  6
Continuous
100
AcDbLine
 10
18.90536831235248
 20
12.12978806058222
 30
0.0
 11
18.5982813729347
 21
11.74592938630999
 31
0.0
  0
LINE
  5
4F
330
1F
100
AcDbEntity
  8
Doc_ Finishes
  6
Continuous
100
AcDbLine
 10
18.5982813729347
 20
11.74592938630999
 30
0.0
 11
18.0416851888277
 21
11.28529897718332
 31
0.0
  0
LINE
  5
50
330
1F
100
AcDbEntity
  8
Doc_ Finishes
  6
Continuous
100
AcDbLine
 10
18.0416851888277
 20
11.28529897718332
 30
0.0
 11
17.36993361526357
 21
10.86305222265932
 31
0.0
  0
LINE
  5
51
330
1F
100
AcDbEntity
  8
Doc_ Finishes
  6
Continuous
100
AcDbLine
 10
17.36993361526357
 20
10.86305222265932
 30
0.0
 11
16.73656569630212
 21
10.42161585365854
 31
0.0
  0
LINE
  5
52
330
1F
100
AcDbEntity
  8
Doc_ Finishes
  6
Continuous
100
AcDbLine
 10
16.73656569630212
 20
10.42161585365854
 30
0.0
 11
16.04562008261211
 21
10.15291256884343
 31
0.0
  0
LINE
  5
53
330
1F
100
AcDbEntity
  8
Doc_ Finishes
  6
Continuous
100
AcDbLine
 10
16.04562008261211
 20
10.15291256884343
 30
0.0
 11
15.10516522423289
 21
9.692282159716758
 31
0.0
  0
LINE
  5
54
330
1F
100
AcDbEntity
  8
Doc_ Finishes
  6
Continuous
100
AcDbLine
 10
15.10516522423289
 20
9.692282159716758
 30
0.0
 11
14.39502557041699
 21
9.020530586152635
 31
0.0
  0
LINE
  5
55
330
1F
100
AcDbEntity
  8
Doc_ Finishes
  6
Continuous
100
AcDbLine
 10
14.39502557041699
 20
9.020530586152635
 30
0.0
 11
13.83842938630999
 21
8.598288257277733
 31
0.0
  0
LINE
  5
56
330
1F
100
AcDbEntity
  8
Doc_ Finishes
  6
Continuous
100
AcDbLine
 10
13.83842938630999
 20
8.598288257277733
 30
0.0
 11
13.12829415814319
 21
8.137657848151063
 31
0.0
  0
LINE
  5
57
330
1F
100
AcDbEntity
  8
Doc_ Finishes
  6
Continuous
100
AcDbLine
 10
13.12829415814319
 20
8.137657848151063
 30
0.0
 11
12.8403968332022
 21
7.984114378442171
 31
0.0
  0
LINE
  5
58
330
1F
100
AcDbEntity
  8
Doc_ Finishes
  6
Continuous
100
AcDbLine
 10
12.8403968332022
 20
7.984114378442171
 30
0.0
 11
12.37976642407553
 21
7.811376868607396
 31
0.0
  0
LINE
  5
59
330
1F
100
AcDbEntity
  8
Doc_ Finishes
  6
Continuous
100
AcDbLine
 10
12.37976642407553
 20
7.811376868607396
 30
0.0
 11
12.07267948465775
 21
7.523479543666405
 31
0.0
  0
LINE
  5
5A
330
1F
100
AcDbEntity
  8
Doc_ Finishes
  6
Continuous
100
AcDbLine
 10
12.07267948465775
 20
7.523479543666405
 30
0.0
 11
12.01510178992919
 21
7.216392604248622
 31
0.0
  0
LINE
  5
5B
330
1F
100
AcDbEntity
  8
Doc_ Finishes
  6
Continuous
100
AcDbLine
 10
12.01510178992919
 20
7.216392604248622
 30
0.0
 11
12.1494512195122
 21
6.890116050354051
 31
0.0
  0
LINE
  5
5C
330
1F
100
AcDbEntity
  8
Doc_ Finishes
  6
Continuous
100
AcDbLine
 10
12.1494512195122
 20
6.890116050354051
 30
0.0
 11
12.43734854445319
 21
6.563835070810386
 31
0.0
  0
LINE
  5
5D
330
1F
100
AcDbEntity
  8
Doc_ Finishes
  6
Continuous
100
AcDbLine
 10
12.43734854445319
 20
6.563835070810386
 30
0.0
 11
12.87878491345397
 21
6.659800845790715
 31
0.0
  0
LINE
  5
5E
330
1F
100
AcDbEntity
  8
Doc_ Finishes
  6
Continuous
100
AcDbLine
 10
12.87878491345397
 20
6.659800845790715
 30
0.0
 11
13.51215283241542
 21
7.062849134539732
 31
0.0
  0
LINE
  5
5F
330
1F
100
AcDbEntity
  8
Doc_ Finishes
  6
Continuous
100
AcDbLine
 10
13.51215283241542
 20
7.062849134539732
 30
0.0
 11
14.01116689614477
 21
7.389130114083398
 31
0.0
  0
LINE
  5
60
330
1F
100
AcDbEntity
  8
Doc_ Finishes
  6
Continuous
100
AcDbLine
 10
14.01116689614477
 20
7.389130114083398
 30
0.0
 11
14.33744787568843
 21
7.69621705350118
 31
0.0
  0
LINE
  5
61
330
1F
100
AcDbEntity
  8
Doc_ Finishes
  6
Continuous
100
AcDbLine
 10
14.33744787568843
 20
7.69621705350118
 30
0.0
 11
14.51018538552321
 21
7.907342643587726
 31
0.0
  0
LINE
  5
62
330
1F
100
AcDbEntity
  8
Doc_ Finishes
  6
Continuous
100
AcDbLine
 10
14.51018538552321
 20
7.907342643587726
 30
0.0
 11
15.01304091266719
 21
8.421709284028323
 31
0.0
  0
LINE
  5
63
330
1F
100
AcDbEntity
  8
Doc_ Finishes
  6
Continuous
100
AcDbLine
 10
15.01304091266719
 20
8.421709284028323
 30
0.0
 11
15.33548042879622
 21
8.65202448859166
 31
0.0
  0
LINE
  5
64
330
1F
100
AcDbEntity
  8
Doc_ Finishes
  6
Continuous
100
AcDbLine
 10
15.33548042879622
 20
8.65202448859166
 30
0.0
 11
15.75004868214005
 21
8.997499508261212
 31
0.0
  0
LINE
  5
65
330
1F
100
AcDbEntity
  8
Doc_ Finishes
  6
Continuous
100
AcDbLine
 10
15.75004868214005
 20
8.997499508261212
 30
0.0
 11
16.14158585759245
 21
9.204783634933122
 31
0.0
  0
LINE
  5
66
330
1F
100
AcDbEntity
  8
Doc_ Finishes
  6
Continuous
100
AcDbLine
 10
16.14158585759245
 20
9.204783634933122
 30
0.0
 11
17.24709972462628
 21
9.75753835562549
 31
0.0
  0
LINE
  5
67
330
1F
100
AcDbEntity
  8
Doc_ Finishes
  6
Continuous
100
AcDbLine
 10
17.24709972462628
 20
9.75753835562549
 30
0.0
 11
18.2374537765539
 21
10.47151947285602
 31
0.0
  0
LINE
  5
68
330
1F
100
AcDbEntity
  8
Doc_ Finishes
  6
Continuous
100
AcDbLine
 10
18.2374537765539
 20
10.47151947285602
 30
0.0
 11
19.41206087726199
 21
11.16246508654602
 31
0.0
  0
LINE
  5
69
330
1F
100
AcDbEntity
  8
Doc_ Finishes
  6
Continuous
100
AcDbLine
 10
19.41206087726199
 20
11.16246508654602
 30
0.0
 11
19.84966020849724
 21
11.64612657356412
 31
0.0
  0
LINE
  5
6A
330
1F
100
AcDbEntity
  8
Doc_ Finishes
  6
Continuous
100
AcDbLine
 10
19.84966020849724
 20
11.64612657356412
 30
0.0
 11
20.4945436664044
 21
12.06069482690795
 31
0.0
  0
LINE
  5
6B
330
1F
100
AcDbEntity
  8
Doc_ Finishes
  6
Continuous
100
AcDbLine
 10
20.4945436664044
 20
12.06069482690795
 30
0.0
 11
21.78431058221873
 21
12.98195564516129
 31
0.0
  0
LINE
  5
6C
330
1F
100
AcDbEntity
  8
Doc_ Finishes
  6
Continuous
100
AcDbLine
 10
21.78431058221873
 20
12.98195564516129
 30
0.0
 11
22.36009638080252
 21
13.25833300550747
 31
0.0
  0
LINE
  5
6D
330
1F
100
AcDbEntity
  8
Doc_ Finishes
  6
Continuous
100
AcDbLine
 10
22.36009638080252
 20
13.25833300550747
 30
0.0
 11
23.64986329661684
 21
14.24868705743509
 31
0.0
  0
LINE
  5
6E
330
1F
100
AcDbEntity
  8
Doc_ Finishes
  6
Continuous
100
AcDbLine
 10
23.64986329661684
 20
14.24868705743509
 30
0.0
 11
23.85714742328875
 21
14.64022423288749
 31
0.0
  0
LINE
  5
6F
330
1F
100
AcDbEntity
  8
Doc_ Finishes
  6
Continuous
100
AcDbLine
 10
23.85714742328875
 20
14.64022423288749
 30
0.0
 11
24.68628392997639
 21
15.2390455350118
 31
0.0
  0
LINE
  5
70
330
1F
100
AcDbEntity
  8
Doc_ Finishes
  6
Continuous
100
AcDbLine
 10
24.68628392997639
 20
15.2390455350118
 30
0.0
 11
25.28510080645161
 21
15.7227070220299
 31
0.0
  0
LINE
  5
71
330
1F
100
AcDbEntity
  8
Doc_ Finishes
  6
Continuous
100
AcDbLine
 10
25.28510080645161
 20
15.7227070220299
 30
0.0
 11
25.81482887490165
 21
16.1142441974823
 31
0.0
  0
LINE
  5
72
330
1F
100
AcDbEntity
  8
Doc_ Finishes
  6
Continuous
100
AcDbLine
 10
25.81482887490165
 20
16.1142441974823
 30
0.0
 11
26.27545928402832
 21
16.52880802517702
 31
0.0
  0
LINE
  5
73
330
1F
100
AcDbEntity
  8
Doc_ Finishes
  6
Continuous
100
AcDbLine
 10
26.27545928402832
 20
16.52880802517702
 30
0.0
 11
26.22939270259638
 21
16.78215873328088
 31
0.0
  0
LINE
  5
74
330
1F
100
AcDbEntity
  8
Doc_ Finishes
  6
Continuous
100
AcDbLine
 10
26.22939270259638
 20
16.78215873328088
 30
0.0
 11
26.09120623524784
 21
16.897314122738
 31
0.0
  0
LINE
  5
75
330
1F
100
AcDbEntity
  8
Doc_ Finishes
  6
Continuous
100
AcDbLine
 10
26.09120623524784
 20
16.897314122738
 30
0.0
 11
25.56147816679779
 21
16.897314122738
 31
0.0
  0
LINE
  5
76
330
1F
100
AcDbEntity
  8
Doc_ Finishes
  6
Continuous
100
AcDbLine
 10
25.56147816679779
 20
16.897314122738
 30
0.0
 11
25.41177616050354
 21
16.87044600708104
 31
0.0
  0
HATCH
  5
77
330
1F
100
AcDbEntity
  8
Doc_ Finishes
  6
Continuous
100
AcDbHatch
 10
0.0
 20
0.0
 30
0.0
210
0.0
220
0.0
230
1.0
  2
SOLID
 70
     1
 71
     0
 91
        1
 92
        3
 72
     0
 73
     1
 93
       39
 10
25.65360600299377
 20
13.12014334109181
 10
25.21600693931564
 20
12.77467039608275
 10
24.54809257896482
 20
12.24494521373555
 10
23.92624127794851
 20
11.85340920939199
 10
23.32742150659951
 20
11.32368402704478
 10
22.72860173525051
 20
11.04730567103754
 10
22.08371890456697
 20
10.56364354802488
 10
21.62308831122158
 20
10.33332825135219
 10
21.231552306878
 20
10.03391836567767
 10
20.81698477286715
 20
9.619350831666825
 10
20.4024172388563
 20
9.38903553499415
 10
19.91875511584363
 20
9.043562589985086
 10
19.66540828950367
 20
8.859310352646935
 10
19.25084075549282
 20
8.582931996639696
 10
18.09926427212933
 20
7.753796928618002
 10
17.75379132712029
 20
7.477418572610764
 10
17.2931607337749
 20
7.316197864939873
 10
17.22406614477309
 20
6.993756449598113
 10
17.3622553227767
 20
6.717378093590874
 10
17.63863367878394
 20
6.602220445254527
 10
18.00713815346025
 20
6.8325357419272
 10
18.26048497980021
 20
7.131945627601722
 10
18.55989486547472
 20
7.362260924274415
 10
19.31993534449462
 20
7.707733869283458
 10
19.84966052684182
 20
8.122301403294307
 10
20.88607936186895
 20
8.882341882314256
 10
21.20852077721072
 20
9.342972475659646
 10
22.01462431556515
 20
9.734508480003234
 10
22.5673810275796
 20
10.05694989534501
 10
23.46561068460312
 20
10.60970660735953
 10
23.88017821861399
 20
11.07033720070492
 10
24.31777728229212
 20
11.34671555671216
 10
24.70931328663568
 20
11.30065249737762
 10
25.21600693931562
 20
11.55399932371759
 10
26.0681735370046
 20
12.17585062473387
 10
26.41364648201364
 20
12.49829204007566
 10
26.39061495234636
 20
12.77467039608289
 10
26.22939424467547
 20
13.00498569275559
 10
26.04514200733731
 20
13.05104875209013
 97
        0
 75
     0
 76
     1
 98
        0
  0
LINE
  5
78
330
1F
100
AcDbEntity
  8
Doc_ Finishes
  6
Continuous
100
AcDbLine
 10
25.65360690401259
 20
13.12014211250983
 30
0.0
 11
25.21600757277734
 21
12.77467151848938
 31
0.0
  0
LINE
  5
79
330
1F
100
AcDbEntity
  8
Doc_ Finishes
  6
Continuous
100
AcDbLine
 10
25.21600757277734
 20
12.77467151848938
 30
0.0
 11
24.54809303697876
 21
12.24494345003934
 31
0.0
  0
LINE
  5
7A
330
1F
100
AcDbEntity
  8
Doc_ Finishes
  6
Continuous
100
AcDbLine
 10
24.54809303697876
 20
12.24494345003934
 30
0.0
 11
23.92624065696302
 21
11.85341070023603
 31
0.0
  0
LINE
  5
7B
330
1F
100
AcDbEntity
  8
Doc_ Finishes
  6
Continuous
100
AcDbLine
 10
23.92624065696302
 20
11.85341070023603
 30
0.0
 11
23.32741935483871
 21
11.32368263178599
 31
0.0
  0
LINE
  5
7C
330
1F
100
AcDbEntity
  8
Doc_ Finishes
  6
Continuous
100
AcDbLine
 10
23.32741935483871
 20
11.32368263178599
 30
0.0
 11
22.72860247836349
 21
11.04730527143981
 31
0.0
  0
LINE
  5
7D
330
1F
100
AcDbEntity
  8
Doc_ Finishes
  6
Continuous
100
AcDbLine
 10
22.72860247836349
 20
11.04730527143981
 30
0.0
 11
22.08371902045633
 21
10.56364378442171
 31
0.0
  0
LINE
  5
7E
330
1F
100
AcDbEntity
  8
Doc_ Finishes
  6
Continuous
100
AcDbLine
 10
22.08371902045633
 20
10.56364378442171
 30
0.0
 11
21.62308861132966
 21
10.33332857985838
 31
0.0
  0
LINE
  5
7F
330
1F
100
AcDbEntity
  8
Doc_ Finishes
  6
Continuous
100
AcDbLine
 10
21.62308861132966
 20
10.33332857985838
 30
0.0
 11
21.23155143587726
 21
10.03392014162077
 31
0.0
  0
LINE
  5
80
330
1F
100
AcDbEntity
  8
Doc_ Finishes
  6
Continuous
100
AcDbLine
 10
21.23155143587726
 20
10.03392014162077
 30
0.0
 11
20.81698318253344
 21
9.619351888276947
 31
0.0
  0
LINE
  5
81
330
1F
100
AcDbEntity
  8
Doc_ Finishes
  6
Continuous
100
AcDbLine
 10
20.81698318253344
 20
9.619351888276947
 30
0.0
 11
20.40241935483871
 21
9.389036683713611
 31
0.0
  0
LINE
  5
82
330
1F
100
AcDbEntity
  8
Doc_ Finishes
  6
Continuous
100
AcDbLine
 10
20.40241935483871
 20
9.389036683713611
 30
0.0
 11
19.91875344217151
 21
9.04356166404406
 31
0.0
  0
LINE
  5
83
330
1F
100
AcDbEntity
  8
Doc_ Finishes
  6
Continuous
100
AcDbLine
 10
19.91875344217151
 20
9.04356166404406
 30
0.0
 11
19.66540715971676
 21
8.859308615263572
 31
0.0
  0
LINE
  5
84
330
1F
100
AcDbEntity
  8
Doc_ Finishes
  6
Continuous
100
AcDbLine
 10
19.66540715971676
 20
8.859308615263572
 30
0.0
 11
19.25083890637293
 21
8.582931254917387
 31
0.0
  0
LINE
  5
85
330
1F
100
AcDbEntity
  8
Doc_ Finishes
  6
Continuous
100
AcDbLine
 10
19.25083890637293
 20
8.582931254917387
 30
0.0
 11
18.09926288355625
 21
7.75379474822974
 31
0.0
  0
LINE
  5
86
330
1F
100
AcDbEntity
  8
Doc_ Finishes
  6
Continuous
100
AcDbLine
 10
18.09926288355625
 20
7.75379474822974
 30
0.0
 11
17.7537922895358
 21
7.477417387883556
 31
0.0
  0
LINE
  5
87
330
1F
100
AcDbEntity
  8
Doc_ Finishes
  6
Continuous
100
AcDbLine
 10
17.7537922895358
 20
7.477417387883556
 30
0.0
 11
17.29316188040913
 21
7.316199842643588
 31
0.0
  0
LINE
  5
88
330
1F
100
AcDbEntity
  8
Doc_ Finishes
  6
Continuous
100
AcDbLine
 10
17.29316188040913
 20
7.316199842643588
 30
0.0
 11
17.22406422108576
 21
6.993755900865461
 31
0.0
  0
LINE
  5
89
330
1F
100
AcDbEntity
  8
Doc_ Finishes
  6
Continuous
100
AcDbLine
 10
17.22406422108576
 20
6.993755900865461
 30
0.0
 11
17.3622551140834
 21
6.717378540519276
 31
0.0
  0
LINE
  5
8A
330
1F
100
AcDbEntity
  8
Doc_ Finishes
  6
Continuous
100
AcDbLine
 10
17.3622551140834
 20
6.717378540519276
 30
0.0
 11
17.63863247442958
 21
6.602218725413059
 31
0.0
  0
LINE
  5
8B
330
1F
100
AcDbEntity
  8
Doc_ Finishes
  6
Continuous
100
AcDbLine
 10
17.63863247442958
 20
6.602218725413059
 30
0.0
 11
18.00713857199056
 21
6.832533929976396
 31
0.0
  0
LINE
  5
8C
330
1F
100
AcDbEntity
  8
Doc_ Finishes
  6
Continuous
100
AcDbLine
 10
18.00713857199056
 20
6.832533929976396
 30
0.0
 11
18.26048485444532
 21
7.1319467938631
 31
0.0
  0
LINE
  5
8D
330
1F
100
AcDbEntity
  8
Doc_ Finishes
  6
Continuous
100
AcDbLine
 10
18.26048485444532
 20
7.1319467938631
 30
0.0
 11
18.55989329268293
 21
7.362261998426435
 31
0.0
  0
LINE
  5
8E
330
1F
100
AcDbEntity
  8
Doc_ Finishes
  6
Continuous
100
AcDbLine
 10
18.55989329268293
 20
7.362261998426435
 30
0.0
 11
19.3199365656963
 21
7.707732592446892
 31
0.0
  0
LINE
  5
8F
330
1F
100
AcDbEntity
  8
Doc_ Finishes
  6
Continuous
100
AcDbLine
 10
19.3199365656963
 20
7.707732592446892
 30
0.0
 11
19.84966020849724
 21
8.122300845790717
 31
0.0
  0
LINE
  5
90
330
1F
100
AcDbEntity
  8
Doc_ Finishes
  6
Continuous
100
AcDbLine
 10
19.84966020849724
 20
8.122300845790717
 30
0.0
 11
20.8860808418568
 21
8.882339693154996
 31
0.0
  0
LINE
  5
91
330
1F
100
AcDbEntity
  8
Doc_ Finishes
  6
Continuous
100
AcDbLine
 10
20.8860808418568
 20
8.882339693154996
 30
0.0
 11
21.20852035798584
 21
9.342974527930762
 31
0.0
  0
LINE
  5
92
330
1F
100
AcDbEntity
  8
Doc_ Finishes
  6
Continuous
100
AcDbLine
 10
21.20852035798584
 20
9.342974527930762
 30
0.0
 11
22.01462578678206
 21
9.734507277734066
 31
0.0
  0
LINE
  5
93
330
1F
100
AcDbEntity
  8
Doc_ Finishes
  6
Continuous
100
AcDbLine
 10
22.01462578678206
 20
9.734507277734066
 30
0.0
 11
22.56738050747443
 21
10.05695121951219
 31
0.0
  0
LINE
  5
94
330
1F
100
AcDbEntity
  8
Doc_ Finishes
  6
Continuous
100
AcDbLine
 10
22.56738050747443
 20
10.05695121951219
 30
0.0
 11
23.46561024783635
 21
10.60970594020456
 31
0.0
  0
LINE
  5
95
330
1F
100
AcDbEntity
  8
Doc_ Finishes
  6
Continuous
100
AcDbLine
 10
23.46561024783635
 20
10.60970594020456
 30
0.0
 11
23.88017850118017
 21
11.07033634933124
 31
0.0
  0
LINE
  5
96
330
1F
100
AcDbEntity
  8
Doc_ Finishes
  6
Continuous
100
AcDbLine
 10
23.88017850118017
 20
11.07033634933124
 30
0.0
 11
24.31777783241542
 21
11.34671370967742
 31
0.0
  0
LINE
  5
97
330
1F
100
AcDbEntity
  8
Doc_ Finishes
  6
Continuous
100
AcDbLine
 10
24.31777783241542
 20
11.34671370967742
 30
0.0
 11
24.70931500786781
 21
11.30065155389457
 31
0.0
  0
LINE
  5
98
330
1F
100
AcDbEntity
  8
Doc_ Finishes
  6
Continuous
100
AcDbLine
 10
24.70931500786781
 20
11.30065155389457
 30
0.0
 11
25.21600757277734
 21
11.55399783634933
 31
0.0
  0
LINE
  5
99
330
1F
100
AcDbEntity
  8
Doc_ Finishes
  6
Continuous
100
AcDbLine
 10
25.21600757277734
 20
11.55399783634933
 30
0.0
 11
26.06817515735641
 21
12.17585021636507
 31
0.0
  0
LINE
  5
9A
330
1F
100
AcDbEntity
  8
Doc_ Finishes
  6
Continuous
100
AcDbLine
 10
26.06817515735641
 20
12.17585021636507
 30
0.0
 11
26.41364575137687
 21
12.49829415814319
 31
0.0
  0
LINE
  5
9B
330
1F
100
AcDbEntity
  8
Doc_ Finishes
  6
Continuous
100
AcDbLine
 10
26.41364575137687
 20
12.49829415814319
 30
0.0
 11
26.39061467348544
 21
12.77467151848938
 31
0.0
  0
LINE
  5
9C
330
1F
100
AcDbEntity
  8
Doc_ Finishes
  6
Continuous
100
AcDbLine
 10
26.39061467348544
 20
12.77467151848938
 30
0.0
 11
26.22939270259638
 21
13.00498672305271
 31
0.0
  0
LINE
  5
9D
330
1F
100
AcDbEntity
  8
Doc_ Finishes
  6
Continuous
100
AcDbLine
 10
26.22939270259638
 20
13.00498672305271
 30
0.0
 11
26.04514407946499
 21
13.05104887883556
 31
0.0
  0
LINE
  5
9E
330
1F
100
AcDbEntity
  8
Doc_ Finishes
  6
Continuous
100
AcDbLine
 10
26.04514407946499
 20
13.05104887883556
 30
0.0
 11
25.65360690401259
 21
13.12014211250983
 31
0.0
  0
HATCH
  5
9F
330
1F
100
AcDbEntity
  8
Doc_ Finishes
  6
Continuous
100
AcDbHatch
 10
0.0
 20
0.0
 30
0.0
210
0.0
220
0.0
230
1.0
  2
SOLID
 70
     1
 71
     0
 91
        1
 92
        3
 72
     0
 73
     1
 93
       47
 10
26.06817353700455
 20
15.74573772316067
 10
26.30309513961077
 20
15.62136746295728
 10
26.4412843176144
 20
15.4002647781515
 10
26.93876535842742
 20
15.17916209334572
 10
27.82317609765057
 20
14.40530269652538
 10
28.9286895216795
 20
13.74199464210799
 10
29.59199757609689
 20
13.3827027792986
 10
30.20002995931278
 20
13.07868658769064
 10
31.55428390374827
 20
12.08372450606458
 10
32.07940278016201
 20
11.69679480765445
 10
32.88090001258301
 20
11.08876242443854
 10
33.59948373820179
 20
10.50836787682334
 10
34.5668079842271
 20
9.817421986805197
 10
35.06428902504011
 20
9.458130123995785
 10
35.81051058625965
 20
8.933011247582023
 10
36.61200781868061
 20
8.407892371168286
 10
36.77783483228498
 20
8.186789686362482
 10
37.38586721550091
 20
7.744584316750918
 10
38.18736444792187
 20
6.915449248729224
 10
38.7953968311378
 20
6.44560604351692
 10
39.56925622795804
 20
6.169227687509681
 10
40.23256428237543
 20
6.086314180707507
 10
40.48130480278193
 20
6.30741686551329
 10
40.14965077557326
 20
6.611433057121246
 10
39.48634272115586
 20
6.998362755531397
 10
38.76775899553708
 20
7.357654618340788
 10
38.18736444792187
 20
8.048600508358874
 10
36.99893751709078
 20
8.822459905179112
 10
36.47381864067705
 20
9.319940945992132
 10
36.22507812027052
 20
9.734508480003
 10
35.174840367443
 20
10.31490302761817
 10
34.73263499783144
 20
10.78474623283046
 10
34.2351539570184
 20
11.17167593124059
 10
33.48893239579888
 20
11.61388130085215
 10
32.85326217698223
 20
12.16663801286669
 10
32.35578113616918
 20
12.58120554687754
 10
31.69247308175183
 20
12.99577308088841
 10
31.22262987653952
 20
13.32742710809708
 10
30.7251488357265
 20
13.5761676285036
 10
29.93747052110587
 20
14.06443605744977
 10
29.43077686842594
 20
14.38687747279155
 10
28.92408321574601
 20
14.70931888813342
 10
28.62467333007151
 20
15.100854892477
 10
27.95675896972068
 20
15.67664313415887
 10
27.47309684670803
 20
15.9530214901661
 10
26.82821401602446
 20
16.36758902417695
 10
26.50577260068269
 20
16.22939984617334
 97
        0
 75
     0
 76
     1
 98
        0
  0
LINE
  5
A0
330
1F
100
AcDbEntity
  8
Doc_ Finishes
  6
Continuous
100
AcDbLine
 10
26.30309303697875
 20
15.62136850904799
 30
0.0
 11
26.06817515735641
 21
15.74573809992132
 31
0.0
  0
LINE
  5
A1
330
1F
100
AcDbEntity
  8
Doc_ Finishes
  6
Continuous
100
AcDbLine
 10
26.4412839299764
 20
15.40026308025177
 30
0.0
 11
26.30309303697875
 21
15.62136850904799
 31
0.0
  0
LINE
  5
A2
330
1F
100
AcDbEntity
  8
Doc_ Finishes
  6
Continuous
100
AcDbLine
 10
26.9387667191188
 20
15.17916207710464
 30
0.0
 11
26.4412839299764
 21
15.40026308025177
 31
0.0
  0
LINE
  5
A3
330
1F
100
AcDbEntity
  8
Doc_ Finishes
  6
Continuous
100
AcDbLine
 10
27.82317515735641
 20
14.40530192761605
 30
0.0
 11
26.9387667191188
 21
15.17916207710464
 31
0.0
  0
LINE
  5
A4
330
1F
100
AcDbEntity
  8
Doc_ Finishes
  6
Continuous
100
AcDbLine
 10
28.92868902439024
 20
13.74199449252557
 30
0.0
 11
27.82317515735641
 21
14.40530192761605
 31
0.0
  0
LINE
  5
A5
330
1F
100
AcDbEntity
  8
Doc_ Finishes
  6
Continuous
100
AcDbLine
 10
29.59199645948072
 20
13.3827025963808
 30
0.0
 11
28.92868902439024
 21
13.74199449252557
 31
0.0
  0
LINE
  5
A6
330
1F
100
AcDbEntity
  8
Doc_ Finishes
  6
Continuous
100
AcDbLine
 10
30.20003196302124
 20
13.07868705743509
 30
0.0
 11
29.59199645948072
 21
13.3827025963808
 31
0.0
  0
LINE
  5
A7
330
1F
100
AcDbEntity
  8
Doc_ Finishes
  6
Continuous
100
AcDbLine
 10
31.55428501180173
 20
12.08372590479937
 30
0.0
 11
30.20003196302124
 21
13.07868705743509
 31
0.0
  0
LINE
  5
A8
330
1F
100
AcDbEntity
  8
Doc_ Finishes
  6
Continuous
100
AcDbLine
 10
32.07940155389457
 20
11.69679583005508
 30
0.0
 11
31.55428501180173
 21
12.08372590479937
 31
0.0
  0
LINE
  5
A9
330
1F
100
AcDbEntity
  8
Doc_ Finishes
  6
Continuous
100
AcDbLine
 10
32.88089988198269
 20
11.08876032651456
 30
0.0
 11
32.07940155389457
 21
11.69679583005508
 31
0.0
  0
LINE
  5
AA
330
1F
100
AcDbEntity
  8
Doc_ Finishes
  6
Continuous
100
AcDbLine
 10
33.59948367427223
 20
10.50836742722266
 30
0.0
 11
32.88089988198269
 21
11.08876032651456
 31
0.0
  0
LINE
  5
AB
330
1F
100
AcDbEntity
  8
Doc_ Finishes
  6
Continuous
100
AcDbLine
 10
34.56680664830842
 20
9.817421813532652
 30
0.0
 11
33.59948367427223
 21
10.50836742722266
 31
0.0
  0
LINE
  5
AC
330
1F
100
AcDbEntity
  8
Doc_ Finishes
  6
Continuous
100
AcDbLine
 10
35.06428943745082
 20
9.458129917387884
 30
0.0
 11
34.56680664830842
 21
9.817421813532652
 31
0.0
  0
LINE
  5
AD
330
1F
100
AcDbEntity
  8
Doc_ Finishes
  6
Continuous
100
AcDbLine
 10
35.81051140833988
 20
8.933013375295044
 30
0.0
 11
35.06428943745082
 21
9.458129917387884
 31
0.0
  0
LINE
  5
AE
330
1F
100
AcDbEntity
  8
Doc_ Finishes
  6
Continuous
100
AcDbLine
 10
36.61200973642801
 20
8.407892407553108
 30
0.0
 11
35.81051140833988
 21
8.933013375295044
 31
0.0
  0
LINE
  5
AF
330
1F
100
AcDbEntity
  8
Doc_ Finishes
  6
Continuous
100
AcDbLine
 10
36.77783438237608
 20
8.18679140440598
 30
0.0
 11
36.61200973642801
 21
8.407892407553108
 31
0.0
  0
LINE
  5
B0
330
1F
100
AcDbEntity
  8
Doc_ Finishes
  6
Continuous
100
AcDbLine
 10
37.38586546026751
 20
7.744584972462627
 30
0.0
 11
36.77783438237608
 21
8.18679140440598
 31
0.0
  0
LINE
  5
B1
330
1F
100
AcDbEntity
  8
Doc_ Finishes
  6
Continuous
100
AcDbLine
 10
38.18736378835562
 20
6.915448465774981
 30
0.0
 11
37.38586546026751
 21
7.744584972462627
 31
0.0
  0
LINE
  5
B2
330
1F
100
AcDbEntity
  8
Doc_ Finishes
  6
Continuous
100
AcDbLine
 10
38.79539486624704
 20
6.4456038552321
 30
0.0
 11
38.18736378835562
 21
6.915448465774981
 31
0.0
  0
LINE
  5
B3
330
1F
100
AcDbEntity
  8
Doc_ Finishes
  6
Continuous
100
AcDbLine
 10
39.56925501573564
 20
6.169226494885916
 30
0.0
 11
38.79539486624704
 21
6.4456038552321
 31
0.0
  0
LINE
  5
B4
330
1F
100
AcDbEntity
  8
Doc_ Finishes
  6
Continuous
100
AcDbLine
 10
40.23256245082612
 20
6.086316384736428
 30
0.0
 11
39.56925501573564
 21
6.169226494885916
 31
0.0
  0
LINE
  5
B5
330
1F
100
AcDbEntity
  8
Doc_ Finishes
  6
Continuous
100
AcDbLine
 10
40.48130605822187
 20
6.307417387883556
 30
0.0
 11
40.23256245082612
 21
6.086316384736428
 31
0.0
  0
LINE
  5
B6
330
1F
100
AcDbEntity
  8
Doc_ Finishes
  6
Continuous
100
AcDbLine
 10
40.14965234067663
 20
6.611432926829268
 30
0.0
 11
40.48130605822187
 21
6.307417387883556
 31
0.0
  0
LINE
  5
B7
330
1F
100
AcDbEntity
  8
Doc_ Finishes
  6
Continuous
100
AcDbLine
 10
39.48634490558615
 20
6.998363001573564
 30
0.0
 11
40.14965234067663
 21
6.611432926829268
 31
0.0
  0
LINE
  5
B8
330
1F
100
AcDbEntity
  8
Doc_ Finishes
  6
Continuous
100
AcDbLine
 10
38.76776111329661
 20
7.357654897718332
 30
0.0
 11
39.48634490558615
 21
6.998363001573564
 31
0.0
  0
LINE
  5
B9
330
1F
100
AcDbEntity
  8
Doc_ Finishes
  6
Continuous
100
AcDbLine
 10
38.18736378835562
 20
8.048600511408338
 30
0.0
 11
38.76776111329661
 21
7.357654897718332
 31
0.0
  0
LINE
  5
BA
330
1F
100
AcDbEntity
  8
Doc_ Finishes
  6
Continuous
100
AcDbLine
 10
36.9989353855232
 20
8.822460660896931
 30
0.0
 11
38.18736378835562
 21
8.048600511408338
 31
0.0
  0
LINE
  5
BB
330
1F
100
AcDbEntity
  8
Doc_ Finishes
  6
Continuous
100
AcDbLine
 10
36.47381884343037
 20
9.319939024390242
 30
0.0
 11
36.9989353855232
 21
8.822460660896931
 31
0.0
  0
LINE
  5
BC
330
1F
100
AcDbEntity
  8
Doc_ Finishes
  6
Continuous
100
AcDbLine
 10
36.22507966168371
 20
9.734507277734066
 30
0.0
 11
36.47381884343037
 21
9.319939024390242
 31
0.0
  0
LINE
  5
BD
330
1F
100
AcDbEntity
  8
Doc_ Finishes
  6
Continuous
100
AcDbLine
 10
35.17484215184894
 20
10.31490460267506
 30
0.0
 11
36.22507966168371
 21
9.734507277734066
 31
0.0
  0
LINE
  5
BE
330
1F
100
AcDbEntity
  8
Doc_ Finishes
  6
Continuous
100
AcDbLine
 10
34.73263571990559
 20
10.78474478756884
 30
0.0
 11
35.17484215184894
 21
10.31490460267506
 31
0.0
  0
LINE
  5
BF
330
1F
100
AcDbEntity
  8
Doc_ Finishes
  6
Continuous
100
AcDbLine
 10
34.23515293076317
 20
11.17167486231314
 30
0.0
 11
34.73263571990559
 21
10.78474478756884
 31
0.0
  0
LINE
  5
C0
330
1F
100
AcDbEntity
  8
Doc_ Finishes
  6
Continuous
100
AcDbLine
 10
33.48893095987412
 20
11.61388129425649
 30
0.0
 11
34.23515293076317
 21
11.17167486231314
 31
0.0
  0
LINE
  5
C1
330
1F
100
AcDbEntity
  8
Doc_ Finishes
  6
Continuous
100
AcDbLine
 10
32.85326170338316
 20
12.16663601494886
 30
0.0
 11
33.48893095987412
 21
11.61388129425649
 31
0.0
  0
LINE
  5
C2
330
1F
100
AcDbEntity
  8
Doc_ Finishes
  6
Continuous
100
AcDbLine
 10
32.35578333988985
 20
12.58120426829268
 30
0.0
 11
32.85326170338316
 21
12.16663601494886
 31
0.0
  0
LINE
  5
C3
330
1F
100
AcDbEntity
  8
Doc_ Finishes
  6
Continuous
100
AcDbLine
 10
31.69247147915027
 20
12.99577252163651
 30
0.0
 11
32.35578333988985
 21
12.58120426829268
 31
0.0
  0
LINE
  5
C4
330
1F
100
AcDbEntity
  8
Doc_ Finishes
  6
Continuous
100
AcDbLine
 10
31.22263129425649
 20
13.32742623918175
 30
0.0
 11
31.69247147915027
 21
12.99577252163651
 31
0.0
  0
LINE
  5
C5
330
1F
100
AcDbEntity
  8
Doc_ Finishes
  6
Continuous
100
AcDbLine
 10
30.72514850511408
 20
13.5761654209284
 30
0.0
 11
31.22263129425649
 21
13.32742623918175
 31
0.0
  0
LINE
  5
C6
330
1F
100
AcDbEntity
  8
Doc_ Finishes
  6
Continuous
100
AcDbLine
 10
29.93747147915028
 20
14.0644340086546
 30
0.0
 11
30.72514850511408
 21
13.5761654209284
 31
0.0
  0
LINE
  5
C7
330
1F
100
AcDbEntity
  8
Doc_ Finishes
  6
Continuous
100
AcDbLine
 10
29.43077891424075
 20
14.38687795043273
 30
0.0
 11
29.93747147915028
 21
14.0644340086546
 31
0.0
  0
LINE
  5
C8
330
1F
100
AcDbEntity
  8
Doc_ Finishes
  6
Continuous
100
AcDbLine
 10
28.92408192368214
 20
14.70931746656176
 30
0.0
 11
29.43077891424075
 21
14.38687795043273
 31
0.0
  0
LINE
  5
C9
330
1F
100
AcDbEntity
  8
Doc_ Finishes
  6
Continuous
100
AcDbLine
 10
28.62467348544453
 20
15.10085464201416
 30
0.0
 11
28.92408192368214
 21
14.70931746656176
 31
0.0
  0
LINE
  5
CA
330
1F
100
AcDbEntity
  8
Doc_ Finishes
  6
Continuous
100
AcDbLine
 10
27.95675894964595
 20
15.67664486624705
 30
0.0
 11
28.62467348544453
 21
15.10085464201416
 31
0.0
  0
LINE
  5
CB
330
1F
100
AcDbEntity
  8
Doc_ Finishes
  6
Continuous
100
AcDbLine
 10
27.47309746262785
 20
15.95302222659323
 30
0.0
 11
27.95675894964595
 21
15.67664486624705
 31
0.0
  0
LINE
  5
CC
330
1F
100
AcDbEntity
  8
Doc_ Finishes
  6
Continuous
100
AcDbLine
 10
26.82821400472069
 20
16.36759047993706
 30
0.0
 11
27.47309746262785
 21
15.95302222659323
 31
0.0
  0
LINE
  5
CD
330
1F
100
AcDbEntity
  8
Doc_ Finishes
  6
Continuous
100
AcDbLine
 10
26.50577448859166
 20
16.22939958693942
 30
0.0
 11
26.82821400472069
 21
16.36759047993706
 31
0.0
  0
LINE
  5
CE
330
1F
100
AcDbEntity
  8
Doc_ Finishes
  6
Continuous
100
AcDbLine
 10
26.06817515735641
 20
15.74573809992132
 30
0.0
 11
26.50577448859166
 21
16.22939958693942
 31
0.0
  0
LINE
  5
CF
330
1F
100
AcDbEntity
  8
Doc_ Finishes
  6
Continuous
 62
   254
370
    18
100
AcDbLine
 10
95.43333841463415
 20
5.093360051140834
 30
0.0
 11
95.43333841463415
 21
20.69901750590086
 31
0.0
  0
LINE
  5
D0
330
1F
100
AcDbEntity
  8
Doc_ Finishes
  6
Continuous
 62
   254
370
    18
100
AcDbLine
 10
5.000000983477577
 20
20.69901750590086
 30
0.0
 11
288.2406845003933
 21
20.69901750590086
 31
0.0
  0
LINE
  5
D1
330
1F
100
AcDbEntity
  8
Doc_ Finishes
  6
Continuous
 62
   254
370
    18
100
AcDbLine
 10
288.2406845003933
 20
20.69901750590086
 30
0.0
 11
288.2406845003933
 21
5.000000983477577
 31
0.0
  0
LINE
  5
D2
330
1F
100
AcDbEntity
  8
Doc_ Finishes
  6
Continuous
 62
   254
370
    18
100
AcDbLine
 10
288.2406845003933
 20
5.000000983477577
 30
0.0
 11
5.000000983477577
 21
5.000000983477577
 31
0.0
  0
LINE
  5
D3
330
1F
100
AcDbEntity
  8
Doc_ Finishes
  6
Continuous
 62
   254
370
    18
100
AcDbLine
 10
5.000000983477577
 20
20.69901750590086
 30
0.0
 11
5.000000983477577
 21
5.000000983477577
 31
0.0
  0
LINE
  5
D4
330
1F
100
AcDbEntity
  8
Doc_ Finishes
  6
Continuous
 62
   254
370
    18
100
AcDbLine
 10
188.291944826908
 20
5.093360051140834
 30
0.0
 11
188.291944826908
 21
20.69901750590086
 31
0.0
  0
LINE
  5
D5
330
1F
100
AcDbEntity
  8
Doc_ Finishes
  6
Continuous
 62
   254
370
    18
100
AcDbLine
 10
188.291944826908
 20
12.8961909913454
 30
0.0
 11
288.2406845003933
 21
12.8961909913454
 31
0.0
  0
MTEXT
  5
D7
330
1F
100
AcDbEntity
  8
0
  6
Continuous
100
AcDbMText
 10
208.3494767103412
 20
15.00228834043999
 30
0.0
 40
2.25
 41
0.0
 71
     7
 72
     1
  1
{C-TRS9-03}
  7
GENERATED_STYLE_1
 73
     1
 44
1.0
  0
MTEXT
  5
D8
330
1F
100
AcDbEntity
  8
0
  6
Continuous
100
AcDbMText
 10
208.3494767103412
 20
11.03300550383743
 30
0.0
 40
3.0
 41
0.0
 71
     1
 72
     1
  1
{GUTTER FLASHING DETAIL - EXTERNAL}
  7
GENERATED_STYLE_1
 73
     1
 44
1.0
  0
MTEXT
  5
DA
330
1F
100
AcDbEntity
  8
Doc_ Floor
  6
Continuous
100
AcDbMText
 10
27.78353726544612
 20
13.33283672870609
 30
0.0
 40
5.603347280334726
 41
0.0
 71
     1
 72
     1
  1
{The Roofing Store}
  7
GENERATED_STYLE_2
 73
     1
 44
1.0
  0
MTEXT
  5
DC
102
{ACAD_XDICTIONARY
360
4DE
102
}
330
1F
100
AcDbEntity
  8
0
  6
Continuous
100
AcDbMText
 10
100.7389238446655
 20
5.628836745729685
 30
0.0
 40
1.5
 41
0.0
 71
     7
 72
     1
  1
{P: HEAD OFFICE              09 277 2717\P    ALBANY             09 972 0060\P    KATIKAIT            07 549 5190\P    WELLINGTON              04 974 5792\P    CHRISTCHURCH03 348 6528}
  7
GENERATED_STYLE_1
 73
     1
 44
1.062946161486498
  0
MTEXT
  5
DD
330
1F
100
AcDbEntity
  8
0
  6
Continuous
100
AcDbMText
 10
147.4184566143587
 20
8.449084231526156
 30
0.0
 40
1.5
 41
0.0
 71
     7
 72
     1
  1
{WEB: www.theroofingstore.co.nz}
  7
GENERATED_STYLE_1
 73
     1
 44
1.0
  0
MTEXT
  5
DE
330
1F
100
AcDbEntity
  8
0
  6
Continuous
100
AcDbMText
 10
147.4184566143587
 20
5.870946023411262
 30
0.0
 40
1.5
 41
0.0
 71
     7
 72
     1
  1
{Copyright \U+00A9 The Roofing Store 2013}
  7
GENERATED_STYLE_1
 73
     1
 44
1.0
  0
MTEXT
  5
DF
330
1F
100
AcDbEntity
  8
0
  6
Continuous
100
AcDbMText
 10
271.9546684065315
 20
15.01595667428533
 30
0.0
 40
2.25
 41
0.0
 71
     7
 72
     1
  1
{1:5}
  7
GENERATED_STYLE_1
 73
     1
 44
1.0
  0
MTEXT
  5
E0
330
1F
100
AcDbEntity
  8
0
  6
Continuous
100
AcDbMText
 10
262.8396605309016
 20
15.51746459162148
 30
0.0
 40
1.5
 41
0.0
 71
     7
 72
     1
  1
{SCALE:}
  7
GENERATED_STYLE_1
 73
     1
 44
1.0
  0
MTEXT
  5
E1
330
1F
100
AcDbEntity
  8
0
  6
Continuous
100
AcDbMText
 10
189.5066235617487
 20
15.48695559872207
 30
0.0
 40
1.5
 41
0.0
 71
     7
 72
     1
  1
{DETAIL NUMBER:}
  7
GENERATED_STYLE_1
 73
     1
 44
1.0
  0
MTEXT
  5
E2
330
1F
100
AcDbEntity
  8
0
  6
Continuous
100
AcDbMText
 10
189.5066235617487
 20
9.005462392315325
 30
0.0
 40
1.5
 41
0.0
 71
     7
 72
     1
  1
{TITLE:}
  7
GENERATED_STYLE_1
 73
     1
 44
1.0
  0
INSERT
  5
4AC
102
{ACAD_XDICTIONARY
360
4AD
102
}
330
1F
100
AcDbEntity
  8
0
  6
Continuous
100
AcDbBlockReference
  2
Drawing_1_2
 10
93.38266924981342
 20
-696.8049665656347
 30
0.0
  0
ENDSEC
  0
SECTION
  2
OBJECTS
  0
DICTIONARY
  5
C
330
0
100
AcDbDictionary
281
     1
  3
ACAD_GROUP
350
D
  3
ACAD_LAYOUT
350
1A
  3
ACAD_MATERIAL
350
3B
  3
ACAD_MLEADERSTYLE
350
4D9
  3
ACAD_MLINESTYLE
350
17
  3
ACAD_PLOTSETTINGS
350
19
  3
ACAD_PLOTSTYLENAME
350
E
  3
ACAD_SCALELIST
350
4B3
  3
ACAD_VISUALSTYLE
350
2A
  3
AcDbVariableDictionary
350
4D7
  3
WATERMARKS
350
4D5
  0
DICTIONARY
  5
4DE
330
DC
100
AcDbDictionary
280
     1
281
     1
  3
ACAD_MTEXT_RT
360
4DF
  0
DICTIONARY
  5
4AD
330
4AC
100
AcDbDictionary
280
     1
281
     1
  3
ACAD_FILTER
360
4AE
  0
DICTIONARY
  5
D
102
{ACAD_REACTORS
330
C
102
}
330
C
100
AcDbDictionary
281
     1
  0
DICTIONARY
  5
1A
102
{ACAD_REACTORS
330
C
102
}
330
C
100
AcDbDictionary
281
     1
  3
Layout1
350
1E
  3
Model
350
22
  0
DICTIONARY
  5
3B
102
{ACAD_REACTORS
330
C
102
}
330
C
100
AcDbDictionary
281
     1
  3
ByBlock
350
3D
  3
ByLayer
350
3C
  3
Global
350
3E
  0
DICTIONARY
  5
4D9
102
{ACAD_REACTORS
330
C
102
}
330
C
100
AcDbDictionary
281
     1
  0
DICTIONARY
  5
17
102
{ACAD_REACTORS
330
C
102
}
330
C
100
AcDbDictionary
281
     1
  3
Standard
350
18
  0
DICTIONARY
  5
19
102
{ACAD_REACTORS
330
C
102
}
330
C
100
AcDbDictionary
281
     1
  0
ACDBDICTIONARYWDFLT
  5
E
102
{ACAD_REACTORS
330
C
102
}
330
C
100
AcDbDictionary
281
     1
  3
Normal
350
F
100
AcDbDictionaryWithDefault
340
F
  0
DICTIONARY
  5
4B3
102
{ACAD_REACTORS
330
C
102
}
330
C
100
AcDbDictionary
281
     1
  3
A0
350
4B4
  3
A1
350
4B5
  3
A2
350
4B6
  3
A3
350
4B7
  3
A4
350
4B8
  3
A5
350
4B9
  3
A6
350
4BA
  3
A7
350
4BB
  3
A8
350
4BC
  3
A9
350
4BD
  3
B0
350
4BE
  3
B1
350
4BF
  3
B2
350
4C0
  3
B3
350
4C1
  3
B4
350
4C2
  3
B5
350
4C3
  3
B6
350
4C4
  3
B7
350
4C5
  3
B8
350
4C6
  3
B9
350
4C7
  3
C0
350
4C8
  3
C1
350
4C9
  3
C2
350
4CA
  3
C3
350
4CB
  3
C4
350
4CC
  3
C5
350
4CD
  3
C6
350
4CE
  3
C7
350
4CF
  3
C8
350
4D0
  3
C9
350
4D1
  3
D0
350
4D2
  3
D1
350
4D3
  3
D2
350
4D4
  0
DICTIONARY
  5
2A
102
{ACAD_REACTORS
330
C
102
}
330
C
100
AcDbDictionary
281
     1
  3
2dWireframe
350
2F
  3
3D Hidden
350
31
  3
3dWireframe
350
30
  3
Basic
350
32
  3
Brighten
350
36
  3
ColorChange
350
3A
  3
Conceptual
350
34
  3
Dim
350
35
  3
Facepattern
350
39
  3
Flat
350
2B
  3
FlatWithEdges
350
2C
  3
Gouraud
350
2D
  3
GouraudWithEdges
350
2E
  3
Linepattern
350
38
  3
Realistic
350
33
  3
Thicken
350
37
  0
DICTIONARY
  5
4D7
102
{ACAD_REACTORS
330
C
102
}
330
C
100
AcDbDictionary
281
     1
  3
CANNOSCALE
350
4DB
  3
DIMASSOC
350
4DC
  3
HIDETEXT
350
4DD
  3
XCLIPFRAME
350
4DA
  0
DICTIONARY
  5
4D5
102
{ACAD_REACTORS
330
C
102
}
330
C
100
AcDbDictionary
281
     1
  3
AC_WATERMARK
350
4D6
  0
XRECORD
  5
4DF
102
{ACAD_REACTORS
330
4DE
102
}
330
4DE
100
AcDbXrecord
280
     1
 40
892718.0
  1
{P: HEAD OFFICE ^I^I09 277 2717\P    ALBANY ^I^I09 972 0060\P    KATIKAIT^I^I07 549 5190\P    WELLINGTON^I^I04 974 5792\P    CHRISTCHURCH^I03 348 6528}
  0
DICTIONARY
  5
4AE
102
{ACAD_REACTORS
330
4AD
102
}
330
4AD
100
AcDbDictionary
280
     1
281
     1
  3
SPATIAL
360
4AF
  0
LAYOUT
  5
1E
102
{ACAD_REACTORS
330
1A
102
}
330
1A
100
AcDbPlotSettings
  1

  2
none_device
  4

  6

 40
0.0
 41
0.0
 42
0.0
 43
0.0
 44
0.0
 45
0.0
 46
0.0
 47
0.0
 48
0.0
 49
0.0
140
0.0
141
0.0
142
1.0
143
1.0
 70
   688
 72
     0
 73
     0
 74
     5
  7

 75
    16
147
1.0
148
0.0
149
0.0
100
AcDbLayout
  1
Layout1
 70
     1
 71
     1
 10
0.0
 20
0.0
 11
12.0
 21
9.0
 12
0.0
 22
0.0
 32
0.0
 14
1.000000000000000E+20
 24
1.000000000000000E+20
 34
1.000000000000000E+20
 15
-1.000000000000000E+20
 25
-1.000000000000000E+20
 35
-1.000000000000000E+20
146
0.0
 13
0.0
 23
0.0
 33
0.0
 16
1.0
 26
0.0
 36
0.0
 17
0.0
 27
1.0
 37
0.0
 76
     0
330
1B
  0
LAYOUT
  5
22
102
{ACAD_REACTORS
330
1A
102
}
330
1A
100
AcDbPlotSettings
  1

  2
none_device
  4

  6

 40
0.0
 41
0.0
 42
0.0
 43
0.0
 44
0.0
 45
0.0
 46
0.0
 47
0.0
 48
0.0
 49
0.0
140
0.0
141
0.0
142
1.0
143
1.0
 70
  1712
 72
     0
 73
     0
 74
     0
  7

 75
     0
147
1.0
148
0.0
149
0.0
100
AcDbLayout
  1
Model
 70
     1
 71
     0
 10
0.0
 20
0.0
 11
12.0
 21
9.0
 12
0.0
 22
0.0
 32
0.0
 14
1.000000000000000E+20
 24
1.000000000000000E+20
 34
1.000000000000000E+20
 15
-1.000000000000000E+20
 25
-1.000000000000000E+20
 35
-1.000000000000000E+20
146
0.0
 13
0.0
 23
0.0
 33
0.0
 16
1.0
 26
0.0
 36
0.0
 17
0.0
 27
1.0
 37
0.0
 76
     0
330
1F
331
29
  0
MATERIAL
  5
3D
102
{ACAD_REACTORS
330
3B
102
}
102
{ACAD_XDICTIONARY
360
502
102
}
330
3B
100
AcDbMaterial
  1
ByBlock
  0
MATERIAL
  5
3C
102
{ACAD_REACTORS
330
3B
102
}
102
{ACAD_XDICTIONARY
360
500
102
}
330
3B
100
AcDbMaterial
  1
ByLayer
  0
MATERIAL
  5
3E
102
{ACAD_REACTORS
330
3B
102
}
102
{ACAD_XDICTIONARY
360
504
102
}
330
3B
100
AcDbMaterial
  1
Global
  0
MLINESTYLE
  5
18
102
{ACAD_REACTORS
330
17
102
}
330
17
100
AcDbMlineStyle
  2
Standard
 70
     0
  3

 62
   256
 51
90.0
 52
90.0
 71
     2
 49
0.5
 62
   256
  6
BYLAYER
 49
-0.5
 62
   256
  6
BYLAYER
  0
ACDBPLACEHOLDER
  5
F
102
{ACAD_REACTORS
330
E
102
}
330
E
  0
SCALE
  5
4B4
102
{ACAD_REACTORS
330
4B3
102
}
330
4B3
100
AcDbScale
 70
     0
300
1:1
140
1.0
141
1.0
290
     1
  0
SCALE
  5
4B5
102
{ACAD_REACTORS
330
4B3
102
}
330
4B3
100
AcDbScale
 70
     0
300
1:2
140
1.0
141
2.0
290
     0
  0
SCALE
  5
4B6
102
{ACAD_REACTORS
330
4B3
102
}
330
4B3
100
AcDbScale
 70
     0
300
1:4
140
1.0
141
4.0
290
     0
  0
SCALE
  5
4B7
102
{ACAD_REACTORS
330
4B3
102
}
330
4B3
100
AcDbScale
 70
     0
300
1:5
140
1.0
141
5.0
290
     0
  0
SCALE
  5
4B8
102
{ACAD_REACTORS
330
4B3
102
}
330
4B3
100
AcDbScale
 70
     0
300
1:8
140
1.0
141
8.0
290
     0
  0
SCALE
  5
4B9
102
{ACAD_REACTORS
330
4B3
102
}
330
4B3
100
AcDbScale
 70
     0
300
1:10
140
1.0
141
10.0
290
     0
  0
SCALE
  5
4BA
102
{ACAD_REACTORS
330
4B3
102
}
330
4B3
100
AcDbScale
 70
     0
300
1:16
140
1.0
141
16.0
290
     0
  0
SCALE
  5
4BB
102
{ACAD_REACTORS
330
4B3
102
}
330
4B3
100
AcDbScale
 70
     0
300
1:20
140
1.0
141
20.0
290
     0
  0
SCALE
  5
4BC
102
{ACAD_REACTORS
330
4B3
102
}
330
4B3
100
AcDbScale
 70
     0
300
1:30
140
1.0
141
30.0
290
     0
  0
SCALE
  5
4BD
102
{ACAD_REACTORS
330
4B3
102
}
330
4B3
100
AcDbScale
 70
     0
300
1:40
140
1.0
141
40.0
290
     0
  0
SCALE
  5
4BE
102
{ACAD_REACTORS
330
4B3
102
}
330
4B3
100
AcDbScale
 70
     0
300
1:50
140
1.0
141
50.0
290
     0
  0
SCALE
  5
4BF
102
{ACAD_REACTORS
330
4B3
102
}
330
4B3
100
AcDbScale
 70
     0
300
1:100
140
1.0
141
100.0
290
     0
  0
SCALE
  5
4C0
102
{ACAD_REACTORS
330
4B3
102
}
330
4B3
100
AcDbScale
 70
     0
300
2:1
140
2.0
141
1.0
290
     0
  0
SCALE
  5
4C1
102
{ACAD_REACTORS
330
4B3
102
}
330
4B3
100
AcDbScale
 70
     0
300
4:1
140
4.0
141
1.0
290
     0
  0
SCALE
  5
4C2
102
{ACAD_REACTORS
330
4B3
102
}
330
4B3
100
AcDbScale
 70
     0
300
8:1
140
8.0
141
1.0
290
     0
  0
SCALE
  5
4C3
102
{ACAD_REACTORS
330
4B3
102
}
330
4B3
100
AcDbScale
 70
     0
300
10:1
140
10.0
141
1.0
290
     0
  0
SCALE
  5
4C4
102
{ACAD_REACTORS
330
4B3
102
}
330
4B3
100
AcDbScale
 70
     0
300
100:1
140
100.0
141
1.0
290
     0
  0
SCALE
  5
4C5
102
{ACAD_REACTORS
330
4B3
102
}
330
4B3
100
AcDbScale
 70
     0
300
1/128" = 1'-0"
140
0.0078125
141
12.0
290
     0
  0
SCALE
  5
4C6
102
{ACAD_REACTORS
330
4B3
102
}
330
4B3
100
AcDbScale
 70
     0
300
1/64" = 1'-0"
140
0.015625
141
12.0
290
     0
  0
SCALE
  5
4C7
102
{ACAD_REACTORS
330
4B3
102
}
330
4B3
100
AcDbScale
 70
     0
300
1/32" = 1'-0"
140
0.03125
141
12.0
290
     0
  0
SCALE
  5
4C8
102
{ACAD_REACTORS
330
4B3
102
}
330
4B3
100
AcDbScale
 70
     0
300
1/16" = 1'-0"
140
0.0625
141
12.0
290
     0
  0
SCALE
  5
4C9
102
{ACAD_REACTORS
330
4B3
102
}
330
4B3
100
AcDbScale
 70
     0
300
3/32" = 1'-0"
140
0.09375
141
12.0
290
     0
  0
SCALE
  5
4CA
102
{ACAD_REACTORS
330
4B3
102
}
330
4B3
100
AcDbScale
 70
     0
300
1/8" = 1'-0"
140
0.125
141
12.0
290
     0
  0
SCALE
  5
4CB
102
{ACAD_REACTORS
330
4B3
102
}
330
4B3
100
AcDbScale
 70
     0
300
3/16" = 1'-0"
140
0.1875
141
12.0
290
     0
  0
SCALE
  5
4CC
102
{ACAD_REACTORS
330
4B3
102
}
330
4B3
100
AcDbScale
 70
     0
300
1/4" = 1'-0"
140
0.25
141
12.0
290
     0
  0
SCALE
  5
4CD
102
{ACAD_REACTORS
330
4B3
102
}
330
4B3
100
AcDbScale
 70
     0
300
3/8" = 1'-0"
140
0.375
141
12.0
290
     0
  0
SCALE
  5
4CE
102
{ACAD_REACTORS
330
4B3
102
}
330
4B3
100
AcDbScale
 70
     0
300
1/2" = 1'-0"
140
0.5
141
12.0
290
     0
  0
SCALE
  5
4CF
102
{ACAD_REACTORS
330
4B3
102
}
330
4B3
100
AcDbScale
 70
     0
300
3/4" = 1'-0"
140
0.75
141
12.0
290
     0
  0
SCALE
  5
4D0
102
{ACAD_REACTORS
330
4B3
102
}
330
4B3
100
AcDbScale
 70
     0
300
1" = 1'-0"
140
1.0
141
12.0
290
     0
  0
SCALE
  5
4D1
102
{ACAD_REACTORS
330
4B3
102
}
330
4B3
100
AcDbScale
 70
     0
300
1-1/2" = 1'-0"
140
1.5
141
12.0
290
     0
  0
SCALE
  5
4D2
102
{ACAD_REACTORS
330
4B3
102
}
330
4B3
100
AcDbScale
 70
     0
300
3" = 1'-0"
140
3.0
141
12.0
290
     0
  0
SCALE
  5
4D3
102
{ACAD_REACTORS
330
4B3
102
}
330
4B3
100
AcDbScale
 70
     0
300
6" = 1'-0"
140
6.0
141
12.0
290
     0
  0
SCALE
  5
4D4
102
{ACAD_REACTORS
330
4B3
102
}
330
4B3
100
AcDbScale
 70
     0
300
1'-0" = 1'-0"
140
12.0
141
12.0
290
     0
  0
VISUALSTYLE
  5
2F
102
{ACAD_REACTORS
330
2A
102
}
102
{ACAD_XDICTIONARY
360
4E8
102
}
330
2A
100
AcDbVisualStyle
  2
2dWireframe
 70
     4
 71
     0
 72
     2
 73
     0
 90
        0
 40
-0.6
 41
-30.0
 62
     5
 63
     7
 74
     1
 91
        4
 64
     7
 65
   257
 75
     1
175
     1
 42
1.0
 92
        0
 66
   257
 43
1.0
 76
     1
 77
     6
 78
     2
 67
     7
 79
     5
170
     0
171
     0
290
     0
174
     0
 93
        1
 44
0.0
173
     0
291
     0
 45
0.0
1001
ACAD
1000
AcDbSavedByObjectVersion
1070
     0
  0
VISUALSTYLE
  5
31
102
{ACAD_REACTORS
330
2A
102
}
102
{ACAD_XDICTIONARY
360
4EC
102
}
330
2A
100
AcDbVisualStyle
  2
3D Hidden
 70
     6
 71
     1
 72
     2
 73
     2
 90
        0
 40
-0.6
 41
-30.0
 62
     5
 63
     7
 74
     2
 91
        2
 64
     7
 65
   257
 75
     2
175
     1
 42
40.0
 92
        0
 66
   257
 43
1.0
 76
     1
 77
     6
 78
     2
 67
     7
 79
     3
170
     0
171
     0
290
     0
174
     0
 93
        1
 44
0.0
173
     0
291
     0
 45
0.0
1001
ACAD
1000
AcDbSavedByObjectVersion
1070
     0
  0
VISUALSTYLE
  5
30
102
{ACAD_REACTORS
330
2A
102
}
102
{ACAD_XDICTIONARY
360
4EA
102
}
330
2A
100
AcDbVisualStyle
  2
3dWireframe
 70
     5
 71
     0
 72
     2
 73
     0
 90
        0
 40
-0.6
 41
-30.0
 62
     5
 63
     7
 74
     1
 91
        4
 64
     7
 65
   257
 75
     1
175
     1
 42
1.0
 92
        0
 66
   257
 43
1.0
 76
     1
 77
     6
 78
     2
 67
     7
 79
     5
170
     0
171
     0
290
     0
174
     0
 93
        1
 44
0.0
173
     0
291
     0
 45
0.0
1001
ACAD
1000
AcDbSavedByObjectVersion
1070
     0
  0
VISUALSTYLE
  5
32
102
{ACAD_REACTORS
330
2A
102
}
102
{ACAD_XDICTIONARY
360
4EE
102
}
330
2A
100
AcDbVisualStyle
  2
Basic
 70
     7
 71
     1
 72
     0
 73
     1
 90
        0
 40
-0.6
 41
-30.0
 62
     5
 63
     7
 74
     0
 91
        4
 64
     7
 65
   257
 75
     1
175
     1
 42
1.0
 92
        8
 66
     7
 43
1.0
 76
     1
 77
     6
 78
     2
 67
     7
 79
     5
170
     0
171
     0
290
     0
174
     0
 93
        1
 44
0.0
173
     0
291
     1
 45
0.0
1001
ACAD
1000
AcDbSavedByObjectVersion
1070
     0
  0
VISUALSTYLE
  5
36
102
{ACAD_REACTORS
330
2A
102
}
102
{ACAD_XDICTIONARY
360
4F6
102
}
330
2A
100
AcDbVisualStyle
  2
Brighten
 70
    12
 71
     2
 72
     2
 73
     0
 90
        0
 40
-0.6
 41
-30.0
 62
     5
 63
     7
 74
     1
 91
        4
 64
     7
 65
   257
 75
     1
175
     1
 42
1.0
 92
        8
 66
     7
 43
1.0
 76
     1
 77
     6
 78
     2
 67
     7
 79
     5
170
     0
171
     0
290
     0
174
     0
 93
        1
 44
50.0
173
     0
291
     1
 45
0.0
1001
ACAD
1000
AcDbSavedByObjectVersion
1070
     0
  0
VISUALSTYLE
  5
3A
102
{ACAD_REACTORS
330
2A
102
}
102
{ACAD_XDICTIONARY
360
4FE
102
}
330
2A
100
AcDbVisualStyle
  2
ColorChange
 70
    16
 71
     2
 72
     2
 73
     3
 90
        0
 40
-0.6
 41
-30.0
 62
     5
 63
     8
 74
     1
 91
        4
 64
     7
 65
   257
 75
     1
175
     1
 42
1.0
 92
        8
 66
     8
 43
1.0
 76
     1
 77
     6
 78
     2
 67
     7
 79
     5
170
     0
171
     0
290
     0
174
     0
 93
        1
 44
0.0
173
     0
291
     1
 45
0.0
1001
ACAD
1000
AcDbSavedByObjectVersion
1070
     0
  0
VISUALSTYLE
  5
34
102
{ACAD_REACTORS
330
2A
102
}
102
{ACAD_XDICTIONARY
360
4F2
102
}
330
2A
100
AcDbVisualStyle
  2
Conceptual
 70
     9
 71
     3
 72
     2
 73
     0
 90
        0
 40
-0.6
 41
-30.0
 62
     5
 63
     7
 74
     2
 91
        2
 64
     7
 65
   257
 75
     1
175
     1
 42
40.0
 92
        8
 66
     7
 43
1.0
 76
     1
 77
     6
 78
     2
 67
     7
 79
     3
170
     0
171
     0
290
     0
174
     0
 93
        1
 44
0.0
173
     0
291
     0
 45
0.0
1001
ACAD
1000
AcDbSavedByObjectVersion
1070
     0
  0
VISUALSTYLE
  5
35
102
{ACAD_REACTORS
330
2A
102
}
102
{ACAD_XDICTIONARY
360
4F4
102
}
330
2A
100
AcDbVisualStyle
  2
Dim
 70
    11
 71
     2
 72
     2
 73
     0
 90
        0
 40
-0.6
 41
-30.0
 62
     5
 63
     7
 74
     1
 91
        4
 64
     7
 65
   257
 75
     1
175
     1
 42
1.0
 92
        8
 66
     7
 43
1.0
 76
     1
 77
     6
 78
     2
 67
     7
 79
     5
170
     0
171
     0
290
     0
174
     0
 93
        1
 44
-50.0
173
     0
291
     1
 45
0.0
1001
ACAD
1000
AcDbSavedByObjectVersion
1070
     0
  0
VISUALSTYLE
  5
39
102
{ACAD_REACTORS
330
2A
102
}
102
{ACAD_XDICTIONARY
360
4FC
102
}
330
2A
100
AcDbVisualStyle
  2
Facepattern
 70
    15
 71
     2
 72
     2
 73
     0
 90
        0
 40
-0.6
 41
-30.0
 62
     5
 63
     7
 74
     1
 91
        4
 64
     7
 65
   257
 75
     1
175
     1
 42
1.0
 92
        8
 66
     7
 43
1.0
 76
     1
 77
     6
 78
     2
 67
     7
 79
     5
170
     0
171
     0
290
     0
174
     0
 93
        1
 44
0.0
173
     0
291
     1
 45
0.0
1001
ACAD
1000
AcDbSavedByObjectVersion
1070
     0
  0
VISUALSTYLE
  5
2B
102
{ACAD_REACTORS
330
2A
102
}
102
{ACAD_XDICTIONARY
360
4E0
102
}
330
2A
100
AcDbVisualStyle
  2
Flat
 70
     0
 71
     2
 72
     1
 73
     1
 90
        2
 40
-0.6
 41
30.0
 62
     5
 63
     7
 74
     0
 91
        4
 64
     7
 65
   257
 75
     1
175
     1
 42
1.0
 92
        8
 66
     7
 43
1.0
 76
     1
 77
     6
 78
     2
 67
     7
 79
     5
170
     0
171
     0
290
     0
174
     0
 93
       13
 44
0.0
173
     0
291
     1
 45
0.0
1001
ACAD
1000
AcDbSavedByObjectVersion
1070
     0
  0
VISUALSTYLE
  5
2C
102
{ACAD_REACTORS
330
2A
102
}
102
{ACAD_XDICTIONARY
360
4E2
102
}
330
2A
100
AcDbVisualStyle
  2
FlatWithEdges
 70
     1
 71
     2
 72
     1
 73
     1
 90
        2
 40
-0.6
 41
30.0
 62
     5
 63
     7
 74
     1
 91
        4
 64
     7
 65
   257
 75
     1
175
     1
 42
1.0
 92
        0
 66
   257
 43
1.0
 76
     1
 77
     6
 78
     2
 67
     7
 79
     5
170
     0
171
     0
290
     0
174
     0
 93
       13
 44
0.0
173
     0
291
     1
 45
0.0
1001
ACAD
1000
AcDbSavedByObjectVersion
1070
     0
  0
VISUALSTYLE
  5
2D
102
{ACAD_REACTORS
330
2A
102
}
102
{ACAD_XDICTIONARY
360
4E4
102
}
330
2A
100
AcDbVisualStyle
  2
Gouraud
 70
     2
 71
     2
 72
     2
 73
     1
 90
        2
 40
-0.6
 41
30.0
 62
     5
 63
     7
 74
     0
 91
        4
 64
     7
 65
   257
 75
     1
175
     1
 42
1.0
 92
        0
 66
     7
 43
1.0
 76
     1
 77
     6
 78
     2
 67
     7
 79
     5
170
     0
171
     0
290
     0
174
     0
 93
       13
 44
0.0
173
     0
291
     1
 45
0.0
1001
ACAD
1000
AcDbSavedByObjectVersion
1070
     0
  0
VISUALSTYLE
  5
2E
102
{ACAD_REACTORS
330
2A
102
}
102
{ACAD_XDICTIONARY
360
4E6
102
}
330
2A
100
AcDbVisualStyle
  2
GouraudWithEdges
 70
     3
 71
     2
 72
     2
 73
     1
 90
        2
 40
-0.6
 41
30.0
 62
     5
 63
     7
 74
     1
 91
        4
 64
     7
 65
   257
 75
     1
175
     1
 42
1.0
 92
        0
 66
   257
 43
1.0
 76
     1
 77
     6
 78
     2
 67
     7
 79
     5
170
     0
171
     0
290
     0
174
     0
 93
       13
 44
0.0
173
     0
291
     1
 45
0.0
1001
ACAD
1000
AcDbSavedByObjectVersion
1070
     0
  0
VISUALSTYLE
  5
38
102
{ACAD_REACTORS
330
2A
102
}
102
{ACAD_XDICTIONARY
360
4FA
102
}
330
2A
100
AcDbVisualStyle
  2
Linepattern
 70
    14
 71
     2
 72
     2
 73
     0
 90
        0
 40
-0.6
 41
-30.0
 62
     5
 63
     7
 74
     1
 91
        4
 64
     7
 65
   257
 75
     7
175
     7
 42
1.0
 92
        8
 66
     7
 43
1.0
 76
     1
 77
     6
 78
     2
 67
     7
 79
     5
170
     0
171
     0
290
     0
174
     0
 93
        1
 44
0.0
173
     0
291
     1
 45
0.0
1001
ACAD
1000
AcDbSavedByObjectVersion
1070
     0
  0
VISUALSTYLE
  5
33
102
{ACAD_REACTORS
330
2A
102
}
102
{ACAD_XDICTIONARY
360
4F0
102
}
330
2A
100
AcDbVisualStyle
  2
Realistic
 70
     8
 71
     2
 72
     2
 73
     0
 90
        0
 40
-0.6
 41
-30.0
 62
     5
 63
     7
 74
     1
 91
        0
 64
     7
 65
   257
 75
     1
175
     1
 42
1.0
 92
        8
 66
     8
 43
1.0
 76
     1
 77
     6
 78
     2
 67
     7
 79
     5
170
     0
171
     0
290
     0
174
     0
 93
       13
 44
0.0
173
     0
291
     0
 45
0.0
1001
ACAD
1000
AcDbSavedByObjectVersion
1070
     0
  0
VISUALSTYLE
  5
37
102
{ACAD_REACTORS
330
2A
102
}
102
{ACAD_XDICTIONARY
360
4F8
102
}
330
2A
100
AcDbVisualStyle
  2
Thicken
 70
    13
 71
     2
 72
     2
 73
     0
 90
        0
 40
-0.6
 41
-30.0
 62
     5
 63
     7
 74
     1
 91
        4
 64
     7
 65
   257
 75
     1
175
     1
 42
1.0
 92
       12
 66
     7
 43
1.0
 76
     1
 77
     6
 78
     2
 67
     7
 79
     5
170
     0
171
     0
290
     0
174
     0
 93
        1
 44
0.0
173
     0
291
     1
 45
0.0
1001
ACAD
1000
AcDbSavedByObjectVersion
1070
     0
  0
DICTIONARYVAR
  5
4DB
102
{ACAD_REACTORS
330
4D7
102
}
330
4D7
100
DictionaryVariables
280
     0
  1
1:1
  0
DICTIONARYVAR
  5
4DC
102
{ACAD_REACTORS
330
4D7
102
}
330
4D7
100
DictionaryVariables
280
     0
  1
2
  0
DICTIONARYVAR
  5
4DD
102
{ACAD_REACTORS
330
4D7
102
}
330
4D7
100
DictionaryVariables
280
     0
  1
1
  0
DICTIONARYVAR
  5
4DA
102
{ACAD_REACTORS
330
4D7
102
}
330
4D7
100
DictionaryVariables
280
     0
  1
0
  0
XRECORD
  5
4D6
102
{ACAD_REACTORS
330
4D5
102
}
330
4D5
100
AcDbXrecord
280
     1
1000
This DWG file was created in ArchiCAD(TM)®
  0
SPATIAL_FILTER
  5
4AF
102
{ACAD_REACTORS
330
4AE
102
}
330
4AE
100
AcDbFilter
100
AcDbSpatialFilter
 70
     4
 10
15.468295495089
 20
49.55337101996536
 10
288.3330347632827
 20
49.55337101996536
 10
288.3330347632827
 20
192.513268283106
 10
15.468295495089
 20
192.513268283106
210
0.0
220
0.0
230
1.0
 11
0.0
 21
0.0
 31
0.0
 71
     1
 72
     0
 73
     0
 40
1.0
 40
0.0
 40
0.0
 40
0.0
 40
0.0
 40
1.0
 40
0.0
 40
0.0
 40
0.0
 40
0.0
 40
1.0
 40
0.0
 40
1.0
 40
0.0
 40
0.0
 40
0.0
 40
0.0
 40
1.0
 40
0.0
 40
0.0
 40
0.0
 40
0.0
 40
1.0
 40
0.0
  0
DICTIONARY
  5
502
330
3D
100
AcDbDictionary
280
     1
281
     1
  3
ACAD_XREC_ROUNDTRIP
360
503
  0
DICTIONARY
  5
500
330
3C
100
AcDbDictionary
280
     1
281
     1
  3
ACAD_XREC_ROUNDTRIP
360
501
  0
DICTIONARY
  5
504
330
3E
100
AcDbDictionary
280
     1
281
     1
  3
ACAD_XREC_ROUNDTRIP
360
505
  0
DICTIONARY
  5
4E8
330
2F
100
AcDbDictionary
280
     1
281
     1
  3
ACAD_XREC_ROUNDTRIP
360
4E9
  0
DICTIONARY
  5
4EC
330
31
100
AcDbDictionary
280
     1
281
     1
  3
ACAD_XREC_ROUNDTRIP
360
4ED
  0
DICTIONARY
  5
4EA
330
30
100
AcDbDictionary
280
     1
281
     1
  3
ACAD_XREC_ROUNDTRIP
360
4EB
  0
DICTIONARY
  5
4EE
330
32
100
AcDbDictionary
280
     1
281
     1
  3
ACAD_XREC_ROUNDTRIP
360
4EF
  0
DICTIONARY
  5
4F6
330
36
100
AcDbDictionary
280
     1
281
     1
  3
ACAD_XREC_ROUNDTRIP
360
4F7
  0
DICTIONARY
  5
4FE
330
3A
100
AcDbDictionary
280
     1
281
     1
  3
ACAD_XREC_ROUNDTRIP
360
4FF
  0
DICTIONARY
  5
4F2
330
34
100
AcDbDictionary
280
     1
281
     1
  3
ACAD_XREC_ROUNDTRIP
360
4F3
  0
DICTIONARY
  5
4F4
330
35
100
AcDbDictionary
280
     1
281
     1
  3
ACAD_XREC_ROUNDTRIP
360
4F5
  0
DICTIONARY
  5
4FC
330
39
100
AcDbDictionary
280
     1
281
     1
  3
ACAD_XREC_ROUNDTRIP
360
4FD
  0
DICTIONARY
  5
4E0
330
2B
100
AcDbDictionary
280
     1
281
     1
  3
ACAD_XREC_ROUNDTRIP
360
4E1
  0
DICTIONARY
  5
4E2
330
2C
100
AcDbDictionary
280
     1
281
     1
  3
ACAD_XREC_ROUNDTRIP
360
4E3
  0
DICTIONARY
  5
4E4
330
2D
100
AcDbDictionary
280
     1
281
     1
  3
ACAD_XREC_ROUNDTRIP
360
4E5
  0
DICTIONARY
  5
4E6
330
2E
100
AcDbDictionary
280
     1
281
     1
  3
ACAD_XREC_ROUNDTRIP
360
4E7
  0
DICTIONARY
  5
4FA
330
38
100
AcDbDictionary
280
     1
281
     1
  3
ACAD_XREC_ROUNDTRIP
360
4FB
  0
DICTIONARY
  5
4F0
330
33
100
AcDbDictionary
280
     1
281
     1
  3
ACAD_XREC_ROUNDTRIP
360
4F1
  0
DICTIONARY
  5
4F8
330
37
100
AcDbDictionary
280
     1
281
     1
  3
ACAD_XREC_ROUNDTRIP
360
4F9
  0
XRECORD
  5
503
102
{ACAD_REACTORS
330
502
102
}
330
502
100
AcDbXrecord
280
     1
102
MATERIAL
148
0.0
149
0.0
149
0.0
 93
        0
 94
      127
282
     0
 72
     1
 77
     1
171
     1
175
     1
179
     1
273
     0
  0
XRECORD
  5
501
102
{ACAD_REACTORS
330
500
102
}
330
500
100
AcDbXrecord
280
     1
102
MATERIAL
148
0.0
149
0.0
149
0.0
 93
        0
 94
      127
282
     0
 72
     1
 77
     1
171
     1
175
     1
179
     1
273
     0
  0
XRECORD
  5
505
102
{ACAD_REACTORS
330
504
102
}
330
504
100
AcDbXrecord
280
     1
102
MATERIAL
148
0.0
149
0.0
149
0.0
 93
        0
 94
      127
282
     0
 72
     1
 77
     1
171
     1
175
     1
179
     1
273
     0
  0
XRECORD
  5
4E9
102
{ACAD_REACTORS
330
4E8
102
}
330
4E8
100
AcDbXrecord
280
     1
102
RTVSPropertyOp0
 70
     1
102
RTVSPropertyOp1
 70
     1
102
RTVSPropertyOp2
 70
     1
102
RTVSPropertyOp3
 70
     1
102
RTVSPropertyOp4
 70
     1
102
RTVSPropertyOp5
 70
     1
102
RTVSPropertyOp6
 70
     1
102
RTVSPropertyOp7
 70
     1
102
RTVSPropertyOp8
 70
     1
102
RTVSPropertyOp9
 70
     1
102
RTVSPropertyOp10
 70
     1
102
RTVSPropertyOp11
 70
     1
102
RTVSPropertyOp12
 70
     1
102
RTVSPropertyOp13
 70
     1
102
RTVSPropertyOp14
 70
     1
102
RTVSPropertyOp15
 70
     1
102
RTVSPropertyOp16
 70
     1
102
RTVSPropertyOp17
 70
     1
102
RTVSPropertyOp18
 70
     1
102
RTVSPropertyOp19
 70
     1
102
RTVSPropertyOp20
 70
     1
102
RTVSPropertyOp21
 70
     1
102
RTVSPropertyOp22
 70
     1
102
RTVSPropertyOp23
 70
     1
102
RTVSPropertyOp24
 70
     1
102
RTVSPropertyOp25
 70
     1
102
RTVSPropertyOp26
 70
     1
102
RTVSPropertyOp27
 70
     1
102
RTVSPropertyOp28
 70
     1
102
RTVSPropertyOp29
 70
     1
102
RTVSPropertyOp30
 70
     1
102
RTVSPropertyOp31
 70
     1
102
RTVSPropertyOp32
 70
     1
  0
XRECORD
  5
4ED
102
{ACAD_REACTORS
330
4EC
102
}
330
4EC
100
AcDbXrecord
280
     1
102
RTVSPropertyOp0
 70
     1
102
RTVSPropertyOp1
 70
     1
102
RTVSPropertyOp2
 70
     1
102
RTVSPropertyOp3
 70
     1
102
RTVSPropertyOp4
 70
     1
102
RTVSPropertyOp5
 70
     1
102
RTVSPropertyOp6
 70
     1
102
RTVSPropertyOp7
 70
     1
102
RTVSPropertyOp8
 70
     1
102
RTVSPropertyOp9
 70
     1
102
RTVSPropertyOp10
 70
     1
102
RTVSPropertyOp11
 70
     1
102
RTVSPropertyOp12
 70
     1
102
RTVSPropertyOp13
 70
     1
102
RTVSPropertyOp14
 70
     1
102
RTVSPropertyOp15
 70
     1
102
RTVSPropertyOp16
 70
     1
102
RTVSPropertyOp17
 70
     1
102
RTVSPropertyOp18
 70
     1
102
RTVSPropertyOp19
 70
     1
102
RTVSPropertyOp20
 70
     1
102
RTVSPropertyOp21
 70
     1
102
RTVSPropertyOp22
 70
     1
102
RTVSPropertyOp23
 70
     1
102
RTVSPropertyOp24
 70
     1
102
RTVSPropertyOp25
 70
     1
102
RTVSPropertyOp26
 70
     1
102
RTVSPropertyOp27
 70
     1
102
RTVSPropertyOp28
 70
     1
102
RTVSPropertyOp29
 70
     1
102
RTVSPropertyOp30
 70
     1
102
RTVSPropertyOp31
 70
     1
102
RTVSPropertyOp32
 70
     1
  0
XRECORD
  5
4EB
102
{ACAD_REACTORS
330
4EA
102
}
330
4EA
100
AcDbXrecord
280
     1
102
RTVSPropertyOp0
 70
     1
102
RTVSPropertyOp1
 70
     1
102
RTVSPropertyOp2
 70
     1
102
RTVSPropertyOp3
 70
     1
102
RTVSPropertyOp4
 70
     1
102
RTVSPropertyOp5
 70
     1
102
RTVSPropertyOp6
 70
     1
102
RTVSPropertyOp7
 70
     1
102
RTVSPropertyOp8
 70
     1
102
RTVSPropertyOp9
 70
     1
102
RTVSPropertyOp10
 70
     1
102
RTVSPropertyOp11
 70
     1
102
RTVSPropertyOp12
 70
     1
102
RTVSPropertyOp13
 70
     1
102
RTVSPropertyOp14
 70
     1
102
RTVSPropertyOp15
 70
     1
102
RTVSPropertyOp16
 70
     1
102
RTVSPropertyOp17
 70
     1
102
RTVSPropertyOp18
 70
     1
102
RTVSPropertyOp19
 70
     1
102
RTVSPropertyOp20
 70
     1
102
RTVSPropertyOp21
 70
     1
102
RTVSPropertyOp22
 70
     1
102
RTVSPropertyOp23
 70
     1
102
RTVSPropertyOp24
 70
     1
102
RTVSPropertyOp25
 70
     1
102
RTVSPropertyOp26
 70
     1
102
RTVSPropertyOp27
 70
     1
102
RTVSPropertyOp28
 70
     1
102
RTVSPropertyOp29
 70
     1
102
RTVSPropertyOp30
 70
     1
102
RTVSPropertyOp31
 70
     1
102
RTVSPropertyOp32
 70
     1
  0
XRECORD
  5
4EF
102
{ACAD_REACTORS
330
4EE
102
}
330
4EE
100
AcDbXrecord
280
     1
102
RTVSPropertyOp0
 70
     1
102
RTVSPropertyOp1
 70
     1
102
RTVSPropertyOp2
 70
     1
102
RTVSPropertyOp3
 70
     1
102
RTVSPropertyOp4
 70
     1
102
RTVSPropertyOp5
 70
     1
102
RTVSPropertyOp6
 70
     1
102
RTVSPropertyOp7
 70
     1
102
RTVSPropertyOp8
 70
     1
102
RTVSPropertyOp9
 70
     1
102
RTVSPropertyOp10
 70
     1
102
RTVSPropertyOp11
 70
     1
102
RTVSPropertyOp12
 70
     1
102
RTVSPropertyOp13
 70
     1
102
RTVSPropertyOp14
 70
     1
102
RTVSPropertyOp15
 70
     1
102
RTVSPropertyOp16
 70
     1
102
RTVSPropertyOp17
 70
     1
102
RTVSPropertyOp18
 70
     1
102
RTVSPropertyOp19
 70
     1
102
RTVSPropertyOp20
 70
     1
102
RTVSPropertyOp21
 70
     1
102
RTVSPropertyOp22
 70
     1
102
RTVSPropertyOp23
 70
     1
102
RTVSPropertyOp24
 70
     1
102
RTVSPropertyOp25
 70
     1
102
RTVSPropertyOp26
 70
     1
102
RTVSPropertyOp27
 70
     1
102
RTVSPropertyOp28
 70
     1
102
RTVSPropertyOp29
 70
     1
102
RTVSPropertyOp30
 70
     1
102
RTVSPropertyOp31
 70
     1
102
RTVSPropertyOp32
 70
     1
  0
XRECORD
  5
4F7
102
{ACAD_REACTORS
330
4F6
102
}
330
4F6
100
AcDbXrecord
280
     1
102
RTVSPropertyOp0
 70
     1
102
RTVSPropertyOp1
 70
     1
102
RTVSPropertyOp2
 70
     1
102
RTVSPropertyOp3
 70
     1
102
RTVSPropertyOp4
 70
     1
102
RTVSPropertyOp5
 70
     1
102
RTVSPropertyOp6
 70
     1
102
RTVSPropertyOp7
 70
     1
102
RTVSPropertyOp8
 70
     1
102
RTVSPropertyOp9
 70
     1
102
RTVSPropertyOp10
 70
     1
102
RTVSPropertyOp11
 70
     1
102
RTVSPropertyOp12
 70
     1
102
RTVSPropertyOp13
 70
     1
102
RTVSPropertyOp14
 70
     1
102
RTVSPropertyOp15
 70
     1
102
RTVSPropertyOp16
 70
     1
102
RTVSPropertyOp17
 70
     1
102
RTVSPropertyOp18
 70
     1
102
RTVSPropertyOp19
 70
     1
102
RTVSPropertyOp20
 70
     1
102
RTVSPropertyOp21
 70
     1
102
RTVSPropertyOp22
 70
     1
102
RTVSPropertyOp23
 70
     1
102
RTVSPropertyOp24
 70
     1
102
RTVSPropertyOp25
 70
     1
102
RTVSPropertyOp26
 70
     1
102
RTVSPropertyOp27
 70
     1
102
RTVSPropertyOp28
 70
     1
102
RTVSPropertyOp29
 70
     1
102
RTVSPropertyOp30
 70
     1
102
RTVSPropertyOp31
 70
     1
102
RTVSPropertyOp32
 70
     1
  0
XRECORD
  5
4FF
102
{ACAD_REACTORS
330
4FE
102
}
330
4FE
100
AcDbXrecord
280
     1
102
RTVSPropertyOp0
 70
     1
102
RTVSPropertyOp1
 70
     1
102
RTVSPropertyOp2
 70
     1
102
RTVSPropertyOp3
 70
     1
102
RTVSPropertyOp4
 70
     1
102
RTVSPropertyOp5
 70
     1
102
RTVSPropertyOp6
 70
     1
102
RTVSPropertyOp7
 70
     1
102
RTVSPropertyOp8
 70
     1
102
RTVSPropertyOp9
 70
     1
102
RTVSPropertyOp10
 70
     1
102
RTVSPropertyOp11
 70
     1
102
RTVSPropertyOp12
 70
     1
102
RTVSPropertyOp13
 70
     1
102
RTVSPropertyOp14
 70
     1
102
RTVSPropertyOp15
 70
     1
102
RTVSPropertyOp16
 70
     1
102
RTVSPropertyOp17
 70
     1
102
RTVSPropertyOp18
 70
     1
102
RTVSPropertyOp19
 70
     1
102
RTVSPropertyOp20
 70
     1
102
RTVSPropertyOp21
 70
     1
102
RTVSPropertyOp22
 70
     1
102
RTVSPropertyOp23
 70
     1
102
RTVSPropertyOp24
 70
     1
102
RTVSPropertyOp25
 70
     1
102
RTVSPropertyOp26
 70
     1
102
RTVSPropertyOp27
 70
     1
102
RTVSPropertyOp28
 70
     1
102
RTVSPropertyOp29
 70
     1
102
RTVSPropertyOp30
 70
     1
102
RTVSPropertyOp31
 70
     1
102
RTVSPropertyOp32
 70
     1
  0
XRECORD
  5
4F3
102
{ACAD_REACTORS
330
4F2
102
}
330
4F2
100
AcDbXrecord
280
     1
102
RTVSPropertyOp0
 70
     1
102
RTVSPropertyOp1
 70
     1
102
RTVSPropertyOp2
 70
     1
102
RTVSPropertyOp3
 70
     1
102
RTVSPropertyOp4
 70
     1
102
RTVSPropertyOp5
 70
     1
102
RTVSPropertyOp6
 70
     1
102
RTVSPropertyOp7
 70
     1
102
RTVSPropertyOp8
 70
     1
102
RTVSPropertyOp9
 70
     1
102
RTVSPropertyOp10
 70
     1
102
RTVSPropertyOp11
 70
     1
102
RTVSPropertyOp12
 70
     1
102
RTVSPropertyOp13
 70
     1
102
RTVSPropertyOp14
 70
     1
102
RTVSPropertyOp15
 70
     1
102
RTVSPropertyOp16
 70
     1
102
RTVSPropertyOp17
 70
     1
102
RTVSPropertyOp18
 70
     1
102
RTVSPropertyOp19
 70
     1
102
RTVSPropertyOp20
 70
     1
102
RTVSPropertyOp21
 70
     1
102
RTVSPropertyOp22
 70
     1
102
RTVSPropertyOp23
 70
     1
102
RTVSPropertyOp24
 70
     1
102
RTVSPropertyOp25
 70
     1
102
RTVSPropertyOp26
 70
     1
102
RTVSPropertyOp27
 70
     1
102
RTVSPropertyOp28
 70
     1
102
RTVSPropertyOp29
 70
     1
102
RTVSPropertyOp30
 70
     1
102
RTVSPropertyOp31
 70
     1
102
RTVSPropertyOp32
 70
     1
  0
XRECORD
  5
4F5
102
{ACAD_REACTORS
330
4F4
102
}
330
4F4
100
AcDbXrecord
280
     1
102
RTVSPropertyOp0
 70
     1
102
RTVSPropertyOp1
 70
     1
102
RTVSPropertyOp2
 70
     1
102
RTVSPropertyOp3
 70
     1
102
RTVSPropertyOp4
 70
     1
102
RTVSPropertyOp5
 70
     1
102
RTVSPropertyOp6
 70
     1
102
RTVSPropertyOp7
 70
     1
102
RTVSPropertyOp8
 70
     1
102
RTVSPropertyOp9
 70
     1
102
RTVSPropertyOp10
 70
     1
102
RTVSPropertyOp11
 70
     1
102
RTVSPropertyOp12
 70
     1
102
RTVSPropertyOp13
 70
     1
102
RTVSPropertyOp14
 70
     1
102
RTVSPropertyOp15
 70
     1
102
RTVSPropertyOp16
 70
     1
102
RTVSPropertyOp17
 70
     1
102
RTVSPropertyOp18
 70
     1
102
RTVSPropertyOp19
 70
     1
102
RTVSPropertyOp20
 70
     1
102
RTVSPropertyOp21
 70
     1
102
RTVSPropertyOp22
 70
     1
102
RTVSPropertyOp23
 70
     1
102
RTVSPropertyOp24
 70
     1
102
RTVSPropertyOp25
 70
     1
102
RTVSPropertyOp26
 70
     1
102
RTVSPropertyOp27
 70
     1
102
RTVSPropertyOp28
 70
     1
102
RTVSPropertyOp29
 70
     1
102
RTVSPropertyOp30
 70
     1
102
RTVSPropertyOp31
 70
     1
102
RTVSPropertyOp32
 70
     1
  0
XRECORD
  5
4FD
102
{ACAD_REACTORS
330
4FC
102
}
330
4FC
100
AcDbXrecord
280
     1
102
RTVSPropertyOp0
 70
     1
102
RTVSPropertyOp1
 70
     1
102
RTVSPropertyOp2
 70
     1
102
RTVSPropertyOp3
 70
     1
102
RTVSPropertyOp4
 70
     1
102
RTVSPropertyOp5
 70
     1
102
RTVSPropertyOp6
 70
     1
102
RTVSPropertyOp7
 70
     1
102
RTVSPropertyOp8
 70
     1
102
RTVSPropertyOp9
 70
     1
102
RTVSPropertyOp10
 70
     1
102
RTVSPropertyOp11
 70
     1
102
RTVSPropertyOp12
 70
     1
102
RTVSPropertyOp13
 70
     1
102
RTVSPropertyOp14
 70
     1
102
RTVSPropertyOp15
 70
     1
102
RTVSPropertyOp16
 70
     1
102
RTVSPropertyOp17
 70
     1
102
RTVSPropertyOp18
 70
     1
102
RTVSPropertyOp19
 70
     1
102
RTVSPropertyOp20
 70
     1
102
RTVSPropertyOp21
 70
     1
102
RTVSPropertyOp22
 70
     1
102
RTVSPropertyOp23
 70
     1
102
RTVSPropertyOp24
 70
     1
102
RTVSPropertyOp25
 70
     1
102
RTVSPropertyOp26
 70
     1
102
RTVSPropertyOp27
 70
     1
102
RTVSPropertyOp28
 70
     1
102
RTVSPropertyOp29
 70
     1
102
RTVSPropertyOp30
 70
     1
102
RTVSPropertyOp31
 70
     1
102
RTVSPropertyOp32
 70
     1
  0
XRECORD
  5
4E1
102
{ACAD_REACTORS
330
4E0
102
}
330
4E0
100
AcDbXrecord
280
     1
102
RTVSPropertyOp0
 70
     1
102
RTVSPropertyOp1
 70
     1
102
RTVSPropertyOp2
 70
     1
102
RTVSPropertyOp3
 70
     1
102
RTVSPropertyOp4
 70
     1
102
RTVSPropertyOp5
 70
     1
102
RTVSPropertyOp6
 70
     1
102
RTVSPropertyOp7
 70
     1
102
RTVSPropertyOp8
 70
     1
102
RTVSPropertyOp9
 70
     1
102
RTVSPropertyOp10
 70
     1
102
RTVSPropertyOp11
 70
     1
102
RTVSPropertyOp12
 70
     1
102
RTVSPropertyOp13
 70
     1
102
RTVSPropertyOp14
 70
     1
102
RTVSPropertyOp15
 70
     1
102
RTVSPropertyOp16
 70
     1
102
RTVSPropertyOp17
 70
     1
102
RTVSPropertyOp18
 70
     1
102
RTVSPropertyOp19
 70
     1
102
RTVSPropertyOp20
 70
     1
102
RTVSPropertyOp21
 70
     1
102
RTVSPropertyOp22
 70
     1
102
RTVSPropertyOp23
 70
     1
102
RTVSPropertyOp24
 70
     1
102
RTVSPropertyOp25
 70
     1
102
RTVSPropertyOp26
 70
     1
102
RTVSPropertyOp27
 70
     1
102
RTVSPropertyOp28
 70
     1
102
RTVSPropertyOp29
 70
     1
102
RTVSPropertyOp30
 70
     1
102
RTVSPropertyOp31
 70
     1
102
RTVSPropertyOp32
 70
     1
  0
XRECORD
  5
4E3
102
{ACAD_REACTORS
330
4E2
102
}
330
4E2
100
AcDbXrecord
280
     1
102
RTVSPropertyOp0
 70
     1
102
RTVSPropertyOp1
 70
     1
102
RTVSPropertyOp2
 70
     1
102
RTVSPropertyOp3
 70
     1
102
RTVSPropertyOp4
 70
     1
102
RTVSPropertyOp5
 70
     1
102
RTVSPropertyOp6
 70
     1
102
RTVSPropertyOp7
 70
     1
102
RTVSPropertyOp8
 70
     1
102
RTVSPropertyOp9
 70
     1
102
RTVSPropertyOp10
 70
     1
102
RTVSPropertyOp11
 70
     1
102
RTVSPropertyOp12
 70
     1
102
RTVSPropertyOp13
 70
     1
102
RTVSPropertyOp14
 70
     1
102
RTVSPropertyOp15
 70
     1
102
RTVSPropertyOp16
 70
     1
102
RTVSPropertyOp17
 70
     1
102
RTVSPropertyOp18
 70
     1
102
RTVSPropertyOp19
 70
     1
102
RTVSPropertyOp20
 70
     1
102
RTVSPropertyOp21
 70
     1
102
RTVSPropertyOp22
 70
     1
102
RTVSPropertyOp23
 70
     1
102
RTVSPropertyOp24
 70
     1
102
RTVSPropertyOp25
 70
     1
102
RTVSPropertyOp26
 70
     1
102
RTVSPropertyOp27
 70
     1
102
RTVSPropertyOp28
 70
     1
102
RTVSPropertyOp29
 70
     1
102
RTVSPropertyOp30
 70
     1
102
RTVSPropertyOp31
 70
     1
102
RTVSPropertyOp32
 70
     1
  0
XRECORD
  5
4E5
102
{ACAD_REACTORS
330
4E4
102
}
330
4E4
100
AcDbXrecord
280
     1
102
RTVSPropertyOp0
 70
     1
102
RTVSPropertyOp1
 70
     1
102
RTVSPropertyOp2
 70
     1
102
RTVSPropertyOp3
 70
     1
102
RTVSPropertyOp4
 70
     1
102
RTVSPropertyOp5
 70
     1
102
RTVSPropertyOp6
 70
     1
102
RTVSPropertyOp7
 70
     1
102
RTVSPropertyOp8
 70
     1
102
RTVSPropertyOp9
 70
     1
102
RTVSPropertyOp10
 70
     1
102
RTVSPropertyOp11
 70
     1
102
RTVSPropertyOp12
 70
     1
102
RTVSPropertyOp13
 70
     1
102
RTVSPropertyOp14
 70
     1
102
RTVSPropertyOp15
 70
     1
102
RTVSPropertyOp16
 70
     1
102
RTVSPropertyOp17
 70
     1
102
RTVSPropertyOp18
 70
     1
102
RTVSPropertyOp19
 70
     1
102
RTVSPropertyOp20
 70
     1
102
RTVSPropertyOp21
 70
     1
102
RTVSPropertyOp22
 70
     1
102
RTVSPropertyOp23
 70
     1
102
RTVSPropertyOp24
 70
     1
102
RTVSPropertyOp25
 70
     1
102
RTVSPropertyOp26
 70
     1
102
RTVSPropertyOp27
 70
     1
102
RTVSPropertyOp28
 70
     1
102
RTVSPropertyOp29
 70
     1
102
RTVSPropertyOp30
 70
     1
102
RTVSPropertyOp31
 70
     1
102
RTVSPropertyOp32
 70
     1
  0
XRECORD
  5
4E7
102
{ACAD_REACTORS
330
4E6
102
}
330
4E6
100
AcDbXrecord
280
     1
102
RTVSPropertyOp0
 70
     1
102
RTVSPropertyOp1
 70
     1
102
RTVSPropertyOp2
 70
     1
102
RTVSPropertyOp3
 70
     1
102
RTVSPropertyOp4
 70
     1
102
RTVSPropertyOp5
 70
     1
102
RTVSPropertyOp6
 70
     1
102
RTVSPropertyOp7
 70
     1
102
RTVSPropertyOp8
 70
     1
102
RTVSPropertyOp9
 70
     1
102
RTVSPropertyOp10
 70
     1
102
RTVSPropertyOp11
 70
     1
102
RTVSPropertyOp12
 70
     1
102
RTVSPropertyOp13
 70
     1
102
RTVSPropertyOp14
 70
     1
102
RTVSPropertyOp15
 70
     1
102
RTVSPropertyOp16
 70
     1
102
RTVSPropertyOp17
 70
     1
102
RTVSPropertyOp18
 70
     1
102
RTVSPropertyOp19
 70
     1
102
RTVSPropertyOp20
 70
     1
102
RTVSPropertyOp21
 70
     1
102
RTVSPropertyOp22
 70
     1
102
RTVSPropertyOp23
 70
     1
102
RTVSPropertyOp24
 70
     1
102
RTVSPropertyOp25
 70
     1
102
RTVSPropertyOp26
 70
     1
102
RTVSPropertyOp27
 70
     1
102
RTVSPropertyOp28
 70
     1
102
RTVSPropertyOp29
 70
     1
102
RTVSPropertyOp30
 70
     1
102
RTVSPropertyOp31
 70
     1
102
RTVSPropertyOp32
 70
     1
  0
XRECORD
  5
4FB
102
{ACAD_REACTORS
330
4FA
102
}
330
4FA
100
AcDbXrecord
280
     1
102
RTVSPropertyOp0
 70
     1
102
RTVSPropertyOp1
 70
     1
102
RTVSPropertyOp2
 70
     1
102
RTVSPropertyOp3
 70
     1
102
RTVSPropertyOp4
 70
     1
102
RTVSPropertyOp5
 70
     1
102
RTVSPropertyOp6
 70
     1
102
RTVSPropertyOp7
 70
     1
102
RTVSPropertyOp8
 70
     1
102
RTVSPropertyOp9
 70
     1
102
RTVSPropertyOp10
 70
     1
102
RTVSPropertyOp11
 70
     1
102
RTVSPropertyOp12
 70
     1
102
RTVSPropertyOp13
 70
     1
102
RTVSPropertyOp14
 70
     1
102
RTVSPropertyOp15
 70
     1
102
RTVSPropertyOp16
 70
     1
102
RTVSPropertyOp17
 70
     1
102
RTVSPropertyOp18
 70
     1
102
RTVSPropertyOp19
 70
     1
102
RTVSPropertyOp20
 70
     1
102
RTVSPropertyOp21
 70
     1
102
RTVSPropertyOp22
 70
     1
102
RTVSPropertyOp23
 70
     1
102
RTVSPropertyOp24
 70
     1
102
RTVSPropertyOp25
 70
     1
102
RTVSPropertyOp26
 70
     1
102
RTVSPropertyOp27
 70
     1
102
RTVSPropertyOp28
 70
     1
102
RTVSPropertyOp29
 70
     1
102
RTVSPropertyOp30
 70
     1
102
RTVSPropertyOp31
 70
     1
102
RTVSPropertyOp32
 70
     1
  0
XRECORD
  5
4F1
102
{ACAD_REACTORS
330
4F0
102
}
330
4F0
100
AcDbXrecord
280
     1
102
RTVSPropertyOp0
 70
     1
102
RTVSPropertyOp1
 70
     1
102
RTVSPropertyOp2
 70
     1
102
RTVSPropertyOp3
 70
     1
102
RTVSPropertyOp4
 70
     1
102
RTVSPropertyOp5
 70
     1
102
RTVSPropertyOp6
 70
     1
102
RTVSPropertyOp7
 70
     1
102
RTVSPropertyOp8
 70
     1
102
RTVSPropertyOp9
 70
     1
102
RTVSPropertyOp10
 70
     1
102
RTVSPropertyOp11
 70
     1
102
RTVSPropertyOp12
 70
     1
102
RTVSPropertyOp13
 70
     1
102
RTVSPropertyOp14
 70
     1
102
RTVSPropertyOp15
 70
     1
102
RTVSPropertyOp16
 70
     1
102
RTVSPropertyOp17
 70
     1
102
RTVSPropertyOp18
 70
     1
102
RTVSPropertyOp19
 70
     1
102
RTVSPropertyOp20
 70
     1
102
RTVSPropertyOp21
 70
     1
102
RTVSPropertyOp22
 70
     1
102
RTVSPropertyOp23
 70
     1
102
RTVSPropertyOp24
 70
     1
102
RTVSPropertyOp25
 70
     1
102
RTVSPropertyOp26
 70
     1
102
RTVSPropertyOp27
 70
     1
102
RTVSPropertyOp28
 70
     1
102
RTVSPropertyOp29
 70
     1
102
RTVSPropertyOp30
 70
     1
102
RTVSPropertyOp31
 70
     1
102
RTVSPropertyOp32
 70
     1
  0
XRECORD
  5
4F9
102
{ACAD_REACTORS
330
4F8
102
}
330
4F8
100
AcDbXrecord
280
     1
102
RTVSPropertyOp0
 70
     1
102
RTVSPropertyOp1
 70
     1
102
RTVSPropertyOp2
 70
     1
102
RTVSPropertyOp3
 70
     1
102
RTVSPropertyOp4
 70
     1
102
RTVSPropertyOp5
 70
     1
102
RTVSPropertyOp6
 70
     1
102
RTVSPropertyOp7
 70
     1
102
RTVSPropertyOp8
 70
     1
102
RTVSPropertyOp9
 70
     1
102
RTVSPropertyOp10
 70
     1
102
RTVSPropertyOp11
 70
     1
102
RTVSPropertyOp12
 70
     1
102
RTVSPropertyOp13
 70
     1
102
RTVSPropertyOp14
 70
     1
102
RTVSPropertyOp15
 70
     1
102
RTVSPropertyOp16
 70
     1
102
RTVSPropertyOp17
 70
     1
102
RTVSPropertyOp18
 70
     1
102
RTVSPropertyOp19
 70
     1
102
RTVSPropertyOp20
 70
     1
102
RTVSPropertyOp21
 70
     1
102
RTVSPropertyOp22
 70
     1
102
RTVSPropertyOp23
 70
     1
102
RTVSPropertyOp24
 70
     1
102
RTVSPropertyOp25
 70
     1
102
RTVSPropertyOp26
 70
     1
102
RTVSPropertyOp27
 70
     1
102
RTVSPropertyOp28
 70
     1
102
RTVSPropertyOp29
 70
     1
102
RTVSPropertyOp30
 70
     1
102
RTVSPropertyOp31
 70
     1
102
RTVSPropertyOp32
 70
     1
  0
ENDSEC
  0
EOF
