  0
SECTION
  2
HEADER
  9
$ACADVER
  1
AC1015
  9
$ACADMAINTVER
 70
     6
  9
$DWGCODEPAGE
  3
ANSI_949
  9
$INSBASE
 10
0.0
 20
0.0
 30
0.0
  9
$EXTMIN
 10
1.000000000000000E+20
 20
1.000000000000000E+20
 30
1.000000000000000E+20
  9
$EXTMAX
 10
-1.000000000000000E+20
 20
-1.000000000000000E+20
 30
-1.000000000000000E+20
  9
$LIMMIN
 10
0.0
 20
0.0
  9
$LIMMAX
 10
12.0
 20
9.0
  9
$ORTHOMODE
 70
     0
  9
$REGENMODE
 70
     1
  9
$FILLMODE
 70
     1
  9
$QTEXTMODE
 70
     0
  9
$MIRRTEXT
 70
     1
  9
$LTSCALE
 40
1.0
  9
$ATTMODE
 70
     1
  9
$TEXTSIZE
 40
0.2
  9
$TRACEWID
 40
0.05
  9
$TEXTSTYLE
  7
Standard
  9
$CLAYER
  8
0
  9
$CELTYPE
  6
ByLayer
  9
$CECOLOR
 62
   256
  9
$CELTSCALE
 40
1.0
  9
$DISPSILH
 70
     0
  9
$DIMSCALE
 40
1.0
  9
$DIMASZ
 40
0.18
  9
$DIMEXO
 40
0.0625
  9
$DIMDLI
 40
0.38
  9
$DIMRND
 40
0.0
  9
$DIMDLE
 40
0.0
  9
$DIMEXE
 40
0.18
  9
$DIMTP
 40
0.0
  9
$DIMTM
 40
0.0
  9
$DIMTXT
 40
0.18
  9
$DIMCEN
 40
0.09
  9
$DIMTSZ
 40
0.0
  9
$DIMTOL
 70
     0
  9
$DIMLIM
 70
     0
  9
$DIMTIH
 70
     1
  9
$DIMTOH
 70
     1
  9
$DIMSE1
 70
     0
  9
$DIMSE2
 70
     0
  9
$DIMTAD
 70
     0
  9
$DIMZIN
 70
     0
  9
$DIMBLK
  1

  9
$DIMASO
 70
     1
  9
$DIMSHO
 70
     1
  9
$DIMPOST
  1

  9
$DIMAPOST
  1

  9
$DIMALT
 70
     0
  9
$DIMALTD
 70
     2
  9
$DIMALTF
 40
25.4
  9
$DIMLFAC
 40
1.0
  9
$DIMTOFL
 70
     0
  9
$DIMTVP
 40
0.0
  9
$DIMTIX
 70
     0
  9
$DIMSOXD
 70
     0
  9
$DIMSAH
 70
     0
  9
$DIMBLK1
  1

  9
$DIMBLK2
  1

  9
$DIMSTYLE
  2
Standard
  9
$DIMCLRD
 70
     0
  9
$DIMCLRE
 70
     0
  9
$DIMCLRT
 70
     0
  9
$DIMTFAC
 40
1.0
  9
$DIMGAP
 40
0.09
  9
$DIMJUST
 70
     0
  9
$DIMSD1
 70
     0
  9
$DIMSD2
 70
     0
  9
$DIMTOLJ
 70
     1
  9
$DIMTZIN
 70
     0
  9
$DIMALTZ
 70
     0
  9
$DIMALTTZ
 70
     0
  9
$DIMUPT
 70
     0
  9
$DIMDEC
 70
     4
  9
$DIMTDEC
 70
     4
  9
$DIMALTU
 70
     2
  9
$DIMALTTD
 70
     2
  9
$DIMTXSTY
  7
Standard
  9
$DIMAUNIT
 70
     0
  9
$DIMADEC
 70
     0
  9
$DIMALTRND
 40
0.0
  9
$DIMAZIN
 70
     0
  9
$DIMDSEP
 70
    46
  9
$DIMATFIT
 70
     3
  9
$DIMFRAC
 70
     0
  9
$DIMLDRBLK
  1

  9
$DIMLUNIT
 70
     2
  9
$DIMLWD
 70
    -2
  9
$DIMLWE
 70
    -2
  9
$DIMTMOVE
 70
     0
  9
$LUNITS
 70
     2
  9
$LUPREC
 70
     4
  9
$SKETCHINC
 40
0.1
  9
$FILLETRAD
 40
0.5
  9
$AUNITS
 70
     0
  9
$AUPREC
 70
     0
  9
$MENU
  1
.
  9
$ELEVATION
 40
0.0
  9
$PELEVATION
 40
0.0
  9
$THICKNESS
 40
0.0
  9
$LIMCHECK
 70
     0
  9
$CHAMFERA
 40
0.5
  9
$CHAMFERB
 40
0.5
  9
$CHAMFERC
 40
1.0
  9
$CHAMFERD
 40
0.0
  9
$SKPOLY
 70
     0
  9
$TDCREATE
 40
2456522.616750556
  9
$TDUCREATE
 40
2456522.116750556
  9
$TDUPDATE
 40
2456522.616780567
  9
$TDUUPDATE
 40
2456522.116780567
  9
$TDINDWG
 40
0.0000000116
  9
$TDUSRTIMER
 40
0.0000000116
  9
$USRTIMER
 70
     1
  9
$ANGBASE
 50
0.0
  9
$ANGDIR
 70
     0
  9
$PDMODE
 70
     0
  9
$PDSIZE
 40
0.0
  9
$PLINEWID
 40
0.0
  9
$SPLFRAME
 70
     0
  9
$SPLINETYPE
 70
     6
  9
$SPLINESEGS
 70
     8
  9
$HANDSEED
  5
54A
  9
$SURFTAB1
 70
     6
  9
$SURFTAB2
 70
     6
  9
$SURFTYPE
 70
     6
  9
$SURFU
 70
     6
  9
$SURFV
 70
     6
  9
$UCSBASE
  2

  9
$UCSNAME
  2

  9
$UCSORG
 10
0.0
 20
0.0
 30
0.0
  9
$UCSXDIR
 10
1.0
 20
0.0
 30
0.0
  9
$UCSYDIR
 10
0.0
 20
1.0
 30
0.0
  9
$UCSORTHOREF
  2

  9
$UCSORTHOVIEW
 70
     0
  9
$UCSORGTOP
 10
0.0
 20
0.0
 30
0.0
  9
$UCSORGBOTTOM
 10
0.0
 20
0.0
 30
0.0
  9
$UCSORGLEFT
 10
0.0
 20
0.0
 30
0.0
  9
$UCSORGRIGHT
 10
0.0
 20
0.0
 30
0.0
  9
$UCSORGFRONT
 10
0.0
 20
0.0
 30
0.0
  9
$UCSORGBACK
 10
0.0
 20
0.0
 30
0.0
  9
$PUCSBASE
  2

  9
$PUCSNAME
  2

  9
$PUCSORG
 10
0.0
 20
0.0
 30
0.0
  9
$PUCSXDIR
 10
1.0
 20
0.0
 30
0.0
  9
$PUCSYDIR
 10
0.0
 20
1.0
 30
0.0
  9
$PUCSORTHOREF
  2

  9
$PUCSORTHOVIEW
 70
     0
  9
$PUCSORGTOP
 10
0.0
 20
0.0
 30
0.0
  9
$PUCSORGBOTTOM
 10
0.0
 20
0.0
 30
0.0
  9
$PUCSORGLEFT
 10
0.0
 20
0.0
 30
0.0
  9
$PUCSORGRIGHT
 10
0.0
 20
0.0
 30
0.0
  9
$PUCSORGFRONT
 10
0.0
 20
0.0
 30
0.0
  9
$PUCSORGBACK
 10
0.0
 20
0.0
 30
0.0
  9
$USERI1
 70
     0
  9
$USERI2
 70
     0
  9
$USERI3
 70
     0
  9
$USERI4
 70
     0
  9
$USERI5
 70
     0
  9
$USERR1
 40
0.0
  9
$USERR2
 40
0.0
  9
$USERR3
 40
0.0
  9
$USERR4
 40
0.0
  9
$USERR5
 40
0.0
  9
$WORLDVIEW
 70
     1
  9
$SHADEDGE
 70
     3
  9
$SHADEDIF
 70
    70
  9
$TILEMODE
 70
     1
  9
$MAXACTVP
 70
    64
  9
$PINSBASE
 10
0.0
 20
0.0
 30
0.0
  9
$PLIMCHECK
 70
     0
  9
$PEXTMIN
 10
1.000000000000000E+20
 20
1.000000000000000E+20
 30
1.000000000000000E+20
  9
$PEXTMAX
 10
-1.000000000000000E+20
 20
-1.000000000000000E+20
 30
-1.000000000000000E+20
  9
$PLIMMIN
 10
0.0
 20
0.0
  9
$PLIMMAX
 10
12.0
 20
9.0
  9
$UNITMODE
 70
     0
  9
$VISRETAIN
 70
     1
  9
$PLINEGEN
 70
     0
  9
$PSLTSCALE
 70
     1
  9
$TREEDEPTH
 70
  3020
  9
$CMLSTYLE
  2
Standard
  9
$CMLJUST
 70
     0
  9
$CMLSCALE
 40
1.0
  9
$PROXYGRAPHICS
 70
     1
  9
$MEASUREMENT
 70
     0
  9
$CELWEIGHT
370
    -1
  9
$ENDCAPS
280
     0
  9
$JOINSTYLE
280
     0
  9
$LWDISPLAY
290
     1
  9
$INSUNITS
 70
     4
  9
$HYPERLINKBASE
  1

  9
$STYLESHEET
  1

  9
$XEDIT
290
     1
  9
$CEPSNTYPE
380
     0
  9
$PSTYLEMODE
290
     1
  9
$FINGERPRINTGUID
  2
{1BFD092A-3CE1-494F-9399-4A21413DBD3D}
  9
$VERSIONGUID
  2
{FAEB1C32-E019-11D5-929B-00C0DF256EC4}
  9
$EXTNAMES
290
     1
  9
$PSVPSCALE
 40
0.0
  9
$OLESTARTUP
290
     0
  0
ENDSEC
  0
SECTION
  2
CLASSES
  0
CLASS
  1
ACDBDICTIONARYWDFLT
  2
AcDbDictionaryWithDefault
  3
ObjectDBX Classes
 90
        0
280
     0
281
     0
  0
CLASS
  1
VISUALSTYLE
  2
AcDbVisualStyle
  3
ObjectDBX Classes
 90
     4095
280
     0
281
     0
  0
CLASS
  1
MATERIAL
  2
AcDbMaterial
  3
ObjectDBX Classes
 90
     1153
280
     0
281
     0
  0
CLASS
  1
SPATIAL_FILTER
  2
AcDbSpatialFilter
  3
ObjectDBX Classes
 90
        0
280
     0
281
     0
  0
CLASS
  1
SCALE
  2
AcDbScale
  3
ObjectDBX Classes
 90
     1153
280
     0
281
     0
  0
CLASS
  1
DICTIONARYVAR
  2
AcDbDictionaryVar
  3
ObjectDBX Classes
 90
        0
280
     0
281
     0
  0
CLASS
  1
ACDBPLACEHOLDER
  2
AcDbPlaceHolder
  3
ObjectDBX Classes
 90
        0
280
     0
281
     0
  0
CLASS
  1
LAYOUT
  2
AcDbLayout
  3
ObjectDBX Classes
 90
        0
280
     0
281
     0
  0
ENDSEC
  0
SECTION
  2
TABLES
  0
TABLE
  2
VPORT
  5
8
330
0
100
AcDbSymbolTable
 70
     1
  0
VPORT
  5
29
330
8
100
AcDbSymbolTableRecord
100
AcDbViewportTableRecord
  2
*Active
 70
     0
 10
0.0
 20
0.0
 11
1.0
 21
1.0
 12
147.7398812376471
 22
102.8470782829299
 13
0.0
 23
0.0
 14
0.5
 24
0.5
 15
0.5
 25
0.5
 16
0.0
 26
0.0
 36
1.0
 17
0.0
 27
0.0
 37
0.0
 40
205.6731275837885
 41
1.415787084806077
 42
50.0
 43
0.0
 44
0.0
 50
0.0
 51
0.0
 71
     0
 72
   100
 73
     1
 74
     3
 75
     0
 76
     0
 77
     0
 78
     0
281
     0
 65
     1
110
0.0
120
0.0
130
0.0
111
1.0
121
0.0
131
0.0
112
0.0
122
1.0
132
0.0
 79
     0
146
0.0
  0
ENDTAB
  0
TABLE
  2
LTYPE
  5
5
330
0
100
AcDbSymbolTable
 70
     4
  0
LTYPE
  5
14
330
5
100
AcDbSymbolTableRecord
100
AcDbLinetypeTableRecord
  2
ByBlock
 70
     0
  3

 72
    65
 73
     0
 40
0.0
  0
LTYPE
  5
15
330
5
100
AcDbSymbolTableRecord
100
AcDbLinetypeTableRecord
  2
ByLayer
 70
     0
  3

 72
    65
 73
     0
 40
0.0
  0
LTYPE
  5
16
330
5
100
AcDbSymbolTableRecord
100
AcDbLinetypeTableRecord
  2
Continuous
 70
     0
  3
Solid line
 72
    65
 73
     0
 40
0.0
  0
LTYPE
  5
11D
330
5
100
AcDbSymbolTableRecord
100
AcDbLinetypeTableRecord
  2
Double Dashed
 70
     0
  3
- - - - - 
 72
    65
 73
     4
 40
10.93611073493958
 49
5.291666507720947
 74
     0
 49
-2.116666555404663
 74
     0
 49
1.411111116409302
 74
     0
 49
-2.116666555404668
 74
     0
  0
LTYPE
  5
11F
330
5
100
AcDbSymbolTableRecord
100
AcDbLinetypeTableRecord
  2
Hidden Line
 70
     0
  3
- - - - - 
 72
    65
 73
     2
 40
3.912222232818603
 49
2.822222232818604
 74
     0
 49
-1.089999999999999
 74
     0
  0
LTYPE
  5
359
330
5
100
AcDbSymbolTableRecord
100
AcDbLinetypeTableRecord
  2
Dot & Dashed
 70
     0
  3
- - - - - 
 72
    65
 73
     4
 40
6.702777624130249
 49
3.527777671813965
 74
     0
 49
-1.763888835906982
 74
     0
 49
0.0
 74
     0
 49
-1.411111116409302
 74
     0
  0
ENDTAB
  0
TABLE
  2
LAYER
  5
2
330
0
100
AcDbSymbolTable
 70
     4
  0
LAYER
  5
10
330
2
100
AcDbSymbolTableRecord
100
AcDbLayerTableRecord
  2
0
 70
     0
 62
     7
  6
Continuous
370
    -3
390
F
  0
LAYER
  5
40
330
2
100
AcDbSymbolTableRecord
100
AcDbLayerTableRecord
  2
Doc_ Finishes
 70
     0
 62
     7
  6
Continuous
370
    -3
390
F
  0
LAYER
  5
DB
330
2
100
AcDbSymbolTableRecord
100
AcDbLayerTableRecord
  2
Doc_ Floor
 70
     0
 62
     7
  6
Continuous
370
    -3
390
F
  0
LAYER
  5
ED
330
2
100
AcDbSymbolTableRecord
100
AcDbLayerTableRecord
  2
Des_ Furniture
 70
     0
 62
     7
  6
Continuous
370
    -3
390
F
  0
ENDTAB
  0
TABLE
  2
STYLE
  5
3
330
0
100
AcDbSymbolTable
 70
     4
  0
STYLE
  5
11
330
3
100
AcDbSymbolTableRecord
100
AcDbTextStyleTableRecord
  2
Standard
 70
     0
 40
0.0
 41
1.0
 50
0.0
 71
     0
 42
0.2
  3
txt
  4

  0
STYLE
  5
D6
330
3
100
AcDbSymbolTableRecord
100
AcDbTextStyleTableRecord
  2
GENERATED_STYLE_1
 70
     0
 40
0.0
 41
1.0
 50
0.0
 71
     0
 42
0.2
  3

  4

1001
ACAD
1000
Century Gothic
1071
       34
  0
STYLE
  5
D9
330
3
100
AcDbSymbolTableRecord
100
AcDbTextStyleTableRecord
  2
GENERATED_STYLE_2
 70
     0
 40
0.0
 41
1.0
 50
0.0
 71
     0
 42
0.2
  3

  4

1001
ACAD
1000
DilleniaUPC
1071
 33554450
  0
STYLE
  5
479
330
3
100
AcDbSymbolTableRecord
100
AcDbTextStyleTableRecord
  2
GENERATED_STYLE_3
 70
     0
 40
0.0
 41
1.0
 50
0.0
 71
     0
 42
0.2
  3

  4

1001
ACAD
1000
Arial
1071
       34
  0
ENDTAB
  0
TABLE
  2
VIEW
  5
6
330
0
100
AcDbSymbolTable
 70
     0
  0
ENDTAB
  0
TABLE
  2
UCS
  5
7
330
0
100
AcDbSymbolTable
 70
     0
  0
ENDTAB
  0
TABLE
  2
APPID
  5
9
330
0
100
AcDbSymbolTable
 70
     1
  0
APPID
  5
12
330
9
100
AcDbSymbolTableRecord
100
AcDbRegAppTableRecord
  2
ACAD
 70
     0
  0
ENDTAB
  0
TABLE
  2
DIMSTYLE
  5
A
330
0
100
AcDbSymbolTable
 70
     1
100
AcDbDimStyleTable
  0
DIMSTYLE
105
27
330
A
100
AcDbSymbolTableRecord
100
AcDbDimStyleTableRecord
  2
Standard
 70
     0
178
     0
340
11
  0
ENDTAB
  0
TABLE
  2
BLOCK_RECORD
  5
1
330
0
100
AcDbSymbolTable
 70
     3
  0
BLOCK_RECORD
  5
1F
330
1
100
AcDbSymbolTableRecord
100
AcDbBlockTableRecord
  2
*Model_Space
340
22
  0
BLOCK_RECORD
  5
1B
330
1
100
AcDbSymbolTableRecord
100
AcDbBlockTableRecord
  2
*Paper_Space
340
1E
  0
BLOCK_RECORD
  5
E3
330
1
100
AcDbSymbolTableRecord
100
AcDbBlockTableRecord
  2
Drawing_1_2
340
0
102
{BLKREFS
331
4F0
102
}
  0
BLOCK_RECORD
  5
4F4
330
1
100
AcDbSymbolTableRecord
100
AcDbBlockTableRecord
  2
C-TRS9-04 BARGE DETAIL_STORY_MARKER
340
0
  0
ENDTAB
  0
ENDSEC
  0
SECTION
  2
BLOCKS
  0
BLOCK
  5
20
330
1F
100
AcDbEntity
  8
0
100
AcDbBlockBegin
  2
*Model_Space
 70
     0
 10
0.0
 20
0.0
 30
0.0
  3
*Model_Space
  1

  0
ENDBLK
  5
21
330
1F
100
AcDbEntity
  8
0
100
AcDbBlockEnd
  0
BLOCK
  5
1C
330
1B
100
AcDbEntity
 67
     1
  8
0
100
AcDbBlockBegin
  2
*Paper_Space
 70
     0
 10
0.0
 20
0.0
 30
0.0
  3
*Paper_Space
  1

  0
ENDBLK
  5
1D
330
1B
100
AcDbEntity
 67
     1
  8
0
100
AcDbBlockEnd
  0
BLOCK
  5
E4
330
E3
100
AcDbEntity
  8
0
100
AcDbBlockBegin
  2
Drawing_1_2
 70
     0
 10
193.9416787666304
 20
-736.1042380562631
 30
0.0
  3
Drawing_1_2
  1

  0
HATCH
  5
E6
330
E3
100
AcDbEntity
  8
Doc_ Finishes
  6
Continuous
 62
   255
370
    18
100
AcDbHatch
 10
0.0
 20
0.0
 30
0.0
210
0.0
220
0.0
230
1.0
  2
SOLID
 70
     1
 71
     0
 91
        1
 92
        3
 72
     0
 73
     1
 93
        4
 10
91.43011649533659
 20
147.3032022346539
 10
82.33803084029051
 20
147.3032022346539
 10
82.33803084029051
 20
142.9523245934809
 10
91.43011649533659
 20
142.9523245934809
 97
        0
 75
     0
 76
     1
 98
        0
  0
HATCH
  5
E7
330
E3
100
AcDbEntity
  8
Doc_ Finishes
  6
Continuous
 62
   253
370
    25
100
AcDbHatch
 10
0.0
 20
0.0
 30
0.0
210
0.0
220
0.0
230
1.0
  2
Hexagonal_0002
 70
     0
 71
     0
 91
        1
 92
        3
 72
     0
 73
     1
 93
        4
 10
91.43011649533659
 20
147.3032022346539
 10
82.33803084029051
 20
147.3032022346539
 10
82.33803084029051
 20
142.9523245934809
 10
91.43011649533659
 20
142.9523245934809
 97
        0
 75
     0
 76
     2
 52
0.0
 41
1.0
 77
     0
 78
     6
 53
90.00000000000001
 43
193.9416787666304
 44
-736.1042380562631
 45
-1.039230484541326
 46
0.0
 79
     2
 49
0.6000000000000001
 49
-1.2
 53
90.00000000000001
 43
193.4220635336859
 44
-735.2042380562631
 45
-1.039230484541326
 46
0.0
 79
     2
 49
0.6000000000000001
 49
-1.2
 53
150.0000000000001
 43
193.9416787666304
 44
-735.504238056263
 45
0.5196152422706625
 46
0.9000000000000004
 79
     2
 49
0.6000000000000001
 49
-1.2
 53
150.0000000000001
 43
192.9024483007414
 44
-735.504238056263
 45
0.5196152422706625
 46
0.9000000000000004
 79
     2
 49
0.6000000000000001
 49
-1.2
 53
210.0000000000001
 43
193.9416787666304
 44
-736.1042380562631
 45
-0.5196152422706641
 46
0.8999999999999994
 79
     2
 49
0.6000000000000001
 49
-1.2
 53
210.0000000000001
 43
192.9024483007414
 44
-736.1042380562631
 45
-0.5196152422706641
 46
0.8999999999999994
 79
     2
 49
0.6000000000000001
 49
-1.2
 98
        0
  0
LINE
  5
E8
330
E3
100
AcDbEntity
  8
Doc_ Finishes
  6
Continuous
100
AcDbLine
 10
91.43011603639451
 20
147.3032005849305
 30
0.0
 11
82.3380292070095
 21
147.3032005849305
 31
0.0
  0
LINE
  5
E9
330
E3
100
AcDbEntity
  8
Doc_ Finishes
  6
Continuous
100
AcDbLine
 10
82.3380292070095
 20
147.3032005849305
 30
0.0
 11
82.3380292070095
 21
142.9523235758766
 31
0.0
  0
LINE
  5
EA
330
E3
100
AcDbEntity
  8
Doc_ Finishes
  6
Continuous
100
AcDbLine
 10
82.3380292070095
 20
142.9523235758766
 30
0.0
 11
91.43011603639451
 21
142.9523235758766
 31
0.0
  0
LINE
  5
EB
330
E3
100
AcDbEntity
  8
Doc_ Finishes
  6
Continuous
100
AcDbLine
 10
91.43011603639451
 20
142.9523235758766
 30
0.0
 11
91.43011603639451
 21
147.3032005849305
 31
0.0
  0
HATCH
  5
EC
330
E3
100
AcDbEntity
  8
Des_ Furniture
  6
Continuous
 62
   255
370
     0
100
AcDbHatch
 10
0.0
 20
0.0
 30
0.0
210
0.0
220
0.0
230
1.0
  2
SOLID
 70
     1
 71
     0
 91
        1
 92
        3
 72
     0
 73
     1
 93
      140
 10
134.375055646288
 20
85.3080214865205
 10
134.3678556462877
 20
85.39137348652059
 10
134.3460556462873
 20
85.47219148652052
 10
134.3106556462872
 20
85.54802148652062
 10
134.2628556462871
 20
85.6165594865207
 10
134.2036556462873
 20
85.67572288652059
 10
134.1350556462872
 20
85.72371368652054
 10
134.0592556462881
 20
85.7590738865206
 10
133.9784556462875
 20
85.78072920652069
 10
133.8950556462877
 20
85.78802148652042
 10
122.5750556462871
 20
85.78802148652042
 10
119.8250556462882
 20
84.1880214865206
 10
117.8250556462872
 20
84.1880214865206
 10
115.0750556462868
 20
85.78802148652042
 10
113.0750556462872
 20
85.78802148652042
 10
110.3250556462869
 20
84.1880214865206
 10
108.3250556462873
 20
84.1880214865206
 10
105.5750556462869
 20
85.78802148652042
 10
94.25505564628773
 20
85.78802148652042
 10
94.17170364628768
 20
85.78072920652069
 10
94.09088564628698
 20
85.7590738865206
 10
94.01505564628687
 20
85.72371368652054
 10
93.94651764628756
 20
85.67572288652059
 10
93.8873542462873
 20
85.6165594865207
 10
93.83936344628704
 20
85.54802148652062
 10
93.80400324628805
 20
85.47219148652052
 10
93.78234792628756
 20
85.39137348652059
 10
93.77505564628744
 20
85.3080214865205
 10
93.77505564628744
 20
71.26802148652057
 10
93.78234792628756
 20
71.18466148652058
 10
93.80400324628805
 20
71.10386148652059
 10
93.83936344628704
 20
71.02802148652043
 10
93.8873542462873
 20
70.95948148652053
 10
93.94651764628757
 20
70.9003214865206
 10
94.01505564628688
 20
70.85232148652065
 10
94.09088564628699
 20
70.81696148652061
 10
94.1717036462877
 20
70.79532148652068
 10
94.25505564628774
 20
70.78802148652063
 10
98.29505564628685
 20
70.78802148652063
 10
98.37841564628755
 20
70.79532148652068
 10
98.45921564628819
 20
70.81696148652061
 10
98.5350556462877
 20
70.85232148652065
 10
98.60359564628718
 20
70.9003214865206
 10
98.66275564628788
 20
70.95948148652053
 10
98.71075564628748
 20
71.02802148652043
 10
98.74611564628717
 20
71.10386148652059
 10
98.7677556462871
 20
71.18466148652058
 10
98.77505564628714
 20
71.26802148652057
 10
98.77505564628714
 20
72.78802148652052
 10
98.5350556462877
 20
72.78802148652052
 10
98.5350556462877
 20
71.26802148652057
 10
98.5314156462878
 20
71.22634148652051
 10
98.52057564628761
 20
71.18594148652058
 10
98.50289564628704
 20
71.14802148652043
 10
98.47891564628819
 20
71.11376148652049
 10
98.4493156462876
 20
71.08416148652064
 10
98.41505564628798
 20
71.06018148652072
 10
98.3771356462868
 20
71.04250148652046
 10
98.3367356462879
 20
71.03166148652062
 10
98.29505564628685
 20
71.02802148652043
 10
94.25505564628774
 20
71.02802148652043
 10
94.21337964628701
 20
71.03166148652062
 10
94.17297164628745
 20
71.04250148652046
 10
94.13505564628802
 20
71.06018148652072
 10
94.10078564628758
 20
71.08416148652064
 10
94.07120564628723
 20
71.11376148652049
 10
94.04720964628704
 20
71.14802148652043
 10
94.02952964628791
 20
71.18594148652058
 10
94.01870164628728
 20
71.22634148652051
 10
94.01505564628688
 20
71.26802148652057
 10
94.01505564628687
 20
85.3080214865205
 10
94.01870164628727
 20
85.34969748652055
 10
94.0295296462879
 20
85.39010548652048
 10
94.04720964628703
 20
85.42802148652062
 10
94.07120564628721
 20
85.46229148652063
 10
94.10078564628758
 20
85.49187148652071
 10
94.13505564628802
 20
85.51586748652052
 10
94.17297164628744
 20
85.53354748652065
 10
94.213379646287
 20
85.54437548652061
 10
94.25505564628773
 20
85.54802148652062
 10
105.5103156462878
 20
85.54802148652062
 10
108.2603156462882
 20
83.94802148652047
 10
110.3897956462874
 20
83.94802148652047
 10
113.1397956462878
 20
85.54802148652062
 10
115.010255646287
 20
85.54802148652062
 10
117.7602556462873
 20
83.94802148652047
 10
119.889855646288
 20
83.94802148652047
 10
122.6398556462869
 20
85.54802148652062
 10
133.8950556462877
 20
85.54802148652062
 10
133.9366556462878
 20
85.54437548652061
 10
133.9770556462882
 20
85.53354748652065
 10
134.0150556462874
 20
85.51586748652052
 10
134.0492556462878
 20
85.49187148652071
 10
134.0788556462869
 20
85.46229148652063
 10
134.1028556462875
 20
85.42802148652062
 10
134.120655646288
 20
85.39010548652048
 10
134.1314556462877
 20
85.34969748652055
 10
134.1350556462872
 20
85.3080214865205
 10
134.1350556462872
 20
71.26802148652057
 10
134.1314556462877
 20
71.22634148652051
 10
134.120655646288
 20
71.18594148652058
 10
134.1028556462875
 20
71.14802148652043
 10
134.0788556462869
 20
71.11376148652049
 10
134.0492556462878
 20
71.08416148652064
 10
134.0150556462874
 20
71.06018148652072
 10
133.9770556462882
 20
71.04250148652046
 10
133.9366556462878
 20
71.03166148652062
 10
133.8950556462877
 20
71.02802148652043
 10
129.8550556462872
 20
71.02802148652043
 10
129.8134556462871
 20
71.03166148652062
 10
129.7730556462882
 20
71.04250148652046
 10
129.7350556462875
 20
71.06018148652072
 10
129.7008556462872
 20
71.08416148652064
 10
129.671255646288
 20
71.11376148652049
 10
129.6472556462874
 20
71.14802148652043
 10
129.6294556462869
 20
71.18594148652058
 10
129.6186556462872
 20
71.22634148652051
 10
129.6150556462877
 20
71.26802148652057
 10
129.6150556462877
 20
72.78802148652052
 10
129.3750556462869
 20
72.78802148652052
 10
129.3750556462869
 20
71.26802148652057
 10
129.3822556462872
 20
71.18466148652058
 10
129.4040556462876
 20
71.10386148652059
 10
129.4394556462877
 20
71.02802148652043
 10
129.4872556462878
 20
70.95948148652053
 10
129.5464556462876
 20
70.9003214865206
 10
129.6150556462877
 20
70.85232148652065
 10
129.6908556462868
 20
70.81696148652061
 10
129.7716556462875
 20
70.79532148652068
 10
129.8550556462872
 20
70.78802148652063
 10
133.8950556462877
 20
70.78802148652063
 10
133.9784556462875
 20
70.79532148652068
 10
134.0592556462881
 20
70.81696148652061
 10
134.1350556462872
 20
70.85232148652065
 10
134.2036556462873
 20
70.9003214865206
 10
134.2628556462871
 20
70.95948148652053
 10
134.3106556462872
 20
71.02802148652043
 10
134.3460556462873
 20
71.10386148652059
 10
134.3678556462877
 20
71.18466148652058
 10
134.375055646288
 20
71.26802148652057
 97
        0
 75
     0
 76
     1
 98
        0
  0
HATCH
  5
EE
330
E3
100
AcDbEntity
  8
Des_ Furniture
  6
Continuous
100
AcDbHatch
 10
0.0
 20
0.0
 30
0.0
210
0.0
220
0.0
230
1.0
  2
Steel_0002
 70
     0
 71
     0
 91
        1
 92
        3
 72
     0
 73
     1
 93
      140
 10
134.375055646288
 20
85.3080214865205
 10
134.3678556462877
 20
85.39137348652059
 10
134.3460556462873
 20
85.47219148652052
 10
134.3106556462872
 20
85.54802148652062
 10
134.2628556462871
 20
85.6165594865207
 10
134.2036556462873
 20
85.67572288652059
 10
134.1350556462872
 20
85.72371368652054
 10
134.0592556462881
 20
85.7590738865206
 10
133.9784556462875
 20
85.78072920652069
 10
133.8950556462877
 20
85.78802148652042
 10
122.5750556462871
 20
85.78802148652042
 10
119.8250556462882
 20
84.1880214865206
 10
117.8250556462872
 20
84.1880214865206
 10
115.0750556462868
 20
85.78802148652042
 10
113.0750556462872
 20
85.78802148652042
 10
110.3250556462869
 20
84.1880214865206
 10
108.3250556462873
 20
84.1880214865206
 10
105.5750556462869
 20
85.78802148652042
 10
94.25505564628773
 20
85.78802148652042
 10
94.17170364628768
 20
85.78072920652069
 10
94.09088564628698
 20
85.7590738865206
 10
94.01505564628687
 20
85.72371368652054
 10
93.94651764628756
 20
85.67572288652059
 10
93.8873542462873
 20
85.6165594865207
 10
93.83936344628704
 20
85.54802148652062
 10
93.80400324628805
 20
85.47219148652052
 10
93.78234792628756
 20
85.39137348652059
 10
93.77505564628744
 20
85.3080214865205
 10
93.77505564628744
 20
71.26802148652057
 10
93.78234792628756
 20
71.18466148652058
 10
93.80400324628805
 20
71.10386148652059
 10
93.83936344628704
 20
71.02802148652043
 10
93.8873542462873
 20
70.95948148652053
 10
93.94651764628757
 20
70.9003214865206
 10
94.01505564628688
 20
70.85232148652065
 10
94.09088564628699
 20
70.81696148652061
 10
94.1717036462877
 20
70.79532148652068
 10
94.25505564628774
 20
70.78802148652063
 10
98.29505564628685
 20
70.78802148652063
 10
98.37841564628755
 20
70.79532148652068
 10
98.45921564628819
 20
70.81696148652061
 10
98.5350556462877
 20
70.85232148652065
 10
98.60359564628718
 20
70.9003214865206
 10
98.66275564628788
 20
70.95948148652053
 10
98.71075564628748
 20
71.02802148652043
 10
98.74611564628717
 20
71.10386148652059
 10
98.7677556462871
 20
71.18466148652058
 10
98.77505564628714
 20
71.26802148652057
 10
98.77505564628714
 20
72.78802148652052
 10
98.5350556462877
 20
72.78802148652052
 10
98.5350556462877
 20
71.26802148652057
 10
98.5314156462878
 20
71.22634148652051
 10
98.52057564628761
 20
71.18594148652058
 10
98.50289564628704
 20
71.14802148652043
 10
98.47891564628819
 20
71.11376148652049
 10
98.4493156462876
 20
71.08416148652064
 10
98.41505564628798
 20
71.06018148652072
 10
98.3771356462868
 20
71.04250148652046
 10
98.3367356462879
 20
71.03166148652062
 10
98.29505564628685
 20
71.02802148652043
 10
94.25505564628774
 20
71.02802148652043
 10
94.21337964628701
 20
71.03166148652062
 10
94.17297164628745
 20
71.04250148652046
 10
94.13505564628802
 20
71.06018148652072
 10
94.10078564628758
 20
71.08416148652064
 10
94.07120564628723
 20
71.11376148652049
 10
94.04720964628704
 20
71.14802148652043
 10
94.02952964628791
 20
71.18594148652058
 10
94.01870164628728
 20
71.22634148652051
 10
94.01505564628688
 20
71.26802148652057
 10
94.01505564628687
 20
85.3080214865205
 10
94.01870164628727
 20
85.34969748652055
 10
94.0295296462879
 20
85.39010548652048
 10
94.04720964628703
 20
85.42802148652062
 10
94.07120564628721
 20
85.46229148652063
 10
94.10078564628758
 20
85.49187148652071
 10
94.13505564628802
 20
85.51586748652052
 10
94.17297164628744
 20
85.53354748652065
 10
94.213379646287
 20
85.54437548652061
 10
94.25505564628773
 20
85.54802148652062
 10
105.5103156462878
 20
85.54802148652062
 10
108.2603156462882
 20
83.94802148652047
 10
110.3897956462874
 20
83.94802148652047
 10
113.1397956462878
 20
85.54802148652062
 10
115.010255646287
 20
85.54802148652062
 10
117.7602556462873
 20
83.94802148652047
 10
119.889855646288
 20
83.94802148652047
 10
122.6398556462869
 20
85.54802148652062
 10
133.8950556462877
 20
85.54802148652062
 10
133.9366556462878
 20
85.54437548652061
 10
133.9770556462882
 20
85.53354748652065
 10
134.0150556462874
 20
85.51586748652052
 10
134.0492556462878
 20
85.49187148652071
 10
134.0788556462869
 20
85.46229148652063
 10
134.1028556462875
 20
85.42802148652062
 10
134.120655646288
 20
85.39010548652048
 10
134.1314556462877
 20
85.34969748652055
 10
134.1350556462872
 20
85.3080214865205
 10
134.1350556462872
 20
71.26802148652057
 10
134.1314556462877
 20
71.22634148652051
 10
134.120655646288
 20
71.18594148652058
 10
134.1028556462875
 20
71.14802148652043
 10
134.0788556462869
 20
71.11376148652049
 10
134.0492556462878
 20
71.08416148652064
 10
134.0150556462874
 20
71.06018148652072
 10
133.9770556462882
 20
71.04250148652046
 10
133.9366556462878
 20
71.03166148652062
 10
133.8950556462877
 20
71.02802148652043
 10
129.8550556462872
 20
71.02802148652043
 10
129.8134556462871
 20
71.03166148652062
 10
129.7730556462882
 20
71.04250148652046
 10
129.7350556462875
 20
71.06018148652072
 10
129.7008556462872
 20
71.08416148652064
 10
129.671255646288
 20
71.11376148652049
 10
129.6472556462874
 20
71.14802148652043
 10
129.6294556462869
 20
71.18594148652058
 10
129.6186556462872
 20
71.22634148652051
 10
129.6150556462877
 20
71.26802148652057
 10
129.6150556462877
 20
72.78802148652052
 10
129.3750556462869
 20
72.78802148652052
 10
129.3750556462869
 20
71.26802148652057
 10
129.3822556462872
 20
71.18466148652058
 10
129.4040556462876
 20
71.10386148652059
 10
129.4394556462877
 20
71.02802148652043
 10
129.4872556462878
 20
70.95948148652053
 10
129.5464556462876
 20
70.9003214865206
 10
129.6150556462877
 20
70.85232148652065
 10
129.6908556462868
 20
70.81696148652061
 10
129.7716556462875
 20
70.79532148652068
 10
129.8550556462872
 20
70.78802148652063
 10
133.8950556462877
 20
70.78802148652063
 10
133.9784556462875
 20
70.79532148652068
 10
134.0592556462881
 20
70.81696148652061
 10
134.1350556462872
 20
70.85232148652065
 10
134.2036556462873
 20
70.9003214865206
 10
134.2628556462871
 20
70.95948148652053
 10
134.3106556462872
 20
71.02802148652043
 10
134.3460556462873
 20
71.10386148652059
 10
134.3678556462877
 20
71.18466148652058
 10
134.375055646288
 20
71.26802148652057
 97
        0
 75
     0
 76
     2
 52
0.0
 41
1.0
 77
     0
 78
     2
 53
44.99999999999999
 43
193.9416787666304
 44
-736.1042380562631
 45
-1.590990257669732
 46
1.590990257669732
 79
     0
 53
44.99999999999999
 43
193.4113486807404
 44
-735.5739079703732
 45
-1.590990257669732
 46
1.590990257669732
 79
     0
 98
        0
  0
HATCH
  5
EF
330
E3
100
AcDbEntity
  8
Des_ Furniture
  6
Continuous
 62
   255
370
     0
100
AcDbHatch
 10
0.0
 20
0.0
 30
0.0
210
0.0
220
0.0
230
1.0
  2
SOLID
 70
     1
 71
     0
 91
        1
 92
        3
 72
     0
 73
     1
 93
      140
 10
94.15699982971269
 20
156.5653492395402
 10
94.07364782971264
 20
156.55814923954
 10
93.99282982971194
 20
156.5363492395402
 10
93.91699982971183
 20
156.5009492395401
 10
93.84846182971253
 20
156.4531492395401
 10
93.78929842971226
 20
156.3939492395402
 10
93.74130762971198
 20
156.3253492395402
 10
93.70594742971299
 20
156.2495492395402
 10
93.6842921097125
 20
156.1687492395401
 10
93.67699982971239
 20
156.0853492395401
 10
93.67699982971239
 20
144.7653492395402
 10
95.27699982971292
 20
142.0153492395402
 10
95.27699982971292
 20
140.0153492395402
 10
93.67699982971239
 20
137.26534923954
 10
93.67699982971239
 20
135.2653492395401
 10
95.27699982971292
 20
132.5153492395401
 10
95.27699982971292
 20
130.5153492395401
 10
93.67699982971239
 20
127.7653492395402
 10
93.67699982971239
 20
116.4453492395401
 10
93.6842921097125
 20
116.3619972395402
 10
93.70594742971299
 20
116.2811792395402
 10
93.74130762971198
 20
116.2053492395401
 10
93.78929842971226
 20
116.1368112395401
 10
93.84846182971253
 20
116.0776478395402
 10
93.91699982971183
 20
116.02965703954
 10
93.99282982971194
 20
115.9942968395402
 10
94.07364782971264
 20
115.9726415195401
 10
94.15699982971269
 20
115.9653492395402
 10
108.1969998297127
 20
115.9653492395402
 10
108.2803598297119
 20
115.9726415195401
 10
108.3611598297126
 20
115.9942968395402
 10
108.4369998297121
 20
116.02965703954
 10
108.505539829713
 20
116.0776478395402
 10
108.5646998297123
 20
116.1368112395401
 10
108.6126998297119
 20
116.2053492395401
 10
108.648059829713
 20
116.2811792395402
 10
108.6696998297129
 20
116.3619972395402
 10
108.676999829713
 20
116.4453492395401
 10
108.676999829713
 20
120.4853492395401
 10
108.6696998297129
 20
120.5687092395401
 10
108.648059829713
 20
120.6495092395402
 10
108.6126998297119
 20
120.72534923954
 10
108.5646998297123
 20
120.79388923954
 10
108.505539829713
 20
120.8530492395401
 10
108.4369998297121
 20
120.9010492395401
 10
108.3611598297126
 20
120.9364092395401
 10
108.2803598297119
 20
120.9580492395401
 10
108.1969998297127
 20
120.9653492395402
 10
106.6769998297119
 20
120.9653492395402
 10
106.6769998297119
 20
120.72534923954
 10
108.1969998297127
 20
120.72534923954
 10
108.2386798297123
 20
120.7217092395402
 10
108.2790798297126
 20
120.7108692395401
 10
108.3169998297124
 20
120.6931892395401
 10
108.351259829712
 20
120.6692092395402
 10
108.3808598297126
 20
120.6396092395401
 10
108.4048398297129
 20
120.6053492395401
 10
108.422519829712
 20
120.5674292395402
 10
108.4333598297122
 20
120.5270292395401
 10
108.4369998297121
 20
120.4853492395401
 10
108.4369998297121
 20
116.4453492395401
 10
108.4333598297122
 20
116.40367323954
 10
108.422519829712
 20
116.3632652395401
 10
108.4048398297129
 20
116.3253492395402
 10
108.3808598297126
 20
116.2910792395401
 10
108.351259829712
 20
116.2614992395401
 10
108.3169998297124
 20
116.2375032395401
 10
108.2790798297126
 20
116.21982323954
 10
108.2386798297123
 20
116.2089952395402
 10
108.1969998297127
 20
116.2053492395401
 10
94.15699982971269
 20
116.2053492395401
 10
94.11532382971197
 20
116.2089952395402
 10
94.07491582971241
 20
116.21982323954
 10
94.03699982971297
 20
116.2375032395401
 10
94.00272982971252
 20
116.2614992395401
 10
93.97314982971218
 20
116.2910792395401
 10
93.949153829712
 20
116.3253492395402
 10
93.93147382971287
 20
116.3632652395401
 10
93.92064582971224
 20
116.40367323954
 10
93.91699982971183
 20
116.4453492395401
 10
93.91699982971183
 20
127.7006092395402
 10
95.51699982971238
 20
130.4506092395401
 10
95.51699982971238
 20
132.5800892395401
 10
93.91699982971183
 20
135.3300892395401
 10
93.91699982971183
 20
137.2005492395401
 10
95.51699982971238
 20
139.9505492395402
 10
95.51699982971238
 20
142.0801492395402
 10
93.91699982971183
 20
144.8301492395402
 10
93.91699982971183
 20
156.0853492395401
 10
93.92064582971224
 20
156.1269492395402
 10
93.93147382971287
 20
156.1673492395401
 10
93.949153829712
 20
156.2053492395401
 10
93.97314982971218
 20
156.2395492395401
 10
94.00272982971252
 20
156.2691492395402
 10
94.03699982971297
 20
156.2931492395402
 10
94.07491582971241
 20
156.3109492395402
 10
94.11532382971197
 20
156.3217492395401
 10
94.15699982971269
 20
156.3253492395402
 10
108.1969998297127
 20
156.3253492395402
 10
108.2386798297123
 20
156.3217492395401
 10
108.2790798297126
 20
156.3109492395402
 10
108.3169998297124
 20
156.2931492395402
 10
108.351259829712
 20
156.2691492395402
 10
108.3808598297126
 20
156.2395492395401
 10
108.4048398297129
 20
156.2053492395401
 10
108.422519829712
 20
156.1673492395401
 10
108.4333598297122
 20
156.1269492395402
 10
108.4369998297121
 20
156.0853492395401
 10
108.4369998297121
 20
152.0453492395401
 10
108.4333598297122
 20
152.0037492395401
 10
108.422519829712
 20
151.9633492395401
 10
108.4048398297129
 20
151.9253492395401
 10
108.3808598297126
 20
151.8911492395402
 10
108.351259829712
 20
151.8615492395401
 10
108.3169998297124
 20
151.8375492395402
 10
108.2790798297126
 20
151.8197492395401
 10
108.2386798297123
 20
151.80894923954
 10
108.1969998297127
 20
151.8053492395401
 10
106.6769998297119
 20
151.8053492395401
 10
106.6769998297119
 20
151.5653492395401
 10
108.1969998297127
 20
151.5653492395401
 10
108.2803598297119
 20
151.5725492395401
 10
108.3611598297126
 20
151.5943492395401
 10
108.4369998297121
 20
151.6297492395401
 10
108.505539829713
 20
151.6775492395401
 10
108.5646998297123
 20
151.73674923954
 10
108.6126998297119
 20
151.8053492395401
 10
108.648059829713
 20
151.8811492395402
 10
108.6696998297129
 20
151.9619492395401
 10
108.676999829713
 20
152.0453492395401
 10
108.676999829713
 20
156.0853492395401
 10
108.6696998297129
 20
156.1687492395401
 10
108.648059829713
 20
156.2495492395402
 10
108.6126998297119
 20
156.3253492395402
 10
108.5646998297123
 20
156.3939492395402
 10
108.505539829713
 20
156.4531492395401
 10
108.4369998297121
 20
156.5009492395401
 10
108.3611598297126
 20
156.5363492395402
 10
108.2803598297119
 20
156.55814923954
 10
108.1969998297127
 20
156.5653492395402
 97
        0
 75
     0
 76
     1
 98
        0
  0
HATCH
  5
F0
330
E3
100
AcDbEntity
  8
Des_ Furniture
  6
Continuous
100
AcDbHatch
 10
0.0
 20
0.0
 30
0.0
210
0.0
220
0.0
230
1.0
  2
Steel_0002
 70
     0
 71
     0
 91
        1
 92
        3
 72
     0
 73
     1
 93
      140
 10
94.15699982971269
 20
156.5653492395402
 10
94.07364782971264
 20
156.55814923954
 10
93.99282982971194
 20
156.5363492395402
 10
93.91699982971183
 20
156.5009492395401
 10
93.84846182971253
 20
156.4531492395401
 10
93.78929842971226
 20
156.3939492395402
 10
93.74130762971198
 20
156.3253492395402
 10
93.70594742971299
 20
156.2495492395402
 10
93.6842921097125
 20
156.1687492395401
 10
93.67699982971239
 20
156.0853492395401
 10
93.67699982971239
 20
144.7653492395402
 10
95.27699982971292
 20
142.0153492395402
 10
95.27699982971292
 20
140.0153492395402
 10
93.67699982971239
 20
137.26534923954
 10
93.67699982971239
 20
135.2653492395401
 10
95.27699982971292
 20
132.5153492395401
 10
95.27699982971292
 20
130.5153492395401
 10
93.67699982971239
 20
127.7653492395402
 10
93.67699982971239
 20
116.4453492395401
 10
93.6842921097125
 20
116.3619972395402
 10
93.70594742971299
 20
116.2811792395402
 10
93.74130762971198
 20
116.2053492395401
 10
93.78929842971226
 20
116.1368112395401
 10
93.84846182971253
 20
116.0776478395402
 10
93.91699982971183
 20
116.02965703954
 10
93.99282982971194
 20
115.9942968395402
 10
94.07364782971264
 20
115.9726415195401
 10
94.15699982971269
 20
115.9653492395402
 10
108.1969998297127
 20
115.9653492395402
 10
108.2803598297119
 20
115.9726415195401
 10
108.3611598297126
 20
115.9942968395402
 10
108.4369998297121
 20
116.02965703954
 10
108.505539829713
 20
116.0776478395402
 10
108.5646998297123
 20
116.1368112395401
 10
108.6126998297119
 20
116.2053492395401
 10
108.648059829713
 20
116.2811792395402
 10
108.6696998297129
 20
116.3619972395402
 10
108.676999829713
 20
116.4453492395401
 10
108.676999829713
 20
120.4853492395401
 10
108.6696998297129
 20
120.5687092395401
 10
108.648059829713
 20
120.6495092395402
 10
108.6126998297119
 20
120.72534923954
 10
108.5646998297123
 20
120.79388923954
 10
108.505539829713
 20
120.8530492395401
 10
108.4369998297121
 20
120.9010492395401
 10
108.3611598297126
 20
120.9364092395401
 10
108.2803598297119
 20
120.9580492395401
 10
108.1969998297127
 20
120.9653492395402
 10
106.6769998297119
 20
120.9653492395402
 10
106.6769998297119
 20
120.72534923954
 10
108.1969998297127
 20
120.72534923954
 10
108.2386798297123
 20
120.7217092395402
 10
108.2790798297126
 20
120.7108692395401
 10
108.3169998297124
 20
120.6931892395401
 10
108.351259829712
 20
120.6692092395402
 10
108.3808598297126
 20
120.6396092395401
 10
108.4048398297129
 20
120.6053492395401
 10
108.422519829712
 20
120.5674292395402
 10
108.4333598297122
 20
120.5270292395401
 10
108.4369998297121
 20
120.4853492395401
 10
108.4369998297121
 20
116.4453492395401
 10
108.4333598297122
 20
116.40367323954
 10
108.422519829712
 20
116.3632652395401
 10
108.4048398297129
 20
116.3253492395402
 10
108.3808598297126
 20
116.2910792395401
 10
108.351259829712
 20
116.2614992395401
 10
108.3169998297124
 20
116.2375032395401
 10
108.2790798297126
 20
116.21982323954
 10
108.2386798297123
 20
116.2089952395402
 10
108.1969998297127
 20
116.2053492395401
 10
94.15699982971269
 20
116.2053492395401
 10
94.11532382971197
 20
116.2089952395402
 10
94.07491582971241
 20
116.21982323954
 10
94.03699982971297
 20
116.2375032395401
 10
94.00272982971252
 20
116.2614992395401
 10
93.97314982971218
 20
116.2910792395401
 10
93.949153829712
 20
116.3253492395402
 10
93.93147382971287
 20
116.3632652395401
 10
93.92064582971224
 20
116.40367323954
 10
93.91699982971183
 20
116.4453492395401
 10
93.91699982971183
 20
127.7006092395402
 10
95.51699982971238
 20
130.4506092395401
 10
95.51699982971238
 20
132.5800892395401
 10
93.91699982971183
 20
135.3300892395401
 10
93.91699982971183
 20
137.2005492395401
 10
95.51699982971238
 20
139.9505492395402
 10
95.51699982971238
 20
142.0801492395402
 10
93.91699982971183
 20
144.8301492395402
 10
93.91699982971183
 20
156.0853492395401
 10
93.92064582971224
 20
156.1269492395402
 10
93.93147382971287
 20
156.1673492395401
 10
93.949153829712
 20
156.2053492395401
 10
93.97314982971218
 20
156.2395492395401
 10
94.00272982971252
 20
156.2691492395402
 10
94.03699982971297
 20
156.2931492395402
 10
94.07491582971241
 20
156.3109492395402
 10
94.11532382971197
 20
156.3217492395401
 10
94.15699982971269
 20
156.3253492395402
 10
108.1969998297127
 20
156.3253492395402
 10
108.2386798297123
 20
156.3217492395401
 10
108.2790798297126
 20
156.3109492395402
 10
108.3169998297124
 20
156.2931492395402
 10
108.351259829712
 20
156.2691492395402
 10
108.3808598297126
 20
156.2395492395401
 10
108.4048398297129
 20
156.2053492395401
 10
108.422519829712
 20
156.1673492395401
 10
108.4333598297122
 20
156.1269492395402
 10
108.4369998297121
 20
156.0853492395401
 10
108.4369998297121
 20
152.0453492395401
 10
108.4333598297122
 20
152.0037492395401
 10
108.422519829712
 20
151.9633492395401
 10
108.4048398297129
 20
151.9253492395401
 10
108.3808598297126
 20
151.8911492395402
 10
108.351259829712
 20
151.8615492395401
 10
108.3169998297124
 20
151.8375492395402
 10
108.2790798297126
 20
151.8197492395401
 10
108.2386798297123
 20
151.80894923954
 10
108.1969998297127
 20
151.8053492395401
 10
106.6769998297119
 20
151.8053492395401
 10
106.6769998297119
 20
151.5653492395401
 10
108.1969998297127
 20
151.5653492395401
 10
108.2803598297119
 20
151.5725492395401
 10
108.3611598297126
 20
151.5943492395401
 10
108.4369998297121
 20
151.6297492395401
 10
108.505539829713
 20
151.6775492395401
 10
108.5646998297123
 20
151.73674923954
 10
108.6126998297119
 20
151.8053492395401
 10
108.648059829713
 20
151.8811492395402
 10
108.6696998297129
 20
151.9619492395401
 10
108.676999829713
 20
152.0453492395401
 10
108.676999829713
 20
156.0853492395401
 10
108.6696998297129
 20
156.1687492395401
 10
108.648059829713
 20
156.2495492395402
 10
108.6126998297119
 20
156.3253492395402
 10
108.5646998297123
 20
156.3939492395402
 10
108.505539829713
 20
156.4531492395401
 10
108.4369998297121
 20
156.5009492395401
 10
108.3611598297126
 20
156.5363492395402
 10
108.2803598297119
 20
156.55814923954
 10
108.1969998297127
 20
156.5653492395402
 97
        0
 75
     0
 76
     2
 52
0.0
 41
1.0
 77
     0
 78
     2
 53
44.99999999999999
 43
193.9416787666304
 44
-736.1042380562631
 45
-1.590990257669732
 46
1.590990257669732
 79
     0
 53
44.99999999999999
 43
193.4113486807404
 44
-735.5739079703732
 45
-1.590990257669732
 46
1.590990257669732
 79
     0
 98
        0
  0
LINE
  5
F1
330
E3
100
AcDbEntity
  8
Des_ Furniture
  6
Continuous
 62
   251
370
    18
100
AcDbLine
 10
186.7750511342791
 20
114.2957643863608
 30
0.0
 11
186.7750511342791
 21
82.46434206877673
 31
0.0
  0
LINE
  5
F2
330
E3
100
AcDbEntity
  8
Des_ Furniture
  6
Continuous
 62
   251
370
    18
100
AcDbLine
 10
136.3750609083329
 20
114.295766402138
 30
0.0
 11
136.3750609083329
 21
33.29637569313677
 31
0.0
  0
LINE
  5
F3
330
E3
100
AcDbEntity
  8
Des_ Furniture
  6
Continuous
 62
   251
370
    18
100
AcDbLine
 10
138.0950487412707
 20
114.295766402138
 30
0.0
 11
138.0950487412707
 21
33.29637569313677
 31
0.0
  0
LINE
  5
F4
330
E3
100
AcDbEntity
  8
Des_ Furniture
  6
Continuous
 62
   251
370
    18
100
AcDbLine
 10
185.0550590473572
 20
114.2957643863608
 30
0.0
 11
185.0550590473572
 21
82.53276314767623
 31
0.0
  0
LINE
  5
F5
330
E3
100
AcDbEntity
  8
Des_ Furniture
  6
Continuous
100
AcDbLine
 10
129.3750578936901
 20
72.78802158272028
 30
0.0
 11
129.6150549098723
 21
72.78802158272028
 31
0.0
  0
LINE
  5
F6
330
E3
100
AcDbEntity
  8
Des_ Furniture
  6
Continuous
100
AcDbLine
 10
122.6398568760218
 20
85.54802104948031
 30
0.0
 11
119.8898561474819
 21
83.9480210896735
 31
0.0
  0
LINE
  5
F7
330
E3
100
AcDbEntity
  8
Des_ Furniture
  6
Continuous
100
AcDbLine
 10
122.5750559375192
 20
85.78802231964653
 30
0.0
 11
119.8250552089792
 21
84.18802235983972
 31
0.0
  0
LINE
  5
F8
330
E3
100
AcDbEntity
  8
Des_ Furniture
  6
Continuous
100
AcDbLine
 10
117.8250573862127
 20
84.18802235983972
 30
0.0
 11
119.8250552089792
 21
84.18802235983972
 31
0.0
  0
LINE
  5
F9
330
E3
100
AcDbEntity
  8
Des_ Furniture
  6
Continuous
100
AcDbLine
 10
117.7602564477101
 20
83.9480210896735
 30
0.0
 11
119.8898561474819
 21
83.9480210896735
 31
0.0
  0
LINE
  5
FA
330
E3
100
AcDbEntity
  8
Des_ Furniture
  6
Continuous
100
AcDbLine
 10
115.0750566576728
 20
85.78802231964653
 30
0.0
 11
117.8250573862127
 21
84.18802235983972
 31
0.0
  0
LINE
  5
FB
330
E3
100
AcDbEntity
  8
Des_ Furniture
  6
Continuous
100
AcDbLine
 10
115.0102557191702
 20
85.54802104948031
 30
0.0
 11
117.7602564477101
 21
83.9480210896735
 31
0.0
  0
LINE
  5
FC
330
E3
100
AcDbEntity
  8
Des_ Furniture
  6
Continuous
100
AcDbLine
 10
113.1397959636487
 20
85.54802104948031
 30
0.0
 11
115.0102557191702
 21
85.54802104948031
 31
0.0
  0
LINE
  5
FD
330
E3
100
AcDbEntity
  8
Des_ Furniture
  6
Continuous
100
AcDbLine
 10
113.0750588349063
 20
85.78802231964653
 30
0.0
 11
115.0750566576728
 21
85.78802231964653
 31
0.0
  0
LINE
  5
FE
330
E3
100
AcDbEntity
  8
Des_ Furniture
  6
Continuous
100
AcDbLine
 10
113.1397959636487
 20
85.54802104948031
 30
0.0
 11
110.3897994890928
 21
83.9480210896735
 31
0.0
  0
LINE
  5
FF
330
E3
100
AcDbEntity
  8
Des_ Furniture
  6
Continuous
100
AcDbLine
 10
113.0750588349063
 20
85.78802231964653
 30
0.0
 11
110.3250581063664
 21
84.18802235983972
 31
0.0
  0
LINE
  5
100
330
E3
100
AcDbEntity
  8
Des_ Furniture
  6
Continuous
100
AcDbLine
 10
108.3250517756318
 20
84.18802235983972
 30
0.0
 11
110.3250581063664
 21
84.18802235983972
 31
0.0
  0
LINE
  5
101
330
E3
100
AcDbEntity
  8
Des_ Furniture
  6
Continuous
100
AcDbLine
 10
108.2603189008734
 20
83.9480210896735
 30
0.0
 11
110.3897994890928
 21
83.9480210896735
 31
0.0
  0
LINE
  5
102
330
E3
100
AcDbEntity
  8
Des_ Furniture
  6
Continuous
100
AcDbLine
 10
105.5750553010759
 20
85.78802231964653
 30
0.0
 11
108.3250517756318
 21
84.18802235983972
 31
0.0
  0
LINE
  5
103
330
E3
100
AcDbEntity
  8
Des_ Furniture
  6
Continuous
100
AcDbLine
 10
105.5103181723335
 20
85.54802104948031
 30
0.0
 11
108.2603189008734
 21
83.9480210896735
 31
0.0
  0
LINE
  5
104
330
E3
100
AcDbEntity
  8
Des_ Furniture
  6
Continuous
100
AcDbLine
 10
98.53505632872277
 20
72.78802158272028
 30
0.0
 11
98.775057598889
 21
72.78802158272028
 31
0.0
  0
LINE
  5
105
330
E3
100
AcDbEntity
  8
Des_ Furniture
  6
Continuous
100
AcDbLine
 10
106.677003066374
 20
120.9653477005955
 30
0.0
 11
106.677003066374
 21
120.7253506844133
 31
0.0
  0
LINE
  5
106
330
E3
100
AcDbEntity
  8
Des_ Furniture
  6
Continuous
100
AcDbLine
 10
106.677003066374
 20
151.8053492655628
 30
0.0
 11
106.677003066374
 21
151.5653479953966
 31
0.0
  0
LINE
  5
107
330
E3
100
AcDbEntity
  8
Des_ Furniture
  6
Continuous
100
AcDbLine
 10
95.51699930543676
 20
142.0801505031723
 30
0.0
 11
95.51699930543676
 21
139.9505465494166
 31
0.0
  0
LINE
  5
108
330
E3
100
AcDbEntity
  8
Des_ Furniture
  6
Continuous
100
AcDbLine
 10
95.51699930543676
 20
132.5800895907992
 30
0.0
 11
95.51699930543676
 21
130.4506090025799
 31
0.0
  0
LINE
  5
109
330
E3
100
AcDbEntity
  8
Des_ Furniture
  6
Continuous
100
AcDbLine
 10
95.27699803527052
 20
142.0153495646697
 30
0.0
 11
95.27699803527052
 21
140.0153474879192
 31
0.0
  0
LINE
  5
10A
330
E3
100
AcDbEntity
  8
Des_ Furniture
  6
Continuous
100
AcDbLine
 10
95.27699803527052
 20
132.5153482080728
 30
0.0
 11
95.27699803527052
 21
130.5153503853063
 31
0.0
  0
LINE
  5
10B
330
E3
100
AcDbEntity
  8
Des_ Furniture
  6
Continuous
100
AcDbLine
 10
93.91699934562996
 20
144.8301512317123
 30
0.0
 11
95.51699930543676
 21
142.0801505031723
 31
0.0
  0
LINE
  5
10C
330
E3
100
AcDbEntity
  8
Des_ Furniture
  6
Continuous
100
AcDbLine
 10
95.51699930543676
 20
139.9505465494166
 30
0.0
 11
93.91699934562996
 21
137.2005500748606
 31
0.0
  0
LINE
  5
10D
330
E3
100
AcDbEntity
  8
Des_ Furniture
  6
Continuous
100
AcDbLine
 10
93.91699934562996
 20
135.3300903193392
 30
0.0
 11
95.51699930543676
 21
132.5800895907992
 31
0.0
  0
LINE
  5
10E
330
E3
100
AcDbEntity
  8
Des_ Furniture
  6
Continuous
100
AcDbLine
 10
95.51699930543676
 20
130.4506090025799
 30
0.0
 11
93.91699934562996
 21
127.70060827404
 31
0.0
  0
LINE
  5
10F
330
E3
100
AcDbEntity
  8
Des_ Furniture
  6
Continuous
100
AcDbLine
 10
93.91699934562996
 20
137.2005500748606
 30
0.0
 11
93.91699934562996
 21
135.3300903193392
 31
0.0
  0
LINE
  5
110
330
E3
100
AcDbEntity
  8
Des_ Furniture
  6
Continuous
100
AcDbLine
 10
95.27699803527052
 20
140.0153474879192
 30
0.0
 11
93.67700232944775
 21
137.2653467593793
 31
0.0
  0
LINE
  5
111
330
E3
100
AcDbEntity
  8
Des_ Furniture
  6
Continuous
100
AcDbLine
 10
93.67700232944775
 20
135.2653489366128
 30
0.0
 11
95.27699803527052
 21
132.5153482080728
 31
0.0
  0
LINE
  5
112
330
E3
100
AcDbEntity
  8
Des_ Furniture
  6
Continuous
100
AcDbLine
 10
93.67700232944775
 20
144.7653502932097
 30
0.0
 11
95.27699803527052
 21
142.0153495646697
 31
0.0
  0
LINE
  5
113
330
E3
100
AcDbEntity
  8
Des_ Furniture
  6
Continuous
100
AcDbLine
 10
95.27699803527052
 20
130.5153503853063
 30
0.0
 11
93.67700232944775
 21
127.7653496567664
 31
0.0
  0
LINE
  5
114
330
E3
100
AcDbEntity
  8
Des_ Furniture
  6
Continuous
100
AcDbLine
 10
93.67700232944775
 20
137.2653467593793
 30
0.0
 11
93.67700232944775
 21
135.2653489366128
 31
0.0
  0
LWPOLYLINE
  5
115
330
E3
100
AcDbEntity
  8
Des_ Furniture
  6
Continuous
100
AcDbPolyline
 90
       32
 70
   128
 43
0.0
 10
122.5750556462871
 20
85.78802148652042
 10
133.8950556462877
 20
85.78802148652042
 10
133.9784556462875
 20
85.78072920652069
 10
134.0592556462881
 20
85.7590738865206
 10
134.1350556462872
 20
85.72371368652054
 10
134.2036556462873
 20
85.67572288652059
 10
134.2628556462871
 20
85.6165594865207
 10
134.3106556462872
 20
85.54802148652062
 10
134.3460556462873
 20
85.47219148652052
 10
134.3678556462877
 20
85.39137348652059
 10
134.375055646288
 20
85.3080214865205
 10
134.375055646288
 20
71.26802148652057
 10
134.3678556462877
 20
71.18466148652058
 10
134.3460556462873
 20
71.10386148652059
 10
134.3106556462872
 20
71.02802148652043
 10
134.2628556462871
 20
70.95948148652053
 10
134.2036556462873
 20
70.9003214865206
 10
134.1350556462872
 20
70.85232148652065
 10
134.0592556462881
 20
70.81696148652061
 10
133.9784556462875
 20
70.79532148652068
 10
133.8950556462877
 20
70.78802148652063
 10
129.8550556462872
 20
70.78802148652063
 10
129.7716556462875
 20
70.79532148652068
 10
129.6908556462868
 20
70.81696148652061
 10
129.6150556462877
 20
70.85232148652065
 10
129.5464556462876
 20
70.9003214865206
 10
129.4872556462878
 20
70.95948148652053
 10
129.4394556462877
 20
71.02802148652043
 10
129.4040556462876
 20
71.10386148652059
 10
129.3822556462872
 20
71.18466148652058
 10
129.3750556462869
 20
71.26802148652057
 10
129.3750556462869
 20
72.78802148652052
  0
LWPOLYLINE
  5
116
330
E3
100
AcDbEntity
  8
Des_ Furniture
  6
Continuous
100
AcDbPolyline
 90
       32
 70
   128
 43
0.0
 10
122.6398556462869
 20
85.54802148652062
 10
133.8950556462877
 20
85.54802148652062
 10
133.9366556462878
 20
85.54437548652061
 10
133.9770556462882
 20
85.53354748652065
 10
134.0150556462874
 20
85.51586748652052
 10
134.0492556462878
 20
85.49187148652071
 10
134.0788556462869
 20
85.46229148652063
 10
134.1028556462875
 20
85.42802148652062
 10
134.120655646288
 20
85.39010548652048
 10
134.1314556462877
 20
85.34969748652055
 10
134.1350556462872
 20
85.3080214865205
 10
134.1350556462872
 20
71.26802148652057
 10
134.1314556462877
 20
71.22634148652051
 10
134.120655646288
 20
71.18594148652058
 10
134.1028556462875
 20
71.14802148652043
 10
134.0788556462869
 20
71.11376148652049
 10
134.0492556462878
 20
71.08416148652064
 10
134.0150556462874
 20
71.06018148652072
 10
133.9770556462882
 20
71.04250148652046
 10
133.9366556462878
 20
71.03166148652062
 10
133.8950556462877
 20
71.02802148652043
 10
129.8550556462872
 20
71.02802148652043
 10
129.8134556462871
 20
71.03166148652062
 10
129.7730556462882
 20
71.04250148652046
 10
129.7350556462875
 20
71.06018148652072
 10
129.7008556462872
 20
71.08416148652064
 10
129.671255646288
 20
71.11376148652049
 10
129.6472556462874
 20
71.14802148652043
 10
129.6294556462869
 20
71.18594148652058
 10
129.6186556462872
 20
71.22634148652051
 10
129.6150556462877
 20
71.26802148652057
 10
129.6150556462877
 20
72.78802148652052
  0
LWPOLYLINE
  5
117
330
E3
100
AcDbEntity
  8
Des_ Furniture
  6
Continuous
100
AcDbPolyline
 90
       32
 70
   128
 43
0.0
 10
98.77505564628714
 20
72.78802148652052
 10
98.77505564628714
 20
71.26802148652057
 10
98.7677556462871
 20
71.18466148652058
 10
98.74611564628717
 20
71.10386148652059
 10
98.71075564628748
 20
71.02802148652043
 10
98.66275564628788
 20
70.95948148652053
 10
98.60359564628718
 20
70.9003214865206
 10
98.5350556462877
 20
70.85232148652065
 10
98.45921564628819
 20
70.81696148652061
 10
98.37841564628755
 20
70.79532148652068
 10
98.29505564628685
 20
70.78802148652063
 10
94.25505564628774
 20
70.78802148652063
 10
94.1717036462877
 20
70.79532148652068
 10
94.09088564628699
 20
70.81696148652061
 10
94.01505564628688
 20
70.85232148652065
 10
93.94651764628757
 20
70.9003214865206
 10
93.8873542462873
 20
70.95948148652053
 10
93.83936344628704
 20
71.02802148652043
 10
93.80400324628805
 20
71.10386148652059
 10
93.78234792628756
 20
71.18466148652058
 10
93.77505564628744
 20
71.26802148652057
 10
93.77505564628744
 20
85.3080214865205
 10
93.78234792628756
 20
85.39137348652059
 10
93.80400324628805
 20
85.47219148652052
 10
93.83936344628704
 20
85.54802148652062
 10
93.8873542462873
 20
85.6165594865207
 10
93.94651764628756
 20
85.67572288652059
 10
94.01505564628687
 20
85.72371368652054
 10
94.09088564628698
 20
85.7590738865206
 10
94.17170364628768
 20
85.78072920652069
 10
94.25505564628773
 20
85.78802148652042
 10
105.5750556462869
 20
85.78802148652042
  0
LWPOLYLINE
  5
118
330
E3
100
AcDbEntity
  8
Des_ Furniture
  6
Continuous
100
AcDbPolyline
 90
       32
 70
   128
 43
0.0
 10
98.5350556462877
 20
72.78802148652052
 10
98.5350556462877
 20
71.26802148652057
 10
98.5314156462878
 20
71.22634148652051
 10
98.52057564628761
 20
71.18594148652058
 10
98.50289564628704
 20
71.14802148652043
 10
98.47891564628819
 20
71.11376148652049
 10
98.4493156462876
 20
71.08416148652064
 10
98.41505564628798
 20
71.06018148652072
 10
98.3771356462868
 20
71.04250148652046
 10
98.3367356462879
 20
71.03166148652062
 10
98.29505564628685
 20
71.02802148652043
 10
94.25505564628774
 20
71.02802148652043
 10
94.21337964628701
 20
71.03166148652062
 10
94.17297164628745
 20
71.04250148652046
 10
94.13505564628802
 20
71.06018148652072
 10
94.10078564628758
 20
71.08416148652064
 10
94.07120564628723
 20
71.11376148652049
 10
94.04720964628704
 20
71.14802148652043
 10
94.02952964628791
 20
71.18594148652058
 10
94.01870164628728
 20
71.22634148652051
 10
94.01505564628688
 20
71.26802148652057
 10
94.01505564628687
 20
85.3080214865205
 10
94.01870164628727
 20
85.34969748652055
 10
94.0295296462879
 20
85.39010548652048
 10
94.04720964628703
 20
85.42802148652062
 10
94.07120564628721
 20
85.46229148652063
 10
94.10078564628758
 20
85.49187148652071
 10
94.13505564628802
 20
85.51586748652052
 10
94.17297164628744
 20
85.53354748652065
 10
94.213379646287
 20
85.54437548652061
 10
94.25505564628773
 20
85.54802148652062
 10
105.5103156462878
 20
85.54802148652062
  0
LWPOLYLINE
  5
119
330
E3
100
AcDbEntity
  8
Des_ Furniture
  6
Continuous
100
AcDbPolyline
 90
       32
 70
   128
 43
0.0
 10
93.67699982971239
 20
144.7653492395402
 10
93.67699982971239
 20
156.0853492395401
 10
93.6842921097125
 20
156.1687492395401
 10
93.70594742971299
 20
156.2495492395402
 10
93.74130762971198
 20
156.3253492395402
 10
93.78929842971226
 20
156.3939492395402
 10
93.84846182971253
 20
156.4531492395401
 10
93.91699982971183
 20
156.5009492395401
 10
93.99282982971194
 20
156.5363492395402
 10
94.07364782971264
 20
156.55814923954
 10
94.15699982971269
 20
156.5653492395402
 10
108.1969998297127
 20
156.5653492395402
 10
108.2803598297119
 20
156.55814923954
 10
108.3611598297126
 20
156.5363492395402
 10
108.4369998297121
 20
156.5009492395401
 10
108.505539829713
 20
156.4531492395401
 10
108.5646998297123
 20
156.3939492395402
 10
108.6126998297119
 20
156.3253492395402
 10
108.648059829713
 20
156.2495492395402
 10
108.6696998297129
 20
156.1687492395401
 10
108.676999829713
 20
156.0853492395401
 10
108.676999829713
 20
152.0453492395401
 10
108.6696998297129
 20
151.9619492395401
 10
108.648059829713
 20
151.8811492395402
 10
108.6126998297119
 20
151.8053492395401
 10
108.5646998297123
 20
151.73674923954
 10
108.505539829713
 20
151.6775492395401
 10
108.4369998297121
 20
151.6297492395401
 10
108.3611598297126
 20
151.5943492395401
 10
108.2803598297119
 20
151.5725492395401
 10
108.1969998297127
 20
151.5653492395401
 10
106.6769998297119
 20
151.5653492395401
  0
LWPOLYLINE
  5
11A
330
E3
100
AcDbEntity
  8
Des_ Furniture
  6
Continuous
100
AcDbPolyline
 90
       32
 70
   128
 43
0.0
 10
106.6769998297119
 20
120.9653492395402
 10
108.1969998297127
 20
120.9653492395402
 10
108.2803598297119
 20
120.9580492395401
 10
108.3611598297126
 20
120.9364092395401
 10
108.4369998297121
 20
120.9010492395401
 10
108.505539829713
 20
120.8530492395401
 10
108.5646998297123
 20
120.79388923954
 10
108.6126998297119
 20
120.72534923954
 10
108.648059829713
 20
120.6495092395402
 10
108.6696998297129
 20
120.5687092395401
 10
108.676999829713
 20
120.4853492395401
 10
108.676999829713
 20
116.4453492395401
 10
108.6696998297129
 20
116.3619972395402
 10
108.648059829713
 20
116.2811792395402
 10
108.6126998297119
 20
116.2053492395401
 10
108.5646998297123
 20
116.1368112395401
 10
108.505539829713
 20
116.0776478395402
 10
108.4369998297121
 20
116.02965703954
 10
108.3611598297126
 20
115.9942968395402
 10
108.2803598297119
 20
115.9726415195401
 10
108.1969998297127
 20
115.9653492395402
 10
94.15699982971269
 20
115.9653492395402
 10
94.07364782971264
 20
115.9726415195401
 10
93.99282982971194
 20
115.9942968395402
 10
93.91699982971183
 20
116.02965703954
 10
93.84846182971253
 20
116.0776478395402
 10
93.78929842971226
 20
116.1368112395401
 10
93.74130762971198
 20
116.2053492395401
 10
93.70594742971299
 20
116.2811792395402
 10
93.6842921097125
 20
116.3619972395402
 10
93.67699982971239
 20
116.4453492395401
 10
93.67699982971239
 20
127.7653492395402
  0
LWPOLYLINE
  5
11B
330
E3
100
AcDbEntity
  8
Des_ Furniture
  6
Continuous
100
AcDbPolyline
 90
       32
 70
   128
 43
0.0
 10
93.91699982971183
 20
144.8301492395402
 10
93.91699982971183
 20
156.0853492395401
 10
93.92064582971224
 20
156.1269492395402
 10
93.93147382971287
 20
156.1673492395401
 10
93.949153829712
 20
156.2053492395401
 10
93.97314982971218
 20
156.2395492395401
 10
94.00272982971252
 20
156.2691492395402
 10
94.03699982971297
 20
156.2931492395402
 10
94.07491582971241
 20
156.3109492395402
 10
94.11532382971197
 20
156.3217492395401
 10
94.15699982971269
 20
156.3253492395402
 10
108.1969998297127
 20
156.3253492395402
 10
108.2386798297123
 20
156.3217492395401
 10
108.2790798297126
 20
156.3109492395402
 10
108.3169998297124
 20
156.2931492395402
 10
108.351259829712
 20
156.2691492395402
 10
108.3808598297126
 20
156.2395492395401
 10
108.4048398297129
 20
156.2053492395401
 10
108.422519829712
 20
156.1673492395401
 10
108.4333598297122
 20
156.1269492395402
 10
108.4369998297121
 20
156.0853492395401
 10
108.4369998297121
 20
152.0453492395401
 10
108.4333598297122
 20
152.0037492395401
 10
108.422519829712
 20
151.9633492395401
 10
108.4048398297129
 20
151.9253492395401
 10
108.3808598297126
 20
151.8911492395402
 10
108.351259829712
 20
151.8615492395401
 10
108.3169998297124
 20
151.8375492395402
 10
108.2790798297126
 20
151.8197492395401
 10
108.2386798297123
 20
151.80894923954
 10
108.1969998297127
 20
151.8053492395401
 10
106.6769998297119
 20
151.8053492395401
  0
LWPOLYLINE
  5
11C
330
E3
100
AcDbEntity
  8
Des_ Furniture
  6
Continuous
100
AcDbPolyline
 90
       32
 70
   128
 43
0.0
 10
106.6769998297119
 20
120.72534923954
 10
108.1969998297127
 20
120.72534923954
 10
108.2386798297123
 20
120.7217092395402
 10
108.2790798297126
 20
120.7108692395401
 10
108.3169998297124
 20
120.6931892395401
 10
108.351259829712
 20
120.6692092395402
 10
108.3808598297126
 20
120.6396092395401
 10
108.4048398297129
 20
120.6053492395401
 10
108.422519829712
 20
120.5674292395402
 10
108.4333598297122
 20
120.5270292395401
 10
108.4369998297121
 20
120.4853492395401
 10
108.4369998297121
 20
116.4453492395401
 10
108.4333598297122
 20
116.40367323954
 10
108.422519829712
 20
116.3632652395401
 10
108.4048398297129
 20
116.3253492395402
 10
108.3808598297126
 20
116.2910792395401
 10
108.351259829712
 20
116.2614992395401
 10
108.3169998297124
 20
116.2375032395401
 10
108.2790798297126
 20
116.21982323954
 10
108.2386798297123
 20
116.2089952395402
 10
108.1969998297127
 20
116.2053492395401
 10
94.15699982971269
 20
116.2053492395401
 10
94.11532382971197
 20
116.2089952395402
 10
94.07491582971241
 20
116.21982323954
 10
94.03699982971297
 20
116.2375032395401
 10
94.00272982971252
 20
116.2614992395401
 10
93.97314982971218
 20
116.2910792395401
 10
93.949153829712
 20
116.3253492395402
 10
93.93147382971287
 20
116.3632652395401
 10
93.92064582971224
 20
116.40367323954
 10
93.91699982971183
 20
116.4453492395401
 10
93.91699982971183
 20
127.7006092395402
  0
LINE
  5
11E
330
E3
100
AcDbEntity
  8
Des_ Furniture
  6
Double Dashed
 62
   251
370
    18
100
AcDbLine
 10
242.7065648388574
 20
157.6714656029218
 30
0.0
 11
93.4614954992407
 21
157.6714656029218
 31
0.0
  0
LINE
  5
120
330
E3
100
AcDbEntity
  8
Des_ Furniture
  6
Hidden Line
100
AcDbLine
 10
242.7065648388574
 20
158.8524991850454
 30
0.0
 11
92.6390472456894
 21
158.8524991850454
 31
0.0
  0
LINE
  5
121
330
E3
100
AcDbEntity
  8
Des_ Furniture
  6
Continuous
 62
   251
370
    18
100
AcDbLine
 10
239.8475004681373
 20
115.9942951239262
 30
0.0
 11
108.3611595919523
 21
115.9942951239262
 31
0.0
  0
LINE
  5
122
330
E3
100
AcDbEntity
  8
Doc_ Finishes
  6
Continuous
100
AcDbLine
 10
290.4797629082805
 20
166.6998690795482
 30
0.0
 11
286.9933366463459
 21
166.6998690795482
 31
0.0
  0
LINE
  5
123
330
E3
100
AcDbEntity
  8
Doc_ Finishes
  6
Continuous
100
AcDbLine
 10
286.9933366463459
 20
166.6998690795482
 30
0.0
 11
283.193338716912
 21
160.0796034140529
 31
0.0
  0
LINE
  5
124
330
E3
100
AcDbEntity
  8
Doc_ Finishes
  6
Continuous
100
AcDbLine
 10
283.193338716912
 20
160.0796034140529
 30
0.0
 11
274.5933357424624
 21
160.0796034140529
 31
0.0
  0
LINE
  5
125
330
E3
100
AcDbEntity
  8
Doc_ Finishes
  6
Continuous
100
AcDbLine
 10
274.5933357424624
 20
160.0796034140529
 30
0.0
 11
273.9933368210309
 21
160.7416296764092
 31
0.0
  0
LINE
  5
126
330
E3
100
AcDbEntity
  8
Doc_ Finishes
  6
Continuous
100
AcDbLine
 10
273.9933368210309
 20
160.7416296764092
 30
0.0
 11
266.9933380603721
 21
160.7416296764092
 31
0.0
  0
LINE
  5
127
330
E3
100
AcDbEntity
  8
Doc_ Finishes
  6
Continuous
100
AcDbLine
 10
266.9933380603721
 20
160.7416296764092
 30
0.0
 11
266.3933348849566
 21
160.0796034140529
 31
0.0
  0
LINE
  5
128
330
E3
100
AcDbEntity
  8
Doc_ Finishes
  6
Continuous
100
AcDbLine
 10
266.3933348849566
 20
160.0796034140529
 30
0.0
 11
257.793336164491
 21
160.0796034140529
 31
0.0
  0
LINE
  5
129
330
E3
100
AcDbEntity
  8
Doc_ Finishes
  6
Continuous
100
AcDbLine
 10
257.793336164491
 20
160.0796034140529
 30
0.0
 11
254.1933383819177
 21
166.6998702916001
 31
0.0
  0
LINE
  5
12A
330
E3
100
AcDbEntity
  8
Doc_ Finishes
  6
Continuous
100
AcDbLine
 10
254.1933383819177
 20
166.6998702916001
 30
0.0
 11
249.1933374440254
 21
166.6998702916001
 31
0.0
  0
LINE
  5
12B
330
E3
100
AcDbEntity
  8
Doc_ Finishes
  6
Continuous
100
AcDbLine
 10
249.1933374440254
 20
166.6998702916001
 30
0.0
 11
245.3933386029803
 21
160.0796034140529
 31
0.0
  0
LINE
  5
12C
330
E3
100
AcDbEntity
  8
Doc_ Finishes
  6
Continuous
100
AcDbLine
 10
245.3933386029803
 20
160.0796034140529
 30
0.0
 11
236.7933356285307
 21
160.0796034140529
 31
0.0
  0
LINE
  5
12D
330
E3
100
AcDbEntity
  8
Doc_ Finishes
  6
Continuous
100
AcDbLine
 10
236.7933356285307
 20
160.0796034140529
 30
0.0
 11
236.1933367070992
 21
160.7416296764092
 31
0.0
  0
LINE
  5
12E
330
E3
100
AcDbEntity
  8
Doc_ Finishes
  6
Continuous
100
AcDbLine
 10
236.1933367070992
 20
160.7416296764092
 30
0.0
 11
229.1933379464404
 21
160.7416296764092
 31
0.0
  0
LINE
  5
12F
330
E3
100
AcDbEntity
  8
Doc_ Finishes
  6
Continuous
100
AcDbLine
 10
229.1933379464404
 20
160.7416296764092
 30
0.0
 11
228.5933347710249
 21
160.0796034140529
 31
0.0
  0
LINE
  5
130
330
E3
100
AcDbEntity
  8
Doc_ Finishes
  6
Continuous
100
AcDbLine
 10
228.5933347710249
 20
160.0796034140529
 30
0.0
 11
219.9933360505593
 21
160.0796034140529
 31
0.0
  0
LINE
  5
131
330
E3
100
AcDbEntity
  8
Doc_ Finishes
  6
Continuous
100
AcDbLine
 10
219.9933360505593
 20
160.0796034140529
 30
0.0
 11
216.393338267986
 21
166.6998702916001
 31
0.0
  0
LINE
  5
132
330
E3
100
AcDbEntity
  8
Doc_ Finishes
  6
Continuous
100
AcDbLine
 10
216.393338267986
 20
166.6998702916001
 30
0.0
 11
211.3933373300938
 21
166.6998702916001
 31
0.0
  0
LINE
  5
133
330
E3
100
AcDbEntity
  8
Doc_ Finishes
  6
Continuous
100
AcDbLine
 10
211.3933373300938
 20
166.6998702916001
 30
0.0
 11
207.5933384890486
 21
160.0796034140529
 31
0.0
  0
LINE
  5
134
330
E3
100
AcDbEntity
  8
Doc_ Finishes
  6
Continuous
100
AcDbLine
 10
207.5933384890486
 20
160.0796034140529
 30
0.0
 11
198.993335514599
 21
160.0796034140529
 31
0.0
  0
LINE
  5
135
330
E3
100
AcDbEntity
  8
Doc_ Finishes
  6
Continuous
100
AcDbLine
 10
198.993335514599
 20
160.0796034140529
 30
0.0
 11
198.3933365931675
 21
160.7416296764092
 31
0.0
  0
LINE
  5
136
330
E3
100
AcDbEntity
  8
Doc_ Finishes
  6
Continuous
100
AcDbLine
 10
198.3933365931675
 20
160.7416296764092
 30
0.0
 11
191.3933378325088
 21
160.7416296764092
 31
0.0
  0
LINE
  5
137
330
E3
100
AcDbEntity
  8
Doc_ Finishes
  6
Continuous
100
AcDbLine
 10
191.3933378325088
 20
160.7416296764092
 30
0.0
 11
190.7933346570932
 21
160.0796034140529
 31
0.0
  0
LINE
  5
138
330
E3
100
AcDbEntity
  8
Doc_ Finishes
  6
Continuous
100
AcDbLine
 10
190.7933346570932
 20
160.0796034140529
 30
0.0
 11
182.1933359366276
 21
160.0796034140529
 31
0.0
  0
LINE
  5
139
330
E3
100
AcDbEntity
  8
Doc_ Finishes
  6
Continuous
100
AcDbLine
 10
182.1933359366276
 20
160.0796034140529
 30
0.0
 11
178.5933381540543
 21
166.6998702916001
 31
0.0
  0
LINE
  5
13A
330
E3
100
AcDbEntity
  8
Doc_ Finishes
  6
Continuous
100
AcDbLine
 10
178.5933381540543
 20
166.6998702916001
 30
0.0
 11
173.5933372161621
 21
166.6998702916001
 31
0.0
  0
LINE
  5
13B
330
E3
100
AcDbEntity
  8
Doc_ Finishes
  6
Continuous
100
AcDbLine
 10
173.5933372161621
 20
166.6998702916001
 30
0.0
 11
169.7933383751169
 21
160.0796034140529
 31
0.0
  0
LINE
  5
13C
330
E3
100
AcDbEntity
  8
Doc_ Finishes
  6
Continuous
100
AcDbLine
 10
169.7933383751169
 20
160.0796034140529
 30
0.0
 11
161.1933354006673
 21
160.0796034140529
 31
0.0
  0
LINE
  5
13D
330
E3
100
AcDbEntity
  8
Doc_ Finishes
  6
Continuous
100
AcDbLine
 10
161.1933354006673
 20
160.0796034140529
 30
0.0
 11
160.5933364792358
 21
160.7416296764092
 31
0.0
  0
LINE
  5
13E
330
E3
100
AcDbEntity
  8
Doc_ Finishes
  6
Continuous
100
AcDbLine
 10
160.5933364792358
 20
160.7416296764092
 30
0.0
 11
153.593337718577
 21
160.7416296764092
 31
0.0
  0
LINE
  5
13F
330
E3
100
AcDbEntity
  8
Doc_ Finishes
  6
Continuous
100
AcDbLine
 10
153.593337718577
 20
160.7416296764092
 30
0.0
 11
152.9933345431615
 21
160.0796034140529
 31
0.0
  0
LINE
  5
140
330
E3
100
AcDbEntity
  8
Doc_ Finishes
  6
Continuous
100
AcDbLine
 10
152.9933345431615
 20
160.0796034140529
 30
0.0
 11
144.3933358226959
 21
160.0796034140529
 31
0.0
  0
LINE
  5
141
330
E3
100
AcDbEntity
  8
Doc_ Finishes
  6
Continuous
100
AcDbLine
 10
144.3933358226959
 20
160.0796034140529
 30
0.0
 11
140.7933380401226
 21
166.6998702916001
 31
0.0
  0
LINE
  5
142
330
E3
100
AcDbEntity
  8
Doc_ Finishes
  6
Continuous
100
AcDbLine
 10
140.7933380401226
 20
166.6998702916001
 30
0.0
 11
135.7933371022303
 21
166.6998702916001
 31
0.0
  0
LINE
  5
143
330
E3
100
AcDbEntity
  8
Doc_ Finishes
  6
Continuous
100
AcDbLine
 10
135.7933371022303
 20
166.6998702916001
 30
0.0
 11
131.9933382611852
 21
160.0796034140529
 31
0.0
  0
LINE
  5
144
330
E3
100
AcDbEntity
  8
Doc_ Finishes
  6
Continuous
100
AcDbLine
 10
131.9933382611852
 20
160.0796034140529
 30
0.0
 11
123.3933352867356
 21
160.0796034140529
 31
0.0
  0
LINE
  5
145
330
E3
100
AcDbEntity
  8
Doc_ Finishes
  6
Continuous
100
AcDbLine
 10
123.3933352867356
 20
160.0796034140529
 30
0.0
 11
122.7933363653041
 21
160.7416296764092
 31
0.0
  0
LINE
  5
146
330
E3
100
AcDbEntity
  8
Doc_ Finishes
  6
Continuous
100
AcDbLine
 10
122.7933363653041
 20
160.7416296764092
 30
0.0
 11
115.7933376046453
 21
160.7416296764092
 31
0.0
  0
LINE
  5
147
330
E3
100
AcDbEntity
  8
Doc_ Finishes
  6
Continuous
100
AcDbLine
 10
115.7933376046453
 20
160.7416296764092
 30
0.0
 11
115.1933386832138
 21
160.0796034140529
 31
0.0
  0
LINE
  5
148
330
E3
100
AcDbEntity
  8
Doc_ Finishes
  6
Continuous
100
AcDbLine
 10
115.1933386832138
 20
160.0796034140529
 30
0.0
 11
106.5933357087642
 21
160.0796034140529
 31
0.0
  0
LINE
  5
149
330
E3
100
AcDbEntity
  8
Doc_ Finishes
  6
Continuous
100
AcDbLine
 10
106.5933357087642
 20
160.0796034140529
 30
0.0
 11
102.9933379261909
 21
166.6998702916001
 31
0.0
  0
LINE
  5
14A
330
E3
100
AcDbEntity
  8
Doc_ Finishes
  6
Continuous
100
AcDbLine
 10
102.9933379261909
 20
166.6998702916001
 30
0.0
 11
97.99333698829867
 21
166.6998702916001
 31
0.0
  0
LINE
  5
14B
330
E3
100
AcDbEntity
  8
Doc_ Finishes
  6
Continuous
100
AcDbLine
 10
97.99333698829867
 20
166.6998702916001
 30
0.0
 11
94.19333814725351
 21
160.0796034140529
 31
0.0
  0
LINE
  5
14C
330
E3
100
AcDbEntity
  8
Doc_ Finishes
  6
Continuous
100
AcDbLine
 10
94.19333814725351
 20
160.0796034140529
 30
0.0
 11
93.50007062629
 21
160.0796034140529
 31
0.0
  0
HATCH
  5
14D
330
E3
100
AcDbEntity
  8
Doc_ Finishes
  6
Continuous
 62
   255
370
     0
100
AcDbHatch
 10
0.0
 20
0.0
 30
0.0
210
0.0
220
0.0
230
1.0
  2
SOLID
 70
     1
 71
     0
 91
        1
 92
        3
 72
     1
 73
     1
 93
        2
 10
136.1581167509479
 20
168.2060500055998
 42
0.0
 10
138.5581167509479
 20
168.2060500055998
 42
0.4999999999999998
 97
        0
 75
     0
 76
     1
 98
        0
  0
LINE
  5
14E
330
E3
100
AcDbEntity
  8
Doc_ Finishes
  6
Continuous
100
AcDbLine
 10
138.5581161712389
 20
168.206048633953
 30
0.0
 11
136.1581162315287
 21
168.206048633953
 31
0.0
  0
ARC
  5
14F
330
E3
100
AcDbEntity
  8
Doc_ Finishes
  6
Continuous
100
AcDbCircle
 10
137.3581167509479
 20
167.3060500055998
 30
0.0
 40
1.500000000000012
100
AcDbArc
 50
36.86989764584423
 51
143.1301023541558
  0
HATCH
  5
150
330
E3
100
AcDbEntity
  8
Doc_ Finishes
  6
Continuous
 62
   255
370
     0
100
AcDbHatch
 10
0.0
 20
0.0
 30
0.0
210
0.0
220
0.0
230
1.0
  2
SOLID
 70
     1
 71
     0
 91
        1
 92
        3
 72
     0
 73
     1
 93
        4
 10
137.9981167509479
 20
168.8060500055997
 10
136.7181167509479
 20
168.8060500055997
 10
136.7181167509479
 20
168.6626634361688
 10
137.9981167509479
 20
168.6626634361688
 97
        0
 75
     0
 76
     1
 98
        0
  0
LINE
  5
151
330
E3
100
AcDbEntity
  8
Doc_ Finishes
  6
Continuous
100
AcDbLine
 10
136.7181149412659
 20
168.8060518093686
 30
0.0
 11
137.9981174615017
 21
168.8060518093686
 31
0.0
  0
LINE
  5
152
330
E3
100
AcDbEntity
  8
Doc_ Finishes
  6
Continuous
100
AcDbLine
 10
136.7181149412659
 20
168.6626627701702
 30
0.0
 11
136.7181149412659
 21
168.8060518093686
 31
0.0
  0
LINE
  5
153
330
E3
100
AcDbEntity
  8
Doc_ Finishes
  6
Continuous
100
AcDbLine
 10
137.9981174615017
 20
168.6626627701702
 30
0.0
 11
136.7181149412659
 21
168.6626627701702
 31
0.0
  0
LINE
  5
154
330
E3
100
AcDbEntity
  8
Doc_ Finishes
  6
Continuous
100
AcDbLine
 10
137.9981174615017
 20
168.8060518093686
 30
0.0
 11
137.9981174615017
 21
168.6626627701702
 31
0.0
  0
HATCH
  5
155
330
E3
100
AcDbEntity
  8
Doc_ Finishes
  6
Continuous
 62
   255
370
     0
100
AcDbHatch
 10
0.0
 20
0.0
 30
0.0
210
0.0
220
0.0
230
1.0
  2
SOLID
 70
     1
 71
     0
 91
        1
 92
        3
 72
     1
 73
     1
 93
        4
 10
138.7581167509479
 20
168.2060500055998
 42
0.0
 10
135.9581167509479
 20
168.2060500055998
 42
0.0
 10
135.9581167509479
 20
167.4060500055997
 42
-0.4285714285714285
 10
138.7581167509479
 20
167.4060500055997
 42
0.0
 97
        0
 75
     0
 76
     1
 98
        0
  0
LINE
  5
156
330
E3
100
AcDbEntity
  8
Doc_ Finishes
  6
Continuous
100
AcDbLine
 10
135.9581151730568
 20
168.206048633953
 30
0.0
 11
138.7581172297108
 21
168.206048633953
 31
0.0
  0
LINE
  5
157
330
E3
100
AcDbEntity
  8
Doc_ Finishes
  6
Continuous
100
AcDbLine
 10
135.9581151730568
 20
167.4060486540496
 30
0.0
 11
135.9581151730568
 21
168.206048633953
 31
0.0
  0
ARC
  5
158
330
E3
100
AcDbEntity
  8
Doc_ Finishes
  6
Continuous
100
AcDbCircle
 10
137.3581167509479
 20
166.0727166722664
 30
0.0
 40
1.933333333333356
100
AcDbArc
 50
43.60281897270437
 51
136.3971810272962
  0
LINE
  5
159
330
E3
100
AcDbEntity
  8
Doc_ Finishes
  6
Continuous
100
AcDbLine
 10
138.7581172297108
 20
168.206048633953
 30
0.0
 11
138.7581172297108
 21
167.4060486540496
 31
0.0
  0
HATCH
  5
15A
330
E3
100
AcDbEntity
  8
Doc_ Finishes
  6
Continuous
 62
   255
370
     0
100
AcDbHatch
 10
0.0
 20
0.0
 30
0.0
210
0.0
220
0.0
230
1.0
  2
SOLID
 70
     1
 71
     0
 91
        1
 92
        3
 72
     0
 73
     1
 93
        5
 10
137.6781167509479
 20
168.0060500055998
 10
137.0381167509479
 20
168.0060500055998
 10
137.0381167509479
 20
148.6460500055997
 10
137.3581167509479
 20
148.0060500055999
 10
137.6781167509479
 20
148.6460500055997
 97
        0
 75
     0
 76
     1
 98
        0
  0
LINE
  5
15B
330
E3
100
AcDbEntity
  8
Doc_ Finishes
  6
Continuous
100
AcDbLine
 10
137.0381166348209
 20
168.0060518294652
 30
0.0
 11
137.6781157679468
 21
168.0060518294652
 31
0.0
  0
LINE
  5
15C
330
E3
100
AcDbEntity
  8
Doc_ Finishes
  6
Continuous
100
AcDbLine
 10
137.0381166348209
 20
148.646051465006
 30
0.0
 11
137.0381166348209
 21
168.0060518294652
 31
0.0
  0
LINE
  5
15D
330
E3
100
AcDbEntity
  8
Doc_ Finishes
  6
Continuous
100
AcDbLine
 10
137.3581183283758
 20
148.0060480778961
 30
0.0
 11
137.0381166348209
 21
148.646051465006
 31
0.0
  0
LINE
  5
15E
330
E3
100
AcDbEntity
  8
Doc_ Finishes
  6
Continuous
100
AcDbLine
 10
137.6781157679468
 20
148.646051465006
 30
0.0
 11
137.3581183283758
 21
148.0060480778961
 31
0.0
  0
LINE
  5
15F
330
E3
100
AcDbEntity
  8
Doc_ Finishes
  6
Continuous
100
AcDbLine
 10
137.6781157679468
 20
168.0060518294652
 30
0.0
 11
137.6781157679468
 21
148.646051465006
 31
0.0
  0
LINE
  5
160
330
E3
100
AcDbEntity
  8
Doc_ Finishes
  6
Continuous
100
AcDbLine
 10
137.8781168264186
 20
168.0060518294652
 30
0.0
 11
137.8761387238516
 21
167.7282709272604
 31
0.0
  0
LINE
  5
161
330
E3
100
AcDbEntity
  8
Doc_ Finishes
  6
Continuous
100
AcDbLine
 10
137.8761387238516
 20
167.7282709272604
 30
0.0
 11
137.8702171781025
 21
167.4504942790398
 31
0.0
  0
LINE
  5
162
330
E3
100
AcDbEntity
  8
Doc_ Finishes
  6
Continuous
100
AcDbLine
 10
137.8702171781025
 20
167.4504942790398
 30
0.0
 11
137.8603989829955
 21
167.1727176308191
 31
0.0
  0
LINE
  5
163
330
E3
100
AcDbEntity
  8
Doc_ Finishes
  6
Continuous
100
AcDbLine
 10
137.8603989829955
 20
167.1727176308191
 30
0.0
 11
137.846756456259
 21
166.8949409825984
 31
0.0
  0
LINE
  5
164
330
E3
100
AcDbEntity
  8
Doc_ Finishes
  6
Continuous
100
AcDbLine
 10
137.846756456259
 20
166.8949409825984
 30
0.0
 11
137.8293959474932
 21
166.6171600803937
 31
0.0
  0
LINE
  5
165
330
E3
100
AcDbEntity
  8
Doc_ Finishes
  6
Continuous
100
AcDbLine
 10
137.8293959474932
 20
166.6171600803937
 30
0.0
 11
137.8084493302026
 21
166.3393834321731
 31
0.0
  0
LINE
  5
166
330
E3
100
AcDbEntity
  8
Doc_ Finishes
  6
Continuous
100
AcDbLine
 10
137.8084493302026
 20
166.3393834321731
 30
0.0
 11
137.7840740017959
 21
166.0616067839524
 31
0.0
  0
LINE
  5
167
330
E3
100
AcDbEntity
  8
Doc_ Finishes
  6
Continuous
100
AcDbLine
 10
137.7840740017959
 20
166.0616067839524
 30
0.0
 11
137.7564613915536
 21
165.7838258817477
 31
0.0
  0
LINE
  5
168
330
E3
100
AcDbEntity
  8
Doc_ Finishes
  6
Continuous
100
AcDbLine
 10
137.7564613915536
 20
165.7838258817477
 30
0.0
 11
137.7258114367245
 21
165.506049233527
 31
0.0
  0
LINE
  5
169
330
E3
100
AcDbEntity
  8
Doc_ Finishes
  6
Continuous
100
AcDbLine
 10
137.7258114367245
 20
165.506049233527
 30
0.0
 11
137.6923666143975
 21
165.2282725853064
 31
0.0
  0
LINE
  5
16A
330
E3
100
AcDbEntity
  8
Doc_ Finishes
  6
Continuous
100
AcDbLine
 10
137.6923666143975
 20
165.2282725853064
 30
0.0
 11
137.6563779096294
 21
164.9504959370857
 31
0.0
  0
LINE
  5
16B
330
E3
100
AcDbEntity
  8
Doc_ Finishes
  6
Continuous
100
AcDbLine
 10
137.6563779096294
 20
164.9504959370857
 30
0.0
 11
137.6181175773972
 21
164.672715034881
 31
0.0
  0
LINE
  5
16C
330
E3
100
AcDbEntity
  8
Doc_ Finishes
  6
Continuous
100
AcDbLine
 10
137.6181175773972
 20
164.672715034881
 30
0.0
 11
137.577879142598
 21
164.3949383866603
 31
0.0
  0
LINE
  5
16D
330
E3
100
AcDbEntity
  8
Doc_ Finishes
  6
Continuous
100
AcDbLine
 10
137.577879142598
 20
164.3949383866603
 30
0.0
 11
137.5359688920808
 21
164.1171617384396
 31
0.0
  0
LINE
  5
16E
330
E3
100
AcDbEntity
  8
Doc_ Finishes
  6
Continuous
100
AcDbLine
 10
137.5359688920808
 20
164.1171617384396
 30
0.0
 11
137.4927016206628
 21
163.8393850902189
 31
0.0
  0
LINE
  5
16F
330
E3
100
AcDbEntity
  8
Doc_ Finishes
  6
Continuous
100
AcDbLine
 10
137.4927016206628
 20
163.8393850902189
 30
0.0
 11
137.4484133930812
 21
163.5616041880142
 31
0.0
  0
LINE
  5
170
330
E3
100
AcDbEntity
  8
Doc_ Finishes
  6
Continuous
100
AcDbLine
 10
137.4484133930812
 20
163.5616041880142
 30
0.0
 11
137.4034360200891
 21
163.2838275397936
 31
0.0
  0
LINE
  5
171
330
E3
100
AcDbEntity
  8
Doc_ Finishes
  6
Continuous
100
AcDbLine
 10
137.4034360200891
 20
163.2838275397936
 30
0.0
 11
137.3581183283758
 21
163.0060508915729
 31
0.0
  0
LINE
  5
172
330
E3
100
AcDbEntity
  8
Doc_ Finishes
  6
Continuous
100
AcDbLine
 10
137.3581183283758
 20
163.0060508915729
 30
0.0
 11
137.3127963826785
 21
162.7282742433522
 31
0.0
  0
LINE
  5
173
330
E3
100
AcDbEntity
  8
Doc_ Finishes
  6
Continuous
100
AcDbLine
 10
137.3127963826785
 20
162.7282742433522
 30
0.0
 11
137.2678190096864
 21
162.4504933411475
 31
0.0
  0
LINE
  5
174
330
E3
100
AcDbEntity
  8
Doc_ Finishes
  6
Continuous
100
AcDbLine
 10
137.2678190096864
 20
162.4504933411475
 30
0.0
 11
137.2235307821048
 21
162.1727166929268
 31
0.0
  0
LINE
  5
175
330
E3
100
AcDbEntity
  8
Doc_ Finishes
  6
Continuous
100
AcDbLine
 10
137.2235307821048
 20
162.1727166929268
 30
0.0
 11
137.1802677646708
 21
161.8949400447062
 31
0.0
  0
LINE
  5
176
330
E3
100
AcDbEntity
  8
Doc_ Finishes
  6
Continuous
100
AcDbLine
 10
137.1802677646708
 20
161.8949400447062
 30
0.0
 11
137.1383532601696
 21
161.6171591425015
 31
0.0
  0
LINE
  5
177
330
E3
100
AcDbEntity
  8
Doc_ Finishes
  6
Continuous
100
AcDbLine
 10
137.1383532601696
 20
161.6171591425015
 30
0.0
 11
137.0981148253704
 21
161.3393824942808
 31
0.0
  0
LINE
  5
178
330
E3
100
AcDbEntity
  8
Doc_ Finishes
  6
Continuous
100
AcDbLine
 10
137.0981148253704
 20
161.3393824942808
 30
0.0
 11
137.0598587471222
 21
161.0616058460602
 31
0.0
  0
LINE
  5
179
330
E3
100
AcDbEntity
  8
Doc_ Finishes
  6
Continuous
100
AcDbLine
 10
137.0598587471222
 20
161.0616058460602
 30
0.0
 11
137.0238657883701
 21
160.7838291978395
 31
0.0
  0
LINE
  5
17A
330
E3
100
AcDbEntity
  8
Doc_ Finishes
  6
Continuous
100
AcDbLine
 10
137.0238657883701
 20
160.7838291978395
 30
0.0
 11
136.9904209660431
 21
160.5060482956347
 31
0.0
  0
LINE
  5
17B
330
E3
100
AcDbEntity
  8
Doc_ Finishes
  6
Continuous
100
AcDbLine
 10
136.9904209660431
 20
160.5060482956347
 30
0.0
 11
136.959775265198
 21
160.2282716474141
 31
0.0
  0
LINE
  5
17C
330
E3
100
AcDbEntity
  8
Doc_ Finishes
  6
Continuous
100
AcDbLine
 10
136.959775265198
 20
160.2282716474141
 30
0.0
 11
136.9321584009717
 21
159.9504949991934
 31
0.0
  0
LINE
  5
17D
330
E3
100
AcDbEntity
  8
Doc_ Finishes
  6
Continuous
100
AcDbLine
 10
136.9321584009717
 20
159.9504949991934
 30
0.0
 11
136.907783072565
 21
159.6727183509727
 31
0.0
  0
LINE
  5
17E
330
E3
100
AcDbEntity
  8
Doc_ Finishes
  6
Continuous
100
AcDbLine
 10
136.907783072565
 20
159.6727183509727
 30
0.0
 11
136.8868364552744
 21
159.394937448768
 31
0.0
  0
LINE
  5
17F
330
E3
100
AcDbEntity
  8
Doc_ Finishes
  6
Continuous
100
AcDbLine
 10
136.8868364552744
 20
159.394937448768
 30
0.0
 11
136.8694759465086
 21
159.1171608005474
 31
0.0
  0
LINE
  5
180
330
E3
100
AcDbEntity
  8
Doc_ Finishes
  6
Continuous
100
AcDbLine
 10
136.8694759465086
 20
159.1171608005474
 30
0.0
 11
136.8558334197721
 21
158.8393841523267
 31
0.0
  0
LINE
  5
181
330
E3
100
AcDbEntity
  8
Doc_ Finishes
  6
Continuous
100
AcDbLine
 10
136.8558334197721
 20
158.8393841523267
 30
0.0
 11
136.8460152246651
 21
158.561607504106
 31
0.0
  0
LINE
  5
182
330
E3
100
AcDbEntity
  8
Doc_ Finishes
  6
Continuous
100
AcDbLine
 10
136.8460152246651
 20
158.561607504106
 30
0.0
 11
136.840093678916
 21
158.2838266019013
 31
0.0
  0
LINE
  5
183
330
E3
100
AcDbEntity
  8
Doc_ Finishes
  6
Continuous
100
AcDbLine
 10
136.840093678916
 20
158.2838266019013
 30
0.0
 11
136.838115576349
 21
158.0060499536806
 31
0.0
  0
LINE
  5
184
330
E3
100
AcDbEntity
  8
Doc_ Finishes
  6
Continuous
100
AcDbLine
 10
136.838115576349
 20
158.0060499536806
 30
0.0
 11
136.840093678916
 21
157.72827330546
 31
0.0
  0
LINE
  5
185
330
E3
100
AcDbEntity
  8
Doc_ Finishes
  6
Continuous
100
AcDbLine
 10
137.8781168264186
 20
163.0060508915729
 30
0.0
 11
137.8761387238516
 21
162.7282742433522
 31
0.0
  0
LINE
  5
186
330
E3
100
AcDbEntity
  8
Doc_ Finishes
  6
Continuous
100
AcDbLine
 10
137.8761387238516
 20
162.7282742433522
 30
0.0
 11
137.8702171781025
 21
162.4504933411475
 31
0.0
  0
LINE
  5
187
330
E3
100
AcDbEntity
  8
Doc_ Finishes
  6
Continuous
100
AcDbLine
 10
137.8702171781025
 20
162.4504933411475
 30
0.0
 11
137.8603989829955
 21
162.1727166929268
 31
0.0
  0
LINE
  5
188
330
E3
100
AcDbEntity
  8
Doc_ Finishes
  6
Continuous
100
AcDbLine
 10
137.8603989829955
 20
162.1727166929268
 30
0.0
 11
137.846756456259
 21
161.8949400447062
 31
0.0
  0
LINE
  5
189
330
E3
100
AcDbEntity
  8
Doc_ Finishes
  6
Continuous
100
AcDbLine
 10
137.846756456259
 20
161.8949400447062
 30
0.0
 11
137.8293959474932
 21
161.6171591425015
 31
0.0
  0
LINE
  5
18A
330
E3
100
AcDbEntity
  8
Doc_ Finishes
  6
Continuous
100
AcDbLine
 10
137.8293959474932
 20
161.6171591425015
 30
0.0
 11
137.8084493302026
 21
161.3393824942808
 31
0.0
  0
LINE
  5
18B
330
E3
100
AcDbEntity
  8
Doc_ Finishes
  6
Continuous
100
AcDbLine
 10
137.8084493302026
 20
161.3393824942808
 30
0.0
 11
137.7840740017959
 21
161.0616058460602
 31
0.0
  0
LINE
  5
18C
330
E3
100
AcDbEntity
  8
Doc_ Finishes
  6
Continuous
100
AcDbLine
 10
137.7840740017959
 20
161.0616058460602
 30
0.0
 11
137.7564613915536
 21
160.7838291978395
 31
0.0
  0
LINE
  5
18D
330
E3
100
AcDbEntity
  8
Doc_ Finishes
  6
Continuous
100
AcDbLine
 10
137.7564613915536
 20
160.7838291978395
 30
0.0
 11
137.7258114367245
 21
160.5060482956347
 31
0.0
  0
LINE
  5
18E
330
E3
100
AcDbEntity
  8
Doc_ Finishes
  6
Continuous
100
AcDbLine
 10
137.7258114367245
 20
160.5060482956347
 30
0.0
 11
137.6923666143975
 21
160.2282716474141
 31
0.0
  0
LINE
  5
18F
330
E3
100
AcDbEntity
  8
Doc_ Finishes
  6
Continuous
100
AcDbLine
 10
137.6923666143975
 20
160.2282716474141
 30
0.0
 11
137.6563779096294
 21
159.9504949991934
 31
0.0
  0
LINE
  5
190
330
E3
100
AcDbEntity
  8
Doc_ Finishes
  6
Continuous
100
AcDbLine
 10
137.6563779096294
 20
159.9504949991934
 30
0.0
 11
137.6181175773972
 21
159.6727183509727
 31
0.0
  0
LINE
  5
191
330
E3
100
AcDbEntity
  8
Doc_ Finishes
  6
Continuous
100
AcDbLine
 10
137.6181175773972
 20
159.6727183509727
 30
0.0
 11
137.577879142598
 21
159.394937448768
 31
0.0
  0
LINE
  5
192
330
E3
100
AcDbEntity
  8
Doc_ Finishes
  6
Continuous
100
AcDbLine
 10
137.577879142598
 20
159.394937448768
 30
0.0
 11
137.5359688920808
 21
159.1171608005474
 31
0.0
  0
LINE
  5
193
330
E3
100
AcDbEntity
  8
Doc_ Finishes
  6
Continuous
100
AcDbLine
 10
137.5359688920808
 20
159.1171608005474
 30
0.0
 11
137.4927016206628
 21
158.8393841523267
 31
0.0
  0
LINE
  5
194
330
E3
100
AcDbEntity
  8
Doc_ Finishes
  6
Continuous
100
AcDbLine
 10
137.4927016206628
 20
158.8393841523267
 30
0.0
 11
137.4484133930812
 21
158.561607504106
 31
0.0
  0
LINE
  5
195
330
E3
100
AcDbEntity
  8
Doc_ Finishes
  6
Continuous
100
AcDbLine
 10
137.4484133930812
 20
158.561607504106
 30
0.0
 11
137.4034360200891
 21
158.2838266019013
 31
0.0
  0
LINE
  5
196
330
E3
100
AcDbEntity
  8
Doc_ Finishes
  6
Continuous
100
AcDbLine
 10
137.4034360200891
 20
158.2838266019013
 30
0.0
 11
137.3581183283758
 21
158.0060499536806
 31
0.0
  0
LINE
  5
197
330
E3
100
AcDbEntity
  8
Doc_ Finishes
  6
Continuous
100
AcDbLine
 10
137.3581183283758
 20
158.0060499536806
 30
0.0
 11
137.3127963826785
 21
157.72827330546
 31
0.0
  0
LINE
  5
198
330
E3
100
AcDbEntity
  8
Doc_ Finishes
  6
Continuous
100
AcDbLine
 10
137.3127963826785
 20
157.72827330546
 30
0.0
 11
137.2678190096864
 21
157.4504924032553
 31
0.0
  0
LINE
  5
199
330
E3
100
AcDbEntity
  8
Doc_ Finishes
  6
Continuous
100
AcDbLine
 10
137.2678190096864
 20
157.4504924032553
 30
0.0
 11
137.2235307821048
 21
157.1727157550346
 31
0.0
  0
LINE
  5
19A
330
E3
100
AcDbEntity
  8
Doc_ Finishes
  6
Continuous
100
AcDbLine
 10
137.2235307821048
 20
157.1727157550346
 30
0.0
 11
137.1802677646708
 21
156.8949391068139
 31
0.0
  0
LINE
  5
19B
330
E3
100
AcDbEntity
  8
Doc_ Finishes
  6
Continuous
100
AcDbLine
 10
137.1802677646708
 20
156.8949391068139
 30
0.0
 11
137.1383532601696
 21
156.6171624585932
 31
0.0
  0
LINE
  5
19C
330
E3
100
AcDbEntity
  8
Doc_ Finishes
  6
Continuous
100
AcDbLine
 10
137.1383532601696
 20
156.6171624585932
 30
0.0
 11
137.0981148253704
 21
156.3393815563886
 31
0.0
  0
LINE
  5
19D
330
E3
100
AcDbEntity
  8
Doc_ Finishes
  6
Continuous
100
AcDbLine
 10
137.0981148253704
 20
156.3393815563886
 30
0.0
 11
137.0598587471222
 21
156.0616049081679
 31
0.0
  0
LINE
  5
19E
330
E3
100
AcDbEntity
  8
Doc_ Finishes
  6
Continuous
100
AcDbLine
 10
137.0598587471222
 20
156.0616049081679
 30
0.0
 11
137.0238657883701
 21
155.7838282599472
 31
0.0
  0
LINE
  5
19F
330
E3
100
AcDbEntity
  8
Doc_ Finishes
  6
Continuous
100
AcDbLine
 10
137.0238657883701
 20
155.7838282599472
 30
0.0
 11
136.9904209660431
 21
155.5060516117265
 31
0.0
  0
LINE
  5
1A0
330
E3
100
AcDbEntity
  8
Doc_ Finishes
  6
Continuous
100
AcDbLine
 10
136.9904209660431
 20
155.5060516117265
 30
0.0
 11
136.959775265198
 21
155.2282707095218
 31
0.0
  0
LINE
  5
1A1
330
E3
100
AcDbEntity
  8
Doc_ Finishes
  6
Continuous
100
AcDbLine
 10
136.959775265198
 20
155.2282707095218
 30
0.0
 11
136.9321584009717
 21
154.9504940613012
 31
0.0
  0
LINE
  5
1A2
330
E3
100
AcDbEntity
  8
Doc_ Finishes
  6
Continuous
100
AcDbLine
 10
136.9321584009717
 20
154.9504940613012
 30
0.0
 11
136.907783072565
 21
154.6727174130805
 31
0.0
  0
LINE
  5
1A3
330
E3
100
AcDbEntity
  8
Doc_ Finishes
  6
Continuous
100
AcDbLine
 10
136.907783072565
 20
154.6727174130805
 30
0.0
 11
136.8868364552744
 21
154.3949407648598
 31
0.0
  0
LINE
  5
1A4
330
E3
100
AcDbEntity
  8
Doc_ Finishes
  6
Continuous
100
AcDbLine
 10
136.8868364552744
 20
154.3949407648598
 30
0.0
 11
136.8694759465086
 21
154.1171598626551
 31
0.0
  0
LINE
  5
1A5
330
E3
100
AcDbEntity
  8
Doc_ Finishes
  6
Continuous
100
AcDbLine
 10
136.8694759465086
 20
154.1171598626551
 30
0.0
 11
136.8558334197721
 21
153.8393832144344
 31
0.0
  0
LINE
  5
1A6
330
E3
100
AcDbEntity
  8
Doc_ Finishes
  6
Continuous
100
AcDbLine
 10
136.8558334197721
 20
153.8393832144344
 30
0.0
 11
136.8460152246651
 21
153.5616065662138
 31
0.0
  0
LINE
  5
1A7
330
E3
100
AcDbEntity
  8
Doc_ Finishes
  6
Continuous
100
AcDbLine
 10
136.8460152246651
 20
153.5616065662138
 30
0.0
 11
136.840093678916
 21
153.283825664009
 31
0.0
  0
LINE
  5
1A8
330
E3
100
AcDbEntity
  8
Doc_ Finishes
  6
Continuous
100
AcDbLine
 10
136.840093678916
 20
153.283825664009
 30
0.0
 11
136.838115576349
 21
153.0060490157884
 31
0.0
  0
LINE
  5
1A9
330
E3
100
AcDbEntity
  8
Doc_ Finishes
  6
Continuous
100
AcDbLine
 10
136.838115576349
 20
153.0060490157884
 30
0.0
 11
136.840093678916
 21
152.7282723675677
 31
0.0
  0
LINE
  5
1AA
330
E3
100
AcDbEntity
  8
Doc_ Finishes
  6
Continuous
100
AcDbLine
 10
137.8781168264186
 20
158.0060499536806
 30
0.0
 11
137.8761387238516
 21
157.72827330546
 31
0.0
  0
LINE
  5
1AB
330
E3
100
AcDbEntity
  8
Doc_ Finishes
  6
Continuous
100
AcDbLine
 10
137.8761387238516
 20
157.72827330546
 30
0.0
 11
137.8702171781025
 21
157.4504924032553
 31
0.0
  0
LINE
  5
1AC
330
E3
100
AcDbEntity
  8
Doc_ Finishes
  6
Continuous
100
AcDbLine
 10
137.8702171781025
 20
157.4504924032553
 30
0.0
 11
137.8603989829955
 21
157.1727157550346
 31
0.0
  0
LINE
  5
1AD
330
E3
100
AcDbEntity
  8
Doc_ Finishes
  6
Continuous
100
AcDbLine
 10
137.8603989829955
 20
157.1727157550346
 30
0.0
 11
137.846756456259
 21
156.8949391068139
 31
0.0
  0
LINE
  5
1AE
330
E3
100
AcDbEntity
  8
Doc_ Finishes
  6
Continuous
100
AcDbLine
 10
137.846756456259
 20
156.8949391068139
 30
0.0
 11
137.8293959474932
 21
156.6171624585932
 31
0.0
  0
LINE
  5
1AF
330
E3
100
AcDbEntity
  8
Doc_ Finishes
  6
Continuous
100
AcDbLine
 10
137.8293959474932
 20
156.6171624585932
 30
0.0
 11
137.8084493302026
 21
156.3393815563886
 31
0.0
  0
LINE
  5
1B0
330
E3
100
AcDbEntity
  8
Doc_ Finishes
  6
Continuous
100
AcDbLine
 10
137.8084493302026
 20
156.3393815563886
 30
0.0
 11
137.7840740017959
 21
156.0616049081679
 31
0.0
  0
LINE
  5
1B1
330
E3
100
AcDbEntity
  8
Doc_ Finishes
  6
Continuous
100
AcDbLine
 10
137.7840740017959
 20
156.0616049081679
 30
0.0
 11
137.7564613915536
 21
155.7838282599472
 31
0.0
  0
LINE
  5
1B2
330
E3
100
AcDbEntity
  8
Doc_ Finishes
  6
Continuous
100
AcDbLine
 10
137.7564613915536
 20
155.7838282599472
 30
0.0
 11
137.7258114367245
 21
155.5060516117265
 31
0.0
  0
LINE
  5
1B3
330
E3
100
AcDbEntity
  8
Doc_ Finishes
  6
Continuous
100
AcDbLine
 10
137.7258114367245
 20
155.5060516117265
 30
0.0
 11
137.6923666143975
 21
155.2282707095218
 31
0.0
  0
LINE
  5
1B4
330
E3
100
AcDbEntity
  8
Doc_ Finishes
  6
Continuous
100
AcDbLine
 10
137.6923666143975
 20
155.2282707095218
 30
0.0
 11
137.6563779096294
 21
154.9504940613012
 31
0.0
  0
LINE
  5
1B5
330
E3
100
AcDbEntity
  8
Doc_ Finishes
  6
Continuous
100
AcDbLine
 10
137.6563779096294
 20
154.9504940613012
 30
0.0
 11
137.6181175773972
 21
154.6727174130805
 31
0.0
  0
LINE
  5
1B6
330
E3
100
AcDbEntity
  8
Doc_ Finishes
  6
Continuous
100
AcDbLine
 10
137.6181175773972
 20
154.6727174130805
 30
0.0
 11
137.577879142598
 21
154.3949407648598
 31
0.0
  0
LINE
  5
1B7
330
E3
100
AcDbEntity
  8
Doc_ Finishes
  6
Continuous
100
AcDbLine
 10
137.577879142598
 20
154.3949407648598
 30
0.0
 11
137.5359688920808
 21
154.1171598626551
 31
0.0
  0
LINE
  5
1B8
330
E3
100
AcDbEntity
  8
Doc_ Finishes
  6
Continuous
100
AcDbLine
 10
137.5359688920808
 20
154.1171598626551
 30
0.0
 11
137.4927016206628
 21
153.8393832144344
 31
0.0
  0
LINE
  5
1B9
330
E3
100
AcDbEntity
  8
Doc_ Finishes
  6
Continuous
100
AcDbLine
 10
137.4927016206628
 20
153.8393832144344
 30
0.0
 11
137.4484133930812
 21
153.5616065662138
 31
0.0
  0
LINE
  5
1BA
330
E3
100
AcDbEntity
  8
Doc_ Finishes
  6
Continuous
100
AcDbLine
 10
137.4484133930812
 20
153.5616065662138
 30
0.0
 11
137.4034360200891
 21
153.283825664009
 31
0.0
  0
LINE
  5
1BB
330
E3
100
AcDbEntity
  8
Doc_ Finishes
  6
Continuous
100
AcDbLine
 10
137.4034360200891
 20
153.283825664009
 30
0.0
 11
137.3581183283758
 21
153.0060490157884
 31
0.0
  0
LINE
  5
1BC
330
E3
100
AcDbEntity
  8
Doc_ Finishes
  6
Continuous
100
AcDbLine
 10
137.3581183283758
 20
153.0060490157884
 30
0.0
 11
137.3127963826785
 21
152.7282723675677
 31
0.0
  0
LINE
  5
1BD
330
E3
100
AcDbEntity
  8
Doc_ Finishes
  6
Continuous
100
AcDbLine
 10
137.3127963826785
 20
152.7282723675677
 30
0.0
 11
137.2678190096864
 21
152.450495719347
 31
0.0
  0
LINE
  5
1BE
330
E3
100
AcDbEntity
  8
Doc_ Finishes
  6
Continuous
100
AcDbLine
 10
137.2678190096864
 20
152.450495719347
 30
0.0
 11
137.2235307821048
 21
152.1727148171423
 31
0.0
  0
LINE
  5
1BF
330
E3
100
AcDbEntity
  8
Doc_ Finishes
  6
Continuous
100
AcDbLine
 10
137.2235307821048
 20
152.1727148171423
 30
0.0
 11
137.1802677646708
 21
151.8949381689217
 31
0.0
  0
LINE
  5
1C0
330
E3
100
AcDbEntity
  8
Doc_ Finishes
  6
Continuous
100
AcDbLine
 10
137.1802677646708
 20
151.8949381689217
 30
0.0
 11
137.1383532601696
 21
151.617161520701
 31
0.0
  0
LINE
  5
1C1
330
E3
100
AcDbEntity
  8
Doc_ Finishes
  6
Continuous
100
AcDbLine
 10
137.1383532601696
 20
151.617161520701
 30
0.0
 11
137.0981148253704
 21
151.3393848724803
 31
0.0
  0
LINE
  5
1C2
330
E3
100
AcDbEntity
  8
Doc_ Finishes
  6
Continuous
100
AcDbLine
 10
137.0981148253704
 20
151.3393848724803
 30
0.0
 11
137.0598587471222
 21
151.0616039702756
 31
0.0
  0
LINE
  5
1C3
330
E3
100
AcDbEntity
  8
Doc_ Finishes
  6
Continuous
100
AcDbLine
 10
137.0598587471222
 20
151.0616039702756
 30
0.0
 11
137.0238657883701
 21
150.7838273220549
 31
0.0
  0
LINE
  5
1C4
330
E3
100
AcDbEntity
  8
Doc_ Finishes
  6
Continuous
100
AcDbLine
 10
137.0238657883701
 20
150.7838273220549
 30
0.0
 11
136.9904209660431
 21
150.5060506738343
 31
0.0
  0
LINE
  5
1C5
330
E3
100
AcDbEntity
  8
Doc_ Finishes
  6
Continuous
100
AcDbLine
 10
136.9904209660431
 20
150.5060506738343
 30
0.0
 11
136.959775265198
 21
150.2282740256136
 31
0.0
  0
LINE
  5
1C6
330
E3
100
AcDbEntity
  8
Doc_ Finishes
  6
Continuous
100
AcDbLine
 10
136.959775265198
 20
150.2282740256136
 30
0.0
 11
136.9321584009717
 21
149.9504931234089
 31
0.0
  0
LINE
  5
1C7
330
E3
100
AcDbEntity
  8
Doc_ Finishes
  6
Continuous
100
AcDbLine
 10
136.9321584009717
 20
149.9504931234089
 30
0.0
 11
136.907783072565
 21
149.6727164751882
 31
0.0
  0
LINE
  5
1C8
330
E3
100
AcDbEntity
  8
Doc_ Finishes
  6
Continuous
100
AcDbLine
 10
136.907783072565
 20
149.6727164751882
 30
0.0
 11
136.8868364552744
 21
149.3949398269675
 31
0.0
  0
LINE
  5
1C9
330
E3
100
AcDbEntity
  8
Doc_ Finishes
  6
Continuous
100
AcDbLine
 10
136.8868364552744
 20
149.3949398269675
 30
0.0
 11
136.8694759465086
 21
149.1171631787468
 31
0.0
  0
LINE
  5
1CA
330
E3
100
AcDbEntity
  8
Doc_ Finishes
  6
Continuous
100
AcDbLine
 10
137.3581183283758
 20
168.0060518294652
 30
0.0
 11
137.3127963826785
 21
167.7282709272604
 31
0.0
  0
LINE
  5
1CB
330
E3
100
AcDbEntity
  8
Doc_ Finishes
  6
Continuous
100
AcDbLine
 10
137.3127963826785
 20
167.7282709272604
 30
0.0
 11
137.2678190096864
 21
167.4504942790398
 31
0.0
  0
LINE
  5
1CC
330
E3
100
AcDbEntity
  8
Doc_ Finishes
  6
Continuous
100
AcDbLine
 10
137.2678190096864
 20
167.4504942790398
 30
0.0
 11
137.2235307821048
 21
167.1727176308191
 31
0.0
  0
LINE
  5
1CD
330
E3
100
AcDbEntity
  8
Doc_ Finishes
  6
Continuous
100
AcDbLine
 10
137.2235307821048
 20
167.1727176308191
 30
0.0
 11
137.1802677646708
 21
166.8949409825984
 31
0.0
  0
LINE
  5
1CE
330
E3
100
AcDbEntity
  8
Doc_ Finishes
  6
Continuous
100
AcDbLine
 10
137.1802677646708
 20
166.8949409825984
 30
0.0
 11
137.1383532601696
 21
166.6171600803937
 31
0.0
  0
LINE
  5
1CF
330
E3
100
AcDbEntity
  8
Doc_ Finishes
  6
Continuous
100
AcDbLine
 10
137.1383532601696
 20
166.6171600803937
 30
0.0
 11
137.0981148253704
 21
166.3393834321731
 31
0.0
  0
LINE
  5
1D0
330
E3
100
AcDbEntity
  8
Doc_ Finishes
  6
Continuous
100
AcDbLine
 10
137.0981148253704
 20
166.3393834321731
 30
0.0
 11
137.0598587471222
 21
166.0616067839524
 31
0.0
  0
LINE
  5
1D1
330
E3
100
AcDbEntity
  8
Doc_ Finishes
  6
Continuous
100
AcDbLine
 10
137.0598587471222
 20
166.0616067839524
 30
0.0
 11
137.0238657883701
 21
165.7838258817477
 31
0.0
  0
LINE
  5
1D2
330
E3
100
AcDbEntity
  8
Doc_ Finishes
  6
Continuous
100
AcDbLine
 10
137.0238657883701
 20
165.7838258817477
 30
0.0
 11
136.9904209660431
 21
165.506049233527
 31
0.0
  0
LINE
  5
1D3
330
E3
100
AcDbEntity
  8
Doc_ Finishes
  6
Continuous
100
AcDbLine
 10
136.9904209660431
 20
165.506049233527
 30
0.0
 11
136.959775265198
 21
165.2282725853064
 31
0.0
  0
LINE
  5
1D4
330
E3
100
AcDbEntity
  8
Doc_ Finishes
  6
Continuous
100
AcDbLine
 10
136.959775265198
 20
165.2282725853064
 30
0.0
 11
136.9321584009717
 21
164.9504959370857
 31
0.0
  0
LINE
  5
1D5
330
E3
100
AcDbEntity
  8
Doc_ Finishes
  6
Continuous
100
AcDbLine
 10
136.9321584009717
 20
164.9504959370857
 30
0.0
 11
136.907783072565
 21
164.672715034881
 31
0.0
  0
LINE
  5
1D6
330
E3
100
AcDbEntity
  8
Doc_ Finishes
  6
Continuous
100
AcDbLine
 10
136.907783072565
 20
164.672715034881
 30
0.0
 11
136.8868364552744
 21
164.3949383866603
 31
0.0
  0
LINE
  5
1D7
330
E3
100
AcDbEntity
  8
Doc_ Finishes
  6
Continuous
100
AcDbLine
 10
136.8868364552744
 20
164.3949383866603
 30
0.0
 11
136.8694759465086
 21
164.1171617384396
 31
0.0
  0
LINE
  5
1D8
330
E3
100
AcDbEntity
  8
Doc_ Finishes
  6
Continuous
100
AcDbLine
 10
136.8694759465086
 20
164.1171617384396
 30
0.0
 11
136.8558334197721
 21
163.8393850902189
 31
0.0
  0
LINE
  5
1D9
330
E3
100
AcDbEntity
  8
Doc_ Finishes
  6
Continuous
100
AcDbLine
 10
136.8558334197721
 20
163.8393850902189
 30
0.0
 11
136.8460152246651
 21
163.5616041880142
 31
0.0
  0
LINE
  5
1DA
330
E3
100
AcDbEntity
  8
Doc_ Finishes
  6
Continuous
100
AcDbLine
 10
136.8460152246651
 20
163.5616041880142
 30
0.0
 11
136.840093678916
 21
163.2838275397936
 31
0.0
  0
LINE
  5
1DB
330
E3
100
AcDbEntity
  8
Doc_ Finishes
  6
Continuous
100
AcDbLine
 10
136.840093678916
 20
163.2838275397936
 30
0.0
 11
136.838115576349
 21
163.0060508915729
 31
0.0
  0
LINE
  5
1DC
330
E3
100
AcDbEntity
  8
Doc_ Finishes
  6
Continuous
100
AcDbLine
 10
136.838115576349
 20
163.0060508915729
 30
0.0
 11
136.840093678916
 21
162.7282742433522
 31
0.0
  0
LINE
  5
1DD
330
E3
100
AcDbEntity
  8
Doc_ Finishes
  6
Continuous
100
AcDbLine
 10
137.8781168264186
 20
153.0060490157884
 30
0.0
 11
137.8761387238516
 21
152.7282723675677
 31
0.0
  0
LINE
  5
1DE
330
E3
100
AcDbEntity
  8
Doc_ Finishes
  6
Continuous
100
AcDbLine
 10
137.8761387238516
 20
152.7282723675677
 30
0.0
 11
137.8702171781025
 21
152.450495719347
 31
0.0
  0
LINE
  5
1DF
330
E3
100
AcDbEntity
  8
Doc_ Finishes
  6
Continuous
100
AcDbLine
 10
137.8702171781025
 20
152.450495719347
 30
0.0
 11
137.8603989829955
 21
152.1727148171423
 31
0.0
  0
LINE
  5
1E0
330
E3
100
AcDbEntity
  8
Doc_ Finishes
  6
Continuous
100
AcDbLine
 10
137.8603989829955
 20
152.1727148171423
 30
0.0
 11
137.846756456259
 21
151.8949381689217
 31
0.0
  0
LINE
  5
1E1
330
E3
100
AcDbEntity
  8
Doc_ Finishes
  6
Continuous
100
AcDbLine
 10
137.846756456259
 20
151.8949381689217
 30
0.0
 11
137.8293959474932
 21
151.617161520701
 31
0.0
  0
LINE
  5
1E2
330
E3
100
AcDbEntity
  8
Doc_ Finishes
  6
Continuous
100
AcDbLine
 10
137.8293959474932
 20
151.617161520701
 30
0.0
 11
137.8084493302026
 21
151.3393848724803
 31
0.0
  0
LINE
  5
1E3
330
E3
100
AcDbEntity
  8
Doc_ Finishes
  6
Continuous
100
AcDbLine
 10
137.8084493302026
 20
151.3393848724803
 30
0.0
 11
137.7840740017959
 21
151.0616039702756
 31
0.0
  0
LINE
  5
1E4
330
E3
100
AcDbEntity
  8
Doc_ Finishes
  6
Continuous
100
AcDbLine
 10
137.7840740017959
 20
151.0616039702756
 30
0.0
 11
137.7564613915536
 21
150.7838273220549
 31
0.0
  0
LINE
  5
1E5
330
E3
100
AcDbEntity
  8
Doc_ Finishes
  6
Continuous
100
AcDbLine
 10
137.7564613915536
 20
150.7838273220549
 30
0.0
 11
137.7258114367245
 21
150.5060506738343
 31
0.0
  0
LINE
  5
1E6
330
E3
100
AcDbEntity
  8
Doc_ Finishes
  6
Continuous
100
AcDbLine
 10
137.7258114367245
 20
150.5060506738343
 30
0.0
 11
137.6923666143975
 21
150.2282740256136
 31
0.0
  0
LINE
  5
1E7
330
E3
100
AcDbEntity
  8
Doc_ Finishes
  6
Continuous
100
AcDbLine
 10
137.6923666143975
 20
150.2282740256136
 30
0.0
 11
137.6563779096294
 21
149.9504931234089
 31
0.0
  0
LINE
  5
1E8
330
E3
100
AcDbEntity
  8
Doc_ Finishes
  6
Continuous
100
AcDbLine
 10
137.6563779096294
 20
149.9504931234089
 30
0.0
 11
137.6181175773972
 21
149.6727164751882
 31
0.0
  0
LINE
  5
1E9
330
E3
100
AcDbEntity
  8
Doc_ Finishes
  6
Continuous
100
AcDbLine
 10
137.6181175773972
 20
149.6727164751882
 30
0.0
 11
137.577879142598
 21
149.3949398269675
 31
0.0
  0
LINE
  5
1EA
330
E3
100
AcDbEntity
  8
Doc_ Finishes
  6
Continuous
100
AcDbLine
 10
137.577879142598
 20
149.3949398269675
 30
0.0
 11
137.5359688920808
 21
149.1171631787468
 31
0.0
  0
HATCH
  5
1EB
330
E3
100
AcDbEntity
  8
Doc_ Finishes
  6
Continuous
 62
   255
370
     0
100
AcDbHatch
 10
0.0
 20
0.0
 30
0.0
210
0.0
220
0.0
230
1.0
  2
SOLID
 70
     1
 71
     0
 91
        1
 92
        3
 72
     1
 73
     1
 93
        2
 10
81.53803084029053
 20
140.0927077056803
 42
0.0
 10
81.53803084029053
 20
142.4927077056803
 42
0.4999999999999998
 97
        0
 75
     0
 76
     1
 98
        0
  0
LINE
  5
1EC
330
E3
100
AcDbEntity
  8
Doc_ Finishes
  6
Continuous
100
AcDbLine
 10
81.5380292271061
 20
142.4927061269448
 30
0.0
 11
81.5380292271061
 21
140.0927061872345
 31
0.0
  0
ARC
  5
1ED
330
E3
100
AcDbEntity
  8
Doc_ Finishes
  6
Continuous
100
AcDbCircle
 10
82.43803084029055
 20
141.2927077056803
 30
0.0
 40
1.500000000000043
100
AcDbArc
 50
126.869897645844
 51
233.130102354156
  0
HATCH
  5
1EE
330
E3
100
AcDbEntity
  8
Doc_ Finishes
  6
Continuous
 62
   255
370
     0
100
AcDbHatch
 10
0.0
 20
0.0
 30
0.0
210
0.0
220
0.0
230
1.0
  2
SOLID
 70
     1
 71
     0
 91
        1
 92
        3
 72
     0
 73
     1
 93
        4
 10
80.93803084029052
 20
141.9327077056802
 10
80.93803084029052
 20
140.6527077056804
 10
81.08141740972161
 20
140.6527077056804
 10
81.08141740972161
 20
141.9327077056802
 97
        0
 75
     0
 76
     1
 98
        0
  0
LINE
  5
1EF
330
E3
100
AcDbEntity
  8
Doc_ Finishes
  6
Continuous
100
AcDbLine
 10
80.93803030567453
 20
140.6527091509557
 30
0.0
 11
80.93803030567453
 21
141.9327074172076
 31
0.0
  0
LINE
  5
1F0
330
E3
100
AcDbEntity
  8
Doc_ Finishes
  6
Continuous
100
AcDbLine
 10
81.0814193448729
 20
140.6527091509557
 30
0.0
 11
80.93803030567453
 21
140.6527091509557
 31
0.0
  0
LINE
  5
1F1
330
E3
100
AcDbEntity
  8
Doc_ Finishes
  6
Continuous
100
AcDbLine
 10
81.0814193448729
 20
141.9327074172076
 30
0.0
 11
81.0814193448729
 21
140.6527091509557
 31
0.0
  0
LINE
  5
1F2
330
E3
100
AcDbEntity
  8
Doc_ Finishes
  6
Continuous
100
AcDbLine
 10
80.93803030567453
 20
141.9327074172076
 30
0.0
 11
81.0814193448729
 21
141.9327074172076
 31
0.0
  0
HATCH
  5
1F3
330
E3
100
AcDbEntity
  8
Doc_ Finishes
  6
Continuous
 62
   255
370
     0
100
AcDbHatch
 10
0.0
 20
0.0
 30
0.0
210
0.0
220
0.0
230
1.0
  2
SOLID
 70
     1
 71
     0
 91
        1
 92
        3
 72
     1
 73
     1
 93
        4
 10
81.53803084029053
 20
142.6927077056803
 42
0.0
 10
81.53803084029053
 20
139.8927077056804
 42
0.0
 10
82.33803084029054
 20
139.8927077056804
 42
-0.4285714285714285
 10
82.33803084029054
 20
142.6927077056803
 42
0.0
 97
        0
 75
     0
 76
     1
 98
        0
  0
LINE
  5
1F4
330
E3
100
AcDbEntity
  8
Doc_ Finishes
  6
Continuous
100
AcDbLine
 10
81.5380292271061
 20
139.8927093827467
 30
0.0
 11
81.5380292271061
 21
142.6927071854166
 31
0.0
  0
LINE
  5
1F5
330
E3
100
AcDbEntity
  8
Doc_ Finishes
  6
Continuous
100
AcDbLine
 10
82.3380292070095
 20
139.8927093827467
 30
0.0
 11
81.5380292271061
 21
139.8927093827467
 31
0.0
  0
ARC
  5
1F6
330
E3
100
AcDbEntity
  8
Doc_ Finishes
  6
Continuous
100
AcDbCircle
 10
83.67136417362383
 20
141.2927077056804
 30
0.0
 40
1.933333333333277
100
AcDbArc
 50
133.6028189727037
 51
226.3971810272962
  0
LINE
  5
1F7
330
E3
100
AcDbEntity
  8
Doc_ Finishes
  6
Continuous
100
AcDbLine
 10
81.5380292271061
 20
142.6927071854166
 30
0.0
 11
82.3380292070095
 21
142.6927071854166
 31
0.0
  0
HATCH
  5
1F8
330
E3
100
AcDbEntity
  8
Doc_ Finishes
  6
Continuous
 62
   255
370
     0
100
AcDbHatch
 10
0.0
 20
0.0
 30
0.0
210
0.0
220
0.0
230
1.0
  2
SOLID
 70
     1
 71
     0
 91
        1
 92
        3
 72
     0
 73
     1
 93
        5
 10
81.73803084029053
 20
141.6127077056804
 10
81.73803084029053
 20
140.9727077056804
 10
101.0980308402905
 20
140.9727077056804
 10
101.7380308402905
 20
141.2927077056804
 10
101.0980308402905
 20
141.6127077056804
 97
        0
 75
     0
 76
     1
 98
        0
  0
LINE
  5
1F9
330
E3
100
AcDbEntity
  8
Doc_ Finishes
  6
Continuous
100
AcDbLine
 10
81.73803028557793
 20
140.9727065905267
 30
0.0
 11
81.73803028557793
 21
141.6127057236526
 31
0.0
  0
LINE
  5
1FA
330
E3
100
AcDbEntity
  8
Doc_ Finishes
  6
Continuous
100
AcDbLine
 10
101.098030650037
 20
140.9727065905267
 30
0.0
 11
81.73803028557793
 21
140.9727065905267
 31
0.0
  0
LINE
  5
1FB
330
E3
100
AcDbEntity
  8
Doc_ Finishes
  6
Continuous
100
AcDbLine
 10
101.738029783163
 20
141.2927082840816
 30
0.0
 11
101.098030650037
 21
140.9727065905267
 31
0.0
  0
LINE
  5
1FC
330
E3
100
AcDbEntity
  8
Doc_ Finishes
  6
Continuous
100
AcDbLine
 10
101.098030650037
 20
141.6127057236526
 30
0.0
 11
101.738029783163
 21
141.2927082840816
 31
0.0
  0
LINE
  5
1FD
330
E3
100
AcDbEntity
  8
Doc_ Finishes
  6
Continuous
100
AcDbLine
 10
81.73803028557793
 20
141.6127057236526
 30
0.0
 11
101.098030650037
 21
141.6127057236526
 31
0.0
  0
LINE
  5
1FE
330
E3
100
AcDbEntity
  8
Doc_ Finishes
  6
Continuous
100
AcDbLine
 10
81.73803028557793
 20
141.8127067821245
 30
0.0
 11
82.01580693379861
 21
141.8107286795574
 31
0.0
  0
LINE
  5
1FF
330
E3
100
AcDbEntity
  8
Doc_ Finishes
  6
Continuous
100
AcDbLine
 10
82.01580693379861
 20
141.8107286795574
 30
0.0
 11
82.29358783600331
 21
141.8048071338083
 31
0.0
  0
LINE
  5
200
330
E3
100
AcDbEntity
  8
Doc_ Finishes
  6
Continuous
100
AcDbLine
 10
82.29358783600331
 20
141.8048071338083
 30
0.0
 11
82.57136448422399
 21
141.7949889387014
 31
0.0
  0
LINE
  5
201
330
E3
100
AcDbEntity
  8
Doc_ Finishes
  6
Continuous
100
AcDbLine
 10
82.57136448422399
 20
141.7949889387014
 30
0.0
 11
82.84914113244467
 21
141.7813464119648
 31
0.0
  0
LINE
  5
202
330
E3
100
AcDbEntity
  8
Doc_ Finishes
  6
Continuous
100
AcDbLine
 10
82.84914113244467
 20
141.7813464119648
 30
0.0
 11
83.12691778066535
 21
141.7639859031991
 31
0.0
  0
LINE
  5
203
330
E3
100
AcDbEntity
  8
Doc_ Finishes
  6
Continuous
100
AcDbLine
 10
83.12691778066535
 20
141.7639859031991
 30
0.0
 11
83.40469868287003
 21
141.7430392859085
 31
0.0
  0
LINE
  5
204
330
E3
100
AcDbEntity
  8
Doc_ Finishes
  6
Continuous
100
AcDbLine
 10
83.40469868287003
 20
141.7430392859085
 30
0.0
 11
83.68247533109071
 21
141.7186682114858
 31
0.0
  0
LINE
  5
205
330
E3
100
AcDbEntity
  8
Doc_ Finishes
  6
Continuous
100
AcDbLine
 10
83.68247533109071
 20
141.7186682114858
 30
0.0
 11
83.9602519793114
 21
141.6910513472594
 31
0.0
  0
LINE
  5
206
330
E3
100
AcDbEntity
  8
Doc_ Finishes
  6
Continuous
100
AcDbLine
 10
83.9602519793114
 20
141.6910513472594
 30
0.0
 11
84.23803288151609
 21
141.6604013924303
 31
0.0
  0
LINE
  5
207
330
E3
100
AcDbEntity
  8
Doc_ Finishes
  6
Continuous
100
AcDbLine
 10
84.23803288151609
 20
141.6604013924303
 30
0.0
 11
84.51580952973677
 21
141.6269565701033
 31
0.0
  0
LINE
  5
208
330
E3
100
AcDbEntity
  8
Doc_ Finishes
  6
Continuous
100
AcDbLine
 10
84.51580952973677
 20
141.6269565701033
 30
0.0
 11
84.79358617795742
 21
141.5909678653352
 31
0.0
  0
LINE
  5
209
330
E3
100
AcDbEntity
  8
Doc_ Finishes
  6
Continuous
100
AcDbLine
 10
84.79358617795742
 20
141.5909678653352
 30
0.0
 11
85.0713628261781
 21
141.5527075331031
 31
0.0
  0
LINE
  5
20A
330
E3
100
AcDbEntity
  8
Doc_ Finishes
  6
Continuous
100
AcDbLine
 10
85.0713628261781
 20
141.5527075331031
 30
0.0
 11
85.3491437283828
 21
141.5124690983038
 31
0.0
  0
LINE
  5
20B
330
E3
100
AcDbEntity
  8
Doc_ Finishes
  6
Continuous
100
AcDbLine
 10
85.3491437283828
 20
141.5124690983038
 30
0.0
 11
85.62692037660347
 21
141.4705588477867
 31
0.0
  0
LINE
  5
20C
330
E3
100
AcDbEntity
  8
Doc_ Finishes
  6
Continuous
100
AcDbLine
 10
85.62692037660347
 20
141.4705588477867
 30
0.0
 11
85.90469702482415
 21
141.4272915763687
 31
0.0
  0
LINE
  5
20D
330
E3
100
AcDbEntity
  8
Doc_ Finishes
  6
Continuous
100
AcDbLine
 10
85.90469702482415
 20
141.4272915763687
 30
0.0
 11
86.18247367304483
 21
141.383003348787
 31
0.0
  0
LINE
  5
20E
330
E3
100
AcDbEntity
  8
Doc_ Finishes
  6
Continuous
100
AcDbLine
 10
86.18247367304483
 20
141.383003348787
 30
0.0
 11
86.46025457524952
 21
141.338030229779
 31
0.0
  0
LINE
  5
20F
330
E3
100
AcDbEntity
  8
Doc_ Finishes
  6
Continuous
100
AcDbLine
 10
86.46025457524952
 20
141.338030229779
 30
0.0
 11
86.73803122347019
 21
141.2927082840816
 31
0.0
  0
LINE
  5
210
330
E3
100
AcDbEntity
  8
Doc_ Finishes
  6
Continuous
100
AcDbLine
 10
86.73803122347019
 20
141.2927082840816
 30
0.0
 11
87.01580787169087
 21
141.2473863383844
 31
0.0
  0
LINE
  5
211
330
E3
100
AcDbEntity
  8
Doc_ Finishes
  6
Continuous
100
AcDbLine
 10
87.01580787169087
 20
141.2473863383844
 30
0.0
 11
87.29358451991155
 21
141.2024089653923
 31
0.0
  0
LINE
  5
212
330
E3
100
AcDbEntity
  8
Doc_ Finishes
  6
Continuous
100
AcDbLine
 10
87.29358451991155
 20
141.2024089653923
 30
0.0
 11
87.57136542211624
 21
141.1581207378106
 31
0.0
  0
LINE
  5
213
330
E3
100
AcDbEntity
  8
Doc_ Finishes
  6
Continuous
100
AcDbLine
 10
87.57136542211624
 20
141.1581207378106
 30
0.0
 11
87.84914207033692
 21
141.1148577203766
 31
0.0
  0
LINE
  5
214
330
E3
100
AcDbEntity
  8
Doc_ Finishes
  6
Continuous
100
AcDbLine
 10
87.84914207033692
 20
141.1148577203766
 30
0.0
 11
88.1269187185576
 21
141.0729474698595
 31
0.0
  0
LINE
  5
215
330
E3
100
AcDbEntity
  8
Doc_ Finishes
  6
Continuous
100
AcDbLine
 10
88.1269187185576
 20
141.0729474698595
 30
0.0
 11
88.40469962076229
 21
141.0327090350603
 31
0.0
  0
LINE
  5
216
330
E3
100
AcDbEntity
  8
Doc_ Finishes
  6
Continuous
100
AcDbLine
 10
88.40469962076229
 20
141.0327090350603
 30
0.0
 11
88.68247626898297
 21
140.9944487028281
 31
0.0
  0
LINE
  5
217
330
E3
100
AcDbEntity
  8
Doc_ Finishes
  6
Continuous
100
AcDbLine
 10
88.68247626898297
 20
140.9944487028281
 30
0.0
 11
88.96025291720365
 21
140.95845999806
 31
0.0
  0
LINE
  5
218
330
E3
100
AcDbEntity
  8
Doc_ Finishes
  6
Continuous
100
AcDbLine
 10
88.96025291720365
 20
140.95845999806
 30
0.0
 11
89.23802956542433
 21
140.9250109217489
 31
0.0
  0
LINE
  5
219
330
E3
100
AcDbEntity
  8
Doc_ Finishes
  6
Continuous
100
AcDbLine
 10
89.23802956542433
 20
140.9250109217489
 30
0.0
 11
89.51581046762901
 21
140.8943652209038
 31
0.0
  0
LINE
  5
21A
330
E3
100
AcDbEntity
  8
Doc_ Finishes
  6
Continuous
100
AcDbLine
 10
89.51581046762901
 20
140.8943652209038
 30
0.0
 11
89.79358711584969
 21
140.8667483566776
 31
0.0
  0
LINE
  5
21B
330
E3
100
AcDbEntity
  8
Doc_ Finishes
  6
Continuous
100
AcDbLine
 10
89.79358711584969
 20
140.8667483566776
 30
0.0
 11
90.07136376407037
 21
140.8423730282708
 31
0.0
  0
LINE
  5
21C
330
E3
100
AcDbEntity
  8
Doc_ Finishes
  6
Continuous
100
AcDbLine
 10
90.07136376407037
 20
140.8423730282708
 30
0.0
 11
90.34914041229105
 21
140.8214264109803
 31
0.0
  0
LINE
  5
21D
330
E3
100
AcDbEntity
  8
Doc_ Finishes
  6
Continuous
100
AcDbLine
 10
90.34914041229105
 20
140.8214264109803
 30
0.0
 11
90.62692131449573
 21
140.8040659022145
 31
0.0
  0
LINE
  5
21E
330
E3
100
AcDbEntity
  8
Doc_ Finishes
  6
Continuous
100
AcDbLine
 10
90.62692131449573
 20
140.8040659022145
 30
0.0
 11
90.90469796271641
 21
140.7904276294619
 31
0.0
  0
LINE
  5
21F
330
E3
100
AcDbEntity
  8
Doc_ Finishes
  6
Continuous
100
AcDbLine
 10
90.90469796271641
 20
140.7904276294619
 30
0.0
 11
91.18247461093709
 21
140.780609434355
 31
0.0
  0
LINE
  5
220
330
E3
100
AcDbEntity
  8
Doc_ Finishes
  6
Continuous
100
AcDbLine
 10
91.18247461093709
 20
140.780609434355
 30
0.0
 11
91.46025125915777
 21
140.7746878886059
 31
0.0
  0
LINE
  5
221
330
E3
100
AcDbEntity
  8
Doc_ Finishes
  6
Continuous
100
AcDbLine
 10
91.46025125915777
 20
140.7746878886059
 30
0.0
 11
91.73803216136247
 21
140.7727097860388
 31
0.0
  0
LINE
  5
222
330
E3
100
AcDbEntity
  8
Doc_ Finishes
  6
Continuous
100
AcDbLine
 10
91.73803216136247
 20
140.7727097860388
 30
0.0
 11
92.01580880958313
 21
140.7746878886059
 31
0.0
  0
LINE
  5
223
330
E3
100
AcDbEntity
  8
Doc_ Finishes
  6
Continuous
100
AcDbLine
 10
86.73803122347019
 20
141.8127067821245
 30
0.0
 11
87.01580787169087
 21
141.8107286795574
 31
0.0
  0
LINE
  5
224
330
E3
100
AcDbEntity
  8
Doc_ Finishes
  6
Continuous
100
AcDbLine
 10
87.01580787169087
 20
141.8107286795574
 30
0.0
 11
87.29358451991155
 21
141.8048071338083
 31
0.0
  0
LINE
  5
225
330
E3
100
AcDbEntity
  8
Doc_ Finishes
  6
Continuous
100
AcDbLine
 10
87.29358451991155
 20
141.8048071338083
 30
0.0
 11
87.57136542211624
 21
141.7949889387014
 31
0.0
  0
LINE
  5
226
330
E3
100
AcDbEntity
  8
Doc_ Finishes
  6
Continuous
100
AcDbLine
 10
87.57136542211624
 20
141.7949889387014
 30
0.0
 11
87.84914207033692
 21
141.7813464119648
 31
0.0
  0
LINE
  5
227
330
E3
100
AcDbEntity
  8
Doc_ Finishes
  6
Continuous
100
AcDbLine
 10
87.84914207033692
 20
141.7813464119648
 30
0.0
 11
88.1269187185576
 21
141.7639859031991
 31
0.0
  0
LINE
  5
228
330
E3
100
AcDbEntity
  8
Doc_ Finishes
  6
Continuous
100
AcDbLine
 10
88.1269187185576
 20
141.7639859031991
 30
0.0
 11
88.40469962076229
 21
141.7430392859085
 31
0.0
  0
LINE
  5
229
330
E3
100
AcDbEntity
  8
Doc_ Finishes
  6
Continuous
100
AcDbLine
 10
88.40469962076229
 20
141.7430392859085
 30
0.0
 11
88.68247626898297
 21
141.7186682114858
 31
0.0
  0
LINE
  5
22A
330
E3
100
AcDbEntity
  8
Doc_ Finishes
  6
Continuous
100
AcDbLine
 10
88.68247626898297
 20
141.7186682114858
 30
0.0
 11
88.96025291720365
 21
141.6910513472594
 31
0.0
  0
LINE
  5
22B
330
E3
100
AcDbEntity
  8
Doc_ Finishes
  6
Continuous
100
AcDbLine
 10
88.96025291720365
 20
141.6910513472594
 30
0.0
 11
89.23802956542433
 21
141.6604013924303
 31
0.0
  0
LINE
  5
22C
330
E3
100
AcDbEntity
  8
Doc_ Finishes
  6
Continuous
100
AcDbLine
 10
89.23802956542433
 20
141.6604013924303
 30
0.0
 11
89.51581046762901
 21
141.6269565701033
 31
0.0
  0
LINE
  5
22D
330
E3
100
AcDbEntity
  8
Doc_ Finishes
  6
Continuous
100
AcDbLine
 10
89.51581046762901
 20
141.6269565701033
 30
0.0
 11
89.79358711584969
 21
141.5909678653352
 31
0.0
  0
LINE
  5
22E
330
E3
100
AcDbEntity
  8
Doc_ Finishes
  6
Continuous
100
AcDbLine
 10
89.79358711584969
 20
141.5909678653352
 30
0.0
 11
90.07136376407037
 21
141.5527075331031
 31
0.0
  0
LINE
  5
22F
330
E3
100
AcDbEntity
  8
Doc_ Finishes
  6
Continuous
100
AcDbLine
 10
90.07136376407037
 20
141.5527075331031
 30
0.0
 11
90.34914041229105
 21
141.5124690983038
 31
0.0
  0
LINE
  5
230
330
E3
100
AcDbEntity
  8
Doc_ Finishes
  6
Continuous
100
AcDbLine
 10
90.34914041229105
 20
141.5124690983038
 30
0.0
 11
90.62692131449573
 21
141.4705588477867
 31
0.0
  0
LINE
  5
231
330
E3
100
AcDbEntity
  8
Doc_ Finishes
  6
Continuous
100
AcDbLine
 10
90.62692131449573
 20
141.4705588477867
 30
0.0
 11
90.90469796271641
 21
141.4272915763687
 31
0.0
  0
LINE
  5
232
330
E3
100
AcDbEntity
  8
Doc_ Finishes
  6
Continuous
100
AcDbLine
 10
90.90469796271641
 20
141.4272915763687
 30
0.0
 11
91.18247461093709
 21
141.383003348787
 31
0.0
  0
LINE
  5
233
330
E3
100
AcDbEntity
  8
Doc_ Finishes
  6
Continuous
100
AcDbLine
 10
91.18247461093709
 20
141.383003348787
 30
0.0
 11
91.46025125915777
 21
141.338030229779
 31
0.0
  0
LINE
  5
234
330
E3
100
AcDbEntity
  8
Doc_ Finishes
  6
Continuous
100
AcDbLine
 10
91.46025125915777
 20
141.338030229779
 30
0.0
 11
91.73803216136247
 21
141.2927082840816
 31
0.0
  0
LINE
  5
235
330
E3
100
AcDbEntity
  8
Doc_ Finishes
  6
Continuous
100
AcDbLine
 10
91.73803216136247
 20
141.2927082840816
 30
0.0
 11
92.01580880958313
 21
141.2473863383844
 31
0.0
  0
LINE
  5
236
330
E3
100
AcDbEntity
  8
Doc_ Finishes
  6
Continuous
100
AcDbLine
 10
92.01580880958313
 20
141.2473863383844
 30
0.0
 11
92.29358545780381
 21
141.2024089653923
 31
0.0
  0
LINE
  5
237
330
E3
100
AcDbEntity
  8
Doc_ Finishes
  6
Continuous
100
AcDbLine
 10
92.29358545780381
 20
141.2024089653923
 30
0.0
 11
92.5713621060245
 21
141.1581207378106
 31
0.0
  0
LINE
  5
238
330
E3
100
AcDbEntity
  8
Doc_ Finishes
  6
Continuous
100
AcDbLine
 10
92.5713621060245
 20
141.1581207378106
 30
0.0
 11
92.84914300822919
 21
141.1148577203766
 31
0.0
  0
LINE
  5
239
330
E3
100
AcDbEntity
  8
Doc_ Finishes
  6
Continuous
100
AcDbLine
 10
92.84914300822919
 20
141.1148577203766
 30
0.0
 11
93.12691965644987
 21
141.0729474698595
 31
0.0
  0
LINE
  5
23A
330
E3
100
AcDbEntity
  8
Doc_ Finishes
  6
Continuous
100
AcDbLine
 10
93.12691965644987
 20
141.0729474698595
 30
0.0
 11
93.40469630467055
 21
141.0327090350603
 31
0.0
  0
LINE
  5
23B
330
E3
100
AcDbEntity
  8
Doc_ Finishes
  6
Continuous
100
AcDbLine
 10
93.40469630467055
 20
141.0327090350603
 30
0.0
 11
93.68247720687523
 21
140.9944487028281
 31
0.0
  0
LINE
  5
23C
330
E3
100
AcDbEntity
  8
Doc_ Finishes
  6
Continuous
100
AcDbLine
 10
93.68247720687523
 20
140.9944487028281
 30
0.0
 11
93.96025385509591
 21
140.95845999806
 31
0.0
  0
LINE
  5
23D
330
E3
100
AcDbEntity
  8
Doc_ Finishes
  6
Continuous
100
AcDbLine
 10
93.96025385509591
 20
140.95845999806
 30
0.0
 11
94.23803050331657
 21
140.9250109217489
 31
0.0
  0
LINE
  5
23E
330
E3
100
AcDbEntity
  8
Doc_ Finishes
  6
Continuous
100
AcDbLine
 10
94.23803050331657
 20
140.9250109217489
 30
0.0
 11
94.51580715153725
 21
140.8943652209038
 31
0.0
  0
LINE
  5
23F
330
E3
100
AcDbEntity
  8
Doc_ Finishes
  6
Continuous
100
AcDbLine
 10
94.51580715153725
 20
140.8943652209038
 30
0.0
 11
94.79358805374194
 21
140.8667483566776
 31
0.0
  0
LINE
  5
240
330
E3
100
AcDbEntity
  8
Doc_ Finishes
  6
Continuous
100
AcDbLine
 10
94.79358805374194
 20
140.8667483566776
 30
0.0
 11
95.07136470196262
 21
140.8423730282708
 31
0.0
  0
LINE
  5
241
330
E3
100
AcDbEntity
  8
Doc_ Finishes
  6
Continuous
100
AcDbLine
 10
95.07136470196262
 20
140.8423730282708
 30
0.0
 11
95.3491413501833
 21
140.8214264109803
 31
0.0
  0
LINE
  5
242
330
E3
100
AcDbEntity
  8
Doc_ Finishes
  6
Continuous
100
AcDbLine
 10
95.3491413501833
 20
140.8214264109803
 30
0.0
 11
95.62691799840398
 21
140.8040659022145
 31
0.0
  0
LINE
  5
243
330
E3
100
AcDbEntity
  8
Doc_ Finishes
  6
Continuous
100
AcDbLine
 10
95.62691799840398
 20
140.8040659022145
 30
0.0
 11
95.90469890060866
 21
140.7904276294619
 31
0.0
  0
LINE
  5
244
330
E3
100
AcDbEntity
  8
Doc_ Finishes
  6
Continuous
100
AcDbLine
 10
95.90469890060866
 20
140.7904276294619
 30
0.0
 11
96.18247554882934
 21
140.780609434355
 31
0.0
  0
LINE
  5
245
330
E3
100
AcDbEntity
  8
Doc_ Finishes
  6
Continuous
100
AcDbLine
 10
96.18247554882934
 20
140.780609434355
 30
0.0
 11
96.46025219705002
 21
140.7746878886059
 31
0.0
  0
LINE
  5
246
330
E3
100
AcDbEntity
  8
Doc_ Finishes
  6
Continuous
100
AcDbLine
 10
96.46025219705002
 20
140.7746878886059
 30
0.0
 11
96.7380288452707
 21
140.7727097860388
 31
0.0
  0
LINE
  5
247
330
E3
100
AcDbEntity
  8
Doc_ Finishes
  6
Continuous
100
AcDbLine
 10
96.7380288452707
 20
140.7727097860388
 30
0.0
 11
97.0158097474754
 21
140.7746878886059
 31
0.0
  0
LINE
  5
248
330
E3
100
AcDbEntity
  8
Doc_ Finishes
  6
Continuous
100
AcDbLine
 10
91.73803216136247
 20
141.8127067821245
 30
0.0
 11
92.01580880958313
 21
141.8107286795574
 31
0.0
  0
LINE
  5
249
330
E3
100
AcDbEntity
  8
Doc_ Finishes
  6
Continuous
100
AcDbLine
 10
92.01580880958313
 20
141.8107286795574
 30
0.0
 11
92.29358545780381
 21
141.8048071338083
 31
0.0
  0
LINE
  5
24A
330
E3
100
AcDbEntity
  8
Doc_ Finishes
  6
Continuous
100
AcDbLine
 10
92.29358545780381
 20
141.8048071338083
 30
0.0
 11
92.5713621060245
 21
141.7949889387014
 31
0.0
  0
LINE
  5
24B
330
E3
100
AcDbEntity
  8
Doc_ Finishes
  6
Continuous
100
AcDbLine
 10
92.5713621060245
 20
141.7949889387014
 30
0.0
 11
92.84914300822919
 21
141.7813464119648
 31
0.0
  0
LINE
  5
24C
330
E3
100
AcDbEntity
  8
Doc_ Finishes
  6
Continuous
100
AcDbLine
 10
92.84914300822919
 20
141.7813464119648
 30
0.0
 11
93.12691965644987
 21
141.7639859031991
 31
0.0
  0
LINE
  5
24D
330
E3
100
AcDbEntity
  8
Doc_ Finishes
  6
Continuous
100
AcDbLine
 10
93.12691965644987
 20
141.7639859031991
 30
0.0
 11
93.40469630467055
 21
141.7430392859085
 31
0.0
  0
LINE
  5
24E
330
E3
100
AcDbEntity
  8
Doc_ Finishes
  6
Continuous
100
AcDbLine
 10
93.40469630467055
 20
141.7430392859085
 30
0.0
 11
93.68247720687523
 21
141.7186682114858
 31
0.0
  0
LINE
  5
24F
330
E3
100
AcDbEntity
  8
Doc_ Finishes
  6
Continuous
100
AcDbLine
 10
93.68247720687523
 20
141.7186682114858
 30
0.0
 11
93.96025385509591
 21
141.6910513472594
 31
0.0
  0
LINE
  5
250
330
E3
100
AcDbEntity
  8
Doc_ Finishes
  6
Continuous
100
AcDbLine
 10
93.96025385509591
 20
141.6910513472594
 30
0.0
 11
94.23803050331657
 21
141.6604013924303
 31
0.0
  0
LINE
  5
251
330
E3
100
AcDbEntity
  8
Doc_ Finishes
  6
Continuous
100
AcDbLine
 10
94.23803050331657
 20
141.6604013924303
 30
0.0
 11
94.51580715153725
 21
141.6269565701033
 31
0.0
  0
LINE
  5
252
330
E3
100
AcDbEntity
  8
Doc_ Finishes
  6
Continuous
100
AcDbLine
 10
94.51580715153725
 20
141.6269565701033
 30
0.0
 11
94.79358805374194
 21
141.5909678653352
 31
0.0
  0
LINE
  5
253
330
E3
100
AcDbEntity
  8
Doc_ Finishes
  6
Continuous
100
AcDbLine
 10
94.79358805374194
 20
141.5909678653352
 30
0.0
 11
95.07136470196262
 21
141.5527075331031
 31
0.0
  0
LINE
  5
254
330
E3
100
AcDbEntity
  8
Doc_ Finishes
  6
Continuous
100
AcDbLine
 10
95.07136470196262
 20
141.5527075331031
 30
0.0
 11
95.3491413501833
 21
141.5124690983038
 31
0.0
  0
LINE
  5
255
330
E3
100
AcDbEntity
  8
Doc_ Finishes
  6
Continuous
100
AcDbLine
 10
95.3491413501833
 20
141.5124690983038
 30
0.0
 11
95.62691799840398
 21
141.4705588477867
 31
0.0
  0
LINE
  5
256
330
E3
100
AcDbEntity
  8
Doc_ Finishes
  6
Continuous
100
AcDbLine
 10
95.62691799840398
 20
141.4705588477867
 30
0.0
 11
95.90469890060866
 21
141.4272915763687
 31
0.0
  0
LINE
  5
257
330
E3
100
AcDbEntity
  8
Doc_ Finishes
  6
Continuous
100
AcDbLine
 10
95.90469890060866
 20
141.4272915763687
 30
0.0
 11
96.18247554882934
 21
141.383003348787
 31
0.0
  0
LINE
  5
258
330
E3
100
AcDbEntity
  8
Doc_ Finishes
  6
Continuous
100
AcDbLine
 10
96.18247554882934
 20
141.383003348787
 30
0.0
 11
96.46025219705002
 21
141.338030229779
 31
0.0
  0
LINE
  5
259
330
E3
100
AcDbEntity
  8
Doc_ Finishes
  6
Continuous
100
AcDbLine
 10
96.46025219705002
 20
141.338030229779
 30
0.0
 11
96.7380288452707
 21
141.2927082840816
 31
0.0
  0
LINE
  5
25A
330
E3
100
AcDbEntity
  8
Doc_ Finishes
  6
Continuous
100
AcDbLine
 10
96.7380288452707
 20
141.2927082840816
 30
0.0
 11
97.0158097474754
 21
141.2473863383844
 31
0.0
  0
LINE
  5
25B
330
E3
100
AcDbEntity
  8
Doc_ Finishes
  6
Continuous
100
AcDbLine
 10
97.0158097474754
 20
141.2473863383844
 30
0.0
 11
97.29358639569608
 21
141.2024089653923
 31
0.0
  0
LINE
  5
25C
330
E3
100
AcDbEntity
  8
Doc_ Finishes
  6
Continuous
100
AcDbLine
 10
97.29358639569608
 20
141.2024089653923
 30
0.0
 11
97.57136304391675
 21
141.1581207378106
 31
0.0
  0
LINE
  5
25D
330
E3
100
AcDbEntity
  8
Doc_ Finishes
  6
Continuous
100
AcDbLine
 10
97.57136304391675
 20
141.1581207378106
 30
0.0
 11
97.84914394612144
 21
141.1148577203766
 31
0.0
  0
LINE
  5
25E
330
E3
100
AcDbEntity
  8
Doc_ Finishes
  6
Continuous
100
AcDbLine
 10
97.84914394612144
 20
141.1148577203766
 30
0.0
 11
98.12692059434212
 21
141.0729474698595
 31
0.0
  0
LINE
  5
25F
330
E3
100
AcDbEntity
  8
Doc_ Finishes
  6
Continuous
100
AcDbLine
 10
98.12692059434212
 20
141.0729474698595
 30
0.0
 11
98.4046972425628
 21
141.0327090350603
 31
0.0
  0
LINE
  5
260
330
E3
100
AcDbEntity
  8
Doc_ Finishes
  6
Continuous
100
AcDbLine
 10
98.4046972425628
 20
141.0327090350603
 30
0.0
 11
98.68247389078348
 21
140.9944487028281
 31
0.0
  0
LINE
  5
261
330
E3
100
AcDbEntity
  8
Doc_ Finishes
  6
Continuous
100
AcDbLine
 10
98.68247389078348
 20
140.9944487028281
 30
0.0
 11
98.96025479298815
 21
140.95845999806
 31
0.0
  0
LINE
  5
262
330
E3
100
AcDbEntity
  8
Doc_ Finishes
  6
Continuous
100
AcDbLine
 10
98.96025479298815
 20
140.95845999806
 30
0.0
 11
99.23803144120883
 21
140.9250109217489
 31
0.0
  0
LINE
  5
263
330
E3
100
AcDbEntity
  8
Doc_ Finishes
  6
Continuous
100
AcDbLine
 10
99.23803144120883
 20
140.9250109217489
 30
0.0
 11
99.51580808942951
 21
140.8943652209038
 31
0.0
  0
LINE
  5
264
330
E3
100
AcDbEntity
  8
Doc_ Finishes
  6
Continuous
100
AcDbLine
 10
99.51580808942951
 20
140.8943652209038
 30
0.0
 11
99.79358473765019
 21
140.8667483566776
 31
0.0
  0
LINE
  5
265
330
E3
100
AcDbEntity
  8
Doc_ Finishes
  6
Continuous
100
AcDbLine
 10
99.79358473765019
 20
140.8667483566776
 30
0.0
 11
100.0713656398549
 21
140.8423730282708
 31
0.0
  0
LINE
  5
266
330
E3
100
AcDbEntity
  8
Doc_ Finishes
  6
Continuous
100
AcDbLine
 10
100.0713656398549
 20
140.8423730282708
 30
0.0
 11
100.3491422880756
 21
140.8214264109803
 31
0.0
  0
LINE
  5
267
330
E3
100
AcDbEntity
  8
Doc_ Finishes
  6
Continuous
100
AcDbLine
 10
100.3491422880756
 20
140.8214264109803
 30
0.0
 11
100.6269189362962
 21
140.8040659022145
 31
0.0
  0
LINE
  5
268
330
E3
100
AcDbEntity
  8
Doc_ Finishes
  6
Continuous
100
AcDbLine
 10
81.73803028557793
 20
141.2927082840816
 30
0.0
 11
82.01580693379861
 21
141.2473863383844
 31
0.0
  0
LINE
  5
269
330
E3
100
AcDbEntity
  8
Doc_ Finishes
  6
Continuous
100
AcDbLine
 10
82.01580693379861
 20
141.2473863383844
 30
0.0
 11
82.29358783600331
 21
141.2024089653923
 31
0.0
  0
LINE
  5
26A
330
E3
100
AcDbEntity
  8
Doc_ Finishes
  6
Continuous
100
AcDbLine
 10
82.29358783600331
 20
141.2024089653923
 30
0.0
 11
82.57136448422399
 21
141.1581207378106
 31
0.0
  0
LINE
  5
26B
330
E3
100
AcDbEntity
  8
Doc_ Finishes
  6
Continuous
100
AcDbLine
 10
82.57136448422399
 20
141.1581207378106
 30
0.0
 11
82.84914113244467
 21
141.1148577203766
 31
0.0
  0
LINE
  5
26C
330
E3
100
AcDbEntity
  8
Doc_ Finishes
  6
Continuous
100
AcDbLine
 10
82.84914113244467
 20
141.1148577203766
 30
0.0
 11
83.12691778066535
 21
141.0729474698595
 31
0.0
  0
LINE
  5
26D
330
E3
100
AcDbEntity
  8
Doc_ Finishes
  6
Continuous
100
AcDbLine
 10
83.12691778066535
 20
141.0729474698595
 30
0.0
 11
83.40469868287003
 21
141.0327090350603
 31
0.0
  0
LINE
  5
26E
330
E3
100
AcDbEntity
  8
Doc_ Finishes
  6
Continuous
100
AcDbLine
 10
83.40469868287003
 20
141.0327090350603
 30
0.0
 11
83.68247533109071
 21
140.9944487028281
 31
0.0
  0
LINE
  5
26F
330
E3
100
AcDbEntity
  8
Doc_ Finishes
  6
Continuous
100
AcDbLine
 10
83.68247533109071
 20
140.9944487028281
 30
0.0
 11
83.9602519793114
 21
140.95845999806
 31
0.0
  0
LINE
  5
270
330
E3
100
AcDbEntity
  8
Doc_ Finishes
  6
Continuous
100
AcDbLine
 10
83.9602519793114
 20
140.95845999806
 30
0.0
 11
84.23803288151609
 21
140.9250109217489
 31
0.0
  0
LINE
  5
271
330
E3
100
AcDbEntity
  8
Doc_ Finishes
  6
Continuous
100
AcDbLine
 10
84.23803288151609
 20
140.9250109217489
 30
0.0
 11
84.51580952973677
 21
140.8943652209038
 31
0.0
  0
LINE
  5
272
330
E3
100
AcDbEntity
  8
Doc_ Finishes
  6
Continuous
100
AcDbLine
 10
84.51580952973677
 20
140.8943652209038
 30
0.0
 11
84.79358617795742
 21
140.8667483566776
 31
0.0
  0
LINE
  5
273
330
E3
100
AcDbEntity
  8
Doc_ Finishes
  6
Continuous
100
AcDbLine
 10
84.79358617795742
 20
140.8667483566776
 30
0.0
 11
85.0713628261781
 21
140.8423730282708
 31
0.0
  0
LINE
  5
274
330
E3
100
AcDbEntity
  8
Doc_ Finishes
  6
Continuous
100
AcDbLine
 10
85.0713628261781
 20
140.8423730282708
 30
0.0
 11
85.3491437283828
 21
140.8214264109803
 31
0.0
  0
LINE
  5
275
330
E3
100
AcDbEntity
  8
Doc_ Finishes
  6
Continuous
100
AcDbLine
 10
85.3491437283828
 20
140.8214264109803
 30
0.0
 11
85.62692037660347
 21
140.8040659022145
 31
0.0
  0
LINE
  5
276
330
E3
100
AcDbEntity
  8
Doc_ Finishes
  6
Continuous
100
AcDbLine
 10
85.62692037660347
 20
140.8040659022145
 30
0.0
 11
85.90469702482415
 21
140.7904276294619
 31
0.0
  0
LINE
  5
277
330
E3
100
AcDbEntity
  8
Doc_ Finishes
  6
Continuous
100
AcDbLine
 10
85.90469702482415
 20
140.7904276294619
 30
0.0
 11
86.18247367304483
 21
140.780609434355
 31
0.0
  0
LINE
  5
278
330
E3
100
AcDbEntity
  8
Doc_ Finishes
  6
Continuous
100
AcDbLine
 10
86.18247367304483
 20
140.780609434355
 30
0.0
 11
86.46025457524952
 21
140.7746878886059
 31
0.0
  0
LINE
  5
279
330
E3
100
AcDbEntity
  8
Doc_ Finishes
  6
Continuous
100
AcDbLine
 10
86.46025457524952
 20
140.7746878886059
 30
0.0
 11
86.73803122347019
 21
140.7727097860388
 31
0.0
  0
LINE
  5
27A
330
E3
100
AcDbEntity
  8
Doc_ Finishes
  6
Continuous
100
AcDbLine
 10
86.73803122347019
 20
140.7727097860388
 30
0.0
 11
87.01580787169087
 21
140.7746878886059
 31
0.0
  0
LINE
  5
27B
330
E3
100
AcDbEntity
  8
Doc_ Finishes
  6
Continuous
100
AcDbLine
 10
96.7380288452707
 20
141.8127067821245
 30
0.0
 11
97.0158097474754
 21
141.8107286795574
 31
0.0
  0
LINE
  5
27C
330
E3
100
AcDbEntity
  8
Doc_ Finishes
  6
Continuous
100
AcDbLine
 10
97.0158097474754
 20
141.8107286795574
 30
0.0
 11
97.29358639569608
 21
141.8048071338083
 31
0.0
  0
LINE
  5
27D
330
E3
100
AcDbEntity
  8
Doc_ Finishes
  6
Continuous
100
AcDbLine
 10
97.29358639569608
 20
141.8048071338083
 30
0.0
 11
97.57136304391675
 21
141.7949889387014
 31
0.0
  0
LINE
  5
27E
330
E3
100
AcDbEntity
  8
Doc_ Finishes
  6
Continuous
100
AcDbLine
 10
97.57136304391675
 20
141.7949889387014
 30
0.0
 11
97.84914394612144
 21
141.7813464119648
 31
0.0
  0
LINE
  5
27F
330
E3
100
AcDbEntity
  8
Doc_ Finishes
  6
Continuous
100
AcDbLine
 10
97.84914394612144
 20
141.7813464119648
 30
0.0
 11
98.12692059434212
 21
141.7639859031991
 31
0.0
  0
LINE
  5
280
330
E3
100
AcDbEntity
  8
Doc_ Finishes
  6
Continuous
100
AcDbLine
 10
98.12692059434212
 20
141.7639859031991
 30
0.0
 11
98.4046972425628
 21
141.7430392859085
 31
0.0
  0
LINE
  5
281
330
E3
100
AcDbEntity
  8
Doc_ Finishes
  6
Continuous
100
AcDbLine
 10
98.4046972425628
 20
141.7430392859085
 30
0.0
 11
98.68247389078348
 21
141.7186682114858
 31
0.0
  0
LINE
  5
282
330
E3
100
AcDbEntity
  8
Doc_ Finishes
  6
Continuous
100
AcDbLine
 10
98.68247389078348
 20
141.7186682114858
 30
0.0
 11
98.96025479298815
 21
141.6910513472594
 31
0.0
  0
LINE
  5
283
330
E3
100
AcDbEntity
  8
Doc_ Finishes
  6
Continuous
100
AcDbLine
 10
98.96025479298815
 20
141.6910513472594
 30
0.0
 11
99.23803144120883
 21
141.6604013924303
 31
0.0
  0
LINE
  5
284
330
E3
100
AcDbEntity
  8
Doc_ Finishes
  6
Continuous
100
AcDbLine
 10
99.23803144120883
 20
141.6604013924303
 30
0.0
 11
99.51580808942951
 21
141.6269565701033
 31
0.0
  0
LINE
  5
285
330
E3
100
AcDbEntity
  8
Doc_ Finishes
  6
Continuous
100
AcDbLine
 10
99.51580808942951
 20
141.6269565701033
 30
0.0
 11
99.79358473765019
 21
141.5909678653352
 31
0.0
  0
LINE
  5
286
330
E3
100
AcDbEntity
  8
Doc_ Finishes
  6
Continuous
100
AcDbLine
 10
99.79358473765019
 20
141.5909678653352
 30
0.0
 11
100.0713656398549
 21
141.5527075331031
 31
0.0
  0
LINE
  5
287
330
E3
100
AcDbEntity
  8
Doc_ Finishes
  6
Continuous
100
AcDbLine
 10
100.0713656398549
 20
141.5527075331031
 30
0.0
 11
100.3491422880756
 21
141.5124690983038
 31
0.0
  0
LINE
  5
288
330
E3
100
AcDbEntity
  8
Doc_ Finishes
  6
Continuous
100
AcDbLine
 10
100.3491422880756
 20
141.5124690983038
 30
0.0
 11
100.6269189362962
 21
141.4705588477867
 31
0.0
  0
HATCH
  5
289
330
E3
100
AcDbEntity
  8
Doc_ Finishes
  6
Continuous
 62
   255
370
     0
100
AcDbHatch
 10
0.0
 20
0.0
 30
0.0
210
0.0
220
0.0
230
1.0
  2
SOLID
 70
     1
 71
     0
 91
        1
 92
        3
 72
     1
 73
     1
 93
        2
 10
90.63011649533662
 20
148.8040018527164
 42
0.0
 10
90.63011649533662
 20
151.2040018527164
 42
0.4999999999999998
 97
        0
 75
     0
 76
     1
 98
        0
  0
LINE
  5
28A
330
E3
100
AcDbEntity
  8
Doc_ Finishes
  6
Continuous
100
AcDbLine
 10
90.6301160564911
 20
151.2040018311984
 30
0.0
 11
90.6301160564911
 21
148.8040018914882
 31
0.0
  0
ARC
  5
28B
330
E3
100
AcDbEntity
  8
Doc_ Finishes
  6
Continuous
100
AcDbCircle
 10
91.53011649533664
 20
150.0040018527164
 30
0.0
 40
1.500000000000043
100
AcDbArc
 50
126.869897645844
 51
233.130102354156
  0
HATCH
  5
28C
330
E3
100
AcDbEntity
  8
Doc_ Finishes
  6
Continuous
 62
   255
370
     0
100
AcDbHatch
 10
0.0
 20
0.0
 30
0.0
210
0.0
220
0.0
230
1.0
  2
SOLID
 70
     1
 71
     0
 91
        1
 92
        3
 72
     0
 73
     1
 93
        4
 10
90.03011649533663
 20
150.6440018527163
 10
90.03011649533663
 20
149.3640018527165
 10
90.17350306476769
 20
149.3640018527165
 10
90.17350306476769
 20
150.6440018527163
 97
        0
 75
     0
 76
     1
 98
        0
  0
LINE
  5
28D
330
E3
100
AcDbEntity
  8
Doc_ Finishes
  6
Continuous
100
AcDbLine
 10
90.03011713505957
 20
149.3640006012254
 30
0.0
 11
90.03011713505957
 21
150.6440031214613
 31
0.0
  0
LINE
  5
28E
330
E3
100
AcDbEntity
  8
Doc_ Finishes
  6
Continuous
100
AcDbLine
 10
90.1735019202739
 20
149.3640006012254
 30
0.0
 11
90.03011713505957
 21
149.3640006012254
 31
0.0
  0
LINE
  5
28F
330
E3
100
AcDbEntity
  8
Doc_ Finishes
  6
Continuous
100
AcDbLine
 10
90.1735019202739
 20
150.6440031214613
 30
0.0
 11
90.1735019202739
 21
149.3640006012254
 31
0.0
  0
LINE
  5
290
330
E3
100
AcDbEntity
  8
Doc_ Finishes
  6
Continuous
100
AcDbLine
 10
90.03011713505957
 20
150.6440031214613
 30
0.0
 11
90.1735019202739
 21
150.6440031214613
 31
0.0
  0
HATCH
  5
291
330
E3
100
AcDbEntity
  8
Doc_ Finishes
  6
Continuous
 62
   255
370
     0
100
AcDbHatch
 10
0.0
 20
0.0
 30
0.0
210
0.0
220
0.0
230
1.0
  2
SOLID
 70
     1
 71
     0
 91
        1
 92
        3
 72
     1
 73
     1
 93
        4
 10
90.63011649533662
 20
151.4040018527163
 42
0.0
 10
90.63011649533662
 20
148.6040018527165
 42
0.0
 10
91.43011649533662
 20
148.6040018527165
 42
-0.4285714285714285
 10
91.43011649533662
 20
151.4040018527163
 42
0.0
 97
        0
 75
     0
 76
     1
 98
        0
  0
LINE
  5
292
330
E3
100
AcDbEntity
  8
Doc_ Finishes
  6
Continuous
100
AcDbLine
 10
90.6301160564911
 20
148.6040008330164
 30
0.0
 11
90.6301160564911
 21
151.4040028896703
 31
0.0
  0
LINE
  5
293
330
E3
100
AcDbEntity
  8
Doc_ Finishes
  6
Continuous
100
AcDbLine
 10
91.43011603639451
 20
148.6040008330164
 30
0.0
 11
90.6301160564911
 21
148.6040008330164
 31
0.0
  0
ARC
  5
294
330
E3
100
AcDbEntity
  8
Doc_ Finishes
  6
Continuous
100
AcDbCircle
 10
92.76344982866986
 20
150.0040018527164
 30
0.0
 40
1.933333333333199
100
AcDbArc
 50
133.6028189727037
 51
226.3971810272963
  0
LINE
  5
295
330
E3
100
AcDbEntity
  8
Doc_ Finishes
  6
Continuous
100
AcDbLine
 10
90.6301160564911
 20
151.4040028896703
 30
0.0
 11
91.43011603639451
 21
151.4040028896703
 31
0.0
  0
HATCH
  5
296
330
E3
100
AcDbEntity
  8
Doc_ Finishes
  6
Continuous
 62
   255
370
     0
100
AcDbHatch
 10
0.0
 20
0.0
 30
0.0
210
0.0
220
0.0
230
1.0
  2
SOLID
 70
     1
 71
     0
 91
        1
 92
        3
 72
     0
 73
     1
 93
        5
 10
90.83011649533663
 20
150.3240018527163
 10
90.83011649533663
 20
149.6840018527165
 10
100.1901164953366
 20
149.6840018527165
 10
100.8301164953366
 20
150.0040018527164
 10
100.1901164953366
 20
150.3240018527163
 97
        0
 75
     0
 76
     1
 98
        0
  0
LINE
  5
297
330
E3
100
AcDbEntity
  8
Doc_ Finishes
  6
Continuous
100
AcDbLine
 10
90.83011711496296
 20
149.6840022947804
 30
0.0
 11
90.83011711496296
 21
150.3240014279063
 31
0.0
  0
LINE
  5
298
330
E3
100
AcDbEntity
  8
Doc_ Finishes
  6
Continuous
100
AcDbLine
 10
100.1901156036376
 20
149.6840022947804
 30
0.0
 11
90.83011711496296
 21
149.6840022947804
 31
0.0
  0
LINE
  5
299
330
E3
100
AcDbEntity
  8
Doc_ Finishes
  6
Continuous
100
AcDbLine
 10
100.8301147367635
 20
150.0039997343513
 30
0.0
 11
100.1901156036376
 21
149.6840022947804
 31
0.0
  0
LINE
  5
29A
330
E3
100
AcDbEntity
  8
Doc_ Finishes
  6
Continuous
100
AcDbLine
 10
100.1901156036376
 20
150.3240014279063
 30
0.0
 11
100.8301147367635
 21
150.0039997343513
 31
0.0
  0
LINE
  5
29B
330
E3
100
AcDbEntity
  8
Doc_ Finishes
  6
Continuous
100
AcDbLine
 10
90.83011711496296
 20
150.3240014279063
 30
0.0
 11
100.1901156036376
 21
150.3240014279063
 31
0.0
  0
LINE
  5
29C
330
E3
100
AcDbEntity
  8
Doc_ Finishes
  6
Continuous
100
AcDbLine
 10
90.83011711496296
 20
150.5240024863782
 30
0.0
 11
90.9690054390733
 21
150.5220243838111
 31
0.0
  0
LINE
  5
29D
330
E3
100
AcDbEntity
  8
Doc_ Finishes
  6
Continuous
100
AcDbLine
 10
90.9690054390733
 20
150.5220243838111
 30
0.0
 11
91.10789376318364
 21
150.516102838062
 31
0.0
  0
LINE
  5
29E
330
E3
100
AcDbEntity
  8
Doc_ Finishes
  6
Continuous
100
AcDbLine
 10
91.10789376318364
 20
150.516102838062
 30
0.0
 11
91.24678208729398
 21
150.5062846429551
 31
0.0
  0
LINE
  5
29F
330
E3
100
AcDbEntity
  8
Doc_ Finishes
  6
Continuous
100
AcDbLine
 10
91.24678208729398
 20
150.5062846429551
 30
0.0
 11
91.38567041140432
 21
150.4926421162185
 31
0.0
  0
LINE
  5
2A0
330
E3
100
AcDbEntity
  8
Doc_ Finishes
  6
Continuous
100
AcDbLine
 10
91.38567041140432
 20
150.4926421162185
 30
0.0
 11
91.52456298949866
 21
150.4752816074528
 31
0.0
  0
LINE
  5
2A1
330
E3
100
AcDbEntity
  8
Doc_ Finishes
  6
Continuous
100
AcDbLine
 10
91.52456298949866
 20
150.4752816074528
 30
0.0
 11
91.663451313609
 21
150.4543349901622
 31
0.0
  0
LINE
  5
2A2
330
E3
100
AcDbEntity
  8
Doc_ Finishes
  6
Continuous
100
AcDbLine
 10
91.663451313609
 20
150.4543349901622
 30
0.0
 11
91.80233963771934
 21
150.4299596617554
 31
0.0
  0
LINE
  5
2A3
330
E3
100
AcDbEntity
  8
Doc_ Finishes
  6
Continuous
100
AcDbLine
 10
91.80233963771934
 20
150.4299596617554
 30
0.0
 11
91.94122796182968
 21
150.4023470515131
 31
0.0
  0
LINE
  5
2A4
330
E3
100
AcDbEntity
  8
Doc_ Finishes
  6
Continuous
100
AcDbLine
 10
91.94122796182968
 20
150.4023470515131
 30
0.0
 11
92.08011628594002
 21
150.3716970966841
 31
0.0
  0
LINE
  5
2A5
330
E3
100
AcDbEntity
  8
Doc_ Finishes
  6
Continuous
100
AcDbLine
 10
92.08011628594002
 20
150.3716970966841
 30
0.0
 11
92.21900461005036
 21
150.338252274357
 31
0.0
  0
LINE
  5
2A6
330
E3
100
AcDbEntity
  8
Doc_ Finishes
  6
Continuous
100
AcDbLine
 10
92.21900461005036
 20
150.338252274357
 30
0.0
 11
92.3578929341607
 21
150.3022635695889
 31
0.0
  0
LINE
  5
2A7
330
E3
100
AcDbEntity
  8
Doc_ Finishes
  6
Continuous
100
AcDbLine
 10
92.3578929341607
 20
150.3022635695889
 30
0.0
 11
92.49678125827104
 21
150.2640032373567
 31
0.0
  0
LINE
  5
2A8
330
E3
100
AcDbEntity
  8
Doc_ Finishes
  6
Continuous
100
AcDbLine
 10
92.49678125827104
 20
150.2640032373567
 30
0.0
 11
92.6356738363654
 21
150.2237648025576
 31
0.0
  0
LINE
  5
2A9
330
E3
100
AcDbEntity
  8
Doc_ Finishes
  6
Continuous
100
AcDbLine
 10
92.6356738363654
 20
150.2237648025576
 30
0.0
 11
92.77456216047572
 21
150.1818502980564
 31
0.0
  0
LINE
  5
2AA
330
E3
100
AcDbEntity
  8
Doc_ Finishes
  6
Continuous
100
AcDbLine
 10
92.77456216047572
 20
150.1818502980564
 30
0.0
 11
92.91345048458606
 21
150.1385872806223
 31
0.0
  0
LINE
  5
2AB
330
E3
100
AcDbEntity
  8
Doc_ Finishes
  6
Continuous
100
AcDbLine
 10
92.91345048458606
 20
150.1385872806223
 30
0.0
 11
93.0523388086964
 21
150.0942990530407
 31
0.0
  0
LINE
  5
2AC
330
E3
100
AcDbEntity
  8
Doc_ Finishes
  6
Continuous
100
AcDbLine
 10
93.0523388086964
 20
150.0942990530407
 30
0.0
 11
93.19122713280674
 21
150.0493216800486
 31
0.0
  0
LINE
  5
2AD
330
E3
100
AcDbEntity
  8
Doc_ Finishes
  6
Continuous
100
AcDbLine
 10
93.19122713280674
 20
150.0493216800486
 30
0.0
 11
93.33011545691708
 21
150.0039997343513
 31
0.0
  0
LINE
  5
2AE
330
E3
100
AcDbEntity
  8
Doc_ Finishes
  6
Continuous
100
AcDbLine
 10
93.33011545691708
 20
150.0039997343513
 30
0.0
 11
93.46900378102742
 21
149.958682042638
 31
0.0
  0
LINE
  5
2AF
330
E3
100
AcDbEntity
  8
Doc_ Finishes
  6
Continuous
100
AcDbLine
 10
93.46900378102742
 20
149.958682042638
 30
0.0
 11
93.60789635912177
 21
149.913704669646
 31
0.0
  0
LINE
  5
2B0
330
E3
100
AcDbEntity
  8
Doc_ Finishes
  6
Continuous
100
AcDbLine
 10
93.60789635912177
 20
149.913704669646
 30
0.0
 11
93.74678468323211
 21
149.8694164420643
 31
0.0
  0
LINE
  5
2B1
330
E3
100
AcDbEntity
  8
Doc_ Finishes
  6
Continuous
100
AcDbLine
 10
93.74678468323211
 20
149.8694164420643
 30
0.0
 11
93.88567300734245
 21
149.8261534246303
 31
0.0
  0
LINE
  5
2B2
330
E3
100
AcDbEntity
  8
Doc_ Finishes
  6
Continuous
100
AcDbLine
 10
93.88567300734245
 20
149.8261534246303
 30
0.0
 11
94.02456133145279
 21
149.7842389201292
 31
0.0
  0
LINE
  5
2B3
330
E3
100
AcDbEntity
  8
Doc_ Finishes
  6
Continuous
100
AcDbLine
 10
94.02456133145279
 20
149.7842389201292
 30
0.0
 11
94.16344965556313
 21
149.7440004853299
 31
0.0
  0
LINE
  5
2B4
330
E3
100
AcDbEntity
  8
Doc_ Finishes
  6
Continuous
100
AcDbLine
 10
94.16344965556313
 20
149.7440004853299
 30
0.0
 11
94.30233797967347
 21
149.7057401530978
 31
0.0
  0
LINE
  5
2B5
330
E3
100
AcDbEntity
  8
Doc_ Finishes
  6
Continuous
100
AcDbLine
 10
94.30233797967347
 20
149.7057401530978
 30
0.0
 11
94.44122630378381
 21
149.6697514483297
 31
0.0
  0
LINE
  5
2B6
330
E3
100
AcDbEntity
  8
Doc_ Finishes
  6
Continuous
100
AcDbLine
 10
94.44122630378381
 20
149.6697514483297
 30
0.0
 11
94.58011462789415
 21
149.6363066260026
 31
0.0
  0
LINE
  5
2B7
330
E3
100
AcDbEntity
  8
Doc_ Finishes
  6
Continuous
100
AcDbLine
 10
94.58011462789415
 20
149.6363066260026
 30
0.0
 11
94.7190072059885
 21
149.6056566711735
 31
0.0
  0
LINE
  5
2B8
330
E3
100
AcDbEntity
  8
Doc_ Finishes
  6
Continuous
100
AcDbLine
 10
94.7190072059885
 20
149.6056566711735
 30
0.0
 11
94.85789553009884
 21
149.5780440609313
 31
0.0
  0
LINE
  5
2B9
330
E3
100
AcDbEntity
  8
Doc_ Finishes
  6
Continuous
100
AcDbLine
 10
94.85789553009884
 20
149.5780440609313
 30
0.0
 11
94.99678385420918
 21
149.5536687325245
 31
0.0
  0
LINE
  5
2BA
330
E3
100
AcDbEntity
  8
Doc_ Finishes
  6
Continuous
100
AcDbLine
 10
94.99678385420918
 20
149.5536687325245
 30
0.0
 11
95.13567217831951
 21
149.532722115234
 31
0.0
  0
LINE
  5
2BB
330
E3
100
AcDbEntity
  8
Doc_ Finishes
  6
Continuous
100
AcDbLine
 10
95.13567217831951
 20
149.532722115234
 30
0.0
 11
95.27456050242985
 21
149.5153616064682
 31
0.0
  0
LINE
  5
2BC
330
E3
100
AcDbEntity
  8
Doc_ Finishes
  6
Continuous
100
AcDbLine
 10
95.27456050242985
 20
149.5153616064682
 30
0.0
 11
95.41344882654019
 21
149.5017190797316
 31
0.0
  0
LINE
  5
2BD
330
E3
100
AcDbEntity
  8
Doc_ Finishes
  6
Continuous
100
AcDbLine
 10
95.41344882654019
 20
149.5017190797316
 30
0.0
 11
95.55233715065053
 21
149.4919008846247
 31
0.0
  0
LINE
  5
2BE
330
E3
100
AcDbEntity
  8
Doc_ Finishes
  6
Continuous
100
AcDbLine
 10
95.55233715065053
 20
149.4919008846247
 30
0.0
 11
95.69122972874489
 21
149.4859793388756
 31
0.0
  0
LINE
  5
2BF
330
E3
100
AcDbEntity
  8
Doc_ Finishes
  6
Continuous
100
AcDbLine
 10
95.69122972874489
 20
149.4859793388756
 30
0.0
 11
95.83011805285523
 21
149.4840012363085
 31
0.0
  0
LINE
  5
2C0
330
E3
100
AcDbEntity
  8
Doc_ Finishes
  6
Continuous
100
AcDbLine
 10
95.83011805285523
 20
149.4840012363085
 30
0.0
 11
95.96900637696557
 21
149.4859793388756
 31
0.0
  0
LINE
  5
2C1
330
E3
100
AcDbEntity
  8
Doc_ Finishes
  6
Continuous
100
AcDbLine
 10
93.33011545691708
 20
150.5240024863782
 30
0.0
 11
93.46900378102742
 21
150.5220243838111
 31
0.0
  0
LINE
  5
2C2
330
E3
100
AcDbEntity
  8
Doc_ Finishes
  6
Continuous
100
AcDbLine
 10
93.46900378102742
 20
150.5220243838111
 30
0.0
 11
93.60789635912177
 21
150.516102838062
 31
0.0
  0
LINE
  5
2C3
330
E3
100
AcDbEntity
  8
Doc_ Finishes
  6
Continuous
100
AcDbLine
 10
93.60789635912177
 20
150.516102838062
 30
0.0
 11
93.74678468323211
 21
150.5062846429551
 31
0.0
  0
LINE
  5
2C4
330
E3
100
AcDbEntity
  8
Doc_ Finishes
  6
Continuous
100
AcDbLine
 10
93.74678468323211
 20
150.5062846429551
 30
0.0
 11
93.88567300734245
 21
150.4926421162185
 31
0.0
  0
LINE
  5
2C5
330
E3
100
AcDbEntity
  8
Doc_ Finishes
  6
Continuous
100
AcDbLine
 10
93.88567300734245
 20
150.4926421162185
 30
0.0
 11
94.02456133145279
 21
150.4752816074528
 31
0.0
  0
LINE
  5
2C6
330
E3
100
AcDbEntity
  8
Doc_ Finishes
  6
Continuous
100
AcDbLine
 10
94.02456133145279
 20
150.4752816074528
 30
0.0
 11
94.16344965556313
 21
150.4543349901622
 31
0.0
  0
LINE
  5
2C7
330
E3
100
AcDbEntity
  8
Doc_ Finishes
  6
Continuous
100
AcDbLine
 10
94.16344965556313
 20
150.4543349901622
 30
0.0
 11
94.30233797967347
 21
150.4299596617554
 31
0.0
  0
LINE
  5
2C8
330
E3
100
AcDbEntity
  8
Doc_ Finishes
  6
Continuous
100
AcDbLine
 10
94.30233797967347
 20
150.4299596617554
 30
0.0
 11
94.44122630378381
 21
150.4023470515131
 31
0.0
  0
LINE
  5
2C9
330
E3
100
AcDbEntity
  8
Doc_ Finishes
  6
Continuous
100
AcDbLine
 10
94.44122630378381
 20
150.4023470515131
 30
0.0
 11
94.58011462789415
 21
150.3716970966841
 31
0.0
  0
LINE
  5
2CA
330
E3
100
AcDbEntity
  8
Doc_ Finishes
  6
Continuous
100
AcDbLine
 10
94.58011462789415
 20
150.3716970966841
 30
0.0
 11
94.7190072059885
 21
150.338252274357
 31
0.0
  0
LINE
  5
2CB
330
E3
100
AcDbEntity
  8
Doc_ Finishes
  6
Continuous
100
AcDbLine
 10
94.7190072059885
 20
150.338252274357
 30
0.0
 11
94.85789553009884
 21
150.3022635695889
 31
0.0
  0
LINE
  5
2CC
330
E3
100
AcDbEntity
  8
Doc_ Finishes
  6
Continuous
100
AcDbLine
 10
94.85789553009884
 20
150.3022635695889
 30
0.0
 11
94.99678385420918
 21
150.2640032373567
 31
0.0
  0
LINE
  5
2CD
330
E3
100
AcDbEntity
  8
Doc_ Finishes
  6
Continuous
100
AcDbLine
 10
94.99678385420918
 20
150.2640032373567
 30
0.0
 11
95.13567217831951
 21
150.2237648025576
 31
0.0
  0
LINE
  5
2CE
330
E3
100
AcDbEntity
  8
Doc_ Finishes
  6
Continuous
100
AcDbLine
 10
95.13567217831951
 20
150.2237648025576
 30
0.0
 11
95.27456050242985
 21
150.1818502980564
 31
0.0
  0
LINE
  5
2CF
330
E3
100
AcDbEntity
  8
Doc_ Finishes
  6
Continuous
100
AcDbLine
 10
95.27456050242985
 20
150.1818502980564
 30
0.0
 11
95.41344882654019
 21
150.1385872806223
 31
0.0
  0
LINE
  5
2D0
330
E3
100
AcDbEntity
  8
Doc_ Finishes
  6
Continuous
100
AcDbLine
 10
95.41344882654019
 20
150.1385872806223
 30
0.0
 11
95.55233715065053
 21
150.0942990530407
 31
0.0
  0
LINE
  5
2D1
330
E3
100
AcDbEntity
  8
Doc_ Finishes
  6
Continuous
100
AcDbLine
 10
95.55233715065053
 20
150.0942990530407
 30
0.0
 11
95.69122972874489
 21
150.0493216800486
 31
0.0
  0
LINE
  5
2D2
330
E3
100
AcDbEntity
  8
Doc_ Finishes
  6
Continuous
100
AcDbLine
 10
95.69122972874489
 20
150.0493216800486
 30
0.0
 11
95.83011805285523
 21
150.0039997343513
 31
0.0
  0
LINE
  5
2D3
330
E3
100
AcDbEntity
  8
Doc_ Finishes
  6
Continuous
100
AcDbLine
 10
95.83011805285523
 20
150.0039997343513
 30
0.0
 11
95.96900637696557
 21
149.958682042638
 31
0.0
  0
LINE
  5
2D4
330
E3
100
AcDbEntity
  8
Doc_ Finishes
  6
Continuous
100
AcDbLine
 10
95.96900637696557
 20
149.958682042638
 30
0.0
 11
96.1078947010759
 21
149.913704669646
 31
0.0
  0
LINE
  5
2D5
330
E3
100
AcDbEntity
  8
Doc_ Finishes
  6
Continuous
100
AcDbLine
 10
96.1078947010759
 20
149.913704669646
 30
0.0
 11
96.24678302518625
 21
149.8694164420643
 31
0.0
  0
LINE
  5
2D6
330
E3
100
AcDbEntity
  8
Doc_ Finishes
  6
Continuous
100
AcDbLine
 10
96.24678302518625
 20
149.8694164420643
 30
0.0
 11
96.38567134929659
 21
149.8261534246303
 31
0.0
  0
LINE
  5
2D7
330
E3
100
AcDbEntity
  8
Doc_ Finishes
  6
Continuous
100
AcDbLine
 10
96.38567134929659
 20
149.8261534246303
 30
0.0
 11
96.52455967340693
 21
149.7842389201292
 31
0.0
  0
LINE
  5
2D8
330
E3
100
AcDbEntity
  8
Doc_ Finishes
  6
Continuous
100
AcDbLine
 10
96.52455967340693
 20
149.7842389201292
 30
0.0
 11
96.66344799751727
 21
149.7440004853299
 31
0.0
  0
LINE
  5
2D9
330
E3
100
AcDbEntity
  8
Doc_ Finishes
  6
Continuous
100
AcDbLine
 10
96.66344799751727
 20
149.7440004853299
 30
0.0
 11
96.80234057561161
 21
149.7057401530978
 31
0.0
  0
LINE
  5
2DA
330
E3
100
AcDbEntity
  8
Doc_ Finishes
  6
Continuous
100
AcDbLine
 10
96.80234057561161
 20
149.7057401530978
 30
0.0
 11
96.94122889972195
 21
149.6697514483297
 31
0.0
  0
LINE
  5
2DB
330
E3
100
AcDbEntity
  8
Doc_ Finishes
  6
Continuous
100
AcDbLine
 10
96.94122889972195
 20
149.6697514483297
 30
0.0
 11
97.08011722383229
 21
149.6363066260026
 31
0.0
  0
LINE
  5
2DC
330
E3
100
AcDbEntity
  8
Doc_ Finishes
  6
Continuous
100
AcDbLine
 10
97.08011722383229
 20
149.6363066260026
 30
0.0
 11
97.21900554794263
 21
149.6056566711735
 31
0.0
  0
LINE
  5
2DD
330
E3
100
AcDbEntity
  8
Doc_ Finishes
  6
Continuous
100
AcDbLine
 10
97.21900554794263
 20
149.6056566711735
 30
0.0
 11
97.35789387205297
 21
149.5780440609313
 31
0.0
  0
LINE
  5
2DE
330
E3
100
AcDbEntity
  8
Doc_ Finishes
  6
Continuous
100
AcDbLine
 10
97.35789387205297
 20
149.5780440609313
 30
0.0
 11
97.49678219616328
 21
149.5536687325245
 31
0.0
  0
LINE
  5
2DF
330
E3
100
AcDbEntity
  8
Doc_ Finishes
  6
Continuous
100
AcDbLine
 10
97.49678219616328
 20
149.5536687325245
 30
0.0
 11
97.63567052027362
 21
149.532722115234
 31
0.0
  0
LINE
  5
2E0
330
E3
100
AcDbEntity
  8
Doc_ Finishes
  6
Continuous
100
AcDbLine
 10
97.63567052027362
 20
149.532722115234
 30
0.0
 11
97.77455884438396
 21
149.5153616064682
 31
0.0
  0
LINE
  5
2E1
330
E3
100
AcDbEntity
  8
Doc_ Finishes
  6
Continuous
100
AcDbLine
 10
97.77455884438396
 20
149.5153616064682
 30
0.0
 11
97.91345142247833
 21
149.5017190797316
 31
0.0
  0
LINE
  5
2E2
330
E3
100
AcDbEntity
  8
Doc_ Finishes
  6
Continuous
100
AcDbLine
 10
97.91345142247833
 20
149.5017190797316
 30
0.0
 11
98.05233974658866
 21
149.4919008846247
 31
0.0
  0
LINE
  5
2E3
330
E3
100
AcDbEntity
  8
Doc_ Finishes
  6
Continuous
100
AcDbLine
 10
98.05233974658866
 20
149.4919008846247
 30
0.0
 11
98.191228070699
 21
149.4859793388756
 31
0.0
  0
LINE
  5
2E4
330
E3
100
AcDbEntity
  8
Doc_ Finishes
  6
Continuous
100
AcDbLine
 10
98.191228070699
 20
149.4859793388756
 30
0.0
 11
98.33011639480934
 21
149.4840012363085
 31
0.0
  0
LINE
  5
2E5
330
E3
100
AcDbEntity
  8
Doc_ Finishes
  6
Continuous
100
AcDbLine
 10
98.33011639480934
 20
149.4840012363085
 30
0.0
 11
98.46900471891968
 21
149.4859793388756
 31
0.0
  0
LINE
  5
2E6
330
E3
100
AcDbEntity
  8
Doc_ Finishes
  6
Continuous
100
AcDbLine
 10
95.83011805285523
 20
150.5240024863782
 30
0.0
 11
95.96900637696557
 21
150.5220243838111
 31
0.0
  0
LINE
  5
2E7
330
E3
100
AcDbEntity
  8
Doc_ Finishes
  6
Continuous
100
AcDbLine
 10
95.96900637696557
 20
150.5220243838111
 30
0.0
 11
96.1078947010759
 21
150.516102838062
 31
0.0
  0
LINE
  5
2E8
330
E3
100
AcDbEntity
  8
Doc_ Finishes
  6
Continuous
100
AcDbLine
 10
96.1078947010759
 20
150.516102838062
 30
0.0
 11
96.24678302518625
 21
150.5062846429551
 31
0.0
  0
LINE
  5
2E9
330
E3
100
AcDbEntity
  8
Doc_ Finishes
  6
Continuous
100
AcDbLine
 10
96.24678302518625
 20
150.5062846429551
 30
0.0
 11
96.38567134929659
 21
150.4926421162185
 31
0.0
  0
LINE
  5
2EA
330
E3
100
AcDbEntity
  8
Doc_ Finishes
  6
Continuous
100
AcDbLine
 10
96.38567134929659
 20
150.4926421162185
 30
0.0
 11
96.52455967340693
 21
150.4752816074528
 31
0.0
  0
LINE
  5
2EB
330
E3
100
AcDbEntity
  8
Doc_ Finishes
  6
Continuous
100
AcDbLine
 10
96.52455967340693
 20
150.4752816074528
 30
0.0
 11
96.66344799751727
 21
150.4543349901622
 31
0.0
  0
LINE
  5
2EC
330
E3
100
AcDbEntity
  8
Doc_ Finishes
  6
Continuous
100
AcDbLine
 10
96.66344799751727
 20
150.4543349901622
 30
0.0
 11
96.80234057561161
 21
150.4299596617554
 31
0.0
  0
LINE
  5
2ED
330
E3
100
AcDbEntity
  8
Doc_ Finishes
  6
Continuous
100
AcDbLine
 10
96.80234057561161
 20
150.4299596617554
 30
0.0
 11
96.94122889972195
 21
150.4023470515131
 31
0.0
  0
LINE
  5
2EE
330
E3
100
AcDbEntity
  8
Doc_ Finishes
  6
Continuous
100
AcDbLine
 10
96.94122889972195
 20
150.4023470515131
 30
0.0
 11
97.08011722383229
 21
150.3716970966841
 31
0.0
  0
LINE
  5
2EF
330
E3
100
AcDbEntity
  8
Doc_ Finishes
  6
Continuous
100
AcDbLine
 10
97.08011722383229
 20
150.3716970966841
 30
0.0
 11
97.21900554794263
 21
150.338252274357
 31
0.0
  0
LINE
  5
2F0
330
E3
100
AcDbEntity
  8
Doc_ Finishes
  6
Continuous
100
AcDbLine
 10
97.21900554794263
 20
150.338252274357
 30
0.0
 11
97.35789387205297
 21
150.3022635695889
 31
0.0
  0
LINE
  5
2F1
330
E3
100
AcDbEntity
  8
Doc_ Finishes
  6
Continuous
100
AcDbLine
 10
97.35789387205297
 20
150.3022635695889
 30
0.0
 11
97.49678219616328
 21
150.2640032373567
 31
0.0
  0
LINE
  5
2F2
330
E3
100
AcDbEntity
  8
Doc_ Finishes
  6
Continuous
100
AcDbLine
 10
97.49678219616328
 20
150.2640032373567
 30
0.0
 11
97.63567052027362
 21
150.2237648025576
 31
0.0
  0
LINE
  5
2F3
330
E3
100
AcDbEntity
  8
Doc_ Finishes
  6
Continuous
100
AcDbLine
 10
97.63567052027362
 20
150.2237648025576
 30
0.0
 11
97.77455884438396
 21
150.1818502980564
 31
0.0
  0
LINE
  5
2F4
330
E3
100
AcDbEntity
  8
Doc_ Finishes
  6
Continuous
100
AcDbLine
 10
97.77455884438396
 20
150.1818502980564
 30
0.0
 11
97.91345142247833
 21
150.1385872806223
 31
0.0
  0
LINE
  5
2F5
330
E3
100
AcDbEntity
  8
Doc_ Finishes
  6
Continuous
100
AcDbLine
 10
97.91345142247833
 20
150.1385872806223
 30
0.0
 11
98.05233974658866
 21
150.0942990530407
 31
0.0
  0
LINE
  5
2F6
330
E3
100
AcDbEntity
  8
Doc_ Finishes
  6
Continuous
100
AcDbLine
 10
98.05233974658866
 20
150.0942990530407
 30
0.0
 11
98.191228070699
 21
150.0493216800486
 31
0.0
  0
LINE
  5
2F7
330
E3
100
AcDbEntity
  8
Doc_ Finishes
  6
Continuous
100
AcDbLine
 10
98.191228070699
 20
150.0493216800486
 30
0.0
 11
98.33011639480934
 21
150.0039997343513
 31
0.0
  0
LINE
  5
2F8
330
E3
100
AcDbEntity
  8
Doc_ Finishes
  6
Continuous
100
AcDbLine
 10
98.33011639480934
 20
150.0039997343513
 30
0.0
 11
98.46900471891968
 21
149.958682042638
 31
0.0
  0
LINE
  5
2F9
330
E3
100
AcDbEntity
  8
Doc_ Finishes
  6
Continuous
100
AcDbLine
 10
98.46900471891968
 20
149.958682042638
 30
0.0
 11
98.60789304303002
 21
149.913704669646
 31
0.0
  0
LINE
  5
2FA
330
E3
100
AcDbEntity
  8
Doc_ Finishes
  6
Continuous
100
AcDbLine
 10
98.60789304303002
 20
149.913704669646
 30
0.0
 11
98.74678136714036
 21
149.8694164420643
 31
0.0
  0
LINE
  5
2FB
330
E3
100
AcDbEntity
  8
Doc_ Finishes
  6
Continuous
100
AcDbLine
 10
98.74678136714036
 20
149.8694164420643
 30
0.0
 11
98.8856739452347
 21
149.8261534246303
 31
0.0
  0
LINE
  5
2FC
330
E3
100
AcDbEntity
  8
Doc_ Finishes
  6
Continuous
100
AcDbLine
 10
98.8856739452347
 20
149.8261534246303
 30
0.0
 11
99.02456226934504
 21
149.7842389201292
 31
0.0
  0
LINE
  5
2FD
330
E3
100
AcDbEntity
  8
Doc_ Finishes
  6
Continuous
100
AcDbLine
 10
99.02456226934504
 20
149.7842389201292
 30
0.0
 11
99.16345059345538
 21
149.7440004853299
 31
0.0
  0
LINE
  5
2FE
330
E3
100
AcDbEntity
  8
Doc_ Finishes
  6
Continuous
100
AcDbLine
 10
99.16345059345538
 20
149.7440004853299
 30
0.0
 11
99.30233891756572
 21
149.7057401530978
 31
0.0
  0
LINE
  5
2FF
330
E3
100
AcDbEntity
  8
Doc_ Finishes
  6
Continuous
100
AcDbLine
 10
99.30233891756572
 20
149.7057401530978
 30
0.0
 11
99.44122724167606
 21
149.6697514483297
 31
0.0
  0
LINE
  5
300
330
E3
100
AcDbEntity
  8
Doc_ Finishes
  6
Continuous
100
AcDbLine
 10
99.44122724167606
 20
149.6697514483297
 30
0.0
 11
99.5801155657864
 21
149.6363066260026
 31
0.0
  0
LINE
  5
301
330
E3
100
AcDbEntity
  8
Doc_ Finishes
  6
Continuous
100
AcDbLine
 10
90.83011711496296
 20
150.0039997343513
 30
0.0
 11
90.9690054390733
 21
149.958682042638
 31
0.0
  0
LINE
  5
302
330
E3
100
AcDbEntity
  8
Doc_ Finishes
  6
Continuous
100
AcDbLine
 10
90.9690054390733
 20
149.958682042638
 30
0.0
 11
91.10789376318364
 21
149.913704669646
 31
0.0
  0
LINE
  5
303
330
E3
100
AcDbEntity
  8
Doc_ Finishes
  6
Continuous
100
AcDbLine
 10
91.10789376318364
 20
149.913704669646
 30
0.0
 11
91.24678208729398
 21
149.8694164420643
 31
0.0
  0
LINE
  5
304
330
E3
100
AcDbEntity
  8
Doc_ Finishes
  6
Continuous
100
AcDbLine
 10
91.24678208729398
 20
149.8694164420643
 30
0.0
 11
91.38567041140432
 21
149.8261534246303
 31
0.0
  0
LINE
  5
305
330
E3
100
AcDbEntity
  8
Doc_ Finishes
  6
Continuous
100
AcDbLine
 10
91.38567041140432
 20
149.8261534246303
 30
0.0
 11
91.52456298949866
 21
149.7842389201292
 31
0.0
  0
LINE
  5
306
330
E3
100
AcDbEntity
  8
Doc_ Finishes
  6
Continuous
100
AcDbLine
 10
91.52456298949866
 20
149.7842389201292
 30
0.0
 11
91.663451313609
 21
149.7440004853299
 31
0.0
  0
LINE
  5
307
330
E3
100
AcDbEntity
  8
Doc_ Finishes
  6
Continuous
100
AcDbLine
 10
91.663451313609
 20
149.7440004853299
 30
0.0
 11
91.80233963771934
 21
149.7057401530978
 31
0.0
  0
LINE
  5
308
330
E3
100
AcDbEntity
  8
Doc_ Finishes
  6
Continuous
100
AcDbLine
 10
91.80233963771934
 20
149.7057401530978
 30
0.0
 11
91.94122796182968
 21
149.6697514483297
 31
0.0
  0
LINE
  5
309
330
E3
100
AcDbEntity
  8
Doc_ Finishes
  6
Continuous
100
AcDbLine
 10
91.94122796182968
 20
149.6697514483297
 30
0.0
 11
92.08011628594002
 21
149.6363066260026
 31
0.0
  0
LINE
  5
30A
330
E3
100
AcDbEntity
  8
Doc_ Finishes
  6
Continuous
100
AcDbLine
 10
92.08011628594002
 20
149.6363066260026
 30
0.0
 11
92.21900461005036
 21
149.6056566711735
 31
0.0
  0
LINE
  5
30B
330
E3
100
AcDbEntity
  8
Doc_ Finishes
  6
Continuous
100
AcDbLine
 10
92.21900461005036
 20
149.6056566711735
 30
0.0
 11
92.3578929341607
 21
149.5780440609313
 31
0.0
  0
LINE
  5
30C
330
E3
100
AcDbEntity
  8
Doc_ Finishes
  6
Continuous
100
AcDbLine
 10
92.3578929341607
 20
149.5780440609313
 30
0.0
 11
92.49678125827104
 21
149.5536687325245
 31
0.0
  0
LINE
  5
30D
330
E3
100
AcDbEntity
  8
Doc_ Finishes
  6
Continuous
100
AcDbLine
 10
92.49678125827104
 20
149.5536687325245
 30
0.0
 11
92.6356738363654
 21
149.532722115234
 31
0.0
  0
LINE
  5
30E
330
E3
100
AcDbEntity
  8
Doc_ Finishes
  6
Continuous
100
AcDbLine
 10
92.6356738363654
 20
149.532722115234
 30
0.0
 11
92.77456216047572
 21
149.5153616064682
 31
0.0
  0
LINE
  5
30F
330
E3
100
AcDbEntity
  8
Doc_ Finishes
  6
Continuous
100
AcDbLine
 10
92.77456216047572
 20
149.5153616064682
 30
0.0
 11
92.91345048458606
 21
149.5017190797316
 31
0.0
  0
LINE
  5
310
330
E3
100
AcDbEntity
  8
Doc_ Finishes
  6
Continuous
100
AcDbLine
 10
92.91345048458606
 20
149.5017190797316
 30
0.0
 11
93.0523388086964
 21
149.4919008846247
 31
0.0
  0
LINE
  5
311
330
E3
100
AcDbEntity
  8
Doc_ Finishes
  6
Continuous
100
AcDbLine
 10
93.0523388086964
 20
149.4919008846247
 30
0.0
 11
93.19122713280674
 21
149.4859793388756
 31
0.0
  0
LINE
  5
312
330
E3
100
AcDbEntity
  8
Doc_ Finishes
  6
Continuous
100
AcDbLine
 10
93.19122713280674
 20
149.4859793388756
 30
0.0
 11
93.33011545691708
 21
149.4840012363085
 31
0.0
  0
LINE
  5
313
330
E3
100
AcDbEntity
  8
Doc_ Finishes
  6
Continuous
100
AcDbLine
 10
93.33011545691708
 20
149.4840012363085
 30
0.0
 11
93.46900378102742
 21
149.4859793388756
 31
0.0
  0
LINE
  5
314
330
E3
100
AcDbEntity
  8
Doc_ Finishes
  6
Continuous
100
AcDbLine
 10
98.33011639480934
 20
150.5240024863782
 30
0.0
 11
98.46900471891968
 21
150.5220243838111
 31
0.0
  0
LINE
  5
315
330
E3
100
AcDbEntity
  8
Doc_ Finishes
  6
Continuous
100
AcDbLine
 10
98.46900471891968
 20
150.5220243838111
 30
0.0
 11
98.60789304303002
 21
150.516102838062
 31
0.0
  0
LINE
  5
316
330
E3
100
AcDbEntity
  8
Doc_ Finishes
  6
Continuous
100
AcDbLine
 10
98.60789304303002
 20
150.516102838062
 30
0.0
 11
98.74678136714036
 21
150.5062846429551
 31
0.0
  0
LINE
  5
317
330
E3
100
AcDbEntity
  8
Doc_ Finishes
  6
Continuous
100
AcDbLine
 10
98.74678136714036
 20
150.5062846429551
 30
0.0
 11
98.8856739452347
 21
150.4926421162185
 31
0.0
  0
LINE
  5
318
330
E3
100
AcDbEntity
  8
Doc_ Finishes
  6
Continuous
100
AcDbLine
 10
98.8856739452347
 20
150.4926421162185
 30
0.0
 11
99.02456226934504
 21
150.4752816074528
 31
0.0
  0
LINE
  5
319
330
E3
100
AcDbEntity
  8
Doc_ Finishes
  6
Continuous
100
AcDbLine
 10
99.02456226934504
 20
150.4752816074528
 30
0.0
 11
99.16345059345538
 21
150.4543349901622
 31
0.0
  0
LINE
  5
31A
330
E3
100
AcDbEntity
  8
Doc_ Finishes
  6
Continuous
100
AcDbLine
 10
99.16345059345538
 20
150.4543349901622
 30
0.0
 11
99.30233891756572
 21
150.4299596617554
 31
0.0
  0
LINE
  5
31B
330
E3
100
AcDbEntity
  8
Doc_ Finishes
  6
Continuous
100
AcDbLine
 10
99.30233891756572
 20
150.4299596617554
 30
0.0
 11
99.44122724167606
 21
150.4023470515131
 31
0.0
  0
LINE
  5
31C
330
E3
100
AcDbEntity
  8
Doc_ Finishes
  6
Continuous
100
AcDbLine
 10
99.44122724167606
 20
150.4023470515131
 30
0.0
 11
99.5801155657864
 21
150.3716970966841
 31
0.0
  0
HATCH
  5
31D
330
E3
100
AcDbEntity
  8
Doc_ Finishes
  6
Continuous
 62
   255
370
     0
100
AcDbHatch
 10
0.0
 20
0.0
 30
0.0
210
0.0
220
0.0
230
1.0
  2
SOLID
 70
     1
 71
     0
 91
        1
 92
        3
 72
     0
 73
     1
 93
        6
 10
129.4315937072269
 20
88.18802148652038
 10
127.0315937072268
 20
88.18802148652038
 10
127.0315937072268
 20
81.77712616945188
 10
127.1595937072268
 20
81.64912616945197
 10
129.3035937072268
 20
81.64912616945197
 10
129.4315937072269
 20
81.77712616945188
 97
        0
 75
     0
 76
     1
 98
        0
  0
LINE
  5
31E
330
E3
100
AcDbEntity
  8
Doc_ Finishes
  6
Continuous
100
AcDbLine
 10
127.0315934015411
 20
88.18802225935673
 30
0.0
 11
129.4315933412513
 21
88.18802225935673
 31
0.0
  0
LINE
  5
31F
330
E3
100
AcDbEntity
  8
Doc_ Finishes
  6
Continuous
100
AcDbLine
 10
127.0315934015411
 20
81.77712796706675
 30
0.0
 11
127.0315934015411
 21
88.18802225935673
 31
0.0
  0
LINE
  5
320
330
E3
100
AcDbEntity
  8
Doc_ Finishes
  6
Continuous
100
AcDbLine
 10
127.1595957805567
 20
81.64912558805115
 30
0.0
 11
127.0315934015411
 21
81.77712796706675
 31
0.0
  0
LINE
  5
321
330
E3
100
AcDbEntity
  8
Doc_ Finishes
  6
Continuous
100
AcDbLine
 10
129.3035952162197
 20
81.64912558805115
 30
0.0
 11
127.1595957805567
 21
81.64912558805115
 31
0.0
  0
LINE
  5
322
330
E3
100
AcDbEntity
  8
Doc_ Finishes
  6
Continuous
100
AcDbLine
 10
129.4315933412513
 20
81.77712796706675
 30
0.0
 11
129.3035952162197
 21
81.64912558805115
 31
0.0
  0
LINE
  5
323
330
E3
100
AcDbEntity
  8
Doc_ Finishes
  6
Continuous
100
AcDbLine
 10
129.4315933412513
 20
88.18802225935673
 30
0.0
 11
129.4315933412513
 21
81.77712796706675
 31
0.0
  0
LINE
  5
324
330
E3
100
AcDbEntity
  8
Doc_ Finishes
  6
Continuous
100
AcDbLine
 10
129.4315933412513
 20
81.77712796706675
 30
0.0
 11
127.0315934015411
 21
81.77712796706675
 31
0.0
  0
LINE
  5
325
330
E3
100
AcDbEntity
  8
Doc_ Finishes
  6
Continuous
100
AcDbLine
 10
129.4315933412513
 20
87.64912756431868
 30
0.0
 11
127.0315934015411
 21
87.64912756431868
 31
0.0
  0
LINE
  5
326
330
E3
100
AcDbEntity
  8
Doc_ Finishes
  6
Continuous
100
AcDbLine
 10
129.3035952162197
 20
87.52112518530308
 30
0.0
 11
127.1595957805567
 21
87.52112518530308
 31
0.0
  0
LINE
  5
327
330
E3
100
AcDbEntity
  8
Doc_ Finishes
  6
Continuous
100
AcDbLine
 10
129.3035952162197
 20
87.52112518530308
 30
0.0
 11
129.4315933412513
 21
87.64912756431868
 31
0.0
  0
LINE
  5
328
330
E3
100
AcDbEntity
  8
Doc_ Finishes
  6
Continuous
100
AcDbLine
 10
127.1595957805567
 20
87.52112518530308
 30
0.0
 11
127.0315934015411
 21
87.64912756431868
 31
0.0
  0
LINE
  5
329
330
E3
100
AcDbEntity
  8
Doc_ Finishes
  6
Continuous
100
AcDbLine
 10
129.3035952162197
 20
87.52112518530308
 30
0.0
 11
129.3035952162197
 21
81.64912558805115
 31
0.0
  0
LINE
  5
32A
330
E3
100
AcDbEntity
  8
Doc_ Finishes
  6
Continuous
100
AcDbLine
 10
127.1595957805567
 20
87.52112518530308
 30
0.0
 11
127.1595957805567
 21
81.64912558805115
 31
0.0
  0
HATCH
  5
32B
330
E3
100
AcDbEntity
  8
Doc_ Finishes
  6
Continuous
 62
   255
370
     0
100
AcDbHatch
 10
0.0
 20
0.0
 30
0.0
210
0.0
220
0.0
230
1.0
  2
SOLID
 70
     1
 71
     0
 91
        1
 92
        3
 72
     0
 73
     1
 93
        4
 10
126.6727479804148
 20
89.68802148652044
 10
126.6727479804148
 20
88.18802148652038
 10
129.7904394340388
 20
88.18802148652038
 10
129.7904394340388
 20
89.68802148652044
 97
        0
 75
     0
 76
     1
 98
        0
  0
HATCH
  5
32C
330
E3
100
AcDbEntity
  8
Doc_ Finishes
  6
Continuous
 62
   255
370
     0
100
AcDbHatch
 10
0.0
 20
0.0
 30
0.0
210
0.0
220
0.0
230
1.0
  2
SOLID
 70
     1
 71
     0
 91
        1
 92
        3
 72
     1
 73
     1
 93
        4
 10
127.1923632226855
 20
89.43802148652047
 42
0.0
 10
127.1923632226855
 20
88.18802148652038
 42
0.0
 10
129.2708241917682
 20
88.18802148652038
 42
0.0
 10
129.2708241917682
 20
89.43802148652047
 42
0.2405626121623441
 97
        0
 75
     0
 76
     1
 98
        0
  0
LINE
  5
32D
330
E3
100
AcDbEntity
  8
Doc_ Finishes
  6
Continuous
100
AcDbLine
 10
127.1923642194253
 20
88.18802225935673
 30
0.0
 11
127.1923642194253
 21
89.4380214303338
 31
0.0
  0
LINE
  5
32E
330
E3
100
AcDbEntity
  8
Doc_ Finishes
  6
Continuous
100
AcDbLine
 10
129.2708225233671
 20
88.18802225935673
 30
0.0
 11
127.1923642194253
 21
88.18802225935673
 31
0.0
  0
LINE
  5
32F
330
E3
100
AcDbEntity
  8
Doc_ Finishes
  6
Continuous
100
AcDbLine
 10
129.2708225233671
 20
89.4380214303338
 30
0.0
 11
129.2708225233671
 21
88.18802225935673
 31
0.0
  0
ARC
  5
330
330
E3
100
AcDbEntity
  8
Doc_ Finishes
  6
Continuous
100
AcDbCircle
 10
128.2315937072268
 20
87.40302148652047
 30
0.0
 40
2.284999999999995
100
AcDbArc
 50
62.94758187956862
 51
117.0524181204314
  0
HATCH
  5
331
330
E3
100
AcDbEntity
  8
Doc_ Finishes
  6
Continuous
 62
   255
370
     0
100
AcDbHatch
 10
0.0
 20
0.0
 30
0.0
210
0.0
220
0.0
230
1.0
  2
SOLID
 70
     1
 71
     0
 91
        1
 92
        3
 72
     1
 73
     1
 93
        4
 10
126.1531327381442
 20
89.43802148652047
 42
0.0
 10
126.1531327381442
 20
88.18802148652038
 42
0.0
 10
127.1923632226855
 20
88.18802148652038
 42
0.0
 10
127.1923632226855
 20
89.43802148652047
 42
0.4811252243246882
 97
        0
 75
     0
 76
     1
 98
        0
  0
LINE
  5
332
330
E3
100
AcDbEntity
  8
Doc_ Finishes
  6
Continuous
100
AcDbLine
 10
126.1531329404624
 20
88.18802225935673
 30
0.0
 11
126.1531329404624
 21
89.4380214303338
 31
0.0
  0
LINE
  5
333
330
E3
100
AcDbEntity
  8
Doc_ Finishes
  6
Continuous
100
AcDbLine
 10
127.1923642194253
 20
88.18802225935673
 30
0.0
 11
126.1531329404624
 21
88.18802225935673
 31
0.0
  0
LINE
  5
334
330
E3
100
AcDbEntity
  8
Doc_ Finishes
  6
Continuous
100
AcDbLine
 10
127.1923642194253
 20
89.4380214303338
 30
0.0
 11
127.1923642194253
 21
88.18802225935673
 31
0.0
  0
ARC
  5
335
330
E3
100
AcDbEntity
  8
Doc_ Finishes
  6
Continuous
100
AcDbCircle
 10
126.6727479804148
 20
89.02302148652046
 30
0.0
 40
0.6650000000000185
100
AcDbArc
 50
38.613238191003
 51
141.3867618089955
  0
HATCH
  5
336
330
E3
100
AcDbEntity
  8
Doc_ Finishes
  6
Continuous
 62
   255
370
     0
100
AcDbHatch
 10
0.0
 20
0.0
 30
0.0
210
0.0
220
0.0
230
1.0
  2
SOLID
 70
     1
 71
     0
 91
        1
 92
        3
 72
     1
 73
     1
 93
        4
 10
130.3100546763095
 20
89.43802148652047
 42
0.4811252243246882
 10
129.2708241917682
 20
89.43802148652047
 42
0.0
 10
129.2708241917682
 20
88.18802148652038
 42
0.0
 10
130.3100546763095
 20
88.18802148652038
 42
0.0
 97
        0
 75
     0
 76
     1
 98
        0
  0
ARC
  5
337
330
E3
100
AcDbEntity
  8
Doc_ Finishes
  6
Continuous
100
AcDbCircle
 10
129.7904394340388
 20
89.02302148652049
 30
0.0
 40
0.6649999999999795
100
AcDbArc
 50
38.61323819100262
 51
141.3867618089989
  0
LINE
  5
338
330
E3
100
AcDbEntity
  8
Doc_ Finishes
  6
Continuous
100
AcDbLine
 10
129.2708225233671
 20
89.4380214303338
 30
0.0
 11
129.2708225233671
 21
88.18802225935673
 31
0.0
  0
LINE
  5
339
330
E3
100
AcDbEntity
  8
Doc_ Finishes
  6
Continuous
100
AcDbLine
 10
129.2708225233671
 20
88.18802225935673
 30
0.0
 11
130.31005380233
 21
88.18802225935673
 31
0.0
  0
LINE
  5
33A
330
E3
100
AcDbEntity
  8
Doc_ Finishes
  6
Continuous
100
AcDbLine
 10
130.31005380233
 20
88.18802225935673
 30
0.0
 11
130.31005380233
 21
89.4380214303338
 31
0.0
  0
HATCH
  5
33B
330
E3
100
AcDbEntity
  8
Doc_ Finishes
  6
Continuous
 62
   255
370
     0
100
AcDbHatch
 10
0.0
 20
0.0
 30
0.0
210
0.0
220
0.0
230
1.0
  2
SOLID
 70
     1
 71
     0
 91
        1
 92
        3
 72
     0
 73
     1
 93
        4
 10
126.6727479804148
 20
84.92912616945192
 10
126.6727479804148
 20
82.84912616945184
 10
129.7904394340388
 20
82.84912616945184
 10
129.7904394340388
 20
84.92912616945192
 97
        0
 75
     0
 76
     1
 98
        0
  0
HATCH
  5
33C
330
E3
100
AcDbEntity
  8
Doc_ Finishes
  6
Continuous
 62
   255
370
     0
100
AcDbHatch
 10
0.0
 20
0.0
 30
0.0
210
0.0
220
0.0
230
1.0
  2
SOLID
 70
     1
 71
     0
 91
        1
 92
        3
 72
     1
 73
     1
 93
        4
 10
127.1923632226855
 20
84.58245950278531
 42
0.0
 10
127.1923632226855
 20
83.19579283611867
 42
0.3335801555317839
 10
129.2708241917682
 20
83.19579283611867
 42
0.0
 10
129.2708241917682
 20
84.58245950278531
 42
0.3335801555317839
 97
        0
 75
     0
 76
     1
 98
        0
  0
LINE
  5
33D
330
E3
100
AcDbEntity
  8
Doc_ Finishes
  6
Continuous
100
AcDbLine
 10
127.1923642194253
 20
83.19579335026015
 30
0.0
 11
127.1923642194253
 21
84.58246026569164
 31
0.0
  0
ARC
  5
33E
330
E3
100
AcDbEntity
  8
Doc_ Finishes
  6
Continuous
100
AcDbCircle
 10
128.2315937072268
 20
84.58015181047763
 30
0.0
 40
1.731025641025638
100
AcDbArc
 50
233.1046488728493
 51
306.8953511271506
  0
LINE
  5
33F
330
E3
100
AcDbEntity
  8
Doc_ Finishes
  6
Continuous
100
AcDbLine
 10
129.2708225233671
 20
84.58246026569164
 30
0.0
 11
129.2708225233671
 21
83.19579335026015
 31
0.0
  0
ARC
  5
340
330
E3
100
AcDbEntity
  8
Doc_ Finishes
  6
Continuous
100
AcDbCircle
 10
128.2315937072268
 20
83.19810052842634
 30
0.0
 40
1.731025641025638
100
AcDbArc
 50
53.1046488728494
 51
126.8953511271506
  0
HATCH
  5
341
330
E3
100
AcDbEntity
  8
Doc_ Finishes
  6
Continuous
 62
   255
370
     0
100
AcDbHatch
 10
0.0
 20
0.0
 30
0.0
210
0.0
220
0.0
230
1.0
  2
SOLID
 70
     1
 71
     0
 91
        1
 92
        3
 72
     1
 73
     1
 93
        4
 10
126.1531327381442
 20
84.58245950278531
 42
0.0
 10
126.1531327381442
 20
83.19579283611867
 42
0.6671603110635675
 10
127.1923632226855
 20
83.19579283611867
 42
0.0
 10
127.1923632226855
 20
84.58245950278531
 42
0.6671603110635675
 97
        0
 75
     0
 76
     1
 98
        0
  0
LINE
  5
342
330
E3
100
AcDbEntity
  8
Doc_ Finishes
  6
Continuous
100
AcDbLine
 10
126.1531329404624
 20
83.19579335026015
 30
0.0
 11
126.1531329404624
 21
84.58246026569164
 31
0.0
  0
ARC
  5
343
330
E3
100
AcDbEntity
  8
Doc_ Finishes
  6
Continuous
100
AcDbCircle
 10
126.6727479804148
 20
83.4118825797084
 30
0.0
 40
0.5627564102563936
100
AcDbArc
 50
202.5807117678009
 51
337.4192882322001
  0
LINE
  5
344
330
E3
100
AcDbEntity
  8
Doc_ Finishes
  6
Continuous
100
AcDbLine
 10
127.1923642194253
 20
84.58246026569164
 30
0.0
 11
127.1923642194253
 21
83.19579335026015
 31
0.0
  0
ARC
  5
345
330
E3
100
AcDbEntity
  8
Doc_ Finishes
  6
Continuous
100
AcDbCircle
 10
126.6727479804148
 20
84.36636975919556
 30
0.0
 40
0.5627564102564245
100
AcDbArc
 50
22.58071176780116
 51
157.4192882321978
  0
HATCH
  5
346
330
E3
100
AcDbEntity
  8
Doc_ Finishes
  6
Continuous
 62
   255
370
     0
100
AcDbHatch
 10
0.0
 20
0.0
 30
0.0
210
0.0
220
0.0
230
1.0
  2
SOLID
 70
     1
 71
     0
 91
        1
 92
        3
 72
     1
 73
     1
 93
        4
 10
130.3100546763095
 20
84.58245950278531
 42
0.6671603110635675
 10
129.2708241917682
 20
84.58245950278531
 42
0.0
 10
129.2708241917682
 20
83.19579283611867
 42
0.6671603110635675
 10
130.3100546763095
 20
83.19579283611867
 42
0.0
 97
        0
 75
     0
 76
     1
 98
        0
  0
ARC
  5
347
330
E3
100
AcDbEntity
  8
Doc_ Finishes
  6
Continuous
100
AcDbCircle
 10
129.7904394340388
 20
84.36636975919558
 30
0.0
 40
0.5627564102563936
100
AcDbArc
 50
22.58071176780094
 51
157.4192882322002
  0
LINE
  5
348
330
E3
100
AcDbEntity
  8
Doc_ Finishes
  6
Continuous
100
AcDbLine
 10
129.2708225233671
 20
84.58246026569164
 30
0.0
 11
129.2708225233671
 21
83.19579335026015
 31
0.0
  0
ARC
  5
349
330
E3
100
AcDbEntity
  8
Doc_ Finishes
  6
Continuous
100
AcDbCircle
 10
129.7904394340388
 20
83.41188257970842
 30
0.0
 40
0.5627564102564245
100
AcDbArc
 50
202.5807117678011
 51
337.4192882321977
  0
LINE
  5
34A
330
E3
100
AcDbEntity
  8
Doc_ Finishes
  6
Continuous
100
AcDbLine
 10
130.31005380233
 20
83.19579335026015
 30
0.0
 11
130.31005380233
 21
84.58246026569164
 31
0.0
  0
HATCH
  5
34B
330
E3
100
AcDbEntity
  8
Doc_ Finishes
  6
Continuous
 62
   255
370
     0
100
AcDbHatch
 10
0.0
 20
0.0
 30
0.0
210
0.0
220
0.0
230
1.0
  2
SOLID
 70
     1
 71
     0
 91
        1
 92
        3
 72
     0
 73
     1
 93
        4
 10
130.7315937072268
 20
87.78802148652044
 10
130.7315937072268
 20
88.18802148652038
 10
125.7315937072268
 20
88.18802148652038
 10
125.7315937072268
 20
87.78802148652044
 97
        0
 75
     0
 76
     1
 98
        0
  0
LINE
  5
34C
330
E3
100
AcDbEntity
  8
Doc_ Finishes
  6
Continuous
100
AcDbLine
 10
130.7315938403424
 20
88.18802225935673
 30
0.0
 11
130.7315938403424
 21
87.78802014241302
 31
0.0
  0
LINE
  5
34D
330
E3
100
AcDbEntity
  8
Doc_ Finishes
  6
Continuous
100
AcDbLine
 10
125.7315929024501
 20
88.18802225935673
 30
0.0
 11
130.7315938403424
 21
88.18802225935673
 31
0.0
  0
LINE
  5
34E
330
E3
100
AcDbEntity
  8
Doc_ Finishes
  6
Continuous
100
AcDbLine
 10
125.7315929024501
 20
87.78802014241302
 30
0.0
 11
125.7315929024501
 21
88.18802225935673
 31
0.0
  0
LINE
  5
34F
330
E3
100
AcDbEntity
  8
Doc_ Finishes
  6
Continuous
100
AcDbLine
 10
130.7315938403424
 20
87.78802014241302
 30
0.0
 11
125.7315929024501
 21
87.78802014241302
 31
0.0
  0
HATCH
  5
350
330
E3
100
AcDbEntity
  8
Doc_ Finishes
  6
Continuous
 62
   255
370
     0
100
AcDbHatch
 10
0.0
 20
0.0
 30
0.0
210
0.0
220
0.0
230
1.0
  2
SOLID
 70
     1
 71
     0
 91
        1
 92
        3
 72
     0
 73
     1
 93
        4
 10
130.7315937072268
 20
85.32912616945187
 10
125.7315937072268
 20
85.32912616945187
 10
125.7315937072268
 20
84.92912616945192
 10
130.7315937072268
 20
84.92912616945192
 97
        0
 75
     0
 76
     1
 98
        0
  0
LINE
  5
351
330
E3
100
AcDbEntity
  8
Doc_ Finishes
  6
Continuous
100
AcDbLine
 10
125.7315929024501
 20
85.3291280479972
 30
0.0
 11
130.7315938403424
 21
85.3291280479972
 31
0.0
  0
LINE
  5
352
330
E3
100
AcDbEntity
  8
Doc_ Finishes
  6
Continuous
100
AcDbLine
 10
125.7315929024501
 20
84.9291259310535
 30
0.0
 11
125.7315929024501
 21
85.3291280479972
 31
0.0
  0
LINE
  5
353
330
E3
100
AcDbEntity
  8
Doc_ Finishes
  6
Continuous
100
AcDbLine
 10
130.7315938403424
 20
84.9291259310535
 30
0.0
 11
125.7315929024501
 21
84.9291259310535
 31
0.0
  0
LINE
  5
354
330
E3
100
AcDbEntity
  8
Doc_ Finishes
  6
Continuous
100
AcDbLine
 10
130.7315938403424
 20
85.3291280479972
 30
0.0
 11
130.7315938403424
 21
84.9291259310535
 31
0.0
  0
LINE
  5
355
330
E3
100
AcDbEntity
  8
Doc_ Finishes
  6
Continuous
100
AcDbLine
 10
126.6727485799439
 20
89.6880195629356
 30
0.0
 11
129.7904381628485
 21
89.6880195629356
 31
0.0
  0
LINE
  5
356
330
E3
100
AcDbEntity
  8
Doc_ Finishes
  6
Continuous
100
AcDbLine
 10
129.7904381628485
 20
88.18802225935673
 30
0.0
 11
126.6727485799439
 21
88.18802225935673
 31
0.0
  0
LINE
  5
357
330
E3
100
AcDbEntity
  8
Doc_ Finishes
  6
Continuous
100
AcDbLine
 10
126.6727485799439
 20
84.9291259310535
 30
0.0
 11
129.7904381628485
 21
84.9291259310535
 31
0.0
  0
LINE
  5
358
330
E3
100
AcDbEntity
  8
Doc_ Finishes
  6
Continuous
100
AcDbLine
 10
129.7904381628485
 20
82.84912768489828
 30
0.0
 11
126.6727485799439
 21
82.84912768489828
 31
0.0
  0
LINE
  5
35A
330
E3
100
AcDbEntity
  8
Doc_ Finishes
  6
Dot & Dashed
100
AcDbLine
 10
128.2315954983882
 20
91.38802217897033
 30
0.0
 11
128.2315954983882
 21
80.04912562824434
 31
0.0
  0
HATCH
  5
35B
330
E3
100
AcDbEntity
  8
Doc_ Finishes
  6
Continuous
 62
   255
370
     0
100
AcDbHatch
 10
0.0
 20
0.0
 30
0.0
210
0.0
220
0.0
230
1.0
  2
SOLID
 70
     1
 71
     0
 91
        1
 92
        3
 72
     0
 73
     1
 93
        6
 10
101.4019545496482
 20
88.18802148652038
 10
99.00195454964819
 20
88.18802148652038
 10
99.00195454964819
 20
81.77712616945188
 10
99.1299545496482
 20
81.64912616945197
 10
101.2739545496482
 20
81.64912616945197
 10
101.4019545496482
 20
81.77712616945188
 97
        0
 75
     0
 76
     1
 98
        0
  0
LINE
  5
35C
330
E3
100
AcDbEntity
  8
Doc_ Finishes
  6
Continuous
100
AcDbLine
 10
99.00195659828859
 20
88.18802225935673
 30
0.0
 11
101.4019565379988
 21
88.18802225935673
 31
0.0
  0
LINE
  5
35D
330
E3
100
AcDbEntity
  8
Doc_ Finishes
  6
Continuous
100
AcDbLine
 10
99.00195659828859
 20
81.77712796706675
 30
0.0
 11
99.00195659828859
 21
88.18802225935673
 31
0.0
  0
LINE
  5
35E
330
E3
100
AcDbEntity
  8
Doc_ Finishes
  6
Continuous
100
AcDbLine
 10
99.12995472332015
 20
81.64912558805115
 30
0.0
 11
99.00195659828859
 21
81.77712796706675
 31
0.0
  0
LINE
  5
35F
330
E3
100
AcDbEntity
  8
Doc_ Finishes
  6
Continuous
100
AcDbLine
 10
101.2739541589832
 20
81.64912558805115
 30
0.0
 11
99.12995472332015
 21
81.64912558805115
 31
0.0
  0
LINE
  5
360
330
E3
100
AcDbEntity
  8
Doc_ Finishes
  6
Continuous
100
AcDbLine
 10
101.4019565379988
 20
81.77712796706675
 30
0.0
 11
101.2739541589832
 21
81.64912558805115
 31
0.0
  0
LINE
  5
361
330
E3
100
AcDbEntity
  8
Doc_ Finishes
  6
Continuous
100
AcDbLine
 10
101.4019565379988
 20
88.18802225935673
 30
0.0
 11
101.4019565379988
 21
81.77712796706675
 31
0.0
  0
LINE
  5
362
330
E3
100
AcDbEntity
  8
Doc_ Finishes
  6
Continuous
100
AcDbLine
 10
101.4019565379988
 20
81.77712796706675
 30
0.0
 11
99.00195659828859
 21
81.77712796706675
 31
0.0
  0
LINE
  5
363
330
E3
100
AcDbEntity
  8
Doc_ Finishes
  6
Continuous
100
AcDbLine
 10
101.4019565379988
 20
87.64912756431868
 30
0.0
 11
99.00195659828859
 21
87.64912756431868
 31
0.0
  0
LINE
  5
364
330
E3
100
AcDbEntity
  8
Doc_ Finishes
  6
Continuous
100
AcDbLine
 10
101.2739541589832
 20
87.52112518530308
 30
0.0
 11
99.12995472332015
 21
87.52112518530308
 31
0.0
  0
LINE
  5
365
330
E3
100
AcDbEntity
  8
Doc_ Finishes
  6
Continuous
100
AcDbLine
 10
101.2739541589832
 20
87.52112518530308
 30
0.0
 11
101.4019565379988
 21
87.64912756431868
 31
0.0
  0
LINE
  5
366
330
E3
100
AcDbEntity
  8
Doc_ Finishes
  6
Continuous
100
AcDbLine
 10
99.12995472332015
 20
87.52112518530308
 30
0.0
 11
99.00195659828859
 21
87.64912756431868
 31
0.0
  0
LINE
  5
367
330
E3
100
AcDbEntity
  8
Doc_ Finishes
  6
Continuous
100
AcDbLine
 10
101.2739541589832
 20
87.52112518530308
 30
0.0
 11
101.2739541589832
 21
81.64912558805115
 31
0.0
  0
LINE
  5
368
330
E3
100
AcDbEntity
  8
Doc_ Finishes
  6
Continuous
100
AcDbLine
 10
99.12995472332015
 20
87.52112518530308
 30
0.0
 11
99.12995472332015
 21
81.64912558805115
 31
0.0
  0
HATCH
  5
369
330
E3
100
AcDbEntity
  8
Doc_ Finishes
  6
Continuous
 62
   255
370
     0
100
AcDbHatch
 10
0.0
 20
0.0
 30
0.0
210
0.0
220
0.0
230
1.0
  2
SOLID
 70
     1
 71
     0
 91
        1
 92
        3
 72
     0
 73
     1
 93
        4
 10
98.64310882283621
 20
89.68802148652044
 10
98.64310882283621
 20
88.18802148652038
 10
101.7608002764602
 20
88.18802148652038
 10
101.7608002764602
 20
89.68802148652044
 97
        0
 75
     0
 76
     1
 98
        0
  0
HATCH
  5
36A
330
E3
100
AcDbEntity
  8
Doc_ Finishes
  6
Continuous
 62
   255
370
     0
100
AcDbHatch
 10
0.0
 20
0.0
 30
0.0
210
0.0
220
0.0
230
1.0
  2
SOLID
 70
     1
 71
     0
 91
        1
 92
        3
 72
     1
 73
     1
 93
        4
 10
99.16272406510687
 20
89.43802148652047
 42
0.0
 10
99.16272406510687
 20
88.18802148652038
 42
0.0
 10
101.2411850341895
 20
88.18802148652038
 42
0.0
 10
101.2411850341895
 20
89.43802148652047
 42
0.2405626121623441
 97
        0
 75
     0
 76
     1
 98
        0
  0
LINE
  5
36B
330
E3
100
AcDbEntity
  8
Doc_ Finishes
  6
Continuous
100
AcDbLine
 10
99.1627231621888
 20
88.18802225935673
 30
0.0
 11
99.1627231621888
 21
89.4380214303338
 31
0.0
  0
LINE
  5
36C
330
E3
100
AcDbEntity
  8
Doc_ Finishes
  6
Continuous
100
AcDbLine
 10
101.2411857201146
 20
88.18802225935673
 30
0.0
 11
99.1627231621888
 21
88.18802225935673
 31
0.0
  0
LINE
  5
36D
330
E3
100
AcDbEntity
  8
Doc_ Finishes
  6
Continuous
100
AcDbLine
 10
101.2411857201146
 20
89.4380214303338
 30
0.0
 11
101.2411857201146
 21
88.18802225935673
 31
0.0
  0
ARC
  5
36E
330
E3
100
AcDbEntity
  8
Doc_ Finishes
  6
Continuous
100
AcDbCircle
 10
100.2019545496482
 20
87.40302148652047
 30
0.0
 40
2.284999999999995
100
AcDbArc
 50
62.94758187956862
 51
117.0524181204314
  0
HATCH
  5
36F
330
E3
100
AcDbEntity
  8
Doc_ Finishes
  6
Continuous
 62
   255
370
     0
100
AcDbHatch
 10
0.0
 20
0.0
 30
0.0
210
0.0
220
0.0
230
1.0
  2
SOLID
 70
     1
 71
     0
 91
        1
 92
        3
 72
     1
 73
     1
 93
        4
 10
98.12349358056555
 20
89.43802148652047
 42
0.0
 10
98.12349358056555
 20
88.18802148652038
 42
0.0
 10
99.16272406510687
 20
88.18802148652038
 42
0.0
 10
99.16272406510687
 20
89.43802148652047
 42
0.4811252243246882
 97
        0
 75
     0
 76
     1
 98
        0
  0
LINE
  5
370
330
E3
100
AcDbEntity
  8
Doc_ Finishes
  6
Continuous
100
AcDbLine
 10
98.1234918832259
 20
88.18802225935673
 30
0.0
 11
98.1234918832259
 21
89.4380214303338
 31
0.0
  0
LINE
  5
371
330
E3
100
AcDbEntity
  8
Doc_ Finishes
  6
Continuous
100
AcDbLine
 10
99.1627231621888
 20
88.18802225935673
 30
0.0
 11
98.1234918832259
 21
88.18802225935673
 31
0.0
  0
LINE
  5
372
330
E3
100
AcDbEntity
  8
Doc_ Finishes
  6
Continuous
100
AcDbLine
 10
99.1627231621888
 20
89.4380214303338
 30
0.0
 11
99.1627231621888
 21
88.18802225935673
 31
0.0
  0
ARC
  5
373
330
E3
100
AcDbEntity
  8
Doc_ Finishes
  6
Continuous
100
AcDbCircle
 10
98.64310882283621
 20
89.02302148652048
 30
0.0
 40
0.664999999999999
100
AcDbArc
 50
38.61323819100282
 51
141.3867618089972
  0
HATCH
  5
374
330
E3
100
AcDbEntity
  8
Doc_ Finishes
  6
Continuous
 62
   255
370
     0
100
AcDbHatch
 10
0.0
 20
0.0
 30
0.0
210
0.0
220
0.0
230
1.0
  2
SOLID
 70
     1
 71
     0
 91
        1
 92
        3
 72
     1
 73
     1
 93
        4
 10
102.2804155187308
 20
89.43802148652047
 42
0.4811252243246882
 10
101.2411850341895
 20
89.43802148652047
 42
0.0
 10
101.2411850341895
 20
88.18802148652038
 42
0.0
 10
102.2804155187308
 20
88.18802148652038
 42
0.0
 97
        0
 75
     0
 76
     1
 98
        0
  0
ARC
  5
375
330
E3
100
AcDbEntity
  8
Doc_ Finishes
  6
Continuous
100
AcDbCircle
 10
101.7608002764602
 20
89.02302148652048
 30
0.0
 40
0.664999999999999
100
AcDbArc
 50
38.61323819100282
 51
141.3867618089972
  0
LINE
  5
376
330
E3
100
AcDbEntity
  8
Doc_ Finishes
  6
Continuous
100
AcDbLine
 10
101.2411857201146
 20
89.4380214303338
 30
0.0
 11
101.2411857201146
 21
88.18802225935673
 31
0.0
  0
LINE
  5
377
330
E3
100
AcDbEntity
  8
Doc_ Finishes
  6
Continuous
100
AcDbLine
 10
101.2411857201146
 20
88.18802225935673
 30
0.0
 11
102.2804169990775
 21
88.18802225935673
 31
0.0
  0
LINE
  5
378
330
E3
100
AcDbEntity
  8
Doc_ Finishes
  6
Continuous
100
AcDbLine
 10
102.2804169990775
 20
88.18802225935673
 30
0.0
 11
102.2804169990775
 21
89.4380214303338
 31
0.0
  0
HATCH
  5
379
330
E3
100
AcDbEntity
  8
Doc_ Finishes
  6
Continuous
 62
   255
370
     0
100
AcDbHatch
 10
0.0
 20
0.0
 30
0.0
210
0.0
220
0.0
230
1.0
  2
SOLID
 70
     1
 71
     0
 91
        1
 92
        3
 72
     0
 73
     1
 93
        4
 10
98.64310882283621
 20
84.92912616945192
 10
98.64310882283621
 20
82.84912616945184
 10
101.7608002764602
 20
82.84912616945184
 10
101.7608002764602
 20
84.92912616945192
 97
        0
 75
     0
 76
     1
 98
        0
  0
HATCH
  5
37A
330
E3
100
AcDbEntity
  8
Doc_ Finishes
  6
Continuous
 62
   255
370
     0
100
AcDbHatch
 10
0.0
 20
0.0
 30
0.0
210
0.0
220
0.0
230
1.0
  2
SOLID
 70
     1
 71
     0
 91
        1
 92
        3
 72
     1
 73
     1
 93
        4
 10
99.16272406510687
 20
84.58245950278531
 42
0.0
 10
99.16272406510687
 20
83.19579283611867
 42
0.3335801555317839
 10
101.2411850341895
 20
83.19579283611867
 42
0.0
 10
101.2411850341895
 20
84.58245950278531
 42
0.3335801555317839
 97
        0
 75
     0
 76
     1
 98
        0
  0
LINE
  5
37B
330
E3
100
AcDbEntity
  8
Doc_ Finishes
  6
Continuous
100
AcDbLine
 10
99.1627231621888
 20
83.19579335026015
 30
0.0
 11
99.1627231621888
 21
84.58246026569164
 31
0.0
  0
ARC
  5
37C
330
E3
100
AcDbEntity
  8
Doc_ Finishes
  6
Continuous
100
AcDbCircle
 10
100.2019545496482
 20
84.58015181047763
 30
0.0
 40
1.731025641025638
100
AcDbArc
 50
233.1046488728493
 51
306.8953511271506
  0
LINE
  5
37D
330
E3
100
AcDbEntity
  8
Doc_ Finishes
  6
Continuous
100
AcDbLine
 10
101.2411857201146
 20
84.58246026569164
 30
0.0
 11
101.2411857201146
 21
83.19579335026015
 31
0.0
  0
ARC
  5
37E
330
E3
100
AcDbEntity
  8
Doc_ Finishes
  6
Continuous
100
AcDbCircle
 10
100.2019545496482
 20
83.19810052842634
 30
0.0
 40
1.731025641025638
100
AcDbArc
 50
53.1046488728494
 51
126.8953511271506
  0
HATCH
  5
37F
330
E3
100
AcDbEntity
  8
Doc_ Finishes
  6
Continuous
 62
   255
370
     0
100
AcDbHatch
 10
0.0
 20
0.0
 30
0.0
210
0.0
220
0.0
230
1.0
  2
SOLID
 70
     1
 71
     0
 91
        1
 92
        3
 72
     1
 73
     1
 93
        4
 10
98.12349358056555
 20
84.58245950278531
 42
0.0
 10
98.12349358056555
 20
83.19579283611867
 42
0.6671603110635675
 10
99.16272406510687
 20
83.19579283611867
 42
0.0
 10
99.16272406510687
 20
84.58245950278531
 42
0.6671603110635675
 97
        0
 75
     0
 76
     1
 98
        0
  0
LINE
  5
380
330
E3
100
AcDbEntity
  8
Doc_ Finishes
  6
Continuous
100
AcDbLine
 10
98.1234918832259
 20
83.19579335026015
 30
0.0
 11
98.1234918832259
 21
84.58246026569164
 31
0.0
  0
ARC
  5
381
330
E3
100
AcDbEntity
  8
Doc_ Finishes
  6
Continuous
100
AcDbCircle
 10
98.64310882283621
 20
83.41188257970842
 30
0.0
 40
0.5627564102564118
100
AcDbArc
 50
202.5807117678017
 51
337.4192882321983
  0
LINE
  5
382
330
E3
100
AcDbEntity
  8
Doc_ Finishes
  6
Continuous
100
AcDbLine
 10
99.1627231621888
 20
84.58246026569164
 30
0.0
 11
99.1627231621888
 21
83.19579335026015
 31
0.0
  0
ARC
  5
383
330
E3
100
AcDbEntity
  8
Doc_ Finishes
  6
Continuous
100
AcDbCircle
 10
98.64310882283621
 20
84.36636975919556
 30
0.0
 40
0.5627564102564118
100
AcDbArc
 50
22.58071176780171
 51
157.4192882321983
  0
HATCH
  5
384
330
E3
100
AcDbEntity
  8
Doc_ Finishes
  6
Continuous
 62
   255
370
     0
100
AcDbHatch
 10
0.0
 20
0.0
 30
0.0
210
0.0
220
0.0
230
1.0
  2
SOLID
 70
     1
 71
     0
 91
        1
 92
        3
 72
     1
 73
     1
 93
        4
 10
102.2804155187308
 20
84.58245950278531
 42
0.6671603110635675
 10
101.2411850341895
 20
84.58245950278531
 42
0.0
 10
101.2411850341895
 20
83.19579283611867
 42
0.6671603110635675
 10
102.2804155187308
 20
83.19579283611867
 42
0.0
 97
        0
 75
     0
 76
     1
 98
        0
  0
ARC
  5
385
330
E3
100
AcDbEntity
  8
Doc_ Finishes
  6
Continuous
100
AcDbCircle
 10
101.7608002764602
 20
84.36636975919556
 30
0.0
 40
0.5627564102564118
100
AcDbArc
 50
22.58071176780171
 51
157.4192882321983
  0
LINE
  5
386
330
E3
100
AcDbEntity
  8
Doc_ Finishes
  6
Continuous
100
AcDbLine
 10
101.2411857201146
 20
84.58246026569164
 30
0.0
 11
101.2411857201146
 21
83.19579335026015
 31
0.0
  0
ARC
  5
387
330
E3
100
AcDbEntity
  8
Doc_ Finishes
  6
Continuous
100
AcDbCircle
 10
101.7608002764602
 20
83.41188257970842
 30
0.0
 40
0.5627564102564118
100
AcDbArc
 50
202.5807117678017
 51
337.4192882321983
  0
LINE
  5
388
330
E3
100
AcDbEntity
  8
Doc_ Finishes
  6
Continuous
100
AcDbLine
 10
102.2804169990775
 20
83.19579335026015
 30
0.0
 11
102.2804169990775
 21
84.58246026569164
 31
0.0
  0
HATCH
  5
389
330
E3
100
AcDbEntity
  8
Doc_ Finishes
  6
Continuous
 62
   255
370
     0
100
AcDbHatch
 10
0.0
 20
0.0
 30
0.0
210
0.0
220
0.0
230
1.0
  2
SOLID
 70
     1
 71
     0
 91
        1
 92
        3
 72
     0
 73
     1
 93
        4
 10
102.7019545496482
 20
87.78802148652044
 10
102.7019545496482
 20
88.18802148652038
 10
97.70195454964819
 20
88.18802148652038
 10
97.70195454964819
 20
87.78802148652044
 97
        0
 75
     0
 76
     1
 98
        0
  0
LINE
  5
38A
330
E3
100
AcDbEntity
  8
Doc_ Finishes
  6
Continuous
100
AcDbLine
 10
102.7019527831058
 20
88.18802225935673
 30
0.0
 11
102.7019527831058
 21
87.78802014241302
 31
0.0
  0
LINE
  5
38B
330
E3
100
AcDbEntity
  8
Doc_ Finishes
  6
Continuous
100
AcDbLine
 10
97.70195609919756
 20
88.18802225935673
 30
0.0
 11
102.7019527831058
 21
88.18802225935673
 31
0.0
  0
LINE
  5
38C
330
E3
100
AcDbEntity
  8
Doc_ Finishes
  6
Continuous
100
AcDbLine
 10
97.70195609919756
 20
87.78802014241302
 30
0.0
 11
97.70195609919756
 21
88.18802225935673
 31
0.0
  0
LINE
  5
38D
330
E3
100
AcDbEntity
  8
Doc_ Finishes
  6
Continuous
100
AcDbLine
 10
102.7019527831058
 20
87.78802014241302
 30
0.0
 11
97.70195609919756
 21
87.78802014241302
 31
0.0
  0
HATCH
  5
38E
330
E3
100
AcDbEntity
  8
Doc_ Finishes
  6
Continuous
 62
   255
370
     0
100
AcDbHatch
 10
0.0
 20
0.0
 30
0.0
210
0.0
220
0.0
230
1.0
  2
SOLID
 70
     1
 71
     0
 91
        1
 92
        3
 72
     0
 73
     1
 93
        4
 10
102.7019545496482
 20
85.32912616945187
 10
97.70195454964819
 20
85.32912616945187
 10
97.70195454964819
 20
84.92912616945192
 10
102.7019545496482
 20
84.92912616945192
 97
        0
 75
     0
 76
     1
 98
        0
  0
LINE
  5
38F
330
E3
100
AcDbEntity
  8
Doc_ Finishes
  6
Continuous
100
AcDbLine
 10
97.70195609919756
 20
85.3291280479972
 30
0.0
 11
102.7019527831058
 21
85.3291280479972
 31
0.0
  0
LINE
  5
390
330
E3
100
AcDbEntity
  8
Doc_ Finishes
  6
Continuous
100
AcDbLine
 10
97.70195609919756
 20
84.9291259310535
 30
0.0
 11
97.70195609919756
 21
85.3291280479972
 31
0.0
  0
LINE
  5
391
330
E3
100
AcDbEntity
  8
Doc_ Finishes
  6
Continuous
100
AcDbLine
 10
102.7019527831058
 20
84.9291259310535
 30
0.0
 11
97.70195609919756
 21
84.9291259310535
 31
0.0
  0
LINE
  5
392
330
E3
100
AcDbEntity
  8
Doc_ Finishes
  6
Continuous
100
AcDbLine
 10
102.7019527831058
 20
85.3291280479972
 30
0.0
 11
102.7019527831058
 21
84.9291259310535
 31
0.0
  0
LINE
  5
393
330
E3
100
AcDbEntity
  8
Doc_ Finishes
  6
Continuous
100
AcDbLine
 10
98.64310752270735
 20
89.6880195629356
 30
0.0
 11
101.760801359596
 21
89.6880195629356
 31
0.0
  0
LINE
  5
394
330
E3
100
AcDbEntity
  8
Doc_ Finishes
  6
Continuous
100
AcDbLine
 10
101.760801359596
 20
88.18802225935673
 30
0.0
 11
98.64310752270735
 21
88.18802225935673
 31
0.0
  0
LINE
  5
395
330
E3
100
AcDbEntity
  8
Doc_ Finishes
  6
Continuous
100
AcDbLine
 10
98.64310752270735
 20
84.9291259310535
 30
0.0
 11
101.760801359596
 21
84.9291259310535
 31
0.0
  0
LINE
  5
396
330
E3
100
AcDbEntity
  8
Doc_ Finishes
  6
Continuous
100
AcDbLine
 10
101.760801359596
 20
82.84912768489828
 30
0.0
 11
98.64310752270735
 21
82.84912768489828
 31
0.0
  0
LINE
  5
397
330
E3
100
AcDbEntity
  8
Doc_ Finishes
  6
Dot & Dashed
100
AcDbLine
 10
100.2019544411517
 20
91.38802217897033
 30
0.0
 11
100.2019544411517
 21
80.04912562824434
 31
0.0
  0
HATCH
  5
398
330
E3
100
AcDbEntity
  8
Doc_ Finishes
  6
Continuous
 62
   255
370
     0
100
AcDbHatch
 10
0.0
 20
0.0
 30
0.0
210
0.0
220
0.0
230
1.0
  2
SOLID
 70
     1
 71
     0
 91
        1
 92
        3
 72
     1
 73
     1
 93
        2
 10
90.63011649533664
 20
77.14314789369348
 42
0.0
 10
90.63011649533664
 20
79.54314789369354
 42
0.4999999999999998
 97
        0
 75
     0
 76
     1
 98
        0
  0
LINE
  5
399
330
E3
100
AcDbEntity
  8
Doc_ Finishes
  6
Continuous
100
AcDbLine
 10
90.6301160564911
 20
79.54314826151546
 30
0.0
 11
90.6301160564911
 21
77.14314832180524
 31
0.0
  0
ARC
  5
39A
330
E3
100
AcDbEntity
  8
Doc_ Finishes
  6
Continuous
100
AcDbCircle
 10
91.53011649533667
 20
78.34314789369351
 30
0.0
 40
1.500000000000043
100
AcDbArc
 50
126.869897645844
 51
233.130102354156
  0
HATCH
  5
39B
330
E3
100
AcDbEntity
  8
Doc_ Finishes
  6
Continuous
 62
   255
370
     0
100
AcDbHatch
 10
0.0
 20
0.0
 30
0.0
210
0.0
220
0.0
230
1.0
  2
SOLID
 70
     1
 71
     0
 91
        1
 92
        3
 72
     0
 73
     1
 93
        4
 10
90.03011649533664
 20
78.98314789369343
 10
90.03011649533664
 20
77.7031478936936
 10
90.1735030647677
 20
77.7031478936936
 10
90.1735030647677
 20
78.98314789369343
 97
        0
 75
     0
 76
     1
 98
        0
  0
LINE
  5
39C
330
E3
100
AcDbEntity
  8
Doc_ Finishes
  6
Continuous
100
AcDbLine
 10
90.03011713505957
 20
77.70314703154243
 30
0.0
 11
90.03011713505957
 21
78.98314955177828
 31
0.0
  0
LINE
  5
39D
330
E3
100
AcDbEntity
  8
Doc_ Finishes
  6
Continuous
100
AcDbLine
 10
90.1735019202739
 20
77.70314703154243
 30
0.0
 11
90.03011713505957
 21
77.70314703154243
 31
0.0
  0
LINE
  5
39E
330
E3
100
AcDbEntity
  8
Doc_ Finishes
  6
Continuous
100
AcDbLine
 10
90.1735019202739
 20
78.98314955177828
 30
0.0
 11
90.1735019202739
 21
77.70314703154243
 31
0.0
  0
LINE
  5
39F
330
E3
100
AcDbEntity
  8
Doc_ Finishes
  6
Continuous
100
AcDbLine
 10
90.03011713505957
 20
78.98314955177828
 30
0.0
 11
90.1735019202739
 21
78.98314955177828
 31
0.0
  0
HATCH
  5
3A0
330
E3
100
AcDbEntity
  8
Doc_ Finishes
  6
Continuous
 62
   255
370
     0
100
AcDbHatch
 10
0.0
 20
0.0
 30
0.0
210
0.0
220
0.0
230
1.0
  2
SOLID
 70
     1
 71
     0
 91
        1
 92
        3
 72
     1
 73
     1
 93
        4
 10
90.63011649533664
 20
79.74314789369342
 42
0.0
 10
90.63011649533664
 20
76.94314789369349
 42
0.0
 10
91.43011649533663
 20
76.94314789369349
 42
-0.4285714285714285
 10
91.43011649533663
 20
79.74314789369342
 42
0.0
 97
        0
 75
     0
 76
     1
 98
        0
  0
LINE
  5
3A1
330
E3
100
AcDbEntity
  8
Doc_ Finishes
  6
Continuous
100
AcDbLine
 10
90.6301160564911
 20
76.9431472633334
 30
0.0
 11
90.6301160564911
 21
79.7431493199873
 31
0.0
  0
LINE
  5
3A2
330
E3
100
AcDbEntity
  8
Doc_ Finishes
  6
Continuous
100
AcDbLine
 10
91.43011603639451
 20
76.9431472633334
 30
0.0
 11
90.6301160564911
 21
76.9431472633334
 31
0.0
  0
ARC
  5
3A3
330
E3
100
AcDbEntity
  8
Doc_ Finishes
  6
Continuous
100
AcDbCircle
 10
92.76344982866993
 20
78.34314789369346
 30
0.0
 40
1.933333333333277
100
AcDbArc
 50
133.6028189727037
 51
226.3971810272962
  0
LINE
  5
3A4
330
E3
100
AcDbEntity
  8
Doc_ Finishes
  6
Continuous
100
AcDbLine
 10
90.6301160564911
 20
79.7431493199873
 30
0.0
 11
91.43011603639451
 21
79.7431493199873
 31
0.0
  0
HATCH
  5
3A5
330
E3
100
AcDbEntity
  8
Doc_ Finishes
  6
Continuous
 62
   255
370
     0
100
AcDbHatch
 10
0.0
 20
0.0
 30
0.0
210
0.0
220
0.0
230
1.0
  2
SOLID
 70
     1
 71
     0
 91
        1
 92
        3
 72
     0
 73
     1
 93
        5
 10
90.83011649533665
 20
78.66314789369343
 10
90.83011649533665
 20
78.02314789369346
 10
100.1901164953366
 20
78.02314789369346
 10
100.8301164953366
 20
78.34314789369346
 10
100.1901164953366
 20
78.66314789369343
 97
        0
 75
     0
 76
     1
 98
        0
  0
LINE
  5
3A6
330
E3
100
AcDbEntity
  8
Doc_ Finishes
  6
Continuous
100
AcDbLine
 10
90.83011711496296
 20
78.02314872509739
 30
0.0
 11
90.83011711496296
 21
78.66314785822331
 31
0.0
  0
LINE
  5
3A7
330
E3
100
AcDbEntity
  8
Doc_ Finishes
  6
Continuous
100
AcDbLine
 10
100.1901156036376
 20
78.02314872509739
 30
0.0
 11
90.83011711496296
 21
78.02314872509739
 31
0.0
  0
LINE
  5
3A8
330
E3
100
AcDbEntity
  8
Doc_ Finishes
  6
Continuous
100
AcDbLine
 10
100.8301147367635
 20
78.34314616466835
 30
0.0
 11
100.1901156036376
 21
78.02314872509739
 31
0.0
  0
LINE
  5
3A9
330
E3
100
AcDbEntity
  8
Doc_ Finishes
  6
Continuous
100
AcDbLine
 10
100.1901156036376
 20
78.66314785822331
 30
0.0
 11
100.8301147367635
 21
78.34314616466835
 31
0.0
  0
LINE
  5
3AA
330
E3
100
AcDbEntity
  8
Doc_ Finishes
  6
Continuous
100
AcDbLine
 10
90.83011711496296
 20
78.66314785822331
 30
0.0
 11
100.1901156036376
 21
78.66314785822331
 31
0.0
  0
LINE
  5
3AB
330
E3
100
AcDbEntity
  8
Doc_ Finishes
  6
Continuous
100
AcDbLine
 10
90.83011711496296
 20
78.86314891669515
 30
0.0
 11
90.9690054390733
 21
78.86117081412813
 31
0.0
  0
LINE
  5
3AC
330
E3
100
AcDbEntity
  8
Doc_ Finishes
  6
Continuous
100
AcDbLine
 10
90.9690054390733
 20
78.86117081412813
 30
0.0
 11
91.10789376318364
 21
78.85524926837904
 31
0.0
  0
LINE
  5
3AD
330
E3
100
AcDbEntity
  8
Doc_ Finishes
  6
Continuous
100
AcDbLine
 10
91.10789376318364
 20
78.85524926837904
 30
0.0
 11
91.24678208729398
 21
78.84543107327211
 31
0.0
  0
LINE
  5
3AE
330
E3
100
AcDbEntity
  8
Doc_ Finishes
  6
Continuous
100
AcDbLine
 10
91.24678208729398
 20
78.84543107327211
 30
0.0
 11
91.38567041140432
 21
78.83178854653555
 31
0.0
  0
LINE
  5
3AF
330
E3
100
AcDbEntity
  8
Doc_ Finishes
  6
Continuous
100
AcDbLine
 10
91.38567041140432
 20
78.83178854653555
 30
0.0
 11
91.52456298949866
 21
78.81442803776976
 31
0.0
  0
LINE
  5
3B0
330
E3
100
AcDbEntity
  8
Doc_ Finishes
  6
Continuous
100
AcDbLine
 10
91.52456298949866
 20
78.81442803776976
 30
0.0
 11
91.663451313609
 21
78.79348142047921
 31
0.0
  0
LINE
  5
3B1
330
E3
100
AcDbEntity
  8
Doc_ Finishes
  6
Continuous
100
AcDbLine
 10
91.663451313609
 20
78.79348142047921
 30
0.0
 11
91.80233963771934
 21
78.76910609207243
 31
0.0
  0
LINE
  5
3B2
330
E3
100
AcDbEntity
  8
Doc_ Finishes
  6
Continuous
100
AcDbLine
 10
91.80233963771934
 20
78.76910609207243
 30
0.0
 11
91.94122796182968
 21
78.74148922784616
 31
0.0
  0
LINE
  5
3B3
330
E3
100
AcDbEntity
  8
Doc_ Finishes
  6
Continuous
100
AcDbLine
 10
91.94122796182968
 20
78.74148922784616
 30
0.0
 11
92.08011628594002
 21
78.71084352700109
 31
0.0
  0
LINE
  5
3B4
330
E3
100
AcDbEntity
  8
Doc_ Finishes
  6
Continuous
100
AcDbLine
 10
92.08011628594002
 20
78.71084352700109
 30
0.0
 11
92.21900461005036
 21
78.67739870467403
 31
0.0
  0
LINE
  5
3B5
330
E3
100
AcDbEntity
  8
Doc_ Finishes
  6
Continuous
100
AcDbLine
 10
92.21900461005036
 20
78.67739870467403
 30
0.0
 11
92.3578929341607
 21
78.64140574592193
 31
0.0
  0
LINE
  5
3B6
330
E3
100
AcDbEntity
  8
Doc_ Finishes
  6
Continuous
100
AcDbLine
 10
92.3578929341607
 20
78.64140574592193
 30
0.0
 11
92.49678125827104
 21
78.60314966767376
 31
0.0
  0
LINE
  5
3B7
330
E3
100
AcDbEntity
  8
Doc_ Finishes
  6
Continuous
100
AcDbLine
 10
92.49678125827104
 20
78.60314966767376
 30
0.0
 11
92.6356738363654
 21
78.56291123287454
 31
0.0
  0
LINE
  5
3B8
330
E3
100
AcDbEntity
  8
Doc_ Finishes
  6
Continuous
100
AcDbLine
 10
92.6356738363654
 20
78.56291123287454
 30
0.0
 11
92.77456216047572
 21
78.52099672837336
 31
0.0
  0
LINE
  5
3B9
330
E3
100
AcDbEntity
  8
Doc_ Finishes
  6
Continuous
100
AcDbLine
 10
92.77456216047572
 20
78.52099672837336
 30
0.0
 11
92.91345048458606
 21
78.47773371093939
 31
0.0
  0
LINE
  5
3BA
330
E3
100
AcDbEntity
  8
Doc_ Finishes
  6
Continuous
100
AcDbLine
 10
92.91345048458606
 20
78.47773371093939
 30
0.0
 11
93.0523388086964
 21
78.43344548335774
 31
0.0
  0
LINE
  5
3BB
330
E3
100
AcDbEntity
  8
Doc_ Finishes
  6
Continuous
100
AcDbLine
 10
93.0523388086964
 20
78.43344548335774
 30
0.0
 11
93.19122713280674
 21
78.38846811036565
 31
0.0
  0
LINE
  5
3BC
330
E3
100
AcDbEntity
  8
Doc_ Finishes
  6
Continuous
100
AcDbLine
 10
93.19122713280674
 20
78.38846811036565
 30
0.0
 11
93.33011545691708
 21
78.34314616466835
 31
0.0
  0
LINE
  5
3BD
330
E3
100
AcDbEntity
  8
Doc_ Finishes
  6
Continuous
100
AcDbLine
 10
93.33011545691708
 20
78.34314616466835
 30
0.0
 11
93.46900378102742
 21
78.29782847295505
 31
0.0
  0
LINE
  5
3BE
330
E3
100
AcDbEntity
  8
Doc_ Finishes
  6
Continuous
100
AcDbLine
 10
93.46900378102742
 20
78.29782847295505
 30
0.0
 11
93.60789635912177
 21
78.25285109996297
 31
0.0
  0
LINE
  5
3BF
330
E3
100
AcDbEntity
  8
Doc_ Finishes
  6
Continuous
100
AcDbLine
 10
93.60789635912177
 20
78.25285109996297
 30
0.0
 11
93.74678468323211
 21
78.20856287238134
 31
0.0
  0
LINE
  5
3C0
330
E3
100
AcDbEntity
  8
Doc_ Finishes
  6
Continuous
100
AcDbLine
 10
93.74678468323211
 20
78.20856287238134
 30
0.0
 11
93.88567300734245
 21
78.16529560096333
 31
0.0
  0
LINE
  5
3C1
330
E3
100
AcDbEntity
  8
Doc_ Finishes
  6
Continuous
100
AcDbLine
 10
93.88567300734245
 20
78.16529560096333
 30
0.0
 11
94.02456133145279
 21
78.12338535044616
 31
0.0
  0
LINE
  5
3C2
330
E3
100
AcDbEntity
  8
Doc_ Finishes
  6
Continuous
100
AcDbLine
 10
94.02456133145279
 20
78.12338535044616
 30
0.0
 11
94.16344965556313
 21
78.08314691564694
 31
0.0
  0
LINE
  5
3C3
330
E3
100
AcDbEntity
  8
Doc_ Finishes
  6
Continuous
100
AcDbLine
 10
94.16344965556313
 20
78.08314691564694
 30
0.0
 11
94.30233797967347
 21
78.04488658341477
 31
0.0
  0
LINE
  5
3C4
330
E3
100
AcDbEntity
  8
Doc_ Finishes
  6
Continuous
100
AcDbLine
 10
94.30233797967347
 20
78.04488658341477
 30
0.0
 11
94.44122630378381
 21
78.00889787864668
 31
0.0
  0
LINE
  5
3C5
330
E3
100
AcDbEntity
  8
Doc_ Finishes
  6
Continuous
100
AcDbLine
 10
94.44122630378381
 20
78.00889787864668
 30
0.0
 11
94.58011462789415
 21
77.97545305631962
 31
0.0
  0
LINE
  5
3C6
330
E3
100
AcDbEntity
  8
Doc_ Finishes
  6
Continuous
100
AcDbLine
 10
94.58011462789415
 20
77.97545305631962
 30
0.0
 11
94.7190072059885
 21
77.94480310149055
 31
0.0
  0
LINE
  5
3C7
330
E3
100
AcDbEntity
  8
Doc_ Finishes
  6
Continuous
100
AcDbLine
 10
94.7190072059885
 20
77.94480310149055
 30
0.0
 11
94.85789553009884
 21
77.91719049124826
 31
0.0
  0
LINE
  5
3C8
330
E3
100
AcDbEntity
  8
Doc_ Finishes
  6
Continuous
100
AcDbLine
 10
94.85789553009884
 20
77.91719049124826
 30
0.0
 11
94.99678385420918
 21
77.89281516284152
 31
0.0
  0
LINE
  5
3C9
330
E3
100
AcDbEntity
  8
Doc_ Finishes
  6
Continuous
100
AcDbLine
 10
94.99678385420918
 20
77.89281516284152
 30
0.0
 11
95.13567217831951
 21
77.87186854555095
 31
0.0
  0
LINE
  5
3CA
330
E3
100
AcDbEntity
  8
Doc_ Finishes
  6
Continuous
100
AcDbLine
 10
95.13567217831951
 20
77.87186854555095
 30
0.0
 11
95.27456050242985
 21
77.85450803678515
 31
0.0
  0
LINE
  5
3CB
330
E3
100
AcDbEntity
  8
Doc_ Finishes
  6
Continuous
100
AcDbLine
 10
95.27456050242985
 20
77.85450803678515
 30
0.0
 11
95.41344882654019
 21
77.8408655100486
 31
0.0
  0
LINE
  5
3CC
330
E3
100
AcDbEntity
  8
Doc_ Finishes
  6
Continuous
100
AcDbLine
 10
95.41344882654019
 20
77.8408655100486
 30
0.0
 11
95.55233715065053
 21
77.83104731494166
 31
0.0
  0
LINE
  5
3CD
330
E3
100
AcDbEntity
  8
Doc_ Finishes
  6
Continuous
100
AcDbLine
 10
95.55233715065053
 20
77.83104731494166
 30
0.0
 11
95.69122972874489
 21
77.82512576919258
 31
0.0
  0
LINE
  5
3CE
330
E3
100
AcDbEntity
  8
Doc_ Finishes
  6
Continuous
100
AcDbLine
 10
95.69122972874489
 20
77.82512576919258
 30
0.0
 11
95.83011805285523
 21
77.82314766662554
 31
0.0
  0
LINE
  5
3CF
330
E3
100
AcDbEntity
  8
Doc_ Finishes
  6
Continuous
100
AcDbLine
 10
95.83011805285523
 20
77.82314766662554
 30
0.0
 11
95.96900637696557
 21
77.82512576919258
 31
0.0
  0
LINE
  5
3D0
330
E3
100
AcDbEntity
  8
Doc_ Finishes
  6
Continuous
100
AcDbLine
 10
93.33011545691708
 20
78.86314891669515
 30
0.0
 11
93.46900378102742
 21
78.86117081412813
 31
0.0
  0
LINE
  5
3D1
330
E3
100
AcDbEntity
  8
Doc_ Finishes
  6
Continuous
100
AcDbLine
 10
93.46900378102742
 20
78.86117081412813
 30
0.0
 11
93.60789635912177
 21
78.85524926837904
 31
0.0
  0
LINE
  5
3D2
330
E3
100
AcDbEntity
  8
Doc_ Finishes
  6
Continuous
100
AcDbLine
 10
93.60789635912177
 20
78.85524926837904
 30
0.0
 11
93.74678468323211
 21
78.84543107327211
 31
0.0
  0
LINE
  5
3D3
330
E3
100
AcDbEntity
  8
Doc_ Finishes
  6
Continuous
100
AcDbLine
 10
93.74678468323211
 20
78.84543107327211
 30
0.0
 11
93.88567300734245
 21
78.83178854653555
 31
0.0
  0
LINE
  5
3D4
330
E3
100
AcDbEntity
  8
Doc_ Finishes
  6
Continuous
100
AcDbLine
 10
93.88567300734245
 20
78.83178854653555
 30
0.0
 11
94.02456133145279
 21
78.81442803776976
 31
0.0
  0
LINE
  5
3D5
330
E3
100
AcDbEntity
  8
Doc_ Finishes
  6
Continuous
100
AcDbLine
 10
94.02456133145279
 20
78.81442803776976
 30
0.0
 11
94.16344965556313
 21
78.79348142047921
 31
0.0
  0
LINE
  5
3D6
330
E3
100
AcDbEntity
  8
Doc_ Finishes
  6
Continuous
100
AcDbLine
 10
94.16344965556313
 20
78.79348142047921
 30
0.0
 11
94.30233797967347
 21
78.76910609207243
 31
0.0
  0
LINE
  5
3D7
330
E3
100
AcDbEntity
  8
Doc_ Finishes
  6
Continuous
100
AcDbLine
 10
94.30233797967347
 20
78.76910609207243
 30
0.0
 11
94.44122630378381
 21
78.74148922784616
 31
0.0
  0
LINE
  5
3D8
330
E3
100
AcDbEntity
  8
Doc_ Finishes
  6
Continuous
100
AcDbLine
 10
94.44122630378381
 20
78.74148922784616
 30
0.0
 11
94.58011462789415
 21
78.71084352700109
 31
0.0
  0
LINE
  5
3D9
330
E3
100
AcDbEntity
  8
Doc_ Finishes
  6
Continuous
100
AcDbLine
 10
94.58011462789415
 20
78.71084352700109
 30
0.0
 11
94.7190072059885
 21
78.67739870467403
 31
0.0
  0
LINE
  5
3DA
330
E3
100
AcDbEntity
  8
Doc_ Finishes
  6
Continuous
100
AcDbLine
 10
94.7190072059885
 20
78.67739870467403
 30
0.0
 11
94.85789553009884
 21
78.64140574592193
 31
0.0
  0
LINE
  5
3DB
330
E3
100
AcDbEntity
  8
Doc_ Finishes
  6
Continuous
100
AcDbLine
 10
94.85789553009884
 20
78.64140574592193
 30
0.0
 11
94.99678385420918
 21
78.60314966767376
 31
0.0
  0
LINE
  5
3DC
330
E3
100
AcDbEntity
  8
Doc_ Finishes
  6
Continuous
100
AcDbLine
 10
94.99678385420918
 20
78.60314966767376
 30
0.0
 11
95.13567217831951
 21
78.56291123287454
 31
0.0
  0
LINE
  5
3DD
330
E3
100
AcDbEntity
  8
Doc_ Finishes
  6
Continuous
100
AcDbLine
 10
95.13567217831951
 20
78.56291123287454
 30
0.0
 11
95.27456050242985
 21
78.52099672837336
 31
0.0
  0
LINE
  5
3DE
330
E3
100
AcDbEntity
  8
Doc_ Finishes
  6
Continuous
100
AcDbLine
 10
95.27456050242985
 20
78.52099672837336
 30
0.0
 11
95.41344882654019
 21
78.47773371093939
 31
0.0
  0
LINE
  5
3DF
330
E3
100
AcDbEntity
  8
Doc_ Finishes
  6
Continuous
100
AcDbLine
 10
95.41344882654019
 20
78.47773371093939
 30
0.0
 11
95.55233715065053
 21
78.43344548335774
 31
0.0
  0
LINE
  5
3E0
330
E3
100
AcDbEntity
  8
Doc_ Finishes
  6
Continuous
100
AcDbLine
 10
95.55233715065053
 20
78.43344548335774
 30
0.0
 11
95.69122972874489
 21
78.38846811036565
 31
0.0
  0
LINE
  5
3E1
330
E3
100
AcDbEntity
  8
Doc_ Finishes
  6
Continuous
100
AcDbLine
 10
95.69122972874489
 20
78.38846811036565
 30
0.0
 11
95.83011805285523
 21
78.34314616466835
 31
0.0
  0
LINE
  5
3E2
330
E3
100
AcDbEntity
  8
Doc_ Finishes
  6
Continuous
100
AcDbLine
 10
95.83011805285523
 20
78.34314616466835
 30
0.0
 11
95.96900637696557
 21
78.29782847295505
 31
0.0
  0
LINE
  5
3E3
330
E3
100
AcDbEntity
  8
Doc_ Finishes
  6
Continuous
100
AcDbLine
 10
95.96900637696557
 20
78.29782847295505
 30
0.0
 11
96.1078947010759
 21
78.25285109996297
 31
0.0
  0
LINE
  5
3E4
330
E3
100
AcDbEntity
  8
Doc_ Finishes
  6
Continuous
100
AcDbLine
 10
96.1078947010759
 20
78.25285109996297
 30
0.0
 11
96.24678302518625
 21
78.20856287238134
 31
0.0
  0
LINE
  5
3E5
330
E3
100
AcDbEntity
  8
Doc_ Finishes
  6
Continuous
100
AcDbLine
 10
96.24678302518625
 20
78.20856287238134
 30
0.0
 11
96.38567134929659
 21
78.16529560096333
 31
0.0
  0
LINE
  5
3E6
330
E3
100
AcDbEntity
  8
Doc_ Finishes
  6
Continuous
100
AcDbLine
 10
96.38567134929659
 20
78.16529560096333
 30
0.0
 11
96.52455967340693
 21
78.12338535044616
 31
0.0
  0
LINE
  5
3E7
330
E3
100
AcDbEntity
  8
Doc_ Finishes
  6
Continuous
100
AcDbLine
 10
96.52455967340693
 20
78.12338535044616
 30
0.0
 11
96.66344799751727
 21
78.08314691564694
 31
0.0
  0
LINE
  5
3E8
330
E3
100
AcDbEntity
  8
Doc_ Finishes
  6
Continuous
100
AcDbLine
 10
96.66344799751727
 20
78.08314691564694
 30
0.0
 11
96.80234057561161
 21
78.04488658341477
 31
0.0
  0
LINE
  5
3E9
330
E3
100
AcDbEntity
  8
Doc_ Finishes
  6
Continuous
100
AcDbLine
 10
96.80234057561161
 20
78.04488658341477
 30
0.0
 11
96.94122889972195
 21
78.00889787864668
 31
0.0
  0
LINE
  5
3EA
330
E3
100
AcDbEntity
  8
Doc_ Finishes
  6
Continuous
100
AcDbLine
 10
96.94122889972195
 20
78.00889787864668
 30
0.0
 11
97.08011722383229
 21
77.97545305631962
 31
0.0
  0
LINE
  5
3EB
330
E3
100
AcDbEntity
  8
Doc_ Finishes
  6
Continuous
100
AcDbLine
 10
97.08011722383229
 20
77.97545305631962
 30
0.0
 11
97.21900554794263
 21
77.94480310149055
 31
0.0
  0
LINE
  5
3EC
330
E3
100
AcDbEntity
  8
Doc_ Finishes
  6
Continuous
100
AcDbLine
 10
97.21900554794263
 20
77.94480310149055
 30
0.0
 11
97.35789387205297
 21
77.91719049124826
 31
0.0
  0
LINE
  5
3ED
330
E3
100
AcDbEntity
  8
Doc_ Finishes
  6
Continuous
100
AcDbLine
 10
97.35789387205297
 20
77.91719049124826
 30
0.0
 11
97.49678219616328
 21
77.89281516284152
 31
0.0
  0
LINE
  5
3EE
330
E3
100
AcDbEntity
  8
Doc_ Finishes
  6
Continuous
100
AcDbLine
 10
97.49678219616328
 20
77.89281516284152
 30
0.0
 11
97.63567052027362
 21
77.87186854555095
 31
0.0
  0
LINE
  5
3EF
330
E3
100
AcDbEntity
  8
Doc_ Finishes
  6
Continuous
100
AcDbLine
 10
97.63567052027362
 20
77.87186854555095
 30
0.0
 11
97.77455884438396
 21
77.85450803678515
 31
0.0
  0
LINE
  5
3F0
330
E3
100
AcDbEntity
  8
Doc_ Finishes
  6
Continuous
100
AcDbLine
 10
97.77455884438396
 20
77.85450803678515
 30
0.0
 11
97.91345142247833
 21
77.8408655100486
 31
0.0
  0
LINE
  5
3F1
330
E3
100
AcDbEntity
  8
Doc_ Finishes
  6
Continuous
100
AcDbLine
 10
97.91345142247833
 20
77.8408655100486
 30
0.0
 11
98.05233974658866
 21
77.83104731494166
 31
0.0
  0
LINE
  5
3F2
330
E3
100
AcDbEntity
  8
Doc_ Finishes
  6
Continuous
100
AcDbLine
 10
98.05233974658866
 20
77.83104731494166
 30
0.0
 11
98.191228070699
 21
77.82512576919258
 31
0.0
  0
LINE
  5
3F3
330
E3
100
AcDbEntity
  8
Doc_ Finishes
  6
Continuous
100
AcDbLine
 10
98.191228070699
 20
77.82512576919258
 30
0.0
 11
98.33011639480934
 21
77.82314766662554
 31
0.0
  0
LINE
  5
3F4
330
E3
100
AcDbEntity
  8
Doc_ Finishes
  6
Continuous
100
AcDbLine
 10
98.33011639480934
 20
77.82314766662554
 30
0.0
 11
98.46900471891968
 21
77.82512576919258
 31
0.0
  0
LINE
  5
3F5
330
E3
100
AcDbEntity
  8
Doc_ Finishes
  6
Continuous
100
AcDbLine
 10
95.83011805285523
 20
78.86314891669515
 30
0.0
 11
95.96900637696557
 21
78.86117081412813
 31
0.0
  0
LINE
  5
3F6
330
E3
100
AcDbEntity
  8
Doc_ Finishes
  6
Continuous
100
AcDbLine
 10
95.96900637696557
 20
78.86117081412813
 30
0.0
 11
96.1078947010759
 21
78.85524926837904
 31
0.0
  0
LINE
  5
3F7
330
E3
100
AcDbEntity
  8
Doc_ Finishes
  6
Continuous
100
AcDbLine
 10
96.1078947010759
 20
78.85524926837904
 30
0.0
 11
96.24678302518625
 21
78.84543107327211
 31
0.0
  0
LINE
  5
3F8
330
E3
100
AcDbEntity
  8
Doc_ Finishes
  6
Continuous
100
AcDbLine
 10
96.24678302518625
 20
78.84543107327211
 30
0.0
 11
96.38567134929659
 21
78.83178854653555
 31
0.0
  0
LINE
  5
3F9
330
E3
100
AcDbEntity
  8
Doc_ Finishes
  6
Continuous
100
AcDbLine
 10
96.38567134929659
 20
78.83178854653555
 30
0.0
 11
96.52455967340693
 21
78.81442803776976
 31
0.0
  0
LINE
  5
3FA
330
E3
100
AcDbEntity
  8
Doc_ Finishes
  6
Continuous
100
AcDbLine
 10
96.52455967340693
 20
78.81442803776976
 30
0.0
 11
96.66344799751727
 21
78.79348142047921
 31
0.0
  0
LINE
  5
3FB
330
E3
100
AcDbEntity
  8
Doc_ Finishes
  6
Continuous
100
AcDbLine
 10
96.66344799751727
 20
78.79348142047921
 30
0.0
 11
96.80234057561161
 21
78.76910609207243
 31
0.0
  0
LINE
  5
3FC
330
E3
100
AcDbEntity
  8
Doc_ Finishes
  6
Continuous
100
AcDbLine
 10
96.80234057561161
 20
78.76910609207243
 30
0.0
 11
96.94122889972195
 21
78.74148922784616
 31
0.0
  0
LINE
  5
3FD
330
E3
100
AcDbEntity
  8
Doc_ Finishes
  6
Continuous
100
AcDbLine
 10
96.94122889972195
 20
78.74148922784616
 30
0.0
 11
97.08011722383229
 21
78.71084352700109
 31
0.0
  0
LINE
  5
3FE
330
E3
100
AcDbEntity
  8
Doc_ Finishes
  6
Continuous
100
AcDbLine
 10
97.08011722383229
 20
78.71084352700109
 30
0.0
 11
97.21900554794263
 21
78.67739870467403
 31
0.0
  0
LINE
  5
3FF
330
E3
100
AcDbEntity
  8
Doc_ Finishes
  6
Continuous
100
AcDbLine
 10
97.21900554794263
 20
78.67739870467403
 30
0.0
 11
97.35789387205297
 21
78.64140574592193
 31
0.0
  0
LINE
  5
400
330
E3
100
AcDbEntity
  8
Doc_ Finishes
  6
Continuous
100
AcDbLine
 10
97.35789387205297
 20
78.64140574592193
 30
0.0
 11
97.49678219616328
 21
78.60314966767376
 31
0.0
  0
LINE
  5
401
330
E3
100
AcDbEntity
  8
Doc_ Finishes
  6
Continuous
100
AcDbLine
 10
97.49678219616328
 20
78.60314966767376
 30
0.0
 11
97.63567052027362
 21
78.56291123287454
 31
0.0
  0
LINE
  5
402
330
E3
100
AcDbEntity
  8
Doc_ Finishes
  6
Continuous
100
AcDbLine
 10
97.63567052027362
 20
78.56291123287454
 30
0.0
 11
97.77455884438396
 21
78.52099672837336
 31
0.0
  0
LINE
  5
403
330
E3
100
AcDbEntity
  8
Doc_ Finishes
  6
Continuous
100
AcDbLine
 10
97.77455884438396
 20
78.52099672837336
 30
0.0
 11
97.91345142247833
 21
78.47773371093939
 31
0.0
  0
LINE
  5
404
330
E3
100
AcDbEntity
  8
Doc_ Finishes
  6
Continuous
100
AcDbLine
 10
97.91345142247833
 20
78.47773371093939
 30
0.0
 11
98.05233974658866
 21
78.43344548335774
 31
0.0
  0
LINE
  5
405
330
E3
100
AcDbEntity
  8
Doc_ Finishes
  6
Continuous
100
AcDbLine
 10
98.05233974658866
 20
78.43344548335774
 30
0.0
 11
98.191228070699
 21
78.38846811036565
 31
0.0
  0
LINE
  5
406
330
E3
100
AcDbEntity
  8
Doc_ Finishes
  6
Continuous
100
AcDbLine
 10
98.191228070699
 20
78.38846811036565
 30
0.0
 11
98.33011639480934
 21
78.34314616466835
 31
0.0
  0
LINE
  5
407
330
E3
100
AcDbEntity
  8
Doc_ Finishes
  6
Continuous
100
AcDbLine
 10
98.33011639480934
 20
78.34314616466835
 30
0.0
 11
98.46900471891968
 21
78.29782847295505
 31
0.0
  0
LINE
  5
408
330
E3
100
AcDbEntity
  8
Doc_ Finishes
  6
Continuous
100
AcDbLine
 10
98.46900471891968
 20
78.29782847295505
 30
0.0
 11
98.60789304303002
 21
78.25285109996297
 31
0.0
  0
LINE
  5
409
330
E3
100
AcDbEntity
  8
Doc_ Finishes
  6
Continuous
100
AcDbLine
 10
98.60789304303002
 20
78.25285109996297
 30
0.0
 11
98.74678136714036
 21
78.20856287238134
 31
0.0
  0
LINE
  5
40A
330
E3
100
AcDbEntity
  8
Doc_ Finishes
  6
Continuous
100
AcDbLine
 10
98.74678136714036
 20
78.20856287238134
 30
0.0
 11
98.8856739452347
 21
78.16529560096333
 31
0.0
  0
LINE
  5
40B
330
E3
100
AcDbEntity
  8
Doc_ Finishes
  6
Continuous
100
AcDbLine
 10
98.8856739452347
 20
78.16529560096333
 30
0.0
 11
99.02456226934504
 21
78.12338535044616
 31
0.0
  0
LINE
  5
40C
330
E3
100
AcDbEntity
  8
Doc_ Finishes
  6
Continuous
100
AcDbLine
 10
99.02456226934504
 20
78.12338535044616
 30
0.0
 11
99.16345059345538
 21
78.08314691564694
 31
0.0
  0
LINE
  5
40D
330
E3
100
AcDbEntity
  8
Doc_ Finishes
  6
Continuous
100
AcDbLine
 10
99.16345059345538
 20
78.08314691564694
 30
0.0
 11
99.30233891756572
 21
78.04488658341477
 31
0.0
  0
LINE
  5
40E
330
E3
100
AcDbEntity
  8
Doc_ Finishes
  6
Continuous
100
AcDbLine
 10
99.30233891756572
 20
78.04488658341477
 30
0.0
 11
99.44122724167606
 21
78.00889787864668
 31
0.0
  0
LINE
  5
40F
330
E3
100
AcDbEntity
  8
Doc_ Finishes
  6
Continuous
100
AcDbLine
 10
99.44122724167606
 20
78.00889787864668
 30
0.0
 11
99.5801155657864
 21
77.97545305631962
 31
0.0
  0
LINE
  5
410
330
E3
100
AcDbEntity
  8
Doc_ Finishes
  6
Continuous
100
AcDbLine
 10
90.83011711496296
 20
78.34314616466835
 30
0.0
 11
90.9690054390733
 21
78.29782847295505
 31
0.0
  0
LINE
  5
411
330
E3
100
AcDbEntity
  8
Doc_ Finishes
  6
Continuous
100
AcDbLine
 10
90.9690054390733
 20
78.29782847295505
 30
0.0
 11
91.10789376318364
 21
78.25285109996297
 31
0.0
  0
LINE
  5
412
330
E3
100
AcDbEntity
  8
Doc_ Finishes
  6
Continuous
100
AcDbLine
 10
91.10789376318364
 20
78.25285109996297
 30
0.0
 11
91.24678208729398
 21
78.20856287238134
 31
0.0
  0
LINE
  5
413
330
E3
100
AcDbEntity
  8
Doc_ Finishes
  6
Continuous
100
AcDbLine
 10
91.24678208729398
 20
78.20856287238134
 30
0.0
 11
91.38567041140432
 21
78.16529560096333
 31
0.0
  0
LINE
  5
414
330
E3
100
AcDbEntity
  8
Doc_ Finishes
  6
Continuous
100
AcDbLine
 10
91.38567041140432
 20
78.16529560096333
 30
0.0
 11
91.52456298949866
 21
78.12338535044616
 31
0.0
  0
LINE
  5
415
330
E3
100
AcDbEntity
  8
Doc_ Finishes
  6
Continuous
100
AcDbLine
 10
91.52456298949866
 20
78.12338535044616
 30
0.0
 11
91.663451313609
 21
78.08314691564694
 31
0.0
  0
LINE
  5
416
330
E3
100
AcDbEntity
  8
Doc_ Finishes
  6
Continuous
100
AcDbLine
 10
91.663451313609
 20
78.08314691564694
 30
0.0
 11
91.80233963771934
 21
78.04488658341477
 31
0.0
  0
LINE
  5
417
330
E3
100
AcDbEntity
  8
Doc_ Finishes
  6
Continuous
100
AcDbLine
 10
91.80233963771934
 20
78.04488658341477
 30
0.0
 11
91.94122796182968
 21
78.00889787864668
 31
0.0
  0
LINE
  5
418
330
E3
100
AcDbEntity
  8
Doc_ Finishes
  6
Continuous
100
AcDbLine
 10
91.94122796182968
 20
78.00889787864668
 30
0.0
 11
92.08011628594002
 21
77.97545305631962
 31
0.0
  0
LINE
  5
419
330
E3
100
AcDbEntity
  8
Doc_ Finishes
  6
Continuous
100
AcDbLine
 10
92.08011628594002
 20
77.97545305631962
 30
0.0
 11
92.21900461005036
 21
77.94480310149055
 31
0.0
  0
LINE
  5
41A
330
E3
100
AcDbEntity
  8
Doc_ Finishes
  6
Continuous
100
AcDbLine
 10
92.21900461005036
 20
77.94480310149055
 30
0.0
 11
92.3578929341607
 21
77.91719049124826
 31
0.0
  0
LINE
  5
41B
330
E3
100
AcDbEntity
  8
Doc_ Finishes
  6
Continuous
100
AcDbLine
 10
92.3578929341607
 20
77.91719049124826
 30
0.0
 11
92.49678125827104
 21
77.89281516284152
 31
0.0
  0
LINE
  5
41C
330
E3
100
AcDbEntity
  8
Doc_ Finishes
  6
Continuous
100
AcDbLine
 10
92.49678125827104
 20
77.89281516284152
 30
0.0
 11
92.6356738363654
 21
77.87186854555095
 31
0.0
  0
LINE
  5
41D
330
E3
100
AcDbEntity
  8
Doc_ Finishes
  6
Continuous
100
AcDbLine
 10
92.6356738363654
 20
77.87186854555095
 30
0.0
 11
92.77456216047572
 21
77.85450803678515
 31
0.0
  0
LINE
  5
41E
330
E3
100
AcDbEntity
  8
Doc_ Finishes
  6
Continuous
100
AcDbLine
 10
92.77456216047572
 20
77.85450803678515
 30
0.0
 11
92.91345048458606
 21
77.8408655100486
 31
0.0
  0
LINE
  5
41F
330
E3
100
AcDbEntity
  8
Doc_ Finishes
  6
Continuous
100
AcDbLine
 10
92.91345048458606
 20
77.8408655100486
 30
0.0
 11
93.0523388086964
 21
77.83104731494166
 31
0.0
  0
LINE
  5
420
330
E3
100
AcDbEntity
  8
Doc_ Finishes
  6
Continuous
100
AcDbLine
 10
93.0523388086964
 20
77.83104731494166
 30
0.0
 11
93.19122713280674
 21
77.82512576919258
 31
0.0
  0
LINE
  5
421
330
E3
100
AcDbEntity
  8
Doc_ Finishes
  6
Continuous
100
AcDbLine
 10
93.19122713280674
 20
77.82512576919258
 30
0.0
 11
93.33011545691708
 21
77.82314766662554
 31
0.0
  0
LINE
  5
422
330
E3
100
AcDbEntity
  8
Doc_ Finishes
  6
Continuous
100
AcDbLine
 10
93.33011545691708
 20
77.82314766662554
 30
0.0
 11
93.46900378102742
 21
77.82512576919258
 31
0.0
  0
LINE
  5
423
330
E3
100
AcDbEntity
  8
Doc_ Finishes
  6
Continuous
100
AcDbLine
 10
98.33011639480934
 20
78.86314891669515
 30
0.0
 11
98.46900471891968
 21
78.86117081412813
 31
0.0
  0
LINE
  5
424
330
E3
100
AcDbEntity
  8
Doc_ Finishes
  6
Continuous
100
AcDbLine
 10
98.46900471891968
 20
78.86117081412813
 30
0.0
 11
98.60789304303002
 21
78.85524926837904
 31
0.0
  0
LINE
  5
425
330
E3
100
AcDbEntity
  8
Doc_ Finishes
  6
Continuous
100
AcDbLine
 10
98.60789304303002
 20
78.85524926837904
 30
0.0
 11
98.74678136714036
 21
78.84543107327211
 31
0.0
  0
LINE
  5
426
330
E3
100
AcDbEntity
  8
Doc_ Finishes
  6
Continuous
100
AcDbLine
 10
98.74678136714036
 20
78.84543107327211
 30
0.0
 11
98.8856739452347
 21
78.83178854653555
 31
0.0
  0
LINE
  5
427
330
E3
100
AcDbEntity
  8
Doc_ Finishes
  6
Continuous
100
AcDbLine
 10
98.8856739452347
 20
78.83178854653555
 30
0.0
 11
99.02456226934504
 21
78.81442803776976
 31
0.0
  0
LINE
  5
428
330
E3
100
AcDbEntity
  8
Doc_ Finishes
  6
Continuous
100
AcDbLine
 10
99.02456226934504
 20
78.81442803776976
 30
0.0
 11
99.16345059345538
 21
78.79348142047921
 31
0.0
  0
LINE
  5
429
330
E3
100
AcDbEntity
  8
Doc_ Finishes
  6
Continuous
100
AcDbLine
 10
99.16345059345538
 20
78.79348142047921
 30
0.0
 11
99.30233891756572
 21
78.76910609207243
 31
0.0
  0
LINE
  5
42A
330
E3
100
AcDbEntity
  8
Doc_ Finishes
  6
Continuous
100
AcDbLine
 10
99.30233891756572
 20
78.76910609207243
 30
0.0
 11
99.44122724167606
 21
78.74148922784616
 31
0.0
  0
LINE
  5
42B
330
E3
100
AcDbEntity
  8
Doc_ Finishes
  6
Continuous
100
AcDbLine
 10
99.44122724167606
 20
78.74148922784616
 30
0.0
 11
99.5801155657864
 21
78.71084352700109
 31
0.0
  0
HATCH
  5
42C
330
E3
100
AcDbEntity
  8
Doc_ Finishes
  6
Continuous
 62
   255
370
     0
100
AcDbHatch
 10
0.0
 20
0.0
 30
0.0
210
0.0
220
0.0
230
1.0
  2
SOLID
 70
     1
 71
     0
 91
        1
 92
        3
 72
     0
 73
     1
 93
        6
 10
140.1581167509479
 20
167.8060500055997
 10
139.5581167509479
 20
167.8060500055997
 10
139.5581167509479
 20
165.1033277228449
 10
139.5901167509479
 20
165.0713277228448
 10
140.1261167509479
 20
165.0713277228448
 10
140.1581167509479
 20
165.1033277228449
 97
        0
 75
     0
 76
     1
 98
        0
  0
LINE
  5
42D
330
E3
100
AcDbEntity
  8
Doc_ Finishes
  6
Continuous
100
AcDbLine
 10
139.5581172096142
 20
167.8060507709933
 30
0.0
 11
140.1581161310457
 21
167.8060507709933
 31
0.0
  0
LINE
  5
42E
330
E3
100
AcDbEntity
  8
Doc_ Finishes
  6
Continuous
100
AcDbLine
 10
139.5581172096142
 20
165.1033288207977
 30
0.0
 11
139.5581172096142
 21
167.8060507709933
 31
0.0
  0
LINE
  5
42F
330
E3
100
AcDbEntity
  8
Doc_ Finishes
  6
Continuous
100
AcDbLine
 10
139.590115677376
 20
165.0713260990517
 30
0.0
 11
139.5581172096142
 21
165.1033288207977
 31
0.0
  0
LINE
  5
430
330
E3
100
AcDbEntity
  8
Doc_ Finishes
  6
Continuous
100
AcDbLine
 10
140.1261176632838
 20
165.0713260990517
 30
0.0
 11
139.590115677376
 21
165.0713260990517
 31
0.0
  0
LINE
  5
431
330
E3
100
AcDbEntity
  8
Doc_ Finishes
  6
Continuous
100
AcDbLine
 10
140.1581161310457
 20
165.1033288207977
 30
0.0
 11
140.1261176632838
 21
165.0713260990517
 31
0.0
  0
LINE
  5
432
330
E3
100
AcDbEntity
  8
Doc_ Finishes
  6
Continuous
100
AcDbLine
 10
140.1581161310457
 20
167.8060507709933
 30
0.0
 11
140.1581161310457
 21
165.1033288207977
 31
0.0
  0
LINE
  5
433
330
E3
100
AcDbEntity
  8
Doc_ Finishes
  6
Continuous
100
AcDbLine
 10
140.1581161310457
 20
165.1033288207977
 30
0.0
 11
139.5581172096142
 21
165.1033288207977
 31
0.0
  0
LINE
  5
434
330
E3
100
AcDbEntity
  8
Doc_ Finishes
  6
Continuous
100
AcDbLine
 10
140.1581161310457
 20
167.8060507709933
 30
0.0
 11
139.5581172096142
 21
167.8060507709933
 31
0.0
  0
LINE
  5
435
330
E3
100
AcDbEntity
  8
Doc_ Finishes
  6
Continuous
100
AcDbLine
 10
140.1261176632838
 20
167.7740480492474
 30
0.0
 11
139.590115677376
 21
167.7740480492474
 31
0.0
  0
LINE
  5
436
330
E3
100
AcDbEntity
  8
Doc_ Finishes
  6
Continuous
100
AcDbLine
 10
140.1261176632838
 20
167.7740480492474
 30
0.0
 11
140.1581161310457
 21
167.8060507709933
 31
0.0
  0
LINE
  5
437
330
E3
100
AcDbEntity
  8
Doc_ Finishes
  6
Continuous
100
AcDbLine
 10
139.590115677376
 20
167.7740480492474
 30
0.0
 11
139.5581172096142
 21
167.8060507709933
 31
0.0
  0
LINE
  5
438
330
E3
100
AcDbEntity
  8
Doc_ Finishes
  6
Continuous
100
AcDbLine
 10
140.1261176632838
 20
167.7740480492474
 30
0.0
 11
140.1261176632838
 21
165.0713260990517
 31
0.0
  0
LINE
  5
439
330
E3
100
AcDbEntity
  8
Doc_ Finishes
  6
Continuous
100
AcDbLine
 10
139.590115677376
 20
167.7740480492474
 30
0.0
 11
139.590115677376
 21
165.0713260990517
 31
0.0
  0
HATCH
  5
43A
330
E3
100
AcDbEntity
  8
Doc_ Finishes
  6
Continuous
 62
   255
370
     0
100
AcDbHatch
 10
0.0
 20
0.0
 30
0.0
210
0.0
220
0.0
230
1.0
  2
SOLID
 70
     1
 71
     0
 91
        1
 92
        3
 72
     0
 73
     1
 93
        4
 10
139.4684053192449
 20
168.1810500055997
 10
139.4684053192449
 20
167.8060500055997
 10
140.2478281826509
 20
167.8060500055997
 10
140.2478281826509
 20
168.1810500055997
 97
        0
 75
     0
 76
     1
 98
        0
  0
HATCH
  5
43B
330
E3
100
AcDbEntity
  8
Doc_ Finishes
  6
Continuous
 62
   255
370
     0
100
AcDbHatch
 10
0.0
 20
0.0
 30
0.0
210
0.0
220
0.0
230
1.0
  2
SOLID
 70
     1
 71
     0
 91
        1
 92
        3
 72
     1
 73
     1
 93
        4
 10
139.5983091298126
 20
168.1185500055997
 42
0.0
 10
139.5983091298126
 20
167.8060500055997
 42
0.0
 10
140.1179243720833
 20
167.8060500055997
 42
0.0
 10
140.1179243720833
 20
168.1185500055997
 42
0.2405626121623441
 97
        0
 75
     0
 76
     1
 98
        0
  0
LINE
  5
43C
330
E3
100
AcDbEntity
  8
Doc_ Finishes
  6
Continuous
100
AcDbLine
 10
139.5983088505892
 20
167.8060507709933
 30
0.0
 11
139.5983088505892
 21
168.1185484367456
 31
0.0
  0
LINE
  5
43D
330
E3
100
AcDbEntity
  8
Doc_ Finishes
  6
Continuous
100
AcDbLine
 10
140.1179244900707
 20
167.8060507709933
 30
0.0
 11
139.5983088505892
 21
167.8060507709933
 31
0.0
  0
LINE
  5
43E
330
E3
100
AcDbEntity
  8
Doc_ Finishes
  6
Continuous
100
AcDbLine
 10
140.1179244900707
 20
168.1185484367456
 30
0.0
 11
140.1179244900707
 21
167.8060507709933
 31
0.0
  0
ARC
  5
43F
330
E3
100
AcDbEntity
  8
Doc_ Finishes
  6
Continuous
100
AcDbCircle
 10
139.8581167509479
 20
167.6098000055997
 30
0.0
 40
0.5712500000000051
100
AcDbArc
 50
62.94758187956817
 51
117.0524181204318
  0
HATCH
  5
440
330
E3
100
AcDbEntity
  8
Doc_ Finishes
  6
Continuous
 62
   255
370
     0
100
AcDbHatch
 10
0.0
 20
0.0
 30
0.0
210
0.0
220
0.0
230
1.0
  2
SOLID
 70
     1
 71
     0
 91
        1
 92
        3
 72
     1
 73
     1
 93
        4
 10
139.3385015086772
 20
168.1185500055997
 42
0.0
 10
139.3385015086772
 20
167.8060500055997
 42
0.0
 10
139.5983091298126
 20
167.8060500055997
 42
0.0
 10
139.5983091298126
 20
168.1185500055997
 42
0.4811252243246882
 97
        0
 75
     0
 76
     1
 98
        0
  0
LINE
  5
441
330
E3
100
AcDbEntity
  8
Doc_ Finishes
  6
Continuous
100
AcDbLine
 10
139.3385010308485
 20
167.8060507709933
 30
0.0
 11
139.3385010308485
 21
168.1185484367456
 31
0.0
  0
LINE
  5
442
330
E3
100
AcDbEntity
  8
Doc_ Finishes
  6
Continuous
100
AcDbLine
 10
139.5983088505892
 20
167.8060507709933
 30
0.0
 11
139.3385010308485
 21
167.8060507709933
 31
0.0
  0
LINE
  5
443
330
E3
100
AcDbEntity
  8
Doc_ Finishes
  6
Continuous
100
AcDbLine
 10
139.5983088505892
 20
168.1185484367456
 30
0.0
 11
139.5983088505892
 21
167.8060507709933
 31
0.0
  0
ARC
  5
444
330
E3
100
AcDbEntity
  8
Doc_ Finishes
  6
Continuous
100
AcDbCircle
 10
139.4684053192449
 20
168.0148000055997
 30
0.0
 40
0.166249999999983
100
AcDbArc
 50
38.61323819100132
 51
141.3867618090047
  0
HATCH
  5
445
330
E3
100
AcDbEntity
  8
Doc_ Finishes
  6
Continuous
 62
   255
370
     0
100
AcDbHatch
 10
0.0
 20
0.0
 30
0.0
210
0.0
220
0.0
230
1.0
  2
SOLID
 70
     1
 71
     0
 91
        1
 92
        3
 72
     1
 73
     1
 93
        4
 10
140.3777319932186
 20
168.1185500055997
 42
0.4811252243246882
 10
140.1179243720833
 20
168.1185500055997
 42
0.0
 10
140.1179243720833
 20
167.8060500055997
 42
0.0
 10
140.3777319932186
 20
167.8060500055997
 42
0.0
 97
        0
 75
     0
 76
     1
 98
        0
  0
ARC
  5
446
330
E3
100
AcDbEntity
  8
Doc_ Finishes
  6
Continuous
100
AcDbCircle
 10
140.2478281826509
 20
168.0148000055997
 30
0.0
 40
0.166249999999983
100
AcDbArc
 50
38.61323819100132
 51
141.3867618089987
  0
LINE
  5
447
330
E3
100
AcDbEntity
  8
Doc_ Finishes
  6
Continuous
100
AcDbLine
 10
140.1179244900707
 20
168.1185484367456
 30
0.0
 11
140.1179244900707
 21
167.8060507709933
 31
0.0
  0
LINE
  5
448
330
E3
100
AcDbEntity
  8
Doc_ Finishes
  6
Continuous
100
AcDbLine
 10
140.1179244900707
 20
167.8060507709933
 30
0.0
 11
140.3777323098114
 21
167.8060507709933
 31
0.0
  0
LINE
  5
449
330
E3
100
AcDbEntity
  8
Doc_ Finishes
  6
Continuous
100
AcDbLine
 10
140.3777323098114
 20
167.8060507709933
 30
0.0
 11
140.3777323098114
 21
168.1185484367456
 31
0.0
  0
HATCH
  5
44A
330
E3
100
AcDbEntity
  8
Doc_ Finishes
  6
Continuous
 62
   255
370
     0
100
AcDbHatch
 10
0.0
 20
0.0
 30
0.0
210
0.0
220
0.0
230
1.0
  2
SOLID
 70
     1
 71
     0
 91
        1
 92
        3
 72
     0
 73
     1
 93
        4
 10
139.4684053192449
 20
166.2998702842928
 10
139.4684053192449
 20
165.7798702842929
 10
140.2478281826509
 20
165.7798702842929
 10
140.2478281826509
 20
166.2998702842928
 97
        0
 75
     0
 76
     1
 98
        0
  0
HATCH
  5
44B
330
E3
100
AcDbEntity
  8
Doc_ Finishes
  6
Continuous
 62
   255
370
     0
100
AcDbHatch
 10
0.0
 20
0.0
 30
0.0
210
0.0
220
0.0
230
1.0
  2
SOLID
 70
     1
 71
     0
 91
        1
 92
        3
 72
     1
 73
     1
 93
        4
 10
139.5983091298126
 20
166.2132036176261
 42
0.0
 10
139.5983091298126
 20
165.8665369509595
 42
0.3335801555317839
 10
140.1179243720833
 20
165.8665369509595
 42
0.0
 10
140.1179243720833
 20
166.2132036176261
 42
0.3335801555317839
 97
        0
 75
     0
 76
     1
 98
        0
  0
LINE
  5
44C
330
E3
100
AcDbEntity
  8
Doc_ Finishes
  6
Continuous
100
AcDbLine
 10
139.5983088505892
 20
165.8665360929541
 30
0.0
 11
139.5983088505892
 21
166.2132017583159
 31
0.0
  0
ARC
  5
44D
330
E3
100
AcDbEntity
  8
Doc_ Finishes
  6
Continuous
100
AcDbCircle
 10
139.8581167509479
 20
166.2126266945493
 30
0.0
 40
0.4327564102564108
100
AcDbArc
 50
233.1046488728483
 51
306.8953511271516
  0
LINE
  5
44E
330
E3
100
AcDbEntity
  8
Doc_ Finishes
  6
Continuous
100
AcDbLine
 10
140.1179244900707
 20
166.2132017583159
 30
0.0
 11
140.1179244900707
 21
165.8665360929541
 31
0.0
  0
ARC
  5
44F
330
E3
100
AcDbEntity
  8
Doc_ Finishes
  6
Continuous
100
AcDbCircle
 10
139.8581167509479
 20
165.8671138740364
 30
0.0
 40
0.4327564102564108
100
AcDbArc
 50
53.10464887284839
 51
126.8953511271516
  0
HATCH
  5
450
330
E3
100
AcDbEntity
  8
Doc_ Finishes
  6
Continuous
 62
   255
370
     0
100
AcDbHatch
 10
0.0
 20
0.0
 30
0.0
210
0.0
220
0.0
230
1.0
  2
SOLID
 70
     1
 71
     0
 91
        1
 92
        3
 72
     1
 73
     1
 93
        4
 10
139.3385015086772
 20
166.2132036176261
 42
0.0
 10
139.3385015086772
 20
165.8665369509595
 42
0.6671603110635675
 10
139.5983091298126
 20
165.8665369509595
 42
0.0
 10
139.5983091298126
 20
166.2132036176261
 42
0.6671603110635675
 97
        0
 75
     0
 76
     1
 98
        0
  0
LINE
  5
451
330
E3
100
AcDbEntity
  8
Doc_ Finishes
  6
Continuous
100
AcDbLine
 10
139.3385010308485
 20
165.8665360929541
 30
0.0
 11
139.3385010308485
 21
166.2132017583159
 31
0.0
  0
ARC
  5
452
330
E3
100
AcDbEntity
  8
Doc_ Finishes
  6
Continuous
100
AcDbCircle
 10
139.4684053192449
 20
165.920559386857
 30
0.0
 40
0.1406891025641216
100
AcDbArc
 50
202.5807117678016
 51
337.419288232194
  0
LINE
  5
453
330
E3
100
AcDbEntity
  8
Doc_ Finishes
  6
Continuous
100
AcDbLine
 10
139.5983088505892
 20
166.2132017583159
 30
0.0
 11
139.5983088505892
 21
165.8665360929541
 31
0.0
  0
ARC
  5
454
330
E3
100
AcDbEntity
  8
Doc_ Finishes
  6
Continuous
100
AcDbCircle
 10
139.4684053192449
 20
166.1591811817287
 30
0.0
 40
0.140689102564096
100
AcDbArc
 50
22.58071176780594
 51
157.4192882321984
  0
HATCH
  5
455
330
E3
100
AcDbEntity
  8
Doc_ Finishes
  6
Continuous
 62
   255
370
     0
100
AcDbHatch
 10
0.0
 20
0.0
 30
0.0
210
0.0
220
0.0
230
1.0
  2
SOLID
 70
     1
 71
     0
 91
        1
 92
        3
 72
     1
 73
     1
 93
        4
 10
140.3777319932186
 20
166.2132036176261
 42
0.6671603110635675
 10
140.1179243720833
 20
166.2132036176261
 42
0.0
 10
140.1179243720833
 20
165.8665369509595
 42
0.6671603110635675
 10
140.3777319932186
 20
165.8665369509595
 42
0.0
 97
        0
 75
     0
 76
     1
 98
        0
  0
ARC
  5
456
330
E3
100
AcDbEntity
  8
Doc_ Finishes
  6
Continuous
100
AcDbCircle
 10
140.2478281826509
 20
166.1591811817287
 30
0.0
 40
0.140689102564096
100
AcDbArc
 50
22.58071176780594
 51
157.419288232194
  0
LINE
  5
457
330
E3
100
AcDbEntity
  8
Doc_ Finishes
  6
Continuous
100
AcDbLine
 10
140.1179244900707
 20
166.2132017583159
 30
0.0
 11
140.1179244900707
 21
165.8665360929541
 31
0.0
  0
ARC
  5
458
330
E3
100
AcDbEntity
  8
Doc_ Finishes
  6
Continuous
100
AcDbCircle
 10
140.2478281826509
 20
165.920559386857
 30
0.0
 40
0.140689102564096
100
AcDbArc
 50
202.5807117678059
 51
337.419288232194
  0
LINE
  5
459
330
E3
100
AcDbEntity
  8
Doc_ Finishes
  6
Continuous
100
AcDbLine
 10
140.3777323098114
 20
165.8665360929541
 30
0.0
 11
140.3777323098114
 21
166.2132017583159
 31
0.0
  0
HATCH
  5
45A
330
E3
100
AcDbEntity
  8
Doc_ Finishes
  6
Continuous
 62
   255
370
     0
100
AcDbHatch
 10
0.0
 20
0.0
 30
0.0
210
0.0
220
0.0
230
1.0
  2
SOLID
 70
     1
 71
     0
 91
        1
 92
        3
 72
     0
 73
     1
 93
        4
 10
140.4831167509479
 20
167.4060500055997
 10
140.4831167509479
 20
167.8060500055997
 10
139.2331167509479
 20
167.8060500055997
 10
139.2331167509479
 20
167.4060500055997
 97
        0
 75
     0
 76
     1
 98
        0
  0
LINE
  5
45B
330
E3
100
AcDbEntity
  8
Doc_ Finishes
  6
Continuous
100
AcDbLine
 10
140.4831162558185
 20
167.8060507709933
 30
0.0
 11
140.4831162558185
 21
167.4060486540496
 31
0.0
  0
LINE
  5
45C
330
E3
100
AcDbEntity
  8
Doc_ Finishes
  6
Continuous
100
AcDbLine
 10
139.2331170848414
 20
167.8060507709933
 30
0.0
 11
140.4831162558185
 21
167.8060507709933
 31
0.0
  0
LINE
  5
45D
330
E3
100
AcDbEntity
  8
Doc_ Finishes
  6
Continuous
100
AcDbLine
 10
139.2331170848414
 20
167.4060486540496
 30
0.0
 11
139.2331170848414
 21
167.8060507709933
 31
0.0
  0
LINE
  5
45E
330
E3
100
AcDbEntity
  8
Doc_ Finishes
  6
Continuous
100
AcDbLine
 10
140.4831162558185
 20
167.4060486540496
 30
0.0
 11
139.2331170848414
 21
167.4060486540496
 31
0.0
  0
HATCH
  5
45F
330
E3
100
AcDbEntity
  8
Doc_ Finishes
  6
Continuous
 62
   255
370
     0
100
AcDbHatch
 10
0.0
 20
0.0
 30
0.0
210
0.0
220
0.0
230
1.0
  2
SOLID
 70
     1
 71
     0
 91
        1
 92
        3
 72
     0
 73
     1
 93
        4
 10
140.4831167509479
 20
166.6998702842928
 10
139.2331167509479
 20
166.6998702842928
 10
139.2331167509479
 20
166.2998702842928
 10
140.4831167509479
 20
166.2998702842928
 97
        0
 75
     0
 76
     1
 98
        0
  0
LINE
  5
460
330
E3
100
AcDbEntity
  8
Doc_ Finishes
  6
Continuous
100
AcDbLine
 10
139.2331170848414
 20
166.6998702916001
 30
0.0
 11
140.4831162558185
 21
166.6998702916001
 31
0.0
  0
LINE
  5
461
330
E3
100
AcDbEntity
  8
Doc_ Finishes
  6
Continuous
100
AcDbLine
 10
139.2331170848414
 20
166.2998681746564
 30
0.0
 11
139.2331170848414
 21
166.6998702916001
 31
0.0
  0
LINE
  5
462
330
E3
100
AcDbEntity
  8
Doc_ Finishes
  6
Continuous
100
AcDbLine
 10
140.4831162558185
 20
166.2998681746564
 30
0.0
 11
139.2331170848414
 21
166.2998681746564
 31
0.0
  0
LINE
  5
463
330
E3
100
AcDbEntity
  8
Doc_ Finishes
  6
Continuous
100
AcDbLine
 10
140.4831162558185
 20
166.6998702916001
 30
0.0
 11
140.4831162558185
 21
166.2998681746564
 31
0.0
  0
LINE
  5
464
330
E3
100
AcDbEntity
  8
Doc_ Finishes
  6
Continuous
100
AcDbLine
 10
139.4684049407188
 20
168.181047969896
 30
0.0
 11
140.247828399941
 21
168.181047969896
 31
0.0
  0
LINE
  5
465
330
E3
100
AcDbEntity
  8
Doc_ Finishes
  6
Continuous
100
AcDbLine
 10
140.247828399941
 20
167.8060507709933
 30
0.0
 11
139.4684049407188
 21
167.8060507709933
 31
0.0
  0
LINE
  5
466
330
E3
100
AcDbEntity
  8
Doc_ Finishes
  6
Continuous
100
AcDbLine
 10
139.4684049407188
 20
166.2998681746564
 30
0.0
 11
140.247828399941
 21
166.2998681746564
 31
0.0
  0
LINE
  5
467
330
E3
100
AcDbEntity
  8
Doc_ Finishes
  6
Continuous
100
AcDbLine
 10
140.247828399941
 20
165.7798696766136
 30
0.0
 11
139.4684049407188
 21
165.7798696766136
 31
0.0
  0
LINE
  5
468
330
E3
100
AcDbEntity
  8
Doc_ Finishes
  6
Dot & Dashed
100
AcDbLine
 10
139.8581166703299
 20
168.306051290181
 30
0.0
 11
139.8581166703299
 21
164.3713287753763
 31
0.0
  0
LINE
  5
469
330
E3
100
AcDbEntity
  8
Des_ Furniture
  6
Hidden Line
100
AcDbLine
 10
92.6390472456894
 20
158.8524967291019
 30
0.0
 11
92.6390472456894
 21
33.29637547540014
 31
0.0
  0
LINE
  5
46A
330
E3
100
AcDbEntity
  8
Des_ Furniture
  6
Continuous
 62
   251
370
    18
100
AcDbLine
 10
91.43011603639451
 20
157.7838448966903
 30
0.0
 11
91.43011603639451
 21
33.29637547540014
 31
0.0
  0
LINE
  5
46B
330
E3
100
AcDbEntity
  8
Des_ Furniture
  6
Continuous
 62
   251
370
    18
100
AcDbLine
 10
83.4301162373605
 20
161.2522159058671
 30
0.0
 11
83.4301162373605
 21
33.29637547540014
 31
0.0
  0
LINE
  5
46C
330
E3
100
AcDbEntity
  8
Des_ Furniture
  6
Continuous
 62
   251
370
    18
100
AcDbLine
 10
136.3750609083329
 20
114.2957643863608
 30
0.0
 11
186.7750511342791
 21
114.2957643863608
 31
0.0
  0
LWPOLYLINE
  5
46D
330
E3
100
AcDbEntity
  8
Des_ Furniture
  6
Continuous
100
AcDbPolyline
 90
        8
 70
   128
 43
0.0
 10
145.849551965128
 20
161.0796027705179
 10
142.522929830315
 20
167.1971384509922
 42
0.274804417378683
 10
142.1715252116236
 20
167.4060500055997
 10
82.7380308402905
 20
167.4060500055997
 42
0.414213562373095
 10
82.33803084029051
 20
167.0060500055997
 10
82.33803084029051
 20
138.6973241792919
 42
0.2699274182076638
 10
82.54059248568821
 20
138.349447626285
 10
89.88984002454612
 20
134.1783607016413
  0
LWPOLYLINE
  5
46E
330
E3
100
AcDbEntity
  8
Des_ Furniture
  6
Continuous
 62
   251
370
    18
100
AcDbPolyline
 90
        2
 70
   128
 43
0.0
 10
83.43011649533659
 20
161.2522158237931
 10
87.43011649533558
 20
161.2522158237931
  0
LWPOLYLINE
  5
46F
330
E3
100
AcDbEntity
  8
Des_ Furniture
  6
Continuous
 62
   251
370
    18
100
AcDbPolyline
 90
        2
 70
   128
 43
0.0
 10
91.43011649533659
 20
157.7838447147624
 42
0.320695208135388
 10
87.43011649533659
 20
161.2522158237931
  0
LWPOLYLINE
  5
470
330
E3
100
AcDbEntity
  8
Des_ Furniture
  6
Continuous
 62
   251
370
    18
100
AcDbPolyline
 90
        2
 70
   128
 43
0.0
 10
91.43011649533659
 20
157.7838447147624
 10
83.43011649533659
 20
161.2522158237931
  0
LWPOLYLINE
  5
471
330
E3
100
AcDbEntity
  8
Des_ Furniture
  6
Continuous
 62
   251
370
    18
100
AcDbPolyline
 90
        4
 70
   128
 43
0.0
 10
136.3750594845698
 20
85.78802148652042
 10
95.36418564175952
 20
85.78802148652042
 10
95.36418564175952
 20
87.78802148652044
 10
136.3750594845698
 20
87.78802148652044
  0
LINE
  5
472
330
E3
100
AcDbEntity
  8
Doc_ Floor
  6
Continuous
100
AcDbLine
 10
148.4947507011339
 20
159.101603981004
 30
0.0
 11
148.4947507011339
 21
160.0796034140529
 31
0.0
  0
LINE
  5
473
330
E3
100
AcDbEntity
  8
Doc_ Floor
  6
Continuous
100
AcDbLine
 10
148.4947507011339
 20
160.0796034140529
 30
0.0
 11
148.4947507011339
 21
161.0796044524282
 31
0.0
  0
LINE
  5
474
330
E3
100
AcDbEntity
  8
Doc_ Floor
  6
Continuous
100
AcDbLine
 10
149.4947517395091
 20
159.502252703518
 30
0.0
 11
147.4947539167426
 21
160.6569541245879
 31
0.0
  0
LINE
  5
475
330
E3
100
AcDbEntity
  8
Doc_ Floor
  6
Continuous
100
AcDbLine
 10
147.4947539167426
 20
161.6569509089791
 30
0.0
 11
149.4947517395091
 21
160.5022537418932
 31
0.0
  0
LINE
  5
476
330
E3
100
AcDbEntity
  8
Doc_ Floor
  6
Continuous
100
AcDbLine
 10
148.4947507011339
 20
161.0796044524282
 30
0.0
 11
148.4947507011339
 21
162.0576038854771
 31
0.0
  0
LINE
  5
477
330
E3
100
AcDbEntity
  8
Doc_ Floor
  6
Continuous
100
AcDbLine
 10
149.9947522586968
 20
160.0796034140529
 30
0.0
 11
146.4947528783674
 21
160.0796034140529
 31
0.0
  0
LINE
  5
478
330
E3
100
AcDbEntity
  8
Doc_ Floor
  6
Continuous
100
AcDbLine
 10
149.9947522586968
 20
161.0796044524282
 30
0.0
 11
146.4947528783674
 21
161.0796044524282
 31
0.0
  0
MTEXT
  5
47A
330
E3
100
AcDbEntity
  8
Doc_ Floor
  6
Continuous
100
AcDbMText
 10
151.9201040086654
 20
160.2669587821035
 30
0.0
 40
2.5
 41
0.0
 71
     7
 72
     1
  1
{5}
  7
GENERATED_STYLE_3
 11
6.123233995736766E-17
 21
1.0
 31
0.0
 73
     1
 44
1.0
  0
LINE
  5
47B
330
E3
100
AcDbEntity
  8
Doc_ Floor
  6
Continuous
100
AcDbLine
 10
74.9056257331637
 20
137.7193234255071
 30
0.0
 11
74.9056257331637
 21
138.697322858556
 31
0.0
  0
LINE
  5
47C
330
E3
100
AcDbEntity
  8
Doc_ Floor
  6
Continuous
100
AcDbLine
 10
74.9056257331637
 20
138.697322858556
 30
0.0
 11
74.9056257331637
 21
161.2522141078266
 31
0.0
  0
LINE
  5
47D
330
E3
100
AcDbEntity
  8
Doc_ Floor
  6
Continuous
100
AcDbLine
 10
73.90562469478844
 20
139.274673569091
 30
0.0
 11
75.90562251755493
 21
138.1199721480211
 31
0.0
  0
LINE
  5
47E
330
E3
100
AcDbEntity
  8
Doc_ Floor
  6
Continuous
100
AcDbLine
 10
75.90562251755493
 20
160.6748676512756
 30
0.0
 11
73.90562469478844
 21
161.8295648183615
 31
0.0
  0
LINE
  5
47F
330
E3
100
AcDbEntity
  8
Doc_ Floor
  6
Continuous
100
AcDbLine
 10
74.9056257331637
 20
161.2522141078266
 30
0.0
 11
74.9056257331637
 21
162.2302177948595
 31
0.0
  0
LINE
  5
480
330
E3
100
AcDbEntity
  8
Doc_ Floor
  6
Continuous
100
AcDbLine
 10
76.90562355593019
 20
138.697322858556
 30
0.0
 11
73.40562417560082
 21
138.697322858556
 31
0.0
  0
LINE
  5
481
330
E3
100
AcDbEntity
  8
Doc_ Floor
  6
Continuous
100
AcDbLine
 10
76.90562355593019
 20
161.2522141078266
 30
0.0
 11
73.40562417560082
 21
161.2522141078266
 31
0.0
  0
MTEXT
  5
482
330
E3
100
AcDbEntity
  8
Doc_ Floor
  6
Continuous
100
AcDbMText
 10
72.06406256354683
 20
149.0754399902622
 30
0.0
 40
2.5
 41
0.0
 71
     7
 72
     1
  1
{Z}
  7
GENERATED_STYLE_3
 73
     1
 44
1.0
  0
LINE
  5
483
330
E3
100
AcDbEntity
  8
Doc_ Floor
  6
Continuous
100
AcDbLine
 10
139.4095042780452
 20
173.8009224425386
 30
0.0
 11
138.5851332237191
 21
173.2747131278336
 31
0.0
  0
LINE
  5
484
330
E3
100
AcDbEntity
  8
Doc_ Floor
  6
Continuous
100
AcDbLine
 10
138.5851332237191
 20
173.2747131278336
 30
0.0
 11
137.1004672785307
 21
172.3270318388606
 31
0.0
  0
LINE
  5
485
330
E3
100
AcDbEntity
  8
Doc_ Floor
  6
Continuous
100
AcDbLine
 10
138.636521350622
 20
172.1211560284638
 30
0.0
 11
138.5337450968162
 21
174.4282702272035
 31
0.0
  0
LINE
  5
486
330
E3
100
AcDbEntity
  8
Doc_ Floor
  6
Continuous
100
AcDbLine
 10
137.0490791516279
 20
173.4805889382304
 30
0.0
 11
137.1518554054337
 21
171.1734747394908
 31
0.0
  0
LINE
  5
487
330
E3
100
AcDbEntity
  8
Doc_ Floor
  6
Continuous
100
AcDbLine
 10
137.1004672785307
 20
172.3270318388606
 30
0.0
 11
136.2760962242046
 21
171.8008225241557
 31
0.0
  0
LINE
  5
488
330
E3
100
AcDbEntity
  8
Doc_ Floor
  6
Continuous
100
AcDbLine
 10
137.7780673763665
 20
174.5390865107979
 30
0.0
 11
139.6612210201891
 21
171.5888805325533
 31
0.0
  0
LINE
  5
489
330
E3
100
AcDbEntity
  8
Doc_ Floor
  6
Continuous
100
AcDbLine
 10
136.2934014311782
 20
173.5914052218249
 30
0.0
 11
138.1765550750008
 21
170.6411992435803
 31
0.0
  0
MTEXT
  5
48A
330
E3
100
AcDbEntity
  8
Doc_ Floor
  6
Continuous
100
AcDbMText
 10
138.8033161143775
 20
174.0071612046183
 30
0.0
 40
2.5
 41
0.0
 71
     7
 72
     1
  1
{10}
  7
GENERATED_STYLE_3
 11
0.8429164341874209
 21
0.5380445009260512
 31
0.0
 73
     1
 44
1.0
  0
LINE
  5
48B
330
E3
100
AcDbEntity
  8
Doc_ Floor
  6
Continuous
100
AcDbLine
 10
92.52207119324105
 20
179.8946141627555
 30
0.0
 11
93.50007062629
 21
179.8946141627555
 31
0.0
  0
LINE
  5
48C
330
E3
100
AcDbEntity
  8
Doc_ Floor
  6
Continuous
100
AcDbLine
 10
93.50007062629
 20
179.8946141627555
 30
0.0
 11
142.5229313689667
 21
179.8946141627555
 31
0.0
  0
LINE
  5
48D
330
E3
100
AcDbEntity
  8
Doc_ Floor
  6
Continuous
100
AcDbLine
 10
94.07742133682493
 20
180.8946152011308
 30
0.0
 11
92.92271991575505
 21
178.8946131243803
 31
0.0
  0
LINE
  5
48E
330
E3
100
AcDbEntity
  8
Doc_ Floor
  6
Continuous
100
AcDbLine
 10
141.9455806584317
 20
178.8946131243803
 30
0.0
 11
143.1002778255176
 21
180.8946152011308
 31
0.0
  0
LINE
  5
48F
330
E3
100
AcDbEntity
  8
Doc_ Floor
  6
Continuous
100
AcDbLine
 10
142.5229313689667
 20
179.8946141627555
 30
0.0
 11
143.5009308020156
 21
179.8946141627555
 31
0.0
  0
LINE
  5
490
330
E3
100
AcDbEntity
  8
Doc_ Floor
  6
Continuous
100
AcDbLine
 10
93.50007062629
 20
169.894612286971
 30
0.0
 11
93.50007062629
 21
181.3946157203185
 31
0.0
  0
LINE
  5
491
330
E3
100
AcDbEntity
  8
Doc_ Floor
  6
Continuous
100
AcDbLine
 10
142.5229313689667
 20
169.894612286971
 30
0.0
 11
142.5229313689667
 21
181.3946157203185
 31
0.0
  0
MTEXT
  5
492
330
E3
100
AcDbEntity
  8
Doc_ Floor
  6
Continuous
100
AcDbMText
 10
116.868643288301
 20
180.3946142118262
 30
0.0
 40
2.5
 41
0.0
 71
     7
 72
     1
  1
{Y}
  7
GENERATED_STYLE_3
 73
     1
 44
1.0
  0
MTEXT
  5
493
330
E3
100
AcDbEntity
  8
Doc_ Floor
  6
Continuous
100
AcDbMText
 10
54.66226837731897
 20
163.3631056443144
 30
0.0
 40
2.500000000000001
 41
0.0
 71
     6
 72
     1
  1
{BMT0.55 BARGE FLASHING}
  7
GENERATED_STYLE_1
 73
     1
 44
1.0
  0
LINE
  5
494
330
E3
100
AcDbEntity
  8
Doc_ Floor
  6
Continuous
100
AcDbLine
 10
81.44097883578466
 20
163.3818988872787
 30
0.0
 11
77.70892888141336
 21
162.3818978489034
 31
0.0
  0
LINE
  5
495
330
E3
100
AcDbEntity
  8
Doc_ Floor
  6
Continuous
100
AcDbLine
 10
81.44097883578466
 20
163.3818988872787
 30
0.0
 11
77.70892888141336
 21
164.3818956716699
 31
0.0
  0
LINE
  5
496
330
E3
100
AcDbEntity
  8
Doc_ Floor
  6
Continuous
100
AcDbLine
 10
77.70892888141336
 20
162.3818978489034
 30
0.0
 11
77.70892888141336
 21
164.3818956716699
 31
0.0
  0
LWPOLYLINE
  5
497
330
E3
100
AcDbEntity
  8
Doc_ Floor
  6
Continuous
100
AcDbPolyline
 90
        2
 70
   128
 43
0.0
 10
77.7089276558849
 20
163.3818973436607
 10
55.66226837731897
 20
163.3818973436607
  0
MTEXT
  5
498
330
E3
100
AcDbEntity
  8
Doc_ Floor
  6
Continuous
100
AcDbMText
 10
54.66226837731899
 20
152.2266828911121
 30
0.0
 40
2.500000000000001
 41
0.0
 71
     6
 72
     1
  1
{STOP END SHEET}
  7
GENERATED_STYLE_1
 73
     1
 44
1.0
  0
LINE
  5
499
330
E3
100
AcDbEntity
  8
Doc_ Floor
  6
Continuous
100
AcDbLine
 10
87.934574831313
 20
159.2993249040437
 30
0.0
 11
84.94544064534591
 21
156.8512038971542
 31
0.0
  0
LINE
  5
49A
330
E3
100
AcDbEntity
  8
Doc_ Floor
  6
Continuous
100
AcDbLine
 10
87.934574831313
 20
159.2993249040437
 30
0.0
 11
84.12184807009456
 21
158.6737552846972
 31
0.0
  0
LINE
  5
49B
330
E3
100
AcDbEntity
  8
Doc_ Floor
  6
Continuous
100
AcDbLine
 10
84.94544064534591
 20
156.8512038971542
 30
0.0
 11
84.12184807009456
 21
158.6737552846972
 31
0.0
  0
LWPOLYLINE
  5
49C
330
E3
100
AcDbEntity
  8
Doc_ Floor
  6
Continuous
100
AcDbPolyline
 90
        9
 70
   128
 43
0.0
 10
84.5336457002515
 20
157.7624806295699
 10
81.03277425328879
 20
156.3479997924751
 10
77.63709490385615
 20
155.1703608912136
 10
74.27857578627369
 20
154.214694048457
 10
70.88918503486157
 20
153.4661293868771
 10
67.4008907839399
 20
152.9097970291457
 10
63.74566116782883
 20
152.5308270979344
 10
59.85546432084848
 20
152.3143497159151
 10
55.66226837731899
 20
152.2454950057594
  0
MTEXT
  5
49D
330
E3
100
AcDbEntity
  8
Doc_ Floor
  6
Continuous
100
AcDbMText
 10
54.66226837731899
 20
136.4957658106271
 30
0.0
 40
2.500000000000001
 41
48.11819540943643
 71
     6
 72
     1
  1
{PROFILED FOAM CLOSURE\P(Foam closure strip only required in high risk situations)}
  7
GENERATED_STYLE_1
 73
     1
 44
1.052558926044794
  0
LINE
  5
49E
330
E3
100
AcDbEntity
  8
Doc_ Floor
  6
Continuous
100
AcDbLine
 10
84.94579372601916
 20
144.2386985641672
 30
0.0
 11
82.21784565061373
 21
141.5025530615646
 31
0.0
  0
LINE
  5
49F
330
E3
100
AcDbEntity
  8
Doc_ Floor
  6
Continuous
100
AcDbLine
 10
84.94579372601916
 20
144.2386985641672
 30
0.0
 11
81.21524968198923
 21
143.233103536812
 31
0.0
  0
LINE
  5
4A0
330
E3
100
AcDbEntity
  8
Doc_ Floor
  6
Continuous
100
AcDbLine
 10
82.21784565061373
 20
141.5025530615646
 30
0.0
 11
81.21524968198923
 21
143.233103536812
 31
0.0
  0
LWPOLYLINE
  5
4A1
330
E3
100
AcDbEntity
  8
Doc_ Floor
  6
Continuous
100
AcDbPolyline
 90
        9
 70
   128
 43
0.0
 10
81.71654752602826
 20
142.3678272958547
 10
78.87934782267232
 20
140.9550283803449
 10
76.03827996896912
 20
139.7780891354526
 10
73.13533729863047
 20
138.8223733167617
 10
70.11251314536821
 20
138.0732446798565
 10
66.9118008428941
 20
137.5160669803209
 10
63.47519372492
 20
137.136203973739
 10
59.74468512515768
 20
136.9190194156949
 10
55.66226837731899
 20
136.8498770617726
  0
MTEXT
  5
4A2
330
E3
100
AcDbEntity
  8
Doc_ Floor
  6
Continuous
100
AcDbMText
 10
53.85685340567336
 20
114.4469823045486
 30
0.0
 40
2.500000000000001
 41
48.11819540943643
 71
     6
 72
     1
  1
{NOTCHED FLASHING FOLDED & FIXED THROUGH RIBS WITH 12g X 55mm STEEL TEK SCREW}
  7
GENERATED_STYLE_1
 73
     1
 44
1.06374321355081
  0
LINE
  5
4A3
330
E3
100
AcDbEntity
  8
Doc_ Floor
  6
Continuous
100
AcDbLine
 10
86.32344644932257
 20
134.6932816742246
 30
0.0
 11
84.95363381855908
 21
131.080551717494
 31
0.0
  0
LINE
  5
4A4
330
E3
100
AcDbEntity
  8
Doc_ Floor
  6
Continuous
100
AcDbLine
 10
86.32344644932257
 20
134.6932816742246
 30
0.0
 11
83.33078996459096
 21
132.2494699531425
 31
0.0
  0
LINE
  5
4A5
330
E3
100
AcDbEntity
  8
Doc_ Floor
  6
Continuous
100
AcDbLine
 10
84.95363381855908
 20
131.080551717494
 30
0.0
 11
83.33078996459096
 21
132.2494699531425
 31
0.0
  0
LWPOLYLINE
  5
4A6
330
E3
100
AcDbEntity
  8
Doc_ Floor
  6
Continuous
100
AcDbPolyline
 90
       16
 70
   128
 43
0.0
 10
84.142211825014
 20
131.6650115928446
 10
80.63952334826722
 20
127.244348329503
 10
78.93155055546707
 20
125.3160736159841
 10
77.24012323588377
 20
123.5678858700516
 10
75.55596477164336
 20
121.9938218583194
 10
73.86979854487186
 20
120.5879183474012
 10
72.1723479376953
 20
119.3442121039111
 10
70.45433633223972
 20
118.2567398944628
 10
68.70648711063113
 20
117.3195384856702
 10
66.91952365499557
 20
116.5266446441473
 10
65.08416934745907
 20
115.8720951365077
 10
63.19114757014766
 20
115.3499267293655
 10
61.23118170518734
 20
114.9541761893345
 10
59.19499513470418
 20
114.6788802830285
 10
57.07331124082417
 20
114.5180757770614
 10
54.85685340567337
 20
114.465799438047
  0
MTEXT
  5
4A7
330
E3
100
AcDbEntity
  8
Doc_ Floor
  6
Continuous
100
AcDbMText
 10
54.66226837731902
 20
98.03238914767147
 30
0.0
 40
2.500000000000001
 41
0.0
 71
     6
 72
     1
  1
{WALL CLADDING}
  7
GENERATED_STYLE_1
 73
     1
 44
1.0
  0
LINE
  5
4A8
330
E3
100
AcDbEntity
  8
Doc_ Floor
  6
Continuous
100
AcDbLine
 10
82.4543246220154
 20
98.05120324726226
 30
0.0
 11
78.7222746676441
 21
97.05120220888702
 31
0.0
  0
LINE
  5
4A9
330
E3
100
AcDbEntity
  8
Doc_ Floor
  6
Continuous
100
AcDbLine
 10
82.4543246220154
 20
98.05120324726226
 30
0.0
 11
78.7222746676441
 21
99.05120003165351
 31
0.0
  0
LINE
  5
4AA
330
E3
100
AcDbEntity
  8
Doc_ Floor
  6
Continuous
100
AcDbLine
 10
78.7222746676441
 20
97.05120220888702
 30
0.0
 11
78.7222746676441
 21
99.05120003165351
 31
0.0
  0
LWPOLYLINE
  5
4AB
330
E3
100
AcDbEntity
  8
Doc_ Floor
  6
Continuous
100
AcDbPolyline
 90
        2
 70
   128
 43
0.0
 10
78.72227500997855
 20
98.0512012623187
 10
55.66226837731902
 20
98.0512012623187
  0
MTEXT
  5
4AC
330
E3
100
AcDbEntity
  8
Doc_ Floor
  6
Continuous
100
AcDbMText
 10
54.66226837731902
 20
85.56216897751398
 30
0.0
 40
2.5
 41
0.0
 71
     6
 72
     1
  1
{WALL UNDERLAY (if required)}
  7
GENERATED_STYLE_1
 73
     1
 44
1.0
  0
LINE
  5
4AD
330
E3
100
AcDbEntity
  8
Doc_ Floor
  6
Continuous
100
AcDbLine
 10
91.43011603639451
 20
85.89245337323423
 30
0.0
 11
87.6980660820232
 21
84.89245233485897
 31
0.0
  0
LINE
  5
4AE
330
E3
100
AcDbEntity
  8
Doc_ Floor
  6
Continuous
100
AcDbLine
 10
91.43011603639451
 20
85.89245337323423
 30
0.0
 11
87.6980660820232
 21
86.89245015762548
 31
0.0
  0
LINE
  5
4AF
330
E3
100
AcDbEntity
  8
Doc_ Floor
  6
Continuous
100
AcDbLine
 10
87.6980660820232
 20
84.89245233485897
 30
0.0
 11
87.6980660820232
 21
86.89245015762548
 31
0.0
  0
LWPOLYLINE
  5
4B0
330
E3
100
AcDbEntity
  8
Doc_ Floor
  6
Continuous
100
AcDbPolyline
 90
        2
 70
   128
 43
0.0
 10
87.6980664844395
 20
85.8924516803965
 10
55.66226837731902
 20
85.8924516803965
  0
MTEXT
  5
4B1
330
E3
100
AcDbEntity
  8
Doc_ Floor
  6
Continuous
100
AcDbMText
 10
54.66226837731902
 20
65.71654948169984
 30
0.0
 40
2.5
 41
0.0
 71
     6
 72
     1
  1
{STEEL GIRT}
  7
GENERATED_STYLE_1
 73
     1
 44
1.0
  0
LINE
  5
4B2
330
E3
100
AcDbEntity
  8
Doc_ Floor
  6
Continuous
100
AcDbLine
 10
94.01505367717895
 20
72.176022172382
 30
0.0
 11
90.7266772396508
 21
70.14753541866611
 31
0.0
  0
LINE
  5
4B3
330
E3
100
AcDbEntity
  8
Doc_ Floor
  6
Continuous
100
AcDbLine
 10
94.01505367717895
 20
72.176022172382
 30
0.0
 11
90.15299346333691
 21
72.06349153322947
 31
0.0
  0
LINE
  5
4B4
330
E3
100
AcDbEntity
  8
Doc_ Floor
  6
Continuous
100
AcDbLine
 10
90.7266772396508
 20
70.14753541866611
 30
0.0
 11
90.15299346333691
 21
72.06349153322947
 31
0.0
  0
LWPOLYLINE
  5
4B5
330
E3
100
AcDbEntity
  8
Doc_ Floor
  6
Continuous
100
AcDbPolyline
 90
        9
 70
   128
 43
0.0
 10
90.43983465304058
 20
71.10551307653554
 10
85.50182814633625
 20
69.72605065624919
 10
80.90883763012287
 20
68.5785210277809
 10
76.57275664090342
 20
67.64812829311633
 10
72.40547871518086
 20
66.92007655424113
 10
68.31889738945817
 20
66.37956991314095
 10
64.22490620023832
 20
66.01181247180145
 10
60.03539868402429
 20
65.80200833220829
 10
55.66226837731902
 20
65.73536159634708
  0
LINE
  5
4B6
330
E3
100
AcDbEntity
  8
Doc_ Finishes
  6
Continuous
100
AcDbLine
 10
156.4136950887434
 20
79.0634817859202
 30
0.0
 11
280.776795033367
 21
79.0634817859202
 31
0.0
  0
LINE
  5
4B7
330
E3
100
AcDbEntity
  8
Doc_ Finishes
  6
Continuous
100
AcDbLine
 10
256.8067777156036
 20
87.14985022241362
 30
0.0
 11
256.8067777156036
 21
46.78170294260524
 31
0.0
  0
LINE
  5
4B8
330
E3
100
AcDbEntity
  8
Doc_ Finishes
  6
Continuous
100
AcDbLine
 10
156.4136950887434
 20
46.78170294260524
 30
0.0
 11
156.4136950887434
 21
79.0634817859202
 31
0.0
  0
LINE
  5
4B9
330
E3
100
AcDbEntity
  8
Doc_ Finishes
  6
Continuous
100
AcDbLine
 10
232.8367603978403
 20
87.14985022241362
 30
0.0
 11
232.8367603978403
 21
46.78170294260524
 31
0.0
  0
LINE
  5
4BA
330
E3
100
AcDbEntity
  8
Doc_ Finishes
  6
Continuous
100
AcDbLine
 10
156.4136950887434
 20
68.30288883814855
 30
0.0
 11
280.776795033367
 21
68.30288883814855
 31
0.0
  0
LINE
  5
4BB
330
E3
100
AcDbEntity
  8
Doc_ Finishes
  6
Continuous
100
AcDbLine
 10
156.4136950887434
 20
57.54229589037689
 30
0.0
 11
280.776795033367
 21
57.54229589037689
 31
0.0
  0
LINE
  5
4BC
330
E3
100
AcDbEntity
  8
Doc_ Finishes
  6
Continuous
100
AcDbLine
 10
232.8367603978403
 20
87.14985022241362
 30
0.0
 11
256.8067777156036
 21
87.14985022241362
 31
0.0
  0
LINE
  5
4BD
330
E3
100
AcDbEntity
  8
Doc_ Finishes
  6
Continuous
100
AcDbLine
 10
156.4136950887434
 20
46.78170294260524
 30
0.0
 11
280.776795033367
 21
46.78170294260524
 31
0.0
  0
LINE
  5
4BE
330
E3
100
AcDbEntity
  8
Doc_ Finishes
  6
Continuous
100
AcDbLine
 10
280.776795033367
 20
87.14985022241362
 30
0.0
 11
280.776795033367
 21
46.78170294260524
 31
0.0
  0
LINE
  5
4BF
330
E3
100
AcDbEntity
  8
Doc_ Finishes
  6
Continuous
100
AcDbLine
 10
256.8067777156036
 20
87.14985022241362
 30
0.0
 11
280.776795033367
 21
87.14985022241362
 31
0.0
  0
MTEXT
  5
4C0
330
E3
100
AcDbEntity
  8
0
  6
Continuous
100
AcDbMText
 10
159.9696207563632
 20
70.2198403321588
 30
0.0
 40
2.499999999999999
 41
69.01187578516155
 71
     7
 72
     1
  1
\A1;{\fCentury Gothic|b0|i0|c0|p34;LOW, MEDIUM OR HIGH WIND ZONE.\P ROOF PITCH \fArial|b0|i0|c0|p34;\H1.029412x;\U+2265\fCentury Gothic|b0|i0|c0|p34;\H0.971429x; 10\fArial|b0|i0|c0|p34;\H1.029412x;\U+00B0}
  7
GENERATED_STYLE_1
 73
     1
 44
1.056355725756043
  0
MTEXT
  5
4C1
330
E3
100
AcDbEntity
  8
0
  6
Continuous
100
AcDbMText
 10
159.9696207563632
 20
59.79699572416943
 30
0.0
 40
2.5
 41
69.01187578516155
 71
     7
 72
     1
  1
\A1;{\fCentury Gothic|b0|i0|c0|p34;VERY HIGH WIND ZONE.\P ROOF PITCH \fArial|b0|i0|c0|p34;\H1.029412x;<\fCentury Gothic|b0|i0|c0|p34;\H0.971429x; 10\fArial|b0|i0|c0|p34;\H1.029412x;\U+00B0}
  7
GENERATED_STYLE_1
 73
     1
 44
1.056355725756043
  0
MTEXT
  5
4C2
330
E3
100
AcDbEntity
  8
0
  6
Continuous
100
AcDbMText
 10
244.4689548129513
 20
72.25966243203129
 30
0.0
 40
2.499999999999999
 41
0.0
 71
     8
 72
     1
  1
{2 CRESTS}
  7
GENERATED_STYLE_1
 73
     1
 44
1.0
  0
MTEXT
  5
4C3
330
E3
100
AcDbEntity
  8
0
  6
Continuous
100
AcDbMText
 10
244.4689548129513
 20
61.0208829105735
 30
0.0
 40
2.499999999999999
 41
0.0
 71
     8
 72
     1
  1
{2 CRESTS}
  7
GENERATED_STYLE_1
 73
     1
 44
1.0
  0
MTEXT
  5
4C4
330
E3
100
AcDbEntity
  8
0
  6
Continuous
100
AcDbMText
 10
244.4689548129513
 20
82.14172882276495
 30
0.0
 40
2.499999999999999
 41
0.0
 71
     8
 72
     1
  1
{Y}
  7
GENERATED_STYLE_1
 73
     1
 44
1.0
  0
MTEXT
  5
4C5
330
E3
100
AcDbEntity
  8
0
  6
Continuous
100
AcDbMText
 10
159.9696207563632
 20
51.32541188793359
 30
0.0
 40
2.499999999999999
 41
0.0
 71
     7
 72
     1
  1
{EXTRA HIGH WIND ZONE.}
  7
GENERATED_STYLE_1
 73
     1
 44
1.0
  0
MTEXT
  5
4C6
330
E3
100
AcDbEntity
  8
0
  6
Continuous
100
AcDbMText
 10
244.4689548129513
 20
50.26028954509797
 30
0.0
 40
2.499999999999999
 41
0.0
 71
     8
 72
     1
  1
{2 CRESTS}
  7
GENERATED_STYLE_1
 73
     1
 44
1.0
  0
MTEXT
  5
4C7
330
E3
100
AcDbEntity
  8
0
  6
Continuous
100
AcDbMText
 10
268.4389716497393
 20
72.25967133301758
 30
0.0
 40
2.499999999999999
 41
0.0
 71
     8
 72
     1
  1
{50mm}
  7
GENERATED_STYLE_1
 73
     1
 44
1.0
  0
MTEXT
  5
4C8
330
E3
100
AcDbEntity
  8
0
  6
Continuous
100
AcDbMText
 10
268.4389716497393
 20
61.02089181155978
 30
0.0
 40
2.499999999999999
 41
0.0
 71
     8
 72
     1
  1
{70mm}
  7
GENERATED_STYLE_1
 73
     1
 44
1.0
  0
MTEXT
  5
4C9
330
E3
100
AcDbEntity
  8
0
  6
Continuous
100
AcDbMText
 10
268.4389716497393
 20
82.14173539843385
 30
0.0
 40
2.499999999999999
 41
0.0
 71
     8
 72
     1
  1
{Z}
  7
GENERATED_STYLE_1
 73
     1
 44
1.0
  0
MTEXT
  5
4CA
330
E3
100
AcDbEntity
  8
0
  6
Continuous
100
AcDbMText
 10
268.4389716497393
 20
50.26029844608436
 30
0.0
 40
2.499999999999999
 41
0.0
 71
     8
 72
     1
  1
{90mm}
  7
GENERATED_STYLE_1
 73
     1
 44
1.0
  0
HATCH
  5
4CB
330
E3
100
AcDbEntity
  8
Doc_ Finishes
  6
Continuous
 62
   255
370
     0
100
AcDbHatch
 10
0.0
 20
0.0
 30
0.0
210
0.0
220
0.0
230
1.0
  2
SOLID
 70
     1
 71
     0
 91
        1
 92
        3
 72
     0
 73
     1
 93
        8
 10
132.5121073578476
 20
44.05931861279169
 10
77.34625547420251
 20
44.05931861279169
 10
77.34625547420251
 20
33.29637321185966
 10
191.6779591410098
 20
33.29637321185966
 10
191.6779591410098
 20
44.05931861279169
 10
136.5121072573646
 20
44.05931861279169
 10
135.178772539531
 20
38.05931663652417
 10
133.8454420756813
 20
50.05931633507518
 97
        0
 75
     0
 76
     1
 98
        0
  0
LINE
  5
4CC
330
E3
100
AcDbEntity
  8
Doc_ Finishes
  6
Continuous
100
AcDbLine
 10
191.6779591410098
 20
44.05931907829159
 30
0.0
 11
136.5121072573646
 21
44.05931907829159
 31
0.0
  0
LINE
  5
4CD
330
E3
100
AcDbEntity
  8
Doc_ Finishes
  6
Continuous
100
AcDbLine
 10
132.5121073578476
 20
44.05931907829159
 30
0.0
 11
77.34625547420251
 21
44.05931907829159
 31
0.0
  0
LINE
  5
4CE
330
E3
100
AcDbEntity
  8
Doc_ Finishes
  6
Continuous
100
AcDbLine
 10
132.5121073578476
 20
44.05931907829159
 30
0.0
 11
133.8454420756813
 21
50.05931680057508
 31
0.0
  0
LINE
  5
4CF
330
E3
100
AcDbEntity
  8
Doc_ Finishes
  6
Continuous
100
AcDbLine
 10
133.8454420756813
 20
50.05931680057508
 30
0.0
 11
135.178772539531
 21
38.05931710202407
 31
0.0
  0
LINE
  5
4D0
330
E3
100
AcDbEntity
  8
Doc_ Finishes
  6
Continuous
100
AcDbLine
 10
135.178772539531
 20
38.05931710202407
 30
0.0
 11
136.5121072573646
 21
44.05931907829159
 31
0.0
  0
HATCH
  5
4D1
330
E3
100
AcDbEntity
  8
Doc_ Finishes
  6
Continuous
 62
   255
370
     0
100
AcDbHatch
 10
0.0
 20
0.0
 30
0.0
210
0.0
220
0.0
230
1.0
  2
SOLID
 70
     1
 71
     0
 91
        1
 92
        3
 72
     0
 73
     1
 93
        8
 10
215.5230892228502
 20
135.6537913678278
 10
221.5230911576035
 20
134.3204581203297
 10
221.5230911576035
 20
100.6839702596978
 10
290.4797615434416
 20
100.6839702596978
 10
290.4797615434416
 20
171.9569457234559
 10
221.5230911576035
 20
171.9569457234559
 10
221.5230911576035
 20
138.3204578628239
 10
227.5230884503327
 20
136.9871246153258
 97
        0
 75
     0
 76
     1
 98
        0
  0
LINE
  5
4D2
330
E3
100
AcDbEntity
  8
Doc_ Finishes
  6
Continuous
100
AcDbLine
 10
221.5230899723241
 20
171.9569437375114
 30
0.0
 11
221.5230899723241
 21
138.3204581606707
 31
0.0
  0
LINE
  5
4D3
330
E3
100
AcDbEntity
  8
Doc_ Finishes
  6
Continuous
100
AcDbLine
 10
221.5230899723241
 20
134.3204582611537
 30
0.0
 11
221.5230899723241
 21
100.6839684303289
 31
0.0
  0
LINE
  5
4D4
330
E3
100
AcDbEntity
  8
Doc_ Finishes
  6
Continuous
100
AcDbLine
 10
221.5230899723241
 20
134.3204582611537
 30
0.0
 11
215.5230922500406
 21
135.6537887250033
 31
0.0
  0
LINE
  5
4D5
330
E3
100
AcDbEntity
  8
Doc_ Finishes
  6
Continuous
100
AcDbLine
 10
215.5230922500406
 20
135.6537887250033
 30
0.0
 11
227.5230919485916
 21
136.987123442837
 31
0.0
  0
LINE
  5
4D6
330
E3
100
AcDbEntity
  8
Doc_ Finishes
  6
Continuous
100
AcDbLine
 10
227.5230919485916
 20
136.987123442837
 30
0.0
 11
221.5230899723241
 21
138.3204581606707
 31
0.0
  0
MTEXT
  5
4D7
330
E3
100
AcDbEntity
  8
Doc_ Floor
  6
Continuous
100
AcDbMText
 10
234.1035057677935
 20
193.8384895826596
 30
0.0
 40
2.5
 41
52.6398220899876
 71
     4
 72
     1
  1
{SCREW FIXING WITH 12x25 TYPE 17 TEK & NEO OR 4.8mm ALUM RIVETS MIDSPAN WHERE APPLICABLE}
  7
GENERATED_STYLE_1
 73
     1
 44
1.06374321355081
  0
LINE
  5
4D8
330
E3
100
AcDbEntity
  8
Doc_ Floor
  6
Continuous
100
AcDbLine
 10
140.5982716031083
 20
168.5773916605867
 30
0.0
 11
142.5370248180088
 21
171.91945763037
 31
0.0
  0
LINE
  5
4D9
330
E3
100
AcDbEntity
  8
Doc_ Floor
  6
Continuous
100
AcDbLine
 10
140.5982716031083
 20
168.5773916605867
 30
0.0
 11
143.948318046904
 21
170.502327935406
 31
0.0
  0
LINE
  5
4DA
330
E3
100
AcDbEntity
  8
Doc_ Floor
  6
Continuous
100
AcDbLine
 10
142.5370248180088
 20
171.91945763037
 30
0.0
 11
143.948318046904
 21
170.502327935406
 31
0.0
  0
LWPOLYLINE
  5
4DB
330
E3
100
AcDbEntity
  8
Doc_ Floor
  6
Continuous
100
AcDbPolyline
 90
       17
 70
   128
 43
0.0
 10
143.2426717270846
 20
171.2108924985813
 10
146.6518670359177
 20
174.2529459709914
 10
150.2188618204152
 20
177.0408146587999
 10
153.972902102041
 20
179.5824909420268
 10
157.9432339022584
 20
181.8859672006922
 10
162.1591032425314
 20
183.9592358148159
 10
166.6497561443234
 20
185.8102891644182
 10
171.4444386290981
 20
187.4471196295189
 10
176.5723967183192
 20
188.8777195901381
 10
182.0628764334503
 20
190.1100814262957
 10
187.945123795955
 20
191.1521975180119
 10
194.2483848272969
 20
192.0120602453066
 10
201.0019055489398
 20
192.6976619881998
 10
208.2349319823473
 20
193.2169951267115
 10
215.976710148983
 20
193.5780520408618
 10
224.2564860703105
 20
193.7888251106706
 10
233.1035057677935
 20
193.857306716158
  0
MTEXT
  5
4DC
330
E3
100
AcDbEntity
  8
Doc_ Floor
  6
Continuous
100
AcDbMText
 10
231.2974820355364
 20
148.8827886585378
 30
0.0
 40
2.5
 41
63.74107021605327
 71
     4
 72
     1
  1
{ROOFING UNDERLAY LAID OVER SAFETY NETTING}
  7
GENERATED_STYLE_1
 73
     1
 44
1.070162922071087
  0
LINE
  5
4DD
330
E3
100
AcDbEntity
  8
Doc_ Floor
  6
Continuous
100
AcDbLine
 10
192.6775390349675
 20
158.8524991850454
 30
0.0
 11
194.6342015225718
 21
155.5208810000033
 31
0.0
  0
LINE
  5
4DE
330
E3
100
AcDbEntity
  8
Doc_ Floor
  6
Continuous
100
AcDbLine
 10
192.6775390349675
 20
158.8524991850454
 30
0.0
 11
192.7062491730857
 21
154.9889032829738
 31
0.0
  0
LINE
  5
4DF
330
E3
100
AcDbEntity
  8
Doc_ Floor
  6
Continuous
100
AcDbLine
 10
194.6342015225718
 20
155.5208810000033
 30
0.0
 11
192.7062491730857
 21
154.9889032829738
 31
0.0
  0
LWPOLYLINE
  5
4E0
330
E3
100
AcDbEntity
  8
Doc_ Floor
  6
Continuous
100
AcDbPolyline
 90
       13
 70
   128
 43
0.0
 10
193.6702243883192
 20
155.2548905257675
 10
194.3318165759625
 20
154.4107840610279
 10
195.1752499126839
 20
153.6355848958909
 10
196.2080616212612
 20
152.9272993507205
 10
197.437788924472
 20
152.283933745881
 10
198.8719690450942
 20
151.7034944017363
 10
200.5181392059057
 20
151.1839876386506
 10
202.383836629684
 20
150.723419776988
 10
204.4765985392072
 20
150.3197971371124
 10
209.3734647065987
 20
149.6754128041791
 10
215.2690354903027
 20
149.2348852027633
 10
222.2236086725411
 20
148.9822648957779
 10
230.2974820355364
 20
148.9016024461355
  0
MTEXT
  5
4E1
330
E3
100
AcDbEntity
  8
Doc_ Floor
  6
Continuous
100
AcDbMText
 10
233.9587613925815
 20
173.5524595172347
 30
0.0
 40
2.5
 41
63.74107021605327
 71
     4
 72
     1
  1
{5mm MAX GAP TO CLEAR OF TROUGH OR ROOFING}
  7
GENERATED_STYLE_1
 73
     1
 44
1.070162922071087
  0
LINE
  5
4E2
330
E3
100
AcDbEntity
  8
Doc_ Floor
  6
Continuous
100
AcDbLine
 10
150.1231757821299
 20
162.9160748756687
 30
0.0
 11
151.1438426748507
 21
166.642526587076
 31
0.0
  0
LINE
  5
4E3
330
E3
100
AcDbEntity
  8
Doc_ Floor
  6
Continuous
100
AcDbLine
 10
150.1231757821299
 20
162.9160748756687
 30
0.0
 11
152.8703220873956
 21
165.6329413227147
 31
0.0
  0
LINE
  5
4E4
330
E3
100
AcDbEntity
  8
Doc_ Floor
  6
Continuous
100
AcDbLine
 10
151.1438426748507
 20
166.642526587076
 30
0.0
 11
152.8703220873956
 21
165.6329413227147
 31
0.0
  0
LWPOLYLINE
  5
4E5
330
E3
100
AcDbEntity
  8
Doc_ Floor
  6
Continuous
100
AcDbPolyline
 90
       14
 70
   128
 43
0.0
 10
152.0070823684684
 20
166.1377335283113
 10
153.3890127138221
 20
167.1281426348443
 10
155.1739664011344
 20
168.0372117622966
 10
157.3806541312328
 20
168.867347681314
 10
160.027786604945
 20
169.6209571625423
 10
163.1340745230983
 20
170.3004469766275
 10
166.7182285865205
 20
170.9082238942153
 10
170.7989594960389
 20
171.4466946859517
 10
175.3949779524812
 20
171.9182661224826
 10
180.5249946566748
 20
172.3253449744537
 10
186.2077203094473
 20
172.670338012511
 10
199.3061412640393
 20
173.1836937294674
 10
214.8399264228772
 20
173.477587438519
 10
232.9587613925815
 20
173.5712733048323
  0
MTEXT
  5
4E6
330
E3
100
AcDbEntity
  8
Doc_ Floor
  6
Continuous
100
AcDbMText
 10
231.3940891800974
 20
127.1472084616583
 30
0.0
 40
2.5
 41
63.74107021605325
 71
     4
 72
     1
  1
{12x55mm STEEL TEK & NEO WITH SELECTED WASHER SYSTEM}
  7
GENERATED_STYLE_1
 73
     1
 44
1.070162922071087
  0
LINE
  5
4E7
330
E3
100
AcDbEntity
  8
Doc_ Floor
  6
Continuous
100
AcDbLine
 10
138.8762333498752
 20
147.9292253805667
 30
0.0
 11
142.3501345382717
 21
146.2380072415232
 31
0.0
  0
LINE
  5
4E8
330
E3
100
AcDbEntity
  8
Doc_ Floor
  6
Continuous
100
AcDbLine
 10
138.8762333498752
 20
147.9292253805667
 30
0.0
 11
141.0391119665974
 21
144.7276387249155
 31
0.0
  0
LINE
  5
4E9
330
E3
100
AcDbEntity
  8
Doc_ Floor
  6
Continuous
100
AcDbLine
 10
142.3501345382717
 20
146.2380072415232
 30
0.0
 11
141.0391119665974
 21
144.7276387249155
 31
0.0
  0
LWPOLYLINE
  5
4EA
330
E3
100
AcDbEntity
  8
Doc_ Floor
  6
Continuous
100
AcDbPolyline
 90
       17
 70
   128
 43
0.0
 10
141.6946235687176
 20
145.4828241488532
 10
144.9065067582607
 20
143.0236189228863
 10
148.2970244011464
 20
140.7696781107127
 10
151.8945214976918
 20
138.7145709124409
 10
155.7273430482139
 20
136.8518665281792
 10
159.82383405303
 20
135.1751341580359
 10
164.212339512457
 20
133.6779430021193
 10
168.9212044268121
 20
132.3538622605377
 10
173.9787737964125
 20
131.1964611333996
 10
179.4133926215752
 20
130.1993088208131
 10
185.2534059026174
 20
129.3559745228867
 10
191.5271586398562
 20
128.6600274397287
 10
198.2629958336086
 20
128.1050367714474
 10
205.4892624841919
 20
127.6845717181512
 10
213.234303591923
 20
127.3922014799483
 10
221.5264641571191
 20
127.2214952569471
 10
230.3940891800974
 20
127.166022249256
  0
MTEXT
  5
4EB
330
E3
100
AcDbEntity
  8
Doc_ Floor
  6
Continuous
100
AcDbMText
 10
231.5016913705588
 20
97.78354187143755
 30
0.0
 40
2.5
 41
0.0
 71
     4
 72
     1
  1
{STEEL PURLIN}
  7
GENERATED_STYLE_1
 73
     1
 44
1.0
  0
LINE
  5
4EC
330
E3
100
AcDbEntity
  8
Doc_ Floor
  6
Continuous
100
AcDbLine
 10
193.9966143983825
 20
115.9942951239262
 30
0.0
 11
195.4288414826161
 21
112.4058554159221
 31
0.0
  0
LINE
  5
4ED
330
E3
100
AcDbEntity
  8
Doc_ Floor
  6
Continuous
100
AcDbLine
 10
193.9966143983825
 20
115.9942951239262
 30
0.0
 11
193.442737171643
 21
112.1704994963004
 31
0.0
  0
LINE
  5
4EE
330
E3
100
AcDbEntity
  8
Doc_ Floor
  6
Continuous
100
AcDbLine
 10
195.4288414826161
 20
112.4058554159221
 30
0.0
 11
193.442737171643
 21
112.1704994963004
 31
0.0
  0
LWPOLYLINE
  5
4EF
330
E3
100
AcDbEntity
  8
Doc_ Floor
  6
Continuous
100
AcDbPolyline
 90
       16
 70
   128
 43
0.0
 10
194.4357905307369
 20
112.2881774357855
 10
194.9313541576489
 20
110.3498831381052
 10
195.6154058507187
 20
108.5722295300388
 10
196.4977997436431
 20
106.9503059018711
 10
197.5883899701192
 20
105.479201543887
 10
198.8970306638438
 20
104.1540057463714
 10
200.4335759585141
 20
102.9698077996091
 10
202.2078799878269
 20
101.921696993885
 10
204.2297968854793
 20
101.0047626194838
 10
206.5091807851681
 20
100.2140939666905
 10
209.0558858205905
 20
99.54478032578996
 10
211.8797661254434
 20
98.99191098706693
 10
214.9906758334237
 20
98.55057524080632
 10
218.3984690782283
 20
98.21586237729294
 10
222.1129999935545
 20
97.98286168681167
 10
230.5016913705588
 20
97.80235398608484
  0
ENDBLK
  5
E5
330
E3
100
AcDbEntity
  8
0
100
AcDbBlockEnd
  0
BLOCK
  5
4F5
330
4F4
100
AcDbEntity
  8
0
100
AcDbBlockBegin
  2
C-TRS9-04 BARGE DETAIL_STORY_MARKER
 70
     0
 10
0.0
 20
0.0
 30
0.0
  3
C-TRS9-04 BARGE DETAIL_STORY_MARKER
  1

  0
ENDBLK
  5
4F6
330
4F4
100
AcDbEntity
  8
0
100
AcDbBlockEnd
  0
ENDSEC
  0
SECTION
  2
ENTITIES
  0
HATCH
  5
3F
330
1F
100
AcDbEntity
  8
Doc_ Finishes
  6
Continuous
100
AcDbHatch
 10
0.0
 20
0.0
 30
0.0
210
0.0
220
0.0
230
1.0
  2
SOLID
 70
     1
 71
     0
 91
        1
 92
        3
 72
     0
 73
     1
 93
       54
 10
25.4117749414874
 20
16.87044408857867
 10
24.89356552397386
 20
16.5825499677378
 10
24.5480925789648
 20
16.29465584689693
 10
24.12584786839818
 20
16.02595466744544
 10
23.76118198199976
 20
15.60370995687884
 10
23.39651609560134
 20
15.33500877742737
 10
23.07023609198168
 20
14.89357112547136
 10
22.49444785029994
 20
14.45213347351537
 10
21.93785255000758
 20
14.02988876294876
 10
21.43883607388343
 20
13.81876640766546
 10
20.74789018386533
 20
13.39652169709885
 10
20.09533017662603
 20
12.99346992792163
 10
19.63469958328064
 20
12.55203227596564
 10
18.90536781048376
 20
12.12978756539902
 10
18.59828074825351
 20
11.7459287376112
 10
18.04168544796116
 20
11.28529814426581
 10
17.36993249933246
 20
10.8630534336992
 10
16.73656543348255
 20
10.42161578174319
 10
16.04561954346446
 20
10.15291460229172
 10
15.1051654153843
 20
9.692284008946325
 10
14.39502658397681
 20
9.020531060317637
 10
13.83843128368446
 20
8.598286349751023
 10
13.12829245227699
 20
8.137655756405634
 10
12.84039833143612
 20
7.98411222529051
 10
12.37976773809073
 20
7.81137575278599
 10
12.07268067586046
 20
7.523481631945121
 10
12.0151018516923
 20
7.216394569714853
 10
12.14945244141803
 20
6.890114566095209
 10
12.4373465622589
 20
6.563834562475543
 10
12.8787842142149
 20
6.659799269422514
 10
13.51215128006482
 20
7.06285103859973
 10
14.01116775618899
 20
7.389131042219374
 10
14.33744775980864
 20
7.696218104449641
 10
14.51018423231316
 20
7.907340459732938
 10
15.01303929671522
 20
8.421711288968723
 10
15.33548071205699
 20
8.652026585641417
 10
15.75004824606785
 20
8.99749953065046
 10
16.14158425041142
 20
9.204783297655894
 10
17.24709767444037
 20
9.75754000967037
 10
18.23745345013295
 20
10.47151742935572
 10
19.4120614631637
 20
11.1624633193738
 10
19.84966052684182
 20
11.64612544238645
 10
20.49454335752537
 20
12.06069297639732
 10
21.78430901889248
 20
12.9819541630881
 10
22.36009726057419
 20
13.25833251909534
 10
23.6498629219413
 20
14.24868829478776
 10
23.85714668894673
 20
14.64022429913134
 10
24.68628175696843
 20
15.23904407048036
 10
25.28510152831745
 20
15.72270619349301
 10
25.81482671066464
 20
16.1142421978366
 10
26.27545730401003
 20
16.52880973184745
 10
26.22939424467549
 20
16.7821565581874
 10
26.09120506667188
 20
16.89731420652375
 10
25.56147988432467
 20
16.89731420652375
 97
        0
 75
     0
 76
     1
 98
        0
  0
LINE
  5
41
330
1F
100
AcDbEntity
  8
Doc_ Finishes
  6
Continuous
100
AcDbLine
 10
25.41177616050354
 20
16.87044600708104
 30
0.0
 11
24.89356363099921
 21
16.58254868214004
 31
0.0
  0
LINE
  5
42
330
1F
100
AcDbEntity
  8
Doc_ Finishes
  6
Continuous
100
AcDbLine
 10
24.89356363099921
 20
16.58254868214004
 30
0.0
 11
24.54809303697876
 21
16.29465578284815
 31
0.0
  0
LINE
  5
43
330
1F
100
AcDbEntity
  8
Doc_ Finishes
  6
Continuous
100
AcDbLine
 10
24.54809303697876
 20
16.29465578284815
 30
0.0
 11
24.12584628245476
 21
16.02595249803305
 31
0.0
  0
LINE
  5
44
330
1F
100
AcDbEntity
  8
Doc_ Finishes
  6
Continuous
100
AcDbLine
 10
24.12584628245476
 20
16.02595249803305
 30
0.0
 11
23.76118164830842
 21
15.60371016915814
 31
0.0
  0
LINE
  5
45
330
1F
100
AcDbEntity
  8
Doc_ Finishes
  6
Continuous
100
AcDbLine
 10
23.76118164830842
 20
15.60371016915814
 30
0.0
 11
23.39651701416208
 21
15.33500688434304
 31
0.0
  0
LINE
  5
46
330
1F
100
AcDbEntity
  8
Doc_ Finishes
  6
Continuous
100
AcDbLine
 10
23.39651701416208
 20
15.33500688434304
 30
0.0
 11
23.07023603461841
 21
14.89357051534225
 31
0.0
  0
LINE
  5
47
330
1F
100
AcDbEntity
  8
Doc_ Finishes
  6
Continuous
100
AcDbLine
 10
23.07023603461841
 20
14.89357051534225
 30
0.0
 11
22.49444581038552
 21
14.45213414634146
 31
0.0
  0
LINE
  5
48
330
1F
100
AcDbEntity
  8
Doc_ Finishes
  6
Continuous
100
AcDbLine
 10
22.49444581038552
 20
14.45213414634146
 30
0.0
 11
21.93785405192762
 21
14.02988739181747
 31
0.0
  0
LINE
  5
49
330
1F
100
AcDbEntity
  8
Doc_ Finishes
  6
Continuous
100
AcDbLine
 10
21.93785405192762
 20
14.02988739181747
 30
0.0
 11
21.43883556254917
 21
13.81876622738001
 31
0.0
  0
LINE
  5
4A
330
1F
100
AcDbEntity
  8
Doc_ Finishes
  6
Continuous
100
AcDbLine
 10
21.43883556254917
 20
13.81876622738001
 30
0.0
 11
20.74788994885916
 21
13.39652389850511
 31
0.0
  0
LINE
  5
4B
330
1F
100
AcDbEntity
  8
Doc_ Finishes
  6
Continuous
100
AcDbLine
 10
20.74788994885916
 20
13.39652389850511
 30
0.0
 11
20.09532798977183
 21
12.993471184107
 31
0.0
  0
LINE
  5
4C
330
1F
100
AcDbEntity
  8
Doc_ Finishes
  6
Continuous
100
AcDbLine
 10
20.09532798977183
 20
12.993471184107
 30
0.0
 11
19.63469758064516
 21
12.55203038945712
 31
0.0
  0
LINE
  5
4D
330
1F
100
AcDbEntity
  8
Doc_ Finishes
  6
Continuous
100
AcDbLine
 10
19.63469758064516
 20
12.55203038945712
 30
0.0
 11
18.90536831235248
 21
12.12978806058222
 31
0.0
  0
LINE
  5
4E
330
1F
100
AcDbEntity
  8
Doc_ Finishes
  6
Continuous
100
AcDbLine
 10
18.90536831235248
 20
12.12978806058222
 30
0.0
 11
18.5982813729347
 21
11.74592938630999
 31
0.0
  0
LINE
  5
4F
330
1F
100
AcDbEntity
  8
Doc_ Finishes
  6
Continuous
100
AcDbLine
 10
18.5982813729347
 20
11.74592938630999
 30
0.0
 11
18.0416851888277
 21
11.28529897718332
 31
0.0
  0
LINE
  5
50
330
1F
100
AcDbEntity
  8
Doc_ Finishes
  6
Continuous
100
AcDbLine
 10
18.0416851888277
 20
11.28529897718332
 30
0.0
 11
17.36993361526357
 21
10.86305222265932
 31
0.0
  0
LINE
  5
51
330
1F
100
AcDbEntity
  8
Doc_ Finishes
  6
Continuous
100
AcDbLine
 10
17.36993361526357
 20
10.86305222265932
 30
0.0
 11
16.73656569630212
 21
10.42161585365854
 31
0.0
  0
LINE
  5
52
330
1F
100
AcDbEntity
  8
Doc_ Finishes
  6
Continuous
100
AcDbLine
 10
16.73656569630212
 20
10.42161585365854
 30
0.0
 11
16.04562008261211
 21
10.15291256884343
 31
0.0
  0
LINE
  5
53
330
1F
100
AcDbEntity
  8
Doc_ Finishes
  6
Continuous
100
AcDbLine
 10
16.04562008261211
 20
10.15291256884343
 30
0.0
 11
15.10516522423289
 21
9.692282159716758
 31
0.0
  0
LINE
  5
54
330
1F
100
AcDbEntity
  8
Doc_ Finishes
  6
Continuous
100
AcDbLine
 10
15.10516522423289
 20
9.692282159716758
 30
0.0
 11
14.39502557041699
 21
9.020530586152635
 31
0.0
  0
LINE
  5
55
330
1F
100
AcDbEntity
  8
Doc_ Finishes
  6
Continuous
100
AcDbLine
 10
14.39502557041699
 20
9.020530586152635
 30
0.0
 11
13.83842938630999
 21
8.598288257277733
 31
0.0
  0
LINE
  5
56
330
1F
100
AcDbEntity
  8
Doc_ Finishes
  6
Continuous
100
AcDbLine
 10
13.83842938630999
 20
8.598288257277733
 30
0.0
 11
13.12829415814319
 21
8.137657848151063
 31
0.0
  0
LINE
  5
57
330
1F
100
AcDbEntity
  8
Doc_ Finishes
  6
Continuous
100
AcDbLine
 10
13.12829415814319
 20
8.137657848151063
 30
0.0
 11
12.8403968332022
 21
7.984114378442171
 31
0.0
  0
LINE
  5
58
330
1F
100
AcDbEntity
  8
Doc_ Finishes
  6
Continuous
100
AcDbLine
 10
12.8403968332022
 20
7.984114378442171
 30
0.0
 11
12.37976642407553
 21
7.811376868607396
 31
0.0
  0
LINE
  5
59
330
1F
100
AcDbEntity
  8
Doc_ Finishes
  6
Continuous
100
AcDbLine
 10
12.37976642407553
 20
7.811376868607396
 30
0.0
 11
12.07267948465775
 21
7.523479543666405
 31
0.0
  0
LINE
  5
5A
330
1F
100
AcDbEntity
  8
Doc_ Finishes
  6
Continuous
100
AcDbLine
 10
12.07267948465775
 20
7.523479543666405
 30
0.0
 11
12.01510178992919
 21
7.216392604248622
 31
0.0
  0
LINE
  5
5B
330
1F
100
AcDbEntity
  8
Doc_ Finishes
  6
Continuous
100
AcDbLine
 10
12.01510178992919
 20
7.216392604248622
 30
0.0
 11
12.1494512195122
 21
6.890116050354051
 31
0.0
  0
LINE
  5
5C
330
1F
100
AcDbEntity
  8
Doc_ Finishes
  6
Continuous
100
AcDbLine
 10
12.1494512195122
 20
6.890116050354051
 30
0.0
 11
12.43734854445319
 21
6.563835070810386
 31
0.0
  0
LINE
  5
5D
330
1F
100
AcDbEntity
  8
Doc_ Finishes
  6
Continuous
100
AcDbLine
 10
12.43734854445319
 20
6.563835070810386
 30
0.0
 11
12.87878491345397
 21
6.659800845790715
 31
0.0
  0
LINE
  5
5E
330
1F
100
AcDbEntity
  8
Doc_ Finishes
  6
Continuous
100
AcDbLine
 10
12.87878491345397
 20
6.659800845790715
 30
0.0
 11
13.51215283241542
 21
7.062849134539732
 31
0.0
  0
LINE
  5
5F
330
1F
100
AcDbEntity
  8
Doc_ Finishes
  6
Continuous
100
AcDbLine
 10
13.51215283241542
 20
7.062849134539732
 30
0.0
 11
14.01116689614477
 21
7.389130114083398
 31
0.0
  0
LINE
  5
60
330
1F
100
AcDbEntity
  8
Doc_ Finishes
  6
Continuous
100
AcDbLine
 10
14.01116689614477
 20
7.389130114083398
 30
0.0
 11
14.33744787568843
 21
7.69621705350118
 31
0.0
  0
LINE
  5
61
330
1F
100
AcDbEntity
  8
Doc_ Finishes
  6
Continuous
100
AcDbLine
 10
14.33744787568843
 20
7.69621705350118
 30
0.0
 11
14.51018538552321
 21
7.907342643587726
 31
0.0
  0
LINE
  5
62
330
1F
100
AcDbEntity
  8
Doc_ Finishes
  6
Continuous
100
AcDbLine
 10
14.51018538552321
 20
7.907342643587726
 30
0.0
 11
15.01304091266719
 21
8.421709284028323
 31
0.0
  0
LINE
  5
63
330
1F
100
AcDbEntity
  8
Doc_ Finishes
  6
Continuous
100
AcDbLine
 10
15.01304091266719
 20
8.421709284028323
 30
0.0
 11
15.33548042879622
 21
8.65202448859166
 31
0.0
  0
LINE
  5
64
330
1F
100
AcDbEntity
  8
Doc_ Finishes
  6
Continuous
100
AcDbLine
 10
15.33548042879622
 20
8.65202448859166
 30
0.0
 11
15.75004868214005
 21
8.997499508261212
 31
0.0
  0
LINE
  5
65
330
1F
100
AcDbEntity
  8
Doc_ Finishes
  6
Continuous
100
AcDbLine
 10
15.75004868214005
 20
8.997499508261212
 30
0.0
 11
16.14158585759245
 21
9.204783634933122
 31
0.0
  0
LINE
  5
66
330
1F
100
AcDbEntity
  8
Doc_ Finishes
  6
Continuous
100
AcDbLine
 10
16.14158585759245
 20
9.204783634933122
 30
0.0
 11
17.24709972462628
 21
9.75753835562549
 31
0.0
  0
LINE
  5
67
330
1F
100
AcDbEntity
  8
Doc_ Finishes
  6
Continuous
100
AcDbLine
 10
17.24709972462628
 20
9.75753835562549
 30
0.0
 11
18.2374537765539
 21
10.47151947285602
 31
0.0
  0
LINE
  5
68
330
1F
100
AcDbEntity
  8
Doc_ Finishes
  6
Continuous
100
AcDbLine
 10
18.2374537765539
 20
10.47151947285602
 30
0.0
 11
19.41206087726199
 21
11.16246508654602
 31
0.0
  0
LINE
  5
69
330
1F
100
AcDbEntity
  8
Doc_ Finishes
  6
Continuous
100
AcDbLine
 10
19.41206087726199
 20
11.16246508654602
 30
0.0
 11
19.84966020849724
 21
11.64612657356412
 31
0.0
  0
LINE
  5
6A
330
1F
100
AcDbEntity
  8
Doc_ Finishes
  6
Continuous
100
AcDbLine
 10
19.84966020849724
 20
11.64612657356412
 30
0.0
 11
20.4945436664044
 21
12.06069482690795
 31
0.0
  0
LINE
  5
6B
330
1F
100
AcDbEntity
  8
Doc_ Finishes
  6
Continuous
100
AcDbLine
 10
20.4945436664044
 20
12.06069482690795
 30
0.0
 11
21.78431058221873
 21
12.98195564516129
 31
0.0
  0
LINE
  5
6C
330
1F
100
AcDbEntity
  8
Doc_ Finishes
  6
Continuous
100
AcDbLine
 10
21.78431058221873
 20
12.98195564516129
 30
0.0
 11
22.36009638080252
 21
13.25833300550747
 31
0.0
  0
LINE
  5
6D
330
1F
100
AcDbEntity
  8
Doc_ Finishes
  6
Continuous
100
AcDbLine
 10
22.36009638080252
 20
13.25833300550747
 30
0.0
 11
23.64986329661684
 21
14.24868705743509
 31
0.0
  0
LINE
  5
6E
330
1F
100
AcDbEntity
  8
Doc_ Finishes
  6
Continuous
100
AcDbLine
 10
23.64986329661684
 20
14.24868705743509
 30
0.0
 11
23.85714742328875
 21
14.64022423288749
 31
0.0
  0
LINE
  5
6F
330
1F
100
AcDbEntity
  8
Doc_ Finishes
  6
Continuous
100
AcDbLine
 10
23.85714742328875
 20
14.64022423288749
 30
0.0
 11
24.68628392997639
 21
15.2390455350118
 31
0.0
  0
LINE
  5
70
330
1F
100
AcDbEntity
  8
Doc_ Finishes
  6
Continuous
100
AcDbLine
 10
24.68628392997639
 20
15.2390455350118
 30
0.0
 11
25.28510080645161
 21
15.7227070220299
 31
0.0
  0
LINE
  5
71
330
1F
100
AcDbEntity
  8
Doc_ Finishes
  6
Continuous
100
AcDbLine
 10
25.28510080645161
 20
15.7227070220299
 30
0.0
 11
25.81482887490165
 21
16.1142441974823
 31
0.0
  0
LINE
  5
72
330
1F
100
AcDbEntity
  8
Doc_ Finishes
  6
Continuous
100
AcDbLine
 10
25.81482887490165
 20
16.1142441974823
 30
0.0
 11
26.27545928402832
 21
16.52880802517702
 31
0.0
  0
LINE
  5
73
330
1F
100
AcDbEntity
  8
Doc_ Finishes
  6
Continuous
100
AcDbLine
 10
26.27545928402832
 20
16.52880802517702
 30
0.0
 11
26.22939270259638
 21
16.78215873328088
 31
0.0
  0
LINE
  5
74
330
1F
100
AcDbEntity
  8
Doc_ Finishes
  6
Continuous
100
AcDbLine
 10
26.22939270259638
 20
16.78215873328088
 30
0.0
 11
26.09120623524784
 21
16.897314122738
 31
0.0
  0
LINE
  5
75
330
1F
100
AcDbEntity
  8
Doc_ Finishes
  6
Continuous
100
AcDbLine
 10
26.09120623524784
 20
16.897314122738
 30
0.0
 11
25.56147816679779
 21
16.897314122738
 31
0.0
  0
LINE
  5
76
330
1F
100
AcDbEntity
  8
Doc_ Finishes
  6
Continuous
100
AcDbLine
 10
25.56147816679779
 20
16.897314122738
 30
0.0
 11
25.41177616050354
 21
16.87044600708104
 31
0.0
  0
HATCH
  5
77
330
1F
100
AcDbEntity
  8
Doc_ Finishes
  6
Continuous
100
AcDbHatch
 10
0.0
 20
0.0
 30
0.0
210
0.0
220
0.0
230
1.0
  2
SOLID
 70
     1
 71
     0
 91
        1
 92
        3
 72
     0
 73
     1
 93
       39
 10
25.65360600299377
 20
13.12014334109181
 10
25.21600693931564
 20
12.77467039608275
 10
24.54809257896482
 20
12.24494521373555
 10
23.92624127794851
 20
11.85340920939199
 10
23.32742150659951
 20
11.32368402704478
 10
22.72860173525051
 20
11.04730567103754
 10
22.08371890456697
 20
10.56364354802488
 10
21.62308831122158
 20
10.33332825135219
 10
21.231552306878
 20
10.03391836567767
 10
20.81698477286715
 20
9.619350831666825
 10
20.4024172388563
 20
9.38903553499415
 10
19.91875511584363
 20
9.043562589985086
 10
19.66540828950367
 20
8.859310352646935
 10
19.25084075549282
 20
8.582931996639696
 10
18.09926427212933
 20
7.753796928618002
 10
17.75379132712029
 20
7.477418572610764
 10
17.2931607337749
 20
7.316197864939873
 10
17.22406614477309
 20
6.993756449598113
 10
17.3622553227767
 20
6.717378093590874
 10
17.63863367878394
 20
6.602220445254527
 10
18.00713815346025
 20
6.8325357419272
 10
18.26048497980021
 20
7.131945627601722
 10
18.55989486547472
 20
7.362260924274415
 10
19.31993534449462
 20
7.707733869283458
 10
19.84966052684182
 20
8.122301403294307
 10
20.88607936186895
 20
8.882341882314256
 10
21.20852077721072
 20
9.342972475659646
 10
22.01462431556515
 20
9.734508480003234
 10
22.5673810275796
 20
10.05694989534501
 10
23.46561068460312
 20
10.60970660735953
 10
23.88017821861399
 20
11.07033720070492
 10
24.31777728229212
 20
11.34671555671216
 10
24.70931328663568
 20
11.30065249737762
 10
25.21600693931562
 20
11.55399932371759
 10
26.0681735370046
 20
12.17585062473387
 10
26.41364648201364
 20
12.49829204007566
 10
26.39061495234636
 20
12.77467039608289
 10
26.22939424467547
 20
13.00498569275559
 10
26.04514200733731
 20
13.05104875209013
 97
        0
 75
     0
 76
     1
 98
        0
  0
LINE
  5
78
330
1F
100
AcDbEntity
  8
Doc_ Finishes
  6
Continuous
100
AcDbLine
 10
25.65360690401259
 20
13.12014211250983
 30
0.0
 11
25.21600757277734
 21
12.77467151848938
 31
0.0
  0
LINE
  5
79
330
1F
100
AcDbEntity
  8
Doc_ Finishes
  6
Continuous
100
AcDbLine
 10
25.21600757277734
 20
12.77467151848938
 30
0.0
 11
24.54809303697876
 21
12.24494345003934
 31
0.0
  0
LINE
  5
7A
330
1F
100
AcDbEntity
  8
Doc_ Finishes
  6
Continuous
100
AcDbLine
 10
24.54809303697876
 20
12.24494345003934
 30
0.0
 11
23.92624065696302
 21
11.85341070023603
 31
0.0
  0
LINE
  5
7B
330
1F
100
AcDbEntity
  8
Doc_ Finishes
  6
Continuous
100
AcDbLine
 10
23.92624065696302
 20
11.85341070023603
 30
0.0
 11
23.32741935483871
 21
11.32368263178599
 31
0.0
  0
LINE
  5
7C
330
1F
100
AcDbEntity
  8
Doc_ Finishes
  6
Continuous
100
AcDbLine
 10
23.32741935483871
 20
11.32368263178599
 30
0.0
 11
22.72860247836349
 21
11.04730527143981
 31
0.0
  0
LINE
  5
7D
330
1F
100
AcDbEntity
  8
Doc_ Finishes
  6
Continuous
100
AcDbLine
 10
22.72860247836349
 20
11.04730527143981
 30
0.0
 11
22.08371902045633
 21
10.56364378442171
 31
0.0
  0
LINE
  5
7E
330
1F
100
AcDbEntity
  8
Doc_ Finishes
  6
Continuous
100
AcDbLine
 10
22.08371902045633
 20
10.56364378442171
 30
0.0
 11
21.62308861132966
 21
10.33332857985838
 31
0.0
  0
LINE
  5
7F
330
1F
100
AcDbEntity
  8
Doc_ Finishes
  6
Continuous
100
AcDbLine
 10
21.62308861132966
 20
10.33332857985838
 30
0.0
 11
21.23155143587726
 21
10.03392014162077
 31
0.0
  0
LINE
  5
80
330
1F
100
AcDbEntity
  8
Doc_ Finishes
  6
Continuous
100
AcDbLine
 10
21.23155143587726
 20
10.03392014162077
 30
0.0
 11
20.81698318253344
 21
9.619351888276947
 31
0.0
  0
LINE
  5
81
330
1F
100
AcDbEntity
  8
Doc_ Finishes
  6
Continuous
100
AcDbLine
 10
20.81698318253344
 20
9.619351888276947
 30
0.0
 11
20.40241935483871
 21
9.389036683713611
 31
0.0
  0
LINE
  5
82
330
1F
100
AcDbEntity
  8
Doc_ Finishes
  6
Continuous
100
AcDbLine
 10
20.40241935483871
 20
9.389036683713611
 30
0.0
 11
19.91875344217151
 21
9.04356166404406
 31
0.0
  0
LINE
  5
83
330
1F
100
AcDbEntity
  8
Doc_ Finishes
  6
Continuous
100
AcDbLine
 10
19.91875344217151
 20
9.04356166404406
 30
0.0
 11
19.66540715971676
 21
8.859308615263572
 31
0.0
  0
LINE
  5
84
330
1F
100
AcDbEntity
  8
Doc_ Finishes
  6
Continuous
100
AcDbLine
 10
19.66540715971676
 20
8.859308615263572
 30
0.0
 11
19.25083890637293
 21
8.582931254917387
 31
0.0
  0
LINE
  5
85
330
1F
100
AcDbEntity
  8
Doc_ Finishes
  6
Continuous
100
AcDbLine
 10
19.25083890637293
 20
8.582931254917387
 30
0.0
 11
18.09926288355625
 21
7.75379474822974
 31
0.0
  0
LINE
  5
86
330
1F
100
AcDbEntity
  8
Doc_ Finishes
  6
Continuous
100
AcDbLine
 10
18.09926288355625
 20
7.75379474822974
 30
0.0
 11
17.7537922895358
 21
7.477417387883556
 31
0.0
  0
LINE
  5
87
330
1F
100
AcDbEntity
  8
Doc_ Finishes
  6
Continuous
100
AcDbLine
 10
17.7537922895358
 20
7.477417387883556
 30
0.0
 11
17.29316188040913
 21
7.316199842643588
 31
0.0
  0
LINE
  5
88
330
1F
100
AcDbEntity
  8
Doc_ Finishes
  6
Continuous
100
AcDbLine
 10
17.29316188040913
 20
7.316199842643588
 30
0.0
 11
17.22406422108576
 21
6.993755900865461
 31
0.0
  0
LINE
  5
89
330
1F
100
AcDbEntity
  8
Doc_ Finishes
  6
Continuous
100
AcDbLine
 10
17.22406422108576
 20
6.993755900865461
 30
0.0
 11
17.3622551140834
 21
6.717378540519276
 31
0.0
  0
LINE
  5
8A
330
1F
100
AcDbEntity
  8
Doc_ Finishes
  6
Continuous
100
AcDbLine
 10
17.3622551140834
 20
6.717378540519276
 30
0.0
 11
17.63863247442958
 21
6.602218725413059
 31
0.0
  0
LINE
  5
8B
330
1F
100
AcDbEntity
  8
Doc_ Finishes
  6
Continuous
100
AcDbLine
 10
17.63863247442958
 20
6.602218725413059
 30
0.0
 11
18.00713857199056
 21
6.832533929976396
 31
0.0
  0
LINE
  5
8C
330
1F
100
AcDbEntity
  8
Doc_ Finishes
  6
Continuous
100
AcDbLine
 10
18.00713857199056
 20
6.832533929976396
 30
0.0
 11
18.26048485444532
 21
7.1319467938631
 31
0.0
  0
LINE
  5
8D
330
1F
100
AcDbEntity
  8
Doc_ Finishes
  6
Continuous
100
AcDbLine
 10
18.26048485444532
 20
7.1319467938631
 30
0.0
 11
18.55989329268293
 21
7.362261998426435
 31
0.0
  0
LINE
  5
8E
330
1F
100
AcDbEntity
  8
Doc_ Finishes
  6
Continuous
100
AcDbLine
 10
18.55989329268293
 20
7.362261998426435
 30
0.0
 11
19.3199365656963
 21
7.707732592446892
 31
0.0
  0
LINE
  5
8F
330
1F
100
AcDbEntity
  8
Doc_ Finishes
  6
Continuous
100
AcDbLine
 10
19.3199365656963
 20
7.707732592446892
 30
0.0
 11
19.84966020849724
 21
8.122300845790717
 31
0.0
  0
LINE
  5
90
330
1F
100
AcDbEntity
  8
Doc_ Finishes
  6
Continuous
100
AcDbLine
 10
19.84966020849724
 20
8.122300845790717
 30
0.0
 11
20.8860808418568
 21
8.882339693154996
 31
0.0
  0
LINE
  5
91
330
1F
100
AcDbEntity
  8
Doc_ Finishes
  6
Continuous
100
AcDbLine
 10
20.8860808418568
 20
8.882339693154996
 30
0.0
 11
21.20852035798584
 21
9.342974527930762
 31
0.0
  0
LINE
  5
92
330
1F
100
AcDbEntity
  8
Doc_ Finishes
  6
Continuous
100
AcDbLine
 10
21.20852035798584
 20
9.342974527930762
 30
0.0
 11
22.01462578678206
 21
9.734507277734066
 31
0.0
  0
LINE
  5
93
330
1F
100
AcDbEntity
  8
Doc_ Finishes
  6
Continuous
100
AcDbLine
 10
22.01462578678206
 20
9.734507277734066
 30
0.0
 11
22.56738050747443
 21
10.05695121951219
 31
0.0
  0
LINE
  5
94
330
1F
100
AcDbEntity
  8
Doc_ Finishes
  6
Continuous
100
AcDbLine
 10
22.56738050747443
 20
10.05695121951219
 30
0.0
 11
23.46561024783635
 21
10.60970594020456
 31
0.0
  0
LINE
  5
95
330
1F
100
AcDbEntity
  8
Doc_ Finishes
  6
Continuous
100
AcDbLine
 10
23.46561024783635
 20
10.60970594020456
 30
0.0
 11
23.88017850118017
 21
11.07033634933124
 31
0.0
  0
LINE
  5
96
330
1F
100
AcDbEntity
  8
Doc_ Finishes
  6
Continuous
100
AcDbLine
 10
23.88017850118017
 20
11.07033634933124
 30
0.0
 11
24.31777783241542
 21
11.34671370967742
 31
0.0
  0
LINE
  5
97
330
1F
100
AcDbEntity
  8
Doc_ Finishes
  6
Continuous
100
AcDbLine
 10
24.31777783241542
 20
11.34671370967742
 30
0.0
 11
24.70931500786781
 21
11.30065155389457
 31
0.0
  0
LINE
  5
98
330
1F
100
AcDbEntity
  8
Doc_ Finishes
  6
Continuous
100
AcDbLine
 10
24.70931500786781
 20
11.30065155389457
 30
0.0
 11
25.21600757277734
 21
11.55399783634933
 31
0.0
  0
LINE
  5
99
330
1F
100
AcDbEntity
  8
Doc_ Finishes
  6
Continuous
100
AcDbLine
 10
25.21600757277734
 20
11.55399783634933
 30
0.0
 11
26.06817515735641
 21
12.17585021636507
 31
0.0
  0
LINE
  5
9A
330
1F
100
AcDbEntity
  8
Doc_ Finishes
  6
Continuous
100
AcDbLine
 10
26.06817515735641
 20
12.17585021636507
 30
0.0
 11
26.41364575137687
 21
12.49829415814319
 31
0.0
  0
LINE
  5
9B
330
1F
100
AcDbEntity
  8
Doc_ Finishes
  6
Continuous
100
AcDbLine
 10
26.41364575137687
 20
12.49829415814319
 30
0.0
 11
26.39061467348544
 21
12.77467151848938
 31
0.0
  0
LINE
  5
9C
330
1F
100
AcDbEntity
  8
Doc_ Finishes
  6
Continuous
100
AcDbLine
 10
26.39061467348544
 20
12.77467151848938
 30
0.0
 11
26.22939270259638
 21
13.00498672305271
 31
0.0
  0
LINE
  5
9D
330
1F
100
AcDbEntity
  8
Doc_ Finishes
  6
Continuous
100
AcDbLine
 10
26.22939270259638
 20
13.00498672305271
 30
0.0
 11
26.04514407946499
 21
13.05104887883556
 31
0.0
  0
LINE
  5
9E
330
1F
100
AcDbEntity
  8
Doc_ Finishes
  6
Continuous
100
AcDbLine
 10
26.04514407946499
 20
13.05104887883556
 30
0.0
 11
25.65360690401259
 21
13.12014211250983
 31
0.0
  0
HATCH
  5
9F
330
1F
100
AcDbEntity
  8
Doc_ Finishes
  6
Continuous
100
AcDbHatch
 10
0.0
 20
0.0
 30
0.0
210
0.0
220
0.0
230
1.0
  2
SOLID
 70
     1
 71
     0
 91
        1
 92
        3
 72
     0
 73
     1
 93
       47
 10
26.06817353700455
 20
15.74573772316067
 10
26.30309513961077
 20
15.62136746295728
 10
26.4412843176144
 20
15.4002647781515
 10
26.93876535842742
 20
15.17916209334572
 10
27.82317609765057
 20
14.40530269652538
 10
28.9286895216795
 20
13.74199464210799
 10
29.59199757609689
 20
13.3827027792986
 10
30.20002995931278
 20
13.07868658769064
 10
31.55428390374827
 20
12.08372450606458
 10
32.07940278016201
 20
11.69679480765445
 10
32.88090001258301
 20
11.08876242443854
 10
33.59948373820179
 20
10.50836787682334
 10
34.5668079842271
 20
9.817421986805197
 10
35.06428902504011
 20
9.458130123995785
 10
35.81051058625965
 20
8.933011247582023
 10
36.61200781868061
 20
8.407892371168286
 10
36.77783483228498
 20
8.186789686362482
 10
37.38586721550091
 20
7.744584316750918
 10
38.18736444792187
 20
6.915449248729224
 10
38.7953968311378
 20
6.44560604351692
 10
39.56925622795804
 20
6.169227687509681
 10
40.23256428237543
 20
6.086314180707507
 10
40.48130480278193
 20
6.30741686551329
 10
40.14965077557326
 20
6.611433057121246
 10
39.48634272115586
 20
6.998362755531397
 10
38.76775899553708
 20
7.357654618340788
 10
38.18736444792187
 20
8.048600508358874
 10
36.99893751709078
 20
8.822459905179112
 10
36.47381864067705
 20
9.319940945992132
 10
36.22507812027052
 20
9.734508480003
 10
35.174840367443
 20
10.31490302761817
 10
34.73263499783144
 20
10.78474623283046
 10
34.2351539570184
 20
11.17167593124059
 10
33.48893239579888
 20
11.61388130085215
 10
32.85326217698223
 20
12.16663801286669
 10
32.35578113616918
 20
12.58120554687754
 10
31.69247308175183
 20
12.99577308088841
 10
31.22262987653952
 20
13.32742710809708
 10
30.7251488357265
 20
13.5761676285036
 10
29.93747052110587
 20
14.06443605744977
 10
29.43077686842594
 20
14.38687747279155
 10
28.92408321574601
 20
14.70931888813342
 10
28.62467333007151
 20
15.100854892477
 10
27.95675896972068
 20
15.67664313415887
 10
27.47309684670803
 20
15.9530214901661
 10
26.82821401602446
 20
16.36758902417695
 10
26.50577260068269
 20
16.22939984617334
 97
        0
 75
     0
 76
     1
 98
        0
  0
LINE
  5
A0
330
1F
100
AcDbEntity
  8
Doc_ Finishes
  6
Continuous
100
AcDbLine
 10
26.30309303697875
 20
15.62136850904799
 30
0.0
 11
26.06817515735641
 21
15.74573809992132
 31
0.0
  0
LINE
  5
A1
330
1F
100
AcDbEntity
  8
Doc_ Finishes
  6
Continuous
100
AcDbLine
 10
26.4412839299764
 20
15.40026308025177
 30
0.0
 11
26.30309303697875
 21
15.62136850904799
 31
0.0
  0
LINE
  5
A2
330
1F
100
AcDbEntity
  8
Doc_ Finishes
  6
Continuous
100
AcDbLine
 10
26.9387667191188
 20
15.17916207710464
 30
0.0
 11
26.4412839299764
 21
15.40026308025177
 31
0.0
  0
LINE
  5
A3
330
1F
100
AcDbEntity
  8
Doc_ Finishes
  6
Continuous
100
AcDbLine
 10
27.82317515735641
 20
14.40530192761605
 30
0.0
 11
26.9387667191188
 21
15.17916207710464
 31
0.0
  0
LINE
  5
A4
330
1F
100
AcDbEntity
  8
Doc_ Finishes
  6
Continuous
100
AcDbLine
 10
28.92868902439024
 20
13.74199449252557
 30
0.0
 11
27.82317515735641
 21
14.40530192761605
 31
0.0
  0
LINE
  5
A5
330
1F
100
AcDbEntity
  8
Doc_ Finishes
  6
Continuous
100
AcDbLine
 10
29.59199645948072
 20
13.3827025963808
 30
0.0
 11
28.92868902439024
 21
13.74199449252557
 31
0.0
  0
LINE
  5
A6
330
1F
100
AcDbEntity
  8
Doc_ Finishes
  6
Continuous
100
AcDbLine
 10
30.20003196302124
 20
13.07868705743509
 30
0.0
 11
29.59199645948072
 21
13.3827025963808
 31
0.0
  0
LINE
  5
A7
330
1F
100
AcDbEntity
  8
Doc_ Finishes
  6
Continuous
100
AcDbLine
 10
31.55428501180173
 20
12.08372590479937
 30
0.0
 11
30.20003196302124
 21
13.07868705743509
 31
0.0
  0
LINE
  5
A8
330
1F
100
AcDbEntity
  8
Doc_ Finishes
  6
Continuous
100
AcDbLine
 10
32.07940155389457
 20
11.69679583005508
 30
0.0
 11
31.55428501180173
 21
12.08372590479937
 31
0.0
  0
LINE
  5
A9
330
1F
100
AcDbEntity
  8
Doc_ Finishes
  6
Continuous
100
AcDbLine
 10
32.88089988198269
 20
11.08876032651456
 30
0.0
 11
32.07940155389457
 21
11.69679583005508
 31
0.0
  0
LINE
  5
AA
330
1F
100
AcDbEntity
  8
Doc_ Finishes
  6
Continuous
100
AcDbLine
 10
33.59948367427223
 20
10.50836742722266
 30
0.0
 11
32.88089988198269
 21
11.08876032651456
 31
0.0
  0
LINE
  5
AB
330
1F
100
AcDbEntity
  8
Doc_ Finishes
  6
Continuous
100
AcDbLine
 10
34.56680664830842
 20
9.817421813532652
 30
0.0
 11
33.59948367427223
 21
10.50836742722266
 31
0.0
  0
LINE
  5
AC
330
1F
100
AcDbEntity
  8
Doc_ Finishes
  6
Continuous
100
AcDbLine
 10
35.06428943745082
 20
9.458129917387884
 30
0.0
 11
34.56680664830842
 21
9.817421813532652
 31
0.0
  0
LINE
  5
AD
330
1F
100
AcDbEntity
  8
Doc_ Finishes
  6
Continuous
100
AcDbLine
 10
35.81051140833988
 20
8.933013375295044
 30
0.0
 11
35.06428943745082
 21
9.458129917387884
 31
0.0
  0
LINE
  5
AE
330
1F
100
AcDbEntity
  8
Doc_ Finishes
  6
Continuous
100
AcDbLine
 10
36.61200973642801
 20
8.407892407553108
 30
0.0
 11
35.81051140833988
 21
8.933013375295044
 31
0.0
  0
LINE
  5
AF
330
1F
100
AcDbEntity
  8
Doc_ Finishes
  6
Continuous
100
AcDbLine
 10
36.77783438237608
 20
8.18679140440598
 30
0.0
 11
36.61200973642801
 21
8.407892407553108
 31
0.0
  0
LINE
  5
B0
330
1F
100
AcDbEntity
  8
Doc_ Finishes
  6
Continuous
100
AcDbLine
 10
37.38586546026751
 20
7.744584972462627
 30
0.0
 11
36.77783438237608
 21
8.18679140440598
 31
0.0
  0
LINE
  5
B1
330
1F
100
AcDbEntity
  8
Doc_ Finishes
  6
Continuous
100
AcDbLine
 10
38.18736378835562
 20
6.915448465774981
 30
0.0
 11
37.38586546026751
 21
7.744584972462627
 31
0.0
  0
LINE
  5
B2
330
1F
100
AcDbEntity
  8
Doc_ Finishes
  6
Continuous
100
AcDbLine
 10
38.79539486624704
 20
6.4456038552321
 30
0.0
 11
38.18736378835562
 21
6.915448465774981
 31
0.0
  0
LINE
  5
B3
330
1F
100
AcDbEntity
  8
Doc_ Finishes
  6
Continuous
100
AcDbLine
 10
39.56925501573564
 20
6.169226494885916
 30
0.0
 11
38.79539486624704
 21
6.4456038552321
 31
0.0
  0
LINE
  5
B4
330
1F
100
AcDbEntity
  8
Doc_ Finishes
  6
Continuous
100
AcDbLine
 10
40.23256245082612
 20
6.086316384736428
 30
0.0
 11
39.56925501573564
 21
6.169226494885916
 31
0.0
  0
LINE
  5
B5
330
1F
100
AcDbEntity
  8
Doc_ Finishes
  6
Continuous
100
AcDbLine
 10
40.48130605822187
 20
6.307417387883556
 30
0.0
 11
40.23256245082612
 21
6.086316384736428
 31
0.0
  0
LINE
  5
B6
330
1F
100
AcDbEntity
  8
Doc_ Finishes
  6
Continuous
100
AcDbLine
 10
40.14965234067663
 20
6.611432926829268
 30
0.0
 11
40.48130605822187
 21
6.307417387883556
 31
0.0
  0
LINE
  5
B7
330
1F
100
AcDbEntity
  8
Doc_ Finishes
  6
Continuous
100
AcDbLine
 10
39.48634490558615
 20
6.998363001573564
 30
0.0
 11
40.14965234067663
 21
6.611432926829268
 31
0.0
  0
LINE
  5
B8
330
1F
100
AcDbEntity
  8
Doc_ Finishes
  6
Continuous
100
AcDbLine
 10
38.76776111329661
 20
7.357654897718332
 30
0.0
 11
39.48634490558615
 21
6.998363001573564
 31
0.0
  0
LINE
  5
B9
330
1F
100
AcDbEntity
  8
Doc_ Finishes
  6
Continuous
100
AcDbLine
 10
38.18736378835562
 20
8.048600511408338
 30
0.0
 11
38.76776111329661
 21
7.357654897718332
 31
0.0
  0
LINE
  5
BA
330
1F
100
AcDbEntity
  8
Doc_ Finishes
  6
Continuous
100
AcDbLine
 10
36.9989353855232
 20
8.822460660896931
 30
0.0
 11
38.18736378835562
 21
8.048600511408338
 31
0.0
  0
LINE
  5
BB
330
1F
100
AcDbEntity
  8
Doc_ Finishes
  6
Continuous
100
AcDbLine
 10
36.47381884343037
 20
9.319939024390242
 30
0.0
 11
36.9989353855232
 21
8.822460660896931
 31
0.0
  0
LINE
  5
BC
330
1F
100
AcDbEntity
  8
Doc_ Finishes
  6
Continuous
100
AcDbLine
 10
36.22507966168371
 20
9.734507277734066
 30
0.0
 11
36.47381884343037
 21
9.319939024390242
 31
0.0
  0
LINE
  5
BD
330
1F
100
AcDbEntity
  8
Doc_ Finishes
  6
Continuous
100
AcDbLine
 10
35.17484215184894
 20
10.31490460267506
 30
0.0
 11
36.22507966168371
 21
9.734507277734066
 31
0.0
  0
LINE
  5
BE
330
1F
100
AcDbEntity
  8
Doc_ Finishes
  6
Continuous
100
AcDbLine
 10
34.73263571990559
 20
10.78474478756884
 30
0.0
 11
35.17484215184894
 21
10.31490460267506
 31
0.0
  0
LINE
  5
BF
330
1F
100
AcDbEntity
  8
Doc_ Finishes
  6
Continuous
100
AcDbLine
 10
34.23515293076317
 20
11.17167486231314
 30
0.0
 11
34.73263571990559
 21
10.78474478756884
 31
0.0
  0
LINE
  5
C0
330
1F
100
AcDbEntity
  8
Doc_ Finishes
  6
Continuous
100
AcDbLine
 10
33.48893095987412
 20
11.61388129425649
 30
0.0
 11
34.23515293076317
 21
11.17167486231314
 31
0.0
  0
LINE
  5
C1
330
1F
100
AcDbEntity
  8
Doc_ Finishes
  6
Continuous
100
AcDbLine
 10
32.85326170338316
 20
12.16663601494886
 30
0.0
 11
33.48893095987412
 21
11.61388129425649
 31
0.0
  0
LINE
  5
C2
330
1F
100
AcDbEntity
  8
Doc_ Finishes
  6
Continuous
100
AcDbLine
 10
32.35578333988985
 20
12.58120426829268
 30
0.0
 11
32.85326170338316
 21
12.16663601494886
 31
0.0
  0
LINE
  5
C3
330
1F
100
AcDbEntity
  8
Doc_ Finishes
  6
Continuous
100
AcDbLine
 10
31.69247147915027
 20
12.99577252163651
 30
0.0
 11
32.35578333988985
 21
12.58120426829268
 31
0.0
  0
LINE
  5
C4
330
1F
100
AcDbEntity
  8
Doc_ Finishes
  6
Continuous
100
AcDbLine
 10
31.22263129425649
 20
13.32742623918175
 30
0.0
 11
31.69247147915027
 21
12.99577252163651
 31
0.0
  0
LINE
  5
C5
330
1F
100
AcDbEntity
  8
Doc_ Finishes
  6
Continuous
100
AcDbLine
 10
30.72514850511408
 20
13.5761654209284
 30
0.0
 11
31.22263129425649
 21
13.32742623918175
 31
0.0
  0
LINE
  5
C6
330
1F
100
AcDbEntity
  8
Doc_ Finishes
  6
Continuous
100
AcDbLine
 10
29.93747147915028
 20
14.0644340086546
 30
0.0
 11
30.72514850511408
 21
13.5761654209284
 31
0.0
  0
LINE
  5
C7
330
1F
100
AcDbEntity
  8
Doc_ Finishes
  6
Continuous
100
AcDbLine
 10
29.43077891424075
 20
14.38687795043273
 30
0.0
 11
29.93747147915028
 21
14.0644340086546
 31
0.0
  0
LINE
  5
C8
330
1F
100
AcDbEntity
  8
Doc_ Finishes
  6
Continuous
100
AcDbLine
 10
28.92408192368214
 20
14.70931746656176
 30
0.0
 11
29.43077891424075
 21
14.38687795043273
 31
0.0
  0
LINE
  5
C9
330
1F
100
AcDbEntity
  8
Doc_ Finishes
  6
Continuous
100
AcDbLine
 10
28.62467348544453
 20
15.10085464201416
 30
0.0
 11
28.92408192368214
 21
14.70931746656176
 31
0.0
  0
LINE
  5
CA
330
1F
100
AcDbEntity
  8
Doc_ Finishes
  6
Continuous
100
AcDbLine
 10
27.95675894964595
 20
15.67664486624705
 30
0.0
 11
28.62467348544453
 21
15.10085464201416
 31
0.0
  0
LINE
  5
CB
330
1F
100
AcDbEntity
  8
Doc_ Finishes
  6
Continuous
100
AcDbLine
 10
27.47309746262785
 20
15.95302222659323
 30
0.0
 11
27.95675894964595
 21
15.67664486624705
 31
0.0
  0
LINE
  5
CC
330
1F
100
AcDbEntity
  8
Doc_ Finishes
  6
Continuous
100
AcDbLine
 10
26.82821400472069
 20
16.36759047993706
 30
0.0
 11
27.47309746262785
 21
15.95302222659323
 31
0.0
  0
LINE
  5
CD
330
1F
100
AcDbEntity
  8
Doc_ Finishes
  6
Continuous
100
AcDbLine
 10
26.50577448859166
 20
16.22939958693942
 30
0.0
 11
26.82821400472069
 21
16.36759047993706
 31
0.0
  0
LINE
  5
CE
330
1F
100
AcDbEntity
  8
Doc_ Finishes
  6
Continuous
100
AcDbLine
 10
26.06817515735641
 20
15.74573809992132
 30
0.0
 11
26.50577448859166
 21
16.22939958693942
 31
0.0
  0
LINE
  5
CF
330
1F
100
AcDbEntity
  8
Doc_ Finishes
  6
Continuous
 62
   254
370
    18
100
AcDbLine
 10
95.43333841463415
 20
5.093360051140834
 30
0.0
 11
95.43333841463415
 21
20.69901750590086
 31
0.0
  0
LINE
  5
D0
330
1F
100
AcDbEntity
  8
Doc_ Finishes
  6
Continuous
 62
   254
370
    18
100
AcDbLine
 10
5.000000983477577
 20
20.69901750590086
 30
0.0
 11
288.2406845003933
 21
20.69901750590086
 31
0.0
  0
LINE
  5
D1
330
1F
100
AcDbEntity
  8
Doc_ Finishes
  6
Continuous
 62
   254
370
    18
100
AcDbLine
 10
288.2406845003933
 20
20.69901750590086
 30
0.0
 11
288.2406845003933
 21
5.000000983477577
 31
0.0
  0
LINE
  5
D2
330
1F
100
AcDbEntity
  8
Doc_ Finishes
  6
Continuous
 62
   254
370
    18
100
AcDbLine
 10
288.2406845003933
 20
5.000000983477577
 30
0.0
 11
5.000000983477577
 21
5.000000983477577
 31
0.0
  0
LINE
  5
D3
330
1F
100
AcDbEntity
  8
Doc_ Finishes
  6
Continuous
 62
   254
370
    18
100
AcDbLine
 10
5.000000983477577
 20
20.69901750590086
 30
0.0
 11
5.000000983477577
 21
5.000000983477577
 31
0.0
  0
LINE
  5
D4
330
1F
100
AcDbEntity
  8
Doc_ Finishes
  6
Continuous
 62
   254
370
    18
100
AcDbLine
 10
188.291944826908
 20
5.093360051140834
 30
0.0
 11
188.291944826908
 21
20.69901750590086
 31
0.0
  0
LINE
  5
D5
330
1F
100
AcDbEntity
  8
Doc_ Finishes
  6
Continuous
 62
   254
370
    18
100
AcDbLine
 10
188.291944826908
 20
12.8961909913454
 30
0.0
 11
288.2406845003933
 21
12.8961909913454
 31
0.0
  0
MTEXT
  5
D7
330
1F
100
AcDbEntity
  8
0
  6
Continuous
100
AcDbMText
 10
208.3494767103412
 20
15.00228834043999
 30
0.0
 40
2.25
 41
0.0
 71
     7
 72
     1
  1
{C-TRS9-04}
  7
GENERATED_STYLE_1
 73
     1
 44
1.0
  0
MTEXT
  5
D8
330
1F
100
AcDbEntity
  8
0
  6
Continuous
100
AcDbMText
 10
208.3494767103412
 20
11.03300550383743
 30
0.0
 40
3.0
 41
0.0
 71
     1
 72
     1
  1
{BARGE DETAIL}
  7
GENERATED_STYLE_1
 73
     1
 44
1.0
  0
MTEXT
  5
DA
330
1F
100
AcDbEntity
  8
Doc_ Floor
  6
Continuous
100
AcDbMText
 10
27.78353726544612
 20
13.33283672870609
 30
0.0
 40
5.603347280334726
 41
0.0
 71
     1
 72
     1
  1
{The Roofing Store}
  7
GENERATED_STYLE_2
 73
     1
 44
1.0
  0
MTEXT
  5
DC
102
{ACAD_XDICTIONARY
360
522
102
}
330
1F
100
AcDbEntity
  8
0
  6
Continuous
100
AcDbMText
 10
100.7389238446655
 20
5.628836745729685
 30
0.0
 40
1.5
 41
0.0
 71
     7
 72
     1
  1
{P: HEAD OFFICE              09 277 2717\P    ALBANY             09 972 0060\P    KATIKAIT            07 549 5190\P    WELLINGTON              04 974 5792\P    CHRISTCHURCH03 348 6528}
  7
GENERATED_STYLE_1
 73
     1
 44
1.062946161486498
  0
MTEXT
  5
DD
330
1F
100
AcDbEntity
  8
0
  6
Continuous
100
AcDbMText
 10
147.4184566143587
 20
8.449084231526156
 30
0.0
 40
1.5
 41
0.0
 71
     7
 72
     1
  1
{WEB: www.theroofingstore.co.nz}
  7
GENERATED_STYLE_1
 73
     1
 44
1.0
  0
MTEXT
  5
DE
330
1F
100
AcDbEntity
  8
0
  6
Continuous
100
AcDbMText
 10
147.4184566143587
 20
5.870946023411262
 30
0.0
 40
1.5
 41
0.0
 71
     7
 72
     1
  1
{Copyright \U+00A9 The Roofing Store 2013}
  7
GENERATED_STYLE_1
 73
     1
 44
1.0
  0
MTEXT
  5
DF
330
1F
100
AcDbEntity
  8
0
  6
Continuous
100
AcDbMText
 10
271.9546684065315
 20
15.01595667428533
 30
0.0
 40
2.25
 41
0.0
 71
     7
 72
     1
  1
{1:5}
  7
GENERATED_STYLE_1
 73
     1
 44
1.0
  0
MTEXT
  5
E0
330
1F
100
AcDbEntity
  8
0
  6
Continuous
100
AcDbMText
 10
262.8396605309016
 20
15.51746459162148
 30
0.0
 40
1.5
 41
0.0
 71
     7
 72
     1
  1
{SCALE:}
  7
GENERATED_STYLE_1
 73
     1
 44
1.0
  0
MTEXT
  5
E1
330
1F
100
AcDbEntity
  8
0
  6
Continuous
100
AcDbMText
 10
189.5066235617487
 20
15.48695559872207
 30
0.0
 40
1.5
 41
0.0
 71
     7
 72
     1
  1
{DETAIL NUMBER:}
  7
GENERATED_STYLE_1
 73
     1
 44
1.0
  0
MTEXT
  5
E2
330
1F
100
AcDbEntity
  8
0
  6
Continuous
100
AcDbMText
 10
189.5066235617487
 20
9.005462392315325
 30
0.0
 40
1.5
 41
0.0
 71
     7
 72
     1
  1
{TITLE:}
  7
GENERATED_STYLE_1
 73
     1
 44
1.0
  0
INSERT
  5
4F0
102
{ACAD_XDICTIONARY
360
4F1
102
}
330
1F
100
AcDbEntity
  8
0
  6
Continuous
100
AcDbBlockReference
  2
Drawing_1_2
 10
193.9416787666304
 20
-736.1042380562631
 30
0.0
  0
ENDSEC
  0
SECTION
  2
OBJECTS
  0
DICTIONARY
  5
C
330
0
100
AcDbDictionary
281
     1
  3
ACAD_GROUP
350
D
  3
ACAD_LAYOUT
350
1A
  3
ACAD_MATERIAL
350
3B
  3
ACAD_MLEADERSTYLE
350
51D
  3
ACAD_MLINESTYLE
350
17
  3
ACAD_PLOTSETTINGS
350
19
  3
ACAD_PLOTSTYLENAME
350
E
  3
ACAD_SCALELIST
350
4F7
  3
ACAD_VISUALSTYLE
350
2A
  3
AcDbVariableDictionary
350
51B
  3
WATERMARKS
350
519
  0
DICTIONARY
  5
522
330
DC
100
AcDbDictionary
280
     1
281
     1
  3
ACAD_MTEXT_RT
360
523
  0
DICTIONARY
  5
4F1
330
4F0
100
AcDbDictionary
280
     1
281
     1
  3
ACAD_FILTER
360
4F2
  0
DICTIONARY
  5
D
102
{ACAD_REACTORS
330
C
102
}
330
C
100
AcDbDictionary
281
     1
  0
DICTIONARY
  5
1A
102
{ACAD_REACTORS
330
C
102
}
330
C
100
AcDbDictionary
281
     1
  3
Layout1
350
1E
  3
Model
350
22
  0
DICTIONARY
  5
3B
102
{ACAD_REACTORS
330
C
102
}
330
C
100
AcDbDictionary
281
     1
  3
ByBlock
350
3D
  3
ByLayer
350
3C
  3
Global
350
3E
  0
DICTIONARY
  5
51D
102
{ACAD_REACTORS
330
C
102
}
330
C
100
AcDbDictionary
281
     1
  0
DICTIONARY
  5
17
102
{ACAD_REACTORS
330
C
102
}
330
C
100
AcDbDictionary
281
     1
  3
Standard
350
18
  0
DICTIONARY
  5
19
102
{ACAD_REACTORS
330
C
102
}
330
C
100
AcDbDictionary
281
     1
  0
ACDBDICTIONARYWDFLT
  5
E
102
{ACAD_REACTORS
330
C
102
}
330
C
100
AcDbDictionary
281
     1
  3
Normal
350
F
100
AcDbDictionaryWithDefault
340
F
  0
DICTIONARY
  5
4F7
102
{ACAD_REACTORS
330
C
102
}
330
C
100
AcDbDictionary
281
     1
  3
A0
350
4F8
  3
A1
350
4F9
  3
A2
350
4FA
  3
A3
350
4FB
  3
A4
350
4FC
  3
A5
350
4FD
  3
A6
350
4FE
  3
A7
350
4FF
  3
A8
350
500
  3
A9
350
501
  3
B0
350
502
  3
B1
350
503
  3
B2
350
504
  3
B3
350
505
  3
B4
350
506
  3
B5
350
507
  3
B6
350
508
  3
B7
350
509
  3
B8
350
50A
  3
B9
350
50B
  3
C0
350
50C
  3
C1
350
50D
  3
C2
350
50E
  3
C3
350
50F
  3
C4
350
510
  3
C5
350
511
  3
C6
350
512
  3
C7
350
513
  3
C8
350
514
  3
C9
350
515
  3
D0
350
516
  3
D1
350
517
  3
D2
350
518
  0
DICTIONARY
  5
2A
102
{ACAD_REACTORS
330
C
102
}
330
C
100
AcDbDictionary
281
     1
  3
2dWireframe
350
2F
  3
3D Hidden
350
31
  3
3dWireframe
350
30
  3
Basic
350
32
  3
Brighten
350
36
  3
ColorChange
350
3A
  3
Conceptual
350
34
  3
Dim
350
35
  3
Facepattern
350
39
  3
Flat
350
2B
  3
FlatWithEdges
350
2C
  3
Gouraud
350
2D
  3
GouraudWithEdges
350
2E
  3
Linepattern
350
38
  3
Realistic
350
33
  3
Thicken
350
37
  0
DICTIONARY
  5
51B
102
{ACAD_REACTORS
330
C
102
}
330
C
100
AcDbDictionary
281
     1
  3
CANNOSCALE
350
51F
  3
DIMASSOC
350
520
  3
HIDETEXT
350
521
  3
XCLIPFRAME
350
51E
  0
DICTIONARY
  5
519
102
{ACAD_REACTORS
330
C
102
}
330
C
100
AcDbDictionary
281
     1
  3
AC_WATERMARK
350
51A
  0
XRECORD
  5
523
102
{ACAD_REACTORS
330
522
102
}
330
522
100
AcDbXrecord
280
     1
 40
892718.0
  1
{P: HEAD OFFICE ^I^I09 277 2717\P    ALBANY ^I^I09 972 0060\P    KATIKAIT^I^I07 549 5190\P    WELLINGTON^I^I04 974 5792\P    CHRISTCHURCH^I03 348 6528}
  0
DICTIONARY
  5
4F2
102
{ACAD_REACTORS
330
4F1
102
}
330
4F1
100
AcDbDictionary
280
     1
281
     1
  3
SPATIAL
360
4F3
  0
LAYOUT
  5
1E
102
{ACAD_REACTORS
330
1A
102
}
330
1A
100
AcDbPlotSettings
  1

  2
none_device
  4

  6

 40
0.0
 41
0.0
 42
0.0
 43
0.0
 44
0.0
 45
0.0
 46
0.0
 47
0.0
 48
0.0
 49
0.0
140
0.0
141
0.0
142
1.0
143
1.0
 70
   688
 72
     0
 73
     0
 74
     5
  7

 75
    16
147
1.0
148
0.0
149
0.0
100
AcDbLayout
  1
Layout1
 70
     1
 71
     1
 10
0.0
 20
0.0
 11
12.0
 21
9.0
 12
0.0
 22
0.0
 32
0.0
 14
1.000000000000000E+20
 24
1.000000000000000E+20
 34
1.000000000000000E+20
 15
-1.000000000000000E+20
 25
-1.000000000000000E+20
 35
-1.000000000000000E+20
146
0.0
 13
0.0
 23
0.0
 33
0.0
 16
1.0
 26
0.0
 36
0.0
 17
0.0
 27
1.0
 37
0.0
 76
     0
330
1B
  0
LAYOUT
  5
22
102
{ACAD_REACTORS
330
1A
102
}
330
1A
100
AcDbPlotSettings
  1

  2
none_device
  4

  6

 40
0.0
 41
0.0
 42
0.0
 43
0.0
 44
0.0
 45
0.0
 46
0.0
 47
0.0
 48
0.0
 49
0.0
140
0.0
141
0.0
142
1.0
143
1.0
 70
  1712
 72
     0
 73
     0
 74
     0
  7

 75
     0
147
1.0
148
0.0
149
0.0
100
AcDbLayout
  1
Model
 70
     1
 71
     0
 10
0.0
 20
0.0
 11
12.0
 21
9.0
 12
0.0
 22
0.0
 32
0.0
 14
1.000000000000000E+20
 24
1.000000000000000E+20
 34
1.000000000000000E+20
 15
-1.000000000000000E+20
 25
-1.000000000000000E+20
 35
-1.000000000000000E+20
146
0.0
 13
0.0
 23
0.0
 33
0.0
 16
1.0
 26
0.0
 36
0.0
 17
0.0
 27
1.0
 37
0.0
 76
     0
330
1F
331
29
  0
MATERIAL
  5
3D
102
{ACAD_REACTORS
330
3B
102
}
102
{ACAD_XDICTIONARY
360
546
102
}
330
3B
100
AcDbMaterial
  1
ByBlock
  0
MATERIAL
  5
3C
102
{ACAD_REACTORS
330
3B
102
}
102
{ACAD_XDICTIONARY
360
544
102
}
330
3B
100
AcDbMaterial
  1
ByLayer
  0
MATERIAL
  5
3E
102
{ACAD_REACTORS
330
3B
102
}
102
{ACAD_XDICTIONARY
360
548
102
}
330
3B
100
AcDbMaterial
  1
Global
  0
MLINESTYLE
  5
18
102
{ACAD_REACTORS
330
17
102
}
330
17
100
AcDbMlineStyle
  2
Standard
 70
     0
  3

 62
   256
 51
90.0
 52
90.0
 71
     2
 49
0.5
 62
   256
  6
BYLAYER
 49
-0.5
 62
   256
  6
BYLAYER
  0
ACDBPLACEHOLDER
  5
F
102
{ACAD_REACTORS
330
E
102
}
330
E
  0
SCALE
  5
4F8
102
{ACAD_REACTORS
330
4F7
102
}
330
4F7
100
AcDbScale
 70
     0
300
1:1
140
1.0
141
1.0
290
     1
  0
SCALE
  5
4F9
102
{ACAD_REACTORS
330
4F7
102
}
330
4F7
100
AcDbScale
 70
     0
300
1:2
140
1.0
141
2.0
290
     0
  0
SCALE
  5
4FA
102
{ACAD_REACTORS
330
4F7
102
}
330
4F7
100
AcDbScale
 70
     0
300
1:4
140
1.0
141
4.0
290
     0
  0
SCALE
  5
4FB
102
{ACAD_REACTORS
330
4F7
102
}
330
4F7
100
AcDbScale
 70
     0
300
1:5
140
1.0
141
5.0
290
     0
  0
SCALE
  5
4FC
102
{ACAD_REACTORS
330
4F7
102
}
330
4F7
100
AcDbScale
 70
     0
300
1:8
140
1.0
141
8.0
290
     0
  0
SCALE
  5
4FD
102
{ACAD_REACTORS
330
4F7
102
}
330
4F7
100
AcDbScale
 70
     0
300
1:10
140
1.0
141
10.0
290
     0
  0
SCALE
  5
4FE
102
{ACAD_REACTORS
330
4F7
102
}
330
4F7
100
AcDbScale
 70
     0
300
1:16
140
1.0
141
16.0
290
     0
  0
SCALE
  5
4FF
102
{ACAD_REACTORS
330
4F7
102
}
330
4F7
100
AcDbScale
 70
     0
300
1:20
140
1.0
141
20.0
290
     0
  0
SCALE
  5
500
102
{ACAD_REACTORS
330
4F7
102
}
330
4F7
100
AcDbScale
 70
     0
300
1:30
140
1.0
141
30.0
290
     0
  0
SCALE
  5
501
102
{ACAD_REACTORS
330
4F7
102
}
330
4F7
100
AcDbScale
 70
     0
300
1:40
140
1.0
141
40.0
290
     0
  0
SCALE
  5
502
102
{ACAD_REACTORS
330
4F7
102
}
330
4F7
100
AcDbScale
 70
     0
300
1:50
140
1.0
141
50.0
290
     0
  0
SCALE
  5
503
102
{ACAD_REACTORS
330
4F7
102
}
330
4F7
100
AcDbScale
 70
     0
300
1:100
140
1.0
141
100.0
290
     0
  0
SCALE
  5
504
102
{ACAD_REACTORS
330
4F7
102
}
330
4F7
100
AcDbScale
 70
     0
300
2:1
140
2.0
141
1.0
290
     0
  0
SCALE
  5
505
102
{ACAD_REACTORS
330
4F7
102
}
330
4F7
100
AcDbScale
 70
     0
300
4:1
140
4.0
141
1.0
290
     0
  0
SCALE
  5
506
102
{ACAD_REACTORS
330
4F7
102
}
330
4F7
100
AcDbScale
 70
     0
300
8:1
140
8.0
141
1.0
290
     0
  0
SCALE
  5
507
102
{ACAD_REACTORS
330
4F7
102
}
330
4F7
100
AcDbScale
 70
     0
300
10:1
140
10.0
141
1.0
290
     0
  0
SCALE
  5
508
102
{ACAD_REACTORS
330
4F7
102
}
330
4F7
100
AcDbScale
 70
     0
300
100:1
140
100.0
141
1.0
290
     0
  0
SCALE
  5
509
102
{ACAD_REACTORS
330
4F7
102
}
330
4F7
100
AcDbScale
 70
     0
300
1/128" = 1'-0"
140
0.0078125
141
12.0
290
     0
  0
SCALE
  5
50A
102
{ACAD_REACTORS
330
4F7
102
}
330
4F7
100
AcDbScale
 70
     0
300
1/64" = 1'-0"
140
0.015625
141
12.0
290
     0
  0
SCALE
  5
50B
102
{ACAD_REACTORS
330
4F7
102
}
330
4F7
100
AcDbScale
 70
     0
300
1/32" = 1'-0"
140
0.03125
141
12.0
290
     0
  0
SCALE
  5
50C
102
{ACAD_REACTORS
330
4F7
102
}
330
4F7
100
AcDbScale
 70
     0
300
1/16" = 1'-0"
140
0.0625
141
12.0
290
     0
  0
SCALE
  5
50D
102
{ACAD_REACTORS
330
4F7
102
}
330
4F7
100
AcDbScale
 70
     0
300
3/32" = 1'-0"
140
0.09375
141
12.0
290
     0
  0
SCALE
  5
50E
102
{ACAD_REACTORS
330
4F7
102
}
330
4F7
100
AcDbScale
 70
     0
300
1/8" = 1'-0"
140
0.125
141
12.0
290
     0
  0
SCALE
  5
50F
102
{ACAD_REACTORS
330
4F7
102
}
330
4F7
100
AcDbScale
 70
     0
300
3/16" = 1'-0"
140
0.1875
141
12.0
290
     0
  0
SCALE
  5
510
102
{ACAD_REACTORS
330
4F7
102
}
330
4F7
100
AcDbScale
 70
     0
300
1/4" = 1'-0"
140
0.25
141
12.0
290
     0
  0
SCALE
  5
511
102
{ACAD_REACTORS
330
4F7
102
}
330
4F7
100
AcDbScale
 70
     0
300
3/8" = 1'-0"
140
0.375
141
12.0
290
     0
  0
SCALE
  5
512
102
{ACAD_REACTORS
330
4F7
102
}
330
4F7
100
AcDbScale
 70
     0
300
1/2" = 1'-0"
140
0.5
141
12.0
290
     0
  0
SCALE
  5
513
102
{ACAD_REACTORS
330
4F7
102
}
330
4F7
100
AcDbScale
 70
     0
300
3/4" = 1'-0"
140
0.75
141
12.0
290
     0
  0
SCALE
  5
514
102
{ACAD_REACTORS
330
4F7
102
}
330
4F7
100
AcDbScale
 70
     0
300
1" = 1'-0"
140
1.0
141
12.0
290
     0
  0
SCALE
  5
515
102
{ACAD_REACTORS
330
4F7
102
}
330
4F7
100
AcDbScale
 70
     0
300
1-1/2" = 1'-0"
140
1.5
141
12.0
290
     0
  0
SCALE
  5
516
102
{ACAD_REACTORS
330
4F7
102
}
330
4F7
100
AcDbScale
 70
     0
300
3" = 1'-0"
140
3.0
141
12.0
290
     0
  0
SCALE
  5
517
102
{ACAD_REACTORS
330
4F7
102
}
330
4F7
100
AcDbScale
 70
     0
300
6" = 1'-0"
140
6.0
141
12.0
290
     0
  0
SCALE
  5
518
102
{ACAD_REACTORS
330
4F7
102
}
330
4F7
100
AcDbScale
 70
     0
300
1'-0" = 1'-0"
140
12.0
141
12.0
290
     0
  0
VISUALSTYLE
  5
2F
102
{ACAD_REACTORS
330
2A
102
}
102
{ACAD_XDICTIONARY
360
52C
102
}
330
2A
100
AcDbVisualStyle
  2
2dWireframe
 70
     4
 71
     0
 72
     2
 73
     0
 90
        0
 40
-0.6
 41
-30.0
 62
     5
 63
     7
 74
     1
 91
        4
 64
     7
 65
   257
 75
     1
175
     1
 42
1.0
 92
        0
 66
   257
 43
1.0
 76
     1
 77
     6
 78
     2
 67
     7
 79
     5
170
     0
171
     0
290
     0
174
     0
 93
        1
 44
0.0
173
     0
291
     0
 45
0.0
1001
ACAD
1000
AcDbSavedByObjectVersion
1070
     0
  0
VISUALSTYLE
  5
31
102
{ACAD_REACTORS
330
2A
102
}
102
{ACAD_XDICTIONARY
360
530
102
}
330
2A
100
AcDbVisualStyle
  2
3D Hidden
 70
     6
 71
     1
 72
     2
 73
     2
 90
        0
 40
-0.6
 41
-30.0
 62
     5
 63
     7
 74
     2
 91
        2
 64
     7
 65
   257
 75
     2
175
     1
 42
40.0
 92
        0
 66
   257
 43
1.0
 76
     1
 77
     6
 78
     2
 67
     7
 79
     3
170
     0
171
     0
290
     0
174
     0
 93
        1
 44
0.0
173
     0
291
     0
 45
0.0
1001
ACAD
1000
AcDbSavedByObjectVersion
1070
     0
  0
VISUALSTYLE
  5
30
102
{ACAD_REACTORS
330
2A
102
}
102
{ACAD_XDICTIONARY
360
52E
102
}
330
2A
100
AcDbVisualStyle
  2
3dWireframe
 70
     5
 71
     0
 72
     2
 73
     0
 90
        0
 40
-0.6
 41
-30.0
 62
     5
 63
     7
 74
     1
 91
        4
 64
     7
 65
   257
 75
     1
175
     1
 42
1.0
 92
        0
 66
   257
 43
1.0
 76
     1
 77
     6
 78
     2
 67
     7
 79
     5
170
     0
171
     0
290
     0
174
     0
 93
        1
 44
0.0
173
     0
291
     0
 45
0.0
1001
ACAD
1000
AcDbSavedByObjectVersion
1070
     0
  0
VISUALSTYLE
  5
32
102
{ACAD_REACTORS
330
2A
102
}
102
{ACAD_XDICTIONARY
360
532
102
}
330
2A
100
AcDbVisualStyle
  2
Basic
 70
     7
 71
     1
 72
     0
 73
     1
 90
        0
 40
-0.6
 41
-30.0
 62
     5
 63
     7
 74
     0
 91
        4
 64
     7
 65
   257
 75
     1
175
     1
 42
1.0
 92
        8
 66
     7
 43
1.0
 76
     1
 77
     6
 78
     2
 67
     7
 79
     5
170
     0
171
     0
290
     0
174
     0
 93
        1
 44
0.0
173
     0
291
     1
 45
0.0
1001
ACAD
1000
AcDbSavedByObjectVersion
1070
     0
  0
VISUALSTYLE
  5
36
102
{ACAD_REACTORS
330
2A
102
}
102
{ACAD_XDICTIONARY
360
53A
102
}
330
2A
100
AcDbVisualStyle
  2
Brighten
 70
    12
 71
     2
 72
     2
 73
     0
 90
        0
 40
-0.6
 41
-30.0
 62
     5
 63
     7
 74
     1
 91
        4
 64
     7
 65
   257
 75
     1
175
     1
 42
1.0
 92
        8
 66
     7
 43
1.0
 76
     1
 77
     6
 78
     2
 67
     7
 79
     5
170
     0
171
     0
290
     0
174
     0
 93
        1
 44
50.0
173
     0
291
     1
 45
0.0
1001
ACAD
1000
AcDbSavedByObjectVersion
1070
     0
  0
VISUALSTYLE
  5
3A
102
{ACAD_REACTORS
330
2A
102
}
102
{ACAD_XDICTIONARY
360
542
102
}
330
2A
100
AcDbVisualStyle
  2
ColorChange
 70
    16
 71
     2
 72
     2
 73
     3
 90
        0
 40
-0.6
 41
-30.0
 62
     5
 63
     8
 74
     1
 91
        4
 64
     7
 65
   257
 75
     1
175
     1
 42
1.0
 92
        8
 66
     8
 43
1.0
 76
     1
 77
     6
 78
     2
 67
     7
 79
     5
170
     0
171
     0
290
     0
174
     0
 93
        1
 44
0.0
173
     0
291
     1
 45
0.0
1001
ACAD
1000
AcDbSavedByObjectVersion
1070
     0
  0
VISUALSTYLE
  5
34
102
{ACAD_REACTORS
330
2A
102
}
102
{ACAD_XDICTIONARY
360
536
102
}
330
2A
100
AcDbVisualStyle
  2
Conceptual
 70
     9
 71
     3
 72
     2
 73
     0
 90
        0
 40
-0.6
 41
-30.0
 62
     5
 63
     7
 74
     2
 91
        2
 64
     7
 65
   257
 75
     1
175
     1
 42
40.0
 92
        8
 66
     7
 43
1.0
 76
     1
 77
     6
 78
     2
 67
     7
 79
     3
170
     0
171
     0
290
     0
174
     0
 93
        1
 44
0.0
173
     0
291
     0
 45
0.0
1001
ACAD
1000
AcDbSavedByObjectVersion
1070
     0
  0
VISUALSTYLE
  5
35
102
{ACAD_REACTORS
330
2A
102
}
102
{ACAD_XDICTIONARY
360
538
102
}
330
2A
100
AcDbVisualStyle
  2
Dim
 70
    11
 71
     2
 72
     2
 73
     0
 90
        0
 40
-0.6
 41
-30.0
 62
     5
 63
     7
 74
     1
 91
        4
 64
     7
 65
   257
 75
     1
175
     1
 42
1.0
 92
        8
 66
     7
 43
1.0
 76
     1
 77
     6
 78
     2
 67
     7
 79
     5
170
     0
171
     0
290
     0
174
     0
 93
        1
 44
-50.0
173
     0
291
     1
 45
0.0
1001
ACAD
1000
AcDbSavedByObjectVersion
1070
     0
  0
VISUALSTYLE
  5
39
102
{ACAD_REACTORS
330
2A
102
}
102
{ACAD_XDICTIONARY
360
540
102
}
330
2A
100
AcDbVisualStyle
  2
Facepattern
 70
    15
 71
     2
 72
     2
 73
     0
 90
        0
 40
-0.6
 41
-30.0
 62
     5
 63
     7
 74
     1
 91
        4
 64
     7
 65
   257
 75
     1
175
     1
 42
1.0
 92
        8
 66
     7
 43
1.0
 76
     1
 77
     6
 78
     2
 67
     7
 79
     5
170
     0
171
     0
290
     0
174
     0
 93
        1
 44
0.0
173
     0
291
     1
 45
0.0
1001
ACAD
1000
AcDbSavedByObjectVersion
1070
     0
  0
VISUALSTYLE
  5
2B
102
{ACAD_REACTORS
330
2A
102
}
102
{ACAD_XDICTIONARY
360
524
102
}
330
2A
100
AcDbVisualStyle
  2
Flat
 70
     0
 71
     2
 72
     1
 73
     1
 90
        2
 40
-0.6
 41
30.0
 62
     5
 63
     7
 74
     0
 91
        4
 64
     7
 65
   257
 75
     1
175
     1
 42
1.0
 92
        8
 66
     7
 43
1.0
 76
     1
 77
     6
 78
     2
 67
     7
 79
     5
170
     0
171
     0
290
     0
174
     0
 93
       13
 44
0.0
173
     0
291
     1
 45
0.0
1001
ACAD
1000
AcDbSavedByObjectVersion
1070
     0
  0
VISUALSTYLE
  5
2C
102
{ACAD_REACTORS
330
2A
102
}
102
{ACAD_XDICTIONARY
360
526
102
}
330
2A
100
AcDbVisualStyle
  2
FlatWithEdges
 70
     1
 71
     2
 72
     1
 73
     1
 90
        2
 40
-0.6
 41
30.0
 62
     5
 63
     7
 74
     1
 91
        4
 64
     7
 65
   257
 75
     1
175
     1
 42
1.0
 92
        0
 66
   257
 43
1.0
 76
     1
 77
     6
 78
     2
 67
     7
 79
     5
170
     0
171
     0
290
     0
174
     0
 93
       13
 44
0.0
173
     0
291
     1
 45
0.0
1001
ACAD
1000
AcDbSavedByObjectVersion
1070
     0
  0
VISUALSTYLE
  5
2D
102
{ACAD_REACTORS
330
2A
102
}
102
{ACAD_XDICTIONARY
360
528
102
}
330
2A
100
AcDbVisualStyle
  2
Gouraud
 70
     2
 71
     2
 72
     2
 73
     1
 90
        2
 40
-0.6
 41
30.0
 62
     5
 63
     7
 74
     0
 91
        4
 64
     7
 65
   257
 75
     1
175
     1
 42
1.0
 92
        0
 66
     7
 43
1.0
 76
     1
 77
     6
 78
     2
 67
     7
 79
     5
170
     0
171
     0
290
     0
174
     0
 93
       13
 44
0.0
173
     0
291
     1
 45
0.0
1001
ACAD
1000
AcDbSavedByObjectVersion
1070
     0
  0
VISUALSTYLE
  5
2E
102
{ACAD_REACTORS
330
2A
102
}
102
{ACAD_XDICTIONARY
360
52A
102
}
330
2A
100
AcDbVisualStyle
  2
GouraudWithEdges
 70
     3
 71
     2
 72
     2
 73
     1
 90
        2
 40
-0.6
 41
30.0
 62
     5
 63
     7
 74
     1
 91
        4
 64
     7
 65
   257
 75
     1
175
     1
 42
1.0
 92
        0
 66
   257
 43
1.0
 76
     1
 77
     6
 78
     2
 67
     7
 79
     5
170
     0
171
     0
290
     0
174
     0
 93
       13
 44
0.0
173
     0
291
     1
 45
0.0
1001
ACAD
1000
AcDbSavedByObjectVersion
1070
     0
  0
VISUALSTYLE
  5
38
102
{ACAD_REACTORS
330
2A
102
}
102
{ACAD_XDICTIONARY
360
53E
102
}
330
2A
100
AcDbVisualStyle
  2
Linepattern
 70
    14
 71
     2
 72
     2
 73
     0
 90
        0
 40
-0.6
 41
-30.0
 62
     5
 63
     7
 74
     1
 91
        4
 64
     7
 65
   257
 75
     7
175
     7
 42
1.0
 92
        8
 66
     7
 43
1.0
 76
     1
 77
     6
 78
     2
 67
     7
 79
     5
170
     0
171
     0
290
     0
174
     0
 93
        1
 44
0.0
173
     0
291
     1
 45
0.0
1001
ACAD
1000
AcDbSavedByObjectVersion
1070
     0
  0
VISUALSTYLE
  5
33
102
{ACAD_REACTORS
330
2A
102
}
102
{ACAD_XDICTIONARY
360
534
102
}
330
2A
100
AcDbVisualStyle
  2
Realistic
 70
     8
 71
     2
 72
     2
 73
     0
 90
        0
 40
-0.6
 41
-30.0
 62
     5
 63
     7
 74
     1
 91
        0
 64
     7
 65
   257
 75
     1
175
     1
 42
1.0
 92
        8
 66
     8
 43
1.0
 76
     1
 77
     6
 78
     2
 67
     7
 79
     5
170
     0
171
     0
290
     0
174
     0
 93
       13
 44
0.0
173
     0
291
     0
 45
0.0
1001
ACAD
1000
AcDbSavedByObjectVersion
1070
     0
  0
VISUALSTYLE
  5
37
102
{ACAD_REACTORS
330
2A
102
}
102
{ACAD_XDICTIONARY
360
53C
102
}
330
2A
100
AcDbVisualStyle
  2
Thicken
 70
    13
 71
     2
 72
     2
 73
     0
 90
        0
 40
-0.6
 41
-30.0
 62
     5
 63
     7
 74
     1
 91
        4
 64
     7
 65
   257
 75
     1
175
     1
 42
1.0
 92
       12
 66
     7
 43
1.0
 76
     1
 77
     6
 78
     2
 67
     7
 79
     5
170
     0
171
     0
290
     0
174
     0
 93
        1
 44
0.0
173
     0
291
     1
 45
0.0
1001
ACAD
1000
AcDbSavedByObjectVersion
1070
     0
  0
DICTIONARYVAR
  5
51F
102
{ACAD_REACTORS
330
51B
102
}
330
51B
100
DictionaryVariables
280
     0
  1
1:1
  0
DICTIONARYVAR
  5
520
102
{ACAD_REACTORS
330
51B
102
}
330
51B
100
DictionaryVariables
280
     0
  1
2
  0
DICTIONARYVAR
  5
521
102
{ACAD_REACTORS
330
51B
102
}
330
51B
100
DictionaryVariables
280
     0
  1
1
  0
DICTIONARYVAR
  5
51E
102
{ACAD_REACTORS
330
51B
102
}
330
51B
100
DictionaryVariables
280
     0
  1
0
  0
XRECORD
  5
51A
102
{ACAD_REACTORS
330
519
102
}
330
519
100
AcDbXrecord
280
     1
1000
This DWG file was created in ArchiCAD(TM)®
  0
SPATIAL_FILTER
  5
4F3
102
{ACAD_REACTORS
330
4F2
102
}
330
4F2
100
AcDbFilter
100
AcDbSpatialFilter
 70
     4
 10
4.999999999999999
 20
33.29637367735956
 10
290.4797624752943
 20
33.29637367735956
 10
290.4797624752943
 20
203.6672388632184
 10
4.999999999999999
 20
203.6672388632184
210
0.0
220
0.0
230
1.0
 11
0.0
 21
0.0
 31
0.0
 71
     1
 72
     0
 73
     0
 40
1.0
 40
0.0
 40
0.0
 40
0.0
 40
0.0
 40
1.0
 40
0.0
 40
0.0
 40
0.0
 40
0.0
 40
1.0
 40
0.0
 40
1.0
 40
0.0
 40
0.0
 40
0.0
 40
0.0
 40
1.0
 40
0.0
 40
0.0
 40
0.0
 40
0.0
 40
1.0
 40
0.0
  0
DICTIONARY
  5
546
330
3D
100
AcDbDictionary
280
     1
281
     1
  3
ACAD_XREC_ROUNDTRIP
360
547
  0
DICTIONARY
  5
544
330
3C
100
AcDbDictionary
280
     1
281
     1
  3
ACAD_XREC_ROUNDTRIP
360
545
  0
DICTIONARY
  5
548
330
3E
100
AcDbDictionary
280
     1
281
     1
  3
ACAD_XREC_ROUNDTRIP
360
549
  0
DICTIONARY
  5
52C
330
2F
100
AcDbDictionary
280
     1
281
     1
  3
ACAD_XREC_ROUNDTRIP
360
52D
  0
DICTIONARY
  5
530
330
31
100
AcDbDictionary
280
     1
281
     1
  3
ACAD_XREC_ROUNDTRIP
360
531
  0
DICTIONARY
  5
52E
330
30
100
AcDbDictionary
280
     1
281
     1
  3
ACAD_XREC_ROUNDTRIP
360
52F
  0
DICTIONARY
  5
532
330
32
100
AcDbDictionary
280
     1
281
     1
  3
ACAD_XREC_ROUNDTRIP
360
533
  0
DICTIONARY
  5
53A
330
36
100
AcDbDictionary
280
     1
281
     1
  3
ACAD_XREC_ROUNDTRIP
360
53B
  0
DICTIONARY
  5
542
330
3A
100
AcDbDictionary
280
     1
281
     1
  3
ACAD_XREC_ROUNDTRIP
360
543
  0
DICTIONARY
  5
536
330
34
100
AcDbDictionary
280
     1
281
     1
  3
ACAD_XREC_ROUNDTRIP
360
537
  0
DICTIONARY
  5
538
330
35
100
AcDbDictionary
280
     1
281
     1
  3
ACAD_XREC_ROUNDTRIP
360
539
  0
DICTIONARY
  5
540
330
39
100
AcDbDictionary
280
     1
281
     1
  3
ACAD_XREC_ROUNDTRIP
360
541
  0
DICTIONARY
  5
524
330
2B
100
AcDbDictionary
280
     1
281
     1
  3
ACAD_XREC_ROUNDTRIP
360
525
  0
DICTIONARY
  5
526
330
2C
100
AcDbDictionary
280
     1
281
     1
  3
ACAD_XREC_ROUNDTRIP
360
527
  0
DICTIONARY
  5
528
330
2D
100
AcDbDictionary
280
     1
281
     1
  3
ACAD_XREC_ROUNDTRIP
360
529
  0
DICTIONARY
  5
52A
330
2E
100
AcDbDictionary
280
     1
281
     1
  3
ACAD_XREC_ROUNDTRIP
360
52B
  0
DICTIONARY
  5
53E
330
38
100
AcDbDictionary
280
     1
281
     1
  3
ACAD_XREC_ROUNDTRIP
360
53F
  0
DICTIONARY
  5
534
330
33
100
AcDbDictionary
280
     1
281
     1
  3
ACAD_XREC_ROUNDTRIP
360
535
  0
DICTIONARY
  5
53C
330
37
100
AcDbDictionary
280
     1
281
     1
  3
ACAD_XREC_ROUNDTRIP
360
53D
  0
XRECORD
  5
547
102
{ACAD_REACTORS
330
546
102
}
330
546
100
AcDbXrecord
280
     1
102
MATERIAL
148
0.0
149
0.0
149
0.0
 93
        0
 94
      127
282
     0
 72
     1
 77
     1
171
     1
175
     1
179
     1
273
     0
  0
XRECORD
  5
545
102
{ACAD_REACTORS
330
544
102
}
330
544
100
AcDbXrecord
280
     1
102
MATERIAL
148
0.0
149
0.0
149
0.0
 93
        0
 94
      127
282
     0
 72
     1
 77
     1
171
     1
175
     1
179
     1
273
     0
  0
XRECORD
  5
549
102
{ACAD_REACTORS
330
548
102
}
330
548
100
AcDbXrecord
280
     1
102
MATERIAL
148
0.0
149
0.0
149
0.0
 93
        0
 94
      127
282
     0
 72
     1
 77
     1
171
     1
175
     1
179
     1
273
     0
  0
XRECORD
  5
52D
102
{ACAD_REACTORS
330
52C
102
}
330
52C
100
AcDbXrecord
280
     1
102
RTVSPropertyOp0
 70
     1
102
RTVSPropertyOp1
 70
     1
102
RTVSPropertyOp2
 70
     1
102
RTVSPropertyOp3
 70
     1
102
RTVSPropertyOp4
 70
     1
102
RTVSPropertyOp5
 70
     1
102
RTVSPropertyOp6
 70
     1
102
RTVSPropertyOp7
 70
     1
102
RTVSPropertyOp8
 70
     1
102
RTVSPropertyOp9
 70
     1
102
RTVSPropertyOp10
 70
     1
102
RTVSPropertyOp11
 70
     1
102
RTVSPropertyOp12
 70
     1
102
RTVSPropertyOp13
 70
     1
102
RTVSPropertyOp14
 70
     1
102
RTVSPropertyOp15
 70
     1
102
RTVSPropertyOp16
 70
     1
102
RTVSPropertyOp17
 70
     1
102
RTVSPropertyOp18
 70
     1
102
RTVSPropertyOp19
 70
     1
102
RTVSPropertyOp20
 70
     1
102
RTVSPropertyOp21
 70
     1
102
RTVSPropertyOp22
 70
     1
102
RTVSPropertyOp23
 70
     1
102
RTVSPropertyOp24
 70
     1
102
RTVSPropertyOp25
 70
     1
102
RTVSPropertyOp26
 70
     1
102
RTVSPropertyOp27
 70
     1
102
RTVSPropertyOp28
 70
     1
102
RTVSPropertyOp29
 70
     1
102
RTVSPropertyOp30
 70
     1
102
RTVSPropertyOp31
 70
     1
102
RTVSPropertyOp32
 70
     1
  0
XRECORD
  5
531
102
{ACAD_REACTORS
330
530
102
}
330
530
100
AcDbXrecord
280
     1
102
RTVSPropertyOp0
 70
     1
102
RTVSPropertyOp1
 70
     1
102
RTVSPropertyOp2
 70
     1
102
RTVSPropertyOp3
 70
     1
102
RTVSPropertyOp4
 70
     1
102
RTVSPropertyOp5
 70
     1
102
RTVSPropertyOp6
 70
     1
102
RTVSPropertyOp7
 70
     1
102
RTVSPropertyOp8
 70
     1
102
RTVSPropertyOp9
 70
     1
102
RTVSPropertyOp10
 70
     1
102
RTVSPropertyOp11
 70
     1
102
RTVSPropertyOp12
 70
     1
102
RTVSPropertyOp13
 70
     1
102
RTVSPropertyOp14
 70
     1
102
RTVSPropertyOp15
 70
     1
102
RTVSPropertyOp16
 70
     1
102
RTVSPropertyOp17
 70
     1
102
RTVSPropertyOp18
 70
     1
102
RTVSPropertyOp19
 70
     1
102
RTVSPropertyOp20
 70
     1
102
RTVSPropertyOp21
 70
     1
102
RTVSPropertyOp22
 70
     1
102
RTVSPropertyOp23
 70
     1
102
RTVSPropertyOp24
 70
     1
102
RTVSPropertyOp25
 70
     1
102
RTVSPropertyOp26
 70
     1
102
RTVSPropertyOp27
 70
     1
102
RTVSPropertyOp28
 70
     1
102
RTVSPropertyOp29
 70
     1
102
RTVSPropertyOp30
 70
     1
102
RTVSPropertyOp31
 70
     1
102
RTVSPropertyOp32
 70
     1
  0
XRECORD
  5
52F
102
{ACAD_REACTORS
330
52E
102
}
330
52E
100
AcDbXrecord
280
     1
102
RTVSPropertyOp0
 70
     1
102
RTVSPropertyOp1
 70
     1
102
RTVSPropertyOp2
 70
     1
102
RTVSPropertyOp3
 70
     1
102
RTVSPropertyOp4
 70
     1
102
RTVSPropertyOp5
 70
     1
102
RTVSPropertyOp6
 70
     1
102
RTVSPropertyOp7
 70
     1
102
RTVSPropertyOp8
 70
     1
102
RTVSPropertyOp9
 70
     1
102
RTVSPropertyOp10
 70
     1
102
RTVSPropertyOp11
 70
     1
102
RTVSPropertyOp12
 70
     1
102
RTVSPropertyOp13
 70
     1
102
RTVSPropertyOp14
 70
     1
102
RTVSPropertyOp15
 70
     1
102
RTVSPropertyOp16
 70
     1
102
RTVSPropertyOp17
 70
     1
102
RTVSPropertyOp18
 70
     1
102
RTVSPropertyOp19
 70
     1
102
RTVSPropertyOp20
 70
     1
102
RTVSPropertyOp21
 70
     1
102
RTVSPropertyOp22
 70
     1
102
RTVSPropertyOp23
 70
     1
102
RTVSPropertyOp24
 70
     1
102
RTVSPropertyOp25
 70
     1
102
RTVSPropertyOp26
 70
     1
102
RTVSPropertyOp27
 70
     1
102
RTVSPropertyOp28
 70
     1
102
RTVSPropertyOp29
 70
     1
102
RTVSPropertyOp30
 70
     1
102
RTVSPropertyOp31
 70
     1
102
RTVSPropertyOp32
 70
     1
  0
XRECORD
  5
533
102
{ACAD_REACTORS
330
532
102
}
330
532
100
AcDbXrecord
280
     1
102
RTVSPropertyOp0
 70
     1
102
RTVSPropertyOp1
 70
     1
102
RTVSPropertyOp2
 70
     1
102
RTVSPropertyOp3
 70
     1
102
RTVSPropertyOp4
 70
     1
102
RTVSPropertyOp5
 70
     1
102
RTVSPropertyOp6
 70
     1
102
RTVSPropertyOp7
 70
     1
102
RTVSPropertyOp8
 70
     1
102
RTVSPropertyOp9
 70
     1
102
RTVSPropertyOp10
 70
     1
102
RTVSPropertyOp11
 70
     1
102
RTVSPropertyOp12
 70
     1
102
RTVSPropertyOp13
 70
     1
102
RTVSPropertyOp14
 70
     1
102
RTVSPropertyOp15
 70
     1
102
RTVSPropertyOp16
 70
     1
102
RTVSPropertyOp17
 70
     1
102
RTVSPropertyOp18
 70
     1
102
RTVSPropertyOp19
 70
     1
102
RTVSPropertyOp20
 70
     1
102
RTVSPropertyOp21
 70
     1
102
RTVSPropertyOp22
 70
     1
102
RTVSPropertyOp23
 70
     1
102
RTVSPropertyOp24
 70
     1
102
RTVSPropertyOp25
 70
     1
102
RTVSPropertyOp26
 70
     1
102
RTVSPropertyOp27
 70
     1
102
RTVSPropertyOp28
 70
     1
102
RTVSPropertyOp29
 70
     1
102
RTVSPropertyOp30
 70
     1
102
RTVSPropertyOp31
 70
     1
102
RTVSPropertyOp32
 70
     1
  0
XRECORD
  5
53B
102
{ACAD_REACTORS
330
53A
102
}
330
53A
100
AcDbXrecord
280
     1
102
RTVSPropertyOp0
 70
     1
102
RTVSPropertyOp1
 70
     1
102
RTVSPropertyOp2
 70
     1
102
RTVSPropertyOp3
 70
     1
102
RTVSPropertyOp4
 70
     1
102
RTVSPropertyOp5
 70
     1
102
RTVSPropertyOp6
 70
     1
102
RTVSPropertyOp7
 70
     1
102
RTVSPropertyOp8
 70
     1
102
RTVSPropertyOp9
 70
     1
102
RTVSPropertyOp10
 70
     1
102
RTVSPropertyOp11
 70
     1
102
RTVSPropertyOp12
 70
     1
102
RTVSPropertyOp13
 70
     1
102
RTVSPropertyOp14
 70
     1
102
RTVSPropertyOp15
 70
     1
102
RTVSPropertyOp16
 70
     1
102
RTVSPropertyOp17
 70
     1
102
RTVSPropertyOp18
 70
     1
102
RTVSPropertyOp19
 70
     1
102
RTVSPropertyOp20
 70
     1
102
RTVSPropertyOp21
 70
     1
102
RTVSPropertyOp22
 70
     1
102
RTVSPropertyOp23
 70
     1
102
RTVSPropertyOp24
 70
     1
102
RTVSPropertyOp25
 70
     1
102
RTVSPropertyOp26
 70
     1
102
RTVSPropertyOp27
 70
     1
102
RTVSPropertyOp28
 70
     1
102
RTVSPropertyOp29
 70
     1
102
RTVSPropertyOp30
 70
     1
102
RTVSPropertyOp31
 70
     1
102
RTVSPropertyOp32
 70
     1
  0
XRECORD
  5
543
102
{ACAD_REACTORS
330
542
102
}
330
542
100
AcDbXrecord
280
     1
102
RTVSPropertyOp0
 70
     1
102
RTVSPropertyOp1
 70
     1
102
RTVSPropertyOp2
 70
     1
102
RTVSPropertyOp3
 70
     1
102
RTVSPropertyOp4
 70
     1
102
RTVSPropertyOp5
 70
     1
102
RTVSPropertyOp6
 70
     1
102
RTVSPropertyOp7
 70
     1
102
RTVSPropertyOp8
 70
     1
102
RTVSPropertyOp9
 70
     1
102
RTVSPropertyOp10
 70
     1
102
RTVSPropertyOp11
 70
     1
102
RTVSPropertyOp12
 70
     1
102
RTVSPropertyOp13
 70
     1
102
RTVSPropertyOp14
 70
     1
102
RTVSPropertyOp15
 70
     1
102
RTVSPropertyOp16
 70
     1
102
RTVSPropertyOp17
 70
     1
102
RTVSPropertyOp18
 70
     1
102
RTVSPropertyOp19
 70
     1
102
RTVSPropertyOp20
 70
     1
102
RTVSPropertyOp21
 70
     1
102
RTVSPropertyOp22
 70
     1
102
RTVSPropertyOp23
 70
     1
102
RTVSPropertyOp24
 70
     1
102
RTVSPropertyOp25
 70
     1
102
RTVSPropertyOp26
 70
     1
102
RTVSPropertyOp27
 70
     1
102
RTVSPropertyOp28
 70
     1
102
RTVSPropertyOp29
 70
     1
102
RTVSPropertyOp30
 70
     1
102
RTVSPropertyOp31
 70
     1
102
RTVSPropertyOp32
 70
     1
  0
XRECORD
  5
537
102
{ACAD_REACTORS
330
536
102
}
330
536
100
AcDbXrecord
280
     1
102
RTVSPropertyOp0
 70
     1
102
RTVSPropertyOp1
 70
     1
102
RTVSPropertyOp2
 70
     1
102
RTVSPropertyOp3
 70
     1
102
RTVSPropertyOp4
 70
     1
102
RTVSPropertyOp5
 70
     1
102
RTVSPropertyOp6
 70
     1
102
RTVSPropertyOp7
 70
     1
102
RTVSPropertyOp8
 70
     1
102
RTVSPropertyOp9
 70
     1
102
RTVSPropertyOp10
 70
     1
102
RTVSPropertyOp11
 70
     1
102
RTVSPropertyOp12
 70
     1
102
RTVSPropertyOp13
 70
     1
102
RTVSPropertyOp14
 70
     1
102
RTVSPropertyOp15
 70
     1
102
RTVSPropertyOp16
 70
     1
102
RTVSPropertyOp17
 70
     1
102
RTVSPropertyOp18
 70
     1
102
RTVSPropertyOp19
 70
     1
102
RTVSPropertyOp20
 70
     1
102
RTVSPropertyOp21
 70
     1
102
RTVSPropertyOp22
 70
     1
102
RTVSPropertyOp23
 70
     1
102
RTVSPropertyOp24
 70
     1
102
RTVSPropertyOp25
 70
     1
102
RTVSPropertyOp26
 70
     1
102
RTVSPropertyOp27
 70
     1
102
RTVSPropertyOp28
 70
     1
102
RTVSPropertyOp29
 70
     1
102
RTVSPropertyOp30
 70
     1
102
RTVSPropertyOp31
 70
     1
102
RTVSPropertyOp32
 70
     1
  0
XRECORD
  5
539
102
{ACAD_REACTORS
330
538
102
}
330
538
100
AcDbXrecord
280
     1
102
RTVSPropertyOp0
 70
     1
102
RTVSPropertyOp1
 70
     1
102
RTVSPropertyOp2
 70
     1
102
RTVSPropertyOp3
 70
     1
102
RTVSPropertyOp4
 70
     1
102
RTVSPropertyOp5
 70
     1
102
RTVSPropertyOp6
 70
     1
102
RTVSPropertyOp7
 70
     1
102
RTVSPropertyOp8
 70
     1
102
RTVSPropertyOp9
 70
     1
102
RTVSPropertyOp10
 70
     1
102
RTVSPropertyOp11
 70
     1
102
RTVSPropertyOp12
 70
     1
102
RTVSPropertyOp13
 70
     1
102
RTVSPropertyOp14
 70
     1
102
RTVSPropertyOp15
 70
     1
102
RTVSPropertyOp16
 70
     1
102
RTVSPropertyOp17
 70
     1
102
RTVSPropertyOp18
 70
     1
102
RTVSPropertyOp19
 70
     1
102
RTVSPropertyOp20
 70
     1
102
RTVSPropertyOp21
 70
     1
102
RTVSPropertyOp22
 70
     1
102
RTVSPropertyOp23
 70
     1
102
RTVSPropertyOp24
 70
     1
102
RTVSPropertyOp25
 70
     1
102
RTVSPropertyOp26
 70
     1
102
RTVSPropertyOp27
 70
     1
102
RTVSPropertyOp28
 70
     1
102
RTVSPropertyOp29
 70
     1
102
RTVSPropertyOp30
 70
     1
102
RTVSPropertyOp31
 70
     1
102
RTVSPropertyOp32
 70
     1
  0
XRECORD
  5
541
102
{ACAD_REACTORS
330
540
102
}
330
540
100
AcDbXrecord
280
     1
102
RTVSPropertyOp0
 70
     1
102
RTVSPropertyOp1
 70
     1
102
RTVSPropertyOp2
 70
     1
102
RTVSPropertyOp3
 70
     1
102
RTVSPropertyOp4
 70
     1
102
RTVSPropertyOp5
 70
     1
102
RTVSPropertyOp6
 70
     1
102
RTVSPropertyOp7
 70
     1
102
RTVSPropertyOp8
 70
     1
102
RTVSPropertyOp9
 70
     1
102
RTVSPropertyOp10
 70
     1
102
RTVSPropertyOp11
 70
     1
102
RTVSPropertyOp12
 70
     1
102
RTVSPropertyOp13
 70
     1
102
RTVSPropertyOp14
 70
     1
102
RTVSPropertyOp15
 70
     1
102
RTVSPropertyOp16
 70
     1
102
RTVSPropertyOp17
 70
     1
102
RTVSPropertyOp18
 70
     1
102
RTVSPropertyOp19
 70
     1
102
RTVSPropertyOp20
 70
     1
102
RTVSPropertyOp21
 70
     1
102
RTVSPropertyOp22
 70
     1
102
RTVSPropertyOp23
 70
     1
102
RTVSPropertyOp24
 70
     1
102
RTVSPropertyOp25
 70
     1
102
RTVSPropertyOp26
 70
     1
102
RTVSPropertyOp27
 70
     1
102
RTVSPropertyOp28
 70
     1
102
RTVSPropertyOp29
 70
     1
102
RTVSPropertyOp30
 70
     1
102
RTVSPropertyOp31
 70
     1
102
RTVSPropertyOp32
 70
     1
  0
XRECORD
  5
525
102
{ACAD_REACTORS
330
524
102
}
330
524
100
AcDbXrecord
280
     1
102
RTVSPropertyOp0
 70
     1
102
RTVSPropertyOp1
 70
     1
102
RTVSPropertyOp2
 70
     1
102
RTVSPropertyOp3
 70
     1
102
RTVSPropertyOp4
 70
     1
102
RTVSPropertyOp5
 70
     1
102
RTVSPropertyOp6
 70
     1
102
RTVSPropertyOp7
 70
     1
102
RTVSPropertyOp8
 70
     1
102
RTVSPropertyOp9
 70
     1
102
RTVSPropertyOp10
 70
     1
102
RTVSPropertyOp11
 70
     1
102
RTVSPropertyOp12
 70
     1
102
RTVSPropertyOp13
 70
     1
102
RTVSPropertyOp14
 70
     1
102
RTVSPropertyOp15
 70
     1
102
RTVSPropertyOp16
 70
     1
102
RTVSPropertyOp17
 70
     1
102
RTVSPropertyOp18
 70
     1
102
RTVSPropertyOp19
 70
     1
102
RTVSPropertyOp20
 70
     1
102
RTVSPropertyOp21
 70
     1
102
RTVSPropertyOp22
 70
     1
102
RTVSPropertyOp23
 70
     1
102
RTVSPropertyOp24
 70
     1
102
RTVSPropertyOp25
 70
     1
102
RTVSPropertyOp26
 70
     1
102
RTVSPropertyOp27
 70
     1
102
RTVSPropertyOp28
 70
     1
102
RTVSPropertyOp29
 70
     1
102
RTVSPropertyOp30
 70
     1
102
RTVSPropertyOp31
 70
     1
102
RTVSPropertyOp32
 70
     1
  0
XRECORD
  5
527
102
{ACAD_REACTORS
330
526
102
}
330
526
100
AcDbXrecord
280
     1
102
RTVSPropertyOp0
 70
     1
102
RTVSPropertyOp1
 70
     1
102
RTVSPropertyOp2
 70
     1
102
RTVSPropertyOp3
 70
     1
102
RTVSPropertyOp4
 70
     1
102
RTVSPropertyOp5
 70
     1
102
RTVSPropertyOp6
 70
     1
102
RTVSPropertyOp7
 70
     1
102
RTVSPropertyOp8
 70
     1
102
RTVSPropertyOp9
 70
     1
102
RTVSPropertyOp10
 70
     1
102
RTVSPropertyOp11
 70
     1
102
RTVSPropertyOp12
 70
     1
102
RTVSPropertyOp13
 70
     1
102
RTVSPropertyOp14
 70
     1
102
RTVSPropertyOp15
 70
     1
102
RTVSPropertyOp16
 70
     1
102
RTVSPropertyOp17
 70
     1
102
RTVSPropertyOp18
 70
     1
102
RTVSPropertyOp19
 70
     1
102
RTVSPropertyOp20
 70
     1
102
RTVSPropertyOp21
 70
     1
102
RTVSPropertyOp22
 70
     1
102
RTVSPropertyOp23
 70
     1
102
RTVSPropertyOp24
 70
     1
102
RTVSPropertyOp25
 70
     1
102
RTVSPropertyOp26
 70
     1
102
RTVSPropertyOp27
 70
     1
102
RTVSPropertyOp28
 70
     1
102
RTVSPropertyOp29
 70
     1
102
RTVSPropertyOp30
 70
     1
102
RTVSPropertyOp31
 70
     1
102
RTVSPropertyOp32
 70
     1
  0
XRECORD
  5
529
102
{ACAD_REACTORS
330
528
102
}
330
528
100
AcDbXrecord
280
     1
102
RTVSPropertyOp0
 70
     1
102
RTVSPropertyOp1
 70
     1
102
RTVSPropertyOp2
 70
     1
102
RTVSPropertyOp3
 70
     1
102
RTVSPropertyOp4
 70
     1
102
RTVSPropertyOp5
 70
     1
102
RTVSPropertyOp6
 70
     1
102
RTVSPropertyOp7
 70
     1
102
RTVSPropertyOp8
 70
     1
102
RTVSPropertyOp9
 70
     1
102
RTVSPropertyOp10
 70
     1
102
RTVSPropertyOp11
 70
     1
102
RTVSPropertyOp12
 70
     1
102
RTVSPropertyOp13
 70
     1
102
RTVSPropertyOp14
 70
     1
102
RTVSPropertyOp15
 70
     1
102
RTVSPropertyOp16
 70
     1
102
RTVSPropertyOp17
 70
     1
102
RTVSPropertyOp18
 70
     1
102
RTVSPropertyOp19
 70
     1
102
RTVSPropertyOp20
 70
     1
102
RTVSPropertyOp21
 70
     1
102
RTVSPropertyOp22
 70
     1
102
RTVSPropertyOp23
 70
     1
102
RTVSPropertyOp24
 70
     1
102
RTVSPropertyOp25
 70
     1
102
RTVSPropertyOp26
 70
     1
102
RTVSPropertyOp27
 70
     1
102
RTVSPropertyOp28
 70
     1
102
RTVSPropertyOp29
 70
     1
102
RTVSPropertyOp30
 70
     1
102
RTVSPropertyOp31
 70
     1
102
RTVSPropertyOp32
 70
     1
  0
XRECORD
  5
52B
102
{ACAD_REACTORS
330
52A
102
}
330
52A
100
AcDbXrecord
280
     1
102
RTVSPropertyOp0
 70
     1
102
RTVSPropertyOp1
 70
     1
102
RTVSPropertyOp2
 70
     1
102
RTVSPropertyOp3
 70
     1
102
RTVSPropertyOp4
 70
     1
102
RTVSPropertyOp5
 70
     1
102
RTVSPropertyOp6
 70
     1
102
RTVSPropertyOp7
 70
     1
102
RTVSPropertyOp8
 70
     1
102
RTVSPropertyOp9
 70
     1
102
RTVSPropertyOp10
 70
     1
102
RTVSPropertyOp11
 70
     1
102
RTVSPropertyOp12
 70
     1
102
RTVSPropertyOp13
 70
     1
102
RTVSPropertyOp14
 70
     1
102
RTVSPropertyOp15
 70
     1
102
RTVSPropertyOp16
 70
     1
102
RTVSPropertyOp17
 70
     1
102
RTVSPropertyOp18
 70
     1
102
RTVSPropertyOp19
 70
     1
102
RTVSPropertyOp20
 70
     1
102
RTVSPropertyOp21
 70
     1
102
RTVSPropertyOp22
 70
     1
102
RTVSPropertyOp23
 70
     1
102
RTVSPropertyOp24
 70
     1
102
RTVSPropertyOp25
 70
     1
102
RTVSPropertyOp26
 70
     1
102
RTVSPropertyOp27
 70
     1
102
RTVSPropertyOp28
 70
     1
102
RTVSPropertyOp29
 70
     1
102
RTVSPropertyOp30
 70
     1
102
RTVSPropertyOp31
 70
     1
102
RTVSPropertyOp32
 70
     1
  0
XRECORD
  5
53F
102
{ACAD_REACTORS
330
53E
102
}
330
53E
100
AcDbXrecord
280
     1
102
RTVSPropertyOp0
 70
     1
102
RTVSPropertyOp1
 70
     1
102
RTVSPropertyOp2
 70
     1
102
RTVSPropertyOp3
 70
     1
102
RTVSPropertyOp4
 70
     1
102
RTVSPropertyOp5
 70
     1
102
RTVSPropertyOp6
 70
     1
102
RTVSPropertyOp7
 70
     1
102
RTVSPropertyOp8
 70
     1
102
RTVSPropertyOp9
 70
     1
102
RTVSPropertyOp10
 70
     1
102
RTVSPropertyOp11
 70
     1
102
RTVSPropertyOp12
 70
     1
102
RTVSPropertyOp13
 70
     1
102
RTVSPropertyOp14
 70
     1
102
RTVSPropertyOp15
 70
     1
102
RTVSPropertyOp16
 70
     1
102
RTVSPropertyOp17
 70
     1
102
RTVSPropertyOp18
 70
     1
102
RTVSPropertyOp19
 70
     1
102
RTVSPropertyOp20
 70
     1
102
RTVSPropertyOp21
 70
     1
102
RTVSPropertyOp22
 70
     1
102
RTVSPropertyOp23
 70
     1
102
RTVSPropertyOp24
 70
     1
102
RTVSPropertyOp25
 70
     1
102
RTVSPropertyOp26
 70
     1
102
RTVSPropertyOp27
 70
     1
102
RTVSPropertyOp28
 70
     1
102
RTVSPropertyOp29
 70
     1
102
RTVSPropertyOp30
 70
     1
102
RTVSPropertyOp31
 70
     1
102
RTVSPropertyOp32
 70
     1
  0
XRECORD
  5
535
102
{ACAD_REACTORS
330
534
102
}
330
534
100
AcDbXrecord
280
     1
102
RTVSPropertyOp0
 70
     1
102
RTVSPropertyOp1
 70
     1
102
RTVSPropertyOp2
 70
     1
102
RTVSPropertyOp3
 70
     1
102
RTVSPropertyOp4
 70
     1
102
RTVSPropertyOp5
 70
     1
102
RTVSPropertyOp6
 70
     1
102
RTVSPropertyOp7
 70
     1
102
RTVSPropertyOp8
 70
     1
102
RTVSPropertyOp9
 70
     1
102
RTVSPropertyOp10
 70
     1
102
RTVSPropertyOp11
 70
     1
102
RTVSPropertyOp12
 70
     1
102
RTVSPropertyOp13
 70
     1
102
RTVSPropertyOp14
 70
     1
102
RTVSPropertyOp15
 70
     1
102
RTVSPropertyOp16
 70
     1
102
RTVSPropertyOp17
 70
     1
102
RTVSPropertyOp18
 70
     1
102
RTVSPropertyOp19
 70
     1
102
RTVSPropertyOp20
 70
     1
102
RTVSPropertyOp21
 70
     1
102
RTVSPropertyOp22
 70
     1
102
RTVSPropertyOp23
 70
     1
102
RTVSPropertyOp24
 70
     1
102
RTVSPropertyOp25
 70
     1
102
RTVSPropertyOp26
 70
     1
102
RTVSPropertyOp27
 70
     1
102
RTVSPropertyOp28
 70
     1
102
RTVSPropertyOp29
 70
     1
102
RTVSPropertyOp30
 70
     1
102
RTVSPropertyOp31
 70
     1
102
RTVSPropertyOp32
 70
     1
  0
XRECORD
  5
53D
102
{ACAD_REACTORS
330
53C
102
}
330
53C
100
AcDbXrecord
280
     1
102
RTVSPropertyOp0
 70
     1
102
RTVSPropertyOp1
 70
     1
102
RTVSPropertyOp2
 70
     1
102
RTVSPropertyOp3
 70
     1
102
RTVSPropertyOp4
 70
     1
102
RTVSPropertyOp5
 70
     1
102
RTVSPropertyOp6
 70
     1
102
RTVSPropertyOp7
 70
     1
102
RTVSPropertyOp8
 70
     1
102
RTVSPropertyOp9
 70
     1
102
RTVSPropertyOp10
 70
     1
102
RTVSPropertyOp11
 70
     1
102
RTVSPropertyOp12
 70
     1
102
RTVSPropertyOp13
 70
     1
102
RTVSPropertyOp14
 70
     1
102
RTVSPropertyOp15
 70
     1
102
RTVSPropertyOp16
 70
     1
102
RTVSPropertyOp17
 70
     1
102
RTVSPropertyOp18
 70
     1
102
RTVSPropertyOp19
 70
     1
102
RTVSPropertyOp20
 70
     1
102
RTVSPropertyOp21
 70
     1
102
RTVSPropertyOp22
 70
     1
102
RTVSPropertyOp23
 70
     1
102
RTVSPropertyOp24
 70
     1
102
RTVSPropertyOp25
 70
     1
102
RTVSPropertyOp26
 70
     1
102
RTVSPropertyOp27
 70
     1
102
RTVSPropertyOp28
 70
     1
102
RTVSPropertyOp29
 70
     1
102
RTVSPropertyOp30
 70
     1
102
RTVSPropertyOp31
 70
     1
102
RTVSPropertyOp32
 70
     1
  0
ENDSEC
  0
EOF
