  0
SECTION
  2
HEADER
  9
$ACADVER
  1
AC1015
  9
$ACADMAINTVER
 70
     6
  9
$DWGCODEPAGE
  3
ANSI_949
  9
$INSBASE
 10
0.0
 20
0.0
 30
0.0
  9
$EXTMIN
 10
1.000000000000000E+20
 20
1.000000000000000E+20
 30
1.000000000000000E+20
  9
$EXTMAX
 10
-1.000000000000000E+20
 20
-1.000000000000000E+20
 30
-1.000000000000000E+20
  9
$LIMMIN
 10
0.0
 20
0.0
  9
$LIMMAX
 10
12.0
 20
9.0
  9
$ORTHOMODE
 70
     0
  9
$REGENMODE
 70
     1
  9
$FILLMODE
 70
     1
  9
$QTEXTMODE
 70
     0
  9
$MIRRTEXT
 70
     1
  9
$LTSCALE
 40
1.0
  9
$ATTMODE
 70
     1
  9
$TEXTSIZE
 40
0.2
  9
$TRACEWID
 40
0.05
  9
$TEXTSTYLE
  7
Standard
  9
$CLAYER
  8
0
  9
$CELTYPE
  6
ByLayer
  9
$CECOLOR
 62
   256
  9
$CELTSCALE
 40
1.0
  9
$DISPSILH
 70
     0
  9
$DIMSCALE
 40
1.0
  9
$DIMASZ
 40
0.18
  9
$DIMEXO
 40
0.0625
  9
$DIMDLI
 40
0.38
  9
$DIMRND
 40
0.0
  9
$DIMDLE
 40
0.0
  9
$DIMEXE
 40
0.18
  9
$DIMTP
 40
0.0
  9
$DIMTM
 40
0.0
  9
$DIMTXT
 40
0.18
  9
$DIMCEN
 40
0.09
  9
$DIMTSZ
 40
0.0
  9
$DIMTOL
 70
     0
  9
$DIMLIM
 70
     0
  9
$DIMTIH
 70
     1
  9
$DIMTOH
 70
     1
  9
$DIMSE1
 70
     0
  9
$DIMSE2
 70
     0
  9
$DIMTAD
 70
     0
  9
$DIMZIN
 70
     0
  9
$DIMBLK
  1

  9
$DIMASO
 70
     1
  9
$DIMSHO
 70
     1
  9
$DIMPOST
  1

  9
$DIMAPOST
  1

  9
$DIMALT
 70
     0
  9
$DIMALTD
 70
     2
  9
$DIMALTF
 40
25.4
  9
$DIMLFAC
 40
1.0
  9
$DIMTOFL
 70
     0
  9
$DIMTVP
 40
0.0
  9
$DIMTIX
 70
     0
  9
$DIMSOXD
 70
     0
  9
$DIMSAH
 70
     0
  9
$DIMBLK1
  1

  9
$DIMBLK2
  1

  9
$DIMSTYLE
  2
Standard
  9
$DIMCLRD
 70
     0
  9
$DIMCLRE
 70
     0
  9
$DIMCLRT
 70
     0
  9
$DIMTFAC
 40
1.0
  9
$DIMGAP
 40
0.09
  9
$DIMJUST
 70
     0
  9
$DIMSD1
 70
     0
  9
$DIMSD2
 70
     0
  9
$DIMTOLJ
 70
     1
  9
$DIMTZIN
 70
     0
  9
$DIMALTZ
 70
     0
  9
$DIMALTTZ
 70
     0
  9
$DIMUPT
 70
     0
  9
$DIMDEC
 70
     4
  9
$DIMTDEC
 70
     4
  9
$DIMALTU
 70
     2
  9
$DIMALTTD
 70
     2
  9
$DIMTXSTY
  7
Standard
  9
$DIMAUNIT
 70
     0
  9
$DIMADEC
 70
     0
  9
$DIMALTRND
 40
0.0
  9
$DIMAZIN
 70
     0
  9
$DIMDSEP
 70
    46
  9
$DIMATFIT
 70
     3
  9
$DIMFRAC
 70
     0
  9
$DIMLDRBLK
  1

  9
$DIMLUNIT
 70
     2
  9
$DIMLWD
 70
    -2
  9
$DIMLWE
 70
    -2
  9
$DIMTMOVE
 70
     0
  9
$LUNITS
 70
     2
  9
$LUPREC
 70
     4
  9
$SKETCHINC
 40
0.1
  9
$FILLETRAD
 40
0.5
  9
$AUNITS
 70
     0
  9
$AUPREC
 70
     0
  9
$MENU
  1
.
  9
$ELEVATION
 40
0.0
  9
$PELEVATION
 40
0.0
  9
$THICKNESS
 40
0.0
  9
$LIMCHECK
 70
     0
  9
$CHAMFERA
 40
0.5
  9
$CHAMFERB
 40
0.5
  9
$CHAMFERC
 40
1.0
  9
$CHAMFERD
 40
0.0
  9
$SKPOLY
 70
     0
  9
$TDCREATE
 40
2456522.616815428
  9
$TDUCREATE
 40
2456522.116815428
  9
$TDUPDATE
 40
2456522.616843021
  9
$TDUUPDATE
 40
2456522.116843021
  9
$TDINDWG
 40
0.0000000116
  9
$TDUSRTIMER
 40
0.0000000116
  9
$USRTIMER
 70
     1
  9
$ANGBASE
 50
0.0
  9
$ANGDIR
 70
     0
  9
$PDMODE
 70
     0
  9
$PDSIZE
 40
0.0
  9
$PLINEWID
 40
0.0
  9
$SPLFRAME
 70
     0
  9
$SPLINETYPE
 70
     6
  9
$SPLINESEGS
 70
     8
  9
$HANDSEED
  5
3AA
  9
$SURFTAB1
 70
     6
  9
$SURFTAB2
 70
     6
  9
$SURFTYPE
 70
     6
  9
$SURFU
 70
     6
  9
$SURFV
 70
     6
  9
$UCSBASE
  2

  9
$UCSNAME
  2

  9
$UCSORG
 10
0.0
 20
0.0
 30
0.0
  9
$UCSXDIR
 10
1.0
 20
0.0
 30
0.0
  9
$UCSYDIR
 10
0.0
 20
1.0
 30
0.0
  9
$UCSORTHOREF
  2

  9
$UCSORTHOVIEW
 70
     0
  9
$UCSORGTOP
 10
0.0
 20
0.0
 30
0.0
  9
$UCSORGBOTTOM
 10
0.0
 20
0.0
 30
0.0
  9
$UCSORGLEFT
 10
0.0
 20
0.0
 30
0.0
  9
$UCSORGRIGHT
 10
0.0
 20
0.0
 30
0.0
  9
$UCSORGFRONT
 10
0.0
 20
0.0
 30
0.0
  9
$UCSORGBACK
 10
0.0
 20
0.0
 30
0.0
  9
$PUCSBASE
  2

  9
$PUCSNAME
  2

  9
$PUCSORG
 10
0.0
 20
0.0
 30
0.0
  9
$PUCSXDIR
 10
1.0
 20
0.0
 30
0.0
  9
$PUCSYDIR
 10
0.0
 20
1.0
 30
0.0
  9
$PUCSORTHOREF
  2

  9
$PUCSORTHOVIEW
 70
     0
  9
$PUCSORGTOP
 10
0.0
 20
0.0
 30
0.0
  9
$PUCSORGBOTTOM
 10
0.0
 20
0.0
 30
0.0
  9
$PUCSORGLEFT
 10
0.0
 20
0.0
 30
0.0
  9
$PUCSORGRIGHT
 10
0.0
 20
0.0
 30
0.0
  9
$PUCSORGFRONT
 10
0.0
 20
0.0
 30
0.0
  9
$PUCSORGBACK
 10
0.0
 20
0.0
 30
0.0
  9
$USERI1
 70
     0
  9
$USERI2
 70
     0
  9
$USERI3
 70
     0
  9
$USERI4
 70
     0
  9
$USERI5
 70
     0
  9
$USERR1
 40
0.0
  9
$USERR2
 40
0.0
  9
$USERR3
 40
0.0
  9
$USERR4
 40
0.0
  9
$USERR5
 40
0.0
  9
$WORLDVIEW
 70
     1
  9
$SHADEDGE
 70
     3
  9
$SHADEDIF
 70
    70
  9
$TILEMODE
 70
     1
  9
$MAXACTVP
 70
    64
  9
$PINSBASE
 10
0.0
 20
0.0
 30
0.0
  9
$PLIMCHECK
 70
     0
  9
$PEXTMIN
 10
1.000000000000000E+20
 20
1.000000000000000E+20
 30
1.000000000000000E+20
  9
$PEXTMAX
 10
-1.000000000000000E+20
 20
-1.000000000000000E+20
 30
-1.000000000000000E+20
  9
$PLIMMIN
 10
0.0
 20
0.0
  9
$PLIMMAX
 10
12.0
 20
9.0
  9
$UNITMODE
 70
     0
  9
$VISRETAIN
 70
     1
  9
$PLINEGEN
 70
     0
  9
$PSLTSCALE
 70
     1
  9
$TREEDEPTH
 70
  3020
  9
$CMLSTYLE
  2
Standard
  9
$CMLJUST
 70
     0
  9
$CMLSCALE
 40
1.0
  9
$PROXYGRAPHICS
 70
     1
  9
$MEASUREMENT
 70
     0
  9
$CELWEIGHT
370
    -1
  9
$ENDCAPS
280
     0
  9
$JOINSTYLE
280
     0
  9
$LWDISPLAY
290
     1
  9
$INSUNITS
 70
     4
  9
$HYPERLINKBASE
  1

  9
$STYLESHEET
  1

  9
$XEDIT
290
     1
  9
$CEPSNTYPE
380
     0
  9
$PSTYLEMODE
290
     1
  9
$FINGERPRINTGUID
  2
{AA3C8EAE-5978-4C12-9011-F16D578860F9}
  9
$VERSIONGUID
  2
{FAEB1C32-E019-11D5-929B-00C0DF256EC4}
  9
$EXTNAMES
290
     1
  9
$PSVPSCALE
 40
0.0
  9
$OLESTARTUP
290
     0
  0
ENDSEC
  0
SECTION
  2
CLASSES
  0
CLASS
  1
ACDBDICTIONARYWDFLT
  2
AcDbDictionaryWithDefault
  3
ObjectDBX Classes
 90
        0
280
     0
281
     0
  0
CLASS
  1
VISUALSTYLE
  2
AcDbVisualStyle
  3
ObjectDBX Classes
 90
     4095
280
     0
281
     0
  0
CLASS
  1
MATERIAL
  2
AcDbMaterial
  3
ObjectDBX Classes
 90
     1153
280
     0
281
     0
  0
CLASS
  1
WIPEOUT
  2
AcDbWipeout
  3
WipeOut|AutoCAD Express Tool|expresstools@autodesk.com
 90
      127
280
     0
281
     1
  0
CLASS
  1
SPATIAL_FILTER
  2
AcDbSpatialFilter
  3
ObjectDBX Classes
 90
        0
280
     0
281
     0
  0
CLASS
  1
SCALE
  2
AcDbScale
  3
ObjectDBX Classes
 90
     1153
280
     0
281
     0
  0
CLASS
  1
DICTIONARYVAR
  2
AcDbDictionaryVar
  3
ObjectDBX Classes
 90
        0
280
     0
281
     0
  0
CLASS
  1
ACDBPLACEHOLDER
  2
AcDbPlaceHolder
  3
ObjectDBX Classes
 90
        0
280
     0
281
     0
  0
CLASS
  1
LAYOUT
  2
AcDbLayout
  3
ObjectDBX Classes
 90
        0
280
     0
281
     0
  0
ENDSEC
  0
SECTION
  2
TABLES
  0
TABLE
  2
VPORT
  5
8
330
0
100
AcDbSymbolTable
 70
     1
  0
VPORT
  5
29
330
8
100
AcDbSymbolTableRecord
100
AcDbViewportTableRecord
  2
*Active
 70
     0
 10
0.0
 20
0.0
 11
1.0
 21
1.0
 12
146.6203427419354
 22
103.7523970084971
 13
0.0
 23
0.0
 14
0.5
 24
0.5
 15
0.5
 25
0.5
 16
0.0
 26
0.0
 36
1.0
 17
0.0
 27
0.0
 37
0.0
 40
207.5199777839455
 41
1.392181611970107
 42
50.0
 43
0.0
 44
0.0
 50
0.0
 51
0.0
 71
     0
 72
   100
 73
     1
 74
     3
 75
     0
 76
     0
 77
     0
 78
     0
281
     0
 65
     1
110
0.0
120
0.0
130
0.0
111
1.0
121
0.0
131
0.0
112
0.0
122
1.0
132
0.0
 79
     0
146
0.0
  0
ENDTAB
  0
TABLE
  2
LTYPE
  5
5
330
0
100
AcDbSymbolTable
 70
     5
  0
LTYPE
  5
14
330
5
100
AcDbSymbolTableRecord
100
AcDbLinetypeTableRecord
  2
ByBlock
 70
     0
  3

 72
    65
 73
     0
 40
0.0
  0
LTYPE
  5
15
330
5
100
AcDbSymbolTableRecord
100
AcDbLinetypeTableRecord
  2
ByLayer
 70
     0
  3

 72
    65
 73
     0
 40
0.0
  0
LTYPE
  5
16
330
5
100
AcDbSymbolTableRecord
100
AcDbLinetypeTableRecord
  2
Continuous
 70
     0
  3
Solid line
 72
    65
 73
     0
 40
0.0
  0
LTYPE
  5
E7
330
5
100
AcDbSymbolTableRecord
100
AcDbLinetypeTableRecord
  2
Wipeout_Contour
 70
     0
  3
- - - - - 
 72
    65
 73
     2
 40
1000.0
 49
0.0
 74
     0
 49
-1000.0
 74
     0
  0
LTYPE
  5
116
330
5
100
AcDbSymbolTableRecord
100
AcDbLinetypeTableRecord
  2
Hidden Line
 70
     0
  3
- - - - - 
 72
    65
 73
     2
 40
3.912222232818603
 49
2.822222232818604
 74
     0
 49
-1.089999999999999
 74
     0
  0
LTYPE
  5
118
330
5
100
AcDbSymbolTableRecord
100
AcDbLinetypeTableRecord
  2
Double Dashed
 70
     0
  3
- - - - - 
 72
    65
 73
     4
 40
10.93611073493958
 49
5.291666507720947
 74
     0
 49
-2.116666555404663
 74
     0
 49
1.411111116409302
 74
     0
 49
-2.116666555404668
 74
     0
  0
LTYPE
  5
159
330
5
100
AcDbSymbolTableRecord
100
AcDbLinetypeTableRecord
  2
Dot & Dashed
 70
     0
  3
- - - - - 
 72
    65
 73
     4
 40
6.702777624130249
 49
3.527777671813965
 74
     0
 49
-1.763888835906982
 74
     0
 49
0.0
 74
     0
 49
-1.411111116409302
 74
     0
  0
ENDTAB
  0
TABLE
  2
LAYER
  5
2
330
0
100
AcDbSymbolTable
 70
     5
  0
LAYER
  5
10
330
2
100
AcDbSymbolTableRecord
100
AcDbLayerTableRecord
  2
0
 70
     0
 62
     7
  6
Continuous
370
    -3
390
F
  0
LAYER
  5
40
330
2
100
AcDbSymbolTableRecord
100
AcDbLayerTableRecord
  2
Doc_ Finishes
 70
     0
 62
     7
  6
Continuous
370
    -3
390
F
  0
LAYER
  5
DB
330
2
100
AcDbSymbolTableRecord
100
AcDbLayerTableRecord
  2
Doc_ Floor
 70
     0
 62
     7
  6
Continuous
370
    -3
390
F
  0
LAYER
  5
E8
330
2
100
AcDbSymbolTableRecord
100
AcDbLayerTableRecord
  2
Des_ Walls
 70
     0
 62
     7
  6
Continuous
370
    -3
390
F
  0
LAYER
  5
F7
330
2
100
AcDbSymbolTableRecord
100
AcDbLayerTableRecord
  2
Des_ Furniture
 70
     0
 62
     7
  6
Continuous
370
    -3
390
F
  0
ENDTAB
  0
TABLE
  2
STYLE
  5
3
330
0
100
AcDbSymbolTable
 70
     4
  0
STYLE
  5
11
330
3
100
AcDbSymbolTableRecord
100
AcDbTextStyleTableRecord
  2
Standard
 70
     0
 40
0.0
 41
1.0
 50
0.0
 71
     0
 42
0.2
  3
txt
  4

  0
STYLE
  5
D6
330
3
100
AcDbSymbolTableRecord
100
AcDbTextStyleTableRecord
  2
GENERATED_STYLE_1
 70
     0
 40
0.0
 41
1.0
 50
0.0
 71
     0
 42
0.2
  3

  4

1001
ACAD
1000
Century Gothic
1071
       34
  0
STYLE
  5
D9
330
3
100
AcDbSymbolTableRecord
100
AcDbTextStyleTableRecord
  2
GENERATED_STYLE_2
 70
     0
 40
0.0
 41
1.0
 50
0.0
 71
     0
 42
0.2
  3

  4

1001
ACAD
1000
DilleniaUPC
1071
 33554450
  0
STYLE
  5
2E7
330
3
100
AcDbSymbolTableRecord
100
AcDbTextStyleTableRecord
  2
GENERATED_STYLE_3
 70
     0
 40
0.0
 41
1.0
 50
0.0
 71
     0
 42
0.2
  3

  4

1001
ACAD
1000
Arial
1071
       34
  0
ENDTAB
  0
TABLE
  2
VIEW
  5
6
330
0
100
AcDbSymbolTable
 70
     0
  0
ENDTAB
  0
TABLE
  2
UCS
  5
7
330
0
100
AcDbSymbolTable
 70
     0
  0
ENDTAB
  0
TABLE
  2
APPID
  5
9
330
0
100
AcDbSymbolTable
 70
     1
  0
APPID
  5
12
330
9
100
AcDbSymbolTableRecord
100
AcDbRegAppTableRecord
  2
ACAD
 70
     0
  0
ENDTAB
  0
TABLE
  2
DIMSTYLE
  5
A
330
0
100
AcDbSymbolTable
 70
     1
100
AcDbDimStyleTable
  0
DIMSTYLE
105
27
330
A
100
AcDbSymbolTableRecord
100
AcDbDimStyleTableRecord
  2
Standard
 70
     0
178
     0
340
11
  0
ENDTAB
  0
TABLE
  2
BLOCK_RECORD
  5
1
330
0
100
AcDbSymbolTable
 70
     3
  0
BLOCK_RECORD
  5
1F
330
1
100
AcDbSymbolTableRecord
100
AcDbBlockTableRecord
  2
*Model_Space
340
22
  0
BLOCK_RECORD
  5
1B
330
1
100
AcDbSymbolTableRecord
100
AcDbBlockTableRecord
  2
*Paper_Space
340
1E
  0
BLOCK_RECORD
  5
E3
330
1
100
AcDbSymbolTableRecord
100
AcDbBlockTableRecord
  2
Drawing_1_2
340
0
102
{BLKREFS
331
350
102
}
  0
BLOCK_RECORD
  5
354
330
1
100
AcDbSymbolTableRecord
100
AcDbBlockTableRecord
  2
C-TRS9-06 APRON DETAIL - HEAD -_STORY_MARKER
340
0
  0
ENDTAB
  0
ENDSEC
  0
SECTION
  2
BLOCKS
  0
BLOCK
  5
20
330
1F
100
AcDbEntity
  8
0
100
AcDbBlockBegin
  2
*Model_Space
 70
     0
 10
0.0
 20
0.0
 30
0.0
  3
*Model_Space
  1

  0
ENDBLK
  5
21
330
1F
100
AcDbEntity
  8
0
100
AcDbBlockEnd
  0
BLOCK
  5
1C
330
1B
100
AcDbEntity
 67
     1
  8
0
100
AcDbBlockBegin
  2
*Paper_Space
 70
     0
 10
0.0
 20
0.0
 30
0.0
  3
*Paper_Space
  1

  0
ENDBLK
  5
1D
330
1B
100
AcDbEntity
 67
     1
  8
0
100
AcDbBlockEnd
  0
BLOCK
  5
E4
330
E3
100
AcDbEntity
  8
0
100
AcDbBlockBegin
  2
Drawing_1_2
 70
     0
 10
-2070.237169975058
 20
281.6458770823035
 30
0.0
  3
Drawing_1_2
  1

  0
WIPEOUT
  5
E6
330
E3
100
AcDbEntity
  8
Des_ Walls
  6
Wipeout_Contour
 62
   254
 48
2062.802809419031
370
     0
 92
      488
310
E8010000060000000C0000000E000000120000000C00000016000000000000C20C0000001400000001000000CC000000070000000800000005722587E7166940F26A5415874165400000000000000000EDAD9382E796694042370F715F4165400000000000000000EDAD9382E7966940FE4C9D178701654000000000000000
310
0005722587E7166940FE4C9D1787016540000000000000000005722587E716694000B611C6D441354000000000000000006448C97EE7D66C4000B611C6D441354000000000000000006448C97EE7D66C40142D9E9BF3606740000000000000000005722587E7166940142D9E9BF360674000000000000000000C0000000E00
310
0000FE000000E4000000060000000900000005722587E7166940F26A5415874165400000000000000000EDAD9382E796694042370F715F4165400000000000000000EDAD9382E7966940FE4C9D1787016540000000000000000005722587E7166940FE4C9D1787016540000000000000000005722587E716694000B611C6D4
310
41354000000000000000006448C97EE7D66C4000B611C6D441354000000000000000006448C97EE7D66C40142D9E9BF3606740000000000000000005722587E7166940142D9E9BF3606740000000000000000005722587E7166940F26A5415874165400000000000000000
100
AcDbWipeout
 90
        0
 10
200.7157626849513
 20
21.25715291912455
 30
0.0
 11
29.99999601363649
 21
0.0
 31
0.0
 12
0.0
 22
165.7725843711984
 32
0.0
 13
1.0
 23
1.0
340
0
 70
    15
280
     1
281
    50
282
    50
283
     0
360
0
 71
     2
 91
        9
 14
-0.4999999999999995
 24
-0.3975584672717132
 14
-0.366666721578134
 24
-0.3975292762423379
 14
-0.366666721578134
 24
-0.3854937527222188
 14
-0.4999999999999995
 24
-0.3854937527222188
 14
-0.4999999999999995
 24
0.4999999999999999
 14
0.5000000000000004
 24
0.4999999999999999
 14
0.5000000000000004
 24
-0.5
 14
-0.4999999999999995
 24
-0.5
 14
-0.4999999999999995
 24
-0.3975584672717132
  0
HATCH
  5
E9
330
E3
100
AcDbEntity
  8
Des_ Walls
  6
Continuous
100
AcDbHatch
 10
0.0
 20
0.0
 30
0.0
210
0.0
220
0.0
230
1.0
  2
Lightweight_Concrete_0002
 70
     0
 71
     0
 91
        1
 92
        3
 72
     0
 73
     1
 93
        8
 10
200.7157626849513
 20
170.0477396630081
 10
204.7157605060924
 20
170.0429005906281
 10
204.7157605060924
 20
168.0477407524376
 10
200.7157626849513
 20
168.0477407524376
 10
200.7157626849513
 20
21.25715291912455
 10
230.7157586985878
 20
21.25715291912455
 10
230.7157586985878
 20
187.0297372903229
 10
200.7157626849513
 20
187.0297372903229
 97
        0
 75
     0
 76
     2
 52
0.0
 41
1.0
 77
     0
 78
     8
 53
0.0
 43
-2070.237169975058
 44
281.6458770823035
 45
0.0
 46
31.17691453623978
 79
     2
 49
1.95
 49
-16.05
 53
0.0
 43
-2061.237169975058
 44
297.2343337130103
 45
0.0
 46
31.17691453623978
 79
     2
 49
1.95
 49
-16.05
 53
60.00000000000001
 43
-2070.237169975058
 44
281.6458770823035
 45
-27.0
 46
15.58845726811988
 79
     2
 49
1.95
 49
-16.05
 53
60.00000000000001
 43
-2052.237169975058
 44
281.6458770823035
 45
-27.0
 46
15.58845726811988
 79
     2
 49
1.95
 49
-16.05
 53
120.0
 43
-2068.287170046583
 44
281.6458770823035
 45
26.99999999999998
 46
15.58845726811991
 79
     2
 49
1.95
 49
-16.05
 53
120.0
 43
-2050.287169688956
 44
281.6458770823035
 45
26.99999999999998
 46
15.58845726811991
 79
     2
 49
1.95
 49
-16.05
 53
0.0
 43
-2070.237169975058
 44
284.6458770823035
 45
0.0
 46
6.0
 79
     4
 49
0.0
 49
-6.0
 49
0.0
 49
-9.0
 53
44.99999999999999
 43
-2067.237169975058
 44
284.6458770823035
 45
-4.242640687119285
 46
4.242640687119286
 79
     4
 49
0.0
 49
-4.5
 49
0.0
 49
-7.5
 98
        0
  0
HATCH
  5
EA
330
E3
100
AcDbEntity
  8
Doc_ Finishes
  6
Continuous
 62
   255
370
    18
100
AcDbHatch
 10
0.0
 20
0.0
 30
0.0
210
0.0
220
0.0
230
1.0
  2
SOLID
 70
     1
 71
     0
 91
        1
 92
        3
 72
     0
 73
     1
 93
        4
 10
179.3942468496099
 20
132.0538468410343
 10
175.049331935031
 20
131.8261394991873
 10
175.522622925659
 20
122.795209413952
 10
179.8675378402374
 20
123.0229167557989
 97
        0
 75
     0
 76
     1
 98
        0
  0
HATCH
  5
EB
330
E3
100
AcDbEntity
  8
Doc_ Finishes
  6
Continuous
 62
   253
370
    25
100
AcDbHatch
 10
0.0
 20
0.0
 30
0.0
210
0.0
220
0.0
230
1.0
  2
Hexagonal_0002
 70
     0
 71
     0
 91
        1
 92
        3
 72
     0
 73
     1
 93
        4
 10
179.3942468496099
 20
132.0538468410343
 10
175.049331935031
 20
131.8261394991873
 10
175.522622925659
 20
122.795209413952
 10
179.8675378402374
 20
123.0229167557989
 97
        0
 75
     0
 76
     2
 52
0.0
 41
1.0
 77
     0
 78
     6
 53
90.00000000000001
 43
-2070.237169975058
 44
281.6458770823035
 45
-1.039230484541326
 46
0.0
 79
     2
 49
0.6000000000000001
 49
-1.2
 53
90.00000000000001
 43
-2070.756785208002
 44
282.5458770823035
 45
-1.039230484541326
 46
0.0
 79
     2
 49
0.6000000000000001
 49
-1.2
 53
150.0000000000001
 43
-2070.237169975058
 44
282.2458770823035
 45
0.5196152422706625
 46
0.9000000000000004
 79
     2
 49
0.6000000000000001
 49
-1.2
 53
150.0000000000001
 43
-2071.276400440947
 44
282.2458770823035
 45
0.5196152422706625
 46
0.9000000000000004
 79
     2
 49
0.6000000000000001
 49
-1.2
 53
210.0000000000001
 43
-2070.237169975058
 44
281.6458770823035
 45
-0.5196152422706641
 46
0.8999999999999994
 79
     2
 49
0.6000000000000001
 49
-1.2
 53
210.0000000000001
 43
-2071.276400440947
 44
281.6458770823035
 45
-0.5196152422706641
 46
0.8999999999999994
 79
     2
 49
0.6000000000000001
 49
-1.2
 98
        0
  0
LINE
  5
EC
330
E3
100
AcDbEntity
  8
Doc_ Finishes
  6
Continuous
100
AcDbLine
 10
175.0493310179211
 20
131.8261411078448
 30
0.0
 11
179.3942455632333
 21
132.0538452030726
 31
0.0
  0
LINE
  5
ED
330
E3
100
AcDbEntity
  8
Doc_ Finishes
  6
Continuous
100
AcDbLine
 10
175.5226211252056
 20
122.7952088939209
 30
0.0
 11
175.0493310179211
 21
131.8261411078448
 31
0.0
  0
LINE
  5
EE
330
E3
100
AcDbEntity
  8
Doc_ Finishes
  6
Continuous
100
AcDbLine
 10
179.8675397888773
 20
123.0229171075081
 30
0.0
 11
175.5226211252056
 21
122.7952088939209
 31
0.0
  0
LINE
  5
EF
330
E3
100
AcDbEntity
  8
Doc_ Finishes
  6
Continuous
100
AcDbLine
 10
179.3942455632333
 20
132.0538452030726
 30
0.0
 11
179.8675397888773
 21
123.0229171075081
 31
0.0
  0
HATCH
  5
F0
330
E3
100
AcDbEntity
  8
Doc_ Finishes
  6
Continuous
 62
   255
370
    18
100
AcDbHatch
 10
0.0
 20
0.0
 30
0.0
210
0.0
220
0.0
230
1.0
  2
SOLID
 70
     1
 71
     0
 91
        1
 92
        3
 72
     1
 73
     1
 93
        4
 10
204.7157607378582
 20
168.0477398001388
 42
0.0
 10
204.7157607378582
 20
170.0477398001388
 42
0.0
 10
200.7157607378582
 20
170.0477398001388
 42
-0.2857453009519162
 10
200.7157607378582
 20
168.0477398001388
 42
0.0
 97
        0
 75
     0
 76
     1
 98
        0
  0
HATCH
  5
F1
330
E3
100
AcDbEntity
  8
Doc_ Finishes
  6
Continuous
100
AcDbHatch
 10
0.0
 20
0.0
 30
0.0
210
0.0
220
0.0
230
1.0
  2
Hexagonal_0002
 70
     0
 71
     0
 91
        1
 92
        3
 72
     1
 73
     1
 93
        4
 10
204.7157607378582
 20
168.0477398001388
 42
0.0
 10
204.7157607378582
 20
170.0477398001388
 42
0.0
 10
200.7157607378582
 20
170.0477398001388
 42
-0.2857453009519162
 10
200.7157607378582
 20
168.0477398001388
 42
0.0
 97
        0
 75
     0
 76
     2
 52
0.0
 41
1.0
 77
     0
 78
     6
 53
90.00000000000001
 43
-2070.237169975058
 44
281.6458770823035
 45
-1.039230484541326
 46
0.0
 79
     2
 49
0.6000000000000001
 49
-1.2
 53
90.00000000000001
 43
-2070.756785208002
 44
282.5458770823035
 45
-1.039230484541326
 46
0.0
 79
     2
 49
0.6000000000000001
 49
-1.2
 53
150.0000000000001
 43
-2070.237169975058
 44
282.2458770823035
 45
0.5196152422706625
 46
0.9000000000000004
 79
     2
 49
0.6000000000000001
 49
-1.2
 53
150.0000000000001
 43
-2071.276400440947
 44
282.2458770823035
 45
0.5196152422706625
 46
0.9000000000000004
 79
     2
 49
0.6000000000000001
 49
-1.2
 53
210.0000000000001
 43
-2070.237169975058
 44
281.6458770823035
 45
-0.5196152422706641
 46
0.8999999999999994
 79
     2
 49
0.6000000000000001
 49
-1.2
 53
210.0000000000001
 43
-2071.276400440947
 44
281.6458770823035
 45
-0.5196152422706641
 46
0.8999999999999994
 79
     2
 49
0.6000000000000001
 49
-1.2
 98
        0
  0
LINE
  5
F2
330
E3
100
AcDbEntity
  8
Doc_ Finishes
  6
Continuous
100
AcDbLine
 10
204.7157605060924
 20
168.0477386580421
 30
0.0
 11
204.7157605060924
 21
170.0477416869721
 31
0.0
  0
LINE
  5
F3
330
E3
100
AcDbEntity
  8
Doc_ Finishes
  6
Continuous
100
AcDbLine
 10
204.7157605060924
 20
170.0477416869721
 30
0.0
 11
200.7157626849513
 21
170.0477416869721
 31
0.0
  0
ARC
  5
F4
330
E3
100
AcDbEntity
  8
Doc_ Finishes
  6
Continuous
100
AcDbCircle
 10
199.1088233360452
 20
169.0477398001388
 30
0.0
 40
1.89268270276492
100
AcDbArc
 50
328.1059223734285
 51
31.8940776265714
  0
LINE
  5
F5
330
E3
100
AcDbEntity
  8
Doc_ Finishes
  6
Continuous
100
AcDbLine
 10
200.7157626849513
 20
168.0477386580421
 30
0.0
 11
204.7157605060924
 21
168.0477386580421
 31
0.0
  0
HATCH
  5
F6
330
E3
100
AcDbEntity
  8
Des_ Furniture
  6
Continuous
 62
   255
370
     0
100
AcDbHatch
 10
0.0
 20
0.0
 30
0.0
210
0.0
220
0.0
230
1.0
  2
SOLID
 70
     1
 71
     0
 91
        1
 92
        3
 72
     0
 73
     1
 93
      140
 10
163.1071971481774
 20
119.6348848124978
 10
163.0243361980814
 20
119.6233323732229
 10
162.9447698801876
 20
119.5973325620536
 10
162.8708964954182
 20
119.5580124409614
 10
162.8049540830738
 20
119.5066909474311
 10
162.7489700530664
 20
119.44447570586
 10
162.7046352693884
 20
119.3734580753669
 10
162.6732905947965
 20
119.2959113467526
 10
162.6558936979245
 20
119.2140887284645
 10
162.6529762304916
 20
119.130421376819
 10
163.245419255162
 20
107.8259350433973
 10
164.987150390437
 20
105.1634413528108
 10
165.0918223029234
 20
103.1661822833018
 10
163.6379389269842
 20
100.3362135327379
 10
163.7426108394697
 20
98.33895446322875
 10
165.4843419747451
 20
95.67646077264241
 10
165.5890138872311
 20
93.6792017031332
 10
164.1351305112919
 20
90.84923295256952
 10
164.7275735359619
 20
79.54474661914765
 10
164.7392181287706
 20
79.4618904986138
 10
164.7650734582187
 20
79.38231660875405
 10
164.8043538338553
 20
79.30844114101355
 10
164.855865865901
 20
79.24250871436936
 10
164.918044557631
 20
79.18652276886645
 10
164.9890002730925
 20
79.14218474035894
 10
165.066576960593
 20
79.11084163584589
 10
165.1484175542128
 20
79.093445681021
 10
165.2320369716409
 20
79.09052570146206
 10
179.2527956395951
 20
79.8253225271131
 10
179.3356597491651
 20
79.83696753860919
 10
179.4152156636932
 20
79.86282192601013
 10
179.4891011177291
 20
79.9021028250064
 10
179.5550355416324
 20
79.95361496172382
 10
179.6110180917947
 20
80.01579347551171
 10
179.6553653076942
 20
80.08674967246426
 10
179.6867082124813
 20
80.1643263494976
 10
179.7040888683017
 20
80.24616614133045
 10
179.7070165572805
 20
80.32978596279186
 10
179.4955792940591
 20
84.36424928320024
 10
179.4839265731429
 20
84.44711298873695
 10
179.4580874847464
 20
84.52666970505199
 10
179.4188067854763
 20
84.60055516955504
 10
179.367285461367
 20
84.66648911196754
 10
179.3051103429195
 20
84.72247184007215
 10
179.2341521487075
 20
84.7668189512995
 10
179.1565654853793
 20
84.79816133272693
 10
179.074743668878
 20
84.81554293059462
 10
178.9911158583801
 20
84.81847020088587
 10
177.4731989655534
 20
84.73891954739662
 10
177.4857595950516
 20
84.49924845905547
 10
179.0036764878784
 20
84.57879911254487
 10
179.0454898697677
 20
84.5773454636945
 10
179.0864018247374
 20
84.56863469216997
 10
179.1251951564021
 20
84.55296350145633
 10
179.1606632204936
 20
84.53080939507367
 10
179.1917717990268
 20
84.50279910514973
 10
179.2175119651311
 20
84.46984107351987
 10
179.2371523147662
 20
84.43289834126827
 10
179.2500918315554
 20
84.39312102982981
 10
179.2559082057181
 20
84.35168865370196
 10
179.4673454689395
 20
80.31722533329358
 10
179.4658916107452
 20
80.27541594592236
 10
179.4571812579084
 20
80.23449600191631
 10
179.4415098578512
 20
80.1957066647703
 10
179.4193562748281
 20
80.16022861438354
 10
179.391344938185
 20
80.12914000844063
 10
179.3583877439304
 20
80.10338386426372
 10
179.3214450116789
 20
80.08374351462855
 10
179.281667072209
 20
80.07081598139406
 10
179.2402350100968
 20
80.0649936154541
 10
165.2194763421422
 20
79.33019678980321
 10
165.1776666407554
 20
79.33165663977462
 10
165.1367473247807
 20
79.34035500905706
 10
165.0979579876348
 20
79.35602640911455
 10
165.0624790998729
 20
79.37819597021006
 10
165.0313915406492
 20
79.40618733426247
 10
165.0056348731126
 20
79.43915451481257
 10
164.9859947328212
 20
79.47609325254584
 10
164.9730667808993
 20
79.51587918105207
 10
164.9672446243029
 20
79.55730724864593
 10
164.3781898294403
 20
90.79714230598773
 10
165.8320732053795
 20
93.62711105655161
 10
165.7206248332792
 20
95.75367267822077
 10
163.9788936980033
 20
98.41616636880707
 10
163.8810013852896
 20
100.2840629683841
 10
165.3348847612288
 20
103.114031718948
 10
165.223430108814
 20
105.2407131761613
 10
163.4816989735382
 20
107.9032068667476
 10
162.892647318833
 20
119.1429820063173
 10
162.8941111463367
 20
119.1847158118595
 10
162.9028099343071
 20
119.2256271387978
 10
162.918476938144
 20
119.2645003608249
 10
162.9406501627568
 20
119.2999093445196
 10
162.9686404800901
 20
119.3310168763338
 10
163.0016074512963
 20
119.3567775383886
 10
163.0385399087144
 20
119.3765375142241
 10
163.0783273026277
 20
119.3894375045192
 10
163.1197577776757
 20
119.3952137241568
 10
177.1405164456295
 20
120.1300105498077
 10
177.1823277340805
 20
120.1285968461387
 10
177.2232375956127
 20
120.1199260197955
 10
177.262037207591
 20
120.1041349935377
 10
177.2975063184021
 20
120.0819609145646
 10
177.3286148969353
 20
120.0539506246405
 10
177.3543519228822
 20
120.0210525107827
 10
177.3739964593939
 20
119.9840298881683
 10
177.3869359761826
 20
119.9442525767298
 10
177.3927481634692
 20
119.9029000909649
 10
177.6041854266905
 20
115.8684367705564
 10
177.6027275909642
 20
115.8267032790298
 10
177.5940168194396
 20
115.78579132406
 10
177.5783498156023
 20
115.7469181020331
 10
177.5561925690625
 20
115.7115099557138
 10
177.5281822791386
 20
115.6804013771803
 10
177.4952252942272
 20
115.6546412384853
 10
177.4582888422906
 20
115.6348810533059
 10
177.4185094374139
 20
115.6219814816983
 10
177.3770749678478
 20
115.6162050527169
 10
175.8591580750211
 20
115.5366543992277
 10
175.8717187045193
 20
115.2969833108867
 10
177.3896355973461
 20
115.3765339643759
 10
177.4725045364787
 20
115.3880868223385
 10
177.5520528790406
 20
115.4140856914606
 10
177.6259362501054
 20
115.4534063359125
 10
177.6918806597085
 20
115.5047279341146
 10
177.747861294375
 20
115.5669429977433
 10
177.7922052654453
 20
115.6379611097272
 10
177.8235497403111
 20
115.7155078278744
 10
177.8409313381784
 20
115.7973296443756
 10
177.8438565150315
 20
115.8809974000546
 10
177.6324192518102
 20
119.9154607204632
 10
177.6207644374557
 20
119.9983643711811
 10
177.5949253490592
 20
120.0779210874962
 10
177.5556467432273
 20
120.1517666068178
 10
177.5041222789606
 20
120.2177604670024
 10
177.4419450670752
 20
120.2737831402884
 10
177.3709973400543
 20
120.3179305256088
 10
177.2934085832878
 20
120.3493128522177
 10
177.2115783930332
 20
120.3668542308109
 10
177.1279558161312
 20
120.3696816381486
 97
        0
 75
     0
 76
     1
 98
        0
  0
HATCH
  5
F8
330
E3
100
AcDbEntity
  8
Des_ Furniture
  6
Continuous
100
AcDbHatch
 10
0.0
 20
0.0
 30
0.0
210
0.0
220
0.0
230
1.0
  2
Steel_0002
 70
     0
 71
     0
 91
        1
 92
        3
 72
     0
 73
     1
 93
      140
 10
163.1071971481774
 20
119.6348848124978
 10
163.0243361980814
 20
119.6233323732229
 10
162.9447698801876
 20
119.5973325620536
 10
162.8708964954182
 20
119.5580124409614
 10
162.8049540830738
 20
119.5066909474311
 10
162.7489700530664
 20
119.44447570586
 10
162.7046352693884
 20
119.3734580753669
 10
162.6732905947965
 20
119.2959113467526
 10
162.6558936979245
 20
119.2140887284645
 10
162.6529762304916
 20
119.130421376819
 10
163.245419255162
 20
107.8259350433973
 10
164.987150390437
 20
105.1634413528108
 10
165.0918223029234
 20
103.1661822833018
 10
163.6379389269842
 20
100.3362135327379
 10
163.7426108394697
 20
98.33895446322875
 10
165.4843419747451
 20
95.67646077264241
 10
165.5890138872311
 20
93.6792017031332
 10
164.1351305112919
 20
90.84923295256952
 10
164.7275735359619
 20
79.54474661914765
 10
164.7392181287706
 20
79.4618904986138
 10
164.7650734582187
 20
79.38231660875405
 10
164.8043538338553
 20
79.30844114101355
 10
164.855865865901
 20
79.24250871436936
 10
164.918044557631
 20
79.18652276886645
 10
164.9890002730925
 20
79.14218474035894
 10
165.066576960593
 20
79.11084163584589
 10
165.1484175542128
 20
79.093445681021
 10
165.2320369716409
 20
79.09052570146206
 10
179.2527956395951
 20
79.8253225271131
 10
179.3356597491651
 20
79.83696753860919
 10
179.4152156636932
 20
79.86282192601013
 10
179.4891011177291
 20
79.9021028250064
 10
179.5550355416324
 20
79.95361496172382
 10
179.6110180917947
 20
80.01579347551171
 10
179.6553653076942
 20
80.08674967246426
 10
179.6867082124813
 20
80.1643263494976
 10
179.7040888683017
 20
80.24616614133045
 10
179.7070165572805
 20
80.32978596279186
 10
179.4955792940591
 20
84.36424928320024
 10
179.4839265731429
 20
84.44711298873695
 10
179.4580874847464
 20
84.52666970505199
 10
179.4188067854763
 20
84.60055516955504
 10
179.367285461367
 20
84.66648911196754
 10
179.3051103429195
 20
84.72247184007215
 10
179.2341521487075
 20
84.7668189512995
 10
179.1565654853793
 20
84.79816133272693
 10
179.074743668878
 20
84.81554293059462
 10
178.9911158583801
 20
84.81847020088587
 10
177.4731989655534
 20
84.73891954739662
 10
177.4857595950516
 20
84.49924845905547
 10
179.0036764878784
 20
84.57879911254487
 10
179.0454898697677
 20
84.5773454636945
 10
179.0864018247374
 20
84.56863469216997
 10
179.1251951564021
 20
84.55296350145633
 10
179.1606632204936
 20
84.53080939507367
 10
179.1917717990268
 20
84.50279910514973
 10
179.2175119651311
 20
84.46984107351987
 10
179.2371523147662
 20
84.43289834126827
 10
179.2500918315554
 20
84.39312102982981
 10
179.2559082057181
 20
84.35168865370196
 10
179.4673454689395
 20
80.31722533329358
 10
179.4658916107452
 20
80.27541594592236
 10
179.4571812579084
 20
80.23449600191631
 10
179.4415098578512
 20
80.1957066647703
 10
179.4193562748281
 20
80.16022861438354
 10
179.391344938185
 20
80.12914000844063
 10
179.3583877439304
 20
80.10338386426372
 10
179.3214450116789
 20
80.08374351462855
 10
179.281667072209
 20
80.07081598139406
 10
179.2402350100968
 20
80.0649936154541
 10
165.2194763421422
 20
79.33019678980321
 10
165.1776666407554
 20
79.33165663977462
 10
165.1367473247807
 20
79.34035500905706
 10
165.0979579876348
 20
79.35602640911455
 10
165.0624790998729
 20
79.37819597021006
 10
165.0313915406492
 20
79.40618733426247
 10
165.0056348731126
 20
79.43915451481257
 10
164.9859947328212
 20
79.47609325254584
 10
164.9730667808993
 20
79.51587918105207
 10
164.9672446243029
 20
79.55730724864593
 10
164.3781898294403
 20
90.79714230598773
 10
165.8320732053795
 20
93.62711105655161
 10
165.7206248332792
 20
95.75367267822077
 10
163.9788936980033
 20
98.41616636880707
 10
163.8810013852896
 20
100.2840629683841
 10
165.3348847612288
 20
103.114031718948
 10
165.223430108814
 20
105.2407131761613
 10
163.4816989735382
 20
107.9032068667476
 10
162.892647318833
 20
119.1429820063173
 10
162.8941111463367
 20
119.1847158118595
 10
162.9028099343071
 20
119.2256271387978
 10
162.918476938144
 20
119.2645003608249
 10
162.9406501627568
 20
119.2999093445196
 10
162.9686404800901
 20
119.3310168763338
 10
163.0016074512963
 20
119.3567775383886
 10
163.0385399087144
 20
119.3765375142241
 10
163.0783273026277
 20
119.3894375045192
 10
163.1197577776757
 20
119.3952137241568
 10
177.1405164456295
 20
120.1300105498077
 10
177.1823277340805
 20
120.1285968461387
 10
177.2232375956127
 20
120.1199260197955
 10
177.262037207591
 20
120.1041349935377
 10
177.2975063184021
 20
120.0819609145646
 10
177.3286148969353
 20
120.0539506246405
 10
177.3543519228822
 20
120.0210525107827
 10
177.3739964593939
 20
119.9840298881683
 10
177.3869359761826
 20
119.9442525767298
 10
177.3927481634692
 20
119.9029000909649
 10
177.6041854266905
 20
115.8684367705564
 10
177.6027275909642
 20
115.8267032790298
 10
177.5940168194396
 20
115.78579132406
 10
177.5783498156023
 20
115.7469181020331
 10
177.5561925690625
 20
115.7115099557138
 10
177.5281822791386
 20
115.6804013771803
 10
177.4952252942272
 20
115.6546412384853
 10
177.4582888422906
 20
115.6348810533059
 10
177.4185094374139
 20
115.6219814816983
 10
177.3770749678478
 20
115.6162050527169
 10
175.8591580750211
 20
115.5366543992277
 10
175.8717187045193
 20
115.2969833108867
 10
177.3896355973461
 20
115.3765339643759
 10
177.4725045364787
 20
115.3880868223385
 10
177.5520528790406
 20
115.4140856914606
 10
177.6259362501054
 20
115.4534063359125
 10
177.6918806597085
 20
115.5047279341146
 10
177.747861294375
 20
115.5669429977433
 10
177.7922052654453
 20
115.6379611097272
 10
177.8235497403111
 20
115.7155078278744
 10
177.8409313381784
 20
115.7973296443756
 10
177.8438565150315
 20
115.8809974000546
 10
177.6324192518102
 20
119.9154607204632
 10
177.6207644374557
 20
119.9983643711811
 10
177.5949253490592
 20
120.0779210874962
 10
177.5556467432273
 20
120.1517666068178
 10
177.5041222789606
 20
120.2177604670024
 10
177.4419450670752
 20
120.2737831402884
 10
177.3709973400543
 20
120.3179305256088
 10
177.2934085832878
 20
120.3493128522177
 10
177.2115783930332
 20
120.3668542308109
 10
177.1279558161312
 20
120.3696816381486
 97
        0
 75
     0
 76
     2
 52
0.0
 41
1.0
 77
     0
 78
     2
 53
44.99999999999999
 43
-2070.237169975058
 44
281.6458770823035
 45
-1.590990257669732
 46
1.590990257669732
 79
     0
 53
44.99999999999999
 43
-2070.767500060948
 44
282.1762071681934
 45
-1.590990257669732
 46
1.590990257669732
 79
     0
 98
        0
  0
LINE
  5
F9
330
E3
100
AcDbEntity
  8
Des_ Furniture
  6
Continuous
 62
   251
370
    18
100
AcDbLine
 10
198.7157596560213
 20
80.86536331539472
 30
0.0
 11
179.252796388795
 21
79.82532105095953
 31
0.0
  0
LINE
  5
FA
330
E3
100
AcDbEntity
  8
Des_ Furniture
  6
Continuous
 62
   251
370
    18
100
AcDbLine
 10
165.4534957902496
 20
79.10213300925062
 30
0.0
 11
66.76357569972909
 21
73.95004471750937
 31
0.0
  0
LINE
  5
FB
330
E3
100
AcDbEntity
  8
Des_ Furniture
  6
Continuous
 62
   251
370
    18
100
AcDbLine
 10
198.7157596560213
 20
79.1430036086545
 30
0.0
 11
66.76357569972909
 21
72.22768912912863
 31
0.0
  0
LINE
  5
FC
330
E3
100
AcDbEntity
  8
Des_ Furniture
  6
Continuous
 62
   251
370
    18
100
AcDbLine
 10
198.7157596560213
 20
32.11855379990252
 30
0.0
 11
66.76357158136962
 21
25.20323932037666
 31
0.0
  0
LINE
  5
FD
330
E3
100
AcDbEntity
  8
Des_ Furniture
  6
Continuous
 62
   251
370
    18
100
AcDbLine
 10
198.7157596560213
 20
30.39620232988124
 30
0.0
 11
66.76357981808856
 21
23.48088785035537
 31
0.0
  0
LINE
  5
FE
330
E3
100
AcDbEntity
  8
Des_ Furniture
  6
Continuous
100
AcDbLine
 10
163.2454167673372
 20
107.8259359079463
 30
0.0
 11
164.9871492370355
 21
105.1634412192113
 31
0.0
  0
LINE
  5
FF
330
E3
100
AcDbEntity
  8
Des_ Furniture
  6
Continuous
100
AcDbLine
 10
163.6379376086495
 20
100.3362132410107
 30
0.0
 11
163.7426098329994
 21
98.33895303948924
 31
0.0
  0
LINE
  5
100
330
E3
100
AcDbEntity
  8
Des_ Furniture
  6
Continuous
100
AcDbLine
 10
163.8809990663497
 20
100.2840624550119
 30
0.0
 11
163.9788924710082
 21
98.41616816123684
 31
0.0
  0
LINE
  5
101
330
E3
100
AcDbEntity
  8
Des_ Furniture
  6
Continuous
100
AcDbLine
 10
165.0918214613855
 20
103.1661810176899
 30
0.0
 11
163.6379376086495
 21
100.3362132410107
 31
0.0
  0
LINE
  5
102
330
E3
100
AcDbEntity
  8
Des_ Furniture
  6
Continuous
100
AcDbLine
 10
164.9871492370355
 20
105.1634412192113
 30
0.0
 11
165.0918214613855
 21
103.1661810176899
 31
0.0
  0
LINE
  5
103
330
E3
100
AcDbEntity
  8
Des_ Furniture
  6
Continuous
100
AcDbLine
 10
163.4816994053459
 20
107.9032045683671
 30
0.0
 11
165.2234318750442
 21
105.2407139979915
 31
0.0
  0
LINE
  5
104
330
E3
100
AcDbEntity
  8
Des_ Furniture
  6
Continuous
100
AcDbLine
 10
165.3348829190857
 20
103.1140302316912
 30
0.0
 11
163.8809990663497
 21
100.2840624550119
 31
0.0
  0
LINE
  5
105
330
E3
100
AcDbEntity
  8
Des_ Furniture
  6
Continuous
100
AcDbLine
 10
165.2234318750442
 20
105.2407139979915
 30
0.0
 11
165.3348829190857
 21
103.1140302316912
 31
0.0
  0
LINE
  5
106
330
E3
100
AcDbEntity
  8
Des_ Furniture
  6
Continuous
100
AcDbLine
 10
163.7426098329994
 20
98.33895303948924
 30
0.0
 11
165.4843423026977
 21
95.67646246911372
 31
0.0
  0
LINE
  5
107
330
E3
100
AcDbEntity
  8
Des_ Furniture
  6
Continuous
100
AcDbLine
 10
165.5890145270477
 20
93.67920226759229
 30
0.0
 11
164.1351306743117
 21
90.84923449091305
 31
0.0
  0
LINE
  5
108
330
E3
100
AcDbEntity
  8
Des_ Furniture
  6
Continuous
100
AcDbLine
 10
165.4843423026977
 20
95.67646246911372
 30
0.0
 11
165.5890145270477
 21
93.67920226759229
 31
0.0
  0
LINE
  5
109
330
E3
100
AcDbEntity
  8
Des_ Furniture
  6
Continuous
100
AcDbLine
 10
163.9788924710082
 20
98.41616816123684
 30
0.0
 11
165.7206249407064
 21
95.75367347250183
 31
0.0
  0
LINE
  5
10A
330
E3
100
AcDbEntity
  8
Des_ Furniture
  6
Continuous
100
AcDbLine
 10
165.8320718663884
 20
93.62711325698567
 30
0.0
 11
164.3781921320119
 21
90.79714136194694
 31
0.0
  0
LINE
  5
10B
330
E3
100
AcDbEntity
  8
Des_ Furniture
  6
Continuous
100
AcDbLine
 10
165.7206249407064
 20
95.75367347250183
 30
0.0
 11
165.8320718663884
 21
93.62711325698567
 31
0.0
  0
LINE
  5
10C
330
E3
100
AcDbEntity
  8
Des_ Furniture
  6
Continuous
100
AcDbLine
 10
175.8591569878504
 20
115.5366538625292
 30
0.0
 11
175.8717179842412
 21
115.2969859330342
 31
0.0
  0
LINE
  5
10D
330
E3
100
AcDbEntity
  8
Des_ Furniture
  6
Continuous
100
AcDbLine
 10
177.4731997221077
 20
84.73891926401488
 30
0.0
 11
177.4857607184984
 21
84.49924721616041
 31
0.0
  0
LINE
  5
10E
330
E3
100
AcDbEntity
  8
Des_ Walls
  6
Continuous
100
AcDbLine
 10
200.7157626849513
 20
187.0297393142868
 30
0.0
 11
200.7157626849513
 21
170.0477416869721
 31
0.0
  0
LINE
  5
10F
330
E3
100
AcDbEntity
  8
Des_ Walls
  6
Continuous
100
AcDbLine
 10
230.7157586985878
 20
187.0297372903229
 30
0.0
 11
230.7157586985878
 21
21.25715291912455
 31
0.0
  0
LWPOLYLINE
  5
110
330
E3
100
AcDbEntity
  8
Des_ Furniture
  6
Continuous
100
AcDbPolyline
 90
       32
 70
   128
 43
0.0
 10
175.8717187045193
 20
115.2969833108867
 10
177.3896355973461
 20
115.3765339643759
 10
177.4725045364787
 20
115.3880868223385
 10
177.5520528790406
 20
115.4140856914606
 10
177.6259362501054
 20
115.4534063359125
 10
177.6918806597085
 20
115.5047279341146
 10
177.747861294375
 20
115.5669429977433
 10
177.7922052654453
 20
115.6379611097272
 10
177.8235497403111
 20
115.7155078278744
 10
177.8409313381784
 20
115.7973296443756
 10
177.8438565150315
 20
115.8809974000546
 10
177.6324192518102
 20
119.9154607204632
 10
177.6207644374557
 20
119.9983643711811
 10
177.5949253490592
 20
120.0779210874962
 10
177.5556467432273
 20
120.1517666068178
 10
177.5041222789606
 20
120.2177604670024
 10
177.4419450670752
 20
120.2737831402884
 10
177.3709973400543
 20
120.3179305256088
 10
177.2934085832878
 20
120.3493128522177
 10
177.2115783930332
 20
120.3668542308109
 10
177.1279558161312
 20
120.3696816381486
 10
163.1071971481774
 20
119.6348848124978
 10
163.0243361980814
 20
119.6233323732229
 10
162.9447698801876
 20
119.5973325620536
 10
162.8708964954182
 20
119.5580124409614
 10
162.8049540830738
 20
119.5066909474311
 10
162.7489700530664
 20
119.44447570586
 10
162.7046352693884
 20
119.3734580753669
 10
162.6732905947965
 20
119.2959113467526
 10
162.6558936979245
 20
119.2140887284645
 10
162.6529762304916
 20
119.130421376819
 10
163.245419255162
 20
107.8259350433973
  0
LWPOLYLINE
  5
111
330
E3
100
AcDbEntity
  8
Des_ Furniture
  6
Continuous
100
AcDbPolyline
 90
       32
 70
   128
 43
0.0
 10
175.8591580750211
 20
115.5366543992277
 10
177.3770749678478
 20
115.6162050527169
 10
177.4185094374139
 20
115.6219814816983
 10
177.4582888422906
 20
115.6348810533059
 10
177.4952252942272
 20
115.6546412384853
 10
177.5281822791386
 20
115.6804013771803
 10
177.5561925690625
 20
115.7115099557138
 10
177.5783498156023
 20
115.7469181020331
 10
177.5940168194396
 20
115.78579132406
 10
177.6027275909642
 20
115.8267032790298
 10
177.6041854266905
 20
115.8684367705564
 10
177.3927481634692
 20
119.9029000909649
 10
177.3869359761826
 20
119.9442525767298
 10
177.3739964593939
 20
119.9840298881683
 10
177.3543519228822
 20
120.0210525107827
 10
177.3286148969353
 20
120.0539506246405
 10
177.2975063184021
 20
120.0819609145646
 10
177.262037207591
 20
120.1041349935377
 10
177.2232375956127
 20
120.1199260197955
 10
177.1823277340805
 20
120.1285968461387
 10
177.1405164456295
 20
120.1300105498077
 10
163.1197577776757
 20
119.3952137241568
 10
163.0783273026277
 20
119.3894375045192
 10
163.0385399087144
 20
119.3765375142241
 10
163.0016074512963
 20
119.3567775383886
 10
162.9686404800901
 20
119.3310168763338
 10
162.9406501627568
 20
119.2999093445196
 10
162.918476938144
 20
119.2645003608249
 10
162.9028099343071
 20
119.2256271387978
 10
162.8941111463367
 20
119.1847158118595
 10
162.892647318833
 20
119.1429820063173
 10
163.4816989735382
 20
107.9032068667476
  0
LWPOLYLINE
  5
112
330
E3
100
AcDbEntity
  8
Des_ Furniture
  6
Continuous
100
AcDbPolyline
 90
       32
 70
   128
 43
0.0
 10
164.1351305112919
 20
90.84923295256952
 10
164.7275735359619
 20
79.54474661914765
 10
164.7392181287706
 20
79.4618904986138
 10
164.7650734582187
 20
79.38231660875405
 10
164.8043538338553
 20
79.30844114101355
 10
164.855865865901
 20
79.24250871436936
 10
164.918044557631
 20
79.18652276886645
 10
164.9890002730925
 20
79.14218474035894
 10
165.066576960593
 20
79.11084163584589
 10
165.1484175542128
 20
79.093445681021
 10
165.2320369716409
 20
79.09052570146206
 10
179.2527956395951
 20
79.8253225271131
 10
179.3356597491651
 20
79.83696753860919
 10
179.4152156636932
 20
79.86282192601013
 10
179.4891011177291
 20
79.9021028250064
 10
179.5550355416324
 20
79.95361496172382
 10
179.6110180917947
 20
80.01579347551171
 10
179.6553653076942
 20
80.08674967246426
 10
179.6867082124813
 20
80.1643263494976
 10
179.7040888683017
 20
80.24616614133045
 10
179.7070165572805
 20
80.32978596279186
 10
179.4955792940591
 20
84.36424928320024
 10
179.4839265731429
 20
84.44711298873695
 10
179.4580874847464
 20
84.52666970505199
 10
179.4188067854763
 20
84.60055516955504
 10
179.367285461367
 20
84.66648911196754
 10
179.3051103429195
 20
84.72247184007215
 10
179.2341521487075
 20
84.7668189512995
 10
179.1565654853793
 20
84.79816133272693
 10
179.074743668878
 20
84.81554293059462
 10
178.9911158583801
 20
84.81847020088587
 10
177.4731989655534
 20
84.73891954739662
  0
LWPOLYLINE
  5
113
330
E3
100
AcDbEntity
  8
Des_ Furniture
  6
Continuous
100
AcDbPolyline
 90
       32
 70
   128
 43
0.0
 10
164.3781898294403
 20
90.79714230598773
 10
164.9672446243029
 20
79.55730724864593
 10
164.9730667808993
 20
79.51587918105207
 10
164.9859947328212
 20
79.47609325254584
 10
165.0056348731126
 20
79.43915451481257
 10
165.0313915406492
 20
79.40618733426247
 10
165.0624790998729
 20
79.37819597021006
 10
165.0979579876348
 20
79.35602640911455
 10
165.1367473247807
 20
79.34035500905706
 10
165.1776666407554
 20
79.33165663977462
 10
165.2194763421422
 20
79.33019678980321
 10
179.2402350100968
 20
80.0649936154541
 10
179.281667072209
 20
80.07081598139406
 10
179.3214450116789
 20
80.08374351462855
 10
179.3583877439304
 20
80.10338386426372
 10
179.391344938185
 20
80.12914000844063
 10
179.4193562748281
 20
80.16022861438354
 10
179.4415098578512
 20
80.1957066647703
 10
179.4571812579084
 20
80.23449600191631
 10
179.4658916107452
 20
80.27541594592236
 10
179.4673454689395
 20
80.31722533329358
 10
179.2559082057181
 20
84.35168865370196
 10
179.2500918315554
 20
84.39312102982981
 10
179.2371523147662
 20
84.43289834126827
 10
179.2175119651311
 20
84.46984107351987
 10
179.1917717990268
 20
84.50279910514973
 10
179.1606632204936
 20
84.53080939507367
 10
179.1251951564021
 20
84.55296350145633
 10
179.0864018247374
 20
84.56863469216997
 10
179.0454898697677
 20
84.5773454636945
 10
179.0036764878784
 20
84.57879911254487
 10
177.4857595950516
 20
84.49924845905547
  0
LINE
  5
114
330
E3
100
AcDbEntity
  8
Des_ Furniture
  6
Continuous
 62
   251
370
    18
100
AcDbLine
 10
21.60031961389065
 20
122.8222582789355
 30
0.0
 11
195.3136611447205
 21
131.9261925328667
 31
0.0
  0
LINE
  5
115
330
E3
100
AcDbEntity
  8
Des_ Furniture
  6
Continuous
 62
   251
370
    18
100
AcDbLine
 10
21.60031961389065
 20
114.8222585182939
 30
0.0
 11
195.7317775901536
 21
123.9481065629777
 31
0.0
  0
LINE
  5
117
330
E3
100
AcDbEntity
  8
Des_ Furniture
  6
Hidden Line
100
AcDbLine
 10
21.87243197930903
 20
114.0281935100653
 30
0.0
 11
198.9286911958216
 21
123.307326894311
 31
0.0
  0
LINE
  5
119
330
E3
100
AcDbEntity
  8
Des_ Furniture
  6
Double Dashed
 62
   251
370
    18
100
AcDbLine
 10
17.82694687779555
 20
112.8790064828932
 30
0.0
 11
199.2303157252191
 21
122.3859592764318
 31
0.0
  0
LINE
  5
11A
330
E3
100
AcDbEntity
  8
Des_ Furniture
  6
Hidden Line
100
AcDbLine
 10
199.4972924963754
 20
165.3863312162077
 30
0.0
 11
199.4972924963754
 21
123.9065028955877
 31
0.0
  0
LINE
  5
11B
330
E3
100
AcDbEntity
  8
Des_ Walls
  6
Continuous
100
AcDbLine
 10
200.7157626849513
 20
168.0477407524376
 30
0.0
 11
200.7157626849513
 21
21.25715291912455
 31
0.0
  0
LINE
  5
11C
330
E3
100
AcDbEntity
  8
Des_ Walls
  6
Continuous
100
AcDbLine
 10
198.7157596560213
 20
82.86536222596526
 30
0.0
 11
198.7157596560213
 21
25.60383626461426
 31
0.0
  0
HATCH
  5
11D
330
E3
100
AcDbEntity
  8
Des_ Walls
  6
Continuous
 62
   255
370
     0
100
AcDbHatch
 10
0.0
 20
0.0
 30
0.0
210
0.0
220
0.0
230
1.0
  2
SOLID
 70
     1
 71
     0
 91
        1
 92
        3
 72
     0
 73
     1
 93
        6
 10
164.6518189015489
 20
88.63316019683207
 10
158.2497094937043
 20
88.29763986003996
 10
158.128583915655
 20
88.16311627719229
 10
158.2407922058397
 20
86.02205455467846
 10
158.3753157886876
 20
85.90092897662899
 10
164.7774251965317
 20
86.23644931342112
 97
        0
 75
     0
 76
     1
 98
        0
  0
LINE
  5
11E
330
E3
100
AcDbEntity
  8
Des_ Walls
  6
Continuous
100
AcDbLine
 10
164.6518200537162
 20
88.63316173226477
 30
0.0
 11
158.2497108214811
 21
88.2976389860502
 31
0.0
  0
LINE
  5
11F
330
E3
100
AcDbEntity
  8
Des_ Walls
  6
Continuous
100
AcDbLine
 10
158.2497108214811
 20
88.2976389860502
 30
0.0
 11
158.128585751039
 21
88.16311689224447
 31
0.0
  0
LINE
  5
120
330
E3
100
AcDbEntity
  8
Des_ Walls
  6
Continuous
100
AcDbLine
 10
158.128585751039
 20
88.16311689224447
 30
0.0
 11
158.2407904548639
 21
86.02205593302607
 31
0.0
  0
LINE
  5
121
330
E3
100
AcDbEntity
  8
Des_ Walls
  6
Continuous
100
AcDbLine
 10
158.2407904548639
 20
86.02205593302607
 30
0.0
 11
158.3753166670292
 21
85.90093086258398
 31
0.0
  0
LINE
  5
122
330
E3
100
AcDbEntity
  8
Des_ Walls
  6
Continuous
100
AcDbLine
 10
158.3753166670292
 20
85.90093086258398
 30
0.0
 11
164.7774258992642
 21
86.23644949043909
 31
0.0
  0
LINE
  5
123
330
E3
100
AcDbEntity
  8
Des_ Walls
  6
Continuous
100
AcDbLine
 10
164.7774258992642
 20
86.23644949043909
 30
0.0
 11
164.6518200537162
 21
88.63316173226477
 31
0.0
  0
LINE
  5
124
330
E3
100
AcDbEntity
  8
Des_ Walls
  6
Continuous
100
AcDbLine
 10
158.2497108214811
 20
88.2976389860502
 30
0.0
 11
158.3753166670292
 21
85.90093086258398
 31
0.0
  0
LINE
  5
125
330
E3
100
AcDbEntity
  8
Des_ Walls
  6
Continuous
100
AcDbLine
 10
164.1136616663822
 20
88.60495508823846
 30
0.0
 11
164.2392675119303
 21
86.20824696477226
 31
0.0
  0
LINE
  5
126
330
E3
100
AcDbEntity
  8
Des_ Walls
  6
Continuous
100
AcDbLine
 10
163.9925365959401
 20
88.47043299443273
 30
0.0
 11
164.1047454181245
 21
86.32937203521433
 31
0.0
  0
LINE
  5
127
330
E3
100
AcDbEntity
  8
Des_ Walls
  6
Continuous
100
AcDbLine
 10
163.9925365959401
 20
88.47043299443273
 30
0.0
 11
164.1136616663822
 21
88.60495508823846
 31
0.0
  0
LINE
  5
128
330
E3
100
AcDbEntity
  8
Des_ Walls
  6
Continuous
100
AcDbLine
 10
164.1047454181245
 20
86.32937203521433
 30
0.0
 11
164.2392675119303
 21
86.20824696477226
 31
0.0
  0
LINE
  5
129
330
E3
100
AcDbEntity
  8
Des_ Walls
  6
Continuous
100
AcDbLine
 10
163.9925365959401
 20
88.47043299443273
 30
0.0
 11
158.128585751039
 21
88.16311689224447
 31
0.0
  0
LINE
  5
12A
330
E3
100
AcDbEntity
  8
Des_ Walls
  6
Continuous
100
AcDbLine
 10
164.1047454181245
 20
86.32937203521433
 30
0.0
 11
158.2407904548639
 21
86.02205593302607
 31
0.0
  0
HATCH
  5
12B
330
E3
100
AcDbEntity
  8
Des_ Walls
  6
Continuous
 62
   255
370
     0
100
AcDbHatch
 10
0.0
 20
0.0
 30
0.0
210
0.0
220
0.0
230
1.0
  2
SOLID
 70
     1
 71
     0
 91
        1
 92
        3
 72
     0
 73
     1
 93
        4
 10
166.29415003292
 20
85.95659930657057
 10
166.1309826694244
 20
89.07001807241141
 10
164.6330383672923
 20
88.99151413804701
 10
164.7962057307884
 20
85.8780953722062
 97
        0
 75
     0
 76
     1
 98
        0
  0
HATCH
  5
12C
330
E3
100
AcDbEntity
  8
Des_ Walls
  6
Continuous
 62
   255
370
     0
100
AcDbHatch
 10
0.0
 20
0.0
 30
0.0
210
0.0
220
0.0
230
1.0
  2
SOLID
 70
     1
 71
     0
 91
        1
 92
        3
 72
     1
 73
     1
 93
        4
 10
166.0172980886489
 20
86.46241844514998
 42
0.2405626121623441
 10
165.9085198463184
 20
88.53803095571052
 42
0.0
 10
164.6602329278748
 20
88.47261101040688
 42
0.0
 10
164.7690111702058
 20
86.39699849984633
 42
0.0
 97
        0
 75
     0
 76
     1
 98
        0
  0
ARC
  5
12D
330
E3
100
AcDbEntity
  8
Des_ Walls
  6
Continuous
100
AcDbCircle
 10
163.9306978642581
 20
87.39372102947586
 30
0.0
 40
2.284999999999984
100
AcDbArc
 50
335.9475818795688
 51
30.05241812043155
  0
LINE
  5
12E
330
E3
100
AcDbEntity
  8
Des_ Walls
  6
Continuous
100
AcDbLine
 10
165.9085209732742
 20
88.53803174681232
 30
0.0
 11
164.6602338621182
 21
88.47261160659362
 31
0.0
  0
LINE
  5
12F
330
E3
100
AcDbEntity
  8
Des_ Walls
  6
Continuous
100
AcDbLine
 10
164.6602338621182
 20
88.47261160659362
 30
0.0
 11
164.7690120908621
 21
86.39699961611024
 31
0.0
  0
LINE
  5
130
330
E3
100
AcDbEntity
  8
Des_ Walls
  6
Continuous
100
AcDbLine
 10
164.7690120908621
 20
86.39699961611024
 30
0.0
 11
166.0172992020181
 21
86.46241975632894
 31
0.0
  0
HATCH
  5
131
330
E3
100
AcDbEntity
  8
Des_ Walls
  6
Continuous
 62
   255
370
     0
100
AcDbHatch
 10
0.0
 20
0.0
 30
0.0
210
0.0
220
0.0
230
1.0
  2
SOLID
 70
     1
 71
     0
 91
        1
 92
        3
 72
     1
 73
     1
 93
        4
 10
166.071687209814
 20
85.42461218986972
 42
0.4811252243246882
 10
166.0172980886489
 20
86.46241844514998
 42
0.0
 10
164.7690111702058
 20
86.39699849984633
 42
0.0
 10
164.8234002913709
 20
85.35919224456606
 42
0.0
 97
        0
 75
     0
 76
     1
 98
        0
  0
ARC
  5
132
330
E3
100
AcDbEntity
  8
Des_ Walls
  6
Continuous
100
AcDbCircle
 10
165.6300613923083
 20
85.92179589566912
 30
0.0
 40
0.6649999999999876
100
AcDbArc
 50
311.6132381909904
 51
54.38676180898516
  0
LINE
  5
133
330
E3
100
AcDbEntity
  8
Des_ Walls
  6
Continuous
100
AcDbLine
 10
166.0172992020181
 20
86.46241975632894
 30
0.0
 11
164.7690120908621
 21
86.39699961611024
 31
0.0
  0
LINE
  5
134
330
E3
100
AcDbEntity
  8
Des_ Walls
  6
Continuous
100
AcDbLine
 10
164.7690120908621
 20
86.39699961611024
 30
0.0
 11
164.8233991460544
 21
85.35919362086854
 31
0.0
  0
LINE
  5
135
330
E3
100
AcDbEntity
  8
Des_ Walls
  6
Continuous
100
AcDbLine
 10
164.8233991460544
 20
85.35919362086854
 30
0.0
 11
166.0716862572103
 21
85.42461376108726
 31
0.0
  0
HATCH
  5
136
330
E3
100
AcDbEntity
  8
Des_ Walls
  6
Continuous
 62
   255
370
     0
100
AcDbHatch
 10
0.0
 20
0.0
 30
0.0
210
0.0
220
0.0
230
1.0
  2
SOLID
 70
     1
 71
     0
 91
        1
 92
        3
 72
     1
 73
     1
 93
        4
 10
165.8541307251529
 20
89.5758372109908
 42
0.0
 10
164.6058438067097
 20
89.51041726568715
 42
0.0
 10
164.6602329278748
 20
88.47261101040688
 42
0.0
 10
165.9085198463184
 20
88.53803095571052
 42
0.4811252243246882
 97
        0
 75
     0
 76
     1
 98
        0
  0
LINE
  5
137
330
E3
100
AcDbEntity
  8
Des_ Walls
  6
Continuous
100
AcDbLine
 10
164.6058426885665
 20
89.51041760183531
 30
0.0
 11
165.8541297997225
 21
89.57583774205402
 31
0.0
  0
LINE
  5
138
330
E3
100
AcDbEntity
  8
Des_ Walls
  6
Continuous
100
AcDbLine
 10
164.6602338621182
 20
88.47261160659362
 30
0.0
 11
164.6058426885665
 21
89.51041760183531
 31
0.0
  0
LINE
  5
139
330
E3
100
AcDbEntity
  8
Des_ Walls
  6
Continuous
100
AcDbLine
 10
165.9085209732742
 20
88.53803174681232
 30
0.0
 11
164.6602338621182
 21
88.47261160659362
 31
0.0
  0
ARC
  5
13A
330
E3
100
AcDbEntity
  8
Des_ Walls
  6
Continuous
100
AcDbCircle
 10
165.4668940288125
 20
89.03521466150976
 30
0.0
 40
0.6650000000000003
100
AcDbArc
 50
311.613238191015
 51
54.38676180900978
  0
HATCH
  5
13B
330
E3
100
AcDbEntity
  8
Des_ Walls
  6
Continuous
 62
   255
370
     0
100
AcDbHatch
 10
0.0
 20
0.0
 30
0.0
210
0.0
220
0.0
230
1.0
  2
SOLID
 70
     1
 71
     0
 91
        1
 92
        3
 72
     0
 73
     1
 93
        4
 10
161.5417766164904
 20
85.70753796949177
 10
161.3786092529943
 20
88.8209567353326
 10
159.3014598207048
 20
88.71209794634733
 10
159.4646271842009
 20
85.59867918050648
 97
        0
 75
     0
 76
     1
 98
        0
  0
HATCH
  5
13C
330
E3
100
AcDbEntity
  8
Des_ Walls
  6
Continuous
 62
   255
370
     0
100
AcDbHatch
 10
0.0
 20
0.0
 30
0.0
210
0.0
220
0.0
230
1.0
  2
SOLID
 70
     1
 71
     0
 91
        1
 92
        3
 72
     1
 73
     1
 93
        4
 10
161.168390483859
 20
86.20829796563437
 42
0.3335801555317839
 10
161.0596122415289
 20
88.28391047619493
 42
0.0
 10
159.6748459533357
 20
88.21133795020472
 42
0.3335801555317839
 10
159.7836241956663
 20
86.13572543964415
 42
0.0
 97
        0
 75
     0
 76
     1
 98
        0
  0
ARC
  5
13D
330
E3
100
AcDbEntity
  8
Des_ Walls
  6
Continuous
100
AcDbCircle
 10
159.7315396041965
 20
87.17365247020838
 30
0.0
 40
1.73102564102564
100
AcDbArc
 50
326.104648872837
 51
39.89535112713818
  0
LINE
  5
13E
330
E3
100
AcDbEntity
  8
Des_ Walls
  6
Continuous
100
AcDbLine
 10
161.0596139508109
 20
88.28391249392877
 30
0.0
 11
159.6748444067404
 21
88.21133876330653
 31
0.0
  0
ARC
  5
13F
330
E3
100
AcDbEntity
  8
Des_ Walls
  6
Continuous
100
AcDbCircle
 10
161.1116968329984
 20
87.24598344563101
 30
0.0
 40
1.731025641025654
100
AcDbArc
 50
146.1046488728495
 51
219.8953511271506
  0
LINE
  5
140
330
E3
100
AcDbEntity
  8
Des_ Walls
  6
Continuous
100
AcDbLine
 10
159.7836226354843
 20
86.13572677282315
 30
0.0
 11
161.1683921795548
 21
86.20829638508592
 31
0.0
  0
HATCH
  5
141
330
E3
100
AcDbEntity
  8
Des_ Walls
  6
Continuous
 62
   255
370
     0
100
AcDbHatch
 10
0.0
 20
0.0
 30
0.0
210
0.0
220
0.0
230
1.0
  2
SOLID
 70
     1
 71
     0
 91
        1
 92
        3
 72
     1
 73
     1
 93
        4
 10
161.222779605025
 20
85.1704917103541
 42
0.6671603110635675
 10
161.168390483859
 20
86.20829796563437
 42
0.0
 10
159.7836241956663
 20
86.13572543964415
 42
0.6671603110635675
 10
159.8380133168313
 20
85.09791918436387
 42
0.0
 97
        0
 75
     0
 76
     1
 98
        0
  0
ARC
  5
142
330
E3
100
AcDbEntity
  8
Des_ Walls
  6
Continuous
100
AcDbCircle
 10
160.9797914443357
 20
85.67808557462902
 30
0.0
 40
0.5627564102564231
100
AcDbArc
 50
295.5807117678384
 51
70.41928823223537
  0
LINE
  5
143
330
E3
100
AcDbEntity
  8
Des_ Walls
  6
Continuous
100
AcDbLine
 10
161.1683921795548
 20
86.20829638508592
 30
0.0
 11
159.7836226354843
 21
86.13572677282315
 31
0.0
  0
ARC
  5
144
330
E3
100
AcDbEntity
  8
Des_ Walls
  6
Continuous
100
AcDbCircle
 10
160.0266123563551
 20
85.62813157536903
 30
0.0
 40
0.5627564102564067
100
AcDbArc
 50
115.5807117677891
 51
250.4192882321861
  0
LINE
  5
145
330
E3
100
AcDbEntity
  8
Des_ Walls
  6
Continuous
100
AcDbLine
 10
159.838013809036
 20
85.09792077758146
 30
0.0
 11
161.222779234747
 21
85.17049038984423
 31
0.0
  0
HATCH
  5
146
330
E3
100
AcDbEntity
  8
Des_ Walls
  6
Continuous
 62
   255
370
     0
100
AcDbHatch
 10
0.0
 20
0.0
 30
0.0
210
0.0
220
0.0
230
1.0
  2
SOLID
 70
     1
 71
     0
 91
        1
 92
        3
 72
     1
 73
     1
 93
        4
 10
161.0052231203634
 20
89.3217167314752
 42
0.0
 10
159.6204568321706
 20
89.249144205485
 42
0.6671603110635675
 10
159.6748459533357
 20
88.21133795020472
 42
0.0
 10
161.0596122415289
 20
88.28391047619493
 42
0.6671603110635675
 97
        0
 75
     0
 76
     1
 98
        0
  0
LINE
  5
147
330
E3
100
AcDbEntity
  8
Des_ Walls
  6
Continuous
100
AcDbLine
 10
159.6204573515482
 20
89.24914475854823
 30
0.0
 11
161.0052227772592
 21
89.32171848917046
 31
0.0
  0
ARC
  5
148
330
E3
100
AcDbEntity
  8
Des_ Walls
  6
Continuous
100
AcDbCircle
 10
159.8634449928594
 20
88.74155034120987
 30
0.0
 40
0.5627564102564067
100
AcDbArc
 50
115.5807117677891
 51
250.4192882321861
  0
LINE
  5
149
330
E3
100
AcDbEntity
  8
Des_ Walls
  6
Continuous
100
AcDbLine
 10
161.0596139508109
 20
88.28391249392877
 30
0.0
 11
159.6748444067404
 21
88.21133876330653
 31
0.0
  0
ARC
  5
14A
330
E3
100
AcDbEntity
  8
Des_ Walls
  6
Continuous
100
AcDbCircle
 10
160.8166240808399
 20
88.79150434046997
 30
0.0
 40
0.5627564102564149
100
AcDbArc
 50
295.5807117678137
 51
70.41928823221076
  0
HATCH
  5
14B
330
E3
100
AcDbEntity
  8
Des_ Walls
  6
Continuous
 62
   255
370
     0
100
AcDbHatch
 10
0.0
 20
0.0
 30
0.0
210
0.0
220
0.0
230
1.0
  2
SOLID
 70
     1
 71
     0
 91
        1
 92
        3
 72
     0
 73
     1
 93
        4
 10
164.1843303445314
 20
89.91044420951586
 10
164.4460101257459
 20
84.91729653574298
 10
164.8454619396475
 20
84.93823091824015
 10
164.5837821584331
 20
89.93137859201303
 97
        0
 75
     0
 76
     1
 98
        0
  0
LINE
  5
14C
330
E3
100
AcDbEntity
  8
Des_ Walls
  6
Continuous
100
AcDbLine
 10
164.1843285965687
 20
89.91044621246573
 30
0.0
 11
164.4460091574436
 21
84.91729776784194
 31
0.0
  0
LINE
  5
14D
330
E3
100
AcDbEntity
  8
Des_ Walls
  6
Continuous
100
AcDbLine
 10
164.4460091574436
 20
84.91729776784194
 30
0.0
 11
164.8454611977479
 21
84.93823138904004
 31
0.0
  0
LINE
  5
14E
330
E3
100
AcDbEntity
  8
Des_ Walls
  6
Continuous
100
AcDbLine
 10
164.8454611977479
 20
84.93823138904004
 30
0.0
 11
164.583780636873
 21
89.93137983366381
 31
0.0
  0
LINE
  5
14F
330
E3
100
AcDbEntity
  8
Des_ Walls
  6
Continuous
100
AcDbLine
 10
164.583780636873
 20
89.93137983366381
 30
0.0
 11
164.1843285965687
 21
89.91044621246573
 31
0.0
  0
HATCH
  5
150
330
E3
100
AcDbEntity
  8
Des_ Walls
  6
Continuous
 62
   255
370
     0
100
AcDbHatch
 10
0.0
 20
0.0
 30
0.0
210
0.0
220
0.0
230
1.0
  2
SOLID
 70
     1
 71
     0
 91
        1
 92
        3
 72
     0
 73
     1
 93
        4
 10
161.7288048580368
 20
89.7817555717958
 10
161.3293530441351
 20
89.76082118929862
 10
161.5910328253496
 20
84.76767351552577
 10
161.9904846392513
 20
84.78860789802295
 97
        0
 75
     0
 76
     1
 98
        0
  0
LINE
  5
151
330
E3
100
AcDbEntity
  8
Des_ Walls
  6
Continuous
100
AcDbLine
 10
161.7288061814775
 20
89.78175571567287
 30
0.0
 11
161.3293541411732
 21
89.76082209447479
 31
0.0
  0
LINE
  5
152
330
E3
100
AcDbEntity
  8
Des_ Walls
  6
Continuous
100
AcDbLine
 10
161.3293541411732
 20
89.76082209447479
 30
0.0
 11
161.5910347020481
 21
84.767673649851
 31
0.0
  0
LINE
  5
153
330
E3
100
AcDbEntity
  8
Des_ Walls
  6
Continuous
100
AcDbLine
 10
161.5910347020481
 20
84.767673649851
 30
0.0
 11
161.9904826239929
 21
84.7886072710491
 31
0.0
  0
LINE
  5
154
330
E3
100
AcDbEntity
  8
Des_ Walls
  6
Continuous
100
AcDbLine
 10
161.9904826239929
 20
84.7886072710491
 30
0.0
 11
161.7288061814775
 21
89.78175571567287
 31
0.0
  0
LINE
  5
155
330
E3
100
AcDbEntity
  8
Des_ Walls
  6
Continuous
100
AcDbLine
 10
166.2941517991891
 20
85.95659872757211
 30
0.0
 11
166.1309823968936
 21
89.07001671329719
 31
0.0
  0
LINE
  5
156
330
E3
100
AcDbEntity
  8
Des_ Walls
  6
Continuous
100
AcDbLine
 10
164.6330403345221
 20
88.99151254503474
 30
0.0
 11
164.7962056184582
 21
85.87809455930966
 31
0.0
  0
LINE
  5
157
330
E3
100
AcDbEntity
  8
Des_ Walls
  6
Continuous
100
AcDbLine
 10
161.5417750043989
 20
85.70753682012062
 30
0.0
 11
161.3786097204629
 21
88.8209548058457
 31
0.0
  0
LINE
  5
158
330
E3
100
AcDbEntity
  8
Des_ Walls
  6
Continuous
100
AcDbLine
 10
159.3014615818963
 20
88.71209832827184
 30
0.0
 11
159.4646268658324
 21
85.59868034254676
 31
0.0
  0
LINE
  5
15A
330
E3
100
AcDbEntity
  8
Des_ Walls
  6
Dot & Dashed
100
AcDbLine
 10
167.9102372397447
 20
87.60227869929614
 30
0.0
 11
156.5868820009141
 21
87.00884780948343
 31
0.0
  0
HATCH
  5
15B
330
E3
100
AcDbEntity
  8
Des_ Walls
  6
Continuous
 62
   255
370
     0
100
AcDbHatch
 10
0.0
 20
0.0
 30
0.0
210
0.0
220
0.0
230
1.0
  2
SOLID
 70
     1
 71
     0
 91
        1
 92
        3
 72
     0
 73
     1
 93
        6
 10
163.2679093731735
 20
115.0397270712139
 10
156.8657999653289
 20
114.7042067344218
 10
156.7446743872796
 20
114.5696831515741
 10
156.8568826774643
 20
112.4286214290603
 10
156.9914062603121
 20
112.3074958510108
 10
163.3935156681567
 20
112.6430161878029
 97
        0
 75
     0
 76
     1
 98
        0
  0
LINE
  5
15C
330
E3
100
AcDbEntity
  8
Des_ Walls
  6
Continuous
100
AcDbLine
 10
163.2679112467754
 20
115.0397284902327
 30
0.0
 11
156.8658020145403
 21
114.7042057440182
 31
0.0
  0
LINE
  5
15D
330
E3
100
AcDbEntity
  8
Des_ Walls
  6
Continuous
100
AcDbLine
 10
156.8658020145403
 20
114.7042057440182
 30
0.0
 11
156.7446728257387
 21
114.5696836502124
 31
0.0
  0
LINE
  5
15E
330
E3
100
AcDbEntity
  8
Des_ Walls
  6
Continuous
100
AcDbLine
 10
156.7446728257387
 20
114.5696836502124
 30
0.0
 11
156.8568816479232
 21
112.428622690994
 31
0.0
  0
LINE
  5
15F
330
E3
100
AcDbEntity
  8
Des_ Walls
  6
Continuous
100
AcDbLine
 10
156.8568816479232
 20
112.428622690994
 30
0.0
 11
156.9914078600884
 21
112.307497620552
 31
0.0
  0
LINE
  5
160
330
E3
100
AcDbEntity
  8
Des_ Walls
  6
Continuous
100
AcDbLine
 10
156.9914078600884
 20
112.307497620552
 30
0.0
 11
163.3935170923234
 21
112.643016248407
 31
0.0
  0
LINE
  5
161
330
E3
100
AcDbEntity
  8
Des_ Walls
  6
Continuous
100
AcDbLine
 10
163.3935170923234
 20
112.643016248407
 30
0.0
 11
163.2679112467754
 21
115.0397284902327
 31
0.0
  0
LINE
  5
162
330
E3
100
AcDbEntity
  8
Des_ Walls
  6
Continuous
100
AcDbLine
 10
156.8658020145403
 20
114.7042057440182
 30
0.0
 11
156.9914078600884
 21
112.307497620552
 31
0.0
  0
LINE
  5
163
330
E3
100
AcDbEntity
  8
Des_ Walls
  6
Continuous
100
AcDbLine
 10
162.7297528594414
 20
115.0115218462064
 30
0.0
 11
162.8553587049894
 21
112.6148137227402
 31
0.0
  0
LINE
  5
164
330
E3
100
AcDbEntity
  8
Des_ Walls
  6
Continuous
100
AcDbLine
 10
162.6086277889993
 20
114.8769997524007
 30
0.0
 11
162.7208366111837
 21
112.7359387931823
 31
0.0
  0
LINE
  5
165
330
E3
100
AcDbEntity
  8
Des_ Walls
  6
Continuous
100
AcDbLine
 10
162.6086277889993
 20
114.8769997524007
 30
0.0
 11
162.7297528594414
 21
115.0115218462064
 31
0.0
  0
LINE
  5
166
330
E3
100
AcDbEntity
  8
Des_ Walls
  6
Continuous
100
AcDbLine
 10
162.7208366111837
 20
112.7359387931823
 30
0.0
 11
162.8553587049894
 21
112.6148137227402
 31
0.0
  0
LINE
  5
167
330
E3
100
AcDbEntity
  8
Des_ Walls
  6
Continuous
100
AcDbLine
 10
162.6086277889993
 20
114.8769997524007
 30
0.0
 11
156.7446728257387
 21
114.5696836502124
 31
0.0
  0
LINE
  5
168
330
E3
100
AcDbEntity
  8
Des_ Walls
  6
Continuous
100
AcDbLine
 10
162.7208366111837
 20
112.7359387931823
 30
0.0
 11
156.8568816479232
 21
112.428622690994
 31
0.0
  0
HATCH
  5
169
330
E3
100
AcDbEntity
  8
Des_ Walls
  6
Continuous
 62
   255
370
     0
100
AcDbHatch
 10
0.0
 20
0.0
 30
0.0
210
0.0
220
0.0
230
1.0
  2
SOLID
 70
     1
 71
     0
 91
        1
 92
        3
 72
     0
 73
     1
 93
        4
 10
164.9102405045446
 20
112.3631661809524
 10
164.747073141049
 20
115.4765849467932
 10
163.2491288389173
 20
115.3980810124288
 10
163.4122962024129
 20
112.284662246588
 97
        0
 75
     0
 76
     1
 98
        0
  0
HATCH
  5
16A
330
E3
100
AcDbEntity
  8
Des_ Walls
  6
Continuous
 62
   255
370
     0
100
AcDbHatch
 10
0.0
 20
0.0
 30
0.0
210
0.0
220
0.0
230
1.0
  2
SOLID
 70
     1
 71
     0
 91
        1
 92
        3
 72
     1
 73
     1
 93
        4
 10
164.6333885602735
 20
112.8689853195318
 42
0.2405626121623441
 10
164.524610317943
 20
114.9445978300923
 42
0.0
 10
163.2763233994994
 20
114.8791778847887
 42
0.0
 10
163.3851016418304
 20
112.8035653742281
 42
0.0
 97
        0
 75
     0
 76
     1
 98
        0
  0
ARC
  5
16B
330
E3
100
AcDbEntity
  8
Des_ Walls
  6
Continuous
100
AcDbCircle
 10
162.5467883358827
 20
113.8002879038577
 30
0.0
 40
2.284999999999984
100
AcDbArc
 50
335.9475818795688
 51
30.05241812043155
  0
LINE
  5
16C
330
E3
100
AcDbEntity
  8
Des_ Walls
  6
Continuous
100
AcDbLine
 10
164.5246121663334
 20
114.9445985047803
 30
0.0
 11
163.2763250551774
 21
114.8791783645616
 31
0.0
  0
LINE
  5
16D
330
E3
100
AcDbEntity
  8
Des_ Walls
  6
Continuous
100
AcDbLine
 10
163.2763250551774
 20
114.8791783645616
 30
0.0
 11
163.3851032839213
 21
112.8035663740782
 31
0.0
  0
LINE
  5
16E
330
E3
100
AcDbEntity
  8
Des_ Walls
  6
Continuous
100
AcDbLine
 10
163.3851032839213
 20
112.8035663740782
 30
0.0
 11
164.6333903950773
 21
112.8689865142969
 31
0.0
  0
HATCH
  5
16F
330
E3
100
AcDbEntity
  8
Des_ Walls
  6
Continuous
 62
   255
370
     0
100
AcDbHatch
 10
0.0
 20
0.0
 30
0.0
210
0.0
220
0.0
230
1.0
  2
SOLID
 70
     1
 71
     0
 91
        1
 92
        3
 72
     1
 73
     1
 93
        4
 10
164.6877776814386
 20
111.8311790642515
 42
0.4811252243246882
 10
164.6333885602735
 20
112.8689853195318
 42
0.0
 10
163.3851016418304
 20
112.8035653742281
 42
0.0
 10
163.4394907629955
 20
111.7657591189479
 42
0.0
 97
        0
 75
     0
 76
     1
 98
        0
  0
ARC
  5
170
330
E3
100
AcDbEntity
  8
Des_ Walls
  6
Continuous
100
AcDbCircle
 10
164.2461518639329
 20
112.3283627700509
 30
0.0
 40
0.6649999999999876
100
AcDbArc
 50
311.6132381909904
 51
54.38676180898516
  0
LINE
  5
171
330
E3
100
AcDbEntity
  8
Des_ Walls
  6
Continuous
100
AcDbLine
 10
164.6333903950773
 20
112.8689865142969
 30
0.0
 11
163.3851032839213
 21
112.8035663740782
 31
0.0
  0
LINE
  5
172
330
E3
100
AcDbEntity
  8
Des_ Walls
  6
Continuous
100
AcDbLine
 10
163.3851032839213
 20
112.8035663740782
 30
0.0
 11
163.4394903391135
 21
111.7657603788365
 31
0.0
  0
LINE
  5
173
330
E3
100
AcDbEntity
  8
Des_ Walls
  6
Continuous
100
AcDbLine
 10
163.4394903391135
 20
111.7657603788365
 30
0.0
 11
164.6877774502695
 21
111.8311805190552
 31
0.0
  0
HATCH
  5
174
330
E3
100
AcDbEntity
  8
Des_ Walls
  6
Continuous
 62
   255
370
     0
100
AcDbHatch
 10
0.0
 20
0.0
 30
0.0
210
0.0
220
0.0
230
1.0
  2
SOLID
 70
     1
 71
     0
 91
        1
 92
        3
 72
     1
 73
     1
 93
        4
 10
164.4702211967775
 20
115.9824040853726
 42
0.0
 10
163.2219342783343
 20
115.916984140069
 42
0.0
 10
163.2763233994994
 20
114.8791778847887
 42
0.0
 10
164.524610317943
 20
114.9445978300923
 42
0.4811252243246882
 97
        0
 75
     0
 76
     1
 98
        0
  0
LINE
  5
175
330
E3
100
AcDbEntity
  8
Des_ Walls
  6
Continuous
100
AcDbLine
 10
163.2219338816257
 20
115.9169843598033
 30
0.0
 11
164.4702209927817
 21
115.982404500022
 31
0.0
  0
LINE
  5
176
330
E3
100
AcDbEntity
  8
Des_ Walls
  6
Continuous
100
AcDbLine
 10
163.2763250551774
 20
114.8791783645616
 30
0.0
 11
163.2219338816257
 21
115.9169843598033
 31
0.0
  0
LINE
  5
177
330
E3
100
AcDbEntity
  8
Des_ Walls
  6
Continuous
100
AcDbLine
 10
164.5246121663334
 20
114.9445985047803
 30
0.0
 11
163.2763250551774
 21
114.8791783645616
 31
0.0
  0
ARC
  5
178
330
E3
100
AcDbEntity
  8
Des_ Walls
  6
Continuous
100
AcDbCircle
 10
164.0829845004371
 20
115.4417815358916
 30
0.0
 40
0.6650000000000003
100
AcDbArc
 50
311.613238191015
 51
54.38676180900978
  0
HATCH
  5
179
330
E3
100
AcDbEntity
  8
Des_ Walls
  6
Continuous
 62
   255
370
     0
100
AcDbHatch
 10
0.0
 20
0.0
 30
0.0
210
0.0
220
0.0
230
1.0
  2
SOLID
 70
     1
 71
     0
 91
        1
 92
        3
 72
     0
 73
     1
 93
        4
 10
160.157867088115
 20
112.1141048438736
 10
159.9946997246193
 20
115.2275236097144
 10
157.9175502923293
 20
115.1186648207291
 10
158.0807176558254
 20
112.0052460548883
 97
        0
 75
     0
 76
     1
 98
        0
  0
HATCH
  5
17A
330
E3
100
AcDbEntity
  8
Des_ Walls
  6
Continuous
 62
   255
370
     0
100
AcDbHatch
 10
0.0
 20
0.0
 30
0.0
210
0.0
220
0.0
230
1.0
  2
SOLID
 70
     1
 71
     0
 91
        1
 92
        3
 72
     1
 73
     1
 93
        4
 10
159.784480955484
 20
112.6148648400162
 42
0.3335801555317839
 10
159.6757027131534
 20
114.6904773505767
 42
0.0
 10
158.2909364249603
 20
114.6179048245865
 42
0.3335801555317839
 10
158.3997146672909
 20
112.542292314026
 42
0.0
 97
        0
 75
     0
 76
     1
 98
        0
  0
ARC
  5
17B
330
E3
100
AcDbEntity
  8
Des_ Walls
  6
Continuous
100
AcDbCircle
 10
158.3476300758213
 20
113.5802193445899
 30
0.0
 40
1.731025641025654
100
AcDbArc
 50
326.1046488728495
 51
39.89535112715065
  0
LINE
  5
17C
330
E3
100
AcDbEntity
  8
Des_ Walls
  6
Continuous
100
AcDbLine
 10
159.6757010255106
 20
114.6904792518967
 30
0.0
 11
158.2909355997996
 21
114.6179055212745
 31
0.0
  0
ARC
  5
17D
330
E3
100
AcDbEntity
  8
Des_ Walls
  6
Continuous
100
AcDbCircle
 10
159.727787304623
 20
113.6525503200128
 30
0.0
 40
1.731025641025654
100
AcDbArc
 50
146.1046488728495
 51
219.8953511271506
  0
LINE
  5
17E
330
E3
100
AcDbEntity
  8
Des_ Walls
  6
Continuous
100
AcDbLine
 10
158.3997138285435
 20
112.5422935307911
 30
0.0
 11
159.7844792542545
 21
112.6148631430539
 31
0.0
  0
HATCH
  5
17F
330
E3
100
AcDbEntity
  8
Des_ Walls
  6
Continuous
 62
   255
370
     0
100
AcDbHatch
 10
0.0
 20
0.0
 30
0.0
210
0.0
220
0.0
230
1.0
  2
SOLID
 70
     1
 71
     0
 91
        1
 92
        3
 72
     1
 73
     1
 93
        4
 10
159.8388700766495
 20
111.5770585847359
 42
0.6671603110635675
 10
159.784480955484
 20
112.6148648400162
 42
0.0
 10
158.3997146672909
 20
112.542292314026
 42
0.6671603110635675
 10
158.4541037884564
 20
111.5044860587457
 42
0.0
 97
        0
 75
     0
 76
     1
 98
        0
  0
ARC
  5
180
330
E3
100
AcDbEntity
  8
Des_ Walls
  6
Continuous
100
AcDbCircle
 10
159.5958819159605
 20
112.0846524490109
 30
0.0
 40
0.5627564102564149
100
AcDbArc
 50
295.5807117678137
 51
70.41928823221076
  0
LINE
  5
181
330
E3
100
AcDbEntity
  8
Des_ Walls
  6
Continuous
100
AcDbLine
 10
159.7844792542545
 20
112.6148631430539
 30
0.0
 11
158.3997138285435
 21
112.5422935307911
 31
0.0
  0
ARC
  5
182
330
E3
100
AcDbEntity
  8
Des_ Walls
  6
Continuous
100
AcDbCircle
 10
158.6427028279799
 20
112.0346984497509
 30
0.0
 40
0.5627564102564149
100
AcDbArc
 50
115.5807117678137
 51
250.4192882322108
  0
LINE
  5
183
330
E3
100
AcDbEntity
  8
Des_ Walls
  6
Continuous
100
AcDbLine
 10
158.4541050020952
 20
111.5044875355494
 30
0.0
 11
159.8388704278062
 21
111.5770571478122
 31
0.0
  0
HATCH
  5
184
330
E3
100
AcDbEntity
  8
Des_ Walls
  6
Continuous
 62
   255
370
     0
100
AcDbHatch
 10
0.0
 20
0.0
 30
0.0
210
0.0
220
0.0
230
1.0
  2
SOLID
 70
     1
 71
     0
 91
        1
 92
        3
 72
     1
 73
     1
 93
        4
 10
159.621313591988
 20
115.728283605857
 42
0.0
 10
158.2365473037952
 20
115.6557110798668
 42
0.6671603110635675
 10
158.2909364249603
 20
114.6179048245865
 42
0.0
 10
159.6757027131534
 20
114.6904773505767
 42
0.6671603110635675
 97
        0
 75
     0
 76
     1
 98
        0
  0
LINE
  5
185
330
E3
100
AcDbEntity
  8
Des_ Walls
  6
Continuous
100
AcDbLine
 10
158.2365485446074
 20
115.6557115165162
 30
0.0
 11
159.6213139703184
 21
115.7282852471384
 31
0.0
  0
ARC
  5
186
330
E3
100
AcDbEntity
  8
Des_ Walls
  6
Continuous
100
AcDbCircle
 10
158.479535464484
 20
115.1481172155917
 30
0.0
 40
0.5627564102564067
100
AcDbArc
 50
115.5807117677891
 51
250.4192882321861
  0
LINE
  5
187
330
E3
100
AcDbEntity
  8
Des_ Walls
  6
Continuous
100
AcDbLine
 10
159.6757010255106
 20
114.6904792518967
 30
0.0
 11
158.2909355997996
 21
114.6179055212745
 31
0.0
  0
ARC
  5
188
330
E3
100
AcDbEntity
  8
Des_ Walls
  6
Continuous
100
AcDbCircle
 10
159.4327145524644
 20
115.1980712148518
 30
0.0
 40
0.5627564102564149
100
AcDbArc
 50
295.5807117678137
 51
70.41928823221076
  0
HATCH
  5
189
330
E3
100
AcDbEntity
  8
Des_ Walls
  6
Continuous
 62
   255
370
     0
100
AcDbHatch
 10
0.0
 20
0.0
 30
0.0
210
0.0
220
0.0
230
1.0
  2
SOLID
 70
     1
 71
     0
 91
        1
 92
        3
 72
     0
 73
     1
 93
        4
 10
162.800420816156
 20
116.3170110838977
 10
163.0621005973705
 20
111.3238634101248
 10
163.4615524112726
 20
111.344797792622
 10
163.1998726300577
 20
116.3379454663948
 97
        0
 75
     0
 76
     1
 98
        0
  0
LINE
  5
18A
330
E3
100
AcDbEntity
  8
Des_ Walls
  6
Continuous
100
AcDbLine
 10
162.8004197896279
 20
116.3170129704337
 30
0.0
 11
163.0621003505028
 21
111.3238645258099
 31
0.0
  0
LINE
  5
18B
330
E3
100
AcDbEntity
  8
Des_ Walls
  6
Continuous
100
AcDbLine
 10
163.0621003505028
 20
111.3238645258099
 30
0.0
 11
163.4615523908071
 21
111.344798147008
 31
0.0
  0
LINE
  5
18C
330
E3
100
AcDbEntity
  8
Des_ Walls
  6
Continuous
100
AcDbLine
 10
163.4615523908071
 20
111.344798147008
 30
0.0
 11
163.1998718299322
 21
116.3379465916318
 31
0.0
  0
LINE
  5
18D
330
E3
100
AcDbEntity
  8
Des_ Walls
  6
Continuous
100
AcDbLine
 10
163.1998718299322
 20
116.3379465916318
 30
0.0
 11
162.8004197896279
 21
116.3170129704337
 31
0.0
  0
HATCH
  5
18E
330
E3
100
AcDbEntity
  8
Des_ Walls
  6
Continuous
 62
   255
370
     0
100
AcDbHatch
 10
0.0
 20
0.0
 30
0.0
210
0.0
220
0.0
230
1.0
  2
SOLID
 70
     1
 71
     0
 91
        1
 92
        3
 72
     0
 73
     1
 93
        4
 10
160.3448953296618
 20
116.1883224461776
 10
159.9454435157597
 20
116.1673880636804
 10
160.2071232969746
 20
111.1742403899076
 10
160.6065751108763
 20
111.1951747724048
 97
        0
 75
     0
 76
     1
 98
        0
  0
LINE
  5
18F
330
E3
100
AcDbEntity
  8
Des_ Walls
  6
Continuous
100
AcDbLine
 10
160.3448973745367
 20
116.1883224736409
 30
0.0
 11
159.9454453342324
 21
116.1673888524427
 31
0.0
  0
LINE
  5
190
330
E3
100
AcDbEntity
  8
Des_ Walls
  6
Continuous
100
AcDbLine
 10
159.9454453342324
 20
116.1673888524427
 30
0.0
 11
160.2071217767478
 21
111.174240407819
 31
0.0
  0
LINE
  5
191
330
E3
100
AcDbEntity
  8
Des_ Walls
  6
Continuous
100
AcDbLine
 10
160.2071217767478
 20
111.174240407819
 30
0.0
 11
160.6065738170521
 21
111.1951740290171
 31
0.0
  0
LINE
  5
192
330
E3
100
AcDbEntity
  8
Des_ Walls
  6
Continuous
100
AcDbLine
 10
160.6065738170521
 20
111.1951740290171
 30
0.0
 11
160.3448973745367
 21
116.1883224736409
 31
0.0
  0
LINE
  5
193
330
E3
100
AcDbEntity
  8
Des_ Walls
  6
Continuous
100
AcDbLine
 10
164.9102388738889
 20
112.3631654855401
 30
0.0
 11
164.7470735899527
 21
115.4765834712651
 31
0.0
  0
LINE
  5
194
330
E3
100
AcDbEntity
  8
Des_ Walls
  6
Continuous
100
AcDbLine
 10
163.2491274092218
 20
115.3980793030027
 30
0.0
 11
163.4122968115174
 21
112.2846613172776
 31
0.0
  0
LINE
  5
195
330
E3
100
AcDbEntity
  8
Des_ Walls
  6
Continuous
100
AcDbLine
 10
160.1578661974581
 20
112.1141035780886
 30
0.0
 11
159.9947009135221
 21
115.2275215638137
 31
0.0
  0
LINE
  5
196
330
E3
100
AcDbEntity
  8
Des_ Walls
  6
Continuous
100
AcDbLine
 10
157.917548656596
 20
115.1186650862398
 30
0.0
 11
158.0807180588916
 21
112.0052471005147
 31
0.0
  0
LINE
  5
197
330
E3
100
AcDbEntity
  8
Des_ Walls
  6
Dot & Dashed
100
AcDbLine
 10
166.5263284328039
 20
114.0088454572641
 30
0.0
 11
155.2029731939733
 21
113.4154145674514
 31
0.0
  0
HATCH
  5
198
330
E3
100
AcDbEntity
  8
Des_ Walls
  6
Continuous
 62
   255
370
     0
100
AcDbHatch
 10
0.0
 20
0.0
 30
0.0
210
0.0
220
0.0
230
1.0
  2
SOLID
 70
     1
 71
     0
 91
        1
 92
        3
 72
     1
 73
     1
 93
        2
 10
170.363099087576
 20
132.324667999196
 42
0.4999999999999998
 10
167.9663882041646
 20
132.1990617042129
 42
0.0
 97
        0
 75
     0
 76
     1
 98
        0
  0
ARC
  5
199
330
E3
100
AcDbEntity
  8
Des_ Walls
  6
Continuous
100
AcDbCircle
 10
169.211846006489
 20
131.3630982704252
 30
0.0
 40
1.500000000000205
100
AcDbArc
 50
39.86989764584446
 51
146.1301023541564
  0
LINE
  5
19A
330
E3
100
AcDbEntity
  8
Des_ Walls
  6
Continuous
100
AcDbLine
 10
167.9663869527911
 20
132.1990626764281
 30
0.0
 11
170.3630991946168
 21
132.3246685219761
 31
0.0
  0
HATCH
  5
19B
330
E3
100
AcDbEntity
  8
Des_ Walls
  6
Continuous
 62
   255
370
     0
100
AcDbHatch
 10
0.0
 20
0.0
 30
0.0
210
0.0
220
0.0
230
1.0
  2
SOLID
 70
     1
 71
     0
 91
        1
 92
        3
 72
     0
 73
     1
 93
        4
 10
168.4942191698817
 20
132.8275475605617
 10
168.5017234431054
 20
132.6843574974407
 10
169.7799692475912
 20
132.7513475214317
 10
169.7724649743675
 20
132.8945375845527
 97
        0
 75
     0
 76
     1
 98
        0
  0
LINE
  5
19C
330
E3
100
AcDbEntity
  8
Des_ Walls
  6
Continuous
100
AcDbLine
 10
168.4942206129278
 20
132.8275490420696
 30
0.0
 11
168.5017242638865
 21
132.6843578015745
 31
0.0
  0
LINE
  5
19D
330
E3
100
AcDbEntity
  8
Des_ Walls
  6
Continuous
100
AcDbLine
 10
168.5017242638865
 20
132.6843578015745
 30
0.0
 11
169.7799683218445
 21
132.7513470367522
 31
0.0
  0
LINE
  5
19E
330
E3
100
AcDbEntity
  8
Des_ Walls
  6
Continuous
100
AcDbLine
 10
169.7799683218445
 20
132.7513470367522
 30
0.0
 11
169.7724646708858
 21
132.8945382772473
 31
0.0
  0
LINE
  5
19F
330
E3
100
AcDbEntity
  8
Des_ Walls
  6
Continuous
100
AcDbLine
 10
169.7724646708858
 20
132.8945382772473
 30
0.0
 11
168.4942206129278
 21
132.8275490420696
 31
0.0
  0
HATCH
  5
1A0
330
E3
100
AcDbEntity
  8
Des_ Walls
  6
Continuous
 62
   255
370
     0
100
AcDbHatch
 10
0.0
 20
0.0
 30
0.0
210
0.0
220
0.0
230
1.0
  2
SOLID
 70
     1
 71
     0
 91
        1
 92
        3
 72
     1
 73
     1
 93
        4
 10
167.7666622972138
 20
132.1885945129643
 42
0.0
 10
167.8085310622084
 20
131.3896908851607
 42
-0.4285714285714285
 10
170.6046937595209
 20
131.5362315626409
 42
0.0
 10
170.5628249945268
 20
132.3351351904446
 42
0.0
 97
        0
 75
     0
 76
     1
 98
        0
  0
LINE
  5
1A1
330
E3
100
AcDbEntity
  8
Des_ Walls
  6
Continuous
100
AcDbLine
 10
167.7666629918187
 20
132.1885938066493
 30
0.0
 11
167.8085302342149
 21
131.3896897260407
 31
0.0
  0
ARC
  5
1A2
330
E3
100
AcDbEntity
  8
Des_ Walls
  6
Continuous
100
AcDbCircle
 10
169.2763936858553
 20
130.1314551775615
 30
0.0
 40
1.933333333333147
100
AcDbArc
 50
46.6028189727045
 51
139.3971810272971
  0
LINE
  5
1A3
330
E3
100
AcDbEntity
  8
Des_ Walls
  6
Continuous
100
AcDbLine
 10
170.6046945163448
 20
131.5362333111463
 30
0.0
 11
170.5628231555892
 21
132.3351332733954
 31
0.0
  0
LINE
  5
1A4
330
E3
100
AcDbEntity
  8
Des_ Walls
  6
Continuous
100
AcDbLine
 10
170.5628231555892
 20
132.3351332733954
 30
0.0
 11
167.7666629918187
 21
132.1885938066493
 31
0.0
  0
HATCH
  5
1A5
330
E3
100
AcDbEntity
  8
Des_ Walls
  6
Continuous
 62
   255
370
     0
100
AcDbHatch
 10
0.0
 20
0.0
 30
0.0
210
0.0
220
0.0
230
1.0
  2
SOLID
 70
     1
 71
     0
 91
        1
 92
        3
 72
     0
 73
     1
 93
        5
 10
168.8556493859976
 20
132.0453914387558
 10
169.8688734988609
 20
112.7119236459073
 10
170.2219299619778
 20
112.0895482496621
 10
170.507996401104
 20
112.7454186579027
 10
169.4947722882403
 20
132.0788864507513
 97
        0
 75
     0
 76
     1
 98
        0
  0
LINE
  5
1A6
330
E3
100
AcDbEntity
  8
Des_ Walls
  6
Continuous
100
AcDbLine
 10
168.8556478402236
 20
132.0453902110758
 30
0.0
 11
169.8688754661341
 21
112.7119246390989
 31
0.0
  0
LINE
  5
1A7
330
E3
100
AcDbEntity
  8
Des_ Walls
  6
Continuous
100
AcDbLine
 10
169.8688754661341
 20
112.7119246390989
 30
0.0
 11
170.2219300686226
 21
112.0895499189143
 31
0.0
  0
LINE
  5
1A8
330
E3
100
AcDbEntity
  8
Des_ Walls
  6
Continuous
100
AcDbLine
 10
170.2219300686226
 20
112.0895499189143
 30
0.0
 11
170.5079954359334
 21
112.7454192566877
 31
0.0
  0
LINE
  5
1A9
330
E3
100
AcDbEntity
  8
Des_ Walls
  6
Continuous
100
AcDbLine
 10
170.5079954359334
 20
112.7454192566877
 30
0.0
 11
169.4947719283823
 21
132.0788848286646
 31
0.0
  0
LINE
  5
1AA
330
E3
100
AcDbEntity
  8
Des_ Walls
  6
Continuous
100
AcDbLine
 10
169.4947719283823
 20
132.0788848286646
 30
0.0
 11
168.8556478402236
 21
132.0453902110758
 31
0.0
  0
LINE
  5
1AB
330
E3
100
AcDbEntity
  8
Des_ Walls
  6
Continuous
100
AcDbLine
 10
169.6945000077142
 20
132.0893536984434
 30
0.0
 11
169.707061004105
 21
131.8118545188352
 31
0.0
  0
LINE
  5
1AC
330
E3
100
AcDbEntity
  8
Des_ Walls
  6
Continuous
100
AcDbLine
 10
169.707061004105
 20
131.8118545188352
 30
0.0
 11
169.7156848488401
 21
131.5341453028938
 31
0.0
  0
LINE
  5
1AD
330
E3
100
AcDbEntity
  8
Des_ Walls
  6
Continuous
100
AcDbLine
 10
169.7156848488401
 20
131.5341453028938
 30
0.0
 11
169.7204168438739
 21
131.2562342873383
 31
0.0
  0
LINE
  5
1AE
330
E3
100
AcDbEntity
  8
Des_ Walls
  6
Continuous
100
AcDbLine
 10
169.7204168438739
 20
131.2562342873383
 30
0.0
 11
169.7213311196768
 21
130.9781255905282
 31
0.0
  0
LINE
  5
1AF
330
E3
100
AcDbEntity
  8
Des_ Walls
  6
Continuous
100
AcDbLine
 10
169.7213311196768
 20
130.9781255905282
 30
0.0
 11
169.718534753595
 21
130.6998192124633
 31
0.0
  0
LINE
  5
1B0
330
E3
100
AcDbEntity
  8
Des_ Walls
  6
Continuous
100
AcDbLine
 10
169.718534753595
 20
130.6998192124633
 30
0.0
 11
169.7121554147723
 21
130.4213233898627
 31
0.0
  0
LINE
  5
1B1
330
E3
100
AcDbEntity
  8
Des_ Walls
  6
Continuous
100
AcDbLine
 10
169.7121554147723
 20
130.4213233898627
 30
0.0
 11
169.7023496008686
 21
130.1426504778049
 31
0.0
  0
LINE
  5
1B2
330
E3
100
AcDbEntity
  8
Des_ Walls
  6
Continuous
100
AcDbLine
 10
169.7023496008686
 20
130.1426504778049
 30
0.0
 11
169.689310874779
 21
129.8638087130086
 31
0.0
  0
LINE
  5
1B3
330
E3
100
AcDbEntity
  8
Des_ Walls
  6
Continuous
100
AcDbLine
 10
169.689310874779
 20
129.8638087130086
 30
0.0
 11
169.6732410361178
 21
129.5848104505525
 31
0.0
  0
LINE
  5
1B4
330
E3
100
AcDbEntity
  8
Des_ Walls
  6
Continuous
100
AcDbLine
 10
169.6732410361178
 20
129.5848104505525
 30
0.0
 11
169.6543789497343
 21
129.3056598087958
 31
0.0
  0
LINE
  5
1B5
330
E3
100
AcDbEntity
  8
Des_ Walls
  6
Continuous
100
AcDbLine
 10
169.6543789497343
 20
129.3056598087958
 30
0.0
 11
169.6329758355564
 21
129.0263814978955
 31
0.0
  0
LINE
  5
1B6
330
E3
100
AcDbEntity
  8
Des_ Walls
  6
Continuous
100
AcDbLine
 10
169.6329758355564
 20
129.0263814978955
 30
0.0
 11
169.6093076236686
 21
128.746979636211
 31
0.0
  0
LINE
  5
1B7
330
E3
100
AcDbEntity
  8
Des_ Walls
  6
Continuous
100
AcDbLine
 10
169.6093076236686
 20
128.746979636211
 30
0.0
 11
169.5836625992341
 21
128.4674789338992
 31
0.0
  0
LINE
  5
1B8
330
E3
100
AcDbEntity
  8
Des_ Walls
  6
Continuous
100
AcDbLine
 10
169.5836625992341
 20
128.4674789338992
 30
0.0
 11
169.5563455208539
 21
128.1878876276789
 31
0.0
  0
LINE
  5
1B9
330
E3
100
AcDbEntity
  8
Des_ Walls
  6
Continuous
100
AcDbLine
 10
169.5563455208539
 20
128.1878876276789
 30
0.0
 11
169.5276776205666
 21
127.9082263093477
 31
0.0
  0
LINE
  5
1BA
330
E3
100
AcDbEntity
  8
Des_ Walls
  6
Continuous
100
AcDbLine
 10
169.5276776205666
 20
127.9082263093477
 30
0.0
 11
169.4979883671303
 21
127.6285114523433
 31
0.0
  0
LINE
  5
1BB
330
E3
100
AcDbEntity
  8
Des_ Walls
  6
Continuous
100
AcDbLine
 10
169.4979883671303
 20
127.6285114523433
 30
0.0
 11
169.467611347662
 21
127.3487595301037
 31
0.0
  0
LINE
  5
1BC
330
E3
100
AcDbEntity
  8
Des_ Walls
  6
Continuous
100
AcDbLine
 10
169.467611347662
 20
127.3487595301037
 30
0.0
 11
169.4368925043575
 21
127.0689911344262
 31
0.0
  0
LINE
  5
1BD
330
E3
100
AcDbEntity
  8
Des_ Walls
  6
Continuous
100
AcDbLine
 10
169.4368925043575
 20
127.0689911344262
 30
0.0
 11
169.4061695426936
 21
126.7892227387486
 31
0.0
  0
LINE
  5
1BE
330
E3
100
AcDbEntity
  8
Des_ Walls
  6
Continuous
100
AcDbLine
 10
169.4061695426936
 20
126.7892227387486
 30
0.0
 11
169.3757925232254
 21
126.509470816509
 31
0.0
  0
LINE
  5
1BF
330
E3
100
AcDbEntity
  8
Des_ Walls
  6
Continuous
100
AcDbLine
 10
169.3757925232254
 20
126.509470816509
 30
0.0
 11
169.346103269789
 21
126.2297559595046
 31
0.0
  0
LINE
  5
1C0
330
E3
100
AcDbEntity
  8
Des_ Walls
  6
Continuous
100
AcDbLine
 10
169.346103269789
 20
126.2297559595046
 30
0.0
 11
169.3174353695018
 21
125.9500946411734
 31
0.0
  0
LINE
  5
1C1
330
E3
100
AcDbEntity
  8
Des_ Walls
  6
Continuous
100
AcDbLine
 10
169.3174353695018
 20
125.9500946411734
 30
0.0
 11
169.2901182911215
 21
125.6705033349531
 31
0.0
  0
LINE
  5
1C2
330
E3
100
AcDbEntity
  8
Des_ Walls
  6
Continuous
100
AcDbLine
 10
169.2901182911215
 20
125.6705033349531
 30
0.0
 11
169.264473266687
 21
125.3910026326413
 31
0.0
  0
LINE
  5
1C3
330
E3
100
AcDbEntity
  8
Des_ Walls
  6
Continuous
100
AcDbLine
 10
169.264473266687
 20
125.3910026326413
 30
0.0
 11
169.2408050547993
 21
125.1116007709568
 31
0.0
  0
LINE
  5
1C4
330
E3
100
AcDbEntity
  8
Des_ Walls
  6
Continuous
100
AcDbLine
 10
169.2408050547993
 20
125.1116007709568
 30
0.0
 11
169.2194019406213
 21
124.8323224600565
 31
0.0
  0
LINE
  5
1C5
330
E3
100
AcDbEntity
  8
Des_ Walls
  6
Continuous
100
AcDbLine
 10
169.2194019406213
 20
124.8323224600565
 30
0.0
 11
169.2005398542378
 21
124.5531718182998
 31
0.0
  0
LINE
  5
1C6
330
E3
100
AcDbEntity
  8
Des_ Walls
  6
Continuous
100
AcDbLine
 10
169.2005398542378
 20
124.5531718182998
 30
0.0
 11
169.1844700155766
 21
124.2741735558436
 31
0.0
  0
LINE
  5
1C7
330
E3
100
AcDbEntity
  8
Des_ Walls
  6
Continuous
100
AcDbLine
 10
169.1844700155766
 20
124.2741735558436
 30
0.0
 11
169.1714312894871
 21
123.9953317910474
 31
0.0
  0
LINE
  5
1C8
330
E3
100
AcDbEntity
  8
Des_ Walls
  6
Continuous
100
AcDbLine
 10
169.1714312894871
 20
123.9953317910474
 30
0.0
 11
169.1616295939428
 21
123.7166588789895
 31
0.0
  0
LINE
  5
1C9
330
E3
100
AcDbEntity
  8
Des_ Walls
  6
Continuous
100
AcDbLine
 10
169.1616295939428
 20
123.7166588789895
 30
0.0
 11
169.1552461367606
 21
123.438163056389
 31
0.0
  0
LINE
  5
1CA
330
E3
100
AcDbEntity
  8
Des_ Walls
  6
Continuous
100
AcDbLine
 10
169.1552461367606
 20
123.438163056389
 30
0.0
 11
169.1524497706789
 21
123.1598566783241
 31
0.0
  0
LINE
  5
1CB
330
E3
100
AcDbEntity
  8
Des_ Walls
  6
Continuous
100
AcDbLine
 10
169.1524497706789
 20
123.1598566783241
 30
0.0
 11
169.1533640464817
 21
122.881747981514
 31
0.0
  0
LINE
  5
1CC
330
E3
100
AcDbEntity
  8
Des_ Walls
  6
Continuous
100
AcDbLine
 10
169.1533640464817
 20
122.881747981514
 30
0.0
 11
169.1580960415155
 21
122.6038369659585
 31
0.0
  0
LINE
  5
1CD
330
E3
100
AcDbEntity
  8
Des_ Walls
  6
Continuous
100
AcDbLine
 10
169.1580960415155
 20
122.6038369659585
 30
0.0
 11
169.1667198862507
 21
122.3261277500171
 31
0.0
  0
LINE
  5
1CE
330
E3
100
AcDbEntity
  8
Des_ Walls
  6
Continuous
100
AcDbLine
 10
169.1667198862507
 20
122.3261277500171
 30
0.0
 11
169.1792850010009
 21
122.0486285704089
 31
0.0
  0
LINE
  5
1CF
330
E3
100
AcDbEntity
  8
Des_ Walls
  6
Continuous
100
AcDbLine
 10
169.1792850010009
 20
122.0486285704089
 30
0.0
 11
169.1957955041256
 21
121.7713353087743
 31
0.0
  0
LINE
  5
1D0
330
E3
100
AcDbEntity
  8
Des_ Walls
  6
Continuous
100
AcDbLine
 10
169.9561764502296
 20
127.0962052538196
 30
0.0
 11
169.9687415649798
 21
126.8187060742114
 31
0.0
  0
LINE
  5
1D1
330
E3
100
AcDbEntity
  8
Des_ Walls
  6
Continuous
100
AcDbLine
 10
169.9687415649798
 20
126.8187060742114
 30
0.0
 11
169.9773654097149
 21
126.54099685827
 31
0.0
  0
LINE
  5
1D2
330
E3
100
AcDbEntity
  8
Des_ Walls
  6
Continuous
100
AcDbLine
 10
169.9773654097149
 20
126.54099685827
 30
0.0
 11
169.9820974047488
 21
126.2630858427145
 31
0.0
  0
LINE
  5
1D3
330
E3
100
AcDbEntity
  8
Des_ Walls
  6
Continuous
100
AcDbLine
 10
169.9820974047488
 20
126.2630858427145
 30
0.0
 11
169.9830116805516
 21
125.9849771459044
 31
0.0
  0
LINE
  5
1D4
330
E3
100
AcDbEntity
  8
Des_ Walls
  6
Continuous
100
AcDbLine
 10
169.9830116805516
 20
125.9849771459044
 30
0.0
 11
169.9802153144699
 21
125.7066707678396
 31
0.0
  0
LINE
  5
1D5
330
E3
100
AcDbEntity
  8
Des_ Walls
  6
Continuous
100
AcDbLine
 10
169.9802153144699
 20
125.7066707678396
 30
0.0
 11
169.9738318572877
 21
125.4281790635985
 31
0.0
  0
LINE
  5
1D6
330
E3
100
AcDbEntity
  8
Des_ Walls
  6
Continuous
100
AcDbLine
 10
169.9738318572877
 20
125.4281790635985
 30
0.0
 11
169.9640301617434
 21
125.1495061515406
 31
0.0
  0
LINE
  5
1D7
330
E3
100
AcDbEntity
  8
Des_ Walls
  6
Continuous
100
AcDbLine
 10
169.9640301617434
 20
125.1495061515406
 30
0.0
 11
169.9509914356539
 21
124.8706602683849
 31
0.0
  0
LINE
  5
1D8
330
E3
100
AcDbEntity
  8
Des_ Walls
  6
Continuous
100
AcDbLine
 10
169.9509914356539
 20
124.8706602683849
 30
0.0
 11
169.9349215969926
 21
124.5916620059287
 31
0.0
  0
LINE
  5
1D9
330
E3
100
AcDbEntity
  8
Des_ Walls
  6
Continuous
100
AcDbLine
 10
169.9349215969926
 20
124.5916620059287
 30
0.0
 11
169.9160595106092
 21
124.3125154825315
 31
0.0
  0
LINE
  5
1DA
330
E3
100
AcDbEntity
  8
Des_ Walls
  6
Continuous
100
AcDbLine
 10
169.9160595106092
 20
124.3125154825315
 30
0.0
 11
169.8946563964312
 21
124.0332330532717
 31
0.0
  0
LINE
  5
1DB
330
E3
100
AcDbEntity
  8
Des_ Walls
  6
Continuous
100
AcDbLine
 10
169.8946563964312
 20
124.0332330532717
 30
0.0
 11
169.8709881845435
 21
123.7538353099467
 31
0.0
  0
LINE
  5
1DC
330
E3
100
AcDbEntity
  8
Des_ Walls
  6
Continuous
100
AcDbLine
 10
169.8709881845435
 20
123.7538353099467
 30
0.0
 11
169.845343160109
 21
123.4743304892754
 31
0.0
  0
LINE
  5
1DD
330
E3
100
AcDbEntity
  8
Des_ Walls
  6
Continuous
100
AcDbLine
 10
169.845343160109
 20
123.4743304892754
 30
0.0
 11
169.8180260817287
 21
123.1947391830551
 31
0.0
  0
LINE
  5
1DE
330
E3
100
AcDbEntity
  8
Des_ Walls
  6
Continuous
100
AcDbLine
 10
169.8180260817287
 20
123.1947391830551
 30
0.0
 11
169.7893581814415
 21
122.9150778647239
 31
0.0
  0
LINE
  5
1DF
330
E3
100
AcDbEntity
  8
Des_ Walls
  6
Continuous
100
AcDbLine
 10
169.7893581814415
 20
122.9150778647239
 30
0.0
 11
169.7596689280051
 21
122.6353630077195
 31
0.0
  0
LINE
  5
1E0
330
E3
100
AcDbEntity
  8
Des_ Walls
  6
Continuous
100
AcDbLine
 10
169.7596689280051
 20
122.6353630077195
 30
0.0
 11
169.7292919085369
 21
122.3556110854799
 31
0.0
  0
LINE
  5
1E1
330
E3
100
AcDbEntity
  8
Des_ Walls
  6
Continuous
100
AcDbLine
 10
169.7292919085369
 20
122.3556110854799
 30
0.0
 11
169.6985689468729
 21
122.0758426898024
 31
0.0
  0
LINE
  5
1E2
330
E3
100
AcDbEntity
  8
Des_ Walls
  6
Continuous
100
AcDbLine
 10
169.6985689468729
 20
122.0758426898024
 30
0.0
 11
169.6678501035685
 21
121.7960742941248
 31
0.0
  0
LINE
  5
1E3
330
E3
100
AcDbEntity
  8
Des_ Walls
  6
Continuous
100
AcDbLine
 10
169.6678501035685
 20
121.7960742941248
 30
0.0
 11
169.6374730841002
 21
121.5163223718852
 31
0.0
  0
LINE
  5
1E4
330
E3
100
AcDbEntity
  8
Des_ Walls
  6
Continuous
100
AcDbLine
 10
169.6374730841002
 20
121.5163223718852
 30
0.0
 11
169.6077838306638
 21
121.2366075148808
 31
0.0
  0
LINE
  5
1E5
330
E3
100
AcDbEntity
  8
Des_ Walls
  6
Continuous
100
AcDbLine
 10
169.6077838306638
 20
121.2366075148808
 30
0.0
 11
169.5791159303766
 21
120.9569461965496
 31
0.0
  0
LINE
  5
1E6
330
E3
100
AcDbEntity
  8
Des_ Walls
  6
Continuous
100
AcDbLine
 10
169.5791159303766
 20
120.9569461965496
 30
0.0
 11
169.5517988519964
 21
120.6773548903294
 31
0.0
  0
LINE
  5
1E7
330
E3
100
AcDbEntity
  8
Des_ Walls
  6
Continuous
100
AcDbLine
 10
169.5517988519964
 20
120.6773548903294
 30
0.0
 11
169.5261538275619
 21
120.3978541880175
 31
0.0
  0
LINE
  5
1E8
330
E3
100
AcDbEntity
  8
Des_ Walls
  6
Continuous
100
AcDbLine
 10
169.5261538275619
 20
120.3978541880175
 30
0.0
 11
169.5024856156741
 21
120.118452326333
 31
0.0
  0
LINE
  5
1E9
330
E3
100
AcDbEntity
  8
Des_ Walls
  6
Continuous
100
AcDbLine
 10
169.5024856156741
 20
120.118452326333
 30
0.0
 11
169.4810825014962
 21
119.8391740154327
 31
0.0
  0
LINE
  5
1EA
330
E3
100
AcDbEntity
  8
Des_ Walls
  6
Continuous
100
AcDbLine
 10
169.4810825014962
 20
119.8391740154327
 30
0.0
 11
169.4622204151127
 21
119.5600274920355
 31
0.0
  0
LINE
  5
1EB
330
E3
100
AcDbEntity
  8
Des_ Walls
  6
Continuous
100
AcDbLine
 10
169.4622204151127
 20
119.5600274920355
 30
0.0
 11
169.4461505764515
 21
119.2810251112198
 31
0.0
  0
LINE
  5
1EC
330
E3
100
AcDbEntity
  8
Des_ Walls
  6
Continuous
100
AcDbLine
 10
169.4461505764515
 20
119.2810251112198
 30
0.0
 11
169.4331118503619
 21
119.0021833464236
 31
0.0
  0
LINE
  5
1ED
330
E3
100
AcDbEntity
  8
Des_ Walls
  6
Continuous
100
AcDbLine
 10
169.4331118503619
 20
119.0021833464236
 30
0.0
 11
169.4233060364582
 21
118.7235104343657
 31
0.0
  0
LINE
  5
1EE
330
E3
100
AcDbEntity
  8
Des_ Walls
  6
Continuous
100
AcDbLine
 10
169.4233060364582
 20
118.7235104343657
 30
0.0
 11
169.4169266976355
 21
118.4450146117652
 31
0.0
  0
LINE
  5
1EF
330
E3
100
AcDbEntity
  8
Des_ Walls
  6
Continuous
100
AcDbLine
 10
169.4169266976355
 20
118.4450146117652
 30
0.0
 11
169.4141303315537
 21
118.1667123520598
 31
0.0
  0
LINE
  5
1F0
330
E3
100
AcDbEntity
  8
Des_ Walls
  6
Continuous
100
AcDbLine
 10
169.4141303315537
 20
118.1667123520598
 30
0.0
 11
169.4150446073566
 21
117.8885995368902
 31
0.0
  0
LINE
  5
1F1
330
E3
100
AcDbEntity
  8
Des_ Walls
  6
Continuous
100
AcDbLine
 10
169.4150446073566
 20
117.8885995368902
 30
0.0
 11
169.4197766023904
 21
117.6106885213347
 31
0.0
  0
LINE
  5
1F2
330
E3
100
AcDbEntity
  8
Des_ Walls
  6
Continuous
100
AcDbLine
 10
169.4197766023904
 20
117.6106885213347
 30
0.0
 11
169.4284004471255
 21
117.3329834237528
 31
0.0
  0
LINE
  5
1F3
330
E3
100
AcDbEntity
  8
Des_ Walls
  6
Continuous
100
AcDbLine
 10
169.4284004471255
 20
117.3329834237528
 30
0.0
 11
169.4409614435163
 21
117.0554801257851
 31
0.0
  0
LINE
  5
1F4
330
E3
100
AcDbEntity
  8
Des_ Walls
  6
Continuous
100
AcDbLine
 10
169.4409614435163
 20
117.0554801257851
 30
0.0
 11
169.4574760650005
 21
116.7781868641505
 31
0.0
  0
LINE
  5
1F5
330
E3
100
AcDbEntity
  8
Des_ Walls
  6
Continuous
100
AcDbLine
 10
170.2178570111045
 20
122.1030568091958
 30
0.0
 11
170.2304180074952
 21
121.8255576295876
 31
0.0
  0
LINE
  5
1F6
330
E3
100
AcDbEntity
  8
Des_ Walls
  6
Continuous
100
AcDbLine
 10
170.2304180074952
 20
121.8255576295876
 30
0.0
 11
170.2390459705898
 21
121.5478525320057
 31
0.0
  0
LINE
  5
1F7
330
E3
100
AcDbEntity
  8
Des_ Walls
  6
Continuous
100
AcDbLine
 10
170.2390459705898
 20
121.5478525320057
 30
0.0
 11
170.2437779656236
 21
121.2699415164502
 31
0.0
  0
LINE
  5
1F8
330
E3
100
AcDbEntity
  8
Des_ Walls
  6
Continuous
100
AcDbLine
 10
170.2437779656236
 20
121.2699415164502
 30
0.0
 11
170.2446922414264
 21
120.9918287012806
 31
0.0
  0
LINE
  5
1F9
330
E3
100
AcDbEntity
  8
Des_ Walls
  6
Continuous
100
AcDbLine
 10
170.2446922414264
 20
120.9918287012806
 30
0.0
 11
170.2418917569852
 21
120.7135223232158
 31
0.0
  0
LINE
  5
1FA
330
E3
100
AcDbEntity
  8
Des_ Walls
  6
Continuous
100
AcDbLine
 10
170.2418917569852
 20
120.7135223232158
 30
0.0
 11
170.2355124181625
 21
120.4350306189747
 31
0.0
  0
LINE
  5
1FB
330
E3
100
AcDbEntity
  8
Des_ Walls
  6
Continuous
100
AcDbLine
 10
170.2355124181625
 20
120.4350306189747
 30
0.0
 11
170.2257107226183
 21
120.1563577069168
 31
0.0
  0
LINE
  5
1FC
330
E3
100
AcDbEntity
  8
Des_ Walls
  6
Continuous
100
AcDbLine
 10
170.2257107226183
 20
120.1563577069168
 30
0.0
 11
170.2126678781692
 21
119.8775159421206
 31
0.0
  0
LINE
  5
1FD
330
E3
100
AcDbEntity
  8
Des_ Walls
  6
Continuous
100
AcDbLine
 10
170.2126678781692
 20
119.8775159421206
 30
0.0
 11
170.1966021578675
 21
119.5985135613049
 31
0.0
  0
LINE
  5
1FE
330
E3
100
AcDbEntity
  8
Des_ Walls
  6
Continuous
100
AcDbLine
 10
170.1966021578675
 20
119.5985135613049
 30
0.0
 11
170.177740071484
 21
119.3193670379077
 31
0.0
  0
LINE
  5
1FF
330
E3
100
AcDbEntity
  8
Des_ Walls
  6
Continuous
100
AcDbLine
 10
170.177740071484
 20
119.3193670379077
 30
0.0
 11
170.1563369573061
 21
119.0400846086479
 31
0.0
  0
LINE
  5
200
330
E3
100
AcDbEntity
  8
Des_ Walls
  6
Continuous
100
AcDbLine
 10
170.1563369573061
 20
119.0400846086479
 30
0.0
 11
170.1326687454183
 21
118.7606868653229
 31
0.0
  0
LINE
  5
201
330
E3
100
AcDbEntity
  8
Des_ Walls
  6
Continuous
100
AcDbLine
 10
170.1326687454183
 20
118.7606868653229
 30
0.0
 11
170.1070237209838
 21
118.4811820446516
 31
0.0
  0
LINE
  5
202
330
E3
100
AcDbEntity
  8
Des_ Walls
  6
Continuous
100
AcDbLine
 10
170.1070237209838
 20
118.4811820446516
 30
0.0
 11
170.0797066426035
 21
118.2015907384314
 31
0.0
  0
LINE
  5
203
330
E3
100
AcDbEntity
  8
Des_ Walls
  6
Continuous
100
AcDbLine
 10
170.0797066426035
 20
118.2015907384314
 30
0.0
 11
170.0510387423163
 21
117.9219294201001
 31
0.0
  0
LINE
  5
204
330
E3
100
AcDbEntity
  8
Des_ Walls
  6
Continuous
100
AcDbLine
 10
170.0510387423163
 20
117.9219294201001
 30
0.0
 11
170.02134948888
 21
117.6422145630957
 31
0.0
  0
LINE
  5
205
330
E3
100
AcDbEntity
  8
Des_ Walls
  6
Continuous
100
AcDbLine
 10
170.02134948888
 20
117.6422145630957
 30
0.0
 11
169.9909724694117
 21
117.3624667592156
 31
0.0
  0
LINE
  5
206
330
E3
100
AcDbEntity
  8
Des_ Walls
  6
Continuous
100
AcDbLine
 10
169.9909724694117
 20
117.3624667592156
 30
0.0
 11
169.9602495077478
 21
117.0826942451786
 31
0.0
  0
LINE
  5
207
330
E3
100
AcDbEntity
  8
Des_ Walls
  6
Continuous
100
AcDbLine
 10
169.9602495077478
 20
117.0826942451786
 30
0.0
 11
169.9295306644433
 21
116.802925849501
 31
0.0
  0
LINE
  5
208
330
E3
100
AcDbEntity
  8
Des_ Walls
  6
Continuous
100
AcDbLine
 10
169.9295306644433
 20
116.802925849501
 30
0.0
 11
169.899153644975
 21
116.5231739272614
 31
0.0
  0
LINE
  5
209
330
E3
100
AcDbEntity
  8
Des_ Walls
  6
Continuous
100
AcDbLine
 10
169.899153644975
 20
116.5231739272614
 30
0.0
 11
169.8694602731792
 21
116.243459070257
 31
0.0
  0
LINE
  5
20A
330
E3
100
AcDbEntity
  8
Des_ Walls
  6
Continuous
100
AcDbLine
 10
169.8694602731792
 20
116.243459070257
 30
0.0
 11
169.8407964912515
 21
115.9637977519258
 31
0.0
  0
LINE
  5
20B
330
E3
100
AcDbEntity
  8
Des_ Walls
  6
Continuous
100
AcDbLine
 10
169.8407964912515
 20
115.9637977519258
 30
0.0
 11
169.8134794128712
 21
115.684210564065
 31
0.0
  0
LINE
  5
20C
330
E3
100
AcDbEntity
  8
Des_ Walls
  6
Continuous
100
AcDbLine
 10
169.8134794128712
 20
115.684210564065
 30
0.0
 11
169.7878343884367
 21
115.4047057433937
 31
0.0
  0
LINE
  5
20D
330
E3
100
AcDbEntity
  8
Des_ Walls
  6
Continuous
100
AcDbLine
 10
169.7878343884367
 20
115.4047057433937
 30
0.0
 11
169.7641620581895
 21
115.1253080000687
 31
0.0
  0
LINE
  5
20E
330
E3
100
AcDbEntity
  8
Des_ Walls
  6
Continuous
100
AcDbLine
 10
169.7641620581895
 20
115.1253080000687
 30
0.0
 11
169.7427589440115
 21
114.8460255708089
 31
0.0
  0
LINE
  5
20F
330
E3
100
AcDbEntity
  8
Des_ Walls
  6
Continuous
100
AcDbLine
 10
169.7427589440115
 20
114.8460255708089
 30
0.0
 11
169.723896857628
 21
114.5668790474117
 31
0.0
  0
LINE
  5
210
330
E3
100
AcDbEntity
  8
Des_ Walls
  6
Continuous
100
AcDbLine
 10
169.723896857628
 20
114.5668790474117
 30
0.0
 11
169.7078311373263
 21
114.2878766665961
 31
0.0
  0
LINE
  5
211
330
E3
100
AcDbEntity
  8
Des_ Walls
  6
Continuous
100
AcDbLine
 10
169.7078311373263
 20
114.2878766665961
 30
0.0
 11
169.6947882928773
 21
114.0090349017998
 31
0.0
  0
LINE
  5
212
330
E3
100
AcDbEntity
  8
Des_ Walls
  6
Continuous
100
AcDbLine
 10
169.6947882928773
 20
114.0090349017998
 30
0.0
 11
169.684986597333
 21
113.730361989742
 31
0.0
  0
LINE
  5
213
330
E3
100
AcDbEntity
  8
Des_ Walls
  6
Continuous
100
AcDbLine
 10
169.684986597333
 20
113.730361989742
 30
0.0
 11
169.6786072585103
 21
113.4518702855009
 31
0.0
  0
LINE
  5
214
330
E3
100
AcDbEntity
  8
Des_ Walls
  6
Continuous
100
AcDbLine
 10
169.6786072585103
 20
113.4518702855009
 30
0.0
 11
169.6758067740691
 21
113.173563907436
 31
0.0
  0
LINE
  5
215
330
E3
100
AcDbEntity
  8
Des_ Walls
  6
Continuous
100
AcDbLine
 10
169.1752119434827
 20
132.06213957905
 30
0.0
 11
169.1444889818188
 21
131.7823711833724
 31
0.0
  0
LINE
  5
216
330
E3
100
AcDbEntity
  8
Des_ Walls
  6
Continuous
100
AcDbLine
 10
169.1444889818188
 20
131.7823711833724
 30
0.0
 11
169.1141119623505
 21
131.5026192611327
 31
0.0
  0
LINE
  5
217
330
E3
100
AcDbEntity
  8
Des_ Walls
  6
Continuous
100
AcDbLine
 10
169.1141119623505
 20
131.5026192611327
 30
0.0
 11
169.0844227089142
 21
131.2229044041284
 31
0.0
  0
LINE
  5
218
330
E3
100
AcDbEntity
  8
Des_ Walls
  6
Continuous
100
AcDbLine
 10
169.0844227089142
 20
131.2229044041284
 30
0.0
 11
169.0557548086269
 21
130.9432430857971
 31
0.0
  0
LINE
  5
219
330
E3
100
AcDbEntity
  8
Des_ Walls
  6
Continuous
100
AcDbLine
 10
169.0557548086269
 20
130.9432430857971
 30
0.0
 11
169.0284377302467
 21
130.6636517795769
 31
0.0
  0
LINE
  5
21A
330
E3
100
AcDbEntity
  8
Des_ Walls
  6
Continuous
100
AcDbLine
 10
169.0284377302467
 20
130.6636517795769
 30
0.0
 11
169.0027927058122
 21
130.3841510772651
 31
0.0
  0
LINE
  5
21B
330
E3
100
AcDbEntity
  8
Des_ Walls
  6
Continuous
100
AcDbLine
 10
169.0027927058122
 20
130.3841510772651
 30
0.0
 11
168.9791244939244
 21
130.1047492155806
 31
0.0
  0
LINE
  5
21C
330
E3
100
AcDbEntity
  8
Des_ Walls
  6
Continuous
100
AcDbLine
 10
168.9791244939244
 20
130.1047492155806
 30
0.0
 11
168.9577213797465
 21
129.8254709046803
 31
0.0
  0
LINE
  5
21D
330
E3
100
AcDbEntity
  8
Des_ Walls
  6
Continuous
100
AcDbLine
 10
168.9577213797465
 20
129.8254709046803
 30
0.0
 11
168.938859293363
 21
129.5463202629236
 31
0.0
  0
LINE
  5
21E
330
E3
100
AcDbEntity
  8
Des_ Walls
  6
Continuous
100
AcDbLine
 10
168.938859293363
 20
129.5463202629236
 30
0.0
 11
168.9227894547018
 21
129.2673220004674
 31
0.0
  0
LINE
  5
21F
330
E3
100
AcDbEntity
  8
Des_ Walls
  6
Continuous
100
AcDbLine
 10
168.9227894547018
 20
129.2673220004674
 30
0.0
 11
168.9097507286122
 21
128.9884761173117
 31
0.0
  0
LINE
  5
220
330
E3
100
AcDbEntity
  8
Des_ Walls
  6
Continuous
100
AcDbLine
 10
168.9097507286122
 20
128.9884761173117
 30
0.0
 11
168.8999490330679
 21
128.7098032052538
 31
0.0
  0
LINE
  5
221
330
E3
100
AcDbEntity
  8
Des_ Walls
  6
Continuous
100
AcDbLine
 10
168.8999490330679
 20
128.7098032052538
 30
0.0
 11
168.8935655758858
 21
128.4313115010127
 31
0.0
  0
LINE
  5
222
330
E3
100
AcDbEntity
  8
Des_ Walls
  6
Continuous
100
AcDbLine
 10
168.8935655758858
 20
128.4313115010127
 30
0.0
 11
168.890769209804
 21
128.1530051229479
 31
0.0
  0
LINE
  5
223
330
E3
100
AcDbEntity
  8
Des_ Walls
  6
Continuous
100
AcDbLine
 10
168.890769209804
 20
128.1530051229479
 30
0.0
 11
168.8916834856069
 21
127.8748964261378
 31
0.0
  0
LINE
  5
224
330
E3
100
AcDbEntity
  8
Des_ Walls
  6
Continuous
100
AcDbLine
 10
168.8916834856069
 20
127.8748964261378
 30
0.0
 11
168.8964154806406
 21
127.5969854105823
 31
0.0
  0
LINE
  5
225
330
E3
100
AcDbEntity
  8
Des_ Walls
  6
Continuous
100
AcDbLine
 10
168.8964154806406
 20
127.5969854105823
 30
0.0
 11
168.9050434437353
 21
127.3192761946409
 31
0.0
  0
LINE
  5
226
330
E3
100
AcDbEntity
  8
Des_ Walls
  6
Continuous
100
AcDbLine
 10
168.9050434437353
 20
127.3192761946409
 30
0.0
 11
168.917604440126
 21
127.0417770150327
 31
0.0
  0
LINE
  5
227
330
E3
100
AcDbEntity
  8
Des_ Walls
  6
Continuous
100
AcDbLine
 10
168.917604440126
 20
127.0417770150327
 30
0.0
 11
168.9341190616103
 21
126.7644837533981
 31
0.0
  0
LINE
  5
228
330
E3
100
AcDbEntity
  8
Des_ Walls
  6
Continuous
100
AcDbLine
 10
170.4795375719793
 20
117.1099124829315
 30
0.0
 11
170.4920985683701
 21
116.8324091849638
 31
0.0
  0
LINE
  5
229
330
E3
100
AcDbEntity
  8
Des_ Walls
  6
Continuous
100
AcDbLine
 10
170.4920985683701
 20
116.8324091849638
 30
0.0
 11
170.5007224131052
 21
116.5547040873819
 31
0.0
  0
LINE
  5
22A
330
E3
100
AcDbEntity
  8
Des_ Walls
  6
Continuous
100
AcDbLine
 10
170.5007224131052
 20
116.5547040873819
 30
0.0
 11
170.5054585264984
 21
116.2767930718264
 31
0.0
  0
LINE
  5
22B
330
E3
100
AcDbEntity
  8
Des_ Walls
  6
Continuous
100
AcDbLine
 10
170.5054585264984
 20
116.2767930718264
 30
0.0
 11
170.5063728023013
 21
115.9986802566568
 31
0.0
  0
LINE
  5
22C
330
E3
100
AcDbEntity
  8
Des_ Walls
  6
Continuous
100
AcDbLine
 10
170.5063728023013
 20
115.9986802566568
 30
0.0
 11
170.5035723178601
 21
115.720373878592
 31
0.0
  0
LINE
  5
22D
330
E3
100
AcDbEntity
  8
Des_ Walls
  6
Continuous
100
AcDbLine
 10
170.5035723178601
 20
115.720373878592
 30
0.0
 11
170.4971929790374
 21
115.4418821743509
 31
0.0
  0
LINE
  5
22E
330
E3
100
AcDbEntity
  8
Des_ Walls
  6
Continuous
100
AcDbLine
 10
170.4971929790374
 20
115.4418821743509
 30
0.0
 11
170.4873912834931
 21
115.163209262293
 31
0.0
  0
LINE
  5
22F
330
E3
100
AcDbEntity
  8
Des_ Walls
  6
Continuous
100
AcDbLine
 10
170.4873912834931
 20
115.163209262293
 30
0.0
 11
170.4743484390441
 21
114.8843674974968
 31
0.0
  0
LINE
  5
230
330
E3
100
AcDbEntity
  8
Des_ Walls
  6
Continuous
100
AcDbLine
 10
170.4743484390441
 20
114.8843674974968
 30
0.0
 11
170.4582827187424
 21
114.6053651166811
 31
0.0
  0
LINE
  5
231
330
E3
100
AcDbEntity
  8
Des_ Walls
  6
Continuous
100
AcDbLine
 10
170.4582827187424
 20
114.6053651166811
 30
0.0
 11
170.4394206323589
 21
114.3262185932839
 31
0.0
  0
LINE
  5
232
330
E3
100
AcDbEntity
  8
Des_ Walls
  6
Continuous
100
AcDbLine
 10
170.4394206323589
 20
114.3262185932839
 30
0.0
 11
170.4180175181809
 21
114.0469361640241
 31
0.0
  0
LINE
  5
233
330
E3
100
AcDbEntity
  8
Des_ Walls
  6
Continuous
100
AcDbLine
 10
170.4180175181809
 20
114.0469361640241
 30
0.0
 11
170.3943451879337
 21
113.7675384206991
 31
0.0
  0
LINE
  5
234
330
E3
100
AcDbEntity
  8
Des_ Walls
  6
Continuous
100
AcDbLine
 10
170.3943451879337
 20
113.7675384206991
 30
0.0
 11
170.3687001634992
 21
113.4880336000278
 31
0.0
  0
LINE
  5
235
330
E3
100
AcDbEntity
  8
Des_ Walls
  6
Continuous
100
AcDbLine
 10
170.3687001634992
 20
113.4880336000278
 30
0.0
 11
170.3413872034784
 21
113.2084464121671
 31
0.0
  0
HATCH
  5
236
330
E3
100
AcDbEntity
  8
Des_ Walls
  6
Continuous
 62
   255
370
     0
100
AcDbHatch
 10
0.0
 20
0.0
 30
0.0
210
0.0
220
0.0
230
1.0
  2
SOLID
 70
     1
 71
     0
 91
        1
 92
        3
 72
     0
 73
     1
 93
        8
 10
8.899535990016508
 20
130.5964202534429
 10
8.899535990016508
 20
23.40784709049149
 10
123.7731237263389
 20
23.40784709049149
 10
121.0690351391541
 20
75.00487789813799
 10
114.9992560410749
 20
76.33638032661084
 10
126.9294743253447
 20
77.66788701732355
 10
120.8596909650256
 20
78.99939370803627
 10
118.1556066400807
 20
130.5964202534429
 97
        0
 75
     0
 76
     1
 98
        0
  0
LINE
  5
237
330
E3
100
AcDbEntity
  8
Des_ Walls
  6
Continuous
100
AcDbLine
 10
123.7731198367627
 20
23.40784874511277
 30
0.0
 11
121.0690379540756
 21
75.00487601080988
 31
0.0
  0
LINE
  5
238
330
E3
100
AcDbEntity
  8
Des_ Walls
  6
Continuous
100
AcDbLine
 10
120.8596935053757
 20
78.99939641385271
 30
0.0
 11
118.1556075043292
 21
130.5964236795498
 31
0.0
  0
LINE
  5
239
330
E3
100
AcDbEntity
  8
Des_ Walls
  6
Continuous
100
AcDbLine
 10
120.8596935053757
 20
78.99939641385271
 30
0.0
 11
126.9294717199873
 21
77.66788961283842
 31
0.0
  0
LINE
  5
23A
330
E3
100
AcDbEntity
  8
Des_ Walls
  6
Continuous
100
AcDbLine
 10
126.9294717199873
 20
77.66788961283842
 30
0.0
 11
114.9992556211046
 21
76.33638281182415
 31
0.0
  0
LINE
  5
23B
330
E3
100
AcDbEntity
  8
Des_ Walls
  6
Continuous
100
AcDbLine
 10
114.9992556211046
 20
76.33638281182415
 30
0.0
 11
121.0690379540756
 21
75.00487601080988
 31
0.0
  0
HATCH
  5
23C
330
E3
100
AcDbEntity
  8
Des_ Walls
  6
Continuous
 62
   255
370
     0
100
AcDbHatch
 10
0.0
 20
0.0
 30
0.0
210
0.0
220
0.0
230
1.0
  2
SOLID
 70
     1
 71
     0
 91
        1
 92
        3
 72
     1
 73
     1
 93
        2
 10
196.6100125535775
 20
151.5100034143943
 42
0.4999999999999998
 10
196.6100125535775
 20
149.1100034143944
 42
0.0
 97
        0
 75
     0
 76
     1
 98
        0
  0
ARC
  5
23D
330
E3
100
AcDbEntity
  8
Des_ Walls
  6
Continuous
100
AcDbCircle
 10
197.5100125535775
 20
150.3100034143943
 30
0.0
 40
1.500000000000012
100
AcDbArc
 50
126.8698976458442
 51
233.1301023541551
  0
LINE
  5
23E
330
E3
100
AcDbEntity
  8
Des_ Walls
  6
Continuous
100
AcDbLine
 10
196.6100136292785
 20
149.1100021294064
 30
0.0
 11
196.6100136292785
 21
151.5100049404505
 31
0.0
  0
HATCH
  5
23F
330
E3
100
AcDbEntity
  8
Des_ Walls
  6
Continuous
 62
   255
370
     0
100
AcDbHatch
 10
0.0
 20
0.0
 30
0.0
210
0.0
220
0.0
230
1.0
  2
SOLID
 70
     1
 71
     0
 91
        1
 92
        3
 72
     0
 73
     1
 93
        4
 10
196.0100125535775
 20
149.6700034143944
 10
196.1533991230082
 20
149.6700034143944
 10
196.1533991230082
 20
150.9500034143943
 10
196.0100125535775
 20
150.9500034143943
 97
        0
 75
     0
 76
     1
 98
        0
  0
LINE
  5
240
330
E3
100
AcDbEntity
  8
Des_ Walls
  6
Continuous
100
AcDbLine
 10
196.0100139561074
 20
149.6700042953818
 30
0.0
 11
196.1533987594977
 21
149.6700042953818
 31
0.0
  0
LINE
  5
241
330
E3
100
AcDbEntity
  8
Des_ Walls
  6
Continuous
100
AcDbLine
 10
196.1533987594977
 20
149.6700042953818
 30
0.0
 11
196.1533987594977
 21
150.9500027744751
 31
0.0
  0
LINE
  5
242
330
E3
100
AcDbEntity
  8
Des_ Walls
  6
Continuous
100
AcDbLine
 10
196.1533987594977
 20
150.9500027744751
 30
0.0
 11
196.0100139561074
 21
150.9500027744751
 31
0.0
  0
LINE
  5
243
330
E3
100
AcDbEntity
  8
Des_ Walls
  6
Continuous
100
AcDbLine
 10
196.0100139561074
 20
150.9500027744751
 30
0.0
 11
196.0100139561074
 21
149.6700042953818
 31
0.0
  0
HATCH
  5
244
330
E3
100
AcDbEntity
  8
Des_ Walls
  6
Continuous
 62
   255
370
     0
100
AcDbHatch
 10
0.0
 20
0.0
 30
0.0
210
0.0
220
0.0
230
1.0
  2
SOLID
 70
     1
 71
     0
 91
        1
 92
        3
 72
     1
 73
     1
 93
        4
 10
196.6100125535775
 20
148.9100034143943
 42
0.0
 10
197.4100125535774
 20
148.9100034143943
 42
-0.4285714285714285
 10
197.4100125535774
 20
151.7100034143943
 42
0.0
 10
196.6100125535775
 20
151.7100034143943
 42
0.0
 97
        0
 75
     0
 76
     1
 98
        0
  0
LINE
  5
245
330
E3
100
AcDbEntity
  8
Des_ Walls
  6
Continuous
100
AcDbLine
 10
196.6100136292785
 20
148.9100022383494
 30
0.0
 11
197.4100131935068
 21
148.9100022383494
 31
0.0
  0
ARC
  5
246
330
E3
100
AcDbEntity
  8
Des_ Walls
  6
Continuous
100
AcDbCircle
 10
198.7433458869107
 20
150.3100034143943
 30
0.0
 40
1.933333333333316
100
AcDbArc
 50
133.6028189727032
 51
226.3971810272962
  0
LINE
  5
247
330
E3
100
AcDbEntity
  8
Des_ Walls
  6
Continuous
100
AcDbLine
 10
197.4100131935068
 20
151.7100048315076
 30
0.0
 11
196.6100136292785
 21
151.7100048315076
 31
0.0
  0
LINE
  5
248
330
E3
100
AcDbEntity
  8
Des_ Walls
  6
Continuous
100
AcDbLine
 10
196.6100136292785
 20
151.7100048315076
 30
0.0
 11
196.6100136292785
 21
148.9100022383494
 31
0.0
  0
HATCH
  5
249
330
E3
100
AcDbEntity
  8
Des_ Walls
  6
Continuous
 62
   255
370
     0
100
AcDbHatch
 10
0.0
 20
0.0
 30
0.0
210
0.0
220
0.0
230
1.0
  2
SOLID
 70
     1
 71
     0
 91
        1
 92
        3
 72
     0
 73
     1
 93
        5
 10
196.8100125535775
 20
149.9900034143943
 10
206.170012553577
 20
149.9900034143943
 10
206.8100125535772
 20
150.3100034143943
 10
206.170012553577
 20
150.6300034143943
 10
196.8100125535775
 20
150.6300034143943
 97
        0
 75
     0
 76
     1
 98
        0
  0
LINE
  5
24A
330
E3
100
AcDbEntity
  8
Des_ Walls
  6
Continuous
100
AcDbLine
 10
196.8100135203356
 20
149.990004944745
 30
0.0
 11
206.1700108928214
 21
149.990004944745
 31
0.0
  0
LINE
  5
24B
330
E3
100
AcDbEntity
  8
Des_ Walls
  6
Continuous
100
AcDbLine
 10
206.1700108928214
 20
149.990004944745
 30
0.0
 11
206.8100121915478
 21
150.3100014757487
 31
0.0
  0
LINE
  5
24C
330
E3
100
AcDbEntity
  8
Des_ Walls
  6
Continuous
100
AcDbLine
 10
206.8100121915478
 20
150.3100014757487
 30
0.0
 11
206.1700108928214
 21
150.6300021251119
 31
0.0
  0
LINE
  5
24D
330
E3
100
AcDbEntity
  8
Des_ Walls
  6
Continuous
100
AcDbLine
 10
206.1700108928214
 20
150.6300021251119
 30
0.0
 11
196.8100135203356
 21
150.6300021251119
 31
0.0
  0
LINE
  5
24E
330
E3
100
AcDbEntity
  8
Des_ Walls
  6
Continuous
100
AcDbLine
 10
196.8100135203356
 20
150.6300021251119
 30
0.0
 11
196.8100135203356
 21
149.990004944745
 31
0.0
  0
LINE
  5
24F
330
E3
100
AcDbEntity
  8
Des_ Walls
  6
Continuous
100
AcDbLine
 10
196.8100135203356
 20
150.8300020161689
 30
0.0
 11
196.9489010751821
 21
150.8280252036222
 31
0.0
  0
LINE
  5
250
330
E3
100
AcDbEntity
  8
Des_ Walls
  6
Continuous
100
AcDbLine
 10
196.9489010751821
 20
150.8280252036222
 30
0.0
 11
197.0877886300285
 21
150.8221030027009
 31
0.0
  0
LINE
  5
251
330
E3
100
AcDbEntity
  8
Des_ Walls
  6
Continuous
100
AcDbLine
 10
197.0877886300285
 20
150.8221030027009
 30
0.0
 11
197.2266803032344
 21
150.8122848337188
 31
0.0
  0
LINE
  5
252
330
E3
100
AcDbEntity
  8
Des_ Walls
  6
Continuous
100
AcDbLine
 10
197.2266803032344
 20
150.8122848337188
 30
0.0
 11
197.3655678580809
 21
150.7986448271463
 31
0.0
  0
LINE
  5
253
330
E3
100
AcDbEntity
  8
Des_ Walls
  6
Continuous
100
AcDbLine
 10
197.3655678580809
 20
150.7986448271463
 30
0.0
 11
197.5044554129273
 21
150.7812818236107
 31
0.0
  0
LINE
  5
254
330
E3
100
AcDbEntity
  8
Des_ Walls
  6
Continuous
100
AcDbLine
 10
197.5044554129273
 20
150.7812818236107
 30
0.0
 11
197.6433470861332
 21
150.7603358473342
 31
0.0
  0
LINE
  5
255
330
E3
100
AcDbEntity
  8
Des_ Walls
  6
Continuous
100
AcDbLine
 10
197.6433470861332
 20
150.7603358473342
 30
0.0
 11
197.7822346409797
 21
150.7359633959767
 31
0.0
  0
LINE
  5
256
330
E3
100
AcDbEntity
  8
Des_ Walls
  6
Continuous
100
AcDbLine
 10
197.7822346409797
 20
150.7359633959767
 30
0.0
 11
197.9211221958261
 21
150.7083456773549
 31
0.0
  0
LINE
  5
257
330
E3
100
AcDbEntity
  8
Des_ Walls
  6
Continuous
100
AcDbLine
 10
197.9211221958261
 20
150.7083456773549
 30
0.0
 11
198.0600138690321
 21
150.677700964521
 31
0.0
  0
LINE
  5
258
330
E3
100
AcDbEntity
  8
Des_ Walls
  6
Continuous
100
AcDbLine
 10
198.0600138690321
 20
150.677700964521
 30
0.0
 11
198.1989014238785
 21
150.6442516488863
 31
0.0
  0
LINE
  5
259
330
E3
100
AcDbEntity
  8
Des_ Walls
  6
Continuous
100
AcDbLine
 10
198.1989014238785
 20
150.6442516488863
 30
0.0
 11
198.3377889787249
 21
150.6082613054572
 31
0.0
  0
LINE
  5
25A
330
E3
100
AcDbEntity
  8
Des_ Walls
  6
Continuous
100
AcDbLine
 10
198.3377889787249
 20
150.6082613054572
 30
0.0
 11
198.4766806519308
 21
150.5700017459588
 31
0.0
  0
LINE
  5
25B
330
E3
100
AcDbEntity
  8
Des_ Walls
  6
Continuous
100
AcDbLine
 10
198.4766806519308
 20
150.5700017459588
 30
0.0
 11
198.6155682067773
 21
150.5297653739137
 31
0.0
  0
LINE
  5
25C
330
E3
100
AcDbEntity
  8
Des_ Walls
  6
Continuous
100
AcDbLine
 10
198.6155682067773
 20
150.5297653739137
 30
0.0
 11
198.7544557616238
 21
150.4878528295633
 31
0.0
  0
LINE
  5
25D
330
E3
100
AcDbEntity
  8
Des_ Walls
  6
Continuous
100
AcDbLine
 10
198.7544557616238
 20
150.4878528295633
 30
0.0
 11
198.8933474348297
 21
150.444589463306
 31
0.0
  0
LINE
  5
25E
330
E3
100
AcDbEntity
  8
Des_ Walls
  6
Continuous
100
AcDbLine
 10
198.8933474348297
 20
150.444589463306
 30
0.0
 11
199.0322349896761
 21
150.4003006255401
 31
0.0
  0
LINE
  5
25F
330
E3
100
AcDbEntity
  8
Des_ Walls
  6
Continuous
100
AcDbLine
 10
199.0322349896761
 20
150.4003006255401
 30
0.0
 11
199.1711225445226
 21
150.3553240217422
 31
0.0
  0
LINE
  5
260
330
E3
100
AcDbEntity
  8
Des_ Walls
  6
Continuous
100
AcDbLine
 10
199.1711225445226
 20
150.3553240217422
 30
0.0
 11
199.3100142177285
 21
150.3100014757487
 31
0.0
  0
LINE
  5
261
330
E3
100
AcDbEntity
  8
Des_ Walls
  6
Continuous
100
AcDbLine
 10
199.3100142177285
 20
150.3100014757487
 30
0.0
 11
199.448901772575
 21
150.2646830481147
 31
0.0
  0
LINE
  5
262
330
E3
100
AcDbEntity
  8
Des_ Walls
  6
Continuous
100
AcDbLine
 10
199.448901772575
 20
150.2646830481147
 30
0.0
 11
199.5877893274214
 21
150.2197064443168
 31
0.0
  0
LINE
  5
263
330
E3
100
AcDbEntity
  8
Des_ Walls
  6
Continuous
100
AcDbLine
 10
199.5877893274214
 20
150.2197064443168
 30
0.0
 11
199.7266810006273
 21
150.1754176065509
 31
0.0
  0
LINE
  5
264
330
E3
100
AcDbEntity
  8
Des_ Walls
  6
Continuous
100
AcDbLine
 10
199.7266810006273
 20
150.1754176065509
 30
0.0
 11
199.8655685554738
 21
150.1321542402936
 31
0.0
  0
LINE
  5
265
330
E3
100
AcDbEntity
  8
Des_ Walls
  6
Continuous
100
AcDbLine
 10
199.8655685554738
 20
150.1321542402936
 30
0.0
 11
200.0044561103202
 21
150.0902416959432
 31
0.0
  0
LINE
  5
266
330
E3
100
AcDbEntity
  8
Des_ Walls
  6
Continuous
100
AcDbLine
 10
200.0044561103202
 20
150.0902416959432
 30
0.0
 11
200.1433477835262
 21
150.0500053238981
 31
0.0
  0
LINE
  5
267
330
E3
100
AcDbEntity
  8
Des_ Walls
  6
Continuous
100
AcDbLine
 10
200.1433477835262
 20
150.0500053238981
 30
0.0
 11
200.2822353383726
 21
150.0117416460402
 31
0.0
  0
LINE
  5
268
330
E3
100
AcDbEntity
  8
Des_ Walls
  6
Continuous
100
AcDbLine
 10
200.2822353383726
 20
150.0117416460402
 30
0.0
 11
200.4211228932191
 21
149.9757554209706
 31
0.0
  0
LINE
  5
269
330
E3
100
AcDbEntity
  8
Des_ Walls
  6
Continuous
100
AcDbLine
 10
200.4211228932191
 20
149.9757554209706
 30
0.0
 11
200.560014566425
 21
149.942306105336
 31
0.0
  0
LINE
  5
26A
330
E3
100
AcDbEntity
  8
Des_ Walls
  6
Continuous
100
AcDbLine
 10
200.560014566425
 20
149.942306105336
 30
0.0
 11
200.6989021212714
 21
149.911661392502
 31
0.0
  0
LINE
  5
26B
330
E3
100
AcDbEntity
  8
Des_ Walls
  6
Continuous
100
AcDbLine
 10
200.6989021212714
 20
149.911661392502
 30
0.0
 11
200.8377896761178
 21
149.8840436738802
 31
0.0
  0
LINE
  5
26C
330
E3
100
AcDbEntity
  8
Des_ Walls
  6
Continuous
100
AcDbLine
 10
200.8377896761178
 20
149.8840436738802
 30
0.0
 11
200.9766772309643
 21
149.8596712225227
 31
0.0
  0
LINE
  5
26D
330
E3
100
AcDbEntity
  8
Des_ Walls
  6
Continuous
100
AcDbLine
 10
200.9766772309643
 20
149.8596712225227
 30
0.0
 11
201.1155689041702
 21
149.8387252462462
 31
0.0
  0
LINE
  5
26E
330
E3
100
AcDbEntity
  8
Des_ Walls
  6
Continuous
100
AcDbLine
 10
201.1155689041702
 20
149.8387252462462
 30
0.0
 11
201.2544564590167
 21
149.8213622427106
 31
0.0
  0
LINE
  5
26F
330
E3
100
AcDbEntity
  8
Des_ Walls
  6
Continuous
100
AcDbLine
 10
201.2544564590167
 20
149.8213622427106
 30
0.0
 11
201.3933440138631
 21
149.8077222361381
 31
0.0
  0
LINE
  5
270
330
E3
100
AcDbEntity
  8
Des_ Walls
  6
Continuous
100
AcDbLine
 10
201.3933440138631
 20
149.8077222361381
 30
0.0
 11
201.532235687069
 21
149.797904067156
 31
0.0
  0
LINE
  5
271
330
E3
100
AcDbEntity
  8
Des_ Walls
  6
Continuous
100
AcDbLine
 10
201.532235687069
 20
149.797904067156
 30
0.0
 11
201.6711232419155
 21
149.7919818662347
 31
0.0
  0
LINE
  5
272
330
E3
100
AcDbEntity
  8
Des_ Walls
  6
Continuous
100
AcDbLine
 10
201.6711232419155
 20
149.7919818662347
 30
0.0
 11
201.810010796762
 21
149.790005053688
 31
0.0
  0
LINE
  5
273
330
E3
100
AcDbEntity
  8
Des_ Walls
  6
Continuous
100
AcDbLine
 10
201.810010796762
 20
149.790005053688
 30
0.0
 11
201.9489024699679
 21
149.7919818662347
 31
0.0
  0
LINE
  5
274
330
E3
100
AcDbEntity
  8
Des_ Walls
  6
Continuous
100
AcDbLine
 10
199.3100142177285
 20
150.8300020161689
 30
0.0
 11
199.448901772575
 21
150.8280252036222
 31
0.0
  0
LINE
  5
275
330
E3
100
AcDbEntity
  8
Des_ Walls
  6
Continuous
100
AcDbLine
 10
199.448901772575
 20
150.8280252036222
 30
0.0
 11
199.5877893274214
 21
150.8221030027009
 31
0.0
  0
LINE
  5
276
330
E3
100
AcDbEntity
  8
Des_ Walls
  6
Continuous
100
AcDbLine
 10
199.5877893274214
 20
150.8221030027009
 30
0.0
 11
199.7266810006273
 21
150.8122848337188
 31
0.0
  0
LINE
  5
277
330
E3
100
AcDbEntity
  8
Des_ Walls
  6
Continuous
100
AcDbLine
 10
199.7266810006273
 20
150.8122848337188
 30
0.0
 11
199.8655685554738
 21
150.7986448271463
 31
0.0
  0
LINE
  5
278
330
E3
100
AcDbEntity
  8
Des_ Walls
  6
Continuous
100
AcDbLine
 10
199.8655685554738
 20
150.7986448271463
 30
0.0
 11
200.0044561103202
 21
150.7812818236107
 31
0.0
  0
LINE
  5
279
330
E3
100
AcDbEntity
  8
Des_ Walls
  6
Continuous
100
AcDbLine
 10
200.0044561103202
 20
150.7812818236107
 30
0.0
 11
200.1433477835262
 21
150.7603358473342
 31
0.0
  0
LINE
  5
27A
330
E3
100
AcDbEntity
  8
Des_ Walls
  6
Continuous
100
AcDbLine
 10
200.1433477835262
 20
150.7603358473342
 30
0.0
 11
200.2822353383726
 21
150.7359633959767
 31
0.0
  0
LINE
  5
27B
330
E3
100
AcDbEntity
  8
Des_ Walls
  6
Continuous
100
AcDbLine
 10
200.2822353383726
 20
150.7359633959767
 30
0.0
 11
200.4211228932191
 21
150.7083456773549
 31
0.0
  0
LINE
  5
27C
330
E3
100
AcDbEntity
  8
Des_ Walls
  6
Continuous
100
AcDbLine
 10
200.4211228932191
 20
150.7083456773549
 30
0.0
 11
200.560014566425
 21
150.677700964521
 31
0.0
  0
LINE
  5
27D
330
E3
100
AcDbEntity
  8
Des_ Walls
  6
Continuous
100
AcDbLine
 10
200.560014566425
 20
150.677700964521
 30
0.0
 11
200.6989021212714
 21
150.6442516488863
 31
0.0
  0
LINE
  5
27E
330
E3
100
AcDbEntity
  8
Des_ Walls
  6
Continuous
100
AcDbLine
 10
200.6989021212714
 20
150.6442516488863
 30
0.0
 11
200.8377896761178
 21
150.6082613054572
 31
0.0
  0
LINE
  5
27F
330
E3
100
AcDbEntity
  8
Des_ Walls
  6
Continuous
100
AcDbLine
 10
200.8377896761178
 20
150.6082613054572
 30
0.0
 11
200.9766772309643
 21
150.5700017459588
 31
0.0
  0
LINE
  5
280
330
E3
100
AcDbEntity
  8
Des_ Walls
  6
Continuous
100
AcDbLine
 10
200.9766772309643
 20
150.5700017459588
 30
0.0
 11
201.1155689041702
 21
150.5297653739137
 31
0.0
  0
LINE
  5
281
330
E3
100
AcDbEntity
  8
Des_ Walls
  6
Continuous
100
AcDbLine
 10
201.1155689041702
 20
150.5297653739137
 30
0.0
 11
201.2544564590167
 21
150.4878528295633
 31
0.0
  0
LINE
  5
282
330
E3
100
AcDbEntity
  8
Des_ Walls
  6
Continuous
100
AcDbLine
 10
201.2544564590167
 20
150.4878528295633
 30
0.0
 11
201.3933440138631
 21
150.444589463306
 31
0.0
  0
LINE
  5
283
330
E3
100
AcDbEntity
  8
Des_ Walls
  6
Continuous
100
AcDbLine
 10
201.3933440138631
 20
150.444589463306
 30
0.0
 11
201.532235687069
 21
150.4003006255401
 31
0.0
  0
LINE
  5
284
330
E3
100
AcDbEntity
  8
Des_ Walls
  6
Continuous
100
AcDbLine
 10
201.532235687069
 20
150.4003006255401
 30
0.0
 11
201.6711232419155
 21
150.3553240217422
 31
0.0
  0
LINE
  5
285
330
E3
100
AcDbEntity
  8
Des_ Walls
  6
Continuous
100
AcDbLine
 10
201.6711232419155
 20
150.3553240217422
 30
0.0
 11
201.810010796762
 21
150.3100014757487
 31
0.0
  0
LINE
  5
286
330
E3
100
AcDbEntity
  8
Des_ Walls
  6
Continuous
100
AcDbLine
 10
201.810010796762
 20
150.3100014757487
 30
0.0
 11
201.9489024699679
 21
150.2646830481147
 31
0.0
  0
LINE
  5
287
330
E3
100
AcDbEntity
  8
Des_ Walls
  6
Continuous
100
AcDbLine
 10
201.9489024699679
 20
150.2646830481147
 30
0.0
 11
202.0877900248143
 21
150.2197064443168
 31
0.0
  0
LINE
  5
288
330
E3
100
AcDbEntity
  8
Des_ Walls
  6
Continuous
100
AcDbLine
 10
202.0877900248143
 20
150.2197064443168
 30
0.0
 11
202.2266775796608
 21
150.1754176065509
 31
0.0
  0
LINE
  5
289
330
E3
100
AcDbEntity
  8
Des_ Walls
  6
Continuous
100
AcDbLine
 10
202.2266775796608
 20
150.1754176065509
 30
0.0
 11
202.3655692528667
 21
150.1321542402936
 31
0.0
  0
LINE
  5
28A
330
E3
100
AcDbEntity
  8
Des_ Walls
  6
Continuous
100
AcDbLine
 10
202.3655692528667
 20
150.1321542402936
 30
0.0
 11
202.5044568077132
 21
150.0902416959432
 31
0.0
  0
LINE
  5
28B
330
E3
100
AcDbEntity
  8
Des_ Walls
  6
Continuous
100
AcDbLine
 10
202.5044568077132
 20
150.0902416959432
 30
0.0
 11
202.6433443625596
 21
150.0500053238981
 31
0.0
  0
LINE
  5
28C
330
E3
100
AcDbEntity
  8
Des_ Walls
  6
Continuous
100
AcDbLine
 10
202.6433443625596
 20
150.0500053238981
 30
0.0
 11
202.7822360357655
 21
150.0117416460402
 31
0.0
  0
LINE
  5
28D
330
E3
100
AcDbEntity
  8
Des_ Walls
  6
Continuous
100
AcDbLine
 10
202.7822360357655
 20
150.0117416460402
 30
0.0
 11
202.921123590612
 21
149.9757554209706
 31
0.0
  0
LINE
  5
28E
330
E3
100
AcDbEntity
  8
Des_ Walls
  6
Continuous
100
AcDbLine
 10
202.921123590612
 20
149.9757554209706
 30
0.0
 11
203.0600111454584
 21
149.942306105336
 31
0.0
  0
LINE
  5
28F
330
E3
100
AcDbEntity
  8
Des_ Walls
  6
Continuous
100
AcDbLine
 10
203.0600111454584
 20
149.942306105336
 30
0.0
 11
203.1989028186643
 21
149.911661392502
 31
0.0
  0
LINE
  5
290
330
E3
100
AcDbEntity
  8
Des_ Walls
  6
Continuous
100
AcDbLine
 10
203.1989028186643
 20
149.911661392502
 30
0.0
 11
203.3377903735108
 21
149.8840436738802
 31
0.0
  0
LINE
  5
291
330
E3
100
AcDbEntity
  8
Des_ Walls
  6
Continuous
100
AcDbLine
 10
203.3377903735108
 20
149.8840436738802
 30
0.0
 11
203.4766779283572
 21
149.8596712225227
 31
0.0
  0
LINE
  5
292
330
E3
100
AcDbEntity
  8
Des_ Walls
  6
Continuous
100
AcDbLine
 10
203.4766779283572
 20
149.8596712225227
 30
0.0
 11
203.6155696015631
 21
149.8387252462462
 31
0.0
  0
LINE
  5
293
330
E3
100
AcDbEntity
  8
Des_ Walls
  6
Continuous
100
AcDbLine
 10
203.6155696015631
 20
149.8387252462462
 30
0.0
 11
203.7544571564096
 21
149.8213622427106
 31
0.0
  0
LINE
  5
294
330
E3
100
AcDbEntity
  8
Des_ Walls
  6
Continuous
100
AcDbLine
 10
203.7544571564096
 20
149.8213622427106
 30
0.0
 11
203.893344711256
 21
149.8077222361381
 31
0.0
  0
LINE
  5
295
330
E3
100
AcDbEntity
  8
Des_ Walls
  6
Continuous
100
AcDbLine
 10
203.893344711256
 20
149.8077222361381
 30
0.0
 11
204.032236384462
 21
149.797904067156
 31
0.0
  0
LINE
  5
296
330
E3
100
AcDbEntity
  8
Des_ Walls
  6
Continuous
100
AcDbLine
 10
204.032236384462
 20
149.797904067156
 30
0.0
 11
204.1711239393084
 21
149.7919818662347
 31
0.0
  0
LINE
  5
297
330
E3
100
AcDbEntity
  8
Des_ Walls
  6
Continuous
100
AcDbLine
 10
204.1711239393084
 20
149.7919818662347
 30
0.0
 11
204.3100114941548
 21
149.790005053688
 31
0.0
  0
LINE
  5
298
330
E3
100
AcDbEntity
  8
Des_ Walls
  6
Continuous
100
AcDbLine
 10
204.3100114941548
 20
149.790005053688
 30
0.0
 11
204.4489031673608
 21
149.7919818662347
 31
0.0
  0
LINE
  5
299
330
E3
100
AcDbEntity
  8
Des_ Walls
  6
Continuous
100
AcDbLine
 10
201.810010796762
 20
150.8300020161689
 30
0.0
 11
201.9489024699679
 21
150.8280252036222
 31
0.0
  0
LINE
  5
29A
330
E3
100
AcDbEntity
  8
Des_ Walls
  6
Continuous
100
AcDbLine
 10
201.9489024699679
 20
150.8280252036222
 30
0.0
 11
202.0877900248143
 21
150.8221030027009
 31
0.0
  0
LINE
  5
29B
330
E3
100
AcDbEntity
  8
Des_ Walls
  6
Continuous
100
AcDbLine
 10
202.0877900248143
 20
150.8221030027009
 30
0.0
 11
202.2266775796608
 21
150.8122848337188
 31
0.0
  0
LINE
  5
29C
330
E3
100
AcDbEntity
  8
Des_ Walls
  6
Continuous
100
AcDbLine
 10
202.2266775796608
 20
150.8122848337188
 30
0.0
 11
202.3655692528667
 21
150.7986448271463
 31
0.0
  0
LINE
  5
29D
330
E3
100
AcDbEntity
  8
Des_ Walls
  6
Continuous
100
AcDbLine
 10
202.3655692528667
 20
150.7986448271463
 30
0.0
 11
202.5044568077132
 21
150.7812818236107
 31
0.0
  0
LINE
  5
29E
330
E3
100
AcDbEntity
  8
Des_ Walls
  6
Continuous
100
AcDbLine
 10
202.5044568077132
 20
150.7812818236107
 30
0.0
 11
202.6433443625596
 21
150.7603358473342
 31
0.0
  0
LINE
  5
29F
330
E3
100
AcDbEntity
  8
Des_ Walls
  6
Continuous
100
AcDbLine
 10
202.6433443625596
 20
150.7603358473342
 30
0.0
 11
202.7822360357655
 21
150.7359633959767
 31
0.0
  0
LINE
  5
2A0
330
E3
100
AcDbEntity
  8
Des_ Walls
  6
Continuous
100
AcDbLine
 10
202.7822360357655
 20
150.7359633959767
 30
0.0
 11
202.921123590612
 21
150.7083456773549
 31
0.0
  0
LINE
  5
2A1
330
E3
100
AcDbEntity
  8
Des_ Walls
  6
Continuous
100
AcDbLine
 10
202.921123590612
 20
150.7083456773549
 30
0.0
 11
203.0600111454584
 21
150.677700964521
 31
0.0
  0
LINE
  5
2A2
330
E3
100
AcDbEntity
  8
Des_ Walls
  6
Continuous
100
AcDbLine
 10
203.0600111454584
 20
150.677700964521
 30
0.0
 11
203.1989028186643
 21
150.6442516488863
 31
0.0
  0
LINE
  5
2A3
330
E3
100
AcDbEntity
  8
Des_ Walls
  6
Continuous
100
AcDbLine
 10
203.1989028186643
 20
150.6442516488863
 30
0.0
 11
203.3377903735108
 21
150.6082613054572
 31
0.0
  0
LINE
  5
2A4
330
E3
100
AcDbEntity
  8
Des_ Walls
  6
Continuous
100
AcDbLine
 10
203.3377903735108
 20
150.6082613054572
 30
0.0
 11
203.4766779283572
 21
150.5700017459588
 31
0.0
  0
LINE
  5
2A5
330
E3
100
AcDbEntity
  8
Des_ Walls
  6
Continuous
100
AcDbLine
 10
203.4766779283572
 20
150.5700017459588
 30
0.0
 11
203.6155696015631
 21
150.5297653739137
 31
0.0
  0
LINE
  5
2A6
330
E3
100
AcDbEntity
  8
Des_ Walls
  6
Continuous
100
AcDbLine
 10
203.6155696015631
 20
150.5297653739137
 30
0.0
 11
203.7544571564096
 21
150.4878528295633
 31
0.0
  0
LINE
  5
2A7
330
E3
100
AcDbEntity
  8
Des_ Walls
  6
Continuous
100
AcDbLine
 10
203.7544571564096
 20
150.4878528295633
 30
0.0
 11
203.893344711256
 21
150.444589463306
 31
0.0
  0
LINE
  5
2A8
330
E3
100
AcDbEntity
  8
Des_ Walls
  6
Continuous
100
AcDbLine
 10
203.893344711256
 20
150.444589463306
 30
0.0
 11
204.032236384462
 21
150.4003006255401
 31
0.0
  0
LINE
  5
2A9
330
E3
100
AcDbEntity
  8
Des_ Walls
  6
Continuous
100
AcDbLine
 10
204.032236384462
 20
150.4003006255401
 30
0.0
 11
204.1711239393084
 21
150.3553240217422
 31
0.0
  0
LINE
  5
2AA
330
E3
100
AcDbEntity
  8
Des_ Walls
  6
Continuous
100
AcDbLine
 10
204.1711239393084
 20
150.3553240217422
 30
0.0
 11
204.3100114941548
 21
150.3100014757487
 31
0.0
  0
LINE
  5
2AB
330
E3
100
AcDbEntity
  8
Des_ Walls
  6
Continuous
100
AcDbLine
 10
204.3100114941548
 20
150.3100014757487
 30
0.0
 11
204.4489031673608
 21
150.2646830481147
 31
0.0
  0
LINE
  5
2AC
330
E3
100
AcDbEntity
  8
Des_ Walls
  6
Continuous
100
AcDbLine
 10
204.4489031673608
 20
150.2646830481147
 30
0.0
 11
204.5877907222072
 21
150.2197064443168
 31
0.0
  0
LINE
  5
2AD
330
E3
100
AcDbEntity
  8
Des_ Walls
  6
Continuous
100
AcDbLine
 10
204.5877907222072
 20
150.2197064443168
 30
0.0
 11
204.7266782770537
 21
150.1754176065509
 31
0.0
  0
LINE
  5
2AE
330
E3
100
AcDbEntity
  8
Des_ Walls
  6
Continuous
100
AcDbLine
 10
204.7266782770537
 20
150.1754176065509
 30
0.0
 11
204.8655699502596
 21
150.1321542402936
 31
0.0
  0
LINE
  5
2AF
330
E3
100
AcDbEntity
  8
Des_ Walls
  6
Continuous
100
AcDbLine
 10
204.8655699502596
 20
150.1321542402936
 30
0.0
 11
205.004457505106
 21
150.0902416959432
 31
0.0
  0
LINE
  5
2B0
330
E3
100
AcDbEntity
  8
Des_ Walls
  6
Continuous
100
AcDbLine
 10
205.004457505106
 20
150.0902416959432
 30
0.0
 11
205.1433450599525
 21
150.0500053238981
 31
0.0
  0
LINE
  5
2B1
330
E3
100
AcDbEntity
  8
Des_ Walls
  6
Continuous
100
AcDbLine
 10
205.1433450599525
 20
150.0500053238981
 30
0.0
 11
205.2822367331584
 21
150.0117416460402
 31
0.0
  0
LINE
  5
2B2
330
E3
100
AcDbEntity
  8
Des_ Walls
  6
Continuous
100
AcDbLine
 10
205.2822367331584
 20
150.0117416460402
 30
0.0
 11
205.4211242880048
 21
149.9757554209706
 31
0.0
  0
LINE
  5
2B3
330
E3
100
AcDbEntity
  8
Des_ Walls
  6
Continuous
100
AcDbLine
 10
205.4211242880048
 20
149.9757554209706
 30
0.0
 11
205.5600118428513
 21
149.942306105336
 31
0.0
  0
LINE
  5
2B4
330
E3
100
AcDbEntity
  8
Des_ Walls
  6
Continuous
100
AcDbLine
 10
196.8100135203356
 20
150.3100014757487
 30
0.0
 11
196.9489010751821
 21
150.2646830481147
 31
0.0
  0
LINE
  5
2B5
330
E3
100
AcDbEntity
  8
Des_ Walls
  6
Continuous
100
AcDbLine
 10
196.9489010751821
 20
150.2646830481147
 30
0.0
 11
197.0877886300285
 21
150.2197064443168
 31
0.0
  0
LINE
  5
2B6
330
E3
100
AcDbEntity
  8
Des_ Walls
  6
Continuous
100
AcDbLine
 10
197.0877886300285
 20
150.2197064443168
 30
0.0
 11
197.2266803032344
 21
150.1754176065509
 31
0.0
  0
LINE
  5
2B7
330
E3
100
AcDbEntity
  8
Des_ Walls
  6
Continuous
100
AcDbLine
 10
197.2266803032344
 20
150.1754176065509
 30
0.0
 11
197.3655678580809
 21
150.1321542402936
 31
0.0
  0
LINE
  5
2B8
330
E3
100
AcDbEntity
  8
Des_ Walls
  6
Continuous
100
AcDbLine
 10
197.3655678580809
 20
150.1321542402936
 30
0.0
 11
197.5044554129273
 21
150.0902416959432
 31
0.0
  0
LINE
  5
2B9
330
E3
100
AcDbEntity
  8
Des_ Walls
  6
Continuous
100
AcDbLine
 10
197.5044554129273
 20
150.0902416959432
 30
0.0
 11
197.6433470861332
 21
150.0500053238981
 31
0.0
  0
LINE
  5
2BA
330
E3
100
AcDbEntity
  8
Des_ Walls
  6
Continuous
100
AcDbLine
 10
197.6433470861332
 20
150.0500053238981
 30
0.0
 11
197.7822346409797
 21
150.0117416460402
 31
0.0
  0
LINE
  5
2BB
330
E3
100
AcDbEntity
  8
Des_ Walls
  6
Continuous
100
AcDbLine
 10
197.7822346409797
 20
150.0117416460402
 30
0.0
 11
197.9211221958261
 21
149.9757554209706
 31
0.0
  0
LINE
  5
2BC
330
E3
100
AcDbEntity
  8
Des_ Walls
  6
Continuous
100
AcDbLine
 10
197.9211221958261
 20
149.9757554209706
 30
0.0
 11
198.0600138690321
 21
149.942306105336
 31
0.0
  0
LINE
  5
2BD
330
E3
100
AcDbEntity
  8
Des_ Walls
  6
Continuous
100
AcDbLine
 10
198.0600138690321
 20
149.942306105336
 30
0.0
 11
198.1989014238785
 21
149.911661392502
 31
0.0
  0
LINE
  5
2BE
330
E3
100
AcDbEntity
  8
Des_ Walls
  6
Continuous
100
AcDbLine
 10
198.1989014238785
 20
149.911661392502
 30
0.0
 11
198.3377889787249
 21
149.8840436738802
 31
0.0
  0
LINE
  5
2BF
330
E3
100
AcDbEntity
  8
Des_ Walls
  6
Continuous
100
AcDbLine
 10
198.3377889787249
 20
149.8840436738802
 30
0.0
 11
198.4766806519308
 21
149.8596712225227
 31
0.0
  0
LINE
  5
2C0
330
E3
100
AcDbEntity
  8
Des_ Walls
  6
Continuous
100
AcDbLine
 10
198.4766806519308
 20
149.8596712225227
 30
0.0
 11
198.6155682067773
 21
149.8387252462462
 31
0.0
  0
LINE
  5
2C1
330
E3
100
AcDbEntity
  8
Des_ Walls
  6
Continuous
100
AcDbLine
 10
198.6155682067773
 20
149.8387252462462
 30
0.0
 11
198.7544557616238
 21
149.8213622427106
 31
0.0
  0
LINE
  5
2C2
330
E3
100
AcDbEntity
  8
Des_ Walls
  6
Continuous
100
AcDbLine
 10
198.7544557616238
 20
149.8213622427106
 30
0.0
 11
198.8933474348297
 21
149.8077222361381
 31
0.0
  0
LINE
  5
2C3
330
E3
100
AcDbEntity
  8
Des_ Walls
  6
Continuous
100
AcDbLine
 10
198.8933474348297
 20
149.8077222361381
 30
0.0
 11
199.0322349896761
 21
149.797904067156
 31
0.0
  0
LINE
  5
2C4
330
E3
100
AcDbEntity
  8
Des_ Walls
  6
Continuous
100
AcDbLine
 10
199.0322349896761
 20
149.797904067156
 30
0.0
 11
199.1711225445226
 21
149.7919818662347
 31
0.0
  0
LINE
  5
2C5
330
E3
100
AcDbEntity
  8
Des_ Walls
  6
Continuous
100
AcDbLine
 10
199.1711225445226
 20
149.7919818662347
 30
0.0
 11
199.3100142177285
 21
149.790005053688
 31
0.0
  0
LINE
  5
2C6
330
E3
100
AcDbEntity
  8
Des_ Walls
  6
Continuous
100
AcDbLine
 10
199.3100142177285
 20
149.790005053688
 30
0.0
 11
199.448901772575
 21
149.7919818662347
 31
0.0
  0
LINE
  5
2C7
330
E3
100
AcDbEntity
  8
Des_ Walls
  6
Continuous
100
AcDbLine
 10
204.3100114941548
 20
150.8300020161689
 30
0.0
 11
204.4489031673608
 21
150.8280252036222
 31
0.0
  0
LINE
  5
2C8
330
E3
100
AcDbEntity
  8
Des_ Walls
  6
Continuous
100
AcDbLine
 10
204.4489031673608
 20
150.8280252036222
 30
0.0
 11
204.5877907222072
 21
150.8221030027009
 31
0.0
  0
LINE
  5
2C9
330
E3
100
AcDbEntity
  8
Des_ Walls
  6
Continuous
100
AcDbLine
 10
204.5877907222072
 20
150.8221030027009
 30
0.0
 11
204.7266782770537
 21
150.8122848337188
 31
0.0
  0
LINE
  5
2CA
330
E3
100
AcDbEntity
  8
Des_ Walls
  6
Continuous
100
AcDbLine
 10
204.7266782770537
 20
150.8122848337188
 30
0.0
 11
204.8655699502596
 21
150.7986448271463
 31
0.0
  0
LINE
  5
2CB
330
E3
100
AcDbEntity
  8
Des_ Walls
  6
Continuous
100
AcDbLine
 10
204.8655699502596
 20
150.7986448271463
 30
0.0
 11
205.004457505106
 21
150.7812818236107
 31
0.0
  0
LINE
  5
2CC
330
E3
100
AcDbEntity
  8
Des_ Walls
  6
Continuous
100
AcDbLine
 10
205.004457505106
 20
150.7812818236107
 30
0.0
 11
205.1433450599525
 21
150.7603358473342
 31
0.0
  0
LINE
  5
2CD
330
E3
100
AcDbEntity
  8
Des_ Walls
  6
Continuous
100
AcDbLine
 10
205.1433450599525
 20
150.7603358473342
 30
0.0
 11
205.2822367331584
 21
150.7359633959767
 31
0.0
  0
LINE
  5
2CE
330
E3
100
AcDbEntity
  8
Des_ Walls
  6
Continuous
100
AcDbLine
 10
205.2822367331584
 20
150.7359633959767
 30
0.0
 11
205.4211242880048
 21
150.7083456773549
 31
0.0
  0
LINE
  5
2CF
330
E3
100
AcDbEntity
  8
Des_ Walls
  6
Continuous
100
AcDbLine
 10
205.4211242880048
 20
150.7083456773549
 30
0.0
 11
205.5600118428513
 21
150.677700964521
 31
0.0
  0
ARC
  5
2D0
330
E3
100
AcDbEntity
  8
Des_ Furniture
  6
Hidden Line
100
AcDbCircle
 10
198.8972915955509
 20
123.906503282831
 30
0.0
 40
0.6000000000001117
100
AcDbArc
 50
273.0000017665797
 51
0.0
  0
LWPOLYLINE
  5
2D1
330
E3
100
AcDbEntity
  8
Des_ Furniture
  6
Continuous
 62
   251
370
    18
100
AcDbPolyline
 90
        4
 70
   128
 43
0.0
 10
164.7516479804674
 20
79.08537885285926
 10
162.7311274350154
 20
117.6392075609862
 10
160.6534904256902
 20
117.5303232191712
 10
162.6740109744991
 20
78.97649444698467
  0
LWPOLYLINE
  5
2D2
330
E3
100
AcDbEntity
  8
Des_ Furniture
  6
Continuous
 62
   251
370
    18
100
AcDbPolyline
 90
        2
 70
   128
 43
0.0
 10
195.3136622477327
 20
131.9261937651562
 42
-0.3373341105099786
 10
190.6355830250353
 20
123.6810258771499
  0
LWPOLYLINE
  5
2D3
330
E3
100
AcDbEntity
  8
Des_ Furniture
  6
Continuous
 62
   251
370
    18
100
AcDbPolyline
 90
        2
 70
   128
 43
0.0
 10
195.7317763461144
 20
123.9481062094664
 10
195.3136622477327
 20
131.9261937651562
  0
LWPOLYLINE
  5
2D4
330
E3
100
AcDbEntity
  8
Des_ Furniture
  6
Continuous
100
AcDbPolyline
 90
        6
 70
   128
 43
0.0
 10
152.3089133120892
 20
123.4077944550216
 10
154.7621814617668
 20
130.2676351752521
 42
-0.2604542593494868
 10
155.3147694876609
 20
130.6311611854723
 10
197.856960318314
 20
133.1493997336868
 42
0.5419685754561748
 10
198.3296268786607
 20
133.9780794946182
 10
198.3296268786607
 20
160.1493997336867
  0
LWPOLYLINE
  5
2D5
330
E3
100
AcDbEntity
  8
Des_ Furniture
  6
Continuous
100
AcDbPolyline
 90
        4
 70
   128
 43
0.0
 10
200.7157607378582
 20
168.0477398001388
 10
204.7157607378582
 20
168.0477398001388
 10
204.7157607378582
 20
170.0477398001388
 10
200.7157607378582
 20
170.0477398001388
  0
LWPOLYLINE
  5
2D6
330
E3
100
AcDbEntity
  8
Des_ Furniture
  6
Continuous
100
AcDbPolyline
 90
        3
 70
   128
 43
0.0
 10
198.3296268786607
 20
160.1493997336867
 42
0.9216465519400844
 10
197.8144283105308
 20
160.1461069207107
 10
197.8144283105308
 20
158.1461069207107
  0
LWPOLYLINE
  5
2D7
330
E3
100
AcDbEntity
  8
Des_ Furniture
  6
Continuous
100
AcDbPolyline
 90
        3
 70
   128
 43
0.0
 10
197.4100125535774
 20
140.9145416090765
 10
195.8015633332777
 20
142.2528111633025
 10
197.4100125535774
 20
144.4142694679175
  0
LWPOLYLINE
  5
2D8
330
E3
100
AcDbEntity
  8
Des_ Furniture
  6
Continuous
100
AcDbPolyline
 90
        3
 70
   128
 43
0.0
 10
197.4100125535774
 20
144.4142694679175
 10
197.4100125535774
 20
167.81592667726
 10
204.238473396734
 20
169.0199685606198
  0
LWPOLYLINE
  5
2D9
330
E3
100
AcDbEntity
  8
Des_ Furniture
  6
Continuous
 62
   251
370
    18
100
AcDbPolyline
 90
        2
 70
   128
 43
0.0
 10
198.7157607378585
 20
82.86536222004634
 10
200.7157607378582
 20
82.86536222004634
  0
LWPOLYLINE
  5
2DA
330
E3
100
AcDbEntity
  8
Doc_ Floor
  6
Continuous
100
AcDbPolyline
 90
        3
 70
   128
 43
0.0
 10
125.9691501081703
 20
132.3842403260369
 10
145.9691501081704
 20
132.3842403260369
 10
125.9965594130787
 20
131.337521201178
  0
LWPOLYLINE
  5
2DB
330
E3
100
AcDbEntity
  8
Doc_ Floor
  6
Continuous
100
AcDbPolyline
 90
        2
 70
   128
 43
0.0
 10
127.8447949023791
 20
133.7149842966734
 42
0.1172793849241032
 10
128.0849009572411
 20
130.1633355332421
  0
LWPOLYLINE
  5
2DC
330
E3
100
AcDbEntity
  8
Des_ Furniture
  6
Continuous
 62
   251
370
    18
100
AcDbPolyline
 90
        4
 70
   129
 43
0.0
 10
191.7157607378583
 20
121.1919776338143
 10
200.7157607378582
 20
121.1919776338143
 10
200.7157607378582
 20
107.1919776338142
 10
191.7157607378583
 20
107.1919776338142
  0
LWPOLYLINE
  5
2DD
330
E3
100
AcDbEntity
  8
Des_ Furniture
  6
Continuous
 62
   251
370
    18
100
AcDbPolyline
 90
        2
 70
   128
 43
0.0
 10
200.7157607378582
 20
121.1919776338143
 10
191.7157607378583
 20
107.1919776338142
  0
LWPOLYLINE
  5
2DE
330
E3
100
AcDbEntity
  8
Des_ Furniture
  6
Continuous
 62
   251
370
    18
100
AcDbPolyline
 90
        2
 70
   128
 43
0.0
 10
191.7157607378583
 20
121.1919776338143
 10
200.7157607378582
 20
107.1919776338142
  0
LWPOLYLINE
  5
2DF
330
E3
100
AcDbEntity
  8
Des_ Furniture
  6
Continuous
 62
   251
370
    18
100
AcDbPolyline
 90
        2
 70
   128
 43
0.0
 10
198.7157607378585
 20
25.60383648594644
 10
200.7157607378582
 20
25.60383648594644
  0
LINE
  5
2E0
330
E3
100
AcDbEntity
  8
Doc_ Floor
  6
Continuous
100
AcDbLine
 10
154.1137618357974
 20
137.5032625752815
 30
0.0
 11
155.0912503382066
 21
137.5349121678268
 31
0.0
  0
LINE
  5
2E1
330
E3
100
AcDbEntity
  8
Doc_ Floor
  6
Continuous
100
AcDbLine
 10
155.0912503382066
 20
137.5349121678268
 30
0.0
 11
195.0901413027167
 21
138.8299426589942
 31
0.0
  0
LINE
  5
2E2
330
E3
100
AcDbEntity
  8
Doc_ Floor
  6
Continuous
100
AcDbLine
 10
155.6359363253043
 20
138.5530694700257
 30
0.0
 11
154.5465602327495
 21
136.5167507472683
 31
0.0
  0
LINE
  5
2E3
330
E3
100
AcDbEntity
  8
Doc_ Floor
  6
Continuous
100
AcDbLine
 10
194.545455315619
 20
137.8117853567952
 30
0.0
 11
195.6348314081738
 21
139.8481040795527
 31
0.0
  0
LINE
  5
2E4
330
E3
100
AcDbEntity
  8
Doc_ Floor
  6
Continuous
100
AcDbLine
 10
195.0901413027167
 20
138.8299426589942
 30
0.0
 11
196.067629805126
 21
138.8615922515394
 31
0.0
  0
LINE
  5
2E5
330
E3
100
AcDbEntity
  8
Doc_ Floor
  6
Continuous
100
AcDbLine
 10
155.1559662389556
 20
135.5359593205622
 30
0.0
 11
155.0427072351058
 21
139.0341268032752
 31
0.0
  0
LINE
  5
2E6
330
E3
100
AcDbEntity
  8
Doc_ Floor
  6
Continuous
100
AcDbLine
 10
195.1548613218251
 20
136.8309898117296
 30
0.0
 11
195.0416023179752
 21
140.3291572944426
 31
0.0
  0
MTEXT
  5
2E8
330
E3
100
AcDbEntity
  8
Doc_ Floor
  6
Continuous
100
AcDbMText
 10
173.9436790300774
 20
138.6455531903059
 30
0.0
 40
2.5
 41
0.0
 71
     7
 72
     1
  1
{X}
  7
GENERATED_STYLE_3
 11
0.9994762860037409
 21
0.03235975457521483
 31
0.0
 73
     1
 44
1.0
  0
LINE
  5
2E9
330
E3
100
AcDbEntity
  8
Doc_ Floor
  6
Continuous
100
AcDbLine
 10
189.890193555547
 20
132.1713996558521
 30
0.0
 11
189.890193555547
 21
133.1493988348359
 31
0.0
  0
LINE
  5
2EA
330
E3
100
AcDbEntity
  8
Doc_ Floor
  6
Continuous
100
AcDbLine
 10
189.890193555547
 20
133.1493988348359
 30
0.0
 11
189.890193555547
 21
140.1493991401923
 31
0.0
  0
LINE
  5
2EB
330
E3
100
AcDbEntity
  8
Doc_ Floor
  6
Continuous
100
AcDbLine
 10
188.8901899819022
 20
133.7267516492685
 30
0.0
 11
190.8901930108322
 21
132.5720501387628
 31
0.0
  0
LINE
  5
2EC
330
E3
100
AcDbEntity
  8
Doc_ Floor
  6
Continuous
100
AcDbLine
 10
190.8901930108322
 20
139.5720504441192
 30
0.0
 11
188.8901899819022
 21
140.7267478362654
 31
0.0
  0
LINE
  5
2ED
330
E3
100
AcDbEntity
  8
Doc_ Floor
  6
Continuous
100
AcDbLine
 10
189.890193555547
 20
140.1493991401923
 30
0.0
 11
189.890193555547
 21
141.1273983191761
 31
0.0
  0
LINE
  5
2EE
330
E3
100
AcDbEntity
  8
Doc_ Floor
  6
Continuous
100
AcDbLine
 10
191.8901924661175
 20
133.1493988348359
 30
0.0
 11
188.3901923134393
 21
133.1493988348359
 31
0.0
  0
LINE
  5
2EF
330
E3
100
AcDbEntity
  8
Doc_ Floor
  6
Continuous
100
AcDbLine
 10
191.8901924661175
 20
140.1493991401923
 30
0.0
 11
188.3901923134393
 21
140.1493991401923
 31
0.0
  0
MTEXT
  5
2F0
330
E3
100
AcDbEntity
  8
Doc_ Floor
  6
Continuous
100
AcDbMText
 10
189.3901915359843
 20
134.7522496418599
 30
0.0
 40
2.5
 41
0.0
 71
     7
 72
     1
  1
{35}
  7
GENERATED_STYLE_3
 11
6.123233995736766E-17
 21
1.0
 31
0.0
 73
     1
 44
1.0
  0
LINE
  5
2F1
330
E3
100
AcDbEntity
  8
Doc_ Floor
  6
Continuous
100
AcDbLine
 10
189.890193555547
 20
139.1713999612084
 30
0.0
 11
189.890193555547
 21
140.1493991401923
 31
0.0
  0
LINE
  5
2F2
330
E3
100
AcDbEntity
  8
Doc_ Floor
  6
Continuous
100
AcDbLine
 10
189.890193555547
 20
140.1493991401923
 30
0.0
 11
189.890193555547
 21
160.1494006009761
 31
0.0
  0
LINE
  5
2F3
330
E3
100
AcDbEntity
  8
Doc_ Floor
  6
Continuous
100
AcDbLine
 10
188.8901899819022
 20
140.7267478362654
 30
0.0
 11
190.8901930108322
 21
139.5720504441192
 31
0.0
  0
LINE
  5
2F4
330
E3
100
AcDbEntity
  8
Doc_ Floor
  6
Continuous
100
AcDbLine
 10
190.8901930108322
 20
159.5720477865435
 30
0.0
 11
188.8901899819022
 21
160.7267492970492
 31
0.0
  0
LINE
  5
2F5
330
E3
100
AcDbEntity
  8
Doc_ Floor
  6
Continuous
100
AcDbLine
 10
189.890193555547
 20
160.1494006009761
 30
0.0
 11
189.890193555547
 21
161.1273997799599
 31
0.0
  0
LINE
  5
2F6
330
E3
100
AcDbEntity
  8
Doc_ Floor
  6
Continuous
100
AcDbLine
 10
191.8901924661175
 20
140.1493991401923
 30
0.0
 11
188.3901923134393
 21
140.1493991401923
 31
0.0
  0
LINE
  5
2F7
330
E3
100
AcDbEntity
  8
Doc_ Floor
  6
Continuous
100
AcDbLine
 10
191.8901924661175
 20
160.1494006009761
 30
0.0
 11
188.3901923134393
 21
160.1494006009761
 31
0.0
  0
MTEXT
  5
2F8
330
E3
100
AcDbEntity
  8
Doc_ Floor
  6
Continuous
100
AcDbMText
 10
189.3901915359843
 20
147.3036746890787
 30
0.0
 40
2.5
 41
0.0
 71
     7
 72
     1
  1
{100}
  7
GENERATED_STYLE_3
 11
6.123233995736766E-17
 21
1.0
 31
0.0
 73
     1
 44
1.0
  0
LINE
  5
2F9
330
E3
100
AcDbEntity
  8
Doc_ Floor
  6
Continuous
100
AcDbLine
 10
194.7537742928103
 20
100.4962115065125
 30
0.0
 11
195.7317775901536
 21
100.4962115065125
 31
0.0
  0
LINE
  5
2FA
330
E3
100
AcDbEntity
  8
Doc_ Floor
  6
Continuous
100
AcDbLine
 10
195.7317775901536
 20
100.4962115065125
 30
0.0
 11
200.7157626849513
 21
100.4962115065125
 31
0.0
  0
LINE
  5
2FB
330
E3
100
AcDbEntity
  8
Doc_ Floor
  6
Continuous
100
AcDbLine
 10
196.3091262862267
 20
101.4962109617978
 30
0.0
 11
195.154424775721
 21
99.49620793286778
 31
0.0
  0
LINE
  5
2FC
330
E3
100
AcDbEntity
  8
Doc_ Floor
  6
Continuous
100
AcDbLine
 10
200.1384098705188
 20
99.49620793286778
 30
0.0
 11
201.2931113810244
 21
101.4962109617978
 31
0.0
  0
LINE
  5
2FD
330
E3
100
AcDbEntity
  8
Doc_ Floor
  6
Continuous
100
AcDbLine
 10
200.7157626849513
 20
100.4962115065125
 30
0.0
 11
201.6937618639352
 21
100.4962115065125
 31
0.0
  0
LINE
  5
2FE
330
E3
100
AcDbEntity
  8
Doc_ Floor
  6
Continuous
100
AcDbLine
 10
195.7317775901536
 20
98.99621026440487
 30
0.0
 11
195.7317775901536
 21
120.4962088489368
 31
0.0
  0
LINE
  5
2FF
330
E3
100
AcDbEntity
  8
Doc_ Floor
  6
Continuous
100
AcDbLine
 10
200.7157626849513
 20
98.99621026440487
 30
0.0
 11
200.7157626849513
 21
120.4962088489368
 31
0.0
  0
MTEXT
  5
300
330
E3
100
AcDbEntity
  8
Doc_ Floor
  6
Continuous
100
AcDbMText
 10
196.3266184501595
 20
100.9962099368611
 30
0.0
 40
2.5
 41
0.0
 71
     7
 72
     1
  1
{20}
  7
GENERATED_STYLE_3
 73
     1
 44
1.0
  0
MTEXT
  5
301
330
E3
100
AcDbEntity
  8
Doc_ Floor
  6
Continuous
100
AcDbMText
 10
243.0019392733471
 20
114.9142175034933
 30
0.0
 40
2.500000000000001
 41
0.0
 71
     4
 72
     1
  1
{STOPEND SHEET}
  7
GENERATED_STYLE_1
 73
     1
 44
1.0
  0
LINE
  5
302
330
E3
100
AcDbEntity
  8
Doc_ Floor
  6
Continuous
100
AcDbLine
 10
194.3827018676301
 20
127.045380579571
 30
0.0
 11
198.0284384069573
 21
125.7660163278365
 31
0.0
  0
LINE
  5
303
330
E3
100
AcDbEntity
  8
Doc_ Floor
  6
Continuous
100
AcDbLine
 10
194.3827018676301
 20
127.045380579571
 30
0.0
 11
196.9003167884864
 21
124.1145459426943
 31
0.0
  0
LINE
  5
304
330
E3
100
AcDbEntity
  8
Doc_ Floor
  6
Continuous
100
AcDbLine
 10
198.0284384069573
 20
125.7660163278365
 30
0.0
 11
196.9003167884864
 21
124.1145459426943
 31
0.0
  0
LWPOLYLINE
  5
305
330
E3
100
AcDbEntity
  8
Doc_ Floor
  6
Continuous
100
AcDbPolyline
 90
       14
 70
   128
 43
0.0
 10
197.4643786870209
 20
124.9402810555286
 10
199.6353409147125
 20
123.5996224675533
 10
201.8249529356025
 20
122.3703579118147
 10
204.0467222314042
 20
121.2490516413243
 10
206.3141562838309
 20
120.2322679090939
 10
208.640762574596
 20
119.3165709681351
 10
211.0400485854126
 20
118.4985250714596
 10
213.5255217979942
 20
117.7746944720788
 10
216.110689694054
 20
117.1416434230046
 10
218.8090597553054
 20
116.5959361772484
 10
221.6341394634617
 20
116.134136987822
 10
227.7184577473421
 20
115.448519790005
 10
234.4717043994018
 20
115.0573058536466
 10
242.0019392733472
 20
114.9330092028397
  0
MTEXT
  5
306
330
E3
100
AcDbEntity
  8
Doc_ Floor
  6
Continuous
100
AcDbMText
 10
243.0019392733471
 20
158.2127126141118
 30
0.0
 40
2.500000000000001
 41
0.0
 71
     4
 72
     1
  1
{HEM TO FLASHING EDGE}
  7
GENERATED_STYLE_1
 73
     1
 44
1.0
  0
LINE
  5
307
330
E3
100
AcDbEntity
  8
Doc_ Floor
  6
Continuous
100
AcDbLine
 10
198.3296263902507
 20
158.2315341333631
 30
0.0
 11
202.0616755073999
 21
159.2315335886484
 31
0.0
  0
LINE
  5
308
330
E3
100
AcDbEntity
  8
Doc_ Floor
  6
Continuous
100
AcDbLine
 10
198.3296263902507
 20
158.2315341333631
 30
0.0
 11
202.0616755073999
 21
157.2315346780779
 31
0.0
  0
LINE
  5
309
330
E3
100
AcDbEntity
  8
Doc_ Floor
  6
Continuous
100
AcDbLine
 10
202.0616755073999
 20
159.2315335886484
 30
0.0
 11
202.0616755073999
 21
157.2315346780779
 31
0.0
  0
LWPOLYLINE
  5
30A
330
E3
100
AcDbEntity
  8
Doc_ Floor
  6
Continuous
100
AcDbPolyline
 90
        2
 70
   128
 43
0.0
 10
202.0616767920217
 20
158.2315330887294
 10
242.0019392733472
 20
158.2315330887294
  0
MTEXT
  5
30B
330
E3
100
AcDbEntity
  8
Doc_ Floor
  6
Continuous
100
AcDbMText
 10
242.1574412326781
 20
175.4868676787161
 30
0.0
 40
2.500000000000001
 41
0.0
 71
     4
 72
     1
  1
{CONCRETE WALL}
  7
GENERATED_STYLE_1
 73
     1
 44
1.0
  0
LINE
  5
30C
330
E3
100
AcDbEntity
  8
Doc_ Floor
  6
Continuous
100
AcDbLine
 10
220.086767103519
 20
175.5056881816483
 30
0.0
 11
223.8188203390277
 21
176.5056876369336
 31
0.0
  0
LINE
  5
30D
330
E3
100
AcDbEntity
  8
Doc_ Floor
  6
Continuous
100
AcDbLine
 10
220.086767103519
 20
175.5056881816483
 30
0.0
 11
223.8188203390277
 21
174.505688726363
 31
0.0
  0
LINE
  5
30E
330
E3
100
AcDbEntity
  8
Doc_ Floor
  6
Continuous
100
AcDbLine
 10
223.8188203390277
 20
176.5056876369336
 30
0.0
 11
223.8188203390277
 21
174.505688726363
 31
0.0
  0
LWPOLYLINE
  5
30F
330
E3
100
AcDbEntity
  8
Doc_ Floor
  6
Continuous
100
AcDbPolyline
 90
        2
 70
   128
 43
0.0
 10
223.8188186530583
 20
175.5056881533337
 10
241.1574412326778
 20
175.5056881533337
  0
MTEXT
  5
310
330
E3
100
AcDbEntity
  8
Doc_ Floor
  6
Continuous
100
AcDbMText
 10
94.11393342556318
 20
177.6609016791502
 30
0.0
 40
2.500000000000001
 41
61.87837262817241
 71
     6
 72
     1
  1
{PROFILED FOAM CLOSURE\P(only required in high risk situations of wind blown moisture entering)}
  7
GENERATED_STYLE_1
 73
     1
 44
1.05445724262312
  0
LINE
  5
311
330
E3
100
AcDbEntity
  8
Doc_ Floor
  6
Continuous
100
AcDbLine
 10
177.2568087603505
 20
131.9299978970192
 30
0.0
 11
173.9513393173501
 21
133.9305157208833
 31
0.0
  0
LINE
  5
312
330
E3
100
AcDbEntity
  8
Doc_ Floor
  6
Continuous
100
AcDbLine
 10
177.2568087603505
 20
131.9299978970192
 30
0.0
 11
175.3944454233468
 21
135.3152317262806
 31
0.0
  0
LINE
  5
313
330
E3
100
AcDbEntity
  8
Doc_ Floor
  6
Continuous
100
AcDbLine
 10
173.9513393173501
 20
133.9305157208833
 30
0.0
 11
175.3944454233468
 21
135.3152317262806
 31
0.0
  0
LWPOLYLINE
  5
314
330
E3
100
AcDbEntity
  8
Doc_ Floor
  6
Continuous
100
AcDbPolyline
 90
       17
 70
   128
 43
0.0
 10
174.6728927987205
 20
134.6228730150713
 10
168.9097037756385
 20
140.4613919598443
 10
163.3814887352089
 20
145.8103660700993
 10
158.0604890829278
 20
150.6853688709722
 10
152.9189462242915
 20
155.1019738875989
 10
147.9291015647962
 20
159.0757546451151
 10
143.063196509938
 20
162.6222846686565
 10
138.2934724652131
 20
165.7571374833591
 10
133.5921708361178
 20
168.4958866143585
 10
128.9315330281483
 20
170.8541055867906
 10
124.2838004468008
 20
172.8473679257912
 10
119.6212144975714
 20
174.4912471564961
 10
114.9160165859563
 20
175.8013168040411
 10
110.1404481174518
 20
176.7931503935618
 10
105.266750497554
 20
177.4823214501942
 10
100.2671651317592
 20
177.8844034990741
 10
95.11393342556352
 20
178.0149700653372
  0
MTEXT
  5
315
330
E3
100
AcDbEntity
  8
Doc_ Floor
  6
Continuous
100
AcDbMText
 10
94.65366772230377
 20
79.9859444199013
 30
0.0
 40
2.5
 41
0.0
 71
     6
 72
     1
  1
{STEEL PURLIN}
  7
GENERATED_STYLE_1
 73
     1
 44
1.0
  0
LINE
  5
316
330
E3
100
AcDbEntity
  8
Doc_ Floor
  6
Continuous
100
AcDbLine
 10
161.8746702372702
 20
94.22878498410262
 30
0.0
 11
158.5683730040157
 21
92.22964269230232
 31
0.0
  0
LINE
  5
317
330
E3
100
AcDbEntity
  8
Doc_ Floor
  6
Continuous
100
AcDbLine
 10
161.8746702372702
 20
94.22878498410262
 30
0.0
 11
158.0117602478861
 21
94.15062675803583
 31
0.0
  0
LINE
  5
318
330
E3
100
AcDbEntity
  8
Doc_ Floor
  6
Continuous
100
AcDbLine
 10
158.5683730040157
 20
92.22964269230232
 30
0.0
 11
158.0117602478861
 21
94.15062675803583
 31
0.0
  0
LWPOLYLINE
  5
319
330
E3
100
AcDbEntity
  8
Doc_ Floor
  6
Continuous
100
AcDbPolyline
 90
        9
 70
   128
 43
0.0
 10
158.2900660080227
 20
93.19013528758845
 10
146.3008722936557
 20
89.79226086581446
 10
135.8508023092216
 20
86.96962078174954
 10
126.764529036704
 20
84.68455545548775
 10
118.8667254580871
 20
82.8994053071232
 10
111.9820645553547
 20
81.57651075674994
 10
105.9352193104907
 20
80.67821222446209
 10
100.550862705479
 20
80.16685013035372
 10
95.65366772230365
 20
80.00476489451891
  0
MTEXT
  5
31A
330
E3
100
AcDbEntity
  8
Doc_ Floor
  6
Continuous
100
AcDbMText
 10
94.11393342556318
 20
198.2695997627286
 30
0.0
 40
2.500000000000001
 41
68.10141778064782
 71
     6
 72
     1
  1
{METAL OVER FLASHING CHASE INTO 20x10 GROOVE  AND  SEALED WITH SEALANT}
  7
GENERATED_STYLE_1
 73
     1
 44
1.065340909090909
  0
LINE
  5
31B
330
E3
100
AcDbEntity
  8
Doc_ Floor
  6
Continuous
100
AcDbLine
 10
199.1377597144369
 20
170.1433082185286
 30
0.0
 11
195.3123762165651
 21
170.6861162337068
 31
0.0
  0
LINE
  5
31C
330
E3
100
AcDbEntity
  8
Doc_ Floor
  6
Continuous
100
AcDbLine
 10
199.1377597144369
 20
170.1433082185286
 30
0.0
 11
196.0962853503347
 21
172.5260839318998
 31
0.0
  0
LINE
  5
31D
330
E3
100
AcDbEntity
  8
Doc_ Floor
  6
Continuous
100
AcDbLine
 10
195.3123762165651
 20
170.6861162337068
 30
0.0
 11
196.0962853503347
 21
172.5260839318998
 31
0.0
  0
LWPOLYLINE
  5
31E
330
E3
100
AcDbEntity
  8
Doc_ Floor
  6
Continuous
100
AcDbPolyline
 90
       16
 70
   128
 43
0.0
 10
195.7043322410433
 20
171.6060993203256
 10
179.0074794216198
 20
178.4868505416233
 10
171.3313990166889
 20
181.4849653374432
 10
164.056248701162
 20
184.2010374081239
 10
157.146553039702
 20
186.6446651172252
 10
150.5668365969713
 20
188.8254468283072
 10
144.2816239376327
 20
190.75298090493
 10
138.2554396263488
 20
192.4368657106534
 10
132.4528082277822
 20
193.8866996090377
 10
126.8382543065955
 20
195.1120809636427
 10
121.3763024274515
 20
196.1226081380284
 10
116.0314771550128
 20
196.9278794957549
 10
110.768303053942
 20
197.5374934003821
 10
105.5513046889017
 20
197.9610482154702
 10
100.3450066245547
 20
198.208142304579
 10
95.11393342556352
 20
198.2883740312686
  0
MTEXT
  5
31F
330
E3
100
AcDbEntity
  8
Doc_ Floor
  6
Continuous
100
AcDbMText
 10
187.1539655668961
 20
97.89309965695023
 30
0.0
 40
2.0
 41
0.0
 71
     1
 72
     1
  1
{MIN. GAP}
  7
GENERATED_STYLE_1
 73
     1
 44
1.0
  0
MTEXT
  5
320
330
E3
100
AcDbEntity
  8
Doc_ Floor
  6
Continuous
100
AcDbMText
 10
116.4333917460358
 20
137.8368475403306
 30
0.0
 40
2.5
 41
0.0
 71
     1
 72
     1
  1
{ROOF PITCH 3° MIN.}
  7
GENERATED_STYLE_1
 73
     1
 44
1.0
  0
LINE
  5
321
330
E3
100
AcDbEntity
  8
Des_ Walls
  6
Continuous
100
AcDbLine
 10
18.17477116375411
 20
54.13671613653004
 30
0.0
 11
118.5678552875141
 21
54.13671613653004
 31
0.0
  0
LINE
  5
322
330
E3
100
AcDbEntity
  8
Des_ Walls
  6
Continuous
100
AcDbLine
 10
118.5678552875141
 20
62.22308201366688
 30
0.0
 11
118.5678552875141
 21
21.85493893886349
 31
0.0
  0
LINE
  5
323
330
E3
100
AcDbEntity
  8
Des_ Walls
  6
Continuous
100
AcDbLine
 10
18.17477116375411
 20
21.85493893886349
 30
0.0
 11
18.17477116375411
 21
54.13671613653004
 31
0.0
  0
LINE
  5
324
330
E3
100
AcDbEntity
  8
Des_ Walls
  6
Continuous
100
AcDbLine
 10
94.59783766254814
 20
62.22308201366688
 30
0.0
 11
94.59783766254814
 21
21.85493893886349
 31
0.0
  0
LINE
  5
325
330
E3
100
AcDbEntity
  8
Des_ Walls
  6
Continuous
100
AcDbLine
 10
94.59783766254814
 20
62.22308201366688
 30
0.0
 11
118.5678552875141
 21
62.22308201366688
 31
0.0
  0
LINE
  5
326
330
E3
100
AcDbEntity
  8
Des_ Walls
  6
Continuous
100
AcDbLine
 10
18.17477116375411
 20
21.85493893886349
 30
0.0
 11
118.5678552875141
 21
21.85493893886349
 31
0.0
  0
LINE
  5
327
330
E3
100
AcDbEntity
  8
Des_ Walls
  6
Continuous
100
AcDbLine
 10
18.17477116375411
 20
32.61553271087217
 30
0.0
 11
118.5678552875141
 21
32.61553271087217
 31
0.0
  0
LINE
  5
328
330
E3
100
AcDbEntity
  8
Des_ Walls
  6
Continuous
100
AcDbLine
 10
18.17477116375411
 20
43.37612236452136
 30
0.0
 11
118.5678552875141
 21
43.37612236452136
 31
0.0
  0
MTEXT
  5
329
330
E3
100
AcDbEntity
  8
0
  6
Continuous
100
AcDbMText
 10
21.73069803123484
 20
45.29307522424272
 30
0.0
 40
2.499999999999999
 41
69.01187578516144
 71
     7
 72
     1
  1
\A1;{\fCentury Gothic|b0|i0|c0|p34;LOW, MEDIUM OR HIGH WIND ZONE.\P ROOF PITCH \fArial|b0|i0|c0|p34;\H1.029412x;\U+2265\fCentury Gothic|b0|i0|c0|p34;\H0.971429x; 10\fArial|b0|i0|c0|p34;\H1.029412x;\U+00B0}
  7
GENERATED_STYLE_1
 73
     1
 44
1.056355725756043
  0
MTEXT
  5
32A
330
E3
100
AcDbEntity
  8
0
  6
Continuous
100
AcDbMText
 10
21.73069803123484
 20
34.87023061625332
 30
0.0
 40
2.5
 41
69.01187578516144
 71
     7
 72
     1
  1
\A1;{\fCentury Gothic|b0|i0|c0|p34;VERY HIGH WIND ZONE.\P ROOF PITCH \fArial|b0|i0|c0|p34;\H1.029412x;<\fCentury Gothic|b0|i0|c0|p34;\H0.971429x; 10\fArial|b0|i0|c0|p34;\H1.029412x;\U+00B0}
  7
GENERATED_STYLE_1
 73
     1
 44
1.056355725756043
  0
MTEXT
  5
32B
330
E3
100
AcDbEntity
  8
0
  6
Continuous
100
AcDbMText
 10
106.2300320878227
 20
47.33292965654555
 30
0.0
 40
2.499999999999999
 41
0.0
 71
     8
 72
     1
  1
{130mm}
  7
GENERATED_STYLE_1
 73
     1
 44
1.0
  0
MTEXT
  5
32C
330
E3
100
AcDbEntity
  8
0
  6
Continuous
100
AcDbMText
 10
106.2300320878227
 20
36.0941280361856
 30
0.0
 40
2.499999999999999
 41
0.0
 71
     8
 72
     1
  1
{200mm}
  7
GENERATED_STYLE_1
 73
     1
 44
1.0
  0
MTEXT
  5
32D
330
E3
100
AcDbEntity
  8
0
  6
Continuous
100
AcDbMText
 10
106.2300320878227
 20
57.21497029051776
 30
0.0
 40
2.499999999999999
 41
0.0
 71
     8
 72
     1
  1
{X}
  7
GENERATED_STYLE_1
 73
     1
 44
1.0
  0
MTEXT
  5
32E
330
E3
100
AcDbEntity
  8
0
  6
Continuous
100
AcDbMText
 10
21.73069803123484
 20
26.39865930699352
 30
0.0
 40
2.5
 41
0.0
 71
     7
 72
     1
  1
{EXTRA WIND ZONE.}
  7
GENERATED_STYLE_1
 73
     1
 44
1.0
  0
MTEXT
  5
32F
330
E3
100
AcDbEntity
  8
0
  6
Continuous
100
AcDbMText
 10
106.2300320878227
 20
25.33353467071013
 30
0.0
 40
2.499999999999999
 41
0.0
 71
     8
 72
     1
  1
{200mm}
  7
GENERATED_STYLE_1
 73
     1
 44
1.0
  0
HATCH
  5
330
330
E3
100
AcDbEntity
  8
Des_ Walls
  6
Continuous
 62
   255
370
     0
100
AcDbHatch
 10
0.0
 20
0.0
 30
0.0
210
0.0
220
0.0
230
1.0
  2
SOLID
 70
     1
 71
     0
 91
        1
 92
        3
 72
     0
 73
     1
 93
        8
 10
192.4662768258326
 20
27.49070178389263
 10
192.4662768258326
 20
21.25715288650251
 10
239.0449924705297
 20
21.25715288650251
 10
239.0449924705297
 20
27.49070178389263
 10
217.7556314995719
 20
27.49070178389263
 10
216.4223002653114
 20
21.49070093382154
 10
215.0889649126914
 20
33.49070263396371
 10
213.7556336784308
 20
27.49070178389263
 97
        0
 75
     0
 76
     1
 98
        0
  0
LINE
  5
331
330
E3
100
AcDbEntity
  8
Des_ Walls
  6
Continuous
100
AcDbLine
 10
192.4662768258326
 20
27.4907038404786
 30
0.0
 11
213.7556336784308
 21
27.4907038404786
 31
0.0
  0
LINE
  5
332
330
E3
100
AcDbEntity
  8
Des_ Walls
  6
Continuous
100
AcDbLine
 10
217.7556314995719
 20
27.4907038404786
 30
0.0
 11
239.0449924705297
 21
27.4907038404786
 31
0.0
  0
LINE
  5
333
330
E3
100
AcDbEntity
  8
Des_ Walls
  6
Continuous
100
AcDbLine
 10
217.7556314995719
 20
27.4907038404786
 30
0.0
 11
216.4223002653114
 21
21.49070299040751
 31
0.0
  0
LINE
  5
334
330
E3
100
AcDbEntity
  8
Des_ Walls
  6
Continuous
100
AcDbLine
 10
216.4223002653114
 20
21.49070299040751
 30
0.0
 11
215.0889649126914
 21
33.49070057219021
 31
0.0
  0
LINE
  5
335
330
E3
100
AcDbEntity
  8
Des_ Walls
  6
Continuous
100
AcDbLine
 10
215.0889649126914
 20
33.49070057219021
 30
0.0
 11
213.7556336784308
 21
27.4907038404786
 31
0.0
  0
HATCH
  5
336
330
E3
100
AcDbEntity
  8
Des_ Walls
  6
Continuous
 62
   255
370
     0
100
AcDbHatch
 10
0.0
 20
0.0
 30
0.0
210
0.0
220
0.0
230
1.0
  2
SOLID
 70
     1
 71
     0
 91
        1
 92
        3
 72
     0
 73
     1
 93
        8
 10
192.4662768258326
 20
183.9394170884828
 10
213.7556336784308
 20
183.9394170884828
 10
215.0889649126914
 20
189.9394179385539
 10
216.4223002653114
 20
177.9394162384118
 10
217.7556314995719
 20
183.9394170884828
 10
239.0449924705297
 20
183.9394170884828
 10
239.0449924705297
 20
205.4778770321273
 10
192.4662768258326
 20
205.4778770321273
 97
        0
 75
     0
 76
     1
 98
        0
  0
LINE
  5
337
330
E3
100
AcDbEntity
  8
Des_ Walls
  6
Continuous
100
AcDbLine
 10
192.4662768258326
 20
183.9394170884828
 30
0.0
 11
213.7556336784308
 21
183.9394170884828
 31
0.0
  0
LINE
  5
338
330
E3
100
AcDbEntity
  8
Des_ Walls
  6
Continuous
100
AcDbLine
 10
217.7556314995719
 20
183.9394170884828
 30
0.0
 11
239.0449924705297
 21
183.9394170884828
 31
0.0
  0
LINE
  5
339
330
E3
100
AcDbEntity
  8
Des_ Walls
  6
Continuous
100
AcDbLine
 10
217.7556314995719
 20
183.9394170884828
 30
0.0
 11
216.4223002653114
 21
177.9394162384118
 31
0.0
  0
LINE
  5
33A
330
E3
100
AcDbEntity
  8
Des_ Walls
  6
Continuous
100
AcDbLine
 10
216.4223002653114
 20
177.9394162384118
 30
0.0
 11
215.0889649126914
 21
189.9394179385539
 31
0.0
  0
LINE
  5
33B
330
E3
100
AcDbEntity
  8
Des_ Walls
  6
Continuous
100
AcDbLine
 10
215.0889649126914
 20
189.9394179385539
 30
0.0
 11
213.7556336784308
 21
183.9394170884828
 31
0.0
  0
MTEXT
  5
33C
330
E3
100
AcDbEntity
  8
Doc_ Floor
  6
Continuous
100
AcDbMText
 10
94.39215787029997
 20
71.49271586764148
 30
0.0
 40
2.5
 41
0.0
 71
     6
 72
     1
  1
{STRUCTURAL STEEL}
  7
GENERATED_STYLE_1
 73
     1
 44
1.0
  0
LINE
  5
33D
330
E3
100
AcDbEntity
  8
Doc_ Floor
  6
Continuous
100
AcDbLine
 10
139.1659084374386
 20
71.51153524539853
 30
0.0
 11
135.4338593202894
 21
70.51153579011329
 31
0.0
  0
LINE
  5
33E
330
E3
100
AcDbEntity
  8
Doc_ Floor
  6
Continuous
100
AcDbLine
 10
139.1659084374386
 20
71.51153524539853
 30
0.0
 11
135.4338593202894
 21
72.51153470068382
 31
0.0
  0
LINE
  5
33F
330
E3
100
AcDbEntity
  8
Doc_ Floor
  6
Continuous
100
AcDbLine
 10
135.4338593202894
 20
70.51153579011329
 30
0.0
 11
135.4338593202894
 21
72.51153470068382
 31
0.0
  0
LWPOLYLINE
  5
340
330
E3
100
AcDbEntity
  8
Doc_ Floor
  6
Continuous
100
AcDbPolyline
 90
        2
 70
   128
 43
0.0
 10
135.433859367533
 20
71.51153634225909
 10
95.39215787030031
 20
71.51153634225909
  0
MTEXT
  5
341
330
E3
100
AcDbEntity
  8
Doc_ Floor
  6
Continuous
100
AcDbMText
 10
94.83043078714948
 20
138.2854316600141
 30
0.0
 40
2.5
 41
70.68559489308468
 71
     6
 72
     1
  1
{BMT 0.55 APRON FLASHING NOTCHED TURN-DOWN OVER ROOFING, 5mm GAP MAX TO CLEAR OF TROUGH OR ROOFING}
  7
GENERATED_STYLE_1
 73
     1
 44
1.065340909090909
  0
LINE
  5
342
330
E3
100
AcDbEntity
  8
Doc_ Floor
  6
Continuous
100
AcDbLine
 10
152.9483237621473
 20
125.1957141448207
 30
0.0
 11
149.1287965714452
 21
125.7783055125021
 31
0.0
  0
LINE
  5
343
330
E3
100
AcDbEntity
  8
Doc_ Floor
  6
Continuous
100
AcDbLine
 10
152.9483237621473
 20
125.1957141448207
 30
0.0
 11
149.9318107748072
 21
127.6100158999529
 31
0.0
  0
LINE
  5
344
330
E3
100
AcDbEntity
  8
Doc_ Floor
  6
Continuous
100
AcDbLine
 10
149.1287965714452
 20
125.7783055125021
 30
0.0
 11
149.9318107748072
 21
127.6100158999529
 31
0.0
  0
LWPOLYLINE
  5
345
330
E3
100
AcDbEntity
  8
Doc_ Floor
  6
Continuous
100
AcDbPolyline
 90
        9
 70
   128
 43
0.0
 10
149.5303030032892
 20
126.6941598180841
 10
142.2473695412591
 20
129.6819317307629
 10
135.4119820216075
 20
132.1653927383269
 10
128.8818602495756
 20
134.1771959863519
 10
122.5147240304044
 20
135.749994620414
 10
116.1682931693351
 20
136.9164417860893
 10
109.7002874716088
 20
137.7091906289537
 10
102.9684267424667
 20
138.1608942945833
 10
95.83043078714981
 20
138.304205928554
  0
MTEXT
  5
346
330
E3
100
AcDbEntity
  8
Doc_ Floor
  6
Continuous
100
AcDbMText
 10
95.31266141505768
 20
107.7627917432744
 30
0.0
 40
2.5
 41
63.74107021605325
 71
     6
 72
     1
  1
{ROOFING UNDERLAY LAID OVER SAFETY NETTING}
  7
GENERATED_STYLE_1
 73
     1
 44
1.070162922071087
  0
LINE
  5
347
330
E3
100
AcDbEntity
  8
Doc_ Floor
  6
Continuous
100
AcDbLine
 10
132.4138663191952
 20
119.1460005775585
 30
0.0
 11
130.8932485695688
 21
115.5941090955284
 31
0.0
  0
LINE
  5
348
330
E3
100
AcDbEntity
  8
Doc_ Floor
  6
Continuous
100
AcDbLine
 10
132.4138663191952
 20
119.1460005775585
 30
0.0
 11
129.3210277757536
 21
116.8302841114761
 31
0.0
  0
LINE
  5
349
330
E3
100
AcDbEntity
  8
Doc_ Floor
  6
Continuous
100
AcDbLine
 10
130.8932485695688
 20
115.5941090955284
 30
0.0
 11
129.3210277757536
 21
116.8302841114761
 31
0.0
  0
LWPOLYLINE
  5
34A
330
E3
100
AcDbEntity
  8
Doc_ Floor
  6
Continuous
100
AcDbPolyline
 90
       13
 70
   128
 43
0.0
 10
130.1071387459506
 20
116.2121959324876
 10
128.971996134201
 20
115.0867252268114
 10
127.7479277528096
 20
114.0540767098981
 10
126.4260744889444
 20
113.1114615993725
 10
124.9975772297735
 20
112.2560911128593
 10
123.4535768624649
 20
111.4851764679835
 10
121.7852142741869
 20
110.7959288823696
 10
119.9836303521074
 20
110.1855595736427
 10
118.0399659833944
 20
109.6512797594273
 10
113.6909594547406
 20
108.7998334850307
 10
108.6673217855702
 20
108.219279800178
 10
102.8981800732276
 20
107.8873084458677
 10
96.31266141505756
 20
107.7816091630979
  0
MTEXT
  5
34B
330
E3
100
AcDbEntity
  8
Doc_ Floor
  6
Continuous
100
AcDbMText
 10
94.69860725948908
 20
155.6835114438819
 30
0.0
 40
2.5
 41
63.74107021605325
 71
     6
 72
     1
  1
{SCREW FIXING WITH 12x55 STEEL TEK & NEO WITH SELECTED WASHER SYSTEM}
  7
GENERATED_STYLE_1
 73
     1
 44
1.070162922071087
  0
LINE
  5
34C
330
E3
100
AcDbEntity
  8
Doc_ Floor
  6
Continuous
100
AcDbLine
 10
167.6056763200434
 20
132.4224713227261
 30
0.0
 11
163.8280740287702
 21
133.2335986942487
 31
0.0
  0
LINE
  5
34D
330
E3
100
AcDbEntity
  8
Doc_ Floor
  6
Continuous
100
AcDbLine
 10
167.6056763200434
 20
132.4224713227261
 30
0.0
 11
164.7397429100919
 21
135.0137307476674
 31
0.0
  0
LINE
  5
34E
330
E3
100
AcDbEntity
  8
Doc_ Floor
  6
Continuous
100
AcDbLine
 10
163.8280740287702
 20
133.2335986942487
 30
0.0
 11
164.7397429100919
 21
135.0137307476674
 31
0.0
  0
LWPOLYLINE
  5
34F
330
E3
100
AcDbEntity
  8
Doc_ Floor
  6
Continuous
100
AcDbPolyline
 90
       15
 70
   128
 43
0.0
 10
164.2839094722362
 20
134.123665066505
 10
153.0205888401989
 20
139.6844839918907
 10
142.9066175054895
 20
144.3039021318621
 10
138.2211483297577
 20
146.2798455858092
 10
133.7516290845076
 20
148.0435504575927
 10
129.4742639717893
 20
149.6027206186094
 10
125.3652571936526
 20
150.9650599402559
 10
121.4008129521475
 20
152.138272293929
 10
117.5571354493238
 20
153.1300615510253
 10
113.8104288872316
 20
153.9481315829415
 10
110.1368974679207
 20
154.6001862610743
 10
106.5127453934412
 20
155.0939294568204
 10
102.9141768658428
 20
155.4370650415765
 10
99.31739608717558
 20
155.6372968867393
 10
95.69860725948942
 20
155.7023288637054
  0
ENDBLK
  5
E5
330
E3
100
AcDbEntity
  8
0
100
AcDbBlockEnd
  0
BLOCK
  5
355
330
354
100
AcDbEntity
  8
0
100
AcDbBlockBegin
  2
C-TRS9-06 APRON DETAIL - HEAD -_STORY_MARKER
 70
     0
 10
0.0
 20
0.0
 30
0.0
  3
C-TRS9-06 APRON DETAIL - HEAD -_STORY_MARKER
  1

  0
ENDBLK
  5
356
330
354
100
AcDbEntity
  8
0
100
AcDbBlockEnd
  0
ENDSEC
  0
SECTION
  2
ENTITIES
  0
HATCH
  5
3F
330
1F
100
AcDbEntity
  8
Doc_ Finishes
  6
Continuous
100
AcDbHatch
 10
0.0
 20
0.0
 30
0.0
210
0.0
220
0.0
230
1.0
  2
SOLID
 70
     1
 71
     0
 91
        1
 92
        3
 72
     0
 73
     1
 93
       54
 10
25.4117749414874
 20
16.87044408857867
 10
24.89356552397386
 20
16.5825499677378
 10
24.5480925789648
 20
16.29465584689693
 10
24.12584786839818
 20
16.02595466744544
 10
23.76118198199976
 20
15.60370995687884
 10
23.39651609560134
 20
15.33500877742737
 10
23.07023609198168
 20
14.89357112547136
 10
22.49444785029994
 20
14.45213347351537
 10
21.93785255000758
 20
14.02988876294876
 10
21.43883607388343
 20
13.81876640766546
 10
20.74789018386533
 20
13.39652169709885
 10
20.09533017662603
 20
12.99346992792163
 10
19.63469958328064
 20
12.55203227596564
 10
18.90536781048376
 20
12.12978756539902
 10
18.59828074825351
 20
11.7459287376112
 10
18.04168544796116
 20
11.28529814426581
 10
17.36993249933246
 20
10.8630534336992
 10
16.73656543348255
 20
10.42161578174319
 10
16.04561954346446
 20
10.15291460229172
 10
15.1051654153843
 20
9.692284008946325
 10
14.39502658397681
 20
9.020531060317637
 10
13.83843128368446
 20
8.598286349751023
 10
13.12829245227699
 20
8.137655756405634
 10
12.84039833143612
 20
7.98411222529051
 10
12.37976773809073
 20
7.81137575278599
 10
12.07268067586046
 20
7.523481631945121
 10
12.0151018516923
 20
7.216394569714853
 10
12.14945244141803
 20
6.890114566095209
 10
12.4373465622589
 20
6.563834562475543
 10
12.8787842142149
 20
6.659799269422514
 10
13.51215128006482
 20
7.06285103859973
 10
14.01116775618899
 20
7.389131042219374
 10
14.33744775980864
 20
7.696218104449641
 10
14.51018423231316
 20
7.907340459732938
 10
15.01303929671522
 20
8.421711288968723
 10
15.33548071205699
 20
8.652026585641417
 10
15.75004824606785
 20
8.99749953065046
 10
16.14158425041142
 20
9.204783297655894
 10
17.24709767444037
 20
9.75754000967037
 10
18.23745345013295
 20
10.47151742935572
 10
19.4120614631637
 20
11.1624633193738
 10
19.84966052684182
 20
11.64612544238645
 10
20.49454335752537
 20
12.06069297639732
 10
21.78430901889248
 20
12.9819541630881
 10
22.36009726057419
 20
13.25833251909534
 10
23.6498629219413
 20
14.24868829478776
 10
23.85714668894673
 20
14.64022429913134
 10
24.68628175696843
 20
15.23904407048036
 10
25.28510152831745
 20
15.72270619349301
 10
25.81482671066464
 20
16.1142421978366
 10
26.27545730401003
 20
16.52880973184745
 10
26.22939424467549
 20
16.7821565581874
 10
26.09120506667188
 20
16.89731420652375
 10
25.56147988432467
 20
16.89731420652375
 97
        0
 75
     0
 76
     1
 98
        0
  0
LINE
  5
41
330
1F
100
AcDbEntity
  8
Doc_ Finishes
  6
Continuous
100
AcDbLine
 10
25.41177616050354
 20
16.87044600708104
 30
0.0
 11
24.89356363099921
 21
16.58254868214004
 31
0.0
  0
LINE
  5
42
330
1F
100
AcDbEntity
  8
Doc_ Finishes
  6
Continuous
100
AcDbLine
 10
24.89356363099921
 20
16.58254868214004
 30
0.0
 11
24.54809303697876
 21
16.29465578284815
 31
0.0
  0
LINE
  5
43
330
1F
100
AcDbEntity
  8
Doc_ Finishes
  6
Continuous
100
AcDbLine
 10
24.54809303697876
 20
16.29465578284815
 30
0.0
 11
24.12584628245476
 21
16.02595249803305
 31
0.0
  0
LINE
  5
44
330
1F
100
AcDbEntity
  8
Doc_ Finishes
  6
Continuous
100
AcDbLine
 10
24.12584628245476
 20
16.02595249803305
 30
0.0
 11
23.76118164830842
 21
15.60371016915814
 31
0.0
  0
LINE
  5
45
330
1F
100
AcDbEntity
  8
Doc_ Finishes
  6
Continuous
100
AcDbLine
 10
23.76118164830842
 20
15.60371016915814
 30
0.0
 11
23.39651701416208
 21
15.33500688434304
 31
0.0
  0
LINE
  5
46
330
1F
100
AcDbEntity
  8
Doc_ Finishes
  6
Continuous
100
AcDbLine
 10
23.39651701416208
 20
15.33500688434304
 30
0.0
 11
23.07023603461841
 21
14.89357051534225
 31
0.0
  0
LINE
  5
47
330
1F
100
AcDbEntity
  8
Doc_ Finishes
  6
Continuous
100
AcDbLine
 10
23.07023603461841
 20
14.89357051534225
 30
0.0
 11
22.49444581038552
 21
14.45213414634146
 31
0.0
  0
LINE
  5
48
330
1F
100
AcDbEntity
  8
Doc_ Finishes
  6
Continuous
100
AcDbLine
 10
22.49444581038552
 20
14.45213414634146
 30
0.0
 11
21.93785405192762
 21
14.02988739181747
 31
0.0
  0
LINE
  5
49
330
1F
100
AcDbEntity
  8
Doc_ Finishes
  6
Continuous
100
AcDbLine
 10
21.93785405192762
 20
14.02988739181747
 30
0.0
 11
21.43883556254917
 21
13.81876622738001
 31
0.0
  0
LINE
  5
4A
330
1F
100
AcDbEntity
  8
Doc_ Finishes
  6
Continuous
100
AcDbLine
 10
21.43883556254917
 20
13.81876622738001
 30
0.0
 11
20.74788994885916
 21
13.39652389850511
 31
0.0
  0
LINE
  5
4B
330
1F
100
AcDbEntity
  8
Doc_ Finishes
  6
Continuous
100
AcDbLine
 10
20.74788994885916
 20
13.39652389850511
 30
0.0
 11
20.09532798977183
 21
12.993471184107
 31
0.0
  0
LINE
  5
4C
330
1F
100
AcDbEntity
  8
Doc_ Finishes
  6
Continuous
100
AcDbLine
 10
20.09532798977183
 20
12.993471184107
 30
0.0
 11
19.63469758064516
 21
12.55203038945712
 31
0.0
  0
LINE
  5
4D
330
1F
100
AcDbEntity
  8
Doc_ Finishes
  6
Continuous
100
AcDbLine
 10
19.63469758064516
 20
12.55203038945712
 30
0.0
 11
18.90536831235248
 21
12.12978806058222
 31
0.0
  0
LINE
  5
4E
330
1F
100
AcDbEntity
  8
Doc_ Finishes
  6
Continuous
100
AcDbLine
 10
18.90536831235248
 20
12.12978806058222
 30
0.0
 11
18.5982813729347
 21
11.74592938630999
 31
0.0
  0
LINE
  5
4F
330
1F
100
AcDbEntity
  8
Doc_ Finishes
  6
Continuous
100
AcDbLine
 10
18.5982813729347
 20
11.74592938630999
 30
0.0
 11
18.0416851888277
 21
11.28529897718332
 31
0.0
  0
LINE
  5
50
330
1F
100
AcDbEntity
  8
Doc_ Finishes
  6
Continuous
100
AcDbLine
 10
18.0416851888277
 20
11.28529897718332
 30
0.0
 11
17.36993361526357
 21
10.86305222265932
 31
0.0
  0
LINE
  5
51
330
1F
100
AcDbEntity
  8
Doc_ Finishes
  6
Continuous
100
AcDbLine
 10
17.36993361526357
 20
10.86305222265932
 30
0.0
 11
16.73656569630212
 21
10.42161585365854
 31
0.0
  0
LINE
  5
52
330
1F
100
AcDbEntity
  8
Doc_ Finishes
  6
Continuous
100
AcDbLine
 10
16.73656569630212
 20
10.42161585365854
 30
0.0
 11
16.04562008261211
 21
10.15291256884343
 31
0.0
  0
LINE
  5
53
330
1F
100
AcDbEntity
  8
Doc_ Finishes
  6
Continuous
100
AcDbLine
 10
16.04562008261211
 20
10.15291256884343
 30
0.0
 11
15.10516522423289
 21
9.692282159716758
 31
0.0
  0
LINE
  5
54
330
1F
100
AcDbEntity
  8
Doc_ Finishes
  6
Continuous
100
AcDbLine
 10
15.10516522423289
 20
9.692282159716758
 30
0.0
 11
14.39502557041699
 21
9.020530586152635
 31
0.0
  0
LINE
  5
55
330
1F
100
AcDbEntity
  8
Doc_ Finishes
  6
Continuous
100
AcDbLine
 10
14.39502557041699
 20
9.020530586152635
 30
0.0
 11
13.83842938630999
 21
8.598288257277733
 31
0.0
  0
LINE
  5
56
330
1F
100
AcDbEntity
  8
Doc_ Finishes
  6
Continuous
100
AcDbLine
 10
13.83842938630999
 20
8.598288257277733
 30
0.0
 11
13.12829415814319
 21
8.137657848151063
 31
0.0
  0
LINE
  5
57
330
1F
100
AcDbEntity
  8
Doc_ Finishes
  6
Continuous
100
AcDbLine
 10
13.12829415814319
 20
8.137657848151063
 30
0.0
 11
12.8403968332022
 21
7.984114378442171
 31
0.0
  0
LINE
  5
58
330
1F
100
AcDbEntity
  8
Doc_ Finishes
  6
Continuous
100
AcDbLine
 10
12.8403968332022
 20
7.984114378442171
 30
0.0
 11
12.37976642407553
 21
7.811376868607396
 31
0.0
  0
LINE
  5
59
330
1F
100
AcDbEntity
  8
Doc_ Finishes
  6
Continuous
100
AcDbLine
 10
12.37976642407553
 20
7.811376868607396
 30
0.0
 11
12.07267948465775
 21
7.523479543666405
 31
0.0
  0
LINE
  5
5A
330
1F
100
AcDbEntity
  8
Doc_ Finishes
  6
Continuous
100
AcDbLine
 10
12.07267948465775
 20
7.523479543666405
 30
0.0
 11
12.01510178992919
 21
7.216392604248622
 31
0.0
  0
LINE
  5
5B
330
1F
100
AcDbEntity
  8
Doc_ Finishes
  6
Continuous
100
AcDbLine
 10
12.01510178992919
 20
7.216392604248622
 30
0.0
 11
12.1494512195122
 21
6.890116050354051
 31
0.0
  0
LINE
  5
5C
330
1F
100
AcDbEntity
  8
Doc_ Finishes
  6
Continuous
100
AcDbLine
 10
12.1494512195122
 20
6.890116050354051
 30
0.0
 11
12.43734854445319
 21
6.563835070810386
 31
0.0
  0
LINE
  5
5D
330
1F
100
AcDbEntity
  8
Doc_ Finishes
  6
Continuous
100
AcDbLine
 10
12.43734854445319
 20
6.563835070810386
 30
0.0
 11
12.87878491345397
 21
6.659800845790715
 31
0.0
  0
LINE
  5
5E
330
1F
100
AcDbEntity
  8
Doc_ Finishes
  6
Continuous
100
AcDbLine
 10
12.87878491345397
 20
6.659800845790715
 30
0.0
 11
13.51215283241542
 21
7.062849134539732
 31
0.0
  0
LINE
  5
5F
330
1F
100
AcDbEntity
  8
Doc_ Finishes
  6
Continuous
100
AcDbLine
 10
13.51215283241542
 20
7.062849134539732
 30
0.0
 11
14.01116689614477
 21
7.389130114083398
 31
0.0
  0
LINE
  5
60
330
1F
100
AcDbEntity
  8
Doc_ Finishes
  6
Continuous
100
AcDbLine
 10
14.01116689614477
 20
7.389130114083398
 30
0.0
 11
14.33744787568843
 21
7.69621705350118
 31
0.0
  0
LINE
  5
61
330
1F
100
AcDbEntity
  8
Doc_ Finishes
  6
Continuous
100
AcDbLine
 10
14.33744787568843
 20
7.69621705350118
 30
0.0
 11
14.51018538552321
 21
7.907342643587726
 31
0.0
  0
LINE
  5
62
330
1F
100
AcDbEntity
  8
Doc_ Finishes
  6
Continuous
100
AcDbLine
 10
14.51018538552321
 20
7.907342643587726
 30
0.0
 11
15.01304091266719
 21
8.421709284028323
 31
0.0
  0
LINE
  5
63
330
1F
100
AcDbEntity
  8
Doc_ Finishes
  6
Continuous
100
AcDbLine
 10
15.01304091266719
 20
8.421709284028323
 30
0.0
 11
15.33548042879622
 21
8.65202448859166
 31
0.0
  0
LINE
  5
64
330
1F
100
AcDbEntity
  8
Doc_ Finishes
  6
Continuous
100
AcDbLine
 10
15.33548042879622
 20
8.65202448859166
 30
0.0
 11
15.75004868214005
 21
8.997499508261212
 31
0.0
  0
LINE
  5
65
330
1F
100
AcDbEntity
  8
Doc_ Finishes
  6
Continuous
100
AcDbLine
 10
15.75004868214005
 20
8.997499508261212
 30
0.0
 11
16.14158585759245
 21
9.204783634933122
 31
0.0
  0
LINE
  5
66
330
1F
100
AcDbEntity
  8
Doc_ Finishes
  6
Continuous
100
AcDbLine
 10
16.14158585759245
 20
9.204783634933122
 30
0.0
 11
17.24709972462628
 21
9.75753835562549
 31
0.0
  0
LINE
  5
67
330
1F
100
AcDbEntity
  8
Doc_ Finishes
  6
Continuous
100
AcDbLine
 10
17.24709972462628
 20
9.75753835562549
 30
0.0
 11
18.2374537765539
 21
10.47151947285602
 31
0.0
  0
LINE
  5
68
330
1F
100
AcDbEntity
  8
Doc_ Finishes
  6
Continuous
100
AcDbLine
 10
18.2374537765539
 20
10.47151947285602
 30
0.0
 11
19.41206087726199
 21
11.16246508654602
 31
0.0
  0
LINE
  5
69
330
1F
100
AcDbEntity
  8
Doc_ Finishes
  6
Continuous
100
AcDbLine
 10
19.41206087726199
 20
11.16246508654602
 30
0.0
 11
19.84966020849724
 21
11.64612657356412
 31
0.0
  0
LINE
  5
6A
330
1F
100
AcDbEntity
  8
Doc_ Finishes
  6
Continuous
100
AcDbLine
 10
19.84966020849724
 20
11.64612657356412
 30
0.0
 11
20.4945436664044
 21
12.06069482690795
 31
0.0
  0
LINE
  5
6B
330
1F
100
AcDbEntity
  8
Doc_ Finishes
  6
Continuous
100
AcDbLine
 10
20.4945436664044
 20
12.06069482690795
 30
0.0
 11
21.78431058221873
 21
12.98195564516129
 31
0.0
  0
LINE
  5
6C
330
1F
100
AcDbEntity
  8
Doc_ Finishes
  6
Continuous
100
AcDbLine
 10
21.78431058221873
 20
12.98195564516129
 30
0.0
 11
22.36009638080252
 21
13.25833300550747
 31
0.0
  0
LINE
  5
6D
330
1F
100
AcDbEntity
  8
Doc_ Finishes
  6
Continuous
100
AcDbLine
 10
22.36009638080252
 20
13.25833300550747
 30
0.0
 11
23.64986329661684
 21
14.24868705743509
 31
0.0
  0
LINE
  5
6E
330
1F
100
AcDbEntity
  8
Doc_ Finishes
  6
Continuous
100
AcDbLine
 10
23.64986329661684
 20
14.24868705743509
 30
0.0
 11
23.85714742328875
 21
14.64022423288749
 31
0.0
  0
LINE
  5
6F
330
1F
100
AcDbEntity
  8
Doc_ Finishes
  6
Continuous
100
AcDbLine
 10
23.85714742328875
 20
14.64022423288749
 30
0.0
 11
24.68628392997639
 21
15.2390455350118
 31
0.0
  0
LINE
  5
70
330
1F
100
AcDbEntity
  8
Doc_ Finishes
  6
Continuous
100
AcDbLine
 10
24.68628392997639
 20
15.2390455350118
 30
0.0
 11
25.28510080645161
 21
15.7227070220299
 31
0.0
  0
LINE
  5
71
330
1F
100
AcDbEntity
  8
Doc_ Finishes
  6
Continuous
100
AcDbLine
 10
25.28510080645161
 20
15.7227070220299
 30
0.0
 11
25.81482887490165
 21
16.1142441974823
 31
0.0
  0
LINE
  5
72
330
1F
100
AcDbEntity
  8
Doc_ Finishes
  6
Continuous
100
AcDbLine
 10
25.81482887490165
 20
16.1142441974823
 30
0.0
 11
26.27545928402832
 21
16.52880802517702
 31
0.0
  0
LINE
  5
73
330
1F
100
AcDbEntity
  8
Doc_ Finishes
  6
Continuous
100
AcDbLine
 10
26.27545928402832
 20
16.52880802517702
 30
0.0
 11
26.22939270259638
 21
16.78215873328088
 31
0.0
  0
LINE
  5
74
330
1F
100
AcDbEntity
  8
Doc_ Finishes
  6
Continuous
100
AcDbLine
 10
26.22939270259638
 20
16.78215873328088
 30
0.0
 11
26.09120623524784
 21
16.897314122738
 31
0.0
  0
LINE
  5
75
330
1F
100
AcDbEntity
  8
Doc_ Finishes
  6
Continuous
100
AcDbLine
 10
26.09120623524784
 20
16.897314122738
 30
0.0
 11
25.56147816679779
 21
16.897314122738
 31
0.0
  0
LINE
  5
76
330
1F
100
AcDbEntity
  8
Doc_ Finishes
  6
Continuous
100
AcDbLine
 10
25.56147816679779
 20
16.897314122738
 30
0.0
 11
25.41177616050354
 21
16.87044600708104
 31
0.0
  0
HATCH
  5
77
330
1F
100
AcDbEntity
  8
Doc_ Finishes
  6
Continuous
100
AcDbHatch
 10
0.0
 20
0.0
 30
0.0
210
0.0
220
0.0
230
1.0
  2
SOLID
 70
     1
 71
     0
 91
        1
 92
        3
 72
     0
 73
     1
 93
       39
 10
25.65360600299377
 20
13.12014334109181
 10
25.21600693931564
 20
12.77467039608275
 10
24.54809257896482
 20
12.24494521373555
 10
23.92624127794851
 20
11.85340920939199
 10
23.32742150659951
 20
11.32368402704478
 10
22.72860173525051
 20
11.04730567103754
 10
22.08371890456697
 20
10.56364354802488
 10
21.62308831122158
 20
10.33332825135219
 10
21.231552306878
 20
10.03391836567767
 10
20.81698477286715
 20
9.619350831666825
 10
20.4024172388563
 20
9.38903553499415
 10
19.91875511584363
 20
9.043562589985086
 10
19.66540828950367
 20
8.859310352646935
 10
19.25084075549282
 20
8.582931996639696
 10
18.09926427212933
 20
7.753796928618002
 10
17.75379132712029
 20
7.477418572610764
 10
17.2931607337749
 20
7.316197864939873
 10
17.22406614477309
 20
6.993756449598113
 10
17.3622553227767
 20
6.717378093590874
 10
17.63863367878394
 20
6.602220445254527
 10
18.00713815346025
 20
6.8325357419272
 10
18.26048497980021
 20
7.131945627601722
 10
18.55989486547472
 20
7.362260924274415
 10
19.31993534449462
 20
7.707733869283458
 10
19.84966052684182
 20
8.122301403294307
 10
20.88607936186895
 20
8.882341882314256
 10
21.20852077721072
 20
9.342972475659646
 10
22.01462431556515
 20
9.734508480003234
 10
22.5673810275796
 20
10.05694989534501
 10
23.46561068460312
 20
10.60970660735953
 10
23.88017821861399
 20
11.07033720070492
 10
24.31777728229212
 20
11.34671555671216
 10
24.70931328663568
 20
11.30065249737762
 10
25.21600693931562
 20
11.55399932371759
 10
26.0681735370046
 20
12.17585062473387
 10
26.41364648201364
 20
12.49829204007566
 10
26.39061495234636
 20
12.77467039608289
 10
26.22939424467547
 20
13.00498569275559
 10
26.04514200733731
 20
13.05104875209013
 97
        0
 75
     0
 76
     1
 98
        0
  0
LINE
  5
78
330
1F
100
AcDbEntity
  8
Doc_ Finishes
  6
Continuous
100
AcDbLine
 10
25.65360690401259
 20
13.12014211250983
 30
0.0
 11
25.21600757277734
 21
12.77467151848938
 31
0.0
  0
LINE
  5
79
330
1F
100
AcDbEntity
  8
Doc_ Finishes
  6
Continuous
100
AcDbLine
 10
25.21600757277734
 20
12.77467151848938
 30
0.0
 11
24.54809303697876
 21
12.24494345003934
 31
0.0
  0
LINE
  5
7A
330
1F
100
AcDbEntity
  8
Doc_ Finishes
  6
Continuous
100
AcDbLine
 10
24.54809303697876
 20
12.24494345003934
 30
0.0
 11
23.92624065696302
 21
11.85341070023603
 31
0.0
  0
LINE
  5
7B
330
1F
100
AcDbEntity
  8
Doc_ Finishes
  6
Continuous
100
AcDbLine
 10
23.92624065696302
 20
11.85341070023603
 30
0.0
 11
23.32741935483871
 21
11.32368263178599
 31
0.0
  0
LINE
  5
7C
330
1F
100
AcDbEntity
  8
Doc_ Finishes
  6
Continuous
100
AcDbLine
 10
23.32741935483871
 20
11.32368263178599
 30
0.0
 11
22.72860247836349
 21
11.04730527143981
 31
0.0
  0
LINE
  5
7D
330
1F
100
AcDbEntity
  8
Doc_ Finishes
  6
Continuous
100
AcDbLine
 10
22.72860247836349
 20
11.04730527143981
 30
0.0
 11
22.08371902045633
 21
10.56364378442171
 31
0.0
  0
LINE
  5
7E
330
1F
100
AcDbEntity
  8
Doc_ Finishes
  6
Continuous
100
AcDbLine
 10
22.08371902045633
 20
10.56364378442171
 30
0.0
 11
21.62308861132966
 21
10.33332857985838
 31
0.0
  0
LINE
  5
7F
330
1F
100
AcDbEntity
  8
Doc_ Finishes
  6
Continuous
100
AcDbLine
 10
21.62308861132966
 20
10.33332857985838
 30
0.0
 11
21.23155143587726
 21
10.03392014162077
 31
0.0
  0
LINE
  5
80
330
1F
100
AcDbEntity
  8
Doc_ Finishes
  6
Continuous
100
AcDbLine
 10
21.23155143587726
 20
10.03392014162077
 30
0.0
 11
20.81698318253344
 21
9.619351888276947
 31
0.0
  0
LINE
  5
81
330
1F
100
AcDbEntity
  8
Doc_ Finishes
  6
Continuous
100
AcDbLine
 10
20.81698318253344
 20
9.619351888276947
 30
0.0
 11
20.40241935483871
 21
9.389036683713611
 31
0.0
  0
LINE
  5
82
330
1F
100
AcDbEntity
  8
Doc_ Finishes
  6
Continuous
100
AcDbLine
 10
20.40241935483871
 20
9.389036683713611
 30
0.0
 11
19.91875344217151
 21
9.04356166404406
 31
0.0
  0
LINE
  5
83
330
1F
100
AcDbEntity
  8
Doc_ Finishes
  6
Continuous
100
AcDbLine
 10
19.91875344217151
 20
9.04356166404406
 30
0.0
 11
19.66540715971676
 21
8.859308615263572
 31
0.0
  0
LINE
  5
84
330
1F
100
AcDbEntity
  8
Doc_ Finishes
  6
Continuous
100
AcDbLine
 10
19.66540715971676
 20
8.859308615263572
 30
0.0
 11
19.25083890637293
 21
8.582931254917387
 31
0.0
  0
LINE
  5
85
330
1F
100
AcDbEntity
  8
Doc_ Finishes
  6
Continuous
100
AcDbLine
 10
19.25083890637293
 20
8.582931254917387
 30
0.0
 11
18.09926288355625
 21
7.75379474822974
 31
0.0
  0
LINE
  5
86
330
1F
100
AcDbEntity
  8
Doc_ Finishes
  6
Continuous
100
AcDbLine
 10
18.09926288355625
 20
7.75379474822974
 30
0.0
 11
17.7537922895358
 21
7.477417387883556
 31
0.0
  0
LINE
  5
87
330
1F
100
AcDbEntity
  8
Doc_ Finishes
  6
Continuous
100
AcDbLine
 10
17.7537922895358
 20
7.477417387883556
 30
0.0
 11
17.29316188040913
 21
7.316199842643588
 31
0.0
  0
LINE
  5
88
330
1F
100
AcDbEntity
  8
Doc_ Finishes
  6
Continuous
100
AcDbLine
 10
17.29316188040913
 20
7.316199842643588
 30
0.0
 11
17.22406422108576
 21
6.993755900865461
 31
0.0
  0
LINE
  5
89
330
1F
100
AcDbEntity
  8
Doc_ Finishes
  6
Continuous
100
AcDbLine
 10
17.22406422108576
 20
6.993755900865461
 30
0.0
 11
17.3622551140834
 21
6.717378540519276
 31
0.0
  0
LINE
  5
8A
330
1F
100
AcDbEntity
  8
Doc_ Finishes
  6
Continuous
100
AcDbLine
 10
17.3622551140834
 20
6.717378540519276
 30
0.0
 11
17.63863247442958
 21
6.602218725413059
 31
0.0
  0
LINE
  5
8B
330
1F
100
AcDbEntity
  8
Doc_ Finishes
  6
Continuous
100
AcDbLine
 10
17.63863247442958
 20
6.602218725413059
 30
0.0
 11
18.00713857199056
 21
6.832533929976396
 31
0.0
  0
LINE
  5
8C
330
1F
100
AcDbEntity
  8
Doc_ Finishes
  6
Continuous
100
AcDbLine
 10
18.00713857199056
 20
6.832533929976396
 30
0.0
 11
18.26048485444532
 21
7.1319467938631
 31
0.0
  0
LINE
  5
8D
330
1F
100
AcDbEntity
  8
Doc_ Finishes
  6
Continuous
100
AcDbLine
 10
18.26048485444532
 20
7.1319467938631
 30
0.0
 11
18.55989329268293
 21
7.362261998426435
 31
0.0
  0
LINE
  5
8E
330
1F
100
AcDbEntity
  8
Doc_ Finishes
  6
Continuous
100
AcDbLine
 10
18.55989329268293
 20
7.362261998426435
 30
0.0
 11
19.3199365656963
 21
7.707732592446892
 31
0.0
  0
LINE
  5
8F
330
1F
100
AcDbEntity
  8
Doc_ Finishes
  6
Continuous
100
AcDbLine
 10
19.3199365656963
 20
7.707732592446892
 30
0.0
 11
19.84966020849724
 21
8.122300845790717
 31
0.0
  0
LINE
  5
90
330
1F
100
AcDbEntity
  8
Doc_ Finishes
  6
Continuous
100
AcDbLine
 10
19.84966020849724
 20
8.122300845790717
 30
0.0
 11
20.8860808418568
 21
8.882339693154996
 31
0.0
  0
LINE
  5
91
330
1F
100
AcDbEntity
  8
Doc_ Finishes
  6
Continuous
100
AcDbLine
 10
20.8860808418568
 20
8.882339693154996
 30
0.0
 11
21.20852035798584
 21
9.342974527930762
 31
0.0
  0
LINE
  5
92
330
1F
100
AcDbEntity
  8
Doc_ Finishes
  6
Continuous
100
AcDbLine
 10
21.20852035798584
 20
9.342974527930762
 30
0.0
 11
22.01462578678206
 21
9.734507277734066
 31
0.0
  0
LINE
  5
93
330
1F
100
AcDbEntity
  8
Doc_ Finishes
  6
Continuous
100
AcDbLine
 10
22.01462578678206
 20
9.734507277734066
 30
0.0
 11
22.56738050747443
 21
10.05695121951219
 31
0.0
  0
LINE
  5
94
330
1F
100
AcDbEntity
  8
Doc_ Finishes
  6
Continuous
100
AcDbLine
 10
22.56738050747443
 20
10.05695121951219
 30
0.0
 11
23.46561024783635
 21
10.60970594020456
 31
0.0
  0
LINE
  5
95
330
1F
100
AcDbEntity
  8
Doc_ Finishes
  6
Continuous
100
AcDbLine
 10
23.46561024783635
 20
10.60970594020456
 30
0.0
 11
23.88017850118017
 21
11.07033634933124
 31
0.0
  0
LINE
  5
96
330
1F
100
AcDbEntity
  8
Doc_ Finishes
  6
Continuous
100
AcDbLine
 10
23.88017850118017
 20
11.07033634933124
 30
0.0
 11
24.31777783241542
 21
11.34671370967742
 31
0.0
  0
LINE
  5
97
330
1F
100
AcDbEntity
  8
Doc_ Finishes
  6
Continuous
100
AcDbLine
 10
24.31777783241542
 20
11.34671370967742
 30
0.0
 11
24.70931500786781
 21
11.30065155389457
 31
0.0
  0
LINE
  5
98
330
1F
100
AcDbEntity
  8
Doc_ Finishes
  6
Continuous
100
AcDbLine
 10
24.70931500786781
 20
11.30065155389457
 30
0.0
 11
25.21600757277734
 21
11.55399783634933
 31
0.0
  0
LINE
  5
99
330
1F
100
AcDbEntity
  8
Doc_ Finishes
  6
Continuous
100
AcDbLine
 10
25.21600757277734
 20
11.55399783634933
 30
0.0
 11
26.06817515735641
 21
12.17585021636507
 31
0.0
  0
LINE
  5
9A
330
1F
100
AcDbEntity
  8
Doc_ Finishes
  6
Continuous
100
AcDbLine
 10
26.06817515735641
 20
12.17585021636507
 30
0.0
 11
26.41364575137687
 21
12.49829415814319
 31
0.0
  0
LINE
  5
9B
330
1F
100
AcDbEntity
  8
Doc_ Finishes
  6
Continuous
100
AcDbLine
 10
26.41364575137687
 20
12.49829415814319
 30
0.0
 11
26.39061467348544
 21
12.77467151848938
 31
0.0
  0
LINE
  5
9C
330
1F
100
AcDbEntity
  8
Doc_ Finishes
  6
Continuous
100
AcDbLine
 10
26.39061467348544
 20
12.77467151848938
 30
0.0
 11
26.22939270259638
 21
13.00498672305271
 31
0.0
  0
LINE
  5
9D
330
1F
100
AcDbEntity
  8
Doc_ Finishes
  6
Continuous
100
AcDbLine
 10
26.22939270259638
 20
13.00498672305271
 30
0.0
 11
26.04514407946499
 21
13.05104887883556
 31
0.0
  0
LINE
  5
9E
330
1F
100
AcDbEntity
  8
Doc_ Finishes
  6
Continuous
100
AcDbLine
 10
26.04514407946499
 20
13.05104887883556
 30
0.0
 11
25.65360690401259
 21
13.12014211250983
 31
0.0
  0
HATCH
  5
9F
330
1F
100
AcDbEntity
  8
Doc_ Finishes
  6
Continuous
100
AcDbHatch
 10
0.0
 20
0.0
 30
0.0
210
0.0
220
0.0
230
1.0
  2
SOLID
 70
     1
 71
     0
 91
        1
 92
        3
 72
     0
 73
     1
 93
       47
 10
26.06817353700455
 20
15.74573772316067
 10
26.30309513961077
 20
15.62136746295728
 10
26.4412843176144
 20
15.4002647781515
 10
26.93876535842742
 20
15.17916209334572
 10
27.82317609765057
 20
14.40530269652538
 10
28.9286895216795
 20
13.74199464210799
 10
29.59199757609689
 20
13.3827027792986
 10
30.20002995931278
 20
13.07868658769064
 10
31.55428390374827
 20
12.08372450606458
 10
32.07940278016201
 20
11.69679480765445
 10
32.88090001258301
 20
11.08876242443854
 10
33.59948373820179
 20
10.50836787682334
 10
34.5668079842271
 20
9.817421986805197
 10
35.06428902504011
 20
9.458130123995785
 10
35.81051058625965
 20
8.933011247582023
 10
36.61200781868061
 20
8.407892371168286
 10
36.77783483228498
 20
8.186789686362482
 10
37.38586721550091
 20
7.744584316750918
 10
38.18736444792187
 20
6.915449248729224
 10
38.7953968311378
 20
6.44560604351692
 10
39.56925622795804
 20
6.169227687509681
 10
40.23256428237543
 20
6.086314180707507
 10
40.48130480278193
 20
6.30741686551329
 10
40.14965077557326
 20
6.611433057121246
 10
39.48634272115586
 20
6.998362755531397
 10
38.76775899553708
 20
7.357654618340788
 10
38.18736444792187
 20
8.048600508358874
 10
36.99893751709078
 20
8.822459905179112
 10
36.47381864067705
 20
9.319940945992132
 10
36.22507812027052
 20
9.734508480003
 10
35.174840367443
 20
10.31490302761817
 10
34.73263499783144
 20
10.78474623283046
 10
34.2351539570184
 20
11.17167593124059
 10
33.48893239579888
 20
11.61388130085215
 10
32.85326217698223
 20
12.16663801286669
 10
32.35578113616918
 20
12.58120554687754
 10
31.69247308175183
 20
12.99577308088841
 10
31.22262987653952
 20
13.32742710809708
 10
30.7251488357265
 20
13.5761676285036
 10
29.93747052110587
 20
14.06443605744977
 10
29.43077686842594
 20
14.38687747279155
 10
28.92408321574601
 20
14.70931888813342
 10
28.62467333007151
 20
15.100854892477
 10
27.95675896972068
 20
15.67664313415887
 10
27.47309684670803
 20
15.9530214901661
 10
26.82821401602446
 20
16.36758902417695
 10
26.50577260068269
 20
16.22939984617334
 97
        0
 75
     0
 76
     1
 98
        0
  0
LINE
  5
A0
330
1F
100
AcDbEntity
  8
Doc_ Finishes
  6
Continuous
100
AcDbLine
 10
26.30309303697875
 20
15.62136850904799
 30
0.0
 11
26.06817515735641
 21
15.74573809992132
 31
0.0
  0
LINE
  5
A1
330
1F
100
AcDbEntity
  8
Doc_ Finishes
  6
Continuous
100
AcDbLine
 10
26.4412839299764
 20
15.40026308025177
 30
0.0
 11
26.30309303697875
 21
15.62136850904799
 31
0.0
  0
LINE
  5
A2
330
1F
100
AcDbEntity
  8
Doc_ Finishes
  6
Continuous
100
AcDbLine
 10
26.9387667191188
 20
15.17916207710464
 30
0.0
 11
26.4412839299764
 21
15.40026308025177
 31
0.0
  0
LINE
  5
A3
330
1F
100
AcDbEntity
  8
Doc_ Finishes
  6
Continuous
100
AcDbLine
 10
27.82317515735641
 20
14.40530192761605
 30
0.0
 11
26.9387667191188
 21
15.17916207710464
 31
0.0
  0
LINE
  5
A4
330
1F
100
AcDbEntity
  8
Doc_ Finishes
  6
Continuous
100
AcDbLine
 10
28.92868902439024
 20
13.74199449252557
 30
0.0
 11
27.82317515735641
 21
14.40530192761605
 31
0.0
  0
LINE
  5
A5
330
1F
100
AcDbEntity
  8
Doc_ Finishes
  6
Continuous
100
AcDbLine
 10
29.59199645948072
 20
13.3827025963808
 30
0.0
 11
28.92868902439024
 21
13.74199449252557
 31
0.0
  0
LINE
  5
A6
330
1F
100
AcDbEntity
  8
Doc_ Finishes
  6
Continuous
100
AcDbLine
 10
30.20003196302124
 20
13.07868705743509
 30
0.0
 11
29.59199645948072
 21
13.3827025963808
 31
0.0
  0
LINE
  5
A7
330
1F
100
AcDbEntity
  8
Doc_ Finishes
  6
Continuous
100
AcDbLine
 10
31.55428501180173
 20
12.08372590479937
 30
0.0
 11
30.20003196302124
 21
13.07868705743509
 31
0.0
  0
LINE
  5
A8
330
1F
100
AcDbEntity
  8
Doc_ Finishes
  6
Continuous
100
AcDbLine
 10
32.07940155389457
 20
11.69679583005508
 30
0.0
 11
31.55428501180173
 21
12.08372590479937
 31
0.0
  0
LINE
  5
A9
330
1F
100
AcDbEntity
  8
Doc_ Finishes
  6
Continuous
100
AcDbLine
 10
32.88089988198269
 20
11.08876032651456
 30
0.0
 11
32.07940155389457
 21
11.69679583005508
 31
0.0
  0
LINE
  5
AA
330
1F
100
AcDbEntity
  8
Doc_ Finishes
  6
Continuous
100
AcDbLine
 10
33.59948367427223
 20
10.50836742722266
 30
0.0
 11
32.88089988198269
 21
11.08876032651456
 31
0.0
  0
LINE
  5
AB
330
1F
100
AcDbEntity
  8
Doc_ Finishes
  6
Continuous
100
AcDbLine
 10
34.56680664830842
 20
9.817421813532652
 30
0.0
 11
33.59948367427223
 21
10.50836742722266
 31
0.0
  0
LINE
  5
AC
330
1F
100
AcDbEntity
  8
Doc_ Finishes
  6
Continuous
100
AcDbLine
 10
35.06428943745082
 20
9.458129917387884
 30
0.0
 11
34.56680664830842
 21
9.817421813532652
 31
0.0
  0
LINE
  5
AD
330
1F
100
AcDbEntity
  8
Doc_ Finishes
  6
Continuous
100
AcDbLine
 10
35.81051140833988
 20
8.933013375295044
 30
0.0
 11
35.06428943745082
 21
9.458129917387884
 31
0.0
  0
LINE
  5
AE
330
1F
100
AcDbEntity
  8
Doc_ Finishes
  6
Continuous
100
AcDbLine
 10
36.61200973642801
 20
8.407892407553108
 30
0.0
 11
35.81051140833988
 21
8.933013375295044
 31
0.0
  0
LINE
  5
AF
330
1F
100
AcDbEntity
  8
Doc_ Finishes
  6
Continuous
100
AcDbLine
 10
36.77783438237608
 20
8.18679140440598
 30
0.0
 11
36.61200973642801
 21
8.407892407553108
 31
0.0
  0
LINE
  5
B0
330
1F
100
AcDbEntity
  8
Doc_ Finishes
  6
Continuous
100
AcDbLine
 10
37.38586546026751
 20
7.744584972462627
 30
0.0
 11
36.77783438237608
 21
8.18679140440598
 31
0.0
  0
LINE
  5
B1
330
1F
100
AcDbEntity
  8
Doc_ Finishes
  6
Continuous
100
AcDbLine
 10
38.18736378835562
 20
6.915448465774981
 30
0.0
 11
37.38586546026751
 21
7.744584972462627
 31
0.0
  0
LINE
  5
B2
330
1F
100
AcDbEntity
  8
Doc_ Finishes
  6
Continuous
100
AcDbLine
 10
38.79539486624704
 20
6.4456038552321
 30
0.0
 11
38.18736378835562
 21
6.915448465774981
 31
0.0
  0
LINE
  5
B3
330
1F
100
AcDbEntity
  8
Doc_ Finishes
  6
Continuous
100
AcDbLine
 10
39.56925501573564
 20
6.169226494885916
 30
0.0
 11
38.79539486624704
 21
6.4456038552321
 31
0.0
  0
LINE
  5
B4
330
1F
100
AcDbEntity
  8
Doc_ Finishes
  6
Continuous
100
AcDbLine
 10
40.23256245082612
 20
6.086316384736428
 30
0.0
 11
39.56925501573564
 21
6.169226494885916
 31
0.0
  0
LINE
  5
B5
330
1F
100
AcDbEntity
  8
Doc_ Finishes
  6
Continuous
100
AcDbLine
 10
40.48130605822187
 20
6.307417387883556
 30
0.0
 11
40.23256245082612
 21
6.086316384736428
 31
0.0
  0
LINE
  5
B6
330
1F
100
AcDbEntity
  8
Doc_ Finishes
  6
Continuous
100
AcDbLine
 10
40.14965234067663
 20
6.611432926829268
 30
0.0
 11
40.48130605822187
 21
6.307417387883556
 31
0.0
  0
LINE
  5
B7
330
1F
100
AcDbEntity
  8
Doc_ Finishes
  6
Continuous
100
AcDbLine
 10
39.48634490558615
 20
6.998363001573564
 30
0.0
 11
40.14965234067663
 21
6.611432926829268
 31
0.0
  0
LINE
  5
B8
330
1F
100
AcDbEntity
  8
Doc_ Finishes
  6
Continuous
100
AcDbLine
 10
38.76776111329661
 20
7.357654897718332
 30
0.0
 11
39.48634490558615
 21
6.998363001573564
 31
0.0
  0
LINE
  5
B9
330
1F
100
AcDbEntity
  8
Doc_ Finishes
  6
Continuous
100
AcDbLine
 10
38.18736378835562
 20
8.048600511408338
 30
0.0
 11
38.76776111329661
 21
7.357654897718332
 31
0.0
  0
LINE
  5
BA
330
1F
100
AcDbEntity
  8
Doc_ Finishes
  6
Continuous
100
AcDbLine
 10
36.9989353855232
 20
8.822460660896931
 30
0.0
 11
38.18736378835562
 21
8.048600511408338
 31
0.0
  0
LINE
  5
BB
330
1F
100
AcDbEntity
  8
Doc_ Finishes
  6
Continuous
100
AcDbLine
 10
36.47381884343037
 20
9.319939024390242
 30
0.0
 11
36.9989353855232
 21
8.822460660896931
 31
0.0
  0
LINE
  5
BC
330
1F
100
AcDbEntity
  8
Doc_ Finishes
  6
Continuous
100
AcDbLine
 10
36.22507966168371
 20
9.734507277734066
 30
0.0
 11
36.47381884343037
 21
9.319939024390242
 31
0.0
  0
LINE
  5
BD
330
1F
100
AcDbEntity
  8
Doc_ Finishes
  6
Continuous
100
AcDbLine
 10
35.17484215184894
 20
10.31490460267506
 30
0.0
 11
36.22507966168371
 21
9.734507277734066
 31
0.0
  0
LINE
  5
BE
330
1F
100
AcDbEntity
  8
Doc_ Finishes
  6
Continuous
100
AcDbLine
 10
34.73263571990559
 20
10.78474478756884
 30
0.0
 11
35.17484215184894
 21
10.31490460267506
 31
0.0
  0
LINE
  5
BF
330
1F
100
AcDbEntity
  8
Doc_ Finishes
  6
Continuous
100
AcDbLine
 10
34.23515293076317
 20
11.17167486231314
 30
0.0
 11
34.73263571990559
 21
10.78474478756884
 31
0.0
  0
LINE
  5
C0
330
1F
100
AcDbEntity
  8
Doc_ Finishes
  6
Continuous
100
AcDbLine
 10
33.48893095987412
 20
11.61388129425649
 30
0.0
 11
34.23515293076317
 21
11.17167486231314
 31
0.0
  0
LINE
  5
C1
330
1F
100
AcDbEntity
  8
Doc_ Finishes
  6
Continuous
100
AcDbLine
 10
32.85326170338316
 20
12.16663601494886
 30
0.0
 11
33.48893095987412
 21
11.61388129425649
 31
0.0
  0
LINE
  5
C2
330
1F
100
AcDbEntity
  8
Doc_ Finishes
  6
Continuous
100
AcDbLine
 10
32.35578333988985
 20
12.58120426829268
 30
0.0
 11
32.85326170338316
 21
12.16663601494886
 31
0.0
  0
LINE
  5
C3
330
1F
100
AcDbEntity
  8
Doc_ Finishes
  6
Continuous
100
AcDbLine
 10
31.69247147915027
 20
12.99577252163651
 30
0.0
 11
32.35578333988985
 21
12.58120426829268
 31
0.0
  0
LINE
  5
C4
330
1F
100
AcDbEntity
  8
Doc_ Finishes
  6
Continuous
100
AcDbLine
 10
31.22263129425649
 20
13.32742623918175
 30
0.0
 11
31.69247147915027
 21
12.99577252163651
 31
0.0
  0
LINE
  5
C5
330
1F
100
AcDbEntity
  8
Doc_ Finishes
  6
Continuous
100
AcDbLine
 10
30.72514850511408
 20
13.5761654209284
 30
0.0
 11
31.22263129425649
 21
13.32742623918175
 31
0.0
  0
LINE
  5
C6
330
1F
100
AcDbEntity
  8
Doc_ Finishes
  6
Continuous
100
AcDbLine
 10
29.93747147915028
 20
14.0644340086546
 30
0.0
 11
30.72514850511408
 21
13.5761654209284
 31
0.0
  0
LINE
  5
C7
330
1F
100
AcDbEntity
  8
Doc_ Finishes
  6
Continuous
100
AcDbLine
 10
29.43077891424075
 20
14.38687795043273
 30
0.0
 11
29.93747147915028
 21
14.0644340086546
 31
0.0
  0
LINE
  5
C8
330
1F
100
AcDbEntity
  8
Doc_ Finishes
  6
Continuous
100
AcDbLine
 10
28.92408192368214
 20
14.70931746656176
 30
0.0
 11
29.43077891424075
 21
14.38687795043273
 31
0.0
  0
LINE
  5
C9
330
1F
100
AcDbEntity
  8
Doc_ Finishes
  6
Continuous
100
AcDbLine
 10
28.62467348544453
 20
15.10085464201416
 30
0.0
 11
28.92408192368214
 21
14.70931746656176
 31
0.0
  0
LINE
  5
CA
330
1F
100
AcDbEntity
  8
Doc_ Finishes
  6
Continuous
100
AcDbLine
 10
27.95675894964595
 20
15.67664486624705
 30
0.0
 11
28.62467348544453
 21
15.10085464201416
 31
0.0
  0
LINE
  5
CB
330
1F
100
AcDbEntity
  8
Doc_ Finishes
  6
Continuous
100
AcDbLine
 10
27.47309746262785
 20
15.95302222659323
 30
0.0
 11
27.95675894964595
 21
15.67664486624705
 31
0.0
  0
LINE
  5
CC
330
1F
100
AcDbEntity
  8
Doc_ Finishes
  6
Continuous
100
AcDbLine
 10
26.82821400472069
 20
16.36759047993706
 30
0.0
 11
27.47309746262785
 21
15.95302222659323
 31
0.0
  0
LINE
  5
CD
330
1F
100
AcDbEntity
  8
Doc_ Finishes
  6
Continuous
100
AcDbLine
 10
26.50577448859166
 20
16.22939958693942
 30
0.0
 11
26.82821400472069
 21
16.36759047993706
 31
0.0
  0
LINE
  5
CE
330
1F
100
AcDbEntity
  8
Doc_ Finishes
  6
Continuous
100
AcDbLine
 10
26.06817515735641
 20
15.74573809992132
 30
0.0
 11
26.50577448859166
 21
16.22939958693942
 31
0.0
  0
LINE
  5
CF
330
1F
100
AcDbEntity
  8
Doc_ Finishes
  6
Continuous
 62
   254
370
    18
100
AcDbLine
 10
95.43333841463415
 20
5.093360051140834
 30
0.0
 11
95.43333841463415
 21
20.69901750590086
 31
0.0
  0
LINE
  5
D0
330
1F
100
AcDbEntity
  8
Doc_ Finishes
  6
Continuous
 62
   254
370
    18
100
AcDbLine
 10
5.000000983477577
 20
20.69901750590086
 30
0.0
 11
288.2406845003933
 21
20.69901750590086
 31
0.0
  0
LINE
  5
D1
330
1F
100
AcDbEntity
  8
Doc_ Finishes
  6
Continuous
 62
   254
370
    18
100
AcDbLine
 10
288.2406845003933
 20
20.69901750590086
 30
0.0
 11
288.2406845003933
 21
5.000000983477577
 31
0.0
  0
LINE
  5
D2
330
1F
100
AcDbEntity
  8
Doc_ Finishes
  6
Continuous
 62
   254
370
    18
100
AcDbLine
 10
288.2406845003933
 20
5.000000983477577
 30
0.0
 11
5.000000983477577
 21
5.000000983477577
 31
0.0
  0
LINE
  5
D3
330
1F
100
AcDbEntity
  8
Doc_ Finishes
  6
Continuous
 62
   254
370
    18
100
AcDbLine
 10
5.000000983477577
 20
20.69901750590086
 30
0.0
 11
5.000000983477577
 21
5.000000983477577
 31
0.0
  0
LINE
  5
D4
330
1F
100
AcDbEntity
  8
Doc_ Finishes
  6
Continuous
 62
   254
370
    18
100
AcDbLine
 10
188.291944826908
 20
5.093360051140834
 30
0.0
 11
188.291944826908
 21
20.69901750590086
 31
0.0
  0
LINE
  5
D5
330
1F
100
AcDbEntity
  8
Doc_ Finishes
  6
Continuous
 62
   254
370
    18
100
AcDbLine
 10
188.291944826908
 20
12.8961909913454
 30
0.0
 11
288.2406845003933
 21
12.8961909913454
 31
0.0
  0
MTEXT
  5
D7
330
1F
100
AcDbEntity
  8
0
  6
Continuous
100
AcDbMText
 10
208.3494767103412
 20
15.00228834043999
 30
0.0
 40
2.25
 41
0.0
 71
     7
 72
     1
  1
{C-TRS9-06}
  7
GENERATED_STYLE_1
 73
     1
 44
1.0
  0
MTEXT
  5
D8
330
1F
100
AcDbEntity
  8
0
  6
Continuous
100
AcDbMText
 10
208.3494767103412
 20
11.03300550383743
 30
0.0
 40
3.0
 41
0.0
 71
     1
 72
     1
  1
{APRON DETAIL - HEAD - CHASED}
  7
GENERATED_STYLE_1
 73
     1
 44
1.0
  0
MTEXT
  5
DA
330
1F
100
AcDbEntity
  8
Doc_ Floor
  6
Continuous
100
AcDbMText
 10
27.78353726544612
 20
13.33283672870609
 30
0.0
 40
5.603347280334726
 41
0.0
 71
     1
 72
     1
  1
{The Roofing Store}
  7
GENERATED_STYLE_2
 73
     1
 44
1.0
  0
MTEXT
  5
DC
102
{ACAD_XDICTIONARY
360
382
102
}
330
1F
100
AcDbEntity
  8
0
  6
Continuous
100
AcDbMText
 10
100.7389238446655
 20
5.628836745729685
 30
0.0
 40
1.5
 41
0.0
 71
     7
 72
     1
  1
{P: HEAD OFFICE              09 277 2717\P    ALBANY             09 972 0060\P    KATIKAIT            07 549 5190\P    WELLINGTON              04 974 5792\P    CHRISTCHURCH03 348 6528}
  7
GENERATED_STYLE_1
 73
     1
 44
1.062946161486498
  0
MTEXT
  5
DD
330
1F
100
AcDbEntity
  8
0
  6
Continuous
100
AcDbMText
 10
147.4184566143587
 20
8.449084231526156
 30
0.0
 40
1.5
 41
0.0
 71
     7
 72
     1
  1
{WEB: www.theroofingstore.co.nz}
  7
GENERATED_STYLE_1
 73
     1
 44
1.0
  0
MTEXT
  5
DE
330
1F
100
AcDbEntity
  8
0
  6
Continuous
100
AcDbMText
 10
147.4184566143587
 20
5.870946023411262
 30
0.0
 40
1.5
 41
0.0
 71
     7
 72
     1
  1
{Copyright \U+00A9 The Roofing Store 2013}
  7
GENERATED_STYLE_1
 73
     1
 44
1.0
  0
MTEXT
  5
DF
330
1F
100
AcDbEntity
  8
0
  6
Continuous
100
AcDbMText
 10
271.9546684065315
 20
15.01595667428533
 30
0.0
 40
2.25
 41
0.0
 71
     7
 72
     1
  1
{1:5}
  7
GENERATED_STYLE_1
 73
     1
 44
1.0
  0
MTEXT
  5
E0
330
1F
100
AcDbEntity
  8
0
  6
Continuous
100
AcDbMText
 10
262.8396605309016
 20
15.51746459162148
 30
0.0
 40
1.5
 41
0.0
 71
     7
 72
     1
  1
{SCALE:}
  7
GENERATED_STYLE_1
 73
     1
 44
1.0
  0
MTEXT
  5
E1
330
1F
100
AcDbEntity
  8
0
  6
Continuous
100
AcDbMText
 10
189.5066235617487
 20
15.48695559872207
 30
0.0
 40
1.5
 41
0.0
 71
     7
 72
     1
  1
{DETAIL NUMBER:}
  7
GENERATED_STYLE_1
 73
     1
 44
1.0
  0
MTEXT
  5
E2
330
1F
100
AcDbEntity
  8
0
  6
Continuous
100
AcDbMText
 10
189.5066235617487
 20
9.005462392315325
 30
0.0
 40
1.5
 41
0.0
 71
     7
 72
     1
  1
{TITLE:}
  7
GENERATED_STYLE_1
 73
     1
 44
1.0
  0
INSERT
  5
350
102
{ACAD_XDICTIONARY
360
351
102
}
330
1F
100
AcDbEntity
  8
0
  6
Continuous
100
AcDbBlockReference
  2
Drawing_1_2
 10
-2070.237169975058
 20
281.6458770823035
 30
0.0
  0
ENDSEC
  0
SECTION
  2
OBJECTS
  0
DICTIONARY
  5
C
330
0
100
AcDbDictionary
281
     1
  3
ACAD_GROUP
350
D
  3
ACAD_LAYOUT
350
1A
  3
ACAD_MATERIAL
350
3B
  3
ACAD_MLEADERSTYLE
350
37D
  3
ACAD_MLINESTYLE
350
17
  3
ACAD_PLOTSETTINGS
350
19
  3
ACAD_PLOTSTYLENAME
350
E
  3
ACAD_SCALELIST
350
357
  3
ACAD_VISUALSTYLE
350
2A
  3
AcDbVariableDictionary
350
37B
  3
WATERMARKS
350
379
  0
DICTIONARY
  5
382
330
DC
100
AcDbDictionary
280
     1
281
     1
  3
ACAD_MTEXT_RT
360
383
  0
DICTIONARY
  5
351
330
350
100
AcDbDictionary
280
     1
281
     1
  3
ACAD_FILTER
360
352
  0
DICTIONARY
  5
D
102
{ACAD_REACTORS
330
C
102
}
330
C
100
AcDbDictionary
281
     1
  0
DICTIONARY
  5
1A
102
{ACAD_REACTORS
330
C
102
}
330
C
100
AcDbDictionary
281
     1
  3
Layout1
350
1E
  3
Model
350
22
  0
DICTIONARY
  5
3B
102
{ACAD_REACTORS
330
C
102
}
330
C
100
AcDbDictionary
281
     1
  3
ByBlock
350
3D
  3
ByLayer
350
3C
  3
Global
350
3E
  0
DICTIONARY
  5
37D
102
{ACAD_REACTORS
330
C
102
}
330
C
100
AcDbDictionary
281
     1
  0
DICTIONARY
  5
17
102
{ACAD_REACTORS
330
C
102
}
330
C
100
AcDbDictionary
281
     1
  3
Standard
350
18
  0
DICTIONARY
  5
19
102
{ACAD_REACTORS
330
C
102
}
330
C
100
AcDbDictionary
281
     1
  0
ACDBDICTIONARYWDFLT
  5
E
102
{ACAD_REACTORS
330
C
102
}
330
C
100
AcDbDictionary
281
     1
  3
Normal
350
F
100
AcDbDictionaryWithDefault
340
F
  0
DICTIONARY
  5
357
102
{ACAD_REACTORS
330
C
102
}
330
C
100
AcDbDictionary
281
     1
  3
A0
350
358
  3
A1
350
359
  3
A2
350
35A
  3
A3
350
35B
  3
A4
350
35C
  3
A5
350
35D
  3
A6
350
35E
  3
A7
350
35F
  3
A8
350
360
  3
A9
350
361
  3
B0
350
362
  3
B1
350
363
  3
B2
350
364
  3
B3
350
365
  3
B4
350
366
  3
B5
350
367
  3
B6
350
368
  3
B7
350
369
  3
B8
350
36A
  3
B9
350
36B
  3
C0
350
36C
  3
C1
350
36D
  3
C2
350
36E
  3
C3
350
36F
  3
C4
350
370
  3
C5
350
371
  3
C6
350
372
  3
C7
350
373
  3
C8
350
374
  3
C9
350
375
  3
D0
350
376
  3
D1
350
377
  3
D2
350
378
  0
DICTIONARY
  5
2A
102
{ACAD_REACTORS
330
C
102
}
330
C
100
AcDbDictionary
281
     1
  3
2dWireframe
350
2F
  3
3D Hidden
350
31
  3
3dWireframe
350
30
  3
Basic
350
32
  3
Brighten
350
36
  3
ColorChange
350
3A
  3
Conceptual
350
34
  3
Dim
350
35
  3
Facepattern
350
39
  3
Flat
350
2B
  3
FlatWithEdges
350
2C
  3
Gouraud
350
2D
  3
GouraudWithEdges
350
2E
  3
Linepattern
350
38
  3
Realistic
350
33
  3
Thicken
350
37
  0
DICTIONARY
  5
37B
102
{ACAD_REACTORS
330
C
102
}
330
C
100
AcDbDictionary
281
     1
  3
CANNOSCALE
350
37F
  3
DIMASSOC
350
380
  3
HIDETEXT
350
381
  3
XCLIPFRAME
350
37E
  0
DICTIONARY
  5
379
102
{ACAD_REACTORS
330
C
102
}
330
C
100
AcDbDictionary
281
     1
  3
AC_WATERMARK
350
37A
  0
XRECORD
  5
383
102
{ACAD_REACTORS
330
382
102
}
330
382
100
AcDbXrecord
280
     1
 40
892718.0
  1
{P: HEAD OFFICE ^I^I09 277 2717\P    ALBANY ^I^I09 972 0060\P    KATIKAIT^I^I07 549 5190\P    WELLINGTON^I^I04 974 5792\P    CHRISTCHURCH^I03 348 6528}
  0
DICTIONARY
  5
352
102
{ACAD_REACTORS
330
351
102
}
330
351
100
AcDbDictionary
280
     1
281
     1
  3
SPATIAL
360
353
  0
LAYOUT
  5
1E
102
{ACAD_REACTORS
330
1A
102
}
330
1A
100
AcDbPlotSettings
  1

  2
none_device
  4

  6

 40
0.0
 41
0.0
 42
0.0
 43
0.0
 44
0.0
 45
0.0
 46
0.0
 47
0.0
 48
0.0
 49
0.0
140
0.0
141
0.0
142
1.0
143
1.0
 70
   688
 72
     0
 73
     0
 74
     5
  7

 75
    16
147
1.0
148
0.0
149
0.0
100
AcDbLayout
  1
Layout1
 70
     1
 71
     1
 10
0.0
 20
0.0
 11
12.0
 21
9.0
 12
0.0
 22
0.0
 32
0.0
 14
1.000000000000000E+20
 24
1.000000000000000E+20
 34
1.000000000000000E+20
 15
-1.000000000000000E+20
 25
-1.000000000000000E+20
 35
-1.000000000000000E+20
146
0.0
 13
0.0
 23
0.0
 33
0.0
 16
1.0
 26
0.0
 36
0.0
 17
0.0
 27
1.0
 37
0.0
 76
     0
330
1B
  0
LAYOUT
  5
22
102
{ACAD_REACTORS
330
1A
102
}
330
1A
100
AcDbPlotSettings
  1

  2
none_device
  4

  6

 40
0.0
 41
0.0
 42
0.0
 43
0.0
 44
0.0
 45
0.0
 46
0.0
 47
0.0
 48
0.0
 49
0.0
140
0.0
141
0.0
142
1.0
143
1.0
 70
  1712
 72
     0
 73
     0
 74
     0
  7

 75
     0
147
1.0
148
0.0
149
0.0
100
AcDbLayout
  1
Model
 70
     1
 71
     0
 10
0.0
 20
0.0
 11
12.0
 21
9.0
 12
0.0
 22
0.0
 32
0.0
 14
1.000000000000000E+20
 24
1.000000000000000E+20
 34
1.000000000000000E+20
 15
-1.000000000000000E+20
 25
-1.000000000000000E+20
 35
-1.000000000000000E+20
146
0.0
 13
0.0
 23
0.0
 33
0.0
 16
1.0
 26
0.0
 36
0.0
 17
0.0
 27
1.0
 37
0.0
 76
     0
330
1F
331
29
  0
MATERIAL
  5
3D
102
{ACAD_REACTORS
330
3B
102
}
102
{ACAD_XDICTIONARY
360
3A6
102
}
330
3B
100
AcDbMaterial
  1
ByBlock
  0
MATERIAL
  5
3C
102
{ACAD_REACTORS
330
3B
102
}
102
{ACAD_XDICTIONARY
360
3A4
102
}
330
3B
100
AcDbMaterial
  1
ByLayer
  0
MATERIAL
  5
3E
102
{ACAD_REACTORS
330
3B
102
}
102
{ACAD_XDICTIONARY
360
3A8
102
}
330
3B
100
AcDbMaterial
  1
Global
  0
MLINESTYLE
  5
18
102
{ACAD_REACTORS
330
17
102
}
330
17
100
AcDbMlineStyle
  2
Standard
 70
     0
  3

 62
   256
 51
90.0
 52
90.0
 71
     2
 49
0.5
 62
   256
  6
BYLAYER
 49
-0.5
 62
   256
  6
BYLAYER
  0
ACDBPLACEHOLDER
  5
F
102
{ACAD_REACTORS
330
E
102
}
330
E
  0
SCALE
  5
358
102
{ACAD_REACTORS
330
357
102
}
330
357
100
AcDbScale
 70
     0
300
1:1
140
1.0
141
1.0
290
     1
  0
SCALE
  5
359
102
{ACAD_REACTORS
330
357
102
}
330
357
100
AcDbScale
 70
     0
300
1:2
140
1.0
141
2.0
290
     0
  0
SCALE
  5
35A
102
{ACAD_REACTORS
330
357
102
}
330
357
100
AcDbScale
 70
     0
300
1:4
140
1.0
141
4.0
290
     0
  0
SCALE
  5
35B
102
{ACAD_REACTORS
330
357
102
}
330
357
100
AcDbScale
 70
     0
300
1:5
140
1.0
141
5.0
290
     0
  0
SCALE
  5
35C
102
{ACAD_REACTORS
330
357
102
}
330
357
100
AcDbScale
 70
     0
300
1:8
140
1.0
141
8.0
290
     0
  0
SCALE
  5
35D
102
{ACAD_REACTORS
330
357
102
}
330
357
100
AcDbScale
 70
     0
300
1:10
140
1.0
141
10.0
290
     0
  0
SCALE
  5
35E
102
{ACAD_REACTORS
330
357
102
}
330
357
100
AcDbScale
 70
     0
300
1:16
140
1.0
141
16.0
290
     0
  0
SCALE
  5
35F
102
{ACAD_REACTORS
330
357
102
}
330
357
100
AcDbScale
 70
     0
300
1:20
140
1.0
141
20.0
290
     0
  0
SCALE
  5
360
102
{ACAD_REACTORS
330
357
102
}
330
357
100
AcDbScale
 70
     0
300
1:30
140
1.0
141
30.0
290
     0
  0
SCALE
  5
361
102
{ACAD_REACTORS
330
357
102
}
330
357
100
AcDbScale
 70
     0
300
1:40
140
1.0
141
40.0
290
     0
  0
SCALE
  5
362
102
{ACAD_REACTORS
330
357
102
}
330
357
100
AcDbScale
 70
     0
300
1:50
140
1.0
141
50.0
290
     0
  0
SCALE
  5
363
102
{ACAD_REACTORS
330
357
102
}
330
357
100
AcDbScale
 70
     0
300
1:100
140
1.0
141
100.0
290
     0
  0
SCALE
  5
364
102
{ACAD_REACTORS
330
357
102
}
330
357
100
AcDbScale
 70
     0
300
2:1
140
2.0
141
1.0
290
     0
  0
SCALE
  5
365
102
{ACAD_REACTORS
330
357
102
}
330
357
100
AcDbScale
 70
     0
300
4:1
140
4.0
141
1.0
290
     0
  0
SCALE
  5
366
102
{ACAD_REACTORS
330
357
102
}
330
357
100
AcDbScale
 70
     0
300
8:1
140
8.0
141
1.0
290
     0
  0
SCALE
  5
367
102
{ACAD_REACTORS
330
357
102
}
330
357
100
AcDbScale
 70
     0
300
10:1
140
10.0
141
1.0
290
     0
  0
SCALE
  5
368
102
{ACAD_REACTORS
330
357
102
}
330
357
100
AcDbScale
 70
     0
300
100:1
140
100.0
141
1.0
290
     0
  0
SCALE
  5
369
102
{ACAD_REACTORS
330
357
102
}
330
357
100
AcDbScale
 70
     0
300
1/128" = 1'-0"
140
0.0078125
141
12.0
290
     0
  0
SCALE
  5
36A
102
{ACAD_REACTORS
330
357
102
}
330
357
100
AcDbScale
 70
     0
300
1/64" = 1'-0"
140
0.015625
141
12.0
290
     0
  0
SCALE
  5
36B
102
{ACAD_REACTORS
330
357
102
}
330
357
100
AcDbScale
 70
     0
300
1/32" = 1'-0"
140
0.03125
141
12.0
290
     0
  0
SCALE
  5
36C
102
{ACAD_REACTORS
330
357
102
}
330
357
100
AcDbScale
 70
     0
300
1/16" = 1'-0"
140
0.0625
141
12.0
290
     0
  0
SCALE
  5
36D
102
{ACAD_REACTORS
330
357
102
}
330
357
100
AcDbScale
 70
     0
300
3/32" = 1'-0"
140
0.09375
141
12.0
290
     0
  0
SCALE
  5
36E
102
{ACAD_REACTORS
330
357
102
}
330
357
100
AcDbScale
 70
     0
300
1/8" = 1'-0"
140
0.125
141
12.0
290
     0
  0
SCALE
  5
36F
102
{ACAD_REACTORS
330
357
102
}
330
357
100
AcDbScale
 70
     0
300
3/16" = 1'-0"
140
0.1875
141
12.0
290
     0
  0
SCALE
  5
370
102
{ACAD_REACTORS
330
357
102
}
330
357
100
AcDbScale
 70
     0
300
1/4" = 1'-0"
140
0.25
141
12.0
290
     0
  0
SCALE
  5
371
102
{ACAD_REACTORS
330
357
102
}
330
357
100
AcDbScale
 70
     0
300
3/8" = 1'-0"
140
0.375
141
12.0
290
     0
  0
SCALE
  5
372
102
{ACAD_REACTORS
330
357
102
}
330
357
100
AcDbScale
 70
     0
300
1/2" = 1'-0"
140
0.5
141
12.0
290
     0
  0
SCALE
  5
373
102
{ACAD_REACTORS
330
357
102
}
330
357
100
AcDbScale
 70
     0
300
3/4" = 1'-0"
140
0.75
141
12.0
290
     0
  0
SCALE
  5
374
102
{ACAD_REACTORS
330
357
102
}
330
357
100
AcDbScale
 70
     0
300
1" = 1'-0"
140
1.0
141
12.0
290
     0
  0
SCALE
  5
375
102
{ACAD_REACTORS
330
357
102
}
330
357
100
AcDbScale
 70
     0
300
1-1/2" = 1'-0"
140
1.5
141
12.0
290
     0
  0
SCALE
  5
376
102
{ACAD_REACTORS
330
357
102
}
330
357
100
AcDbScale
 70
     0
300
3" = 1'-0"
140
3.0
141
12.0
290
     0
  0
SCALE
  5
377
102
{ACAD_REACTORS
330
357
102
}
330
357
100
AcDbScale
 70
     0
300
6" = 1'-0"
140
6.0
141
12.0
290
     0
  0
SCALE
  5
378
102
{ACAD_REACTORS
330
357
102
}
330
357
100
AcDbScale
 70
     0
300
1'-0" = 1'-0"
140
12.0
141
12.0
290
     0
  0
VISUALSTYLE
  5
2F
102
{ACAD_REACTORS
330
2A
102
}
102
{ACAD_XDICTIONARY
360
38C
102
}
330
2A
100
AcDbVisualStyle
  2
2dWireframe
 70
     4
 71
     0
 72
     2
 73
     0
 90
        0
 40
-0.6
 41
-30.0
 62
     5
 63
     7
 74
     1
 91
        4
 64
     7
 65
   257
 75
     1
175
     1
 42
1.0
 92
        0
 66
   257
 43
1.0
 76
     1
 77
     6
 78
     2
 67
     7
 79
     5
170
     0
171
     0
290
     0
174
     0
 93
        1
 44
0.0
173
     0
291
     0
 45
0.0
1001
ACAD
1000
AcDbSavedByObjectVersion
1070
     0
  0
VISUALSTYLE
  5
31
102
{ACAD_REACTORS
330
2A
102
}
102
{ACAD_XDICTIONARY
360
390
102
}
330
2A
100
AcDbVisualStyle
  2
3D Hidden
 70
     6
 71
     1
 72
     2
 73
     2
 90
        0
 40
-0.6
 41
-30.0
 62
     5
 63
     7
 74
     2
 91
        2
 64
     7
 65
   257
 75
     2
175
     1
 42
40.0
 92
        0
 66
   257
 43
1.0
 76
     1
 77
     6
 78
     2
 67
     7
 79
     3
170
     0
171
     0
290
     0
174
     0
 93
        1
 44
0.0
173
     0
291
     0
 45
0.0
1001
ACAD
1000
AcDbSavedByObjectVersion
1070
     0
  0
VISUALSTYLE
  5
30
102
{ACAD_REACTORS
330
2A
102
}
102
{ACAD_XDICTIONARY
360
38E
102
}
330
2A
100
AcDbVisualStyle
  2
3dWireframe
 70
     5
 71
     0
 72
     2
 73
     0
 90
        0
 40
-0.6
 41
-30.0
 62
     5
 63
     7
 74
     1
 91
        4
 64
     7
 65
   257
 75
     1
175
     1
 42
1.0
 92
        0
 66
   257
 43
1.0
 76
     1
 77
     6
 78
     2
 67
     7
 79
     5
170
     0
171
     0
290
     0
174
     0
 93
        1
 44
0.0
173
     0
291
     0
 45
0.0
1001
ACAD
1000
AcDbSavedByObjectVersion
1070
     0
  0
VISUALSTYLE
  5
32
102
{ACAD_REACTORS
330
2A
102
}
102
{ACAD_XDICTIONARY
360
392
102
}
330
2A
100
AcDbVisualStyle
  2
Basic
 70
     7
 71
     1
 72
     0
 73
     1
 90
        0
 40
-0.6
 41
-30.0
 62
     5
 63
     7
 74
     0
 91
        4
 64
     7
 65
   257
 75
     1
175
     1
 42
1.0
 92
        8
 66
     7
 43
1.0
 76
     1
 77
     6
 78
     2
 67
     7
 79
     5
170
     0
171
     0
290
     0
174
     0
 93
        1
 44
0.0
173
     0
291
     1
 45
0.0
1001
ACAD
1000
AcDbSavedByObjectVersion
1070
     0
  0
VISUALSTYLE
  5
36
102
{ACAD_REACTORS
330
2A
102
}
102
{ACAD_XDICTIONARY
360
39A
102
}
330
2A
100
AcDbVisualStyle
  2
Brighten
 70
    12
 71
     2
 72
     2
 73
     0
 90
        0
 40
-0.6
 41
-30.0
 62
     5
 63
     7
 74
     1
 91
        4
 64
     7
 65
   257
 75
     1
175
     1
 42
1.0
 92
        8
 66
     7
 43
1.0
 76
     1
 77
     6
 78
     2
 67
     7
 79
     5
170
     0
171
     0
290
     0
174
     0
 93
        1
 44
50.0
173
     0
291
     1
 45
0.0
1001
ACAD
1000
AcDbSavedByObjectVersion
1070
     0
  0
VISUALSTYLE
  5
3A
102
{ACAD_REACTORS
330
2A
102
}
102
{ACAD_XDICTIONARY
360
3A2
102
}
330
2A
100
AcDbVisualStyle
  2
ColorChange
 70
    16
 71
     2
 72
     2
 73
     3
 90
        0
 40
-0.6
 41
-30.0
 62
     5
 63
     8
 74
     1
 91
        4
 64
     7
 65
   257
 75
     1
175
     1
 42
1.0
 92
        8
 66
     8
 43
1.0
 76
     1
 77
     6
 78
     2
 67
     7
 79
     5
170
     0
171
     0
290
     0
174
     0
 93
        1
 44
0.0
173
     0
291
     1
 45
0.0
1001
ACAD
1000
AcDbSavedByObjectVersion
1070
     0
  0
VISUALSTYLE
  5
34
102
{ACAD_REACTORS
330
2A
102
}
102
{ACAD_XDICTIONARY
360
396
102
}
330
2A
100
AcDbVisualStyle
  2
Conceptual
 70
     9
 71
     3
 72
     2
 73
     0
 90
        0
 40
-0.6
 41
-30.0
 62
     5
 63
     7
 74
     2
 91
        2
 64
     7
 65
   257
 75
     1
175
     1
 42
40.0
 92
        8
 66
     7
 43
1.0
 76
     1
 77
     6
 78
     2
 67
     7
 79
     3
170
     0
171
     0
290
     0
174
     0
 93
        1
 44
0.0
173
     0
291
     0
 45
0.0
1001
ACAD
1000
AcDbSavedByObjectVersion
1070
     0
  0
VISUALSTYLE
  5
35
102
{ACAD_REACTORS
330
2A
102
}
102
{ACAD_XDICTIONARY
360
398
102
}
330
2A
100
AcDbVisualStyle
  2
Dim
 70
    11
 71
     2
 72
     2
 73
     0
 90
        0
 40
-0.6
 41
-30.0
 62
     5
 63
     7
 74
     1
 91
        4
 64
     7
 65
   257
 75
     1
175
     1
 42
1.0
 92
        8
 66
     7
 43
1.0
 76
     1
 77
     6
 78
     2
 67
     7
 79
     5
170
     0
171
     0
290
     0
174
     0
 93
        1
 44
-50.0
173
     0
291
     1
 45
0.0
1001
ACAD
1000
AcDbSavedByObjectVersion
1070
     0
  0
VISUALSTYLE
  5
39
102
{ACAD_REACTORS
330
2A
102
}
102
{ACAD_XDICTIONARY
360
3A0
102
}
330
2A
100
AcDbVisualStyle
  2
Facepattern
 70
    15
 71
     2
 72
     2
 73
     0
 90
        0
 40
-0.6
 41
-30.0
 62
     5
 63
     7
 74
     1
 91
        4
 64
     7
 65
   257
 75
     1
175
     1
 42
1.0
 92
        8
 66
     7
 43
1.0
 76
     1
 77
     6
 78
     2
 67
     7
 79
     5
170
     0
171
     0
290
     0
174
     0
 93
        1
 44
0.0
173
     0
291
     1
 45
0.0
1001
ACAD
1000
AcDbSavedByObjectVersion
1070
     0
  0
VISUALSTYLE
  5
2B
102
{ACAD_REACTORS
330
2A
102
}
102
{ACAD_XDICTIONARY
360
384
102
}
330
2A
100
AcDbVisualStyle
  2
Flat
 70
     0
 71
     2
 72
     1
 73
     1
 90
        2
 40
-0.6
 41
30.0
 62
     5
 63
     7
 74
     0
 91
        4
 64
     7
 65
   257
 75
     1
175
     1
 42
1.0
 92
        8
 66
     7
 43
1.0
 76
     1
 77
     6
 78
     2
 67
     7
 79
     5
170
     0
171
     0
290
     0
174
     0
 93
       13
 44
0.0
173
     0
291
     1
 45
0.0
1001
ACAD
1000
AcDbSavedByObjectVersion
1070
     0
  0
VISUALSTYLE
  5
2C
102
{ACAD_REACTORS
330
2A
102
}
102
{ACAD_XDICTIONARY
360
386
102
}
330
2A
100
AcDbVisualStyle
  2
FlatWithEdges
 70
     1
 71
     2
 72
     1
 73
     1
 90
        2
 40
-0.6
 41
30.0
 62
     5
 63
     7
 74
     1
 91
        4
 64
     7
 65
   257
 75
     1
175
     1
 42
1.0
 92
        0
 66
   257
 43
1.0
 76
     1
 77
     6
 78
     2
 67
     7
 79
     5
170
     0
171
     0
290
     0
174
     0
 93
       13
 44
0.0
173
     0
291
     1
 45
0.0
1001
ACAD
1000
AcDbSavedByObjectVersion
1070
     0
  0
VISUALSTYLE
  5
2D
102
{ACAD_REACTORS
330
2A
102
}
102
{ACAD_XDICTIONARY
360
388
102
}
330
2A
100
AcDbVisualStyle
  2
Gouraud
 70
     2
 71
     2
 72
     2
 73
     1
 90
        2
 40
-0.6
 41
30.0
 62
     5
 63
     7
 74
     0
 91
        4
 64
     7
 65
   257
 75
     1
175
     1
 42
1.0
 92
        0
 66
     7
 43
1.0
 76
     1
 77
     6
 78
     2
 67
     7
 79
     5
170
     0
171
     0
290
     0
174
     0
 93
       13
 44
0.0
173
     0
291
     1
 45
0.0
1001
ACAD
1000
AcDbSavedByObjectVersion
1070
     0
  0
VISUALSTYLE
  5
2E
102
{ACAD_REACTORS
330
2A
102
}
102
{ACAD_XDICTIONARY
360
38A
102
}
330
2A
100
AcDbVisualStyle
  2
GouraudWithEdges
 70
     3
 71
     2
 72
     2
 73
     1
 90
        2
 40
-0.6
 41
30.0
 62
     5
 63
     7
 74
     1
 91
        4
 64
     7
 65
   257
 75
     1
175
     1
 42
1.0
 92
        0
 66
   257
 43
1.0
 76
     1
 77
     6
 78
     2
 67
     7
 79
     5
170
     0
171
     0
290
     0
174
     0
 93
       13
 44
0.0
173
     0
291
     1
 45
0.0
1001
ACAD
1000
AcDbSavedByObjectVersion
1070
     0
  0
VISUALSTYLE
  5
38
102
{ACAD_REACTORS
330
2A
102
}
102
{ACAD_XDICTIONARY
360
39E
102
}
330
2A
100
AcDbVisualStyle
  2
Linepattern
 70
    14
 71
     2
 72
     2
 73
     0
 90
        0
 40
-0.6
 41
-30.0
 62
     5
 63
     7
 74
     1
 91
        4
 64
     7
 65
   257
 75
     7
175
     7
 42
1.0
 92
        8
 66
     7
 43
1.0
 76
     1
 77
     6
 78
     2
 67
     7
 79
     5
170
     0
171
     0
290
     0
174
     0
 93
        1
 44
0.0
173
     0
291
     1
 45
0.0
1001
ACAD
1000
AcDbSavedByObjectVersion
1070
     0
  0
VISUALSTYLE
  5
33
102
{ACAD_REACTORS
330
2A
102
}
102
{ACAD_XDICTIONARY
360
394
102
}
330
2A
100
AcDbVisualStyle
  2
Realistic
 70
     8
 71
     2
 72
     2
 73
     0
 90
        0
 40
-0.6
 41
-30.0
 62
     5
 63
     7
 74
     1
 91
        0
 64
     7
 65
   257
 75
     1
175
     1
 42
1.0
 92
        8
 66
     8
 43
1.0
 76
     1
 77
     6
 78
     2
 67
     7
 79
     5
170
     0
171
     0
290
     0
174
     0
 93
       13
 44
0.0
173
     0
291
     0
 45
0.0
1001
ACAD
1000
AcDbSavedByObjectVersion
1070
     0
  0
VISUALSTYLE
  5
37
102
{ACAD_REACTORS
330
2A
102
}
102
{ACAD_XDICTIONARY
360
39C
102
}
330
2A
100
AcDbVisualStyle
  2
Thicken
 70
    13
 71
     2
 72
     2
 73
     0
 90
        0
 40
-0.6
 41
-30.0
 62
     5
 63
     7
 74
     1
 91
        4
 64
     7
 65
   257
 75
     1
175
     1
 42
1.0
 92
       12
 66
     7
 43
1.0
 76
     1
 77
     6
 78
     2
 67
     7
 79
     5
170
     0
171
     0
290
     0
174
     0
 93
        1
 44
0.0
173
     0
291
     1
 45
0.0
1001
ACAD
1000
AcDbSavedByObjectVersion
1070
     0
  0
DICTIONARYVAR
  5
37F
102
{ACAD_REACTORS
330
37B
102
}
330
37B
100
DictionaryVariables
280
     0
  1
1:1
  0
DICTIONARYVAR
  5
380
102
{ACAD_REACTORS
330
37B
102
}
330
37B
100
DictionaryVariables
280
     0
  1
2
  0
DICTIONARYVAR
  5
381
102
{ACAD_REACTORS
330
37B
102
}
330
37B
100
DictionaryVariables
280
     0
  1
1
  0
DICTIONARYVAR
  5
37E
102
{ACAD_REACTORS
330
37B
102
}
330
37B
100
DictionaryVariables
280
     0
  1
0
  0
XRECORD
  5
37A
102
{ACAD_REACTORS
330
379
102
}
330
379
100
AcDbXrecord
280
     1
1000
This DWG file was created in ArchiCAD(TM)®
  0
SPATIAL_FILTER
  5
353
102
{ACAD_REACTORS
330
352
102
}
330
352
100
AcDbFilter
100
AcDbSpatialFilter
 70
     4
 10
8.899537865928776
 20
21.25715494308847
 10
285.2777000257956
 20
21.25715494308847
 10
285.2777000257956
 20
205.4778763143528
 10
8.899537865928776
 20
205.4778763143528
210
0.0
220
0.0
230
1.0
 11
0.0
 21
0.0
 31
0.0
 71
     1
 72
     0
 73
     0
 40
1.0
 40
0.0
 40
0.0
 40
0.0
 40
0.0
 40
1.0
 40
0.0
 40
0.0
 40
0.0
 40
0.0
 40
1.0
 40
0.0
 40
1.0
 40
0.0
 40
0.0
 40
0.0
 40
0.0
 40
1.0
 40
0.0
 40
0.0
 40
0.0
 40
0.0
 40
1.0
 40
0.0
  0
DICTIONARY
  5
3A6
330
3D
100
AcDbDictionary
280
     1
281
     1
  3
ACAD_XREC_ROUNDTRIP
360
3A7
  0
DICTIONARY
  5
3A4
330
3C
100
AcDbDictionary
280
     1
281
     1
  3
ACAD_XREC_ROUNDTRIP
360
3A5
  0
DICTIONARY
  5
3A8
330
3E
100
AcDbDictionary
280
     1
281
     1
  3
ACAD_XREC_ROUNDTRIP
360
3A9
  0
DICTIONARY
  5
38C
330
2F
100
AcDbDictionary
280
     1
281
     1
  3
ACAD_XREC_ROUNDTRIP
360
38D
  0
DICTIONARY
  5
390
330
31
100
AcDbDictionary
280
     1
281
     1
  3
ACAD_XREC_ROUNDTRIP
360
391
  0
DICTIONARY
  5
38E
330
30
100
AcDbDictionary
280
     1
281
     1
  3
ACAD_XREC_ROUNDTRIP
360
38F
  0
DICTIONARY
  5
392
330
32
100
AcDbDictionary
280
     1
281
     1
  3
ACAD_XREC_ROUNDTRIP
360
393
  0
DICTIONARY
  5
39A
330
36
100
AcDbDictionary
280
     1
281
     1
  3
ACAD_XREC_ROUNDTRIP
360
39B
  0
DICTIONARY
  5
3A2
330
3A
100
AcDbDictionary
280
     1
281
     1
  3
ACAD_XREC_ROUNDTRIP
360
3A3
  0
DICTIONARY
  5
396
330
34
100
AcDbDictionary
280
     1
281
     1
  3
ACAD_XREC_ROUNDTRIP
360
397
  0
DICTIONARY
  5
398
330
35
100
AcDbDictionary
280
     1
281
     1
  3
ACAD_XREC_ROUNDTRIP
360
399
  0
DICTIONARY
  5
3A0
330
39
100
AcDbDictionary
280
     1
281
     1
  3
ACAD_XREC_ROUNDTRIP
360
3A1
  0
DICTIONARY
  5
384
330
2B
100
AcDbDictionary
280
     1
281
     1
  3
ACAD_XREC_ROUNDTRIP
360
385
  0
DICTIONARY
  5
386
330
2C
100
AcDbDictionary
280
     1
281
     1
  3
ACAD_XREC_ROUNDTRIP
360
387
  0
DICTIONARY
  5
388
330
2D
100
AcDbDictionary
280
     1
281
     1
  3
ACAD_XREC_ROUNDTRIP
360
389
  0
DICTIONARY
  5
38A
330
2E
100
AcDbDictionary
280
     1
281
     1
  3
ACAD_XREC_ROUNDTRIP
360
38B
  0
DICTIONARY
  5
39E
330
38
100
AcDbDictionary
280
     1
281
     1
  3
ACAD_XREC_ROUNDTRIP
360
39F
  0
DICTIONARY
  5
394
330
33
100
AcDbDictionary
280
     1
281
     1
  3
ACAD_XREC_ROUNDTRIP
360
395
  0
DICTIONARY
  5
39C
330
37
100
AcDbDictionary
280
     1
281
     1
  3
ACAD_XREC_ROUNDTRIP
360
39D
  0
XRECORD
  5
3A7
102
{ACAD_REACTORS
330
3A6
102
}
330
3A6
100
AcDbXrecord
280
     1
102
MATERIAL
148
0.0
149
0.0
149
0.0
 93
        0
 94
      127
282
     0
 72
     1
 77
     1
171
     1
175
     1
179
     1
273
     0
  0
XRECORD
  5
3A5
102
{ACAD_REACTORS
330
3A4
102
}
330
3A4
100
AcDbXrecord
280
     1
102
MATERIAL
148
0.0
149
0.0
149
0.0
 93
        0
 94
      127
282
     0
 72
     1
 77
     1
171
     1
175
     1
179
     1
273
     0
  0
XRECORD
  5
3A9
102
{ACAD_REACTORS
330
3A8
102
}
330
3A8
100
AcDbXrecord
280
     1
102
MATERIAL
148
0.0
149
0.0
149
0.0
 93
        0
 94
      127
282
     0
 72
     1
 77
     1
171
     1
175
     1
179
     1
273
     0
  0
XRECORD
  5
38D
102
{ACAD_REACTORS
330
38C
102
}
330
38C
100
AcDbXrecord
280
     1
102
RTVSPropertyOp0
 70
     1
102
RTVSPropertyOp1
 70
     1
102
RTVSPropertyOp2
 70
     1
102
RTVSPropertyOp3
 70
     1
102
RTVSPropertyOp4
 70
     1
102
RTVSPropertyOp5
 70
     1
102
RTVSPropertyOp6
 70
     1
102
RTVSPropertyOp7
 70
     1
102
RTVSPropertyOp8
 70
     1
102
RTVSPropertyOp9
 70
     1
102
RTVSPropertyOp10
 70
     1
102
RTVSPropertyOp11
 70
     1
102
RTVSPropertyOp12
 70
     1
102
RTVSPropertyOp13
 70
     1
102
RTVSPropertyOp14
 70
     1
102
RTVSPropertyOp15
 70
     1
102
RTVSPropertyOp16
 70
     1
102
RTVSPropertyOp17
 70
     1
102
RTVSPropertyOp18
 70
     1
102
RTVSPropertyOp19
 70
     1
102
RTVSPropertyOp20
 70
     1
102
RTVSPropertyOp21
 70
     1
102
RTVSPropertyOp22
 70
     1
102
RTVSPropertyOp23
 70
     1
102
RTVSPropertyOp24
 70
     1
102
RTVSPropertyOp25
 70
     1
102
RTVSPropertyOp26
 70
     1
102
RTVSPropertyOp27
 70
     1
102
RTVSPropertyOp28
 70
     1
102
RTVSPropertyOp29
 70
     1
102
RTVSPropertyOp30
 70
     1
102
RTVSPropertyOp31
 70
     1
102
RTVSPropertyOp32
 70
     1
  0
XRECORD
  5
391
102
{ACAD_REACTORS
330
390
102
}
330
390
100
AcDbXrecord
280
     1
102
RTVSPropertyOp0
 70
     1
102
RTVSPropertyOp1
 70
     1
102
RTVSPropertyOp2
 70
     1
102
RTVSPropertyOp3
 70
     1
102
RTVSPropertyOp4
 70
     1
102
RTVSPropertyOp5
 70
     1
102
RTVSPropertyOp6
 70
     1
102
RTVSPropertyOp7
 70
     1
102
RTVSPropertyOp8
 70
     1
102
RTVSPropertyOp9
 70
     1
102
RTVSPropertyOp10
 70
     1
102
RTVSPropertyOp11
 70
     1
102
RTVSPropertyOp12
 70
     1
102
RTVSPropertyOp13
 70
     1
102
RTVSPropertyOp14
 70
     1
102
RTVSPropertyOp15
 70
     1
102
RTVSPropertyOp16
 70
     1
102
RTVSPropertyOp17
 70
     1
102
RTVSPropertyOp18
 70
     1
102
RTVSPropertyOp19
 70
     1
102
RTVSPropertyOp20
 70
     1
102
RTVSPropertyOp21
 70
     1
102
RTVSPropertyOp22
 70
     1
102
RTVSPropertyOp23
 70
     1
102
RTVSPropertyOp24
 70
     1
102
RTVSPropertyOp25
 70
     1
102
RTVSPropertyOp26
 70
     1
102
RTVSPropertyOp27
 70
     1
102
RTVSPropertyOp28
 70
     1
102
RTVSPropertyOp29
 70
     1
102
RTVSPropertyOp30
 70
     1
102
RTVSPropertyOp31
 70
     1
102
RTVSPropertyOp32
 70
     1
  0
XRECORD
  5
38F
102
{ACAD_REACTORS
330
38E
102
}
330
38E
100
AcDbXrecord
280
     1
102
RTVSPropertyOp0
 70
     1
102
RTVSPropertyOp1
 70
     1
102
RTVSPropertyOp2
 70
     1
102
RTVSPropertyOp3
 70
     1
102
RTVSPropertyOp4
 70
     1
102
RTVSPropertyOp5
 70
     1
102
RTVSPropertyOp6
 70
     1
102
RTVSPropertyOp7
 70
     1
102
RTVSPropertyOp8
 70
     1
102
RTVSPropertyOp9
 70
     1
102
RTVSPropertyOp10
 70
     1
102
RTVSPropertyOp11
 70
     1
102
RTVSPropertyOp12
 70
     1
102
RTVSPropertyOp13
 70
     1
102
RTVSPropertyOp14
 70
     1
102
RTVSPropertyOp15
 70
     1
102
RTVSPropertyOp16
 70
     1
102
RTVSPropertyOp17
 70
     1
102
RTVSPropertyOp18
 70
     1
102
RTVSPropertyOp19
 70
     1
102
RTVSPropertyOp20
 70
     1
102
RTVSPropertyOp21
 70
     1
102
RTVSPropertyOp22
 70
     1
102
RTVSPropertyOp23
 70
     1
102
RTVSPropertyOp24
 70
     1
102
RTVSPropertyOp25
 70
     1
102
RTVSPropertyOp26
 70
     1
102
RTVSPropertyOp27
 70
     1
102
RTVSPropertyOp28
 70
     1
102
RTVSPropertyOp29
 70
     1
102
RTVSPropertyOp30
 70
     1
102
RTVSPropertyOp31
 70
     1
102
RTVSPropertyOp32
 70
     1
  0
XRECORD
  5
393
102
{ACAD_REACTORS
330
392
102
}
330
392
100
AcDbXrecord
280
     1
102
RTVSPropertyOp0
 70
     1
102
RTVSPropertyOp1
 70
     1
102
RTVSPropertyOp2
 70
     1
102
RTVSPropertyOp3
 70
     1
102
RTVSPropertyOp4
 70
     1
102
RTVSPropertyOp5
 70
     1
102
RTVSPropertyOp6
 70
     1
102
RTVSPropertyOp7
 70
     1
102
RTVSPropertyOp8
 70
     1
102
RTVSPropertyOp9
 70
     1
102
RTVSPropertyOp10
 70
     1
102
RTVSPropertyOp11
 70
     1
102
RTVSPropertyOp12
 70
     1
102
RTVSPropertyOp13
 70
     1
102
RTVSPropertyOp14
 70
     1
102
RTVSPropertyOp15
 70
     1
102
RTVSPropertyOp16
 70
     1
102
RTVSPropertyOp17
 70
     1
102
RTVSPropertyOp18
 70
     1
102
RTVSPropertyOp19
 70
     1
102
RTVSPropertyOp20
 70
     1
102
RTVSPropertyOp21
 70
     1
102
RTVSPropertyOp22
 70
     1
102
RTVSPropertyOp23
 70
     1
102
RTVSPropertyOp24
 70
     1
102
RTVSPropertyOp25
 70
     1
102
RTVSPropertyOp26
 70
     1
102
RTVSPropertyOp27
 70
     1
102
RTVSPropertyOp28
 70
     1
102
RTVSPropertyOp29
 70
     1
102
RTVSPropertyOp30
 70
     1
102
RTVSPropertyOp31
 70
     1
102
RTVSPropertyOp32
 70
     1
  0
XRECORD
  5
39B
102
{ACAD_REACTORS
330
39A
102
}
330
39A
100
AcDbXrecord
280
     1
102
RTVSPropertyOp0
 70
     1
102
RTVSPropertyOp1
 70
     1
102
RTVSPropertyOp2
 70
     1
102
RTVSPropertyOp3
 70
     1
102
RTVSPropertyOp4
 70
     1
102
RTVSPropertyOp5
 70
     1
102
RTVSPropertyOp6
 70
     1
102
RTVSPropertyOp7
 70
     1
102
RTVSPropertyOp8
 70
     1
102
RTVSPropertyOp9
 70
     1
102
RTVSPropertyOp10
 70
     1
102
RTVSPropertyOp11
 70
     1
102
RTVSPropertyOp12
 70
     1
102
RTVSPropertyOp13
 70
     1
102
RTVSPropertyOp14
 70
     1
102
RTVSPropertyOp15
 70
     1
102
RTVSPropertyOp16
 70
     1
102
RTVSPropertyOp17
 70
     1
102
RTVSPropertyOp18
 70
     1
102
RTVSPropertyOp19
 70
     1
102
RTVSPropertyOp20
 70
     1
102
RTVSPropertyOp21
 70
     1
102
RTVSPropertyOp22
 70
     1
102
RTVSPropertyOp23
 70
     1
102
RTVSPropertyOp24
 70
     1
102
RTVSPropertyOp25
 70
     1
102
RTVSPropertyOp26
 70
     1
102
RTVSPropertyOp27
 70
     1
102
RTVSPropertyOp28
 70
     1
102
RTVSPropertyOp29
 70
     1
102
RTVSPropertyOp30
 70
     1
102
RTVSPropertyOp31
 70
     1
102
RTVSPropertyOp32
 70
     1
  0
XRECORD
  5
3A3
102
{ACAD_REACTORS
330
3A2
102
}
330
3A2
100
AcDbXrecord
280
     1
102
RTVSPropertyOp0
 70
     1
102
RTVSPropertyOp1
 70
     1
102
RTVSPropertyOp2
 70
     1
102
RTVSPropertyOp3
 70
     1
102
RTVSPropertyOp4
 70
     1
102
RTVSPropertyOp5
 70
     1
102
RTVSPropertyOp6
 70
     1
102
RTVSPropertyOp7
 70
     1
102
RTVSPropertyOp8
 70
     1
102
RTVSPropertyOp9
 70
     1
102
RTVSPropertyOp10
 70
     1
102
RTVSPropertyOp11
 70
     1
102
RTVSPropertyOp12
 70
     1
102
RTVSPropertyOp13
 70
     1
102
RTVSPropertyOp14
 70
     1
102
RTVSPropertyOp15
 70
     1
102
RTVSPropertyOp16
 70
     1
102
RTVSPropertyOp17
 70
     1
102
RTVSPropertyOp18
 70
     1
102
RTVSPropertyOp19
 70
     1
102
RTVSPropertyOp20
 70
     1
102
RTVSPropertyOp21
 70
     1
102
RTVSPropertyOp22
 70
     1
102
RTVSPropertyOp23
 70
     1
102
RTVSPropertyOp24
 70
     1
102
RTVSPropertyOp25
 70
     1
102
RTVSPropertyOp26
 70
     1
102
RTVSPropertyOp27
 70
     1
102
RTVSPropertyOp28
 70
     1
102
RTVSPropertyOp29
 70
     1
102
RTVSPropertyOp30
 70
     1
102
RTVSPropertyOp31
 70
     1
102
RTVSPropertyOp32
 70
     1
  0
XRECORD
  5
397
102
{ACAD_REACTORS
330
396
102
}
330
396
100
AcDbXrecord
280
     1
102
RTVSPropertyOp0
 70
     1
102
RTVSPropertyOp1
 70
     1
102
RTVSPropertyOp2
 70
     1
102
RTVSPropertyOp3
 70
     1
102
RTVSPropertyOp4
 70
     1
102
RTVSPropertyOp5
 70
     1
102
RTVSPropertyOp6
 70
     1
102
RTVSPropertyOp7
 70
     1
102
RTVSPropertyOp8
 70
     1
102
RTVSPropertyOp9
 70
     1
102
RTVSPropertyOp10
 70
     1
102
RTVSPropertyOp11
 70
     1
102
RTVSPropertyOp12
 70
     1
102
RTVSPropertyOp13
 70
     1
102
RTVSPropertyOp14
 70
     1
102
RTVSPropertyOp15
 70
     1
102
RTVSPropertyOp16
 70
     1
102
RTVSPropertyOp17
 70
     1
102
RTVSPropertyOp18
 70
     1
102
RTVSPropertyOp19
 70
     1
102
RTVSPropertyOp20
 70
     1
102
RTVSPropertyOp21
 70
     1
102
RTVSPropertyOp22
 70
     1
102
RTVSPropertyOp23
 70
     1
102
RTVSPropertyOp24
 70
     1
102
RTVSPropertyOp25
 70
     1
102
RTVSPropertyOp26
 70
     1
102
RTVSPropertyOp27
 70
     1
102
RTVSPropertyOp28
 70
     1
102
RTVSPropertyOp29
 70
     1
102
RTVSPropertyOp30
 70
     1
102
RTVSPropertyOp31
 70
     1
102
RTVSPropertyOp32
 70
     1
  0
XRECORD
  5
399
102
{ACAD_REACTORS
330
398
102
}
330
398
100
AcDbXrecord
280
     1
102
RTVSPropertyOp0
 70
     1
102
RTVSPropertyOp1
 70
     1
102
RTVSPropertyOp2
 70
     1
102
RTVSPropertyOp3
 70
     1
102
RTVSPropertyOp4
 70
     1
102
RTVSPropertyOp5
 70
     1
102
RTVSPropertyOp6
 70
     1
102
RTVSPropertyOp7
 70
     1
102
RTVSPropertyOp8
 70
     1
102
RTVSPropertyOp9
 70
     1
102
RTVSPropertyOp10
 70
     1
102
RTVSPropertyOp11
 70
     1
102
RTVSPropertyOp12
 70
     1
102
RTVSPropertyOp13
 70
     1
102
RTVSPropertyOp14
 70
     1
102
RTVSPropertyOp15
 70
     1
102
RTVSPropertyOp16
 70
     1
102
RTVSPropertyOp17
 70
     1
102
RTVSPropertyOp18
 70
     1
102
RTVSPropertyOp19
 70
     1
102
RTVSPropertyOp20
 70
     1
102
RTVSPropertyOp21
 70
     1
102
RTVSPropertyOp22
 70
     1
102
RTVSPropertyOp23
 70
     1
102
RTVSPropertyOp24
 70
     1
102
RTVSPropertyOp25
 70
     1
102
RTVSPropertyOp26
 70
     1
102
RTVSPropertyOp27
 70
     1
102
RTVSPropertyOp28
 70
     1
102
RTVSPropertyOp29
 70
     1
102
RTVSPropertyOp30
 70
     1
102
RTVSPropertyOp31
 70
     1
102
RTVSPropertyOp32
 70
     1
  0
XRECORD
  5
3A1
102
{ACAD_REACTORS
330
3A0
102
}
330
3A0
100
AcDbXrecord
280
     1
102
RTVSPropertyOp0
 70
     1
102
RTVSPropertyOp1
 70
     1
102
RTVSPropertyOp2
 70
     1
102
RTVSPropertyOp3
 70
     1
102
RTVSPropertyOp4
 70
     1
102
RTVSPropertyOp5
 70
     1
102
RTVSPropertyOp6
 70
     1
102
RTVSPropertyOp7
 70
     1
102
RTVSPropertyOp8
 70
     1
102
RTVSPropertyOp9
 70
     1
102
RTVSPropertyOp10
 70
     1
102
RTVSPropertyOp11
 70
     1
102
RTVSPropertyOp12
 70
     1
102
RTVSPropertyOp13
 70
     1
102
RTVSPropertyOp14
 70
     1
102
RTVSPropertyOp15
 70
     1
102
RTVSPropertyOp16
 70
     1
102
RTVSPropertyOp17
 70
     1
102
RTVSPropertyOp18
 70
     1
102
RTVSPropertyOp19
 70
     1
102
RTVSPropertyOp20
 70
     1
102
RTVSPropertyOp21
 70
     1
102
RTVSPropertyOp22
 70
     1
102
RTVSPropertyOp23
 70
     1
102
RTVSPropertyOp24
 70
     1
102
RTVSPropertyOp25
 70
     1
102
RTVSPropertyOp26
 70
     1
102
RTVSPropertyOp27
 70
     1
102
RTVSPropertyOp28
 70
     1
102
RTVSPropertyOp29
 70
     1
102
RTVSPropertyOp30
 70
     1
102
RTVSPropertyOp31
 70
     1
102
RTVSPropertyOp32
 70
     1
  0
XRECORD
  5
385
102
{ACAD_REACTORS
330
384
102
}
330
384
100
AcDbXrecord
280
     1
102
RTVSPropertyOp0
 70
     1
102
RTVSPropertyOp1
 70
     1
102
RTVSPropertyOp2
 70
     1
102
RTVSPropertyOp3
 70
     1
102
RTVSPropertyOp4
 70
     1
102
RTVSPropertyOp5
 70
     1
102
RTVSPropertyOp6
 70
     1
102
RTVSPropertyOp7
 70
     1
102
RTVSPropertyOp8
 70
     1
102
RTVSPropertyOp9
 70
     1
102
RTVSPropertyOp10
 70
     1
102
RTVSPropertyOp11
 70
     1
102
RTVSPropertyOp12
 70
     1
102
RTVSPropertyOp13
 70
     1
102
RTVSPropertyOp14
 70
     1
102
RTVSPropertyOp15
 70
     1
102
RTVSPropertyOp16
 70
     1
102
RTVSPropertyOp17
 70
     1
102
RTVSPropertyOp18
 70
     1
102
RTVSPropertyOp19
 70
     1
102
RTVSPropertyOp20
 70
     1
102
RTVSPropertyOp21
 70
     1
102
RTVSPropertyOp22
 70
     1
102
RTVSPropertyOp23
 70
     1
102
RTVSPropertyOp24
 70
     1
102
RTVSPropertyOp25
 70
     1
102
RTVSPropertyOp26
 70
     1
102
RTVSPropertyOp27
 70
     1
102
RTVSPropertyOp28
 70
     1
102
RTVSPropertyOp29
 70
     1
102
RTVSPropertyOp30
 70
     1
102
RTVSPropertyOp31
 70
     1
102
RTVSPropertyOp32
 70
     1
  0
XRECORD
  5
387
102
{ACAD_REACTORS
330
386
102
}
330
386
100
AcDbXrecord
280
     1
102
RTVSPropertyOp0
 70
     1
102
RTVSPropertyOp1
 70
     1
102
RTVSPropertyOp2
 70
     1
102
RTVSPropertyOp3
 70
     1
102
RTVSPropertyOp4
 70
     1
102
RTVSPropertyOp5
 70
     1
102
RTVSPropertyOp6
 70
     1
102
RTVSPropertyOp7
 70
     1
102
RTVSPropertyOp8
 70
     1
102
RTVSPropertyOp9
 70
     1
102
RTVSPropertyOp10
 70
     1
102
RTVSPropertyOp11
 70
     1
102
RTVSPropertyOp12
 70
     1
102
RTVSPropertyOp13
 70
     1
102
RTVSPropertyOp14
 70
     1
102
RTVSPropertyOp15
 70
     1
102
RTVSPropertyOp16
 70
     1
102
RTVSPropertyOp17
 70
     1
102
RTVSPropertyOp18
 70
     1
102
RTVSPropertyOp19
 70
     1
102
RTVSPropertyOp20
 70
     1
102
RTVSPropertyOp21
 70
     1
102
RTVSPropertyOp22
 70
     1
102
RTVSPropertyOp23
 70
     1
102
RTVSPropertyOp24
 70
     1
102
RTVSPropertyOp25
 70
     1
102
RTVSPropertyOp26
 70
     1
102
RTVSPropertyOp27
 70
     1
102
RTVSPropertyOp28
 70
     1
102
RTVSPropertyOp29
 70
     1
102
RTVSPropertyOp30
 70
     1
102
RTVSPropertyOp31
 70
     1
102
RTVSPropertyOp32
 70
     1
  0
XRECORD
  5
389
102
{ACAD_REACTORS
330
388
102
}
330
388
100
AcDbXrecord
280
     1
102
RTVSPropertyOp0
 70
     1
102
RTVSPropertyOp1
 70
     1
102
RTVSPropertyOp2
 70
     1
102
RTVSPropertyOp3
 70
     1
102
RTVSPropertyOp4
 70
     1
102
RTVSPropertyOp5
 70
     1
102
RTVSPropertyOp6
 70
     1
102
RTVSPropertyOp7
 70
     1
102
RTVSPropertyOp8
 70
     1
102
RTVSPropertyOp9
 70
     1
102
RTVSPropertyOp10
 70
     1
102
RTVSPropertyOp11
 70
     1
102
RTVSPropertyOp12
 70
     1
102
RTVSPropertyOp13
 70
     1
102
RTVSPropertyOp14
 70
     1
102
RTVSPropertyOp15
 70
     1
102
RTVSPropertyOp16
 70
     1
102
RTVSPropertyOp17
 70
     1
102
RTVSPropertyOp18
 70
     1
102
RTVSPropertyOp19
 70
     1
102
RTVSPropertyOp20
 70
     1
102
RTVSPropertyOp21
 70
     1
102
RTVSPropertyOp22
 70
     1
102
RTVSPropertyOp23
 70
     1
102
RTVSPropertyOp24
 70
     1
102
RTVSPropertyOp25
 70
     1
102
RTVSPropertyOp26
 70
     1
102
RTVSPropertyOp27
 70
     1
102
RTVSPropertyOp28
 70
     1
102
RTVSPropertyOp29
 70
     1
102
RTVSPropertyOp30
 70
     1
102
RTVSPropertyOp31
 70
     1
102
RTVSPropertyOp32
 70
     1
  0
XRECORD
  5
38B
102
{ACAD_REACTORS
330
38A
102
}
330
38A
100
AcDbXrecord
280
     1
102
RTVSPropertyOp0
 70
     1
102
RTVSPropertyOp1
 70
     1
102
RTVSPropertyOp2
 70
     1
102
RTVSPropertyOp3
 70
     1
102
RTVSPropertyOp4
 70
     1
102
RTVSPropertyOp5
 70
     1
102
RTVSPropertyOp6
 70
     1
102
RTVSPropertyOp7
 70
     1
102
RTVSPropertyOp8
 70
     1
102
RTVSPropertyOp9
 70
     1
102
RTVSPropertyOp10
 70
     1
102
RTVSPropertyOp11
 70
     1
102
RTVSPropertyOp12
 70
     1
102
RTVSPropertyOp13
 70
     1
102
RTVSPropertyOp14
 70
     1
102
RTVSPropertyOp15
 70
     1
102
RTVSPropertyOp16
 70
     1
102
RTVSPropertyOp17
 70
     1
102
RTVSPropertyOp18
 70
     1
102
RTVSPropertyOp19
 70
     1
102
RTVSPropertyOp20
 70
     1
102
RTVSPropertyOp21
 70
     1
102
RTVSPropertyOp22
 70
     1
102
RTVSPropertyOp23
 70
     1
102
RTVSPropertyOp24
 70
     1
102
RTVSPropertyOp25
 70
     1
102
RTVSPropertyOp26
 70
     1
102
RTVSPropertyOp27
 70
     1
102
RTVSPropertyOp28
 70
     1
102
RTVSPropertyOp29
 70
     1
102
RTVSPropertyOp30
 70
     1
102
RTVSPropertyOp31
 70
     1
102
RTVSPropertyOp32
 70
     1
  0
XRECORD
  5
39F
102
{ACAD_REACTORS
330
39E
102
}
330
39E
100
AcDbXrecord
280
     1
102
RTVSPropertyOp0
 70
     1
102
RTVSPropertyOp1
 70
     1
102
RTVSPropertyOp2
 70
     1
102
RTVSPropertyOp3
 70
     1
102
RTVSPropertyOp4
 70
     1
102
RTVSPropertyOp5
 70
     1
102
RTVSPropertyOp6
 70
     1
102
RTVSPropertyOp7
 70
     1
102
RTVSPropertyOp8
 70
     1
102
RTVSPropertyOp9
 70
     1
102
RTVSPropertyOp10
 70
     1
102
RTVSPropertyOp11
 70
     1
102
RTVSPropertyOp12
 70
     1
102
RTVSPropertyOp13
 70
     1
102
RTVSPropertyOp14
 70
     1
102
RTVSPropertyOp15
 70
     1
102
RTVSPropertyOp16
 70
     1
102
RTVSPropertyOp17
 70
     1
102
RTVSPropertyOp18
 70
     1
102
RTVSPropertyOp19
 70
     1
102
RTVSPropertyOp20
 70
     1
102
RTVSPropertyOp21
 70
     1
102
RTVSPropertyOp22
 70
     1
102
RTVSPropertyOp23
 70
     1
102
RTVSPropertyOp24
 70
     1
102
RTVSPropertyOp25
 70
     1
102
RTVSPropertyOp26
 70
     1
102
RTVSPropertyOp27
 70
     1
102
RTVSPropertyOp28
 70
     1
102
RTVSPropertyOp29
 70
     1
102
RTVSPropertyOp30
 70
     1
102
RTVSPropertyOp31
 70
     1
102
RTVSPropertyOp32
 70
     1
  0
XRECORD
  5
395
102
{ACAD_REACTORS
330
394
102
}
330
394
100
AcDbXrecord
280
     1
102
RTVSPropertyOp0
 70
     1
102
RTVSPropertyOp1
 70
     1
102
RTVSPropertyOp2
 70
     1
102
RTVSPropertyOp3
 70
     1
102
RTVSPropertyOp4
 70
     1
102
RTVSPropertyOp5
 70
     1
102
RTVSPropertyOp6
 70
     1
102
RTVSPropertyOp7
 70
     1
102
RTVSPropertyOp8
 70
     1
102
RTVSPropertyOp9
 70
     1
102
RTVSPropertyOp10
 70
     1
102
RTVSPropertyOp11
 70
     1
102
RTVSPropertyOp12
 70
     1
102
RTVSPropertyOp13
 70
     1
102
RTVSPropertyOp14
 70
     1
102
RTVSPropertyOp15
 70
     1
102
RTVSPropertyOp16
 70
     1
102
RTVSPropertyOp17
 70
     1
102
RTVSPropertyOp18
 70
     1
102
RTVSPropertyOp19
 70
     1
102
RTVSPropertyOp20
 70
     1
102
RTVSPropertyOp21
 70
     1
102
RTVSPropertyOp22
 70
     1
102
RTVSPropertyOp23
 70
     1
102
RTVSPropertyOp24
 70
     1
102
RTVSPropertyOp25
 70
     1
102
RTVSPropertyOp26
 70
     1
102
RTVSPropertyOp27
 70
     1
102
RTVSPropertyOp28
 70
     1
102
RTVSPropertyOp29
 70
     1
102
RTVSPropertyOp30
 70
     1
102
RTVSPropertyOp31
 70
     1
102
RTVSPropertyOp32
 70
     1
  0
XRECORD
  5
39D
102
{ACAD_REACTORS
330
39C
102
}
330
39C
100
AcDbXrecord
280
     1
102
RTVSPropertyOp0
 70
     1
102
RTVSPropertyOp1
 70
     1
102
RTVSPropertyOp2
 70
     1
102
RTVSPropertyOp3
 70
     1
102
RTVSPropertyOp4
 70
     1
102
RTVSPropertyOp5
 70
     1
102
RTVSPropertyOp6
 70
     1
102
RTVSPropertyOp7
 70
     1
102
RTVSPropertyOp8
 70
     1
102
RTVSPropertyOp9
 70
     1
102
RTVSPropertyOp10
 70
     1
102
RTVSPropertyOp11
 70
     1
102
RTVSPropertyOp12
 70
     1
102
RTVSPropertyOp13
 70
     1
102
RTVSPropertyOp14
 70
     1
102
RTVSPropertyOp15
 70
     1
102
RTVSPropertyOp16
 70
     1
102
RTVSPropertyOp17
 70
     1
102
RTVSPropertyOp18
 70
     1
102
RTVSPropertyOp19
 70
     1
102
RTVSPropertyOp20
 70
     1
102
RTVSPropertyOp21
 70
     1
102
RTVSPropertyOp22
 70
     1
102
RTVSPropertyOp23
 70
     1
102
RTVSPropertyOp24
 70
     1
102
RTVSPropertyOp25
 70
     1
102
RTVSPropertyOp26
 70
     1
102
RTVSPropertyOp27
 70
     1
102
RTVSPropertyOp28
 70
     1
102
RTVSPropertyOp29
 70
     1
102
RTVSPropertyOp30
 70
     1
102
RTVSPropertyOp31
 70
     1
102
RTVSPropertyOp32
 70
     1
  0
ENDSEC
  0
EOF
