  0
SECTION
  2
HEADER
  9
$ACADVER
  1
AC1015
  9
$ACADMAINTVER
 70
     6
  9
$DWGCODEPAGE
  3
ANSI_949
  9
$INSBASE
 10
0.0
 20
0.0
 30
0.0
  9
$EXTMIN
 10
1.000000000000000E+20
 20
1.000000000000000E+20
 30
1.000000000000000E+20
  9
$EXTMAX
 10
-1.000000000000000E+20
 20
-1.000000000000000E+20
 30
-1.000000000000000E+20
  9
$LIMMIN
 10
0.0
 20
0.0
  9
$LIMMAX
 10
12.0
 20
9.0
  9
$ORTHOMODE
 70
     0
  9
$REGENMODE
 70
     1
  9
$FILLMODE
 70
     1
  9
$QTEXTMODE
 70
     0
  9
$MIRRTEXT
 70
     1
  9
$LTSCALE
 40
1.0
  9
$ATTMODE
 70
     1
  9
$TEXTSIZE
 40
0.2
  9
$TRACEWID
 40
0.05
  9
$TEXTSTYLE
  7
Standard
  9
$CLAYER
  8
0
  9
$CELTYPE
  6
ByLayer
  9
$CECOLOR
 62
   256
  9
$CELTSCALE
 40
1.0
  9
$DISPSILH
 70
     0
  9
$DIMSCALE
 40
1.0
  9
$DIMASZ
 40
0.18
  9
$DIMEXO
 40
0.0625
  9
$DIMDLI
 40
0.38
  9
$DIMRND
 40
0.0
  9
$DIMDLE
 40
0.0
  9
$DIMEXE
 40
0.18
  9
$DIMTP
 40
0.0
  9
$DIMTM
 40
0.0
  9
$DIMTXT
 40
0.18
  9
$DIMCEN
 40
0.09
  9
$DIMTSZ
 40
0.0
  9
$DIMTOL
 70
     0
  9
$DIMLIM
 70
     0
  9
$DIMTIH
 70
     1
  9
$DIMTOH
 70
     1
  9
$DIMSE1
 70
     0
  9
$DIMSE2
 70
     0
  9
$DIMTAD
 70
     0
  9
$DIMZIN
 70
     0
  9
$DIMBLK
  1

  9
$DIMASO
 70
     1
  9
$DIMSHO
 70
     1
  9
$DIMPOST
  1

  9
$DIMAPOST
  1

  9
$DIMALT
 70
     0
  9
$DIMALTD
 70
     2
  9
$DIMALTF
 40
25.4
  9
$DIMLFAC
 40
1.0
  9
$DIMTOFL
 70
     0
  9
$DIMTVP
 40
0.0
  9
$DIMTIX
 70
     0
  9
$DIMSOXD
 70
     0
  9
$DIMSAH
 70
     0
  9
$DIMBLK1
  1

  9
$DIMBLK2
  1

  9
$DIMSTYLE
  2
Standard
  9
$DIMCLRD
 70
     0
  9
$DIMCLRE
 70
     0
  9
$DIMCLRT
 70
     0
  9
$DIMTFAC
 40
1.0
  9
$DIMGAP
 40
0.09
  9
$DIMJUST
 70
     0
  9
$DIMSD1
 70
     0
  9
$DIMSD2
 70
     0
  9
$DIMTOLJ
 70
     1
  9
$DIMTZIN
 70
     0
  9
$DIMALTZ
 70
     0
  9
$DIMALTTZ
 70
     0
  9
$DIMUPT
 70
     0
  9
$DIMDEC
 70
     4
  9
$DIMTDEC
 70
     4
  9
$DIMALTU
 70
     2
  9
$DIMALTTD
 70
     2
  9
$DIMTXSTY
  7
Standard
  9
$DIMAUNIT
 70
     0
  9
$DIMADEC
 70
     0
  9
$DIMALTRND
 40
0.0
  9
$DIMAZIN
 70
     0
  9
$DIMDSEP
 70
    46
  9
$DIMATFIT
 70
     3
  9
$DIMFRAC
 70
     0
  9
$DIMLDRBLK
  1

  9
$DIMLUNIT
 70
     2
  9
$DIMLWD
 70
    -2
  9
$DIMLWE
 70
    -2
  9
$DIMTMOVE
 70
     0
  9
$LUNITS
 70
     2
  9
$LUPREC
 70
     4
  9
$SKETCHINC
 40
0.1
  9
$FILLETRAD
 40
0.5
  9
$AUNITS
 70
     0
  9
$AUPREC
 70
     0
  9
$MENU
  1
.
  9
$ELEVATION
 40
0.0
  9
$PELEVATION
 40
0.0
  9
$THICKNESS
 40
0.0
  9
$LIMCHECK
 70
     0
  9
$CHAMFERA
 40
0.5
  9
$CHAMFERB
 40
0.5
  9
$CHAMFERC
 40
1.0
  9
$CHAMFERD
 40
0.0
  9
$SKPOLY
 70
     0
  9
$TDCREATE
 40
2456522.616845313
  9
$TDUCREATE
 40
2456522.116845313
  9
$TDUPDATE
 40
2456522.616874768
  9
$TDUUPDATE
 40
2456522.116874768
  9
$TDINDWG
 40
0.0000000116
  9
$TDUSRTIMER
 40
0.0000000116
  9
$USRTIMER
 70
     1
  9
$ANGBASE
 50
0.0
  9
$ANGDIR
 70
     0
  9
$PDMODE
 70
     0
  9
$PDSIZE
 40
0.0
  9
$PLINEWID
 40
0.0
  9
$SPLFRAME
 70
     0
  9
$SPLINETYPE
 70
     6
  9
$SPLINESEGS
 70
     8
  9
$HANDSEED
  5
458
  9
$SURFTAB1
 70
     6
  9
$SURFTAB2
 70
     6
  9
$SURFTYPE
 70
     6
  9
$SURFU
 70
     6
  9
$SURFV
 70
     6
  9
$UCSBASE
  2

  9
$UCSNAME
  2

  9
$UCSORG
 10
0.0
 20
0.0
 30
0.0
  9
$UCSXDIR
 10
1.0
 20
0.0
 30
0.0
  9
$UCSYDIR
 10
0.0
 20
1.0
 30
0.0
  9
$UCSORTHOREF
  2

  9
$UCSORTHOVIEW
 70
     0
  9
$UCSORGTOP
 10
0.0
 20
0.0
 30
0.0
  9
$UCSORGBOTTOM
 10
0.0
 20
0.0
 30
0.0
  9
$UCSORGLEFT
 10
0.0
 20
0.0
 30
0.0
  9
$UCSORGRIGHT
 10
0.0
 20
0.0
 30
0.0
  9
$UCSORGFRONT
 10
0.0
 20
0.0
 30
0.0
  9
$UCSORGBACK
 10
0.0
 20
0.0
 30
0.0
  9
$PUCSBASE
  2

  9
$PUCSNAME
  2

  9
$PUCSORG
 10
0.0
 20
0.0
 30
0.0
  9
$PUCSXDIR
 10
1.0
 20
0.0
 30
0.0
  9
$PUCSYDIR
 10
0.0
 20
1.0
 30
0.0
  9
$PUCSORTHOREF
  2

  9
$PUCSORTHOVIEW
 70
     0
  9
$PUCSORGTOP
 10
0.0
 20
0.0
 30
0.0
  9
$PUCSORGBOTTOM
 10
0.0
 20
0.0
 30
0.0
  9
$PUCSORGLEFT
 10
0.0
 20
0.0
 30
0.0
  9
$PUCSORGRIGHT
 10
0.0
 20
0.0
 30
0.0
  9
$PUCSORGFRONT
 10
0.0
 20
0.0
 30
0.0
  9
$PUCSORGBACK
 10
0.0
 20
0.0
 30
0.0
  9
$USERI1
 70
     0
  9
$USERI2
 70
     0
  9
$USERI3
 70
     0
  9
$USERI4
 70
     0
  9
$USERI5
 70
     0
  9
$USERR1
 40
0.0
  9
$USERR2
 40
0.0
  9
$USERR3
 40
0.0
  9
$USERR4
 40
0.0
  9
$USERR5
 40
0.0
  9
$WORLDVIEW
 70
     1
  9
$SHADEDGE
 70
     3
  9
$SHADEDIF
 70
    70
  9
$TILEMODE
 70
     1
  9
$MAXACTVP
 70
    64
  9
$PINSBASE
 10
0.0
 20
0.0
 30
0.0
  9
$PLIMCHECK
 70
     0
  9
$PEXTMIN
 10
1.000000000000000E+20
 20
1.000000000000000E+20
 30
1.000000000000000E+20
  9
$PEXTMAX
 10
-1.000000000000000E+20
 20
-1.000000000000000E+20
 30
-1.000000000000000E+20
  9
$PLIMMIN
 10
0.0
 20
0.0
  9
$PLIMMAX
 10
12.0
 20
9.0
  9
$UNITMODE
 70
     0
  9
$VISRETAIN
 70
     1
  9
$PLINEGEN
 70
     0
  9
$PSLTSCALE
 70
     1
  9
$TREEDEPTH
 70
  3020
  9
$CMLSTYLE
  2
Standard
  9
$CMLJUST
 70
     0
  9
$CMLSCALE
 40
1.0
  9
$PROXYGRAPHICS
 70
     1
  9
$MEASUREMENT
 70
     0
  9
$CELWEIGHT
370
    -1
  9
$ENDCAPS
280
     0
  9
$JOINSTYLE
280
     0
  9
$LWDISPLAY
290
     1
  9
$INSUNITS
 70
     4
  9
$HYPERLINKBASE
  1

  9
$STYLESHEET
  1

  9
$XEDIT
290
     1
  9
$CEPSNTYPE
380
     0
  9
$PSTYLEMODE
290
     1
  9
$FINGERPRINTGUID
  2
{D1E310A0-829D-4E35-BAEA-976D8A43B5BE}
  9
$VERSIONGUID
  2
{FAEB1C32-E019-11D5-929B-00C0DF256EC4}
  9
$EXTNAMES
290
     1
  9
$PSVPSCALE
 40
0.0
  9
$OLESTARTUP
290
     0
  0
ENDSEC
  0
SECTION
  2
CLASSES
  0
CLASS
  1
ACDBDICTIONARYWDFLT
  2
AcDbDictionaryWithDefault
  3
ObjectDBX Classes
 90
        0
280
     0
281
     0
  0
CLASS
  1
VISUALSTYLE
  2
AcDbVisualStyle
  3
ObjectDBX Classes
 90
     4095
280
     0
281
     0
  0
CLASS
  1
MATERIAL
  2
AcDbMaterial
  3
ObjectDBX Classes
 90
     1153
280
     0
281
     0
  0
CLASS
  1
WIPEOUT
  2
AcDbWipeout
  3
WipeOut|AutoCAD Express Tool|expresstools@autodesk.com
 90
      127
280
     0
281
     1
  0
CLASS
  1
SPATIAL_FILTER
  2
AcDbSpatialFilter
  3
ObjectDBX Classes
 90
        0
280
     0
281
     0
  0
CLASS
  1
SCALE
  2
AcDbScale
  3
ObjectDBX Classes
 90
     1153
280
     0
281
     0
  0
CLASS
  1
DICTIONARYVAR
  2
AcDbDictionaryVar
  3
ObjectDBX Classes
 90
        0
280
     0
281
     0
  0
CLASS
  1
ACDBPLACEHOLDER
  2
AcDbPlaceHolder
  3
ObjectDBX Classes
 90
        0
280
     0
281
     0
  0
CLASS
  1
LAYOUT
  2
AcDbLayout
  3
ObjectDBX Classes
 90
        0
280
     0
281
     0
  0
ENDSEC
  0
SECTION
  2
TABLES
  0
TABLE
  2
VPORT
  5
8
330
0
100
AcDbSymbolTable
 70
     1
  0
VPORT
  5
29
330
8
100
AcDbSymbolTableRecord
100
AcDbViewportTableRecord
  2
*Active
 70
     0
 10
0.0
 20
0.0
 11
1.0
 21
1.0
 12
148.1087158480206
 22
103.1012512370945
 13
0.0
 23
0.0
 14
0.5
 24
0.5
 15
0.5
 25
0.5
 16
0.0
 26
0.0
 36
1.0
 17
0.0
 27
0.0
 37
0.0
 40
206.1916404102843
 41
1.415875928573294
 42
50.0
 43
0.0
 44
0.0
 50
0.0
 51
0.0
 71
     0
 72
   100
 73
     1
 74
     3
 75
     0
 76
     0
 77
     0
 78
     0
281
     0
 65
     1
110
0.0
120
0.0
130
0.0
111
1.0
121
0.0
131
0.0
112
0.0
122
1.0
132
0.0
 79
     0
146
0.0
  0
ENDTAB
  0
TABLE
  2
LTYPE
  5
5
330
0
100
AcDbSymbolTable
 70
     6
  0
LTYPE
  5
14
330
5
100
AcDbSymbolTableRecord
100
AcDbLinetypeTableRecord
  2
ByBlock
 70
     0
  3

 72
    65
 73
     0
 40
0.0
  0
LTYPE
  5
15
330
5
100
AcDbSymbolTableRecord
100
AcDbLinetypeTableRecord
  2
ByLayer
 70
     0
  3

 72
    65
 73
     0
 40
0.0
  0
LTYPE
  5
16
330
5
100
AcDbSymbolTableRecord
100
AcDbLinetypeTableRecord
  2
Continuous
 70
     0
  3
Solid line
 72
    65
 73
     0
 40
0.0
  0
LTYPE
  5
E7
330
5
100
AcDbSymbolTableRecord
100
AcDbLinetypeTableRecord
  2
Wipeout_Contour
 70
     0
  3
- - - - - 
 72
    65
 73
     2
 40
1000.0
 49
0.0
 74
     0
 49
-1000.0
 74
     0
  0
LTYPE
  5
10A
330
5
100
AcDbSymbolTableRecord
100
AcDbLinetypeTableRecord
  2
Hidden Line
 70
     0
  3
- - - - - 
 72
    65
 73
     2
 40
3.912222232818603
 49
2.822222232818604
 74
     0
 49
-1.089999999999999
 74
     0
  0
LTYPE
  5
10C
330
5
100
AcDbSymbolTableRecord
100
AcDbLinetypeTableRecord
  2
Double Dashed
 70
     0
  3
- - - - - 
 72
    65
 73
     4
 40
10.93611073493958
 49
5.291666507720947
 74
     0
 49
-2.116666555404663
 74
     0
 49
1.411111116409302
 74
     0
 49
-2.116666555404668
 74
     0
  0
LTYPE
  5
151
330
5
100
AcDbSymbolTableRecord
100
AcDbLinetypeTableRecord
  2
Dot & Dashed
 70
     0
  3
- - - - - 
 72
    65
 73
     4
 40
6.702777624130249
 49
3.527777671813965
 74
     0
 49
-1.763888835906982
 74
     0
 49
0.0
 74
     0
 49
-1.411111116409302
 74
     0
  0
LTYPE
  5
36E
330
5
100
AcDbSymbolTableRecord
100
AcDbLinetypeTableRecord
  2
Dashed
 70
     0
  3
- - - - - 
 72
    65
 73
     2
 40
5.644444465637207
 49
2.822222232818604
 74
     0
 49
-2.822222232818603
 74
     0
  0
ENDTAB
  0
TABLE
  2
LAYER
  5
2
330
0
100
AcDbSymbolTable
 70
     5
  0
LAYER
  5
10
330
2
100
AcDbSymbolTableRecord
100
AcDbLayerTableRecord
  2
0
 70
     0
 62
     7
  6
Continuous
370
    -3
390
F
  0
LAYER
  5
40
330
2
100
AcDbSymbolTableRecord
100
AcDbLayerTableRecord
  2
Doc_ Finishes
 70
     0
 62
     7
  6
Continuous
370
    -3
390
F
  0
LAYER
  5
DB
330
2
100
AcDbSymbolTableRecord
100
AcDbLayerTableRecord
  2
Doc_ Floor
 70
     0
 62
     7
  6
Continuous
370
    -3
390
F
  0
LAYER
  5
E8
330
2
100
AcDbSymbolTableRecord
100
AcDbLayerTableRecord
  2
Des_ Walls
 70
     0
 62
     7
  6
Continuous
370
    -3
390
F
  0
LAYER
  5
F1
330
2
100
AcDbSymbolTableRecord
100
AcDbLayerTableRecord
  2
Des_ Furniture
 70
     0
 62
     7
  6
Continuous
370
    -3
390
F
  0
ENDTAB
  0
TABLE
  2
STYLE
  5
3
330
0
100
AcDbSymbolTable
 70
     4
  0
STYLE
  5
11
330
3
100
AcDbSymbolTableRecord
100
AcDbTextStyleTableRecord
  2
Standard
 70
     0
 40
0.0
 41
1.0
 50
0.0
 71
     0
 42
0.2
  3
txt
  4

  0
STYLE
  5
D6
330
3
100
AcDbSymbolTableRecord
100
AcDbTextStyleTableRecord
  2
GENERATED_STYLE_1
 70
     0
 40
0.0
 41
1.0
 50
0.0
 71
     0
 42
0.2
  3

  4

1001
ACAD
1000
Century Gothic
1071
       34
  0
STYLE
  5
D9
330
3
100
AcDbSymbolTableRecord
100
AcDbTextStyleTableRecord
  2
GENERATED_STYLE_2
 70
     0
 40
0.0
 41
1.0
 50
0.0
 71
     0
 42
0.2
  3

  4

1001
ACAD
1000
DilleniaUPC
1071
 33554450
  0
STYLE
  5
37E
330
3
100
AcDbSymbolTableRecord
100
AcDbTextStyleTableRecord
  2
GENERATED_STYLE_3
 70
     0
 40
0.0
 41
1.0
 50
0.0
 71
     0
 42
0.2
  3

  4

1001
ACAD
1000
Arial
1071
       34
  0
ENDTAB
  0
TABLE
  2
VIEW
  5
6
330
0
100
AcDbSymbolTable
 70
     0
  0
ENDTAB
  0
TABLE
  2
UCS
  5
7
330
0
100
AcDbSymbolTable
 70
     0
  0
ENDTAB
  0
TABLE
  2
APPID
  5
9
330
0
100
AcDbSymbolTable
 70
     1
  0
APPID
  5
12
330
9
100
AcDbSymbolTableRecord
100
AcDbRegAppTableRecord
  2
ACAD
 70
     0
  0
ENDTAB
  0
TABLE
  2
DIMSTYLE
  5
A
330
0
100
AcDbSymbolTable
 70
     1
100
AcDbDimStyleTable
  0
DIMSTYLE
105
27
330
A
100
AcDbSymbolTableRecord
100
AcDbDimStyleTableRecord
  2
Standard
 70
     0
178
     0
340
11
  0
ENDTAB
  0
TABLE
  2
BLOCK_RECORD
  5
1
330
0
100
AcDbSymbolTable
 70
     3
  0
BLOCK_RECORD
  5
1F
330
1
100
AcDbSymbolTableRecord
100
AcDbBlockTableRecord
  2
*Model_Space
340
22
  0
BLOCK_RECORD
  5
1B
330
1
100
AcDbSymbolTableRecord
100
AcDbBlockTableRecord
  2
*Paper_Space
340
1E
  0
BLOCK_RECORD
  5
E3
330
1
100
AcDbSymbolTableRecord
100
AcDbBlockTableRecord
  2
Drawing_1_2
340
0
102
{BLKREFS
331
3FE
102
}
  0
BLOCK_RECORD
  5
402
330
1
100
AcDbSymbolTableRecord
100
AcDbBlockTableRecord
  2
C-TRS9-07 APRON DETAIL - HEAD -_STORY_MARKER
340
0
  0
ENDTAB
  0
ENDSEC
  0
SECTION
  2
BLOCKS
  0
BLOCK
  5
20
330
1F
100
AcDbEntity
  8
0
100
AcDbBlockBegin
  2
*Model_Space
 70
     0
 10
0.0
 20
0.0
 30
0.0
  3
*Model_Space
  1

  0
ENDBLK
  5
21
330
1F
100
AcDbEntity
  8
0
100
AcDbBlockEnd
  0
BLOCK
  5
1C
330
1B
100
AcDbEntity
 67
     1
  8
0
100
AcDbBlockBegin
  2
*Paper_Space
 70
     0
 10
0.0
 20
0.0
 30
0.0
  3
*Paper_Space
  1

  0
ENDBLK
  5
1D
330
1B
100
AcDbEntity
 67
     1
  8
0
100
AcDbBlockEnd
  0
BLOCK
  5
E4
330
E3
100
AcDbEntity
  8
0
100
AcDbBlockBegin
  2
Drawing_1_2
 70
     0
 10
131.9871046182792
 20
-811.5954765638904
 30
0.0
  3
Drawing_1_2
  1

  0
WIPEOUT
  5
E6
330
E3
100
AcDbEntity
  8
Des_ Walls
  6
Wipeout_Contour
 62
   254
 48
1524.793252015685
370
     0
 92
      392
310
88010000060000000C0000000E000000120000000C00000016000000000000C20C00000014000000010000009C0000000700000006000000A7FBD15F66DB68408016A7B9111965400000000000000000A7FBD15F66DB6840101F2629357B3640000000000000000012BEF65F669B6C40101F2629357B364000000000000000
310
0012BEF65F669B6C408016A7B9111965400000000000000000A4F6F30209326C40EEDDA9166F826540000000000000000016C3D4BCC3446940EEDDA9166F82654000000000000000000C0000000E000000FE000000B40000000600000007000000A7FBD15F66DB68408016A7B9111965400000000000000000A7FBD15F66DB
310
6840101F2629357B3640000000000000000012BEF65F669B6C40101F2629357B3640000000000000000012BEF65F669B6C408016A7B9111965400000000000000000A4F6F30209326C40EEDDA9166F826540000000000000000016C3D4BCC3446940EEDDA9166F8265400000000000000000A7FBD15F66DB68408016A7B911
310
1965400000000000000000
100
AcDbWipeout
 90
        0
 10
198.8562468625289
 20
22.48127991848654
 30
0.0
 11
30.0000000684698
 21
0.0
 31
0.0
 12
0.0
 22
149.5947806930202
 32
0.0
 13
1.0
 23
1.0
340
0
 70
    15
280
     1
281
    50
282
    50
283
     0
360
0
 71
     2
 91
        7
 14
-0.4999999999999995
 24
-0.4779895603654027
 14
-0.4999999999999995
 24
0.4999999999999999
 14
0.5000000000000004
 24
0.4999999999999999
 14
0.5000000000000004
 24
-0.4779895603654027
 14
0.3902451039140122
 24
-0.5
 14
-0.3902451039140103
 24
-0.5
 14
-0.4999999999999995
 24
-0.4779895603654027
  0
HATCH
  5
E9
330
E3
100
AcDbEntity
  8
Des_ Walls
  6
Continuous
100
AcDbHatch
 10
0.0
 20
0.0
 30
0.0
210
0.0
220
0.0
230
1.0
  2
Lightweight_Concrete_0002
 70
     0
 71
     0
 91
        1
 92
        3
 72
     0
 73
     1
 93
        6
 10
198.8562468625289
 20
168.7834137214122
 10
198.8562468625289
 20
22.48127991848654
 10
228.8562469309987
 20
22.48127991848654
 10
228.8562469309987
 20
168.7834137214122
 10
225.5636000409041
 20
172.0760606115068
 10
202.1488937526235
 20
172.0760606115068
 97
        0
 75
     0
 76
     2
 52
0.0
 41
1.0
 77
     0
 78
     8
 53
0.0
 43
131.9871046182792
 44
-811.5954765638904
 45
0.0
 46
31.17691453623978
 79
     2
 49
1.95
 49
-16.05
 53
0.0
 43
140.9871046182792
 44
-796.0070199331836
 45
0.0
 46
31.17691453623978
 79
     2
 49
1.95
 49
-16.05
 53
60.00000000000001
 43
131.9871046182792
 44
-811.5954765638904
 45
-27.0
 46
15.58845726811988
 79
     2
 49
1.95
 49
-16.05
 53
60.00000000000001
 43
149.9871046182792
 44
-811.5954765638904
 45
-27.0
 46
15.58845726811988
 79
     2
 49
1.95
 49
-16.05
 53
120.0
 43
133.9371045467536
 44
-811.5954765638904
 45
26.99999999999998
 46
15.58845726811991
 79
     2
 49
1.95
 49
-16.05
 53
120.0
 43
151.9371049043815
 44
-811.5954765638904
 45
26.99999999999998
 46
15.58845726811991
 79
     2
 49
1.95
 49
-16.05
 53
0.0
 43
131.9871046182792
 44
-808.5954765638904
 45
0.0
 46
6.0
 79
     4
 49
0.0
 49
-6.0
 49
0.0
 49
-9.0
 53
44.99999999999999
 43
134.9871046182792
 44
-808.5954765638904
 45
-4.242640687119285
 46
4.242640687119286
 79
     4
 49
0.0
 49
-4.5
 49
0.0
 49
-7.5
 98
        0
  0
HATCH
  5
EA
330
E3
100
AcDbEntity
  8
Doc_ Finishes
  6
Continuous
 62
   255
370
    18
100
AcDbHatch
 10
0.0
 20
0.0
 30
0.0
210
0.0
220
0.0
230
1.0
  2
SOLID
 70
     1
 71
     0
 91
        1
 92
        3
 72
     0
 73
     1
 93
        4
 10
177.5347331154454
 20
117.1001671614855
 10
173.1898182008667
 20
116.8724598196382
 10
173.6631091914944
 20
107.8415297344032
 10
178.0080241060731
 20
108.06923707625
 97
        0
 75
     0
 76
     1
 98
        0
  0
HATCH
  5
EB
330
E3
100
AcDbEntity
  8
Doc_ Finishes
  6
Continuous
 62
   253
370
    25
100
AcDbHatch
 10
0.0
 20
0.0
 30
0.0
210
0.0
220
0.0
230
1.0
  2
Hexagonal_0002
 70
     0
 71
     0
 91
        1
 92
        3
 72
     0
 73
     1
 93
        4
 10
177.5347331154454
 20
117.1001671614855
 10
173.1898182008667
 20
116.8724598196382
 10
173.6631091914944
 20
107.8415297344032
 10
178.0080241060731
 20
108.06923707625
 97
        0
 75
     0
 76
     2
 52
0.0
 41
1.0
 77
     0
 78
     6
 53
90.00000000000001
 43
131.9871046182792
 44
-811.5954765638904
 45
-1.039230484541326
 46
0.0
 79
     2
 49
0.6000000000000001
 49
-1.2
 53
90.00000000000001
 43
131.4674893853347
 44
-810.6954765638905
 45
-1.039230484541326
 46
0.0
 79
     2
 49
0.6000000000000001
 49
-1.2
 53
150.0000000000001
 43
131.9871046182792
 44
-810.9954765638904
 45
0.5196152422706625
 46
0.9000000000000004
 79
     2
 49
0.6000000000000001
 49
-1.2
 53
150.0000000000001
 43
130.9478741523902
 44
-810.9954765638904
 45
0.5196152422706625
 46
0.9000000000000004
 79
     2
 49
0.6000000000000001
 49
-1.2
 53
210.0000000000001
 43
131.9871046182792
 44
-811.5954765638904
 45
-0.5196152422706641
 46
0.8999999999999994
 79
     2
 49
0.6000000000000001
 49
-1.2
 53
210.0000000000001
 43
130.9478741523902
 44
-811.5954765638904
 45
-0.5196152422706641
 46
0.8999999999999994
 79
     2
 49
0.6000000000000001
 49
-1.2
 98
        0
  0
LINE
  5
EC
330
E3
100
AcDbEntity
  8
Doc_ Finishes
  6
Continuous
100
AcDbLine
 10
173.1898165591273
 20
116.8724612825637
 30
0.0
 11
177.534731160764
 21
117.1001683594039
 31
0.0
  0
LINE
  5
ED
330
E3
100
AcDbEntity
  8
Doc_ Finishes
  6
Continuous
100
AcDbLine
 10
173.6631094928435
 20
107.8415278164784
 30
0.0
 11
173.1898165591273
 21
116.8724612825637
 31
0.0
  0
LINE
  5
EE
330
E3
100
AcDbEntity
  8
Doc_ Finishes
  6
Continuous
100
AcDbLine
 10
178.0080240944802
 20
108.0692391582948
 30
0.0
 11
173.6631094928435
 21
107.8415278164784
 31
0.0
  0
LINE
  5
EF
330
E3
100
AcDbEntity
  8
Doc_ Finishes
  6
Continuous
100
AcDbLine
 10
177.534731160764
 20
117.1001683594039
 30
0.0
 11
178.0080240944802
 21
108.0692391582948
 31
0.0
  0
HATCH
  5
F0
330
E3
100
AcDbEntity
  8
Des_ Furniture
  6
Continuous
 62
   255
370
     0
100
AcDbHatch
 10
0.0
 20
0.0
 30
0.0
210
0.0
220
0.0
230
1.0
  2
SOLID
 70
     1
 71
     0
 91
        1
 92
        3
 72
     0
 73
     1
 93
      140
 10
161.2476834140126
 20
104.6812051329488
 10
161.1648224639166
 20
104.669652693674
 10
161.0852561460228
 20
104.6436528825045
 10
161.0113827612534
 20
104.6043327614123
 10
160.945440348909
 20
104.5530112678821
 10
160.8894563189019
 20
104.4907960263112
 10
160.8451215352237
 20
104.4197783958181
 10
160.813776860632
 20
104.3422316672038
 10
160.79637996376
 20
104.2604090489154
 10
160.7934624963268
 20
104.1767416972702
 10
161.3859055209973
 20
92.87225536384847
 10
163.1276366562724
 20
90.209761673262
 10
163.2323085687585
 20
88.21250260375302
 10
161.7784251928193
 20
85.38253385318895
 10
161.8830971053051
 20
83.38527478367985
 10
163.6248282405803
 20
80.72278109309339
 10
163.7295001530664
 20
78.7255220235844
 10
162.2756167771272
 20
75.89555327302067
 10
162.8680598017972
 20
64.59106693959859
 10
162.8797043946058
 20
64.50821081906477
 10
162.9055597240537
 20
64.4286369292052
 10
162.9448400996907
 20
64.35476146146458
 10
162.9963521317361
 20
64.28882903482047
 10
163.0585308234661
 20
64.23284308931743
 10
163.1294865389279
 20
64.18850506081009
 10
163.2070632264284
 20
64.15716195629683
 10
163.2889038200482
 20
64.13976600147197
 10
163.3725232374762
 20
64.13684602191316
 10
177.3932819054301
 20
64.8716428475643
 10
177.4761460150003
 20
64.88328785906018
 10
177.5557019295284
 20
64.90914224646127
 10
177.6295873835643
 20
64.94842314545734
 10
177.6955218074675
 20
64.99993528217496
 10
177.75150435763
 20
65.06211379596272
 10
177.7958515735292
 20
65.13306999291524
 10
177.8271944783163
 20
65.2106466699488
 10
177.8445751341369
 20
65.29248646178144
 10
177.8475028231156
 20
65.37610628324286
 10
177.6360655598942
 20
69.41056960365144
 10
177.624412838978
 20
69.4934333091881
 10
177.5985737505816
 20
69.57299002550299
 10
177.5592930513113
 20
69.64687549000614
 10
177.5077717272022
 20
69.71280943241864
 10
177.4455966087547
 20
69.76879216052312
 10
177.3746384145429
 20
69.81313927175049
 10
177.2970517512146
 20
69.84448165317814
 10
177.215229934713
 20
69.86186325104582
 10
177.1316021242153
 20
69.86479052133687
 10
175.6136852313886
 20
69.78523986784757
 10
175.6262458608869
 20
69.54556877950657
 10
177.1441627537136
 20
69.62511943299587
 10
177.1859761356029
 20
69.62366578414547
 10
177.2268880905727
 20
69.61495501262094
 10
177.2656814222372
 20
69.5992838219075
 10
177.3011494863286
 20
69.57712971552488
 10
177.3322580648621
 20
69.54911942560094
 10
177.3579982309662
 20
69.51616139397088
 10
177.3776385806016
 20
69.47921866171947
 10
177.3905780973905
 20
69.43944135028079
 10
177.3963944715532
 20
69.39800897415316
 10
177.6078317347746
 20
65.36354565374458
 10
177.6063778765806
 20
65.32173626637339
 10
177.5976675237437
 20
65.28081632236726
 10
177.5819961236862
 20
65.2420269852213
 10
177.5598425406631
 20
65.20654893483469
 10
177.5318312040202
 20
65.17546032889166
 10
177.4988740097654
 20
65.14970418471489
 10
177.461931277514
 20
65.13006383507958
 10
177.422153338044
 20
65.11713630184501
 10
177.3807212759318
 20
65.1113139359053
 10
163.3599626079775
 20
64.37651711025416
 10
163.3181529065908
 20
64.37797696022562
 10
163.2772335906161
 20
64.38667532950804
 10
163.2384442534701
 20
64.40234672956558
 10
163.2029653657082
 20
64.42451629066126
 10
163.1718778064844
 20
64.45250765471344
 10
163.1461211389478
 20
64.48547483526367
 10
163.1264809986565
 20
64.52241357299704
 10
163.1135530467344
 20
64.56219950150322
 10
163.1077308901382
 20
64.60362756909687
 10
162.5186760952755
 20
75.84346262643871
 10
163.9725594712147
 20
78.67343137700277
 10
163.8611110991143
 20
80.79999299867191
 10
162.1193799638388
 20
83.46248668925804
 10
162.0214876511249
 20
85.33038328883524
 10
163.4753710270641
 20
88.16035203939899
 10
163.3639163746491
 20
90.28703349661227
 10
161.6221852393736
 20
92.94952718719873
 10
161.0331335846682
 20
104.1893023267685
 10
161.0345974121722
 20
104.2310361323105
 10
161.0432962001423
 20
104.2719474592489
 10
161.0589632039795
 20
104.310820681276
 10
161.081136428592
 20
104.3462296649705
 10
161.1091267459252
 20
104.377337196785
 10
161.1420937171315
 20
104.4030978588397
 10
161.1790261745498
 20
104.4228578346752
 10
161.2188135684631
 20
104.4357578249704
 10
161.2602440435109
 20
104.4415340446078
 10
175.2810027114649
 20
105.1763308702588
 10
175.3228139999159
 20
105.1749171665899
 10
175.3637238614477
 20
105.1662463402467
 10
175.4025234734265
 20
105.1504553139887
 10
175.4379925842372
 20
105.1282812350157
 10
175.4691011627706
 20
105.1002709450914
 10
175.4948381887175
 20
105.0673728312338
 10
175.5144827252291
 20
105.0303502086193
 10
175.527422242018
 20
104.9905728971809
 10
175.5332344293045
 20
104.9492204114161
 10
175.7446716925259
 20
100.9147570910075
 10
175.7432138567993
 20
100.8730235994809
 10
175.7345030852747
 20
100.8321116445112
 10
175.7188360814375
 20
100.7932384224842
 10
175.6966788348976
 20
100.7578302761649
 10
175.6686685449737
 20
100.7267216976315
 10
175.6357115600626
 20
100.7009615589363
 10
175.5987751081257
 20
100.6812013737571
 10
175.5589957032491
 20
100.6683018021492
 10
175.5175612336832
 20
100.6625253731679
 10
173.9996443408561
 20
100.5829747196787
 10
174.0122049703544
 20
100.3433036313377
 10
175.5301218631814
 20
100.4228542848269
 10
175.6129908023137
 20
100.4344071427896
 10
175.6925391448757
 20
100.4604060119115
 10
175.7664225159406
 20
100.4997266563636
 10
175.8323669255439
 20
100.5510482545657
 10
175.8883475602104
 20
100.6132633181943
 10
175.9326915312805
 20
100.6842814301783
 10
175.9640360061464
 20
100.7618281483256
 10
175.9814176040138
 20
100.8436499648268
 10
175.9843427808669
 20
100.9273177205058
 10
175.7729055176455
 20
104.9617810409144
 10
175.761250703291
 20
105.0446846916321
 10
175.7354116148946
 20
105.1242414079473
 10
175.6961330090625
 20
105.1980869272688
 10
175.6446085447959
 20
105.2640807874534
 10
175.5824313329104
 20
105.3201034607396
 10
175.5114836058898
 20
105.3642508460599
 10
175.4338948491231
 20
105.3956331726687
 10
175.3520646588687
 20
105.4131745512619
 10
175.2684420819666
 20
105.4160019585998
 97
        0
 75
     0
 76
     1
 98
        0
  0
HATCH
  5
F2
330
E3
100
AcDbEntity
  8
Des_ Furniture
  6
Continuous
100
AcDbHatch
 10
0.0
 20
0.0
 30
0.0
210
0.0
220
0.0
230
1.0
  2
Steel_0002
 70
     0
 71
     0
 91
        1
 92
        3
 72
     0
 73
     1
 93
      140
 10
161.2476834140126
 20
104.6812051329488
 10
161.1648224639166
 20
104.669652693674
 10
161.0852561460228
 20
104.6436528825045
 10
161.0113827612534
 20
104.6043327614123
 10
160.945440348909
 20
104.5530112678821
 10
160.8894563189019
 20
104.4907960263112
 10
160.8451215352237
 20
104.4197783958181
 10
160.813776860632
 20
104.3422316672038
 10
160.79637996376
 20
104.2604090489154
 10
160.7934624963268
 20
104.1767416972702
 10
161.3859055209973
 20
92.87225536384847
 10
163.1276366562724
 20
90.209761673262
 10
163.2323085687585
 20
88.21250260375302
 10
161.7784251928193
 20
85.38253385318895
 10
161.8830971053051
 20
83.38527478367985
 10
163.6248282405803
 20
80.72278109309339
 10
163.7295001530664
 20
78.7255220235844
 10
162.2756167771272
 20
75.89555327302067
 10
162.8680598017972
 20
64.59106693959859
 10
162.8797043946058
 20
64.50821081906477
 10
162.9055597240537
 20
64.4286369292052
 10
162.9448400996907
 20
64.35476146146458
 10
162.9963521317361
 20
64.28882903482047
 10
163.0585308234661
 20
64.23284308931743
 10
163.1294865389279
 20
64.18850506081009
 10
163.2070632264284
 20
64.15716195629683
 10
163.2889038200482
 20
64.13976600147197
 10
163.3725232374762
 20
64.13684602191316
 10
177.3932819054301
 20
64.8716428475643
 10
177.4761460150003
 20
64.88328785906018
 10
177.5557019295284
 20
64.90914224646127
 10
177.6295873835643
 20
64.94842314545734
 10
177.6955218074675
 20
64.99993528217496
 10
177.75150435763
 20
65.06211379596272
 10
177.7958515735292
 20
65.13306999291524
 10
177.8271944783163
 20
65.2106466699488
 10
177.8445751341369
 20
65.29248646178144
 10
177.8475028231156
 20
65.37610628324286
 10
177.6360655598942
 20
69.41056960365144
 10
177.624412838978
 20
69.4934333091881
 10
177.5985737505816
 20
69.57299002550299
 10
177.5592930513113
 20
69.64687549000614
 10
177.5077717272022
 20
69.71280943241864
 10
177.4455966087547
 20
69.76879216052312
 10
177.3746384145429
 20
69.81313927175049
 10
177.2970517512146
 20
69.84448165317814
 10
177.215229934713
 20
69.86186325104582
 10
177.1316021242153
 20
69.86479052133687
 10
175.6136852313886
 20
69.78523986784757
 10
175.6262458608869
 20
69.54556877950657
 10
177.1441627537136
 20
69.62511943299587
 10
177.1859761356029
 20
69.62366578414547
 10
177.2268880905727
 20
69.61495501262094
 10
177.2656814222372
 20
69.5992838219075
 10
177.3011494863286
 20
69.57712971552488
 10
177.3322580648621
 20
69.54911942560094
 10
177.3579982309662
 20
69.51616139397088
 10
177.3776385806016
 20
69.47921866171947
 10
177.3905780973905
 20
69.43944135028079
 10
177.3963944715532
 20
69.39800897415316
 10
177.6078317347746
 20
65.36354565374458
 10
177.6063778765806
 20
65.32173626637339
 10
177.5976675237437
 20
65.28081632236726
 10
177.5819961236862
 20
65.2420269852213
 10
177.5598425406631
 20
65.20654893483469
 10
177.5318312040202
 20
65.17546032889166
 10
177.4988740097654
 20
65.14970418471489
 10
177.461931277514
 20
65.13006383507958
 10
177.422153338044
 20
65.11713630184501
 10
177.3807212759318
 20
65.1113139359053
 10
163.3599626079775
 20
64.37651711025416
 10
163.3181529065908
 20
64.37797696022562
 10
163.2772335906161
 20
64.38667532950804
 10
163.2384442534701
 20
64.40234672956558
 10
163.2029653657082
 20
64.42451629066126
 10
163.1718778064844
 20
64.45250765471344
 10
163.1461211389478
 20
64.48547483526367
 10
163.1264809986565
 20
64.52241357299704
 10
163.1135530467344
 20
64.56219950150322
 10
163.1077308901382
 20
64.60362756909687
 10
162.5186760952755
 20
75.84346262643871
 10
163.9725594712147
 20
78.67343137700277
 10
163.8611110991143
 20
80.79999299867191
 10
162.1193799638388
 20
83.46248668925804
 10
162.0214876511249
 20
85.33038328883524
 10
163.4753710270641
 20
88.16035203939899
 10
163.3639163746491
 20
90.28703349661227
 10
161.6221852393736
 20
92.94952718719873
 10
161.0331335846682
 20
104.1893023267685
 10
161.0345974121722
 20
104.2310361323105
 10
161.0432962001423
 20
104.2719474592489
 10
161.0589632039795
 20
104.310820681276
 10
161.081136428592
 20
104.3462296649705
 10
161.1091267459252
 20
104.377337196785
 10
161.1420937171315
 20
104.4030978588397
 10
161.1790261745498
 20
104.4228578346752
 10
161.2188135684631
 20
104.4357578249704
 10
161.2602440435109
 20
104.4415340446078
 10
175.2810027114649
 20
105.1763308702588
 10
175.3228139999159
 20
105.1749171665899
 10
175.3637238614477
 20
105.1662463402467
 10
175.4025234734265
 20
105.1504553139887
 10
175.4379925842372
 20
105.1282812350157
 10
175.4691011627706
 20
105.1002709450914
 10
175.4948381887175
 20
105.0673728312338
 10
175.5144827252291
 20
105.0303502086193
 10
175.527422242018
 20
104.9905728971809
 10
175.5332344293045
 20
104.9492204114161
 10
175.7446716925259
 20
100.9147570910075
 10
175.7432138567993
 20
100.8730235994809
 10
175.7345030852747
 20
100.8321116445112
 10
175.7188360814375
 20
100.7932384224842
 10
175.6966788348976
 20
100.7578302761649
 10
175.6686685449737
 20
100.7267216976315
 10
175.6357115600626
 20
100.7009615589363
 10
175.5987751081257
 20
100.6812013737571
 10
175.5589957032491
 20
100.6683018021492
 10
175.5175612336832
 20
100.6625253731679
 10
173.9996443408561
 20
100.5829747196787
 10
174.0122049703544
 20
100.3433036313377
 10
175.5301218631814
 20
100.4228542848269
 10
175.6129908023137
 20
100.4344071427896
 10
175.6925391448757
 20
100.4604060119115
 10
175.7664225159406
 20
100.4997266563636
 10
175.8323669255439
 20
100.5510482545657
 10
175.8883475602104
 20
100.6132633181943
 10
175.9326915312805
 20
100.6842814301783
 10
175.9640360061464
 20
100.7618281483256
 10
175.9814176040138
 20
100.8436499648268
 10
175.9843427808669
 20
100.9273177205058
 10
175.7729055176455
 20
104.9617810409144
 10
175.761250703291
 20
105.0446846916321
 10
175.7354116148946
 20
105.1242414079473
 10
175.6961330090625
 20
105.1980869272688
 10
175.6446085447959
 20
105.2640807874534
 10
175.5824313329104
 20
105.3201034607396
 10
175.5114836058898
 20
105.3642508460599
 10
175.4338948491231
 20
105.3956331726687
 10
175.3520646588687
 20
105.4131745512619
 10
175.2684420819666
 20
105.4160019585998
 97
        0
 75
     0
 76
     2
 52
0.0
 41
1.0
 77
     0
 78
     2
 53
44.99999999999999
 43
131.9871046182792
 44
-811.5954765638904
 45
-1.590990257669732
 46
1.590990257669732
 79
     0
 53
44.99999999999999
 43
131.4567745323893
 44
-811.0651464780005
 45
-1.590990257669732
 46
1.590990257669732
 79
     0
 98
        0
  0
LINE
  5
F3
330
E3
100
AcDbEntity
  8
Des_ Furniture
  6
Continuous
 62
   251
370
    18
100
AcDbLine
 10
196.856246004969
 20
65.9116814603759
 30
0.0
 11
177.3932832266302
 21
64.87164143546606
 31
0.0
  0
LINE
  5
F4
330
E3
100
AcDbEntity
  8
Des_ Furniture
  6
Continuous
 62
   251
370
    18
100
AcDbLine
 10
163.5939827365228
 20
64.14845075398257
 30
0.0
 11
64.90405949836459
 21
58.99636382542199
 31
0.0
  0
LINE
  5
F5
330
E3
100
AcDbEntity
  8
Des_ Furniture
  6
Continuous
 62
   251
370
    18
100
AcDbLine
 10
196.856246004969
 20
64.18932202046241
 30
0.0
 11
64.90405949836459
 21
57.27400865048466
 31
0.0
  0
LINE
  5
F6
330
E3
100
AcDbEntity
  8
Des_ Furniture
  6
Continuous
100
AcDbLine
 10
161.3859022223816
 20
92.87225480294208
 30
0.0
 11
163.1276374489609
 21
90.2097624045166
 31
0.0
  0
LINE
  5
F7
330
E3
100
AcDbEntity
  8
Des_ Furniture
  6
Continuous
100
AcDbLine
 10
161.7784250377011
 20
85.38253444459883
 30
0.0
 11
161.8830960824625
 21
83.38527170172955
 31
0.0
  0
LINE
  5
F8
330
E3
100
AcDbEntity
  8
Des_ Furniture
  6
Continuous
100
AcDbLine
 10
162.0214860286942
 20
85.33038231619273
 30
0.0
 11
162.1193800263476
 21
83.46248909499029
 31
0.0
  0
LINE
  5
F9
330
E3
100
AcDbEntity
  8
Des_ Furniture
  6
Continuous
100
AcDbLine
 10
163.2323084937223
 20
88.21249966164731
 30
0.0
 11
161.7784250377011
 21
85.38253444459883
 31
0.0
  0
LINE
  5
FA
330
E3
100
AcDbEntity
  8
Des_ Furniture
  6
Continuous
100
AcDbLine
 10
163.1276374489609
 20
90.2097624045166
 30
0.0
 11
163.2323084937223
 21
88.21249966164731
 31
0.0
  0
LINE
  5
FB
330
E3
100
AcDbEntity
  8
Des_ Furniture
  6
Continuous
100
AcDbLine
 10
161.6221861662666
 20
92.94952764089282
 30
0.0
 11
163.3639171278697
 21
90.28703524246734
 31
0.0
  0
LINE
  5
FC
330
E3
100
AcDbEntity
  8
Des_ Furniture
  6
Continuous
100
AcDbLine
 10
163.4753694847154
 20
88.16035179821738
 30
0.0
 11
162.0214860286942
 21
85.33038231619273
 31
0.0
  0
LINE
  5
FD
330
E3
100
AcDbEntity
  8
Des_ Furniture
  6
Continuous
100
AcDbLine
 10
163.3639171278697
 20
90.28703524246734
 30
0.0
 11
163.4753694847154
 21
88.16035179821738
 31
0.0
  0
LINE
  5
FE
330
E3
100
AcDbEntity
  8
Des_ Furniture
  6
Continuous
100
AcDbLine
 10
161.8830960824625
 20
83.38527170172955
 30
0.0
 11
163.6248270440656
 21
80.72278356828022
 31
0.0
  0
LINE
  5
FF
330
E3
100
AcDbEntity
  8
Des_ Furniture
  6
Continuous
100
AcDbLine
 10
163.7295023538032
 20
78.72552082541092
 30
0.0
 11
162.275618897782
 21
75.89555560836244
 31
0.0
  0
LINE
  5
100
330
E3
100
AcDbEntity
  8
Des_ Furniture
  6
Continuous
100
AcDbLine
 10
163.6248270440656
 20
80.72278356828022
 30
0.0
 11
163.7295023538032
 21
78.72552082541092
 31
0.0
  0
LINE
  5
101
330
E3
100
AcDbEntity
  8
Des_ Furniture
  6
Continuous
100
AcDbLine
 10
162.1193800263476
 20
83.46248909499029
 30
0.0
 11
163.8611109879506
 21
80.79999243158866
 31
0.0
  0
LINE
  5
102
330
E3
100
AcDbEntity
  8
Des_ Furniture
  6
Continuous
100
AcDbLine
 10
163.9725590798201
 20
78.67343267164715
 30
0.0
 11
162.5186756237989
 21
75.84346318962248
 31
0.0
  0
LINE
  5
103
330
E3
100
AcDbEntity
  8
Des_ Furniture
  6
Continuous
100
AcDbLine
 10
163.8611109879506
 20
80.79999243158866
 30
0.0
 11
163.9725590798201
 21
78.67343267164715
 31
0.0
  0
LINE
  5
104
330
E3
100
AcDbEntity
  8
Des_ Furniture
  6
Continuous
100
AcDbLine
 10
173.9996459661948
 20
100.5829734306359
 30
0.0
 11
174.0122063209671
 21
100.3433030956849
 31
0.0
  0
LINE
  5
105
330
E3
100
AcDbEntity
  8
Des_ Furniture
  6
Continuous
100
AcDbLine
 10
175.6136835417594
 20
69.78523942747019
 30
0.0
 11
175.6262438965317
 21
69.54556909251919
 31
0.0
  0
LINE
  5
106
330
E3
100
AcDbEntity
  8
Des_ Walls
  6
Continuous
100
AcDbLine
 10
198.8562468625289
 20
168.7834138171291
 30
0.0
 11
198.8562468625289
 21
153.0699067297675
 31
0.0
  0
LINE
  5
107
330
E3
100
AcDbEntity
  8
Des_ Walls
  6
Continuous
100
AcDbLine
 10
228.8562469309987
 20
168.7834137214122
 30
0.0
 11
228.8562469309987
 21
22.48127991848654
 31
0.0
  0
LINE
  5
108
330
E3
100
AcDbEntity
  8
Des_ Furniture
  6
Continuous
 62
   251
370
    18
100
AcDbLine
 10
19.74080250596469
 20
107.8685762952445
 30
0.0
 11
193.4541470318449
 21
116.9725133581508
 31
0.0
  0
LINE
  5
109
330
E3
100
AcDbEntity
  8
Des_ Furniture
  6
Continuous
 62
   251
370
    18
100
AcDbLine
 10
19.74080250596469
 20
99.86857712998112
 30
0.0
 11
193.8722639690621
 21
108.9944276403646
 31
0.0
  0
LINE
  5
10B
330
E3
100
AcDbEntity
  8
Des_ Furniture
  6
Hidden Line
 62
   251
370
    18
100
AcDbLine
 10
20.01291651451605
 20
99.07451533975342
 30
0.0
 11
197.0691792044131
 21
108.3536448281208
 31
0.0
  0
LINE
  5
10D
330
E3
100
AcDbEntity
  8
Des_ Furniture
  6
Double Dashed
 62
   251
370
    18
100
AcDbLine
 10
15.9674330936944
 20
97.92532604512091
 30
0.0
 11
197.3708025829712
 21
107.4322777646846
 31
0.0
  0
LINE
  5
10E
330
E3
100
AcDbEntity
  8
Des_ Furniture
  6
Hidden Line
 62
   251
370
    18
100
AcDbLine
 10
197.6377772952575
 20
150.4326501952428
 30
0.0
 11
197.6377772952575
 21
108.9528227979863
 31
0.0
  0
LINE
  5
10F
330
E3
100
AcDbEntity
  8
Des_ Walls
  6
Continuous
100
AcDbLine
 10
198.8562468625289
 20
153.0699066340505
 30
0.0
 11
198.8562468625289
 21
22.48127991848654
 31
0.0
  0
LINE
  5
110
330
E3
100
AcDbEntity
  8
Des_ Walls
  6
Continuous
100
AcDbLine
 10
196.856246004969
 20
67.91168081276815
 30
0.0
 11
196.856246004969
 21
22.48127850903585
 31
0.0
  0
LWPOLYLINE
  5
111
330
E3
100
AcDbEntity
  8
Des_ Furniture
  6
Continuous
100
AcDbPolyline
 90
       32
 70
   128
 43
0.0
 10
174.0122049703544
 20
100.3433036313377
 10
175.5301218631814
 20
100.4228542848269
 10
175.6129908023137
 20
100.4344071427896
 10
175.6925391448757
 20
100.4604060119115
 10
175.7664225159406
 20
100.4997266563636
 10
175.8323669255439
 20
100.5510482545657
 10
175.8883475602104
 20
100.6132633181943
 10
175.9326915312805
 20
100.6842814301783
 10
175.9640360061464
 20
100.7618281483256
 10
175.9814176040138
 20
100.8436499648268
 10
175.9843427808669
 20
100.9273177205058
 10
175.7729055176455
 20
104.9617810409144
 10
175.761250703291
 20
105.0446846916321
 10
175.7354116148946
 20
105.1242414079473
 10
175.6961330090625
 20
105.1980869272688
 10
175.6446085447959
 20
105.2640807874534
 10
175.5824313329104
 20
105.3201034607396
 10
175.5114836058898
 20
105.3642508460599
 10
175.4338948491231
 20
105.3956331726687
 10
175.3520646588687
 20
105.4131745512619
 10
175.2684420819666
 20
105.4160019585998
 10
161.2476834140126
 20
104.6812051329488
 10
161.1648224639166
 20
104.669652693674
 10
161.0852561460228
 20
104.6436528825045
 10
161.0113827612534
 20
104.6043327614123
 10
160.945440348909
 20
104.5530112678821
 10
160.8894563189019
 20
104.4907960263112
 10
160.8451215352237
 20
104.4197783958181
 10
160.813776860632
 20
104.3422316672038
 10
160.79637996376
 20
104.2604090489154
 10
160.7934624963268
 20
104.1767416972702
 10
161.3859055209973
 20
92.87225536384847
  0
LWPOLYLINE
  5
112
330
E3
100
AcDbEntity
  8
Des_ Furniture
  6
Continuous
100
AcDbPolyline
 90
       32
 70
   128
 43
0.0
 10
173.9996443408561
 20
100.5829747196787
 10
175.5175612336832
 20
100.6625253731679
 10
175.5589957032491
 20
100.6683018021492
 10
175.5987751081257
 20
100.6812013737571
 10
175.6357115600626
 20
100.7009615589363
 10
175.6686685449737
 20
100.7267216976315
 10
175.6966788348976
 20
100.7578302761649
 10
175.7188360814375
 20
100.7932384224842
 10
175.7345030852747
 20
100.8321116445112
 10
175.7432138567993
 20
100.8730235994809
 10
175.7446716925259
 20
100.9147570910075
 10
175.5332344293045
 20
104.9492204114161
 10
175.527422242018
 20
104.9905728971809
 10
175.5144827252291
 20
105.0303502086193
 10
175.4948381887175
 20
105.0673728312338
 10
175.4691011627706
 20
105.1002709450914
 10
175.4379925842372
 20
105.1282812350157
 10
175.4025234734265
 20
105.1504553139887
 10
175.3637238614477
 20
105.1662463402467
 10
175.3228139999159
 20
105.1749171665899
 10
175.2810027114649
 20
105.1763308702588
 10
161.2602440435109
 20
104.4415340446078
 10
161.2188135684631
 20
104.4357578249704
 10
161.1790261745498
 20
104.4228578346752
 10
161.1420937171315
 20
104.4030978588397
 10
161.1091267459252
 20
104.377337196785
 10
161.081136428592
 20
104.3462296649705
 10
161.0589632039795
 20
104.310820681276
 10
161.0432962001423
 20
104.2719474592489
 10
161.0345974121722
 20
104.2310361323105
 10
161.0331335846682
 20
104.1893023267685
 10
161.6221852393736
 20
92.94952718719873
  0
LWPOLYLINE
  5
113
330
E3
100
AcDbEntity
  8
Des_ Furniture
  6
Continuous
100
AcDbPolyline
 90
       32
 70
   128
 43
0.0
 10
162.2756167771272
 20
75.89555327302067
 10
162.8680598017972
 20
64.59106693959859
 10
162.8797043946058
 20
64.50821081906477
 10
162.9055597240537
 20
64.4286369292052
 10
162.9448400996907
 20
64.35476146146458
 10
162.9963521317361
 20
64.28882903482047
 10
163.0585308234661
 20
64.23284308931743
 10
163.1294865389279
 20
64.18850506081009
 10
163.2070632264284
 20
64.15716195629683
 10
163.2889038200482
 20
64.13976600147197
 10
163.3725232374762
 20
64.13684602191316
 10
177.3932819054301
 20
64.8716428475643
 10
177.4761460150003
 20
64.88328785906018
 10
177.5557019295284
 20
64.90914224646127
 10
177.6295873835643
 20
64.94842314545734
 10
177.6955218074675
 20
64.99993528217496
 10
177.75150435763
 20
65.06211379596272
 10
177.7958515735292
 20
65.13306999291524
 10
177.8271944783163
 20
65.2106466699488
 10
177.8445751341369
 20
65.29248646178144
 10
177.8475028231156
 20
65.37610628324286
 10
177.6360655598942
 20
69.41056960365144
 10
177.624412838978
 20
69.4934333091881
 10
177.5985737505816
 20
69.57299002550299
 10
177.5592930513113
 20
69.64687549000614
 10
177.5077717272022
 20
69.71280943241864
 10
177.4455966087547
 20
69.76879216052312
 10
177.3746384145429
 20
69.81313927175049
 10
177.2970517512146
 20
69.84448165317814
 10
177.215229934713
 20
69.86186325104582
 10
177.1316021242153
 20
69.86479052133687
 10
175.6136852313886
 20
69.78523986784757
  0
LWPOLYLINE
  5
114
330
E3
100
AcDbEntity
  8
Des_ Furniture
  6
Continuous
100
AcDbPolyline
 90
       32
 70
   128
 43
0.0
 10
162.5186760952755
 20
75.84346262643871
 10
163.1077308901382
 20
64.60362756909687
 10
163.1135530467344
 20
64.56219950150322
 10
163.1264809986565
 20
64.52241357299704
 10
163.1461211389478
 20
64.48547483526367
 10
163.1718778064844
 20
64.45250765471344
 10
163.2029653657082
 20
64.42451629066126
 10
163.2384442534701
 20
64.40234672956558
 10
163.2772335906161
 20
64.38667532950804
 10
163.3181529065908
 20
64.37797696022562
 10
163.3599626079775
 20
64.37651711025416
 10
177.3807212759318
 20
65.1113139359053
 10
177.422153338044
 20
65.11713630184501
 10
177.461931277514
 20
65.13006383507958
 10
177.4988740097654
 20
65.14970418471489
 10
177.5318312040202
 20
65.17546032889166
 10
177.5598425406631
 20
65.20654893483469
 10
177.5819961236862
 20
65.2420269852213
 10
177.5976675237437
 20
65.28081632236726
 10
177.6063778765806
 20
65.32173626637339
 10
177.6078317347746
 20
65.36354565374458
 10
177.3963944715532
 20
69.39800897415316
 10
177.3905780973905
 20
69.43944135028079
 10
177.3776385806016
 20
69.47921866171947
 10
177.3579982309662
 20
69.51616139397088
 10
177.3322580648621
 20
69.54911942560094
 10
177.3011494863286
 20
69.57712971552488
 10
177.2656814222372
 20
69.5992838219075
 10
177.2268880905727
 20
69.61495501262094
 10
177.1859761356029
 20
69.62366578414547
 10
177.1441627537136
 20
69.62511943299587
 10
175.6262458608869
 20
69.54556877950657
  0
HATCH
  5
115
330
E3
100
AcDbEntity
  8
Des_ Walls
  6
Continuous
 62
   255
370
     0
100
AcDbHatch
 10
0.0
 20
0.0
 30
0.0
210
0.0
220
0.0
230
1.0
  2
SOLID
 70
     1
 71
     0
 91
        1
 92
        3
 72
     0
 73
     1
 93
        6
 10
162.7923051673842
 20
73.67948051728335
 10
156.3901957595398
 20
73.34396018049105
 10
156.2690701814903
 20
73.20943659764345
 10
156.3812784716752
 20
71.06837487512973
 10
156.5158020545229
 20
70.94724929708019
 10
162.9179114623672
 20
71.28276963387225
 97
        0
 75
     0
 76
     1
 98
        0
  0
LINE
  5
116
330
E3
100
AcDbEntity
  8
Des_ Walls
  6
Continuous
100
AcDbLine
 10
162.7923036988848
 20
73.67948252890938
 30
0.0
 11
156.3901949094686
 21
73.34396111988261
 31
0.0
  0
LINE
  5
117
330
E3
100
AcDbEntity
  8
Des_ Walls
  6
Continuous
100
AcDbLine
 10
156.3901949094686
 20
73.34396111988261
 30
0.0
 11
156.2690695867066
 21
73.20943524204607
 31
0.0
  0
LINE
  5
118
330
E3
100
AcDbEntity
  8
Des_ Walls
  6
Continuous
100
AcDbLine
 10
156.2690695867066
 20
73.20943524204607
 30
0.0
 11
156.3812768443314
 21
71.06837456318235
 31
0.0
  0
LINE
  5
119
330
E3
100
AcDbEntity
  8
Des_ Walls
  6
Continuous
100
AcDbLine
 10
156.3812768443314
 20
71.06837456318235
 30
0.0
 11
156.5158027221679
 21
70.94724924042039
 31
0.0
  0
LINE
  5
11A
330
E3
100
AcDbEntity
  8
Des_ Walls
  6
Continuous
100
AcDbLine
 10
156.5158027221679
 20
70.94724924042039
 30
0.0
 11
162.9179115115842
 21
71.28277064944716
 31
0.0
  0
LINE
  5
11B
330
E3
100
AcDbEntity
  8
Des_ Walls
  6
Continuous
100
AcDbLine
 10
162.9179115115842
 20
71.28277064944716
 30
0.0
 11
162.7923036988848
 21
73.67948252890938
 31
0.0
  0
LINE
  5
11C
330
E3
100
AcDbEntity
  8
Des_ Walls
  6
Continuous
100
AcDbLine
 10
156.3901949094686
 20
73.34396111988261
 30
0.0
 11
156.5158027221679
 21
70.94724924042039
 31
0.0
  0
LINE
  5
11D
330
E3
100
AcDbEntity
  8
Des_ Walls
  6
Continuous
100
AcDbLine
 10
162.2541490078249
 20
73.6512782416057
 30
0.0
 11
162.379752555548
 21
71.25456636214348
 31
0.0
  0
LINE
  5
11E
330
E3
100
AcDbEntity
  8
Des_ Walls
  6
Continuous
100
AcDbLine
 10
162.1330236850629
 20
73.51675236376914
 30
0.0
 11
162.2452309426877
 21
71.37569168490543
 31
0.0
  0
LINE
  5
11F
330
E3
100
AcDbEntity
  8
Des_ Walls
  6
Continuous
100
AcDbLine
 10
162.1330236850629
 20
73.51675236376914
 30
0.0
 11
162.2541490078249
 21
73.6512782416057
 31
0.0
  0
LINE
  5
120
330
E3
100
AcDbEntity
  8
Des_ Walls
  6
Continuous
100
AcDbLine
 10
162.2452309426877
 20
71.37569168490543
 30
0.0
 11
162.379752555548
 21
71.25456636214348
 31
0.0
  0
LINE
  5
121
330
E3
100
AcDbEntity
  8
Des_ Walls
  6
Continuous
100
AcDbLine
 10
162.1330236850629
 20
73.51675236376914
 30
0.0
 11
156.2690695867066
 21
73.20943524204607
 31
0.0
  0
LINE
  5
122
330
E3
100
AcDbEntity
  8
Des_ Walls
  6
Continuous
100
AcDbLine
 10
162.2452309426877
 20
71.37569168490543
 30
0.0
 11
156.3812768443314
 21
71.06837456318235
 31
0.0
  0
HATCH
  5
123
330
E3
100
AcDbEntity
  8
Des_ Walls
  6
Continuous
 62
   255
370
     0
100
AcDbHatch
 10
0.0
 20
0.0
 30
0.0
210
0.0
220
0.0
230
1.0
  2
SOLID
 70
     1
 71
     0
 91
        1
 92
        3
 72
     0
 73
     1
 93
        4
 10
164.4346362987555
 20
71.00291962702188
 10
164.2714689352597
 20
74.11633839286257
 10
162.7735246331278
 20
74.03783445849821
 10
162.9366919966237
 20
70.92441569265728
 97
        0
 75
     0
 76
     1
 98
        0
  0
HATCH
  5
124
330
E3
100
AcDbEntity
  8
Des_ Walls
  6
Continuous
 62
   255
370
     0
100
AcDbHatch
 10
0.0
 20
0.0
 30
0.0
210
0.0
220
0.0
230
1.0
  2
SOLID
 70
     1
 71
     0
 91
        1
 92
        3
 72
     1
 73
     1
 93
        4
 10
164.1577843544842
 20
71.50873876560104
 42
0.2405626121623441
 10
164.0490061121537
 20
73.5843512761617
 42
0.0
 10
162.8007191937105
 20
73.51893133085807
 42
0.0
 10
162.909497436041
 20
71.44331882029742
 42
0.0
 97
        0
 75
     0
 76
     1
 98
        0
  0
ARC
  5
125
330
E3
100
AcDbEntity
  8
Des_ Walls
  6
Continuous
100
AcDbCircle
 10
162.0711841300933
 20
72.44004134992697
 30
0.0
 40
2.285000000000108
100
AcDbArc
 50
335.9475818795686
 51
30.05241812043135
  0
LINE
  5
126
330
E3
100
AcDbEntity
  8
Des_ Walls
  6
Continuous
100
AcDbLine
 10
164.049004512397
 20
73.58435223580356
 30
0.0
 11
162.8007184968359
 21
73.51893176658363
 31
0.0
  0
LINE
  5
127
330
E3
100
AcDbEntity
  8
Des_ Walls
  6
Continuous
100
AcDbLine
 10
162.8007184968359
 20
73.51893176658363
 30
0.0
 11
162.9094967136332
 21
71.44331714679674
 31
0.0
  0
LINE
  5
128
330
E3
100
AcDbEntity
  8
Des_ Walls
  6
Continuous
100
AcDbLine
 10
162.9094967136332
 20
71.44331714679674
 30
0.0
 11
164.1577827291943
 21
71.50873761601667
 31
0.0
  0
HATCH
  5
129
330
E3
100
AcDbEntity
  8
Des_ Walls
  6
Continuous
 62
   255
370
     0
100
AcDbHatch
 10
0.0
 20
0.0
 30
0.0
210
0.0
220
0.0
230
1.0
  2
SOLID
 70
     1
 71
     0
 91
        1
 92
        3
 72
     1
 73
     1
 93
        4
 10
164.2121734756495
 20
70.47093251032099
 42
0.4811252243246882
 10
164.1577843544842
 20
71.50873876560104
 42
0.0
 10
162.909497436041
 20
71.44331882029742
 42
0.0
 10
162.9638865572063
 20
70.40551256501715
 42
0.0
 97
        0
 75
     0
 76
     1
 98
        0
  0
ARC
  5
12A
330
E3
100
AcDbEntity
  8
Des_ Walls
  6
Continuous
100
AcDbCircle
 10
163.7705476581438
 20
70.96811621612021
 30
0.0
 40
0.6649999999998425
100
AcDbArc
 50
311.6132381910014
 51
54.38676180899739
  0
LINE
  5
12B
330
E3
100
AcDbEntity
  8
Des_ Walls
  6
Continuous
100
AcDbLine
 10
164.1577827291943
 20
71.50873761601667
 30
0.0
 11
162.9094967136332
 21
71.44331714679674
 31
0.0
  0
LINE
  5
12C
330
E3
100
AcDbEntity
  8
Des_ Walls
  6
Continuous
100
AcDbLine
 10
162.9094967136332
 20
71.44331714679674
 30
0.0
 11
162.9638879545199
 21
70.40551196939138
 31
0.0
  0
LINE
  5
12D
330
E3
100
AcDbEntity
  8
Des_ Walls
  6
Continuous
100
AcDbLine
 10
162.9638879545199
 20
70.40551196939138
 30
0.0
 11
164.2121739700811
 21
70.4709324386113
 31
0.0
  0
HATCH
  5
12E
330
E3
100
AcDbEntity
  8
Des_ Walls
  6
Continuous
 62
   255
370
     0
100
AcDbHatch
 10
0.0
 20
0.0
 30
0.0
210
0.0
220
0.0
230
1.0
  2
SOLID
 70
     1
 71
     0
 91
        1
 92
        3
 72
     1
 73
     1
 93
        4
 10
163.9946169909884
 20
74.62215753144208
 42
0.0
 10
162.7463300725452
 20
74.55673758613824
 42
0.0
 10
162.8007191937105
 20
73.51893133085807
 42
0.0
 10
164.0490061121537
 20
73.5843512761617
 42
0.4811252243246882
 97
        0
 75
     0
 76
     1
 98
        0
  0
LINE
  5
12F
330
E3
100
AcDbEntity
  8
Des_ Walls
  6
Continuous
100
AcDbLine
 10
162.7463315209253
 20
74.556736943989
 30
0.0
 11
163.9946175364865
 21
74.62215741320891
 31
0.0
  0
LINE
  5
130
330
E3
100
AcDbEntity
  8
Des_ Walls
  6
Continuous
100
AcDbLine
 10
162.8007184968359
 20
73.51893176658363
 30
0.0
 11
162.7463315209253
 21
74.556736943989
 31
0.0
  0
LINE
  5
131
330
E3
100
AcDbEntity
  8
Des_ Walls
  6
Continuous
100
AcDbLine
 10
164.049004512397
 20
73.58435223580356
 30
0.0
 11
162.8007184968359
 21
73.51893176658363
 31
0.0
  0
ARC
  5
132
330
E3
100
AcDbEntity
  8
Des_ Walls
  6
Continuous
100
AcDbCircle
 10
163.6073802946478
 20
74.08153498196108
 30
0.0
 40
0.665000000000088
100
AcDbArc
 50
311.6132381910019
 51
54.38676180899338
  0
HATCH
  5
133
330
E3
100
AcDbEntity
  8
Des_ Walls
  6
Continuous
 62
   255
370
     0
100
AcDbHatch
 10
0.0
 20
0.0
 30
0.0
210
0.0
220
0.0
230
1.0
  2
SOLID
 70
     1
 71
     0
 91
        1
 92
        3
 72
     0
 73
     1
 93
        4
 10
159.6822628823257
 20
70.75385828994297
 10
159.5190955188298
 20
73.86727705578377
 10
157.4419460865403
 20
73.75841826679842
 10
157.6051134500362
 20
70.6449995009576
 97
        0
 75
     0
 76
     1
 98
        0
  0
HATCH
  5
134
330
E3
100
AcDbEntity
  8
Des_ Walls
  6
Continuous
 62
   255
370
     0
100
AcDbHatch
 10
0.0
 20
0.0
 30
0.0
210
0.0
220
0.0
230
1.0
  2
SOLID
 70
     1
 71
     0
 91
        1
 92
        3
 72
     1
 73
     1
 93
        4
 10
159.3088767496948
 20
71.25461828608547
 42
0.3335801555317839
 10
159.2000985073642
 20
73.33023079664613
 42
0.0
 10
157.8153322191712
 20
73.2576582706559
 42
0.3335801555317839
 10
157.9241104615018
 20
71.18204576009535
 42
0.0
 97
        0
 75
     0
 76
     1
 98
        0
  0
ARC
  5
135
330
E3
100
AcDbEntity
  8
Des_ Walls
  6
Continuous
100
AcDbCircle
 10
157.872025870032
 20
72.21997279065923
 30
0.0
 40
1.731025641025723
100
AcDbArc
 50
326.1046488728494
 51
39.89535112715053
  0
LINE
  5
136
330
E3
100
AcDbEntity
  8
Des_ Walls
  6
Continuous
100
AcDbLine
 10
159.2000976786906
 20
73.33023216164419
 30
0.0
 11
157.8153324262145
 21
73.25765932741471
 31
0.0
  0
ARC
  5
137
330
E3
100
AcDbEntity
  8
Des_ Walls
  6
Continuous
100
AcDbCircle
 10
159.2521830988339
 20
72.29230376608216
 30
0.0
 40
1.731025641025647
100
AcDbArc
 50
146.1046488728482
 51
219.8953511271492
  0
LINE
  5
138
330
E3
100
AcDbEntity
  8
Des_ Walls
  6
Continuous
100
AcDbLine
 10
157.9241106430118
 20
71.18204470762782
 30
0.0
 11
159.3088758954879
 21
71.25461754185733
 31
0.0
  0
HATCH
  5
139
330
E3
100
AcDbEntity
  8
Des_ Walls
  6
Continuous
 62
   255
370
     0
100
AcDbHatch
 10
0.0
 20
0.0
 30
0.0
210
0.0
220
0.0
230
1.0
  2
SOLID
 70
     1
 71
     0
 91
        1
 92
        3
 72
     1
 73
     1
 93
        4
 10
159.3632658708601
 20
70.21681203080522
 42
0.6671603110635675
 10
159.3088767496948
 20
71.25461828608547
 42
0.0
 10
157.9241104615018
 20
71.18204576009535
 42
0.6671603110635675
 10
157.978499582667
 20
70.14423950481508
 42
0.0
 97
        0
 75
     0
 76
     1
 98
        0
  0
ARC
  5
13A
330
E3
100
AcDbEntity
  8
Des_ Walls
  6
Continuous
100
AcDbCircle
 10
159.1202777101712
 20
70.72440589508028
 30
0.0
 40
0.5627564102563926
100
AcDbArc
 50
295.5807117677992
 51
70.41928823219868
  0
LINE
  5
13B
330
E3
100
AcDbEntity
  8
Des_ Walls
  6
Continuous
100
AcDbLine
 10
159.3088758954879
 20
71.25461754185733
 30
0.0
 11
157.9241106430118
 21
71.18204470762782
 31
0.0
  0
ARC
  5
13C
330
E3
100
AcDbEntity
  8
Des_ Walls
  6
Continuous
100
AcDbCircle
 10
158.1670986221907
 20
70.67445189582028
 30
0.0
 40
0.5627564102564045
100
AcDbArc
 50
115.5807117678017
 51
250.4192882321987
  0
LINE
  5
13D
330
E3
100
AcDbEntity
  8
Des_ Walls
  6
Continuous
100
AcDbLine
 10
157.9784976189224
 20
70.14423953022248
 30
0.0
 11
159.3632671363746
 21
70.21681236445195
 31
0.0
  0
HATCH
  5
13E
330
E3
100
AcDbEntity
  8
Des_ Walls
  6
Continuous
 62
   255
370
     0
100
AcDbHatch
 10
0.0
 20
0.0
 30
0.0
210
0.0
220
0.0
230
1.0
  2
SOLID
 70
     1
 71
     0
 91
        1
 92
        3
 72
     1
 73
     1
 93
        4
 10
159.1457093861989
 20
74.3680370519263
 42
0.0
 10
157.7609430980059
 20
74.29546452593615
 42
0.6671603110635675
 10
157.8153322191712
 20
73.2576582706559
 42
0.0
 10
159.2000985073642
 20
73.33023079664613
 42
0.6671603110635675
 97
        0
 75
     0
 76
     1
 98
        0
  0
LINE
  5
13F
330
E3
100
AcDbEntity
  8
Des_ Walls
  6
Continuous
100
AcDbLine
 10
157.7609411853278
 20
74.29546450482007
 30
0.0
 11
159.14571070278
 21
74.36803733904956
 31
0.0
  0
ARC
  5
140
330
E3
100
AcDbEntity
  8
Des_ Walls
  6
Continuous
100
AcDbCircle
 10
158.0039312586948
 20
73.78787066166109
 30
0.0
 40
0.5627564102564045
100
AcDbArc
 50
115.5807117678017
 51
250.4192882321987
  0
LINE
  5
141
330
E3
100
AcDbEntity
  8
Des_ Walls
  6
Continuous
100
AcDbLine
 10
159.2000976786906
 20
73.33023216164419
 30
0.0
 11
157.8153324262145
 21
73.25765932741471
 31
0.0
  0
ARC
  5
142
330
E3
100
AcDbEntity
  8
Des_ Walls
  6
Continuous
100
AcDbCircle
 10
158.9571103466753
 20
73.83782466092116
 30
0.0
 40
0.5627564102563549
100
AcDbArc
 50
295.5807117678009
 51
70.41928823219632
  0
HATCH
  5
143
330
E3
100
AcDbEntity
  8
Des_ Walls
  6
Continuous
 62
   255
370
     0
100
AcDbHatch
 10
0.0
 20
0.0
 30
0.0
210
0.0
220
0.0
230
1.0
  2
SOLID
 70
     1
 71
     0
 91
        1
 92
        3
 72
     0
 73
     1
 93
        4
 10
162.3248166103666
 20
74.95676452996702
 10
162.5864963915812
 20
69.96361685619412
 10
162.9859482054831
 20
69.9845512386913
 10
162.7242684242684
 20
74.97769891246419
 97
        0
 75
     0
 76
     1
 98
        0
  0
LINE
  5
144
330
E3
100
AcDbEntity
  8
Des_ Walls
  6
Continuous
100
AcDbLine
 10
162.3248153977137
 20
74.95676611733882
 30
0.0
 11
162.5864972745933
 21
69.96361779011792
 31
0.0
  0
LINE
  5
145
330
E3
100
AcDbEntity
  8
Des_ Walls
  6
Continuous
100
AcDbLine
 10
162.5864972745933
 20
69.96361779011792
 30
0.0
 11
162.9859464111863
 21
69.98455029307975
 31
0.0
  0
LINE
  5
146
330
E3
100
AcDbEntity
  8
Des_ Walls
  6
Continuous
100
AcDbLine
 10
162.9859464111863
 20
69.98455029307975
 30
0.0
 11
162.7242687992828
 21
74.97769862030064
 31
0.0
  0
LINE
  5
147
330
E3
100
AcDbEntity
  8
Des_ Walls
  6
Continuous
100
AcDbLine
 10
162.7242687992828
 20
74.97769862030064
 30
0.0
 11
162.3248153977137
 21
74.95676611733882
 31
0.0
  0
HATCH
  5
148
330
E3
100
AcDbEntity
  8
Des_ Walls
  6
Continuous
 62
   255
370
     0
100
AcDbHatch
 10
0.0
 20
0.0
 30
0.0
210
0.0
220
0.0
230
1.0
  2
SOLID
 70
     1
 71
     0
 91
        1
 92
        3
 72
     0
 73
     1
 93
        4
 10
159.8692911238722
 20
74.82807589224694
 10
159.4698393099704
 20
74.80714150974977
 10
159.7315190911851
 20
69.81399383597697
 10
160.1309709050869
 20
69.83492821847415
 97
        0
 75
     0
 76
     1
 98
        0
  0
LINE
  5
149
330
E3
100
AcDbEntity
  8
Des_ Walls
  6
Continuous
100
AcDbLine
 10
159.8692894970935
 20
74.8280747268804
 30
0.0
 11
159.4698403605005
 21
74.80714222391858
 31
0.0
  0
LINE
  5
14A
330
E3
100
AcDbEntity
  8
Des_ Walls
  6
Continuous
100
AcDbLine
 10
159.4698403605005
 20
74.80714222391858
 30
0.0
 11
159.7315179724041
 21
69.81399389669768
 31
0.0
  0
LINE
  5
14B
330
E3
100
AcDbEntity
  8
Des_ Walls
  6
Continuous
100
AcDbLine
 10
159.7315179724041
 20
69.81399389669768
 30
0.0
 11
160.1309713739731
 21
69.83492639965951
 31
0.0
  0
LINE
  5
14C
330
E3
100
AcDbEntity
  8
Des_ Walls
  6
Continuous
100
AcDbLine
 10
160.1309713739731
 20
69.83492639965951
 30
0.0
 11
159.8692894970935
 21
74.8280747268804
 31
0.0
  0
LINE
  5
14D
330
E3
100
AcDbEntity
  8
Des_ Walls
  6
Continuous
100
AcDbLine
 10
164.4346351262523
 20
71.0029199741532
 30
0.0
 11
164.2714699335445
 21
74.11633977134547
 31
0.0
  0
LINE
  5
14E
330
E3
100
AcDbEntity
  8
Des_ Walls
  6
Continuous
100
AcDbLine
 10
162.7735250088806
 20
74.03783435528632
 30
0.0
 11
162.9366902015885
 21
70.92441455809406
 31
0.0
  0
LINE
  5
14F
330
E3
100
AcDbEntity
  8
Des_ Walls
  6
Continuous
100
AcDbLine
 10
159.6822617628062
 20
70.753858161712
 30
0.0
 11
159.5190965700984
 21
73.86727795890425
 31
0.0
  0
LINE
  5
150
330
E3
100
AcDbEntity
  8
Des_ Walls
  6
Continuous
100
AcDbLine
 10
157.4419465588961
 20
73.75841870756003
 30
0.0
 11
157.6051117516041
 21
70.64499891036776
 31
0.0
  0
LINE
  5
152
330
E3
100
AcDbEntity
  8
Des_ Walls
  6
Dot & Dashed
100
AcDbLine
 10
166.0507241553468
 20
72.64859940780129
 30
0.0
 11
154.7273660067069
 21
72.05516636081464
 31
0.0
  0
HATCH
  5
153
330
E3
100
AcDbEntity
  8
Des_ Walls
  6
Continuous
 62
   255
370
     0
100
AcDbHatch
 10
0.0
 20
0.0
 30
0.0
210
0.0
220
0.0
230
1.0
  2
SOLID
 70
     1
 71
     0
 91
        1
 92
        3
 72
     0
 73
     1
 93
        6
 10
161.4083956390088
 20
100.0860473916652
 10
155.0062862311644
 20
99.75052705487286
 10
154.8851606531149
 20
99.61600347202526
 10
154.9973689432997
 20
97.47494174951154
 10
155.1318925261474
 20
97.353816171462
 10
161.5340019339918
 20
97.68933650825406
 97
        0
 75
     0
 76
     1
 98
        0
  0
LINE
  5
154
330
E3
100
AcDbEntity
  8
Des_ Walls
  6
Continuous
100
AcDbLine
 10
161.4083957066156
 20
100.0860482640527
 30
0.0
 11
155.0062869171994
 21
99.75052685502591
 31
0.0
  0
LINE
  5
155
330
E3
100
AcDbEntity
  8
Des_ Walls
  6
Continuous
100
AcDbLine
 10
155.0062869171994
 20
99.75052685502591
 30
0.0
 11
154.8851615944374
 21
99.61600524216551
 31
0.0
  0
LINE
  5
156
330
E3
100
AcDbEntity
  8
Des_ Walls
  6
Continuous
100
AcDbLine
 10
154.8851615944374
 20
99.61600524216551
 30
0.0
 11
154.9973688520622
 21
97.47494029832565
 31
0.0
  0
LINE
  5
157
330
E3
100
AcDbEntity
  8
Des_ Walls
  6
Continuous
100
AcDbLine
 10
154.9973688520622
 20
97.47494029832565
 30
0.0
 11
155.1318904649226
 21
97.3538149755637
 31
0.0
  0
LINE
  5
158
330
E3
100
AcDbEntity
  8
Des_ Walls
  6
Continuous
100
AcDbLine
 10
155.1318904649226
 20
97.3538149755637
 30
0.0
 11
161.534003519315
 21
97.68933638459046
 31
0.0
  0
LINE
  5
159
330
E3
100
AcDbEntity
  8
Des_ Walls
  6
Continuous
100
AcDbLine
 10
161.534003519315
 20
97.68933638459046
 30
0.0
 11
161.4083957066156
 21
100.0860482640527
 31
0.0
  0
LINE
  5
15A
330
E3
100
AcDbEntity
  8
Des_ Walls
  6
Continuous
100
AcDbLine
 10
155.0062869171994
 20
99.75052685502591
 30
0.0
 11
155.1318904649226
 21
97.3538149755637
 31
0.0
  0
LINE
  5
15B
330
E3
100
AcDbEntity
  8
Des_ Walls
  6
Continuous
100
AcDbLine
 10
160.8702367505795
 20
100.057843976749
 30
0.0
 11
160.9958445632789
 21
97.66113209728678
 31
0.0
  0
LINE
  5
15C
330
E3
100
AcDbEntity
  8
Des_ Walls
  6
Continuous
100
AcDbLine
 10
160.7491114278176
 20
99.92331809891246
 30
0.0
 11
160.8613229504185
 21
97.78225742004872
 31
0.0
  0
LINE
  5
15D
330
E3
100
AcDbEntity
  8
Des_ Walls
  6
Continuous
100
AcDbLine
 10
160.7491114278176
 20
99.92331809891246
 30
0.0
 11
160.8702367505795
 21
100.057843976749
 31
0.0
  0
LINE
  5
15E
330
E3
100
AcDbEntity
  8
Des_ Walls
  6
Continuous
100
AcDbLine
 10
160.8613229504185
 20
97.78225742004872
 30
0.0
 11
160.9958445632789
 21
97.66113209728678
 31
0.0
  0
LINE
  5
15F
330
E3
100
AcDbEntity
  8
Des_ Walls
  6
Continuous
100
AcDbLine
 10
160.7491114278176
 20
99.92331809891246
 30
0.0
 11
154.8851615944374
 21
99.61600524216551
 31
0.0
  0
LINE
  5
160
330
E3
100
AcDbEntity
  8
Des_ Walls
  6
Continuous
100
AcDbLine
 10
160.8613229504185
 20
97.78225742004872
 30
0.0
 11
154.9973688520622
 21
97.47494029832565
 31
0.0
  0
HATCH
  5
161
330
E3
100
AcDbEntity
  8
Des_ Walls
  6
Continuous
 62
   255
370
     0
100
AcDbHatch
 10
0.0
 20
0.0
 30
0.0
210
0.0
220
0.0
230
1.0
  2
SOLID
 70
     1
 71
     0
 91
        1
 92
        3
 72
     0
 73
     1
 93
        4
 10
163.0507267703801
 20
97.40948650140369
 10
162.8875594068842
 20
100.5229052672444
 10
161.3896151047524
 20
100.44440133288
 10
161.5527824682482
 20
97.33098256703909
 97
        0
 75
     0
 76
     1
 98
        0
  0
HATCH
  5
162
330
E3
100
AcDbEntity
  8
Des_ Walls
  6
Continuous
 62
   255
370
     0
100
AcDbHatch
 10
0.0
 20
0.0
 30
0.0
210
0.0
220
0.0
230
1.0
  2
SOLID
 70
     1
 71
     0
 91
        1
 92
        3
 72
     1
 73
     1
 93
        4
 10
162.7738748261088
 20
97.91530563998285
 42
0.2405626121623441
 10
162.6650965837782
 20
99.99091815054351
 42
0.0
 10
161.416809665335
 20
99.92549820523988
 42
0.0
 10
161.5255879076656
 20
97.84988569467923
 42
0.0
 97
        0
 75
     0
 76
     1
 98
        0
  0
ARC
  5
163
330
E3
100
AcDbEntity
  8
Des_ Walls
  6
Continuous
100
AcDbCircle
 10
160.6872746017178
 20
98.84660822430884
 30
0.0
 40
2.285000000000131
100
AcDbArc
 50
335.9475818795674
 51
30.0524181204298
  0
LINE
  5
164
330
E3
100
AcDbEntity
  8
Des_ Walls
  6
Continuous
100
AcDbLine
 10
162.6650965201279
 20
99.99091797094685
 30
0.0
 11
161.4168105045667
 21
99.92549750172694
 31
0.0
  0
LINE
  5
165
330
E3
100
AcDbEntity
  8
Des_ Walls
  6
Continuous
100
AcDbLine
 10
161.4168105045667
 20
99.92549750172694
 30
0.0
 11
161.525588721364
 21
97.8498871469162
 31
0.0
  0
LINE
  5
166
330
E3
100
AcDbEntity
  8
Des_ Walls
  6
Continuous
100
AcDbLine
 10
161.525588721364
 20
97.8498871469162
 30
0.0
 11
162.7738747369252
 21
97.91530761613612
 31
0.0
  0
HATCH
  5
167
330
E3
100
AcDbEntity
  8
Des_ Walls
  6
Continuous
 62
   255
370
     0
100
AcDbHatch
 10
0.0
 20
0.0
 30
0.0
210
0.0
220
0.0
230
1.0
  2
SOLID
 70
     1
 71
     0
 91
        1
 92
        3
 72
     1
 73
     1
 93
        4
 10
162.8282639472741
 20
96.8774993847028
 42
0.4811252243246882
 10
162.7738748261088
 20
97.91530563998285
 42
0.0
 10
161.5255879076656
 20
97.84988569467923
 42
0.0
 10
161.5799770288309
 20
96.81207943939896
 42
0.0
 97
        0
 75
     0
 76
     1
 98
        0
  0
ARC
  5
168
330
E3
100
AcDbEntity
  8
Des_ Walls
  6
Continuous
100
AcDbCircle
 10
162.3866381297684
 20
97.37468309050202
 30
0.0
 40
0.6649999999998609
100
AcDbArc
 50
311.6132381910032
 51
54.38676180899739
  0
LINE
  5
169
330
E3
100
AcDbEntity
  8
Des_ Walls
  6
Continuous
100
AcDbLine
 10
162.7738747369252
 20
97.91530761613612
 30
0.0
 11
161.525588721364
 21
97.8498871469162
 31
0.0
  0
LINE
  5
16A
330
E3
100
AcDbEntity
  8
Des_ Walls
  6
Continuous
100
AcDbLine
 10
161.525588721364
 20
97.8498871469162
 30
0.0
 11
161.5799756972746
 21
96.81207770453469
 31
0.0
  0
LINE
  5
16B
330
E3
100
AcDbEntity
  8
Des_ Walls
  6
Continuous
100
AcDbLine
 10
161.5799756972746
 20
96.81207770453469
 30
0.0
 11
162.8282659778119
 21
96.87749817375462
 31
0.0
  0
HATCH
  5
16C
330
E3
100
AcDbEntity
  8
Des_ Walls
  6
Continuous
 62
   255
370
     0
100
AcDbHatch
 10
0.0
 20
0.0
 30
0.0
210
0.0
220
0.0
230
1.0
  2
SOLID
 70
     1
 71
     0
 91
        1
 92
        3
 72
     1
 73
     1
 93
        4
 10
162.610707462613
 20
101.0287244058239
 42
0.0
 10
161.3624205441697
 20
100.96330446052
 42
0.0
 10
161.416809665335
 20
99.92549820523988
 42
0.0
 10
162.6650965837782
 20
99.99091815054351
 42
0.4811252243246882
 97
        0
 75
     0
 76
     1
 98
        0
  0
LINE
  5
16D
330
E3
100
AcDbEntity
  8
Des_ Walls
  6
Continuous
100
AcDbLine
 10
161.3624192636799
 20
100.9633026791323
 30
0.0
 11
162.6107095442173
 21
101.0287231483522
 31
0.0
  0
LINE
  5
16E
330
E3
100
AcDbEntity
  8
Des_ Walls
  6
Continuous
100
AcDbLine
 10
161.4168105045667
 20
99.92549750172694
 30
0.0
 11
161.3624192636799
 21
100.9633026791323
 31
0.0
  0
LINE
  5
16F
330
E3
100
AcDbEntity
  8
Des_ Walls
  6
Continuous
100
AcDbLine
 10
162.6650965201279
 20
99.99091797094685
 30
0.0
 11
161.4168105045667
 21
99.92549750172694
 31
0.0
  0
ARC
  5
170
330
E3
100
AcDbEntity
  8
Des_ Walls
  6
Continuous
100
AcDbCircle
 10
162.2234707662724
 20
100.4881018563429
 30
0.0
 40
0.6650000000000591
100
AcDbArc
 50
311.6132381910009
 51
54.38676180899603
  0
HATCH
  5
171
330
E3
100
AcDbEntity
  8
Des_ Walls
  6
Continuous
 62
   255
370
     0
100
AcDbHatch
 10
0.0
 20
0.0
 30
0.0
210
0.0
220
0.0
230
1.0
  2
SOLID
 70
     1
 71
     0
 91
        1
 92
        3
 72
     0
 73
     1
 93
        4
 10
158.2983533539502
 20
97.16042516432478
 10
158.1351859904544
 20
100.2738439301656
 10
156.0580365581649
 20
100.1649851411802
 10
156.2212039216607
 20
97.0515663753394
 97
        0
 75
     0
 76
     1
 98
        0
  0
HATCH
  5
172
330
E3
100
AcDbEntity
  8
Des_ Walls
  6
Continuous
 62
   255
370
     0
100
AcDbHatch
 10
0.0
 20
0.0
 30
0.0
210
0.0
220
0.0
230
1.0
  2
SOLID
 70
     1
 71
     0
 91
        1
 92
        3
 72
     1
 73
     1
 93
        4
 10
157.9249672213193
 20
97.66118516046728
 42
0.3335801555317839
 10
157.8161889789888
 20
99.73679767102794
 42
0.0
 10
156.4314226907958
 20
99.6642251450377
 42
0.3335801555317839
 10
156.5402009331263
 20
97.58861263447716
 42
0.0
 97
        0
 75
     0
 76
     1
 98
        0
  0
ARC
  5
173
330
E3
100
AcDbEntity
  8
Des_ Walls
  6
Continuous
100
AcDbCircle
 10
156.4881163416565
 20
98.62653966504108
 30
0.0
 40
1.731025641025747
100
AcDbArc
 50
326.1046488728482
 51
39.89535112714887
  0
LINE
  5
174
330
E3
100
AcDbEntity
  8
Des_ Walls
  6
Continuous
100
AcDbLine
 10
157.8161896864214
 20
99.7367978967875
 30
0.0
 11
156.4314244339453
 21
99.664225062558
 31
0.0
  0
ARC
  5
175
330
E3
100
AcDbEntity
  8
Des_ Walls
  6
Continuous
100
AcDbCircle
 10
157.8682735704584
 20
98.69887064046401
 30
0.0
 40
1.7310256410256
100
AcDbArc
 50
146.1046488728488
 51
219.8953511271508
  0
LINE
  5
176
330
E3
100
AcDbEntity
  8
Des_ Walls
  6
Continuous
100
AcDbLine
 10
156.5402026507426
 20
97.58861470774728
 30
0.0
 11
157.9249679032187
 21
97.66118327700063
 31
0.0
  0
HATCH
  5
177
330
E3
100
AcDbEntity
  8
Des_ Walls
  6
Continuous
 62
   255
370
     0
100
AcDbHatch
 10
0.0
 20
0.0
 30
0.0
210
0.0
220
0.0
230
1.0
  2
SOLID
 70
     1
 71
     0
 91
        1
 92
        3
 72
     1
 73
     1
 93
        4
 10
157.9793563424846
 20
96.62337890518702
 42
0.6671603110635675
 10
157.9249672213193
 20
97.66118516046728
 42
0.0
 10
156.5402009331263
 20
97.58861263447716
 42
0.6671603110635675
 10
156.5945900542916
 20
96.55080637919689
 42
0.0
 97
        0
 75
     0
 76
     1
 98
        0
  0
ARC
  5
178
330
E3
100
AcDbEntity
  8
Des_ Walls
  6
Continuous
100
AcDbCircle
 10
157.7363681817957
 20
97.13097276946209
 30
0.0
 40
0.5627564102564045
100
AcDbArc
 50
295.5807117678017
 51
70.41928823219868
  0
LINE
  5
179
330
E3
100
AcDbEntity
  8
Des_ Walls
  6
Continuous
100
AcDbLine
 10
157.9249679032187
 20
97.66118327700063
 30
0.0
 11
156.5402026507426
 21
97.58861470774728
 31
0.0
  0
ARC
  5
17A
330
E3
100
AcDbEntity
  8
Des_ Walls
  6
Continuous
100
AcDbCircle
 10
156.7831890938152
 20
97.08101877020209
 30
0.0
 40
0.5627564102564045
100
AcDbArc
 50
115.5807117678017
 51
250.4192882321987
  0
LINE
  5
17B
330
E3
100
AcDbEntity
  8
Des_ Walls
  6
Continuous
100
AcDbLine
 10
156.5945896266532
 20
96.55080526536578
 30
0.0
 11
157.9793548791293
 21
96.62337809959526
 31
0.0
  0
HATCH
  5
17C
330
E3
100
AcDbEntity
  8
Des_ Walls
  6
Continuous
 62
   255
370
     0
100
AcDbHatch
 10
0.0
 20
0.0
 30
0.0
210
0.0
220
0.0
230
1.0
  2
SOLID
 70
     1
 71
     0
 91
        1
 92
        3
 72
     1
 73
     1
 93
        4
 10
157.7617998578235
 20
100.7746039263081
 42
0.0
 10
156.3770335696305
 20
100.702031400318
 42
0.6671603110635675
 10
156.4314226907958
 20
99.6642251450377
 42
0.0
 10
157.8161889789888
 20
99.73679767102794
 42
0.6671603110635675
 97
        0
 75
     0
 76
     1
 98
        0
  0
LINE
  5
17D
330
E3
100
AcDbEntity
  8
Des_ Walls
  6
Continuous
100
AcDbLine
 10
156.3770331930586
 20
100.7020302399634
 30
0.0
 11
157.7617984455347
 21
100.7746030741929
 31
0.0
  0
ARC
  5
17E
330
E3
100
AcDbEntity
  8
Des_ Walls
  6
Continuous
100
AcDbCircle
 10
156.6200217303194
 20
100.1944375360429
 30
0.0
 40
0.5627564102564045
100
AcDbArc
 50
115.5807117678017
 51
250.4192882321987
  0
LINE
  5
17F
330
E3
100
AcDbEntity
  8
Des_ Walls
  6
Continuous
100
AcDbLine
 10
157.8161896864214
 20
99.7367978967875
 30
0.0
 11
156.4314244339453
 21
99.664225062558
 31
0.0
  0
ARC
  5
180
330
E3
100
AcDbEntity
  8
Des_ Walls
  6
Continuous
100
AcDbCircle
 10
157.5732008182999
 20
100.244391535303
 30
0.0
 40
0.5627564102563304
100
AcDbArc
 50
295.5807117677991
 51
70.41928823219946
  0
HATCH
  5
181
330
E3
100
AcDbEntity
  8
Des_ Walls
  6
Continuous
 62
   255
370
     0
100
AcDbHatch
 10
0.0
 20
0.0
 30
0.0
210
0.0
220
0.0
230
1.0
  2
SOLID
 70
     1
 71
     0
 91
        1
 92
        3
 72
     0
 73
     1
 93
        4
 10
160.9409070819911
 20
101.3633314043488
 10
161.2025868632058
 20
96.37018373057593
 10
161.6020386771076
 20
96.3911181130731
 10
161.340358895893
 20
101.384265786846
 97
        0
 75
     0
 76
     1
 98
        0
  0
LINE
  5
182
330
E3
100
AcDbEntity
  8
Des_ Walls
  6
Continuous
100
AcDbLine
 10
160.9409074054445
 20
101.3633318524821
 30
0.0
 11
161.202585017348
 21
96.37018352526124
 31
0.0
  0
LINE
  5
183
330
E3
100
AcDbEntity
  8
Des_ Walls
  6
Continuous
100
AcDbLine
 10
161.202585017348
 20
96.37018352526124
 30
0.0
 11
161.6020384189171
 21
96.39111602822305
 31
0.0
  0
LINE
  5
184
330
E3
100
AcDbEntity
  8
Des_ Walls
  6
Continuous
100
AcDbLine
 10
161.6020384189171
 20
96.39111602822305
 30
0.0
 11
161.3403608070136
 21
101.384264355444
 31
0.0
  0
LINE
  5
185
330
E3
100
AcDbEntity
  8
Des_ Walls
  6
Continuous
100
AcDbLine
 10
161.3403608070136
 20
101.384264355444
 30
0.0
 11
160.9409074054445
 21
101.3633318524821
 31
0.0
  0
HATCH
  5
186
330
E3
100
AcDbEntity
  8
Des_ Walls
  6
Continuous
 62
   255
370
     0
100
AcDbHatch
 10
0.0
 20
0.0
 30
0.0
210
0.0
220
0.0
230
1.0
  2
SOLID
 70
     1
 71
     0
 91
        1
 92
        3
 72
     0
 73
     1
 93
        4
 10
158.4853815954968
 20
101.2346427666288
 10
158.085929781595
 20
101.2137083841316
 10
158.3476095628096
 20
96.22056071035878
 10
158.7470613767115
 20
96.24149509285596
 97
        0
 75
     0
 76
     1
 98
        0
  0
LINE
  5
187
330
E3
100
AcDbEntity
  8
Des_ Walls
  6
Continuous
100
AcDbLine
 10
158.4853815048243
 20
101.2346447269998
 30
0.0
 11
158.0859281032552
 21
101.2137079590619
 31
0.0
  0
LINE
  5
188
330
E3
100
AcDbEntity
  8
Des_ Walls
  6
Continuous
100
AcDbLine
 10
158.0859281032552
 20
101.2137079590619
 30
0.0
 11
158.3476099801348
 21
96.22055963184098
 31
0.0
  0
LINE
  5
189
330
E3
100
AcDbEntity
  8
Des_ Walls
  6
Continuous
100
AcDbLine
 10
158.3476099801348
 20
96.22055963184098
 30
0.0
 11
158.7470633817039
 21
96.24149639977895
 31
0.0
  0
LINE
  5
18A
330
E3
100
AcDbEntity
  8
Des_ Walls
  6
Continuous
100
AcDbLine
 10
158.7470633817039
 20
96.24149639977895
 30
0.0
 11
158.4853815048243
 21
101.2346447269998
 31
0.0
  0
LINE
  5
18B
330
E3
100
AcDbEntity
  8
Des_ Walls
  6
Continuous
100
AcDbLine
 10
163.0507271339832
 20
97.4094857092965
 30
0.0
 11
162.8875576762991
 21
100.5229055064888
 31
0.0
  0
LINE
  5
18C
330
E3
100
AcDbEntity
  8
Des_ Walls
  6
Continuous
100
AcDbLine
 10
161.3896170166114
 20
100.4444000904296
 30
0.0
 11
161.5527822093193
 21
97.33098455821354
 31
0.0
  0
LINE
  5
18D
330
E3
100
AcDbEntity
  8
Des_ Walls
  6
Continuous
100
AcDbLine
 10
158.2983537705371
 20
97.1604238968553
 30
0.0
 11
158.135184312853
 21
100.2738436940476
 31
0.0
  0
LINE
  5
18E
330
E3
100
AcDbEntity
  8
Des_ Walls
  6
Continuous
100
AcDbLine
 10
156.058038566627
 20
100.1649844427033
 30
0.0
 11
156.2212037593349
 21
97.05156464551108
 31
0.0
  0
LINE
  5
18F
330
E3
100
AcDbEntity
  8
Des_ Walls
  6
Dot & Dashed
100
AcDbLine
 10
164.6668118981015
 20
99.05516514294459
 30
0.0
 11
153.3434580144377
 21
98.46173636093407
 31
0.0
  0
HATCH
  5
190
330
E3
100
AcDbEntity
  8
Des_ Walls
  6
Continuous
 62
   255
370
     0
100
AcDbHatch
 10
0.0
 20
0.0
 30
0.0
210
0.0
220
0.0
230
1.0
  2
SOLID
 70
     1
 71
     0
 91
        1
 92
        3
 72
     1
 73
     1
 93
        2
 10
168.5035853534116
 20
117.370988319647
 42
0.4999999999999998
 10
166.1068744700006
 20
117.2453820246639
 42
0.0
 97
        0
 75
     0
 76
     1
 98
        0
  0
ARC
  5
191
330
E3
100
AcDbEntity
  8
Des_ Walls
  6
Continuous
100
AcDbCircle
 10
167.3523322723247
 20
116.4094185908763
 30
0.0
 40
1.500000000000001
100
AcDbArc
 50
39.86989764584337
 51
146.1301023541554
  0
LINE
  5
192
330
E3
100
AcDbEntity
  8
Des_ Walls
  6
Continuous
100
AcDbLine
 10
166.1068725664088
 20
117.2453822674813
 30
0.0
 11
168.503584445871
 21
117.3709900801807
 31
0.0
  0
HATCH
  5
193
330
E3
100
AcDbEntity
  8
Des_ Walls
  6
Continuous
 62
   255
370
     0
100
AcDbHatch
 10
0.0
 20
0.0
 30
0.0
210
0.0
220
0.0
230
1.0
  2
SOLID
 70
     1
 71
     0
 91
        1
 92
        3
 72
     0
 73
     1
 93
        4
 10
166.6347054357174
 20
117.8738678810127
 10
166.642209708941
 20
117.7306778178917
 10
167.9204555134268
 20
117.7976678418826
 10
167.9129512402032
 20
117.9408579050036
 97
        0
 75
     0
 76
     1
 98
        0
  0
LINE
  5
194
330
E3
100
AcDbEntity
  8
Des_ Walls
  6
Continuous
100
AcDbLine
 10
166.6347060151771
 20
117.8738691534744
 30
0.0
 11
166.6422081082313
 21
117.7306768440938
 31
0.0
  0
LINE
  5
195
330
E3
100
AcDbEntity
  8
Des_ Walls
  6
Continuous
100
AcDbLine
 10
166.6422081082313
 20
117.7306768440938
 30
0.0
 11
167.9204555812715
 21
117.7976668245382
 31
0.0
  0
LINE
  5
196
330
E3
100
AcDbEntity
  8
Des_ Walls
  6
Continuous
100
AcDbLine
 10
167.9204555812715
 20
117.7976668245382
 30
0.0
 11
167.9129492232412
 21
117.9408591339188
 31
0.0
  0
LINE
  5
197
330
E3
100
AcDbEntity
  8
Des_ Walls
  6
Continuous
100
AcDbLine
 10
167.9129492232412
 20
117.9408591339188
 30
0.0
 11
166.6347060151771
 21
117.8738691534744
 31
0.0
  0
HATCH
  5
198
330
E3
100
AcDbEntity
  8
Des_ Walls
  6
Continuous
 62
   255
370
     0
100
AcDbHatch
 10
0.0
 20
0.0
 30
0.0
210
0.0
220
0.0
230
1.0
  2
SOLID
 70
     1
 71
     0
 91
        1
 92
        3
 72
     1
 73
     1
 93
        4
 10
165.9071485630497
 20
117.2349148334153
 42
0.0
 10
165.9490173280441
 20
116.4360112056115
 42
-0.4285714285714285
 10
168.7451800253569
 20
116.582551883092
 42
0.0
 10
168.7033112603625
 20
117.3814555108956
 42
0.0
 97
        0
 75
     0
 76
     1
 98
        0
  0
LINE
  5
199
330
E3
100
AcDbEntity
  8
Des_ Walls
  6
Continuous
100
AcDbLine
 10
165.9071479981124
 20
117.2349160160004
 30
0.0
 11
165.9490172690122
 21
116.4360092128623
 31
0.0
  0
ARC
  5
19A
330
E3
100
AcDbEntity
  8
Des_ Walls
  6
Continuous
100
AcDbCircle
 10
167.4168799516911
 20
115.1777754980123
 30
0.0
 40
1.933333333333343
100
AcDbArc
 50
46.60281897270755
 51
139.3971810273005
  0
LINE
  5
19B
330
E3
100
AcDbEntity
  8
Des_ Walls
  6
Continuous
100
AcDbLine
 10
168.7451782850673
 20
116.5825537934996
 30
0.0
 11
168.7033132791437
 21
117.3814563316616
 31
0.0
  0
LINE
  5
19C
330
E3
100
AcDbEntity
  8
Des_ Walls
  6
Continuous
100
AcDbLine
 10
168.7033132791437
 20
117.3814563316616
 30
0.0
 11
165.9071479981124
 21
117.2349160160004
 31
0.0
  0
HATCH
  5
19D
330
E3
100
AcDbEntity
  8
Des_ Walls
  6
Continuous
 62
   255
370
     0
100
AcDbHatch
 10
0.0
 20
0.0
 30
0.0
210
0.0
220
0.0
230
1.0
  2
SOLID
 70
     1
 71
     0
 91
        1
 92
        3
 72
     0
 73
     1
 93
        5
 10
166.9961356518332
 20
117.0917117592067
 10
168.0093597646968
 20
97.75824396635824
 10
168.3624162278137
 20
97.13586857011303
 10
168.6484826669397
 20
97.79173897835369
 10
167.6352585540761
 20
117.1252067712023
 97
        0
 75
     0
 76
     1
 98
        0
  0
LINE
  5
19E
330
E3
100
AcDbEntity
  8
Des_ Walls
  6
Continuous
100
AcDbLine
 10
166.996137154337
 20
117.0917109116914
 30
0.0
 11
168.009359009193
 21
97.75824560430402
 31
0.0
  0
LINE
  5
19F
330
E3
100
AcDbEntity
  8
Des_ Walls
  6
Continuous
100
AcDbLine
 10
168.009359009193
 20
97.75824560430402
 30
0.0
 11
168.3624180001634
 21
97.13587042913909
 31
0.0
  0
LINE
  5
1A0
330
E3
100
AcDbEntity
  8
Des_ Walls
  6
Continuous
100
AcDbLine
 10
168.3624180001634
 20
97.13587042913909
 30
0.0
 11
168.6484827457131
 21
97.79173846203815
 31
0.0
  0
LINE
  5
1A1
330
E3
100
AcDbEntity
  8
Des_ Walls
  6
Continuous
100
AcDbLine
 10
168.6484827457131
 20
97.79173846203815
 30
0.0
 11
167.6352566258809
 21
117.1252080344017
 31
0.0
  0
LINE
  5
1A2
330
E3
100
AcDbEntity
  8
Des_ Walls
  6
Continuous
100
AcDbLine
 10
167.6352566258809
 20
117.1252080344017
 30
0.0
 11
166.996137154337
 21
117.0917109116914
 31
0.0
  0
LINE
  5
1A3
330
E3
100
AcDbEntity
  8
Des_ Walls
  6
Continuous
100
AcDbLine
 10
167.8349854591535
 20
117.1356742858825
 30
0.0
 11
167.8475458139258
 21
116.8581736124492
 31
0.0
  0
LINE
  5
1A4
330
E3
100
AcDbEntity
  8
Des_ Walls
  6
Continuous
100
AcDbLine
 10
167.8475458139258
 20
116.8581736124492
 30
0.0
 11
167.8561695957084
 21
116.5804682201605
 31
0.0
  0
LINE
  5
1A5
330
E3
100
AcDbEntity
  8
Des_ Walls
  6
Continuous
100
AcDbLine
 10
167.8561695957084
 20
116.5804682201605
 30
0.0
 11
167.8609037192389
 21
116.3025538440403
 31
0.0
  0
LINE
  5
1A6
330
E3
100
AcDbEntity
  8
Des_ Walls
  6
Continuous
100
AcDbLine
 10
167.8609037192389
 20
116.3025538440403
 30
0.0
 11
167.8618206891119
 21
116.024443279017
 31
0.0
  0
LINE
  5
1A7
330
E3
100
AcDbEntity
  8
Des_ Walls
  6
Continuous
100
AcDbLine
 10
167.8618206891119
 20
116.024443279017
 30
0.0
 11
167.859018599779
 21
115.7461407900668
 31
0.0
  0
LINE
  5
1A8
330
E3
100
AcDbEntity
  8
Des_ Walls
  6
Continuous
100
AcDbLine
 10
167.859018599779
 20
115.7461407900668
 30
0.0
 11
167.8526381954532
 21
115.4676463771897
 31
0.0
  0
LINE
  5
1A9
330
E3
100
AcDbEntity
  8
Des_ Walls
  6
Continuous
100
AcDbLine
 10
167.8526381954532
 20
115.4676463771897
 30
0.0
 11
167.8428372802523
 21
115.1889728353141
 31
0.0
  0
LINE
  5
1AA
330
E3
100
AcDbEntity
  8
Des_ Walls
  6
Continuous
100
AcDbLine
 10
167.8428372802523
 20
115.1889728353141
 30
0.0
 11
167.8297949831746
 21
114.9101286943924
 31
0.0
  0
LINE
  5
1AB
330
E3
100
AcDbEntity
  8
Des_ Walls
  6
Continuous
100
AcDbLine
 10
167.8297949831746
 20
114.9101286943924
 30
0.0
 11
167.813728818004
 21
114.6311310143291
 31
0.0
  0
LINE
  5
1AC
330
E3
100
AcDbEntity
  8
Des_ Walls
  6
Continuous
100
AcDbLine
 10
167.813728818004
 20
114.6311310143291
 30
0.0
 11
167.7948648284767
 21
114.3519797951244
 31
0.0
  0
LINE
  5
1AD
330
E3
100
AcDbEntity
  8
Des_ Walls
  6
Continuous
100
AcDbLine
 10
167.7948648284767
 20
114.3519797951244
 30
0.0
 11
167.773463178138
 21
114.072700626635
 31
0.0
  0
LINE
  5
1AE
330
E3
100
AcDbEntity
  8
Des_ Walls
  6
Continuous
100
AcDbLine
 10
167.773463178138
 20
114.072700626635
 30
0.0
 11
167.7497925604856
 21
113.7933020388133
 31
0.0
  0
LINE
  5
1AF
330
E3
100
AcDbEntity
  8
Des_ Walls
  6
Continuous
100
AcDbLine
 10
167.7497925604856
 20
113.7933020388133
 30
0.0
 11
167.724147258874
 21
113.5137968265878
 31
0.0
  0
LINE
  5
1B0
330
E3
100
AcDbEntity
  8
Des_ Walls
  6
Continuous
100
AcDbLine
 10
167.724147258874
 20
113.5137968265878
 30
0.0
 11
167.6968343515864
 21
113.2342063148392
 31
0.0
  0
LINE
  5
1B1
330
E3
100
AcDbEntity
  8
Des_ Walls
  6
Continuous
100
AcDbLine
 10
167.6968343515864
 20
113.2342063148392
 30
0.0
 11
167.668165181882
 21
112.9545475634721
 31
0.0
  0
LINE
  5
1B2
330
E3
100
AcDbEntity
  8
Des_ Walls
  6
Continuous
100
AcDbLine
 10
167.668165181882
 20
112.9545475634721
 30
0.0
 11
167.6384766828768
 21
112.6748333674151
 31
0.0
  0
LINE
  5
1B3
330
E3
100
AcDbEntity
  8
Des_ Walls
  6
Continuous
100
AcDbLine
 10
167.6384766828768
 20
112.6748333674151
 30
0.0
 11
167.6080972577348
 21
112.3950807865726
 31
0.0
  0
LINE
  5
1B4
330
E3
100
AcDbEntity
  8
Des_ Walls
  6
Continuous
100
AcDbLine
 10
167.6080972577348
 20
112.3950807865726
 30
0.0
 11
167.5773766345005
 21
112.1153111458256
 31
0.0
  0
LINE
  5
1B5
330
E3
100
AcDbEntity
  8
Des_ Walls
  6
Continuous
100
AcDbLine
 10
167.5773766345005
 20
112.1153111458256
 30
0.0
 11
167.5466560112662
 21
111.8355415050786
 31
0.0
  0
LINE
  5
1B6
330
E3
100
AcDbEntity
  8
Des_ Walls
  6
Continuous
100
AcDbLine
 10
167.5466560112662
 20
111.8355415050786
 30
0.0
 11
167.5162808511003
 21
111.5557931892123
 31
0.0
  0
LINE
  5
1B7
330
E3
100
AcDbEntity
  8
Des_ Walls
  6
Continuous
100
AcDbLine
 10
167.5162808511003
 20
111.5557931892123
 30
0.0
 11
167.4865880871191
 21
111.2760747281791
 31
0.0
  0
LINE
  5
1B8
330
E3
100
AcDbEntity
  8
Des_ Walls
  6
Continuous
100
AcDbLine
 10
167.4865880871191
 20
111.2760747281791
 30
0.0
 11
167.4579231823908
 21
110.996415976812
 31
0.0
  0
LINE
  5
1B9
330
E3
100
AcDbEntity
  8
Des_ Walls
  6
Continuous
100
AcDbLine
 10
167.4579231823908
 20
110.996415976812
 30
0.0
 11
167.430606010127
 21
110.7168254650635
 31
0.0
  0
LINE
  5
1BA
330
E3
100
AcDbEntity
  8
Des_ Walls
  6
Continuous
100
AcDbLine
 10
167.430606010127
 20
110.7168254650635
 30
0.0
 11
167.4049607085155
 21
110.4373202528379
 31
0.0
  0
LINE
  5
1BB
330
E3
100
AcDbEntity
  8
Des_ Walls
  6
Continuous
100
AcDbLine
 10
167.4049607085155
 20
110.4373202528379
 30
0.0
 11
167.3812900908631
 21
110.1579216650162
 31
0.0
  0
LINE
  5
1BC
330
E3
100
AcDbEntity
  8
Des_ Walls
  6
Continuous
100
AcDbLine
 10
167.3812900908631
 20
110.1579216650162
 30
0.0
 11
167.3598884405243
 21
109.8786424965269
 31
0.0
  0
LINE
  5
1BD
330
E3
100
AcDbEntity
  8
Des_ Walls
  6
Continuous
100
AcDbLine
 10
167.3598884405243
 20
109.8786424965269
 30
0.0
 11
167.341024450997
 21
109.5994955422982
 31
0.0
  0
LINE
  5
1BE
330
E3
100
AcDbEntity
  8
Des_ Walls
  6
Continuous
100
AcDbLine
 10
167.341024450997
 20
109.5994955422982
 30
0.0
 11
167.3249582858265
 21
109.3204935972588
 31
0.0
  0
LINE
  5
1BF
330
E3
100
AcDbEntity
  8
Des_ Walls
  6
Continuous
100
AcDbLine
 10
167.3249582858265
 20
109.3204935972588
 30
0.0
 11
167.3119159887488
 21
109.0416494563371
 31
0.0
  0
LINE
  5
1C0
330
E3
100
AcDbEntity
  8
Des_ Walls
  6
Continuous
100
AcDbLine
 10
167.3119159887488
 20
109.0416494563371
 30
0.0
 11
167.3021150735478
 21
108.7629759144616
 31
0.0
  0
LINE
  5
1C1
330
E3
100
AcDbEntity
  8
Des_ Walls
  6
Continuous
100
AcDbLine
 10
167.3021150735478
 20
108.7629759144616
 30
0.0
 11
167.295734669222
 21
108.4844857665606
 31
0.0
  0
LINE
  5
1C2
330
E3
100
AcDbEntity
  8
Des_ Walls
  6
Continuous
100
AcDbLine
 10
167.295734669222
 20
108.4844857665606
 30
0.0
 11
167.2929368448653
 21
108.2061790126342
 31
0.0
  0
LINE
  5
1C3
330
E3
100
AcDbEntity
  8
Des_ Walls
  6
Continuous
100
AcDbLine
 10
167.2929368448653
 20
108.2061790126342
 30
0.0
 11
167.2938495497622
 21
107.9280684476109
 31
0.0
  0
LINE
  5
1C4
330
E3
100
AcDbEntity
  8
Des_ Walls
  6
Continuous
100
AcDbLine
 10
167.2938495497622
 20
107.9280684476109
 30
0.0
 11
167.2985836732927
 21
107.6501583364668
 31
0.0
  0
LINE
  5
1C5
330
E3
100
AcDbEntity
  8
Des_ Walls
  6
Continuous
100
AcDbLine
 10
167.2985836732927
 20
107.6501583364668
 30
0.0
 11
167.3072074550752
 21
107.372448679202
 31
0.0
  0
LINE
  5
1C6
330
E3
100
AcDbEntity
  8
Des_ Walls
  6
Continuous
100
AcDbLine
 10
167.3072074550752
 20
107.372448679202
 30
0.0
 11
167.3197678098475
 21
107.0949480057687
 31
0.0
  0
LINE
  5
1C7
330
E3
100
AcDbEntity
  8
Des_ Walls
  6
Continuous
100
AcDbLine
 10
167.3197678098475
 20
107.0949480057687
 30
0.0
 11
167.3362817975142
 21
106.8176563161668
 31
0.0
  0
LINE
  5
1C8
330
E3
100
AcDbEntity
  8
Des_ Walls
  6
Continuous
100
AcDbLine
 10
168.096663071057
 20
112.1425259586617
 30
0.0
 11
168.1092276908055
 21
111.8650252852283
 31
0.0
  0
LINE
  5
1C9
330
E3
100
AcDbEntity
  8
Des_ Walls
  6
Continuous
100
AcDbLine
 10
168.1092276908055
 20
111.8650252852283
 30
0.0
 11
168.1178514725881
 21
111.5873198929396
 31
0.0
  0
LINE
  5
1CA
330
E3
100
AcDbEntity
  8
Des_ Walls
  6
Continuous
100
AcDbLine
 10
168.1178514725881
 20
111.5873198929396
 30
0.0
 11
168.1225813311424
 21
111.3094097817956
 31
0.0
  0
LINE
  5
1CB
330
E3
100
AcDbEntity
  8
Des_ Walls
  6
Continuous
100
AcDbLine
 10
168.1225813311424
 20
111.3094097817956
 30
0.0
 11
168.1234983010154
 21
111.0312949517961
 31
0.0
  0
LINE
  5
1CC
330
E3
100
AcDbEntity
  8
Des_ Walls
  6
Continuous
100
AcDbLine
 10
168.1234983010154
 20
111.0312949517961
 30
0.0
 11
168.1207004766587
 21
110.7529924628459
 31
0.0
  0
LINE
  5
1CD
330
E3
100
AcDbEntity
  8
Des_ Walls
  6
Continuous
100
AcDbLine
 10
168.1207004766587
 20
110.7529924628459
 30
0.0
 11
168.1143200723329
 21
110.4744980499688
 31
0.0
  0
LINE
  5
1CE
330
E3
100
AcDbEntity
  8
Des_ Walls
  6
Continuous
100
AcDbLine
 10
168.1143200723329
 20
110.4744980499688
 30
0.0
 11
168.1045148921558
 21
110.1958245080932
 31
0.0
  0
LINE
  5
1CF
330
E3
100
AcDbEntity
  8
Des_ Walls
  6
Continuous
100
AcDbLine
 10
168.1045148921558
 20
110.1958245080932
 30
0.0
 11
168.0914768600543
 21
109.9169846321476
 31
0.0
  0
LINE
  5
1D0
330
E3
100
AcDbEntity
  8
Des_ Walls
  6
Continuous
100
AcDbLine
 10
168.0914768600543
 20
109.9169846321476
 30
0.0
 11
168.0754064299075
 21
109.6379826871082
 31
0.0
  0
LINE
  5
1D1
330
E3
100
AcDbEntity
  8
Des_ Walls
  6
Continuous
100
AcDbLine
 10
168.0754064299075
 20
109.6379826871082
 30
0.0
 11
168.0565467053564
 21
109.3588357328796
 31
0.0
  0
LINE
  5
1D2
330
E3
100
AcDbEntity
  8
Des_ Walls
  6
Continuous
100
AcDbLine
 10
168.0565467053564
 20
109.3588357328796
 30
0.0
 11
168.0351450550176
 21
109.0795522994141
 31
0.0
  0
LINE
  5
1D3
330
E3
100
AcDbEntity
  8
Des_ Walls
  6
Continuous
100
AcDbLine
 10
168.0351450550176
 20
109.0795522994141
 30
0.0
 11
168.0114744373652
 21
108.8001537115924
 31
0.0
  0
LINE
  5
1D4
330
E3
100
AcDbEntity
  8
Des_ Walls
  6
Continuous
100
AcDbLine
 10
168.0114744373652
 20
108.8001537115924
 30
0.0
 11
167.9858291357537
 21
108.520652764343
 31
0.0
  0
LINE
  5
1D5
330
E3
100
AcDbEntity
  8
Des_ Walls
  6
Continuous
100
AcDbLine
 10
167.9858291357537
 20
108.520652764343
 30
0.0
 11
167.9585119634899
 21
108.2410622525944
 31
0.0
  0
LINE
  5
1D6
330
E3
100
AcDbEntity
  8
Des_ Walls
  6
Continuous
100
AcDbLine
 10
167.9585119634899
 20
108.2410622525944
 30
0.0
 11
167.9298427937855
 21
107.9613992362512
 31
0.0
  0
LINE
  5
1D7
330
E3
100
AcDbEntity
  8
Des_ Walls
  6
Continuous
100
AcDbLine
 10
167.9298427937855
 20
107.9613992362512
 30
0.0
 11
167.9001542947804
 21
107.6816850401942
 31
0.0
  0
LINE
  5
1D8
330
E3
100
AcDbEntity
  8
Des_ Walls
  6
Continuous
100
AcDbLine
 10
167.9001542947804
 20
107.6816850401942
 30
0.0
 11
167.8697791346145
 21
107.4019324593518
 31
0.0
  0
LINE
  5
1D9
330
E3
100
AcDbEntity
  8
Des_ Walls
  6
Continuous
100
AcDbLine
 10
167.8697791346145
 20
107.4019324593518
 30
0.0
 11
167.8390585113802
 21
107.1221628186047
 31
0.0
  0
LINE
  5
1DA
330
E3
100
AcDbEntity
  8
Des_ Walls
  6
Continuous
100
AcDbLine
 10
167.8390585113802
 20
107.1221628186047
 30
0.0
 11
167.8083336231697
 21
106.8423931778577
 31
0.0
  0
LINE
  5
1DB
330
E3
100
AcDbEntity
  8
Des_ Walls
  6
Continuous
100
AcDbLine
 10
167.8083336231697
 20
106.8423931778577
 30
0.0
 11
167.7779584630039
 21
106.5626448619914
 31
0.0
  0
LINE
  5
1DC
330
E3
100
AcDbEntity
  8
Des_ Walls
  6
Continuous
100
AcDbLine
 10
167.7779584630039
 20
106.5626448619914
 30
0.0
 11
167.7482699639987
 21
106.2829306659343
 31
0.0
  0
LINE
  5
1DD
330
E3
100
AcDbEntity
  8
Des_ Walls
  6
Continuous
100
AcDbLine
 10
167.7482699639987
 20
106.2829306659343
 30
0.0
 11
167.7196007942943
 21
106.0032676495911
 31
0.0
  0
LINE
  5
1DE
330
E3
100
AcDbEntity
  8
Des_ Walls
  6
Continuous
100
AcDbLine
 10
167.7196007942943
 20
106.0032676495911
 30
0.0
 11
167.6922836220306
 21
105.7236771378426
 31
0.0
  0
LINE
  5
1DF
330
E3
100
AcDbEntity
  8
Des_ Walls
  6
Continuous
100
AcDbLine
 10
167.6922836220306
 20
105.7236771378426
 30
0.0
 11
167.666638320419
 21
105.444171925617
 31
0.0
  0
LINE
  5
1E0
330
E3
100
AcDbEntity
  8
Des_ Walls
  6
Continuous
100
AcDbLine
 10
167.666638320419
 20
105.444171925617
 30
0.0
 11
167.6429719677427
 21
105.1647733377954
 31
0.0
  0
LINE
  5
1E1
330
E3
100
AcDbEntity
  8
Des_ Walls
  6
Continuous
100
AcDbLine
 10
167.6429719677427
 20
105.1647733377954
 30
0.0
 11
167.6215660524279
 21
104.885494169306
 31
0.0
  0
LINE
  5
1E2
330
E3
100
AcDbEntity
  8
Des_ Walls
  6
Continuous
100
AcDbLine
 10
167.6215660524279
 20
104.885494169306
 30
0.0
 11
167.6027063278767
 21
104.6063472150773
 31
0.0
  0
LINE
  5
1E3
330
E3
100
AcDbEntity
  8
Des_ Walls
  6
Continuous
100
AcDbLine
 10
167.6027063278767
 20
104.6063472150773
 30
0.0
 11
167.58663589773
 21
104.327345270038
 31
0.0
  0
LINE
  5
1E4
330
E3
100
AcDbEntity
  8
Des_ Walls
  6
Continuous
100
AcDbLine
 10
167.58663589773
 20
104.327345270038
 30
0.0
 11
167.5735978656284
 21
104.0485011291162
 31
0.0
  0
LINE
  5
1E5
330
E3
100
AcDbEntity
  8
Des_ Walls
  6
Continuous
100
AcDbLine
 10
167.5735978656284
 20
104.0485011291162
 30
0.0
 11
167.5637926854513
 21
103.7698318522168
 31
0.0
  0
LINE
  5
1E6
330
E3
100
AcDbEntity
  8
Des_ Walls
  6
Continuous
100
AcDbLine
 10
167.5637926854513
 20
103.7698318522168
 30
0.0
 11
167.5574122811256
 21
103.4913374393397
 31
0.0
  0
LINE
  5
1E7
330
E3
100
AcDbEntity
  8
Des_ Walls
  6
Continuous
100
AcDbLine
 10
167.5574122811256
 20
103.4913374393397
 30
0.0
 11
167.5546144567688
 21
103.2130306854133
 31
0.0
  0
LINE
  5
1E8
330
E3
100
AcDbEntity
  8
Des_ Walls
  6
Continuous
100
AcDbLine
 10
167.5546144567688
 20
103.2130306854133
 30
0.0
 11
167.5555314266418
 21
102.93492012039
 31
0.0
  0
LINE
  5
1E9
330
E3
100
AcDbEntity
  8
Des_ Walls
  6
Continuous
100
AcDbLine
 10
167.5555314266418
 20
102.93492012039
 30
0.0
 11
167.5602612851962
 21
102.657010009246
 31
0.0
  0
LINE
  5
1EA
330
E3
100
AcDbEntity
  8
Des_ Walls
  6
Continuous
100
AcDbLine
 10
167.5602612851962
 20
102.657010009246
 30
0.0
 11
167.5688893319549
 21
102.3793003519811
 31
0.0
  0
LINE
  5
1EB
330
E3
100
AcDbEntity
  8
Des_ Walls
  6
Continuous
100
AcDbLine
 10
167.5688893319549
 20
102.3793003519811
 30
0.0
 11
167.5814496867272
 21
102.1017996785478
 31
0.0
  0
LINE
  5
1EC
330
E3
100
AcDbEntity
  8
Des_ Walls
  6
Continuous
100
AcDbLine
 10
167.5814496867272
 20
102.1017996785478
 30
0.0
 11
167.5979636743939
 21
101.824507988946
 31
0.0
  0
LINE
  5
1ED
330
E3
100
AcDbEntity
  8
Des_ Walls
  6
Continuous
100
AcDbLine
 10
168.3583449479367
 20
107.1493776314408
 30
0.0
 11
168.370905302709
 21
106.8718769580074
 31
0.0
  0
LINE
  5
1EE
330
E3
100
AcDbEntity
  8
Des_ Walls
  6
Continuous
100
AcDbLine
 10
168.370905302709
 20
106.8718769580074
 30
0.0
 11
168.3795290844916
 21
106.5941715657187
 31
0.0
  0
LINE
  5
1EF
330
E3
100
AcDbEntity
  8
Des_ Walls
  6
Continuous
100
AcDbLine
 10
168.3795290844916
 20
106.5941715657187
 30
0.0
 11
168.384263208022
 21
106.3162614545747
 31
0.0
  0
LINE
  5
1F0
330
E3
100
AcDbEntity
  8
Des_ Walls
  6
Continuous
100
AcDbLine
 10
168.384263208022
 20
106.3162614545747
 30
0.0
 11
168.3851801778951
 21
106.0381508895514
 31
0.0
  0
LINE
  5
1F1
330
E3
100
AcDbEntity
  8
Des_ Walls
  6
Continuous
100
AcDbLine
 10
168.3851801778951
 20
106.0381508895514
 30
0.0
 11
168.3823780885621
 21
105.759844135625
 31
0.0
  0
LINE
  5
1F2
330
E3
100
AcDbEntity
  8
Des_ Walls
  6
Continuous
100
AcDbLine
 10
168.3823780885621
 20
105.759844135625
 30
0.0
 11
168.3759976842364
 21
105.4813497227479
 31
0.0
  0
LINE
  5
1F3
330
E3
100
AcDbEntity
  8
Des_ Walls
  6
Continuous
100
AcDbLine
 10
168.3759976842364
 20
105.4813497227479
 30
0.0
 11
168.3661967690355
 21
105.2026761808723
 31
0.0
  0
LINE
  5
1F4
330
E3
100
AcDbEntity
  8
Des_ Walls
  6
Continuous
100
AcDbLine
 10
168.3661967690355
 20
105.2026761808723
 30
0.0
 11
168.3531544719578
 21
104.9238363049267
 31
0.0
  0
LINE
  5
1F5
330
E3
100
AcDbEntity
  8
Des_ Walls
  6
Continuous
100
AcDbLine
 10
168.3531544719578
 20
104.9238363049267
 30
0.0
 11
168.3370883067872
 21
104.6448343598874
 31
0.0
  0
LINE
  5
1F6
330
E3
100
AcDbEntity
  8
Des_ Walls
  6
Continuous
100
AcDbLine
 10
168.3370883067872
 20
104.6448343598874
 30
0.0
 11
168.3182243172599
 21
104.3656874056587
 31
0.0
  0
LINE
  5
1F7
330
E3
100
AcDbEntity
  8
Des_ Walls
  6
Continuous
100
AcDbLine
 10
168.3182243172599
 20
104.3656874056587
 30
0.0
 11
168.2968226669212
 21
104.0864039721932
 31
0.0
  0
LINE
  5
1F8
330
E3
100
AcDbEntity
  8
Des_ Walls
  6
Continuous
100
AcDbLine
 10
168.2968226669212
 20
104.0864039721932
 30
0.0
 11
168.2731520492687
 21
103.8070053843715
 31
0.0
  0
LINE
  5
1F9
330
E3
100
AcDbEntity
  8
Des_ Walls
  6
Continuous
100
AcDbLine
 10
168.2731520492687
 20
103.8070053843715
 30
0.0
 11
168.2475067476572
 21
103.5275044371221
 31
0.0
  0
LINE
  5
1FA
330
E3
100
AcDbEntity
  8
Des_ Walls
  6
Continuous
100
AcDbLine
 10
168.2475067476572
 20
103.5275044371221
 30
0.0
 11
168.2201938403696
 21
103.2479139253736
 31
0.0
  0
LINE
  5
1FB
330
E3
100
AcDbEntity
  8
Des_ Walls
  6
Continuous
100
AcDbLine
 10
168.2201938403696
 20
103.2479139253736
 30
0.0
 11
168.1915246706652
 21
102.9682509090303
 31
0.0
  0
LINE
  5
1FC
330
E3
100
AcDbEntity
  8
Des_ Walls
  6
Continuous
100
AcDbLine
 10
168.1915246706652
 20
102.9682509090303
 30
0.0
 11
168.16183617166
 21
102.6885367129733
 31
0.0
  0
LINE
  5
1FD
330
E3
100
AcDbEntity
  8
Des_ Walls
  6
Continuous
100
AcDbLine
 10
168.16183617166
 20
102.6885367129733
 30
0.0
 11
168.131456746518
 21
102.4087841321309
 31
0.0
  0
LINE
  5
1FE
330
E3
100
AcDbEntity
  8
Des_ Walls
  6
Continuous
100
AcDbLine
 10
168.131456746518
 20
102.4087841321309
 30
0.0
 11
168.1007361232837
 21
102.1290144913838
 31
0.0
  0
LINE
  5
1FF
330
E3
100
AcDbEntity
  8
Des_ Walls
  6
Continuous
100
AcDbLine
 10
168.1007361232837
 20
102.1290144913838
 30
0.0
 11
168.0700155000494
 21
101.8492491156129
 31
0.0
  0
LINE
  5
200
330
E3
100
AcDbEntity
  8
Des_ Walls
  6
Continuous
100
AcDbLine
 10
168.0700155000494
 20
101.8492491156129
 30
0.0
 11
168.0396403398835
 21
101.5694965347705
 31
0.0
  0
LINE
  5
201
330
E3
100
AcDbEntity
  8
Des_ Walls
  6
Continuous
100
AcDbLine
 10
168.0396403398835
 20
101.5694965347705
 30
0.0
 11
168.0099475759022
 21
101.2897823387135
 31
0.0
  0
LINE
  5
202
330
E3
100
AcDbEntity
  8
Des_ Walls
  6
Continuous
100
AcDbLine
 10
168.0099475759022
 20
101.2897823387135
 30
0.0
 11
167.981282671174
 21
101.0101193223703
 31
0.0
  0
LINE
  5
203
330
E3
100
AcDbEntity
  8
Des_ Walls
  6
Continuous
100
AcDbLine
 10
167.981282671174
 20
101.0101193223703
 30
0.0
 11
167.9539654989102
 21
100.7305288106217
 31
0.0
  0
LINE
  5
204
330
E3
100
AcDbEntity
  8
Des_ Walls
  6
Continuous
100
AcDbLine
 10
167.9539654989102
 20
100.7305288106217
 30
0.0
 11
167.9283201972987
 21
100.4510278633723
 31
0.0
  0
LINE
  5
205
330
E3
100
AcDbEntity
  8
Des_ Walls
  6
Continuous
100
AcDbLine
 10
167.9283201972987
 20
100.4510278633723
 30
0.0
 11
167.9046495796463
 21
100.1716250105745
 31
0.0
  0
LINE
  5
206
330
E3
100
AcDbEntity
  8
Des_ Walls
  6
Continuous
100
AcDbLine
 10
167.9046495796463
 20
100.1716250105745
 30
0.0
 11
167.8832479293075
 21
99.89234584208508
 31
0.0
  0
LINE
  5
207
330
E3
100
AcDbEntity
  8
Des_ Walls
  6
Continuous
100
AcDbLine
 10
167.8832479293075
 20
99.89234584208508
 30
0.0
 11
167.8643839397802
 21
99.61319888785646
 31
0.0
  0
LINE
  5
208
330
E3
100
AcDbEntity
  8
Des_ Walls
  6
Continuous
100
AcDbLine
 10
167.8643839397802
 20
99.61319888785646
 30
0.0
 11
167.8483177746096
 21
99.33419694281706
 31
0.0
  0
LINE
  5
209
330
E3
100
AcDbEntity
  8
Des_ Walls
  6
Continuous
100
AcDbLine
 10
167.8483177746096
 20
99.33419694281706
 30
0.0
 11
167.835275477532
 21
99.05535706687151
 31
0.0
  0
LINE
  5
20A
330
E3
100
AcDbEntity
  8
Des_ Walls
  6
Continuous
100
AcDbLine
 10
167.835275477532
 20
99.05535706687151
 30
0.0
 11
167.825474562331
 21
98.77668352499593
 31
0.0
  0
LINE
  5
20B
330
E3
100
AcDbEntity
  8
Des_ Walls
  6
Continuous
100
AcDbLine
 10
167.825474562331
 20
98.77668352499593
 30
0.0
 11
167.8190941580052
 21
98.4981891121188
 31
0.0
  0
LINE
  5
20C
330
E3
100
AcDbEntity
  8
Des_ Walls
  6
Continuous
100
AcDbLine
 10
167.8190941580052
 20
98.4981891121188
 30
0.0
 11
167.8162963336485
 21
98.21988235819245
 31
0.0
  0
LINE
  5
20D
330
E3
100
AcDbEntity
  8
Des_ Walls
  6
Continuous
100
AcDbLine
 10
167.315699022597
 20
117.1084594730465
 30
0.0
 11
167.2849741343866
 21
116.8286898322995
 31
0.0
  0
LINE
  5
20E
330
E3
100
AcDbEntity
  8
Des_ Walls
  6
Continuous
100
AcDbLine
 10
167.2849741343866
 20
116.8286898322995
 30
0.0
 11
167.2545989742207
 21
116.548937251457
 31
0.0
  0
LINE
  5
20F
330
E3
100
AcDbEntity
  8
Des_ Walls
  6
Continuous
100
AcDbLine
 10
167.2545989742207
 20
116.548937251457
 30
0.0
 11
167.2249104752156
 21
116.2692230554
 31
0.0
  0
LINE
  5
210
330
E3
100
AcDbEntity
  8
Des_ Walls
  6
Continuous
100
AcDbLine
 10
167.2249104752156
 20
116.2692230554
 30
0.0
 11
167.1962413055111
 21
115.9895643040329
 31
0.0
  0
LINE
  5
211
330
E3
100
AcDbEntity
  8
Des_ Walls
  6
Continuous
100
AcDbLine
 10
167.1962413055111
 20
115.9895643040329
 30
0.0
 11
167.1689241332474
 21
115.7099737922843
 31
0.0
  0
LINE
  5
212
330
E3
100
AcDbEntity
  8
Des_ Walls
  6
Continuous
100
AcDbLine
 10
167.1689241332474
 20
115.7099737922843
 30
0.0
 11
167.1432788316358
 21
115.4304685800588
 31
0.0
  0
LINE
  5
213
330
E3
100
AcDbEntity
  8
Des_ Walls
  6
Continuous
100
AcDbLine
 10
167.1432788316358
 20
115.4304685800588
 30
0.0
 11
167.1196124789595
 21
115.1510699922371
 31
0.0
  0
LINE
  5
214
330
E3
100
AcDbEntity
  8
Des_ Walls
  6
Continuous
100
AcDbLine
 10
167.1196124789595
 20
115.1510699922371
 30
0.0
 11
167.0982065636447
 21
114.8717908237478
 31
0.0
  0
LINE
  5
215
330
E3
100
AcDbEntity
  8
Des_ Walls
  6
Continuous
100
AcDbLine
 10
167.0982065636447
 20
114.8717908237478
 30
0.0
 11
167.0793468390935
 21
114.592639604543
 31
0.0
  0
LINE
  5
216
330
E3
100
AcDbEntity
  8
Des_ Walls
  6
Continuous
100
AcDbLine
 10
167.0793468390935
 20
114.592639604543
 30
0.0
 11
167.0632764089468
 21
114.3136419244797
 31
0.0
  0
LINE
  5
217
330
E3
100
AcDbEntity
  8
Des_ Walls
  6
Continuous
100
AcDbLine
 10
167.0632764089468
 20
114.3136419244797
 30
0.0
 11
167.0502383768453
 21
114.034797783558
 31
0.0
  0
LINE
  5
218
330
E3
100
AcDbEntity
  8
Des_ Walls
  6
Continuous
100
AcDbLine
 10
167.0502383768453
 20
114.034797783558
 30
0.0
 11
167.0404331966682
 21
113.7561242416825
 31
0.0
  0
LINE
  5
219
330
E3
100
AcDbEntity
  8
Des_ Walls
  6
Continuous
100
AcDbLine
 10
167.0404331966682
 20
113.7561242416825
 30
0.0
 11
167.0340527923424
 21
113.4776340937815
 31
0.0
  0
LINE
  5
21A
330
E3
100
AcDbEntity
  8
Des_ Walls
  6
Continuous
100
AcDbLine
 10
167.0340527923424
 20
113.4776340937815
 30
0.0
 11
167.0312549679857
 21
113.1993273398551
 31
0.0
  0
LINE
  5
21B
330
E3
100
AcDbEntity
  8
Des_ Walls
  6
Continuous
100
AcDbLine
 10
167.0312549679857
 20
113.1993273398551
 30
0.0
 11
167.0321719378587
 21
112.9212167748318
 31
0.0
  0
LINE
  5
21C
330
E3
100
AcDbEntity
  8
Des_ Walls
  6
Continuous
100
AcDbLine
 10
167.0321719378587
 20
112.9212167748318
 30
0.0
 11
167.036901796413
 21
112.6433066636877
 31
0.0
  0
LINE
  5
21D
330
E3
100
AcDbEntity
  8
Des_ Walls
  6
Continuous
100
AcDbLine
 10
167.036901796413
 20
112.6433066636877
 30
0.0
 11
167.0455298431717
 21
112.3655970064229
 31
0.0
  0
LINE
  5
21E
330
E3
100
AcDbEntity
  8
Des_ Walls
  6
Continuous
100
AcDbLine
 10
167.0455298431717
 20
112.3655970064229
 30
0.0
 11
167.058090197944
 21
112.0880963329896
 31
0.0
  0
LINE
  5
21F
330
E3
100
AcDbEntity
  8
Des_ Walls
  6
Continuous
100
AcDbLine
 10
167.058090197944
 20
112.0880963329896
 30
0.0
 11
167.0746041856107
 21
111.8108046433877
 31
0.0
  0
LINE
  5
220
330
E3
100
AcDbEntity
  8
Des_ Walls
  6
Continuous
100
AcDbLine
 10
168.6200225598402
 20
102.1562293042199
 30
0.0
 11
168.6325871795887
 21
101.8787286307866
 31
0.0
  0
LINE
  5
221
330
E3
100
AcDbEntity
  8
Des_ Walls
  6
Continuous
100
AcDbLine
 10
168.6325871795887
 20
101.8787286307866
 30
0.0
 11
168.6412109613713
 21
101.6010232384978
 31
0.0
  0
LINE
  5
222
330
E3
100
AcDbEntity
  8
Des_ Walls
  6
Continuous
100
AcDbLine
 10
168.6412109613713
 20
101.6010232384978
 30
0.0
 11
168.6459408199256
 21
101.3231131273538
 31
0.0
  0
LINE
  5
223
330
E3
100
AcDbEntity
  8
Des_ Walls
  6
Continuous
100
AcDbLine
 10
168.6459408199256
 20
101.3231131273538
 30
0.0
 11
168.6468577897986
 21
101.0450025623305
 31
0.0
  0
LINE
  5
224
330
E3
100
AcDbEntity
  8
Des_ Walls
  6
Continuous
100
AcDbLine
 10
168.6468577897986
 20
101.0450025623305
 30
0.0
 11
168.6440599654418
 21
100.7666958084041
 31
0.0
  0
LINE
  5
225
330
E3
100
AcDbEntity
  8
Des_ Walls
  6
Continuous
100
AcDbLine
 10
168.6440599654418
 20
100.7666958084041
 30
0.0
 11
168.6376795611161
 21
100.488201395527
 31
0.0
  0
LINE
  5
226
330
E3
100
AcDbEntity
  8
Des_ Walls
  6
Continuous
100
AcDbLine
 10
168.6376795611161
 20
100.488201395527
 30
0.0
 11
168.6278743809389
 21
100.2095278536514
 31
0.0
  0
LINE
  5
227
330
E3
100
AcDbEntity
  8
Des_ Walls
  6
Continuous
100
AcDbLine
 10
168.6278743809389
 20
100.2095278536514
 30
0.0
 11
168.6148363488375
 21
99.93068797770584
 31
0.0
  0
LINE
  5
228
330
E3
100
AcDbEntity
  8
Des_ Walls
  6
Continuous
100
AcDbLine
 10
168.6148363488375
 20
99.93068797770584
 30
0.0
 11
168.5987659186907
 21
99.65168603266646
 31
0.0
  0
LINE
  5
229
330
E3
100
AcDbEntity
  8
Des_ Walls
  6
Continuous
100
AcDbLine
 10
168.5987659186907
 20
99.65168603266646
 30
0.0
 11
168.5799061941395
 21
99.37253907843785
 31
0.0
  0
LINE
  5
22A
330
E3
100
AcDbEntity
  8
Des_ Walls
  6
Continuous
100
AcDbLine
 10
168.5799061941395
 20
99.37253907843785
 30
0.0
 11
168.5585045438008
 21
99.09325990994847
 31
0.0
  0
LINE
  5
22B
330
E3
100
AcDbEntity
  8
Des_ Walls
  6
Continuous
100
AcDbLine
 10
168.5585045438008
 20
99.09325990994847
 30
0.0
 11
168.5348339261484
 21
98.81385705715064
 31
0.0
  0
LINE
  5
22C
330
E3
100
AcDbEntity
  8
Des_ Walls
  6
Continuous
100
AcDbLine
 10
168.5348339261484
 20
98.81385705715064
 30
0.0
 11
168.5091886245369
 21
98.53435610990125
 31
0.0
  0
LINE
  5
22D
330
E3
100
AcDbEntity
  8
Des_ Walls
  6
Continuous
100
AcDbLine
 10
168.5091886245369
 20
98.53435610990125
 30
0.0
 11
168.4818714522731
 21
98.25476559815267
 31
0.0
  0
HATCH
  5
22E
330
E3
100
AcDbEntity
  8
Des_ Walls
  6
Continuous
 62
   255
370
     0
100
AcDbHatch
 10
0.0
 20
0.0
 30
0.0
210
0.0
220
0.0
230
1.0
  2
SOLID
 70
     1
 71
     0
 91
        1
 92
        3
 72
     0
 73
     1
 93
        8
 10
5.000001481588901
 20
120.4537665088319
 10
5.000001481588901
 20
45.01374390660418
 10
119.9976032725093
 20
45.01374390660418
 10
118.1254509448107
 20
80.73649502637289
 10
112.0556713574794
 20
82.06800035319802
 10
123.9858877433736
 20
83.39950568002314
 10
117.9161081560423
 20
84.73101538906316
 10
116.0439558283437
 20
120.4537665088319
 97
        0
 75
     0
 76
     1
 98
        0
  0
LINE
  5
22F
330
E3
100
AcDbEntity
  8
Des_ Walls
  6
Continuous
100
AcDbLine
 10
119.9976012133812
 20
45.01374186530484
 30
0.0
 11
118.1254515459774
 21
80.736495466614
 31
0.0
  0
LINE
  5
230
330
E3
100
AcDbEntity
  8
Des_ Walls
  6
Continuous
100
AcDbLine
 10
117.9161094564546
 20
84.73101242240025
 30
0.0
 11
116.0439597890509
 21
120.4537660237094
 31
0.0
  0
LINE
  5
231
330
E3
100
AcDbEntity
  8
Des_ Walls
  6
Continuous
100
AcDbLine
 10
117.9161094564546
 20
84.73101242240025
 30
0.0
 11
123.9858913039832
 21
83.39950819213023
 31
0.0
  0
LINE
  5
232
330
E3
100
AcDbEntity
  8
Des_ Walls
  6
Continuous
100
AcDbLine
 10
123.9858913039832
 20
83.39950819213023
 30
0.0
 11
112.0556696984489
 21
82.06799969688404
 31
0.0
  0
LINE
  5
233
330
E3
100
AcDbEntity
  8
Des_ Walls
  6
Continuous
100
AcDbLine
 10
112.0556696984489
 20
82.06799969688404
 30
0.0
 11
118.1254515459774
 21
80.736495466614
 31
0.0
  0
HATCH
  5
234
330
E3
100
AcDbEntity
  8
Des_ Walls
  6
Continuous
 62
   255
370
     0
100
AcDbHatch
 10
0.0
 20
0.0
 30
0.0
210
0.0
220
0.0
230
1.0
  2
SOLID
 70
     1
 71
     0
 91
        1
 92
        3
 72
     1
 73
     1
 93
        2
 10
193.7298353614618
 20
136.5563237348455
 42
0.4999999999999998
 10
193.7298353614618
 20
134.1563237348454
 42
0.0
 97
        0
 75
     0
 76
     1
 98
        0
  0
ARC
  5
235
330
E3
100
AcDbEntity
  8
Des_ Walls
  6
Continuous
100
AcDbCircle
 10
194.6298353614619
 20
135.3563237348455
 30
0.0
 40
1.500000000000051
100
AcDbArc
 50
126.8698976458444
 51
233.1301023541556
  0
LINE
  5
236
330
E3
100
AcDbEntity
  8
Des_ Walls
  6
Continuous
100
AcDbLine
 10
193.7298350904129
 20
134.1563240597249
 30
0.0
 11
193.7298350904129
 21
136.5563242358016
 31
0.0
  0
HATCH
  5
237
330
E3
100
AcDbEntity
  8
Des_ Walls
  6
Continuous
 62
   255
370
     0
100
AcDbHatch
 10
0.0
 20
0.0
 30
0.0
210
0.0
220
0.0
230
1.0
  2
SOLID
 70
     1
 71
     0
 91
        1
 92
        3
 72
     0
 73
     1
 93
        4
 10
193.1298353614618
 20
134.7163237348455
 10
193.2732219308929
 20
134.7163237348455
 10
193.2732219308929
 20
135.9963237348454
 10
193.1298353614618
 20
135.9963237348454
 97
        0
 75
     0
 76
     1
 98
        0
  0
LINE
  5
238
330
E3
100
AcDbEntity
  8
Des_ Walls
  6
Continuous
100
AcDbLine
 10
193.1298339801497
 20
134.7163239586436
 30
0.0
 11
193.2732224784335
 21
134.7163239586436
 31
0.0
  0
LINE
  5
239
330
E3
100
AcDbEntity
  8
Des_ Walls
  6
Continuous
100
AcDbLine
 10
193.2732224784335
 20
134.7163239586436
 30
0.0
 11
193.2732224784335
 21
135.9963243368829
 31
0.0
  0
LINE
  5
23A
330
E3
100
AcDbEntity
  8
Des_ Walls
  6
Continuous
100
AcDbLine
 10
193.2732224784335
 20
135.9963243368829
 30
0.0
 11
193.1298339801497
 21
135.9963243368829
 31
0.0
  0
LINE
  5
23B
330
E3
100
AcDbEntity
  8
Des_ Walls
  6
Continuous
100
AcDbLine
 10
193.1298339801497
 20
135.9963243368829
 30
0.0
 11
193.1298339801497
 21
134.7163239586436
 31
0.0
  0
HATCH
  5
23C
330
E3
100
AcDbEntity
  8
Des_ Walls
  6
Continuous
 62
   255
370
     0
100
AcDbHatch
 10
0.0
 20
0.0
 30
0.0
210
0.0
220
0.0
230
1.0
  2
SOLID
 70
     1
 71
     0
 91
        1
 92
        3
 72
     1
 73
     1
 93
        4
 10
193.7298353614618
 20
133.9563237348456
 42
0.0
 10
194.5298353614618
 20
133.9563237348456
 42
-0.4285714285714285
 10
194.5298353614618
 20
136.7563237348455
 42
0.0
 10
193.7298353614618
 20
136.7563237348455
 42
0.0
 97
        0
 75
     0
 76
     1
 98
        0
  0
LINE
  5
23D
330
E3
100
AcDbEntity
  8
Des_ Walls
  6
Continuous
100
AcDbLine
 10
193.7298350904129
 20
133.9563222679785
 30
0.0
 11
194.5298337274464
 21
133.9563222679785
 31
0.0
  0
ARC
  5
23E
330
E3
100
AcDbEntity
  8
Des_ Walls
  6
Continuous
100
AcDbCircle
 10
195.8631686947951
 20
135.3563237348455
 30
0.0
 40
1.933333333333277
100
AcDbArc
 50
133.6028189727037
 51
226.3971810272962
  0
LINE
  5
23F
330
E3
100
AcDbEntity
  8
Des_ Walls
  6
Continuous
100
AcDbLine
 10
194.5298337274464
 20
136.7563217625718
 30
0.0
 11
193.7298350904129
 21
136.7563217625718
 31
0.0
  0
LINE
  5
240
330
E3
100
AcDbEntity
  8
Des_ Walls
  6
Continuous
100
AcDbLine
 10
193.7298350904129
 20
136.7563217625718
 30
0.0
 11
193.7298350904129
 21
133.9563222679785
 31
0.0
  0
HATCH
  5
241
330
E3
100
AcDbEntity
  8
Des_ Walls
  6
Continuous
 62
   255
370
     0
100
AcDbHatch
 10
0.0
 20
0.0
 30
0.0
210
0.0
220
0.0
230
1.0
  2
SOLID
 70
     1
 71
     0
 91
        1
 92
        3
 72
     0
 73
     1
 93
        5
 10
193.9298353614618
 20
135.0363237348455
 10
203.2898353614618
 20
135.0363237348455
 10
203.9298353614618
 20
135.3563237348455
 10
203.2898353614618
 20
135.6763237348455
 10
193.9298353614618
 20
135.6763237348455
 97
        0
 75
     0
 76
     1
 98
        0
  0
LINE
  5
242
330
E3
100
AcDbEntity
  8
Des_ Walls
  6
Continuous
100
AcDbLine
 10
193.9298368821594
 20
135.0363251194475
 30
0.0
 11
203.2898345833749
 21
135.0363251194475
 31
0.0
  0
LINE
  5
243
330
E3
100
AcDbEntity
  8
Des_ Walls
  6
Continuous
100
AcDbLine
 10
203.2898345833749
 20
135.0363251194475
 30
0.0
 11
203.9298369049826
 21
135.3563220152752
 31
0.0
  0
LINE
  5
244
330
E3
100
AcDbEntity
  8
Des_ Walls
  6
Continuous
100
AcDbLine
 10
203.9298369049826
 20
135.3563220152752
 30
0.0
 11
203.2898345833749
 21
135.676323176079
 31
0.0
  0
LINE
  5
245
330
E3
100
AcDbEntity
  8
Des_ Walls
  6
Continuous
100
AcDbLine
 10
203.2898345833749
 20
135.676323176079
 30
0.0
 11
193.9298368821594
 21
135.676323176079
 31
0.0
  0
LINE
  5
246
330
E3
100
AcDbEntity
  8
Des_ Walls
  6
Continuous
100
AcDbLine
 10
193.9298368821594
 20
135.676323176079
 30
0.0
 11
193.9298368821594
 21
135.0363251194475
 31
0.0
  0
LINE
  5
247
330
E3
100
AcDbEntity
  8
Des_ Walls
  6
Continuous
100
AcDbLine
 10
193.9298368821594
 20
135.8763249678255
 30
0.0
 11
194.068725830601
 21
135.8743460188902
 31
0.0
  0
LINE
  5
248
330
E3
100
AcDbEntity
  8
Des_ Walls
  6
Continuous
100
AcDbLine
 10
194.068725830601
 20
135.8743460188902
 30
0.0
 11
194.2076147790427
 21
135.8684219670129
 31
0.0
  0
LINE
  5
249
330
E3
100
AcDbEntity
  8
Des_ Walls
  6
Continuous
100
AcDbLine
 10
194.2076147790427
 20
135.8684219670129
 30
0.0
 11
194.3465037274844
 21
135.8586039919073
 31
0.0
  0
LINE
  5
24A
330
E3
100
AcDbEntity
  8
Des_ Walls
  6
Continuous
100
AcDbLine
 10
194.3465037274844
 20
135.8586039919073
 30
0.0
 11
194.485392675926
 21
135.8449645981681
 31
0.0
  0
LINE
  5
24B
330
E3
100
AcDbEntity
  8
Des_ Walls
  6
Continuous
100
AcDbLine
 10
194.485392675926
 20
135.8449645981681
 30
0.0
 11
194.6242816243677
 21
135.8276018802469
 31
0.0
  0
LINE
  5
24C
330
E3
100
AcDbEntity
  8
Des_ Walls
  6
Continuous
100
AcDbLine
 10
194.6242816243677
 20
135.8276018802469
 30
0.0
 11
194.7631705728093
 21
135.8066565823566
 31
0.0
  0
LINE
  5
24D
330
E3
100
AcDbEntity
  8
Des_ Walls
  6
Continuous
100
AcDbLine
 10
194.7631705728093
 20
135.8066565823566
 30
0.0
 11
194.902059521251
 21
135.7822822436388
 31
0.0
  0
LINE
  5
24E
330
E3
100
AcDbEntity
  8
Des_ Walls
  6
Continuous
100
AcDbLine
 10
194.902059521251
 20
135.7822822436388
 30
0.0
 11
195.0409484696926
 21
135.7546665230443
 31
0.0
  0
LINE
  5
24F
330
E3
100
AcDbEntity
  8
Des_ Walls
  6
Continuous
100
AcDbLine
 10
195.0409484696926
 20
135.7546665230443
 30
0.0
 11
195.1798374181343
 21
135.7240184044046
 31
0.0
  0
LINE
  5
250
330
E3
100
AcDbEntity
  8
Des_ Walls
  6
Continuous
100
AcDbLine
 10
195.1798374181343
 20
135.7240184044046
 30
0.0
 11
195.318726366576
 21
135.6905724614082
 31
0.0
  0
LINE
  5
251
330
E3
100
AcDbEntity
  8
Des_ Walls
  6
Continuous
100
AcDbLine
 10
195.318726366576
 20
135.6905724614082
 30
0.0
 11
195.4576110500415
 21
135.6545845926242
 31
0.0
  0
LINE
  5
252
330
E3
100
AcDbEntity
  8
Des_ Walls
  6
Continuous
100
AcDbLine
 10
195.4576110500415
 20
135.6545845926242
 30
0.0
 11
195.5964999984831
 21
135.6163234915503
 31
0.0
  0
LINE
  5
253
330
E3
100
AcDbEntity
  8
Des_ Walls
  6
Continuous
100
AcDbLine
 10
195.5964999984831
 20
135.6163234915503
 30
0.0
 11
195.7353889469248
 21
135.5760834415412
 31
0.0
  0
LINE
  5
254
330
E3
100
AcDbEntity
  8
Des_ Walls
  6
Continuous
100
AcDbLine
 10
195.7353889469248
 20
135.5760834415412
 30
0.0
 11
195.8742778953664
 21
135.534175785856
 31
0.0
  0
LINE
  5
255
330
E3
100
AcDbEntity
  8
Des_ Walls
  6
Continuous
100
AcDbLine
 10
195.8742778953664
 20
135.534175785856
 30
0.0
 11
196.0131668438081
 21
135.4909076027779
 31
0.0
  0
LINE
  5
256
330
E3
100
AcDbEntity
  8
Des_ Walls
  6
Continuous
100
AcDbLine
 10
196.0131668438081
 20
135.4909076027779
 30
0.0
 11
196.1520557922498
 21
135.446620090399
 31
0.0
  0
LINE
  5
257
330
E3
100
AcDbEntity
  8
Des_ Walls
  6
Continuous
100
AcDbLine
 10
196.1520557922498
 20
135.446620090399
 30
0.0
 11
196.2909447406914
 21
135.4016459168594
 31
0.0
  0
LINE
  5
258
330
E3
100
AcDbEntity
  8
Des_ Walls
  6
Continuous
100
AcDbLine
 10
196.2909447406914
 20
135.4016459168594
 30
0.0
 11
196.4298336891331
 21
135.3563220152752
 31
0.0
  0
LINE
  5
259
330
E3
100
AcDbEntity
  8
Des_ Walls
  6
Continuous
100
AcDbLine
 10
196.4298336891331
 20
135.3563220152752
 30
0.0
 11
196.5687226375748
 21
135.3110023786671
 31
0.0
  0
LINE
  5
25A
330
E3
100
AcDbEntity
  8
Des_ Walls
  6
Continuous
100
AcDbLine
 10
196.5687226375748
 20
135.3110023786671
 30
0.0
 11
196.7076115860164
 21
135.2660282051275
 31
0.0
  0
LINE
  5
25B
330
E3
100
AcDbEntity
  8
Des_ Walls
  6
Continuous
100
AcDbLine
 10
196.7076115860164
 20
135.2660282051275
 30
0.0
 11
196.8465005344581
 21
135.2217364277725
 31
0.0
  0
LINE
  5
25C
330
E3
100
AcDbEntity
  8
Des_ Walls
  6
Continuous
100
AcDbLine
 10
196.8465005344581
 20
135.2217364277725
 30
0.0
 11
196.9853894828997
 21
135.1784725096705
 31
0.0
  0
LINE
  5
25D
330
E3
100
AcDbEntity
  8
Des_ Walls
  6
Continuous
100
AcDbLine
 10
196.9853894828997
 20
135.1784725096705
 30
0.0
 11
197.1242784313414
 21
135.1365605890092
 31
0.0
  0
LINE
  5
25E
330
E3
100
AcDbEntity
  8
Des_ Walls
  6
Continuous
100
AcDbLine
 10
197.1242784313414
 20
135.1365605890092
 30
0.0
 11
197.263167379783
 21
135.0963248039762
 31
0.0
  0
LINE
  5
25F
330
E3
100
AcDbEntity
  8
Des_ Walls
  6
Continuous
100
AcDbLine
 10
197.263167379783
 20
135.0963248039762
 30
0.0
 11
197.4020563282247
 21
135.0580637029023
 31
0.0
  0
LINE
  5
260
330
E3
100
AcDbEntity
  8
Des_ Walls
  6
Continuous
100
AcDbLine
 10
197.4020563282247
 20
135.0580637029023
 30
0.0
 11
197.5409452766663
 21
135.0220758341183
 31
0.0
  0
LINE
  5
261
330
E3
100
AcDbEntity
  8
Des_ Walls
  6
Continuous
100
AcDbLine
 10
197.5409452766663
 20
135.0220758341183
 30
0.0
 11
197.679834225108
 21
134.9886298911219
 31
0.0
  0
LINE
  5
262
330
E3
100
AcDbEntity
  8
Des_ Walls
  6
Continuous
100
AcDbLine
 10
197.679834225108
 20
134.9886298911219
 30
0.0
 11
197.8187231735497
 21
134.9579817724822
 31
0.0
  0
LINE
  5
263
330
E3
100
AcDbEntity
  8
Des_ Walls
  6
Continuous
100
AcDbLine
 10
197.8187231735497
 20
134.9579817724822
 30
0.0
 11
197.9576121219913
 21
134.9303660518877
 31
0.0
  0
LINE
  5
264
330
E3
100
AcDbEntity
  8
Des_ Walls
  6
Continuous
100
AcDbLine
 10
197.9576121219913
 20
134.9303660518877
 30
0.0
 11
198.096501070433
 21
134.9059917131699
 31
0.0
  0
LINE
  5
265
330
E3
100
AcDbEntity
  8
Des_ Walls
  6
Continuous
100
AcDbLine
 10
198.096501070433
 20
134.9059917131699
 30
0.0
 11
198.2353900188747
 21
134.8850421503035
 31
0.0
  0
LINE
  5
266
330
E3
100
AcDbEntity
  8
Des_ Walls
  6
Continuous
100
AcDbLine
 10
198.2353900188747
 20
134.8850421503035
 30
0.0
 11
198.3742789673163
 21
134.8676836973584
 31
0.0
  0
LINE
  5
267
330
E3
100
AcDbEntity
  8
Des_ Walls
  6
Continuous
100
AcDbLine
 10
198.3742789673163
 20
134.8676836973584
 30
0.0
 11
198.5131679157579
 21
134.8540443036192
 31
0.0
  0
LINE
  5
268
330
E3
100
AcDbEntity
  8
Des_ Walls
  6
Continuous
100
AcDbLine
 10
198.5131679157579
 20
134.8540443036192
 30
0.0
 11
198.6520568641996
 21
134.8442220635375
 31
0.0
  0
LINE
  5
269
330
E3
100
AcDbEntity
  8
Des_ Walls
  6
Continuous
100
AcDbLine
 10
198.6520568641996
 20
134.8442220635375
 30
0.0
 11
198.7909458126413
 21
134.8383022766363
 31
0.0
  0
LINE
  5
26A
330
E3
100
AcDbEntity
  8
Des_ Walls
  6
Continuous
100
AcDbLine
 10
198.7909458126413
 20
134.8383022766363
 30
0.0
 11
198.929834761083
 21
134.836323327701
 31
0.0
  0
LINE
  5
26B
330
E3
100
AcDbEntity
  8
Des_ Walls
  6
Continuous
100
AcDbLine
 10
198.929834761083
 20
134.836323327701
 30
0.0
 11
199.0687237095246
 21
134.8383022766363
 31
0.0
  0
LINE
  5
26C
330
E3
100
AcDbEntity
  8
Des_ Walls
  6
Continuous
100
AcDbLine
 10
196.4298336891331
 20
135.8763249678255
 30
0.0
 11
196.5687226375748
 21
135.8743460188902
 31
0.0
  0
LINE
  5
26D
330
E3
100
AcDbEntity
  8
Des_ Walls
  6
Continuous
100
AcDbLine
 10
196.5687226375748
 20
135.8743460188902
 30
0.0
 11
196.7076115860164
 21
135.8684219670129
 31
0.0
  0
LINE
  5
26E
330
E3
100
AcDbEntity
  8
Des_ Walls
  6
Continuous
100
AcDbLine
 10
196.7076115860164
 20
135.8684219670129
 30
0.0
 11
196.8465005344581
 21
135.8586039919073
 31
0.0
  0
LINE
  5
26F
330
E3
100
AcDbEntity
  8
Des_ Walls
  6
Continuous
100
AcDbLine
 10
196.8465005344581
 20
135.8586039919073
 30
0.0
 11
196.9853894828997
 21
135.8449645981681
 31
0.0
  0
LINE
  5
270
330
E3
100
AcDbEntity
  8
Des_ Walls
  6
Continuous
100
AcDbLine
 10
196.9853894828997
 20
135.8449645981681
 30
0.0
 11
197.1242784313414
 21
135.8276018802469
 31
0.0
  0
LINE
  5
271
330
E3
100
AcDbEntity
  8
Des_ Walls
  6
Continuous
100
AcDbLine
 10
197.1242784313414
 20
135.8276018802469
 30
0.0
 11
197.263167379783
 21
135.8066565823566
 31
0.0
  0
LINE
  5
272
330
E3
100
AcDbEntity
  8
Des_ Walls
  6
Continuous
100
AcDbLine
 10
197.263167379783
 20
135.8066565823566
 30
0.0
 11
197.4020563282247
 21
135.7822822436388
 31
0.0
  0
LINE
  5
273
330
E3
100
AcDbEntity
  8
Des_ Walls
  6
Continuous
100
AcDbLine
 10
197.4020563282247
 20
135.7822822436388
 30
0.0
 11
197.5409452766663
 21
135.7546665230443
 31
0.0
  0
LINE
  5
274
330
E3
100
AcDbEntity
  8
Des_ Walls
  6
Continuous
100
AcDbLine
 10
197.5409452766663
 20
135.7546665230443
 30
0.0
 11
197.679834225108
 21
135.7240184044046
 31
0.0
  0
LINE
  5
275
330
E3
100
AcDbEntity
  8
Des_ Walls
  6
Continuous
100
AcDbLine
 10
197.679834225108
 20
135.7240184044046
 30
0.0
 11
197.8187231735497
 21
135.6905724614082
 31
0.0
  0
LINE
  5
276
330
E3
100
AcDbEntity
  8
Des_ Walls
  6
Continuous
100
AcDbLine
 10
197.8187231735497
 20
135.6905724614082
 30
0.0
 11
197.9576121219913
 21
135.6545845926242
 31
0.0
  0
LINE
  5
277
330
E3
100
AcDbEntity
  8
Des_ Walls
  6
Continuous
100
AcDbLine
 10
197.9576121219913
 20
135.6545845926242
 30
0.0
 11
198.096501070433
 21
135.6163234915503
 31
0.0
  0
LINE
  5
278
330
E3
100
AcDbEntity
  8
Des_ Walls
  6
Continuous
100
AcDbLine
 10
198.096501070433
 20
135.6163234915503
 30
0.0
 11
198.2353900188747
 21
135.5760834415412
 31
0.0
  0
LINE
  5
279
330
E3
100
AcDbEntity
  8
Des_ Walls
  6
Continuous
100
AcDbLine
 10
198.2353900188747
 20
135.5760834415412
 30
0.0
 11
198.3742789673163
 21
135.534175785856
 31
0.0
  0
LINE
  5
27A
330
E3
100
AcDbEntity
  8
Des_ Walls
  6
Continuous
100
AcDbLine
 10
198.3742789673163
 20
135.534175785856
 30
0.0
 11
198.5131679157579
 21
135.4909076027779
 31
0.0
  0
LINE
  5
27B
330
E3
100
AcDbEntity
  8
Des_ Walls
  6
Continuous
100
AcDbLine
 10
198.5131679157579
 20
135.4909076027779
 30
0.0
 11
198.6520568641996
 21
135.446620090399
 31
0.0
  0
LINE
  5
27C
330
E3
100
AcDbEntity
  8
Des_ Walls
  6
Continuous
100
AcDbLine
 10
198.6520568641996
 20
135.446620090399
 30
0.0
 11
198.7909458126413
 21
135.4016459168594
 31
0.0
  0
LINE
  5
27D
330
E3
100
AcDbEntity
  8
Des_ Walls
  6
Continuous
100
AcDbLine
 10
198.7909458126413
 20
135.4016459168594
 30
0.0
 11
198.929834761083
 21
135.3563220152752
 31
0.0
  0
LINE
  5
27E
330
E3
100
AcDbEntity
  8
Des_ Walls
  6
Continuous
100
AcDbLine
 10
198.929834761083
 20
135.3563220152752
 30
0.0
 11
199.0687237095246
 21
135.3110023786671
 31
0.0
  0
LINE
  5
27F
330
E3
100
AcDbEntity
  8
Des_ Walls
  6
Continuous
100
AcDbLine
 10
199.0687237095246
 20
135.3110023786671
 30
0.0
 11
199.2076126579663
 21
135.2660282051275
 31
0.0
  0
LINE
  5
280
330
E3
100
AcDbEntity
  8
Des_ Walls
  6
Continuous
100
AcDbLine
 10
199.2076126579663
 20
135.2660282051275
 30
0.0
 11
199.3465016064079
 21
135.2217364277725
 31
0.0
  0
LINE
  5
281
330
E3
100
AcDbEntity
  8
Des_ Walls
  6
Continuous
100
AcDbLine
 10
199.3465016064079
 20
135.2217364277725
 30
0.0
 11
199.4853905548496
 21
135.1784725096705
 31
0.0
  0
LINE
  5
282
330
E3
100
AcDbEntity
  8
Des_ Walls
  6
Continuous
100
AcDbLine
 10
199.4853905548496
 20
135.1784725096705
 30
0.0
 11
199.6242795032912
 21
135.1365605890092
 31
0.0
  0
LINE
  5
283
330
E3
100
AcDbEntity
  8
Des_ Walls
  6
Continuous
100
AcDbLine
 10
199.6242795032912
 20
135.1365605890092
 30
0.0
 11
199.7631684517329
 21
135.0963248039762
 31
0.0
  0
LINE
  5
284
330
E3
100
AcDbEntity
  8
Des_ Walls
  6
Continuous
100
AcDbLine
 10
199.7631684517329
 20
135.0963248039762
 30
0.0
 11
199.9020574001745
 21
135.0580637029023
 31
0.0
  0
LINE
  5
285
330
E3
100
AcDbEntity
  8
Des_ Walls
  6
Continuous
100
AcDbLine
 10
199.9020574001745
 20
135.0580637029023
 30
0.0
 11
200.0409463486162
 21
135.0220758341183
 31
0.0
  0
LINE
  5
286
330
E3
100
AcDbEntity
  8
Des_ Walls
  6
Continuous
100
AcDbLine
 10
200.0409463486162
 20
135.0220758341183
 30
0.0
 11
200.1798352970578
 21
134.9886298911219
 31
0.0
  0
LINE
  5
287
330
E3
100
AcDbEntity
  8
Des_ Walls
  6
Continuous
100
AcDbLine
 10
200.1798352970578
 20
134.9886298911219
 30
0.0
 11
200.3187242454995
 21
134.9579817724822
 31
0.0
  0
LINE
  5
288
330
E3
100
AcDbEntity
  8
Des_ Walls
  6
Continuous
100
AcDbLine
 10
200.3187242454995
 20
134.9579817724822
 30
0.0
 11
200.4576131939412
 21
134.9303660518877
 31
0.0
  0
LINE
  5
289
330
E3
100
AcDbEntity
  8
Des_ Walls
  6
Continuous
100
AcDbLine
 10
200.4576131939412
 20
134.9303660518877
 30
0.0
 11
200.5965021423828
 21
134.9059917131699
 31
0.0
  0
LINE
  5
28A
330
E3
100
AcDbEntity
  8
Des_ Walls
  6
Continuous
100
AcDbLine
 10
200.5965021423828
 20
134.9059917131699
 30
0.0
 11
200.7353910908245
 21
134.8850421503035
 31
0.0
  0
LINE
  5
28B
330
E3
100
AcDbEntity
  8
Des_ Walls
  6
Continuous
100
AcDbLine
 10
200.7353910908245
 20
134.8850421503035
 30
0.0
 11
200.8742800392662
 21
134.8676836973584
 31
0.0
  0
LINE
  5
28C
330
E3
100
AcDbEntity
  8
Des_ Walls
  6
Continuous
100
AcDbLine
 10
200.8742800392662
 20
134.8676836973584
 30
0.0
 11
201.0131689877078
 21
134.8540443036192
 31
0.0
  0
LINE
  5
28D
330
E3
100
AcDbEntity
  8
Des_ Walls
  6
Continuous
100
AcDbLine
 10
201.0131689877078
 20
134.8540443036192
 30
0.0
 11
201.1520579361494
 21
134.8442220635375
 31
0.0
  0
LINE
  5
28E
330
E3
100
AcDbEntity
  8
Des_ Walls
  6
Continuous
100
AcDbLine
 10
201.1520579361494
 20
134.8442220635375
 30
0.0
 11
201.2909468845911
 21
134.8383022766363
 31
0.0
  0
LINE
  5
28F
330
E3
100
AcDbEntity
  8
Des_ Walls
  6
Continuous
100
AcDbLine
 10
201.2909468845911
 20
134.8383022766363
 30
0.0
 11
201.4298358330328
 21
134.836323327701
 31
0.0
  0
LINE
  5
290
330
E3
100
AcDbEntity
  8
Des_ Walls
  6
Continuous
100
AcDbLine
 10
201.4298358330328
 20
134.836323327701
 30
0.0
 11
201.5687247814745
 21
134.8383022766363
 31
0.0
  0
LINE
  5
291
330
E3
100
AcDbEntity
  8
Des_ Walls
  6
Continuous
100
AcDbLine
 10
198.929834761083
 20
135.8763249678255
 30
0.0
 11
199.0687237095246
 21
135.8743460188902
 31
0.0
  0
LINE
  5
292
330
E3
100
AcDbEntity
  8
Des_ Walls
  6
Continuous
100
AcDbLine
 10
199.0687237095246
 20
135.8743460188902
 30
0.0
 11
199.2076126579663
 21
135.8684219670129
 31
0.0
  0
LINE
  5
293
330
E3
100
AcDbEntity
  8
Des_ Walls
  6
Continuous
100
AcDbLine
 10
199.2076126579663
 20
135.8684219670129
 30
0.0
 11
199.3465016064079
 21
135.8586039919073
 31
0.0
  0
LINE
  5
294
330
E3
100
AcDbEntity
  8
Des_ Walls
  6
Continuous
100
AcDbLine
 10
199.3465016064079
 20
135.8586039919073
 30
0.0
 11
199.4853905548496
 21
135.8449645981681
 31
0.0
  0
LINE
  5
295
330
E3
100
AcDbEntity
  8
Des_ Walls
  6
Continuous
100
AcDbLine
 10
199.4853905548496
 20
135.8449645981681
 30
0.0
 11
199.6242795032912
 21
135.8276018802469
 31
0.0
  0
LINE
  5
296
330
E3
100
AcDbEntity
  8
Des_ Walls
  6
Continuous
100
AcDbLine
 10
199.6242795032912
 20
135.8276018802469
 30
0.0
 11
199.7631684517329
 21
135.8066565823566
 31
0.0
  0
LINE
  5
297
330
E3
100
AcDbEntity
  8
Des_ Walls
  6
Continuous
100
AcDbLine
 10
199.7631684517329
 20
135.8066565823566
 30
0.0
 11
199.9020574001745
 21
135.7822822436388
 31
0.0
  0
LINE
  5
298
330
E3
100
AcDbEntity
  8
Des_ Walls
  6
Continuous
100
AcDbLine
 10
199.9020574001745
 20
135.7822822436388
 30
0.0
 11
200.0409463486162
 21
135.7546665230443
 31
0.0
  0
LINE
  5
299
330
E3
100
AcDbEntity
  8
Des_ Walls
  6
Continuous
100
AcDbLine
 10
200.0409463486162
 20
135.7546665230443
 30
0.0
 11
200.1798352970578
 21
135.7240184044046
 31
0.0
  0
LINE
  5
29A
330
E3
100
AcDbEntity
  8
Des_ Walls
  6
Continuous
100
AcDbLine
 10
200.1798352970578
 20
135.7240184044046
 30
0.0
 11
200.3187242454995
 21
135.6905724614082
 31
0.0
  0
LINE
  5
29B
330
E3
100
AcDbEntity
  8
Des_ Walls
  6
Continuous
100
AcDbLine
 10
200.3187242454995
 20
135.6905724614082
 30
0.0
 11
200.4576131939412
 21
135.6545845926242
 31
0.0
  0
LINE
  5
29C
330
E3
100
AcDbEntity
  8
Des_ Walls
  6
Continuous
100
AcDbLine
 10
200.4576131939412
 20
135.6545845926242
 30
0.0
 11
200.5965021423828
 21
135.6163234915503
 31
0.0
  0
LINE
  5
29D
330
E3
100
AcDbEntity
  8
Des_ Walls
  6
Continuous
100
AcDbLine
 10
200.5965021423828
 20
135.6163234915503
 30
0.0
 11
200.7353910908245
 21
135.5760834415412
 31
0.0
  0
LINE
  5
29E
330
E3
100
AcDbEntity
  8
Des_ Walls
  6
Continuous
100
AcDbLine
 10
200.7353910908245
 20
135.5760834415412
 30
0.0
 11
200.8742800392662
 21
135.534175785856
 31
0.0
  0
LINE
  5
29F
330
E3
100
AcDbEntity
  8
Des_ Walls
  6
Continuous
100
AcDbLine
 10
200.8742800392662
 20
135.534175785856
 30
0.0
 11
201.0131689877078
 21
135.4909076027779
 31
0.0
  0
LINE
  5
2A0
330
E3
100
AcDbEntity
  8
Des_ Walls
  6
Continuous
100
AcDbLine
 10
201.0131689877078
 20
135.4909076027779
 30
0.0
 11
201.1520579361494
 21
135.446620090399
 31
0.0
  0
LINE
  5
2A1
330
E3
100
AcDbEntity
  8
Des_ Walls
  6
Continuous
100
AcDbLine
 10
201.1520579361494
 20
135.446620090399
 30
0.0
 11
201.2909468845911
 21
135.4016459168594
 31
0.0
  0
LINE
  5
2A2
330
E3
100
AcDbEntity
  8
Des_ Walls
  6
Continuous
100
AcDbLine
 10
201.2909468845911
 20
135.4016459168594
 30
0.0
 11
201.4298358330328
 21
135.3563220152752
 31
0.0
  0
LINE
  5
2A3
330
E3
100
AcDbEntity
  8
Des_ Walls
  6
Continuous
100
AcDbLine
 10
201.4298358330328
 20
135.3563220152752
 30
0.0
 11
201.5687247814745
 21
135.3110023786671
 31
0.0
  0
LINE
  5
2A4
330
E3
100
AcDbEntity
  8
Des_ Walls
  6
Continuous
100
AcDbLine
 10
201.5687247814745
 20
135.3110023786671
 30
0.0
 11
201.7076137299161
 21
135.2660282051275
 31
0.0
  0
LINE
  5
2A5
330
E3
100
AcDbEntity
  8
Des_ Walls
  6
Continuous
100
AcDbLine
 10
201.7076137299161
 20
135.2660282051275
 30
0.0
 11
201.8465026783578
 21
135.2217364277725
 31
0.0
  0
LINE
  5
2A6
330
E3
100
AcDbEntity
  8
Des_ Walls
  6
Continuous
100
AcDbLine
 10
201.8465026783578
 20
135.2217364277725
 30
0.0
 11
201.9853916267994
 21
135.1784725096705
 31
0.0
  0
LINE
  5
2A7
330
E3
100
AcDbEntity
  8
Des_ Walls
  6
Continuous
100
AcDbLine
 10
201.9853916267994
 20
135.1784725096705
 30
0.0
 11
202.1242805752411
 21
135.1365605890092
 31
0.0
  0
LINE
  5
2A8
330
E3
100
AcDbEntity
  8
Des_ Walls
  6
Continuous
100
AcDbLine
 10
202.1242805752411
 20
135.1365605890092
 30
0.0
 11
202.2631695236828
 21
135.0963248039762
 31
0.0
  0
LINE
  5
2A9
330
E3
100
AcDbEntity
  8
Des_ Walls
  6
Continuous
100
AcDbLine
 10
202.2631695236828
 20
135.0963248039762
 30
0.0
 11
202.4020584721244
 21
135.0580637029023
 31
0.0
  0
LINE
  5
2AA
330
E3
100
AcDbEntity
  8
Des_ Walls
  6
Continuous
100
AcDbLine
 10
202.4020584721244
 20
135.0580637029023
 30
0.0
 11
202.5409474205661
 21
135.0220758341183
 31
0.0
  0
LINE
  5
2AB
330
E3
100
AcDbEntity
  8
Des_ Walls
  6
Continuous
100
AcDbLine
 10
202.5409474205661
 20
135.0220758341183
 30
0.0
 11
202.6798363690077
 21
134.9886298911219
 31
0.0
  0
LINE
  5
2AC
330
E3
100
AcDbEntity
  8
Des_ Walls
  6
Continuous
100
AcDbLine
 10
193.9298368821594
 20
135.3563220152752
 30
0.0
 11
194.068725830601
 21
135.3110023786671
 31
0.0
  0
LINE
  5
2AD
330
E3
100
AcDbEntity
  8
Des_ Walls
  6
Continuous
100
AcDbLine
 10
194.068725830601
 20
135.3110023786671
 30
0.0
 11
194.2076147790427
 21
135.2660282051275
 31
0.0
  0
LINE
  5
2AE
330
E3
100
AcDbEntity
  8
Des_ Walls
  6
Continuous
100
AcDbLine
 10
194.2076147790427
 20
135.2660282051275
 30
0.0
 11
194.3465037274844
 21
135.2217364277725
 31
0.0
  0
LINE
  5
2AF
330
E3
100
AcDbEntity
  8
Des_ Walls
  6
Continuous
100
AcDbLine
 10
194.3465037274844
 20
135.2217364277725
 30
0.0
 11
194.485392675926
 21
135.1784725096705
 31
0.0
  0
LINE
  5
2B0
330
E3
100
AcDbEntity
  8
Des_ Walls
  6
Continuous
100
AcDbLine
 10
194.485392675926
 20
135.1784725096705
 30
0.0
 11
194.6242816243677
 21
135.1365605890092
 31
0.0
  0
LINE
  5
2B1
330
E3
100
AcDbEntity
  8
Des_ Walls
  6
Continuous
100
AcDbLine
 10
194.6242816243677
 20
135.1365605890092
 30
0.0
 11
194.7631705728093
 21
135.0963248039762
 31
0.0
  0
LINE
  5
2B2
330
E3
100
AcDbEntity
  8
Des_ Walls
  6
Continuous
100
AcDbLine
 10
194.7631705728093
 20
135.0963248039762
 30
0.0
 11
194.902059521251
 21
135.0580637029023
 31
0.0
  0
LINE
  5
2B3
330
E3
100
AcDbEntity
  8
Des_ Walls
  6
Continuous
100
AcDbLine
 10
194.902059521251
 20
135.0580637029023
 30
0.0
 11
195.0409484696926
 21
135.0220758341183
 31
0.0
  0
LINE
  5
2B4
330
E3
100
AcDbEntity
  8
Des_ Walls
  6
Continuous
100
AcDbLine
 10
195.0409484696926
 20
135.0220758341183
 30
0.0
 11
195.1798374181343
 21
134.9886298911219
 31
0.0
  0
LINE
  5
2B5
330
E3
100
AcDbEntity
  8
Des_ Walls
  6
Continuous
100
AcDbLine
 10
195.1798374181343
 20
134.9886298911219
 30
0.0
 11
195.318726366576
 21
134.9579817724822
 31
0.0
  0
LINE
  5
2B6
330
E3
100
AcDbEntity
  8
Des_ Walls
  6
Continuous
100
AcDbLine
 10
195.318726366576
 20
134.9579817724822
 30
0.0
 11
195.4576110500415
 21
134.9303660518877
 31
0.0
  0
LINE
  5
2B7
330
E3
100
AcDbEntity
  8
Des_ Walls
  6
Continuous
100
AcDbLine
 10
195.4576110500415
 20
134.9303660518877
 30
0.0
 11
195.5964999984831
 21
134.9059917131699
 31
0.0
  0
LINE
  5
2B8
330
E3
100
AcDbEntity
  8
Des_ Walls
  6
Continuous
100
AcDbLine
 10
195.5964999984831
 20
134.9059917131699
 30
0.0
 11
195.7353889469248
 21
134.8850421503035
 31
0.0
  0
LINE
  5
2B9
330
E3
100
AcDbEntity
  8
Des_ Walls
  6
Continuous
100
AcDbLine
 10
195.7353889469248
 20
134.8850421503035
 30
0.0
 11
195.8742778953664
 21
134.8676836973584
 31
0.0
  0
LINE
  5
2BA
330
E3
100
AcDbEntity
  8
Des_ Walls
  6
Continuous
100
AcDbLine
 10
195.8742778953664
 20
134.8676836973584
 30
0.0
 11
196.0131668438081
 21
134.8540443036192
 31
0.0
  0
LINE
  5
2BB
330
E3
100
AcDbEntity
  8
Des_ Walls
  6
Continuous
100
AcDbLine
 10
196.0131668438081
 20
134.8540443036192
 30
0.0
 11
196.1520557922498
 21
134.8442220635375
 31
0.0
  0
LINE
  5
2BC
330
E3
100
AcDbEntity
  8
Des_ Walls
  6
Continuous
100
AcDbLine
 10
196.1520557922498
 20
134.8442220635375
 30
0.0
 11
196.2909447406914
 21
134.8383022766363
 31
0.0
  0
LINE
  5
2BD
330
E3
100
AcDbEntity
  8
Des_ Walls
  6
Continuous
100
AcDbLine
 10
196.2909447406914
 20
134.8383022766363
 30
0.0
 11
196.4298336891331
 21
134.836323327701
 31
0.0
  0
LINE
  5
2BE
330
E3
100
AcDbEntity
  8
Des_ Walls
  6
Continuous
100
AcDbLine
 10
196.4298336891331
 20
134.836323327701
 30
0.0
 11
196.5687226375748
 21
134.8383022766363
 31
0.0
  0
LINE
  5
2BF
330
E3
100
AcDbEntity
  8
Des_ Walls
  6
Continuous
100
AcDbLine
 10
201.4298358330328
 20
135.8763249678255
 30
0.0
 11
201.5687247814745
 21
135.8743460188902
 31
0.0
  0
LINE
  5
2C0
330
E3
100
AcDbEntity
  8
Des_ Walls
  6
Continuous
100
AcDbLine
 10
201.5687247814745
 20
135.8743460188902
 30
0.0
 11
201.7076137299161
 21
135.8684219670129
 31
0.0
  0
LINE
  5
2C1
330
E3
100
AcDbEntity
  8
Des_ Walls
  6
Continuous
100
AcDbLine
 10
201.7076137299161
 20
135.8684219670129
 30
0.0
 11
201.8465026783578
 21
135.8586039919073
 31
0.0
  0
LINE
  5
2C2
330
E3
100
AcDbEntity
  8
Des_ Walls
  6
Continuous
100
AcDbLine
 10
201.8465026783578
 20
135.8586039919073
 30
0.0
 11
201.9853916267994
 21
135.8449645981681
 31
0.0
  0
LINE
  5
2C3
330
E3
100
AcDbEntity
  8
Des_ Walls
  6
Continuous
100
AcDbLine
 10
201.9853916267994
 20
135.8449645981681
 30
0.0
 11
202.1242805752411
 21
135.8276018802469
 31
0.0
  0
LINE
  5
2C4
330
E3
100
AcDbEntity
  8
Des_ Walls
  6
Continuous
100
AcDbLine
 10
202.1242805752411
 20
135.8276018802469
 30
0.0
 11
202.2631695236828
 21
135.8066565823566
 31
0.0
  0
LINE
  5
2C5
330
E3
100
AcDbEntity
  8
Des_ Walls
  6
Continuous
100
AcDbLine
 10
202.2631695236828
 20
135.8066565823566
 30
0.0
 11
202.4020584721244
 21
135.7822822436388
 31
0.0
  0
LINE
  5
2C6
330
E3
100
AcDbEntity
  8
Des_ Walls
  6
Continuous
100
AcDbLine
 10
202.4020584721244
 20
135.7822822436388
 30
0.0
 11
202.5409474205661
 21
135.7546665230443
 31
0.0
  0
LINE
  5
2C7
330
E3
100
AcDbEntity
  8
Des_ Walls
  6
Continuous
100
AcDbLine
 10
202.5409474205661
 20
135.7546665230443
 30
0.0
 11
202.6798363690077
 21
135.7240184044046
 31
0.0
  0
HATCH
  5
2C8
330
E3
100
AcDbEntity
  8
Des_ Walls
  6
Continuous
 62
   255
370
     0
100
AcDbHatch
 10
0.0
 20
0.0
 30
0.0
210
0.0
220
0.0
230
1.0
  2
SOLID
 70
     1
 71
     0
 91
        1
 92
        3
 72
     1
 73
     1
 93
        2
 10
231.601058448853
 20
157.125970343537
 42
0.4999999999999998
 10
231.601058448853
 20
159.5259703435371
 42
0.0
 97
        0
 75
     0
 76
     1
 98
        0
  0
ARC
  5
2C9
330
E3
100
AcDbEntity
  8
Des_ Walls
  6
Continuous
100
AcDbCircle
 10
230.7010584488529
 20
158.3259703435371
 30
0.0
 40
1.500000000000051
100
AcDbArc
 50
306.8698976458444
 51
53.13010235415555
  0
LINE
  5
2CA
330
E3
100
AcDbEntity
  8
Des_ Walls
  6
Continuous
100
AcDbLine
 10
231.6010576341646
 20
159.5259717325028
 30
0.0
 11
231.6010576341646
 21
157.1259715564262
 31
0.0
  0
HATCH
  5
2CB
330
E3
100
AcDbEntity
  8
Des_ Walls
  6
Continuous
 62
   255
370
     0
100
AcDbHatch
 10
0.0
 20
0.0
 30
0.0
210
0.0
220
0.0
230
1.0
  2
SOLID
 70
     1
 71
     0
 91
        1
 92
        3
 72
     0
 73
     1
 93
        4
 10
232.201058448853
 20
158.965970343537
 10
232.0576718794219
 20
158.965970343537
 10
232.0576718794219
 20
157.6859703435372
 10
232.201058448853
 20
157.6859703435372
 97
        0
 75
     0
 76
     1
 98
        0
  0
LINE
  5
2CC
330
E3
100
AcDbEntity
  8
Des_ Walls
  6
Continuous
100
AcDbLine
 10
232.2010587444278
 20
158.9659718335841
 30
0.0
 11
232.0576702461441
 21
158.9659718335841
 31
0.0
  0
LINE
  5
2CD
330
E3
100
AcDbEntity
  8
Des_ Walls
  6
Continuous
100
AcDbLine
 10
232.0576702461441
 20
158.9659718335841
 30
0.0
 11
232.0576702461441
 21
157.6859714553449
 31
0.0
  0
LINE
  5
2CE
330
E3
100
AcDbEntity
  8
Des_ Walls
  6
Continuous
100
AcDbLine
 10
232.0576702461441
 20
157.6859714553449
 30
0.0
 11
232.2010587444278
 21
157.6859714553449
 31
0.0
  0
LINE
  5
2CF
330
E3
100
AcDbEntity
  8
Des_ Walls
  6
Continuous
100
AcDbLine
 10
232.2010587444278
 20
157.6859714553449
 30
0.0
 11
232.2010587444278
 21
158.9659718335841
 31
0.0
  0
HATCH
  5
2D0
330
E3
100
AcDbEntity
  8
Des_ Walls
  6
Continuous
 62
   255
370
     0
100
AcDbHatch
 10
0.0
 20
0.0
 30
0.0
210
0.0
220
0.0
230
1.0
  2
SOLID
 70
     1
 71
     0
 91
        1
 92
        3
 72
     1
 73
     1
 93
        4
 10
231.601058448853
 20
159.725970343537
 42
0.0
 10
230.801058448853
 20
159.725970343537
 42
-0.4285714285714285
 10
230.801058448853
 20
156.925970343537
 42
0.0
 10
231.601058448853
 20
156.925970343537
 42
0.0
 97
        0
 75
     0
 76
     1
 98
        0
  0
LINE
  5
2D1
330
E3
100
AcDbEntity
  8
Des_ Walls
  6
Continuous
100
AcDbLine
 10
231.6010576341646
 20
159.7259692592731
 30
0.0
 11
230.8010589971311
 21
159.7259692592731
 31
0.0
  0
ARC
  5
2D2
330
E3
100
AcDbEntity
  8
Des_ Walls
  6
Continuous
100
AcDbCircle
 10
229.4677251155197
 20
158.325970343537
 30
0.0
 40
1.933333333333277
100
AcDbArc
 50
313.6028189727037
 51
46.39718102729626
  0
LINE
  5
2D3
330
E3
100
AcDbEntity
  8
Des_ Walls
  6
Continuous
100
AcDbLine
 10
230.8010589971311
 20
156.9259697646798
 30
0.0
 11
231.6010576341646
 21
156.9259697646798
 31
0.0
  0
LINE
  5
2D4
330
E3
100
AcDbEntity
  8
Des_ Walls
  6
Continuous
100
AcDbLine
 10
231.6010576341646
 20
156.9259697646798
 30
0.0
 11
231.6010576341646
 21
159.7259692592731
 31
0.0
  0
HATCH
  5
2D5
330
E3
100
AcDbEntity
  8
Des_ Walls
  6
Continuous
 62
   255
370
     0
100
AcDbHatch
 10
0.0
 20
0.0
 30
0.0
210
0.0
220
0.0
230
1.0
  2
SOLID
 70
     1
 71
     0
 91
        1
 92
        3
 72
     0
 73
     1
 93
        5
 10
231.401058448853
 20
158.645970343537
 10
222.041058448853
 20
158.645970343537
 10
221.401058448853
 20
158.325970343537
 10
222.041058448853
 20
158.005970343537
 10
231.401058448853
 20
158.005970343537
 97
        0
 75
     0
 76
     1
 98
        0
  0
LINE
  5
2D6
330
E3
100
AcDbEntity
  8
Des_ Walls
  6
Continuous
100
AcDbLine
 10
231.4010601073943
 20
158.6459706727803
 30
0.0
 11
222.0410581412026
 21
158.6459706727803
 31
0.0
  0
LINE
  5
2D7
330
E3
100
AcDbEntity
  8
Des_ Walls
  6
Continuous
100
AcDbLine
 10
222.0410581412026
 20
158.6459706727803
 30
0.0
 11
221.401060084571
 21
158.3259695119764
 31
0.0
  0
LINE
  5
2D8
330
E3
100
AcDbEntity
  8
Des_ Walls
  6
Continuous
100
AcDbLine
 10
221.401060084571
 20
158.3259695119764
 30
0.0
 11
222.0410581412026
 21
158.0059683511726
 31
0.0
  0
LINE
  5
2D9
330
E3
100
AcDbEntity
  8
Des_ Walls
  6
Continuous
100
AcDbLine
 10
222.0410581412026
 20
158.0059683511726
 30
0.0
 11
231.4010601073943
 21
158.0059683511726
 31
0.0
  0
LINE
  5
2DA
330
E3
100
AcDbEntity
  8
Des_ Walls
  6
Continuous
100
AcDbLine
 10
231.4010601073943
 20
158.0059683511726
 30
0.0
 11
231.4010601073943
 21
158.6459706727803
 31
0.0
  0
LINE
  5
2DB
330
E3
100
AcDbEntity
  8
Des_ Walls
  6
Continuous
100
AcDbLine
 10
231.4010601073943
 20
157.8059708244023
 30
0.0
 11
231.2621711589526
 21
157.8079497733376
 31
0.0
  0
LINE
  5
2DC
330
E3
100
AcDbEntity
  8
Des_ Walls
  6
Continuous
100
AcDbLine
 10
231.2621711589526
 20
157.8079497733376
 30
0.0
 11
231.123282210511
 21
157.8138695602387
 31
0.0
  0
LINE
  5
2DD
330
E3
100
AcDbEntity
  8
Des_ Walls
  6
Continuous
100
AcDbLine
 10
231.123282210511
 20
157.8138695602387
 30
0.0
 11
230.9843932620693
 21
157.8236875353443
 31
0.0
  0
LINE
  5
2DE
330
E3
100
AcDbEntity
  8
Des_ Walls
  6
Continuous
100
AcDbLine
 10
230.9843932620693
 20
157.8236875353443
 30
0.0
 11
230.8455043136277
 21
157.8373311940596
 31
0.0
  0
LINE
  5
2DF
330
E3
100
AcDbEntity
  8
Des_ Walls
  6
Continuous
100
AcDbLine
 10
230.8455043136277
 20
157.8373311940596
 30
0.0
 11
230.706615365186
 21
157.8546896470047
 31
0.0
  0
LINE
  5
2E0
330
E3
100
AcDbEntity
  8
Des_ Walls
  6
Continuous
100
AcDbLine
 10
230.706615365186
 20
157.8546896470047
 30
0.0
 11
230.5677264167444
 21
157.8756392098712
 31
0.0
  0
LINE
  5
2E1
330
E3
100
AcDbEntity
  8
Des_ Walls
  6
Continuous
100
AcDbLine
 10
230.5677264167444
 20
157.8756392098712
 30
0.0
 11
230.4288374683027
 21
157.9000092836128
 31
0.0
  0
LINE
  5
2E2
330
E3
100
AcDbEntity
  8
Des_ Walls
  6
Continuous
100
AcDbLine
 10
230.4288374683027
 20
157.9000092836128
 30
0.0
 11
230.289948519861
 21
157.9276292691834
 31
0.0
  0
LINE
  5
2E3
330
E3
100
AcDbEntity
  8
Des_ Walls
  6
Continuous
100
AcDbLine
 10
230.289948519861
 20
157.9276292691834
 30
0.0
 11
230.1510595714194
 21
157.958273122847
 31
0.0
  0
LINE
  5
2E4
330
E3
100
AcDbEntity
  8
Des_ Walls
  6
Continuous
100
AcDbLine
 10
230.1510595714194
 20
157.958273122847
 30
0.0
 11
230.0121706229777
 21
157.9917190658434
 31
0.0
  0
LINE
  5
2E5
330
E3
100
AcDbEntity
  8
Des_ Walls
  6
Continuous
100
AcDbLine
 10
230.0121706229777
 20
157.9917190658434
 30
0.0
 11
229.8732816745361
 21
158.0277111996036
 31
0.0
  0
LINE
  5
2E6
330
E3
100
AcDbEntity
  8
Des_ Walls
  6
Continuous
100
AcDbLine
 10
229.8732816745361
 20
158.0277111996036
 30
0.0
 11
229.7343927260944
 21
158.0659723006774
 31
0.0
  0
LINE
  5
2E7
330
E3
100
AcDbEntity
  8
Des_ Walls
  6
Continuous
100
AcDbLine
 10
229.7343927260944
 20
158.0659723006774
 30
0.0
 11
229.5955037776528
 21
158.1062080857104
 31
0.0
  0
LINE
  5
2E8
330
E3
100
AcDbEntity
  8
Des_ Walls
  6
Continuous
100
AcDbLine
 10
229.5955037776528
 20
158.1062080857104
 30
0.0
 11
229.4566148292111
 21
158.1481200063717
 31
0.0
  0
LINE
  5
2E9
330
E3
100
AcDbEntity
  8
Des_ Walls
  6
Continuous
100
AcDbLine
 10
229.4566148292111
 20
158.1481200063717
 30
0.0
 11
229.3177258807694
 21
158.1913839244737
 31
0.0
  0
LINE
  5
2EA
330
E3
100
AcDbEntity
  8
Des_ Walls
  6
Continuous
100
AcDbLine
 10
229.3177258807694
 20
158.1913839244737
 30
0.0
 11
229.1788369323278
 21
158.2356714368526
 31
0.0
  0
LINE
  5
2EB
330
E3
100
AcDbEntity
  8
Des_ Walls
  6
Continuous
100
AcDbLine
 10
229.1788369323278
 20
158.2356714368526
 30
0.0
 11
229.0399479838861
 21
158.2806498753684
 31
0.0
  0
LINE
  5
2EC
330
E3
100
AcDbEntity
  8
Des_ Walls
  6
Continuous
100
AcDbLine
 10
229.0399479838861
 20
158.2806498753684
 30
0.0
 11
228.9010590354444
 21
158.3259695119764
 31
0.0
  0
LINE
  5
2ED
330
E3
100
AcDbEntity
  8
Des_ Walls
  6
Continuous
100
AcDbLine
 10
228.9010590354444
 20
158.3259695119764
 30
0.0
 11
228.7621700870028
 21
158.3712934135607
 31
0.0
  0
LINE
  5
2EE
330
E3
100
AcDbEntity
  8
Des_ Walls
  6
Continuous
100
AcDbLine
 10
228.7621700870028
 20
158.3712934135607
 30
0.0
 11
228.6232811385611
 21
158.4162675871003
 31
0.0
  0
LINE
  5
2EF
330
E3
100
AcDbEntity
  8
Des_ Walls
  6
Continuous
100
AcDbLine
 10
228.6232811385611
 20
158.4162675871003
 30
0.0
 11
228.4843921901195
 21
158.4605550994791
 31
0.0
  0
LINE
  5
2F0
330
E3
100
AcDbEntity
  8
Des_ Walls
  6
Continuous
100
AcDbLine
 10
228.4843921901195
 20
158.4605550994791
 30
0.0
 11
228.3455032416778
 21
158.5038190175812
 31
0.0
  0
LINE
  5
2F1
330
E3
100
AcDbEntity
  8
Des_ Walls
  6
Continuous
100
AcDbLine
 10
228.3455032416778
 20
158.5038190175812
 30
0.0
 11
228.2066142932362
 21
158.5457309382425
 31
0.0
  0
LINE
  5
2F2
330
E3
100
AcDbEntity
  8
Des_ Walls
  6
Continuous
100
AcDbLine
 10
228.2066142932362
 20
158.5457309382425
 30
0.0
 11
228.0677253447945
 21
158.5859709882516
 31
0.0
  0
LINE
  5
2F3
330
E3
100
AcDbEntity
  8
Des_ Walls
  6
Continuous
100
AcDbLine
 10
228.0677253447945
 20
158.5859709882516
 30
0.0
 11
227.9288363963529
 21
158.6242320893255
 31
0.0
  0
LINE
  5
2F4
330
E3
100
AcDbEntity
  8
Des_ Walls
  6
Continuous
100
AcDbLine
 10
227.9288363963529
 20
158.6242320893255
 30
0.0
 11
227.7899474479112
 21
158.6602199581094
 31
0.0
  0
LINE
  5
2F5
330
E3
100
AcDbEntity
  8
Des_ Walls
  6
Continuous
100
AcDbLine
 10
227.7899474479112
 20
158.6602199581094
 30
0.0
 11
227.6510584994695
 21
158.6936659011059
 31
0.0
  0
LINE
  5
2F6
330
E3
100
AcDbEntity
  8
Des_ Walls
  6
Continuous
100
AcDbLine
 10
227.6510584994695
 20
158.6936659011059
 30
0.0
 11
227.5121695510279
 21
158.7243140197456
 31
0.0
  0
LINE
  5
2F7
330
E3
100
AcDbEntity
  8
Des_ Walls
  6
Continuous
100
AcDbLine
 10
227.5121695510279
 20
158.7243140197456
 30
0.0
 11
227.3732806025862
 21
158.7519297403401
 31
0.0
  0
LINE
  5
2F8
330
E3
100
AcDbEntity
  8
Des_ Walls
  6
Continuous
100
AcDbLine
 10
227.3732806025862
 20
158.7519297403401
 30
0.0
 11
227.2343916541446
 21
158.7763040790578
 31
0.0
  0
LINE
  5
2F9
330
E3
100
AcDbEntity
  8
Des_ Walls
  6
Continuous
100
AcDbLine
 10
227.2343916541446
 20
158.7763040790578
 30
0.0
 11
227.0955027057029
 21
158.7972493769481
 31
0.0
  0
LINE
  5
2FA
330
E3
100
AcDbEntity
  8
Des_ Walls
  6
Continuous
100
AcDbLine
 10
227.0955027057029
 20
158.7972493769481
 30
0.0
 11
226.9566137572613
 21
158.8146120948694
 31
0.0
  0
LINE
  5
2FB
330
E3
100
AcDbEntity
  8
Des_ Walls
  6
Continuous
100
AcDbLine
 10
226.9566137572613
 20
158.8146120948694
 30
0.0
 11
226.8177248088196
 21
158.8282514886086
 31
0.0
  0
LINE
  5
2FC
330
E3
100
AcDbEntity
  8
Des_ Walls
  6
Continuous
100
AcDbLine
 10
226.8177248088196
 20
158.8282514886086
 30
0.0
 11
226.6788358603779
 21
158.8380694637141
 31
0.0
  0
LINE
  5
2FD
330
E3
100
AcDbEntity
  8
Des_ Walls
  6
Continuous
100
AcDbLine
 10
226.6788358603779
 20
158.8380694637141
 30
0.0
 11
226.5399469119363
 21
158.8439935155915
 31
0.0
  0
LINE
  5
2FE
330
E3
100
AcDbEntity
  8
Des_ Walls
  6
Continuous
100
AcDbLine
 10
226.5399469119363
 20
158.8439935155915
 30
0.0
 11
226.4010579634946
 21
158.8459724645267
 31
0.0
  0
LINE
  5
2FF
330
E3
100
AcDbEntity
  8
Des_ Walls
  6
Continuous
100
AcDbLine
 10
226.4010579634946
 20
158.8459724645267
 30
0.0
 11
226.2621690150529
 21
158.8439935155915
 31
0.0
  0
LINE
  5
300
330
E3
100
AcDbEntity
  8
Des_ Walls
  6
Continuous
100
AcDbLine
 10
228.9010590354444
 20
157.8059708244023
 30
0.0
 11
228.7621700870028
 21
157.8079497733376
 31
0.0
  0
LINE
  5
301
330
E3
100
AcDbEntity
  8
Des_ Walls
  6
Continuous
100
AcDbLine
 10
228.7621700870028
 20
157.8079497733376
 30
0.0
 11
228.6232811385611
 21
157.8138695602387
 31
0.0
  0
LINE
  5
302
330
E3
100
AcDbEntity
  8
Des_ Walls
  6
Continuous
100
AcDbLine
 10
228.6232811385611
 20
157.8138695602387
 30
0.0
 11
228.4843921901195
 21
157.8236875353443
 31
0.0
  0
LINE
  5
303
330
E3
100
AcDbEntity
  8
Des_ Walls
  6
Continuous
100
AcDbLine
 10
228.4843921901195
 20
157.8236875353443
 30
0.0
 11
228.3455032416778
 21
157.8373311940596
 31
0.0
  0
LINE
  5
304
330
E3
100
AcDbEntity
  8
Des_ Walls
  6
Continuous
100
AcDbLine
 10
228.3455032416778
 20
157.8373311940596
 30
0.0
 11
228.2066142932362
 21
157.8546896470047
 31
0.0
  0
LINE
  5
305
330
E3
100
AcDbEntity
  8
Des_ Walls
  6
Continuous
100
AcDbLine
 10
228.2066142932362
 20
157.8546896470047
 30
0.0
 11
228.0677253447945
 21
157.8756392098712
 31
0.0
  0
LINE
  5
306
330
E3
100
AcDbEntity
  8
Des_ Walls
  6
Continuous
100
AcDbLine
 10
228.0677253447945
 20
157.8756392098712
 30
0.0
 11
227.9288363963529
 21
157.9000092836128
 31
0.0
  0
LINE
  5
307
330
E3
100
AcDbEntity
  8
Des_ Walls
  6
Continuous
100
AcDbLine
 10
227.9288363963529
 20
157.9000092836128
 30
0.0
 11
227.7899474479112
 21
157.9276292691834
 31
0.0
  0
LINE
  5
308
330
E3
100
AcDbEntity
  8
Des_ Walls
  6
Continuous
100
AcDbLine
 10
227.7899474479112
 20
157.9276292691834
 30
0.0
 11
227.6510584994695
 21
157.958273122847
 31
0.0
  0
LINE
  5
309
330
E3
100
AcDbEntity
  8
Des_ Walls
  6
Continuous
100
AcDbLine
 10
227.6510584994695
 20
157.958273122847
 30
0.0
 11
227.5121695510279
 21
157.9917190658434
 31
0.0
  0
LINE
  5
30A
330
E3
100
AcDbEntity
  8
Des_ Walls
  6
Continuous
100
AcDbLine
 10
227.5121695510279
 20
157.9917190658434
 30
0.0
 11
227.3732806025862
 21
158.0277111996036
 31
0.0
  0
LINE
  5
30B
330
E3
100
AcDbEntity
  8
Des_ Walls
  6
Continuous
100
AcDbLine
 10
227.3732806025862
 20
158.0277111996036
 30
0.0
 11
227.2343916541446
 21
158.0659723006774
 31
0.0
  0
LINE
  5
30C
330
E3
100
AcDbEntity
  8
Des_ Walls
  6
Continuous
100
AcDbLine
 10
227.2343916541446
 20
158.0659723006774
 30
0.0
 11
227.0955027057029
 21
158.1062080857104
 31
0.0
  0
LINE
  5
30D
330
E3
100
AcDbEntity
  8
Des_ Walls
  6
Continuous
100
AcDbLine
 10
227.0955027057029
 20
158.1062080857104
 30
0.0
 11
226.9566137572613
 21
158.1481200063717
 31
0.0
  0
LINE
  5
30E
330
E3
100
AcDbEntity
  8
Des_ Walls
  6
Continuous
100
AcDbLine
 10
226.9566137572613
 20
158.1481200063717
 30
0.0
 11
226.8177248088196
 21
158.1913839244737
 31
0.0
  0
LINE
  5
30F
330
E3
100
AcDbEntity
  8
Des_ Walls
  6
Continuous
100
AcDbLine
 10
226.8177248088196
 20
158.1913839244737
 30
0.0
 11
226.6788358603779
 21
158.2356714368526
 31
0.0
  0
LINE
  5
310
330
E3
100
AcDbEntity
  8
Des_ Walls
  6
Continuous
100
AcDbLine
 10
226.6788358603779
 20
158.2356714368526
 30
0.0
 11
226.5399469119363
 21
158.2806498753684
 31
0.0
  0
LINE
  5
311
330
E3
100
AcDbEntity
  8
Des_ Walls
  6
Continuous
100
AcDbLine
 10
226.5399469119363
 20
158.2806498753684
 30
0.0
 11
226.4010579634946
 21
158.3259695119764
 31
0.0
  0
LINE
  5
312
330
E3
100
AcDbEntity
  8
Des_ Walls
  6
Continuous
100
AcDbLine
 10
226.4010579634946
 20
158.3259695119764
 30
0.0
 11
226.2621690150529
 21
158.3712934135607
 31
0.0
  0
LINE
  5
313
330
E3
100
AcDbEntity
  8
Des_ Walls
  6
Continuous
100
AcDbLine
 10
226.2621690150529
 20
158.3712934135607
 30
0.0
 11
226.1232800666113
 21
158.4162675871003
 31
0.0
  0
LINE
  5
314
330
E3
100
AcDbEntity
  8
Des_ Walls
  6
Continuous
100
AcDbLine
 10
226.1232800666113
 20
158.4162675871003
 30
0.0
 11
225.9843911181696
 21
158.4605550994791
 31
0.0
  0
LINE
  5
315
330
E3
100
AcDbEntity
  8
Des_ Walls
  6
Continuous
100
AcDbLine
 10
225.9843911181696
 20
158.4605550994791
 30
0.0
 11
225.845502169728
 21
158.5038190175812
 31
0.0
  0
LINE
  5
316
330
E3
100
AcDbEntity
  8
Des_ Walls
  6
Continuous
100
AcDbLine
 10
225.845502169728
 20
158.5038190175812
 30
0.0
 11
225.7066132212863
 21
158.5457309382425
 31
0.0
  0
LINE
  5
317
330
E3
100
AcDbEntity
  8
Des_ Walls
  6
Continuous
100
AcDbLine
 10
225.7066132212863
 20
158.5457309382425
 30
0.0
 11
225.5677242728447
 21
158.5859709882516
 31
0.0
  0
LINE
  5
318
330
E3
100
AcDbEntity
  8
Des_ Walls
  6
Continuous
100
AcDbLine
 10
225.5677242728447
 20
158.5859709882516
 30
0.0
 11
225.428835324403
 21
158.6242320893255
 31
0.0
  0
LINE
  5
319
330
E3
100
AcDbEntity
  8
Des_ Walls
  6
Continuous
100
AcDbLine
 10
225.428835324403
 20
158.6242320893255
 30
0.0
 11
225.2899463759613
 21
158.6602199581094
 31
0.0
  0
LINE
  5
31A
330
E3
100
AcDbEntity
  8
Des_ Walls
  6
Continuous
100
AcDbLine
 10
225.2899463759613
 20
158.6602199581094
 30
0.0
 11
225.1510574275197
 21
158.6936659011059
 31
0.0
  0
LINE
  5
31B
330
E3
100
AcDbEntity
  8
Des_ Walls
  6
Continuous
100
AcDbLine
 10
225.1510574275197
 20
158.6936659011059
 30
0.0
 11
225.012168479078
 21
158.7243140197456
 31
0.0
  0
LINE
  5
31C
330
E3
100
AcDbEntity
  8
Des_ Walls
  6
Continuous
100
AcDbLine
 10
225.012168479078
 20
158.7243140197456
 30
0.0
 11
224.8732795306364
 21
158.7519297403401
 31
0.0
  0
LINE
  5
31D
330
E3
100
AcDbEntity
  8
Des_ Walls
  6
Continuous
100
AcDbLine
 10
224.8732795306364
 20
158.7519297403401
 30
0.0
 11
224.7343905821947
 21
158.7763040790578
 31
0.0
  0
LINE
  5
31E
330
E3
100
AcDbEntity
  8
Des_ Walls
  6
Continuous
100
AcDbLine
 10
224.7343905821947
 20
158.7763040790578
 30
0.0
 11
224.595501633753
 21
158.7972493769481
 31
0.0
  0
LINE
  5
31F
330
E3
100
AcDbEntity
  8
Des_ Walls
  6
Continuous
100
AcDbLine
 10
224.595501633753
 20
158.7972493769481
 30
0.0
 11
224.4566126853114
 21
158.8146120948694
 31
0.0
  0
LINE
  5
320
330
E3
100
AcDbEntity
  8
Des_ Walls
  6
Continuous
100
AcDbLine
 10
224.4566126853114
 20
158.8146120948694
 30
0.0
 11
224.3177237368697
 21
158.8282514886086
 31
0.0
  0
LINE
  5
321
330
E3
100
AcDbEntity
  8
Des_ Walls
  6
Continuous
100
AcDbLine
 10
224.3177237368697
 20
158.8282514886086
 30
0.0
 11
224.1788347884281
 21
158.8380694637141
 31
0.0
  0
LINE
  5
322
330
E3
100
AcDbEntity
  8
Des_ Walls
  6
Continuous
100
AcDbLine
 10
224.1788347884281
 20
158.8380694637141
 30
0.0
 11
224.0399458399864
 21
158.8439935155915
 31
0.0
  0
LINE
  5
323
330
E3
100
AcDbEntity
  8
Des_ Walls
  6
Continuous
100
AcDbLine
 10
224.0399458399864
 20
158.8439935155915
 30
0.0
 11
223.9010568915448
 21
158.8459724645267
 31
0.0
  0
LINE
  5
324
330
E3
100
AcDbEntity
  8
Des_ Walls
  6
Continuous
100
AcDbLine
 10
223.9010568915448
 20
158.8459724645267
 30
0.0
 11
223.7621679431031
 21
158.8439935155915
 31
0.0
  0
LINE
  5
325
330
E3
100
AcDbEntity
  8
Des_ Walls
  6
Continuous
100
AcDbLine
 10
226.4010579634946
 20
157.8059708244023
 30
0.0
 11
226.2621690150529
 21
157.8079497733376
 31
0.0
  0
LINE
  5
326
330
E3
100
AcDbEntity
  8
Des_ Walls
  6
Continuous
100
AcDbLine
 10
226.2621690150529
 20
157.8079497733376
 30
0.0
 11
226.1232800666113
 21
157.8138695602387
 31
0.0
  0
LINE
  5
327
330
E3
100
AcDbEntity
  8
Des_ Walls
  6
Continuous
100
AcDbLine
 10
226.1232800666113
 20
157.8138695602387
 30
0.0
 11
225.9843911181696
 21
157.8236875353443
 31
0.0
  0
LINE
  5
328
330
E3
100
AcDbEntity
  8
Des_ Walls
  6
Continuous
100
AcDbLine
 10
225.9843911181696
 20
157.8236875353443
 30
0.0
 11
225.845502169728
 21
157.8373311940596
 31
0.0
  0
LINE
  5
329
330
E3
100
AcDbEntity
  8
Des_ Walls
  6
Continuous
100
AcDbLine
 10
225.845502169728
 20
157.8373311940596
 30
0.0
 11
225.7066132212863
 21
157.8546896470047
 31
0.0
  0
LINE
  5
32A
330
E3
100
AcDbEntity
  8
Des_ Walls
  6
Continuous
100
AcDbLine
 10
225.7066132212863
 20
157.8546896470047
 30
0.0
 11
225.5677242728447
 21
157.8756392098712
 31
0.0
  0
LINE
  5
32B
330
E3
100
AcDbEntity
  8
Des_ Walls
  6
Continuous
100
AcDbLine
 10
225.5677242728447
 20
157.8756392098712
 30
0.0
 11
225.428835324403
 21
157.9000092836128
 31
0.0
  0
LINE
  5
32C
330
E3
100
AcDbEntity
  8
Des_ Walls
  6
Continuous
100
AcDbLine
 10
225.428835324403
 20
157.9000092836128
 30
0.0
 11
225.2899463759613
 21
157.9276292691834
 31
0.0
  0
LINE
  5
32D
330
E3
100
AcDbEntity
  8
Des_ Walls
  6
Continuous
100
AcDbLine
 10
225.2899463759613
 20
157.9276292691834
 30
0.0
 11
225.1510574275197
 21
157.958273122847
 31
0.0
  0
LINE
  5
32E
330
E3
100
AcDbEntity
  8
Des_ Walls
  6
Continuous
100
AcDbLine
 10
225.1510574275197
 20
157.958273122847
 30
0.0
 11
225.012168479078
 21
157.9917190658434
 31
0.0
  0
LINE
  5
32F
330
E3
100
AcDbEntity
  8
Des_ Walls
  6
Continuous
100
AcDbLine
 10
225.012168479078
 20
157.9917190658434
 30
0.0
 11
224.8732795306364
 21
158.0277111996036
 31
0.0
  0
LINE
  5
330
330
E3
100
AcDbEntity
  8
Des_ Walls
  6
Continuous
100
AcDbLine
 10
224.8732795306364
 20
158.0277111996036
 30
0.0
 11
224.7343905821947
 21
158.0659723006774
 31
0.0
  0
LINE
  5
331
330
E3
100
AcDbEntity
  8
Des_ Walls
  6
Continuous
100
AcDbLine
 10
224.7343905821947
 20
158.0659723006774
 30
0.0
 11
224.595501633753
 21
158.1062080857104
 31
0.0
  0
LINE
  5
332
330
E3
100
AcDbEntity
  8
Des_ Walls
  6
Continuous
100
AcDbLine
 10
224.595501633753
 20
158.1062080857104
 30
0.0
 11
224.4566126853114
 21
158.1481200063717
 31
0.0
  0
LINE
  5
333
330
E3
100
AcDbEntity
  8
Des_ Walls
  6
Continuous
100
AcDbLine
 10
224.4566126853114
 20
158.1481200063717
 30
0.0
 11
224.3177237368697
 21
158.1913839244737
 31
0.0
  0
LINE
  5
334
330
E3
100
AcDbEntity
  8
Des_ Walls
  6
Continuous
100
AcDbLine
 10
224.3177237368697
 20
158.1913839244737
 30
0.0
 11
224.1788347884281
 21
158.2356714368526
 31
0.0
  0
LINE
  5
335
330
E3
100
AcDbEntity
  8
Des_ Walls
  6
Continuous
100
AcDbLine
 10
224.1788347884281
 20
158.2356714368526
 30
0.0
 11
224.0399458399864
 21
158.2806498753684
 31
0.0
  0
LINE
  5
336
330
E3
100
AcDbEntity
  8
Des_ Walls
  6
Continuous
100
AcDbLine
 10
224.0399458399864
 20
158.2806498753684
 30
0.0
 11
223.9010568915448
 21
158.3259695119764
 31
0.0
  0
LINE
  5
337
330
E3
100
AcDbEntity
  8
Des_ Walls
  6
Continuous
100
AcDbLine
 10
223.9010568915448
 20
158.3259695119764
 30
0.0
 11
223.7621679431031
 21
158.3712934135607
 31
0.0
  0
LINE
  5
338
330
E3
100
AcDbEntity
  8
Des_ Walls
  6
Continuous
100
AcDbLine
 10
223.7621679431031
 20
158.3712934135607
 30
0.0
 11
223.6232789946614
 21
158.4162675871003
 31
0.0
  0
LINE
  5
339
330
E3
100
AcDbEntity
  8
Des_ Walls
  6
Continuous
100
AcDbLine
 10
223.6232789946614
 20
158.4162675871003
 30
0.0
 11
223.4843900462197
 21
158.4605550994791
 31
0.0
  0
LINE
  5
33A
330
E3
100
AcDbEntity
  8
Des_ Walls
  6
Continuous
100
AcDbLine
 10
223.4843900462197
 20
158.4605550994791
 30
0.0
 11
223.3455010977781
 21
158.5038190175812
 31
0.0
  0
LINE
  5
33B
330
E3
100
AcDbEntity
  8
Des_ Walls
  6
Continuous
100
AcDbLine
 10
223.3455010977781
 20
158.5038190175812
 30
0.0
 11
223.2066121493364
 21
158.5457309382425
 31
0.0
  0
LINE
  5
33C
330
E3
100
AcDbEntity
  8
Des_ Walls
  6
Continuous
100
AcDbLine
 10
223.2066121493364
 20
158.5457309382425
 30
0.0
 11
223.0677232008948
 21
158.5859709882516
 31
0.0
  0
LINE
  5
33D
330
E3
100
AcDbEntity
  8
Des_ Walls
  6
Continuous
100
AcDbLine
 10
223.0677232008948
 20
158.5859709882516
 30
0.0
 11
222.9288342524531
 21
158.6242320893255
 31
0.0
  0
LINE
  5
33E
330
E3
100
AcDbEntity
  8
Des_ Walls
  6
Continuous
100
AcDbLine
 10
222.9288342524531
 20
158.6242320893255
 30
0.0
 11
222.7899453040115
 21
158.6602199581094
 31
0.0
  0
LINE
  5
33F
330
E3
100
AcDbEntity
  8
Des_ Walls
  6
Continuous
100
AcDbLine
 10
222.7899453040115
 20
158.6602199581094
 30
0.0
 11
222.6510563555698
 21
158.6936659011059
 31
0.0
  0
LINE
  5
340
330
E3
100
AcDbEntity
  8
Des_ Walls
  6
Continuous
100
AcDbLine
 10
231.4010601073943
 20
158.3259695119764
 30
0.0
 11
231.2621711589526
 21
158.3712934135607
 31
0.0
  0
LINE
  5
341
330
E3
100
AcDbEntity
  8
Des_ Walls
  6
Continuous
100
AcDbLine
 10
231.2621711589526
 20
158.3712934135607
 30
0.0
 11
231.123282210511
 21
158.4162675871003
 31
0.0
  0
LINE
  5
342
330
E3
100
AcDbEntity
  8
Des_ Walls
  6
Continuous
100
AcDbLine
 10
231.123282210511
 20
158.4162675871003
 30
0.0
 11
230.9843932620693
 21
158.4605550994791
 31
0.0
  0
LINE
  5
343
330
E3
100
AcDbEntity
  8
Des_ Walls
  6
Continuous
100
AcDbLine
 10
230.9843932620693
 20
158.4605550994791
 30
0.0
 11
230.8455043136277
 21
158.5038190175812
 31
0.0
  0
LINE
  5
344
330
E3
100
AcDbEntity
  8
Des_ Walls
  6
Continuous
100
AcDbLine
 10
230.8455043136277
 20
158.5038190175812
 30
0.0
 11
230.706615365186
 21
158.5457309382425
 31
0.0
  0
LINE
  5
345
330
E3
100
AcDbEntity
  8
Des_ Walls
  6
Continuous
100
AcDbLine
 10
230.706615365186
 20
158.5457309382425
 30
0.0
 11
230.5677264167444
 21
158.5859709882516
 31
0.0
  0
LINE
  5
346
330
E3
100
AcDbEntity
  8
Des_ Walls
  6
Continuous
100
AcDbLine
 10
230.5677264167444
 20
158.5859709882516
 30
0.0
 11
230.4288374683027
 21
158.6242320893255
 31
0.0
  0
LINE
  5
347
330
E3
100
AcDbEntity
  8
Des_ Walls
  6
Continuous
100
AcDbLine
 10
230.4288374683027
 20
158.6242320893255
 30
0.0
 11
230.289948519861
 21
158.6602199581094
 31
0.0
  0
LINE
  5
348
330
E3
100
AcDbEntity
  8
Des_ Walls
  6
Continuous
100
AcDbLine
 10
230.289948519861
 20
158.6602199581094
 30
0.0
 11
230.1510595714194
 21
158.6936659011059
 31
0.0
  0
LINE
  5
349
330
E3
100
AcDbEntity
  8
Des_ Walls
  6
Continuous
100
AcDbLine
 10
230.1510595714194
 20
158.6936659011059
 30
0.0
 11
230.0121706229777
 21
158.7243140197456
 31
0.0
  0
LINE
  5
34A
330
E3
100
AcDbEntity
  8
Des_ Walls
  6
Continuous
100
AcDbLine
 10
230.0121706229777
 20
158.7243140197456
 30
0.0
 11
229.8732816745361
 21
158.7519297403401
 31
0.0
  0
LINE
  5
34B
330
E3
100
AcDbEntity
  8
Des_ Walls
  6
Continuous
100
AcDbLine
 10
229.8732816745361
 20
158.7519297403401
 30
0.0
 11
229.7343927260944
 21
158.7763040790578
 31
0.0
  0
LINE
  5
34C
330
E3
100
AcDbEntity
  8
Des_ Walls
  6
Continuous
100
AcDbLine
 10
229.7343927260944
 20
158.7763040790578
 30
0.0
 11
229.5955037776528
 21
158.7972493769481
 31
0.0
  0
LINE
  5
34D
330
E3
100
AcDbEntity
  8
Des_ Walls
  6
Continuous
100
AcDbLine
 10
229.5955037776528
 20
158.7972493769481
 30
0.0
 11
229.4566148292111
 21
158.8146120948694
 31
0.0
  0
LINE
  5
34E
330
E3
100
AcDbEntity
  8
Des_ Walls
  6
Continuous
100
AcDbLine
 10
229.4566148292111
 20
158.8146120948694
 30
0.0
 11
229.3177258807694
 21
158.8282514886086
 31
0.0
  0
LINE
  5
34F
330
E3
100
AcDbEntity
  8
Des_ Walls
  6
Continuous
100
AcDbLine
 10
229.3177258807694
 20
158.8282514886086
 30
0.0
 11
229.1788369323278
 21
158.8380694637141
 31
0.0
  0
LINE
  5
350
330
E3
100
AcDbEntity
  8
Des_ Walls
  6
Continuous
100
AcDbLine
 10
229.1788369323278
 20
158.8380694637141
 30
0.0
 11
229.0399479838861
 21
158.8439935155915
 31
0.0
  0
LINE
  5
351
330
E3
100
AcDbEntity
  8
Des_ Walls
  6
Continuous
100
AcDbLine
 10
229.0399479838861
 20
158.8439935155915
 30
0.0
 11
228.9010590354444
 21
158.8459724645267
 31
0.0
  0
LINE
  5
352
330
E3
100
AcDbEntity
  8
Des_ Walls
  6
Continuous
100
AcDbLine
 10
228.9010590354444
 20
158.8459724645267
 30
0.0
 11
228.7621700870028
 21
158.8439935155915
 31
0.0
  0
LINE
  5
353
330
E3
100
AcDbEntity
  8
Des_ Walls
  6
Continuous
100
AcDbLine
 10
223.9010568915448
 20
157.8059708244023
 30
0.0
 11
223.7621679431031
 21
157.8079497733376
 31
0.0
  0
LINE
  5
354
330
E3
100
AcDbEntity
  8
Des_ Walls
  6
Continuous
100
AcDbLine
 10
223.7621679431031
 20
157.8079497733376
 30
0.0
 11
223.6232789946614
 21
157.8138695602387
 31
0.0
  0
LINE
  5
355
330
E3
100
AcDbEntity
  8
Des_ Walls
  6
Continuous
100
AcDbLine
 10
223.6232789946614
 20
157.8138695602387
 30
0.0
 11
223.4843900462197
 21
157.8236875353443
 31
0.0
  0
LINE
  5
356
330
E3
100
AcDbEntity
  8
Des_ Walls
  6
Continuous
100
AcDbLine
 10
223.4843900462197
 20
157.8236875353443
 30
0.0
 11
223.3455010977781
 21
157.8373311940596
 31
0.0
  0
LINE
  5
357
330
E3
100
AcDbEntity
  8
Des_ Walls
  6
Continuous
100
AcDbLine
 10
223.3455010977781
 20
157.8373311940596
 30
0.0
 11
223.2066121493364
 21
157.8546896470047
 31
0.0
  0
LINE
  5
358
330
E3
100
AcDbEntity
  8
Des_ Walls
  6
Continuous
100
AcDbLine
 10
223.2066121493364
 20
157.8546896470047
 30
0.0
 11
223.0677232008948
 21
157.8756392098712
 31
0.0
  0
LINE
  5
359
330
E3
100
AcDbEntity
  8
Des_ Walls
  6
Continuous
100
AcDbLine
 10
223.0677232008948
 20
157.8756392098712
 30
0.0
 11
222.9288342524531
 21
157.9000092836128
 31
0.0
  0
LINE
  5
35A
330
E3
100
AcDbEntity
  8
Des_ Walls
  6
Continuous
100
AcDbLine
 10
222.9288342524531
 20
157.9000092836128
 30
0.0
 11
222.7899453040115
 21
157.9276292691834
 31
0.0
  0
LINE
  5
35B
330
E3
100
AcDbEntity
  8
Des_ Walls
  6
Continuous
100
AcDbLine
 10
222.7899453040115
 20
157.9276292691834
 30
0.0
 11
222.6510563555698
 21
157.958273122847
 31
0.0
  0
LINE
  5
35C
330
E3
100
AcDbEntity
  8
Des_ Walls
  6
Continuous
100
AcDbLine
 10
198.8562468625289
 20
168.7834138171291
 30
0.0
 11
202.1488937526235
 21
172.0760607072237
 31
0.0
  0
LINE
  5
35D
330
E3
100
AcDbEntity
  8
Des_ Walls
  6
Continuous
100
AcDbLine
 10
228.8562469309987
 20
168.7834138171291
 30
0.0
 11
225.5636000409041
 21
172.0760607072237
 31
0.0
  0
ARC
  5
35E
330
E3
100
AcDbEntity
  8
Des_ Furniture
  6
Hidden Line
 62
   251
370
    18
100
AcDbCircle
 10
197.0377778613866
 20
108.9528236032822
 30
0.0
 40
0.6000000000001117
100
AcDbArc
 50
273.0000017665966
 51
0.0
  0
LWPOLYLINE
  5
35F
330
E3
100
AcDbEntity
  8
Des_ Furniture
  6
Continuous
 62
   251
370
    18
100
AcDbPolyline
 90
        4
 70
   128
 43
0.0
 10
162.8921342463027
 20
64.13169917331041
 10
160.871613700851
 20
102.6855278814371
 10
158.7939766915258
 20
102.5766435396223
 10
160.8144972403343
 20
64.02281476743588
  0
LWPOLYLINE
  5
360
330
E3
100
AcDbEntity
  8
Des_ Furniture
  6
Continuous
 62
   251
370
    18
100
AcDbPolyline
 90
        2
 70
   128
 43
0.0
 10
193.4541485135679
 20
116.9725140856072
 42
-0.3373341105099786
 10
188.7760692908707
 20
108.7273461976009
  0
LWPOLYLINE
  5
361
330
E3
100
AcDbEntity
  8
Des_ Furniture
  6
Continuous
 62
   251
370
    18
100
AcDbPolyline
 90
        2
 70
   128
 43
0.0
 10
193.87226261195
 20
108.9944265299175
 10
193.4541485135679
 20
116.9725140856072
  0
LWPOLYLINE
  5
362
330
E3
100
AcDbEntity
  8
Des_ Furniture
  6
Continuous
100
AcDbPolyline
 90
        6
 70
   128
 43
0.0
 10
150.4493995779249
 20
108.4541147754725
 10
152.902667727602
 20
115.3139554957031
 42
-0.2604542593494868
 10
153.4552557534965
 20
115.6774815059235
 10
195.9974465841498
 20
118.1957200541378
 42
0.5419685754561748
 10
196.4701131444966
 20
119.0243998150693
 10
196.4701131444966
 20
145.1957200541377
  0
LWPOLYLINE
  5
363
330
E3
100
AcDbEntity
  8
Des_ Furniture
  6
Continuous
100
AcDbPolyline
 90
        3
 70
   128
 43
0.0
 10
196.4701131444966
 20
145.1957200541377
 42
0.9216465519400844
 10
195.9549145763664
 20
145.1924272411619
 10
195.9549145763664
 20
143.1924272411619
  0
LWPOLYLINE
  5
364
330
E3
100
AcDbEntity
  8
Des_ Furniture
  6
Continuous
 62
   251
370
    18
100
AcDbPolyline
 90
        2
 70
   128
 43
0.0
 10
196.8562470036939
 20
67.91168254049728
 10
198.8562470036939
 20
67.91168254049728
  0
LWPOLYLINE
  5
365
330
E3
100
AcDbEntity
  8
Doc_ Floor
  6
Continuous
100
AcDbPolyline
 90
        3
 70
   128
 43
0.0
 10
124.1096363740059
 20
117.430560646488
 10
144.109636374006
 20
117.4305606464878
 10
124.1370456789144
 20
116.3838415216294
  0
LWPOLYLINE
  5
366
330
E3
100
AcDbEntity
  8
Doc_ Floor
  6
Continuous
100
AcDbPolyline
 90
        2
 70
   128
 43
0.0
 10
125.9852811682147
 20
118.7613046171248
 42
0.1172793849241032
 10
126.2253872230768
 20
115.2096558536932
  0
LWPOLYLINE
  5
367
330
E3
100
AcDbEntity
  8
Des_ Furniture
  6
Continuous
 62
   251
370
    18
100
AcDbPolyline
 90
        4
 70
   129
 43
0.0
 10
189.8562470036939
 20
106.2382979542653
 10
198.8562470036939
 20
106.2382979542653
 10
198.8562470036939
 20
92.23829795426519
 10
189.8562470036939
 20
92.23829795426519
  0
LWPOLYLINE
  5
368
330
E3
100
AcDbEntity
  8
Des_ Furniture
  6
Continuous
 62
   251
370
    18
100
AcDbPolyline
 90
        2
 70
   128
 43
0.0
 10
198.8562470036939
 20
106.2382979542653
 10
189.8562470036939
 20
92.23829795426519
  0
LWPOLYLINE
  5
369
330
E3
100
AcDbEntity
  8
Des_ Furniture
  6
Continuous
 62
   251
370
    18
100
AcDbPolyline
 90
        2
 70
   128
 43
0.0
 10
189.8562470036939
 20
106.2382979542653
 10
198.8562470036939
 20
92.23829795426519
  0
LWPOLYLINE
  5
36A
330
E3
100
AcDbEntity
  8
Des_ Furniture
  6
Hidden Line
 62
   251
370
    18
100
AcDbPolyline
 90
        6
 70
   128
 43
0.0
 10
195.550498819413
 20
129.4605897883686
 10
195.550498819413
 20
146.9986721962206
 10
196.8822908890627
 20
148.3304642658704
 10
196.8822908890628
 20
181.7371004739451
 10
229.7567159260904
 20
184.6132399846183
 10
229.7680533620668
 20
154.415178472885
  0
LWPOLYLINE
  5
36B
330
E3
100
AcDbEntity
  8
Des_ Furniture
  6
Continuous
 62
   251
370
    18
100
AcDbPolyline
 90
        2
 70
   128
 43
0.0
 10
196.4701131444966
 20
125.1957200541378
 10
182.6917404506384
 20
125.1957200541378
  0
LWPOLYLINE
  5
36C
330
E3
100
AcDbEntity
  8
Des_ Furniture
  6
Continuous
100
AcDbPolyline
 90
        7
 70
   128
 43
0.0
 10
193.1737258633785
 20
125.1957200541378
 10
194.5298353614618
 20
126.5518295522211
 10
194.5298353614619
 20
182.6504040494272
 10
230.7913223720014
 20
185.8228730854418
 10
230.8026598079779
 20
154.0760592385257
 10
232.5989949161601
 20
152.4844624996777
 10
230.3762404044698
 20
150.2617079879875
  0
LWPOLYLINE
  5
36D
330
E3
100
AcDbEntity
  8
Des_ Walls
  6
Continuous
100
AcDbPolyline
 90
        2
 70
   128
 43
0.0
 10
202.148894526249
 20
172.076059238526
 10
225.563599481139
 20
172.0760592385258
  0
LWPOLYLINE
  5
36F
330
E3
100
AcDbEntity
  8
Des_ Walls
  6
Dashed
100
AcDbPolyline
 90
        2
 70
   128
 43
0.0
 10
198.8562470036941
 20
173.0415454447323
 10
228.8562470036942
 20
173.0415454447322
  0
LWPOLYLINE
  5
370
330
E3
100
AcDbEntity
  8
Des_ Walls
  6
Continuous
100
AcDbPolyline
 90
        2
 70
   128
 43
0.0
 10
198.8562470036941
 20
174.0500654674465
 10
228.8562470036942
 20
174.0500654674463
  0
LWPOLYLINE
  5
371
330
E3
100
AcDbEntity
  8
Des_ Walls
  6
Continuous
100
AcDbPolyline
 90
        2
 70
   128
 43
0.0
 10
228.8562470036942
 20
174.0500654674463
 10
228.8562470036942
 20
183.302342364754
  0
LWPOLYLINE
  5
372
330
E3
100
AcDbEntity
  8
Des_ Walls
  6
Continuous
100
AcDbPolyline
 90
        2
 70
   128
 43
0.0
 10
198.8562470036941
 20
174.0500654674465
 10
198.8562470036941
 20
180.677682458976
  0
LWPOLYLINE
  5
373
330
E3
100
AcDbEntity
  8
Des_ Walls
  6
Continuous
100
AcDbPolyline
 90
        2
 70
   128
 43
0.0
 10
198.8562470036941
 20
180.677682458976
 10
228.8562470036942
 20
183.302342364754
  0
LWPOLYLINE
  5
374
330
E3
100
AcDbEntity
  8
Des_ Walls
  6
Continuous
100
AcDbPolyline
 90
        2
 70
   128
 43
0.0
 10
228.8562470036942
 20
183.302342364754
 10
198.8562470036941
 20
174.0500654674465
  0
LWPOLYLINE
  5
375
330
E3
100
AcDbEntity
  8
Doc_ Floor
  6
Continuous
100
AcDbPolyline
 90
        3
 70
   128
 43
0.0
 10
203.7784276005208
 20
189.3052460092521
 10
223.778427600521
 20
189.3052460092519
 10
203.8058369054294
 20
187.5717844161544
  0
LWPOLYLINE
  5
376
330
E3
100
AcDbEntity
  8
Doc_ Floor
  6
Continuous
100
AcDbPolyline
 90
        2
 70
   128
 43
0.0
 10
205.6540723947297
 20
190.6359899798888
 42
0.1172793849241032
 10
205.8941784495918
 20
187.0843412164573
  0
LINE
  5
377
330
E3
100
AcDbEntity
  8
Doc_ Floor
  6
Continuous
100
AcDbLine
 10
152.2542470794531
 20
122.5495838355359
 30
0.0
 11
153.2317369640944
 21
122.5812299585955
 31
0.0
  0
LINE
  5
378
330
E3
100
AcDbEntity
  8
Doc_ Floor
  6
Continuous
100
AcDbLine
 10
153.2317369640944
 20
122.5812299585955
 30
0.0
 11
193.2306281615875
 21
123.8762643777762
 31
0.0
  0
LINE
  5
379
330
E3
100
AcDbEntity
  8
Doc_ Floor
  6
Continuous
100
AcDbLine
 10
153.7764213336455
 20
123.5993906558374
 30
0.0
 11
152.6870483295671
 21
121.5630735263297
 31
0.0
  0
LINE
  5
37A
330
E3
100
AcDbEntity
  8
Doc_ Floor
  6
Continuous
100
AcDbLine
 10
192.6859395270603
 20
122.8581036805343
 30
0.0
 11
193.7753167961148
 21
124.8944250750181
 31
0.0
  0
LINE
  5
37B
330
E3
100
AcDbEntity
  8
Doc_ Floor
  6
Continuous
100
AcDbLine
 10
193.2306281615875
 20
123.8762643777762
 30
0.0
 11
194.2081137812526
 21
123.9079105008358
 31
0.0
  0
LINE
  5
37C
330
E3
100
AcDbEntity
  8
Doc_ Floor
  6
Continuous
100
AcDbLine
 10
153.296453712249
 20
120.5822782851694
 30
0.0
 11
153.1831972704904
 21
124.0804458461532
 31
0.0
  0
LINE
  5
37D
330
E3
100
AcDbEntity
  8
Doc_ Floor
  6
Continuous
100
AcDbLine
 10
193.2953491747182
 20
121.8773127043501
 30
0.0
 11
193.1820884679835
 21
125.3754802653338
 31
0.0
  0
MTEXT
  5
37F
330
E3
100
AcDbEntity
  8
Doc_ Floor
  6
Continuous
100
AcDbMText
 10
172.0841652959132
 20
123.6918735107573
 30
0.0
 40
2.5
 41
0.0
 71
     7
 72
     1
  1
{X}
  7
GENERATED_STYLE_3
 11
0.9994762860037411
 21
0.03235975457521281
 31
0.0
 73
     1
 44
1.0
  0
LINE
  5
380
330
E3
100
AcDbEntity
  8
Doc_ Floor
  6
Continuous
100
AcDbLine
 10
188.0306796706314
 20
117.2177196321492
 30
0.0
 11
188.0306796706314
 21
118.1957213139289
 31
0.0
  0
LINE
  5
381
330
E3
100
AcDbEntity
  8
Doc_ Floor
  6
Continuous
100
AcDbLine
 10
188.0306796706314
 20
118.1957213139289
 30
0.0
 11
188.0306796706314
 21
125.1957200504123
 31
0.0
  0
LINE
  5
382
330
E3
100
AcDbEntity
  8
Doc_ Floor
  6
Continuous
100
AcDbLine
 10
187.0306792418514
 20
118.7730711358404
 30
0.0
 11
189.0306758344351
 21
117.6183714920174
 31
0.0
  0
LINE
  5
383
330
E3
100
AcDbEntity
  8
Doc_ Floor
  6
Continuous
100
AcDbLine
 10
189.0306758344351
 20
124.6183702285009
 30
0.0
 11
187.0306792418514
 21
125.7730698723238
 31
0.0
  0
LINE
  5
384
330
E3
100
AcDbEntity
  8
Doc_ Floor
  6
Continuous
100
AcDbLine
 10
188.0306796706314
 20
125.1957200504123
 30
0.0
 11
188.0306796706314
 21
126.173721732192
 31
0.0
  0
LINE
  5
385
330
E3
100
AcDbEntity
  8
Doc_ Floor
  6
Continuous
100
AcDbLine
 10
190.0306762632151
 20
118.1957213139289
 30
0.0
 11
186.5306790274614
 21
118.1957213139289
 31
0.0
  0
LINE
  5
386
330
E3
100
AcDbEntity
  8
Doc_ Floor
  6
Continuous
100
AcDbLine
 10
190.0306762632151
 20
125.1957200504123
 30
0.0
 11
186.5306790274614
 21
125.1957200504123
 31
0.0
  0
MTEXT
  5
387
330
E3
100
AcDbEntity
  8
Doc_ Floor
  6
Continuous
100
AcDbMText
 10
187.53067780182
 20
119.7985699623109
 30
0.0
 40
2.5
 41
0.0
 71
     7
 72
     1
  1
{35}
  7
GENERATED_STYLE_3
 11
6.123233995736766E-17
 21
1.0
 31
0.0
 73
     1
 44
1.0
  0
LINE
  5
388
330
E3
100
AcDbEntity
  8
Doc_ Floor
  6
Continuous
100
AcDbLine
 10
188.0306796706314
 20
124.2177183686326
 30
0.0
 11
188.0306796706314
 21
125.1957200504123
 31
0.0
  0
LINE
  5
389
330
E3
100
AcDbEntity
  8
Doc_ Floor
  6
Continuous
100
AcDbLine
 10
188.0306796706314
 20
125.1957200504123
 30
0.0
 11
188.0306796706314
 21
145.1957200960589
 31
0.0
  0
LINE
  5
38A
330
E3
100
AcDbEntity
  8
Doc_ Floor
  6
Continuous
100
AcDbLine
 10
187.0306792418514
 20
125.7730698723238
 30
0.0
 11
189.0306758344351
 21
124.6183702285009
 31
0.0
  0
LINE
  5
38B
330
E3
100
AcDbEntity
  8
Doc_ Floor
  6
Continuous
100
AcDbLine
 10
189.0306758344351
 20
144.6183702741474
 30
0.0
 11
187.0306792418514
 21
145.7730699179703
 31
0.0
  0
LINE
  5
38C
330
E3
100
AcDbEntity
  8
Doc_ Floor
  6
Continuous
100
AcDbLine
 10
188.0306796706314
 20
145.1957200960589
 30
0.0
 11
188.0306796706314
 21
146.1737217778386
 31
0.0
  0
LINE
  5
38D
330
E3
100
AcDbEntity
  8
Doc_ Floor
  6
Continuous
100
AcDbLine
 10
190.0306762632151
 20
125.1957200504123
 30
0.0
 11
186.5306790274614
 21
125.1957200504123
 31
0.0
  0
LINE
  5
38E
330
E3
100
AcDbEntity
  8
Doc_ Floor
  6
Continuous
100
AcDbLine
 10
190.0306762632151
 20
145.1957200960589
 30
0.0
 11
186.5306790274614
 21
145.1957200960589
 31
0.0
  0
MTEXT
  5
38F
330
E3
100
AcDbEntity
  8
Doc_ Floor
  6
Continuous
100
AcDbMText
 10
187.53067780182
 20
132.3499950095297
 30
0.0
 40
2.5
 41
0.0
 71
     7
 72
     1
  1
{100}
  7
GENERATED_STYLE_3
 11
6.123233995736766E-17
 21
1.0
 31
0.0
 73
     1
 44
1.0
  0
LINE
  5
390
330
E3
100
AcDbEntity
  8
Doc_ Floor
  6
Continuous
100
AcDbLine
 10
192.8942622872823
 20
85.5425307600246
 30
0.0
 11
193.8722639690621
 21
85.5425307600246
 31
0.0
  0
LINE
  5
391
330
E3
100
AcDbEntity
  8
Doc_ Floor
  6
Continuous
100
AcDbLine
 10
193.8722639690621
 20
85.5425307600246
 30
0.0
 11
198.8562468625289
 21
85.5425307600246
 31
0.0
  0
LINE
  5
392
330
E3
100
AcDbEntity
  8
Doc_ Floor
  6
Continuous
100
AcDbLine
 10
194.4496137909735
 20
86.54253118880453
 30
0.0
 11
193.2949141471506
 21
84.54253033124465
 31
0.0
  0
LINE
  5
393
330
E3
100
AcDbEntity
  8
Doc_ Floor
  6
Continuous
100
AcDbLine
 10
198.2788970406174
 20
84.54253033124465
 30
0.0
 11
199.4335966844404
 21
86.54253118880453
 31
0.0
  0
LINE
  5
394
330
E3
100
AcDbEntity
  8
Doc_ Floor
  6
Continuous
100
AcDbLine
 10
198.8562468625289
 20
85.5425307600246
 30
0.0
 11
199.8342485443086
 21
85.5425307600246
 31
0.0
  0
LINE
  5
395
330
E3
100
AcDbEntity
  8
Doc_ Floor
  6
Continuous
100
AcDbLine
 10
193.8722639690621
 20
84.04253011685468
 30
0.0
 11
193.8722639690621
 21
105.5425308056711
 31
0.0
  0
LINE
  5
396
330
E3
100
AcDbEntity
  8
Doc_ Floor
  6
Continuous
100
AcDbLine
 10
198.8562468625289
 20
84.04253011685468
 30
0.0
 11
198.8562468625289
 21
105.5425308056711
 31
0.0
  0
MTEXT
  5
397
330
E3
100
AcDbEntity
  8
Doc_ Floor
  6
Continuous
100
AcDbMText
 10
194.467104715995
 20
86.04253025731212
 30
0.0
 40
2.5
 41
0.0
 71
     7
 72
     1
  1
{20}
  7
GENERATED_STYLE_3
 73
     1
 44
1.0
  0
LINE
  5
398
330
E3
100
AcDbEntity
  8
Doc_ Floor
  6
Continuous
100
AcDbLine
 10
241.1496483159158
 20
153.0980598373574
 30
0.0
 11
241.1496483159158
 21
154.0760572541609
 31
0.0
  0
LINE
  5
399
330
E3
100
AcDbEntity
  8
Doc_ Floor
  6
Continuous
100
AcDbLine
 10
241.1496483159158
 20
154.0760572541609
 30
0.0
 11
241.1496483159158
 21
172.0760607072237
 31
0.0
  0
LINE
  5
39A
330
E3
100
AcDbEntity
  8
Doc_ Floor
  6
Continuous
100
AcDbLine
 10
240.1496478871358
 20
154.6534113410486
 30
0.0
 11
242.1496487446957
 21
153.4987074322494
 31
0.0
  0
LINE
  5
39B
330
E3
100
AcDbEntity
  8
Doc_ Floor
  6
Continuous
100
AcDbLine
 10
242.1496487446957
 20
171.4987108853122
 30
0.0
 11
240.1496478871358
 21
172.6534105291352
 31
0.0
  0
LINE
  5
39C
330
E3
100
AcDbEntity
  8
Doc_ Floor
  6
Continuous
100
AcDbLine
 10
241.1496483159158
 20
172.0760607072237
 30
0.0
 11
241.1496483159158
 21
173.0540581240273
 31
0.0
  0
LINE
  5
39D
330
E3
100
AcDbEntity
  8
Doc_ Floor
  6
Continuous
100
AcDbLine
 10
242.6496489590857
 20
154.0760572541609
 30
0.0
 11
237.1496508657721
 21
154.0760572541609
 31
0.0
  0
LINE
  5
39E
330
E3
100
AcDbEntity
  8
Doc_ Floor
  6
Continuous
100
AcDbLine
 10
242.6496489590857
 20
172.0760607072237
 30
0.0
 11
237.1496508657721
 21
172.0760607072237
 31
0.0
  0
MTEXT
  5
39F
330
E3
100
AcDbEntity
  8
Doc_ Floor
  6
Continuous
100
AcDbMText
 10
240.6496500081238
 20
161.1789091466989
 30
0.0
 40
2.5
 41
0.0
 71
     7
 72
     1
  1
{90}
  7
GENERATED_STYLE_3
 11
6.123233995736766E-17
 21
1.0
 31
0.0
 73
     1
 44
1.0
  0
MTEXT
  5
3A0
330
E3
100
AcDbEntity
  8
Doc_ Floor
  6
Continuous
100
AcDbMText
 10
241.1424255391827
 20
99.96053782394435
 30
0.0
 40
2.500000000000001
 41
0.0
 71
     4
 72
     1
  1
{STOPEND SHEET}
  7
GENERATED_STYLE_1
 73
     1
 44
1.0
  0
LINE
  5
3A1
330
E3
100
AcDbEntity
  8
Doc_ Floor
  6
Continuous
100
AcDbLine
 10
192.5231880370392
 20
112.0917045028155
 30
0.0
 11
196.1689237729372
 21
110.8123353410469
 31
0.0
  0
LINE
  5
3A2
330
E3
100
AcDbEntity
  8
Doc_ Floor
  6
Continuous
100
AcDbLine
 10
192.5231880370392
 20
112.0917045028155
 30
0.0
 11
195.0408034605034
 21
109.1608683347584
 31
0.0
  0
LINE
  5
3A3
330
E3
100
AcDbEntity
  8
Doc_ Floor
  6
Continuous
100
AcDbLine
 10
196.1689237729372
 20
110.8123353410469
 30
0.0
 11
195.0408034605034
 21
109.1608683347584
 31
0.0
  0
LWPOLYLINE
  5
3A4
330
E3
100
AcDbEntity
  8
Doc_ Floor
  6
Continuous
100
AcDbPolyline
 90
       14
 70
   128
 43
0.0
 10
195.6048649528565
 20
109.9866013759796
 10
197.7758271805481
 20
108.6459427880042
 10
199.9654392014381
 20
107.4166782322656
 10
202.1872084972399
 20
106.2953719617753
 10
204.4546425496666
 20
105.2785882295449
 10
206.7812488404316
 20
104.3628912885861
 10
209.1805348512483
 20
103.5448453919105
 10
211.6660080638299
 20
102.8210147925298
 10
214.2511759598897
 20
102.1879637434556
 10
216.9495460211411
 20
101.6422564976994
 10
219.7746257292974
 20
101.180457308273
 10
225.8589440131778
 20
100.494840110456
 10
232.6121906652374
 20
100.1036261740975
 10
240.1424255391827
 20
99.97932952329069
  0
MTEXT
  5
3A5
330
E3
100
AcDbEntity
  8
Doc_ Floor
  6
Continuous
100
AcDbMText
 10
241.1424255391828
 20
143.2590362420034
 30
0.0
 40
2.500000000000001
 41
0.0
 71
     4
 72
     1
  1
{HEM TO FLASHING EDGE}
  7
GENERATED_STYLE_1
 73
     1
 44
1.0
  0
LINE
  5
3A6
330
E3
100
AcDbEntity
  8
Doc_ Floor
  6
Continuous
100
AcDbLine
 10
196.4701121239276
 20
143.2778541492648
 30
0.0
 11
200.2021624472219
 21
144.2778545780448
 31
0.0
  0
LINE
  5
3A7
330
E3
100
AcDbEntity
  8
Doc_ Floor
  6
Continuous
100
AcDbLine
 10
196.4701121239276
 20
143.2778541492648
 30
0.0
 11
200.2021624472219
 21
142.2778537204849
 31
0.0
  0
LINE
  5
3A8
330
E3
100
AcDbEntity
  8
Doc_ Floor
  6
Continuous
100
AcDbLine
 10
200.2021624472219
 20
144.2778545780448
 30
0.0
 11
200.2021624472219
 21
142.2778537204849
 31
0.0
  0
LWPOLYLINE
  5
3A9
330
E3
100
AcDbEntity
  8
Doc_ Floor
  6
Continuous
100
AcDbPolyline
 90
        2
 70
   128
 43
0.0
 10
200.2021630578574
 20
143.2778534091804
 10
240.1424255391828
 20
143.2778534091804
  0
MTEXT
  5
3AA
330
E3
100
AcDbEntity
  8
Doc_ Floor
  6
Continuous
100
AcDbMText
 10
240.2979274985134
 20
120.334390017242
 30
0.0
 40
2.500000000000001
 41
0.0
 71
     4
 72
     1
  1
{CONCRETE WALL}
  7
GENERATED_STYLE_1
 73
     1
 44
1.0
  0
LINE
  5
3AB
330
E3
100
AcDbEntity
  8
Doc_ Floor
  6
Continuous
100
AcDbLine
 10
218.2272567549963
 20
120.3532064159601
 30
0.0
 11
221.9593028133145
 21
121.35320684474
 31
0.0
  0
LINE
  5
3AC
330
E3
100
AcDbEntity
  8
Doc_ Floor
  6
Continuous
100
AcDbLine
 10
218.2272567549963
 20
120.3532064159601
 30
0.0
 11
221.9593028133145
 21
119.3532059871801
 31
0.0
  0
LINE
  5
3AD
330
E3
100
AcDbEntity
  8
Doc_ Floor
  6
Continuous
100
AcDbLine
 10
221.9593028133145
 20
121.35320684474
 30
0.0
 11
221.9593028133145
 21
119.3532059871801
 31
0.0
  0
LWPOLYLINE
  5
3AE
330
E3
100
AcDbEntity
  8
Doc_ Floor
  6
Continuous
100
AcDbPolyline
 90
        2
 70
   128
 43
0.0
 10
221.959304918894
 20
120.353207184419
 10
239.2979274985134
 20
120.353207184419
  0
MTEXT
  5
3AF
330
E3
100
AcDbEntity
  8
Doc_ Floor
  6
Continuous
100
AcDbMText
 10
92.8172934513441
 20
157.0571945335105
 30
0.0
 40
2.500000000000001
 41
61.87837262817281
 71
     6
 72
     1
  1
{PROFILED FOAM CLOSURE\P(only required in high risk situations of wind blown moisture entering)}
  7
GENERATED_STYLE_1
 73
     1
 44
1.05445724262312
  0
LINE
  5
3B0
330
E3
100
AcDbEntity
  8
Doc_ Floor
  6
Continuous
100
AcDbLine
 10
175.3972914466547
 20
116.9763177168798
 30
0.0
 11
171.9791646931454
 21
118.7775920105632
 31
0.0
  0
LINE
  5
3B1
330
E3
100
AcDbEntity
  8
Doc_ Floor
  6
Continuous
100
AcDbLine
 10
175.3972914466547
 20
116.9763177168798
 30
0.0
 11
173.3377472570146
 21
120.2453323741073
 31
0.0
  0
LINE
  5
3B2
330
E3
100
AcDbEntity
  8
Doc_ Floor
  6
Continuous
100
AcDbLine
 10
171.9791646931454
 20
118.7775920105632
 30
0.0
 11
173.3377472570146
 21
120.2453323741073
 31
0.0
  0
LWPOLYLINE
  5
3B3
330
E3
100
AcDbEntity
  8
Doc_ Floor
  6
Continuous
100
AcDbPolyline
 90
       17
 70
   128
 43
0.0
 10
172.6584550967754
 20
119.5114622157308
 10
166.9856503970021
 20
124.6102067765761
 10
161.5400844122996
 20
129.2815700507867
 10
156.2943554779223
 20
133.5391336293002
 10
151.2210619291245
 20
137.3964791030542
 10
146.2928021011606
 20
140.8671880629864
 10
141.4821743292849
 20
143.9648421000342
 10
136.7617769487518
 20
146.7030228051355
 10
132.1042082948158
 20
149.0953117692278
 10
127.4820667027312
 20
151.1552905832487
 10
122.8679505077523
 20
152.8965408381358
 10
118.2344580451335
 20
154.3326441248269
 10
113.5541876501292
 20
155.4771820342594
 10
108.7997376579937
 20
156.343736157371
 10
103.9437064039814
 20
156.9458880850995
 10
98.95869222334674
 20
157.2972194083822
 10
93.81729345134406
 20
157.411311718157
  0
MTEXT
  5
3B4
330
E3
100
AcDbEntity
  8
Doc_ Floor
  6
Continuous
100
AcDbMText
 10
93.76733323430553
 20
88.0428899018125
 30
0.0
 40
2.5
 41
0.0
 71
     6
 72
     1
  1
{STEEL PURLIN}
  7
GENERATED_STYLE_1
 73
     1
 44
1.0
  0
LINE
  5
3B5
330
E3
100
AcDbEntity
  8
Doc_ Floor
  6
Continuous
100
AcDbLine
 10
160.0151602114986
 20
79.27510565256254
 30
0.0
 11
156.1641895581137
 21
78.96165976010674
 31
0.0
  0
LINE
  5
3B6
330
E3
100
AcDbEntity
  8
Doc_ Floor
  6
Continuous
100
AcDbLine
 10
160.0151602114986
 20
79.27510565256254
 30
0.0
 11
156.5233986446975
 21
80.92914017449552
 31
0.0
  0
LINE
  5
3B7
330
E3
100
AcDbEntity
  8
Doc_ Floor
  6
Continuous
100
AcDbLine
 10
156.1641895581137
 20
78.96165976010674
 30
0.0
 11
156.5233986446975
 21
80.92914017449552
 31
0.0
  0
LWPOLYLINE
  5
3B8
330
E3
100
AcDbEntity
  8
Doc_ Floor
  6
Continuous
100
AcDbPolyline
 90
        8
 70
   128
 43
0.0
 10
156.3437958949565
 20
79.9454001757695
 10
134.3978235439887
 20
83.77413175742969
 10
125.4926447968389
 20
85.18069897619674
 10
117.736754598241
 20
86.27960573757468
 10
110.9582156454419
 20
87.09400598455322
 10
104.9850906356884
 20
87.64705366012208
 10
99.64544226622729
 20
87.96190270727095
 10
94.76733323430553
 20
88.06170706898952
  0
MTEXT
  5
3B9
330
E3
100
AcDbEntity
  8
Doc_ Floor
  6
Continuous
100
AcDbMText
 10
92.25441969139922
 20
198.6714656311439
 30
0.0
 40
2.500000000000001
 41
61.87837262817283
 71
     6
 72
     1
  1
{EX 50mm H3.2 TIMBER CAPPING SUPPORT ON DPC}
  7
GENERATED_STYLE_1
 73
     1
 44
1.070162922071087
  0
LINE
  5
3BA
330
E3
100
AcDbEntity
  8
Doc_ Floor
  6
Continuous
100
AcDbLine
 10
203.5378173568492
 20
180.0907143305508
 30
0.0
 11
199.6743076735728
 21
180.0519499622908
 31
0.0
  0
LINE
  5
3BB
330
E3
100
AcDbEntity
  8
Doc_ Floor
  6
Continuous
100
AcDbLine
 10
203.5378173568492
 20
180.0907143305508
 30
0.0
 11
200.1725379228591
 21
181.9889016773722
 31
0.0
  0
LINE
  5
3BC
330
E3
100
AcDbEntity
  8
Doc_ Floor
  6
Continuous
100
AcDbLine
 10
199.6743076735728
 20
180.0519499622908
 30
0.0
 11
200.1725379228591
 21
181.9889016773722
 31
0.0
  0
LWPOLYLINE
  5
3BD
330
E3
100
AcDbEntity
  8
Doc_ Floor
  6
Continuous
100
AcDbPolyline
 90
       14
 70
   128
 43
0.0
 10
199.9234242811851
 20
181.020425897351
 10
181.6641270796791
 20
185.5773727833843
 10
165.4156131714212
 20
189.3616281700865
 10
150.8761582851849
 20
192.4240786064557
 10
144.1530391405665
 20
193.7005290148272
 10
137.7440381497436
 20
194.8156106414897
 10
131.6114397788128
 20
195.7756843050678
 10
125.7175284938709
 20
196.5871108241864
 10
120.0245887610145
 20
197.2562510174702
 10
114.4949050463403
 20
197.7894657035438
 10
109.0907618159449
 20
198.1931157010321
 10
103.7744435359252
 20
198.4735618285598
 10
98.50823467237774
 20
198.6371649047516
 10
93.25441969139922
 20
198.6902857482322
  0
MTEXT
  5
3BE
330
E3
100
AcDbEntity
  8
Doc_ Floor
  6
Continuous
100
AcDbMText
 10
92.25441969139919
 20
183.8367165378259
 30
0.0
 40
2.500000000000001
 41
61.87837262817282
 71
     6
 72
     1
  1
{SEPERATION BARRIER BETWEEN CONCRETE & FLASHING (SELF ADHESIVE TAPE OR SIM)}
  7
GENERATED_STYLE_1
 73
     1
 44
1.05445724262312
  0
LINE
  5
3BF
330
E3
100
AcDbEntity
  8
Doc_ Floor
  6
Continuous
100
AcDbLine
 10
196.882292214339
 20
173.5471149572392
 30
0.0
 11
193.0383417117029
 21
173.1568994940188
 31
0.0
  0
LINE
  5
3C0
330
E3
100
AcDbEntity
  8
Doc_ Floor
  6
Continuous
100
AcDbLine
 10
196.882292214339
 20
173.5471149572392
 30
0.0
 11
193.3582277181506
 21
175.1311526905395
 31
0.0
  0
LINE
  5
3C1
330
E3
100
AcDbEntity
  8
Doc_ Floor
  6
Continuous
100
AcDbLine
 10
193.0383417117029
 20
173.1568994940188
 30
0.0
 11
193.3582277181506
 21
175.1311526905395
 31
0.0
  0
LWPOLYLINE
  5
3C2
330
E3
100
AcDbEntity
  8
Doc_ Floor
  6
Continuous
100
AcDbPolyline
 90
        9
 70
   128
 43
0.0
 10
193.1982856913129
 20
174.1440270539761
 10
176.6573745864201
 20
176.7345254462594
 10
161.8351896596203
 20
178.8859543941682
 10
148.4506432297102
 20
180.6271846829296
 10
136.2226476154869
 20
181.9870870977706
 10
124.8701151357473
 20
182.9945324239183
 10
114.1119581092881
 20
183.6783914465998
 10
103.6670888549065
 20
184.0675349510421
 10
93.25441969139919
 20
184.1908337224725
  0
MTEXT
  5
3C3
330
E3
100
AcDbEntity
  8
Doc_ Floor
  6
Continuous
100
AcDbMText
 10
92.25441969139916
 20
171.9729583605458
 30
0.0
 40
2.500000000000001
 41
0.0
 71
     6
 72
     1
  1
{BMT 0.55 PARAPET FLASHING}
  7
GENERATED_STYLE_1
 73
     1
 44
1.0
  0
LINE
  5
3C4
330
E3
100
AcDbEntity
  8
Doc_ Floor
  6
Continuous
100
AcDbLine
 10
194.5298337274464
 20
162.5269582283341
 30
0.0
 11
190.6909926662424
 21
162.0893887348804
 31
0.0
  0
LINE
  5
3C5
330
E3
100
AcDbEntity
  8
Doc_ Floor
  6
Continuous
100
AcDbLine
 10
194.5298337274464
 20
162.5269582283341
 30
0.0
 11
190.9865128639246
 21
164.0674334952016
 31
0.0
  0
LINE
  5
3C6
330
E3
100
AcDbEntity
  8
Doc_ Floor
  6
Continuous
100
AcDbLine
 10
190.6909926662424
 20
162.0893887348804
 30
0.0
 11
190.9865128639246
 21
164.0674334952016
 31
0.0
  0
LWPOLYLINE
  5
3C7
330
E3
100
AcDbEntity
  8
Doc_ Floor
  6
Continuous
100
AcDbPolyline
 90
        9
 70
   128
 43
0.0
 10
190.8387517650503
 20
163.0784105668157
 10
174.9004373886713
 20
165.3764962641237
 10
160.5784892059278
 20
167.2851329717201
 10
147.5990488153123
 20
168.8299144591471
 10
135.6882578153176
 20
170.0364344959471
 10
124.5722578044363
 20
170.9302868516625
 10
113.9771903811611
 20
171.5370652958353
 10
103.6291971439845
 20
171.882363598008
 10
93.25441969139916
 20
171.9917755277228
  0
MTEXT
  5
3C8
330
E3
100
AcDbEntity
  8
Doc_ Floor
  6
Continuous
100
AcDbMText
 10
243.0874230469788
 20
181.4595097177398
 30
0.0
 40
2.500000000000001
 41
49.47073425428672
 71
     4
 72
     1
  1
{FIX CAPPING TO CONCRETE WITH MASONRY FASTENERS AT 600mm crs}
  7
GENERATED_STYLE_1
 73
     1
 44
1.065340909090909
  0
LINE
  5
3C9
330
E3
100
AcDbEntity
  8
Doc_ Floor
  6
Continuous
100
AcDbLine
 10
225.9663417390876
 20
158.3259695119764
 30
0.0
 11
226.5189717592129
 21
162.1499471312852
 31
0.0
  0
LINE
  5
3CA
330
E3
100
AcDbEntity
  8
Doc_ Floor
  6
Continuous
100
AcDbLine
 10
225.9663417390876
 20
158.3259695119764
 30
0.0
 11
228.3569248478171
 21
161.3613146557011
 31
0.0
  0
LINE
  5
3CB
330
E3
100
AcDbEntity
  8
Doc_ Floor
  6
Continuous
100
AcDbLine
 10
226.5189717592129
 20
162.1499471312852
 30
0.0
 11
228.3569248478171
 21
161.3613146557011
 31
0.0
  0
LWPOLYLINE
  5
3CC
330
E3
100
AcDbEntity
  8
Doc_ Floor
  6
Continuous
100
AcDbPolyline
 90
       12
 70
   128
 43
0.0
 10
227.437948051946
 20
161.7556313499132
 10
229.7293624937284
 20
166.8251821285697
 10
231.8130513983731
 20
171.041192193988
 10
233.7271303819628
 20
174.4584014600295
 10
235.5097150605801
 20
177.1315498405558
 10
237.1989210503078
 20
179.1153772494284
 10
238.0204181668638
 20
179.8659018125763
 10
238.8328639672283
 20
180.4646236005088
 10
239.6410229034118
 20
180.9183851024587
 10
240.4496594274245
 20
181.2340288076587
 10
241.2635379912767
 20
181.4183972053413
 10
242.0874230469788
 20
181.4783327847393
  0
MTEXT
  5
3CD
330
E3
100
AcDbEntity
  8
Doc_ Floor
  6
Continuous
100
AcDbMText
 10
185.2944518327316
 20
83.2262771202584
 30
0.0
 40
2.0
 41
0.0
 71
     1
 72
     1
  1
{MIN. GAP}
  7
GENERATED_STYLE_3
 73
     1
 44
1.0
  0
MTEXT
  5
3CE
330
E3
100
AcDbEntity
  8
Doc_ Floor
  6
Continuous
100
AcDbMText
 10
114.5738780118718
 20
122.8831678607818
 30
0.0
 40
2.5
 41
0.0
 71
     1
 72
     1
  1
{ROOF PITCH 3° MIN.}
  7
GENERATED_STYLE_1
 73
     1
 44
1.0
  0
MTEXT
  5
3CF
330
E3
100
AcDbEntity
  8
Doc_ Floor
  6
Continuous
100
AcDbMText
 10
207.0321857015607
 20
193.9455534266155
 30
0.0
 40
2.5
 41
0.0
 71
     1
 72
     1
  1
{5° MIN.}
  7
GENERATED_STYLE_3
 73
     1
 44
1.0
  0
LINE
  5
3D0
330
E3
100
AcDbEntity
  8
Des_ Walls
  6
Continuous
100
AcDbLine
 10
12.35333495090376
 20
65.07471401004308
 30
0.0
 11
112.7464209713082
 21
65.07471401004308
 31
0.0
  0
LINE
  5
3D1
330
E3
100
AcDbEntity
  8
Des_ Walls
  6
Continuous
100
AcDbLine
 10
112.7464209713082
 20
73.16107894241667
 30
0.0
 11
112.7464209713082
 21
32.79293463949803
 31
0.0
  0
LINE
  5
3D2
330
E3
100
AcDbEntity
  8
Des_ Walls
  6
Continuous
100
AcDbLine
 10
12.35333495090376
 20
32.79293463949803
 30
0.0
 11
12.35333495090376
 21
65.07471401004308
 31
0.0
  0
LINE
  5
3D3
330
E3
100
AcDbEntity
  8
Des_ Walls
  6
Continuous
100
AcDbLine
 10
88.7764062578778
 20
73.16107894241667
 30
0.0
 11
88.7764062578778
 21
32.79293463949803
 31
0.0
  0
LINE
  5
3D4
330
E3
100
AcDbEntity
  8
Des_ Walls
  6
Continuous
100
AcDbLine
 10
88.7764062578778
 20
73.16107894241667
 30
0.0
 11
112.7464209713082
 21
73.16107894241667
 31
0.0
  0
LINE
  5
3D5
330
E3
100
AcDbEntity
  8
Des_ Walls
  6
Continuous
100
AcDbLine
 10
12.35333495090376
 20
32.79293463949803
 30
0.0
 11
112.7464209713082
 21
32.79293463949803
 31
0.0
  0
LINE
  5
3D6
330
E3
100
AcDbEntity
  8
Des_ Walls
  6
Continuous
100
AcDbLine
 10
12.35333495090376
 20
43.5535249196956
 30
0.0
 11
112.7464209713082
 21
43.5535249196956
 31
0.0
  0
LINE
  5
3D7
330
E3
100
AcDbEntity
  8
Des_ Walls
  6
Continuous
100
AcDbLine
 10
12.35333495090376
 20
54.31411946486935
 30
0.0
 11
112.7464209713082
 21
54.31411946486935
 31
0.0
  0
MTEXT
  5
3D8
330
E3
100
AcDbEntity
  8
0
  6
Continuous
100
AcDbMText
 10
15.90926378079977
 20
56.23107047603261
 30
0.0
 40
2.499999999999999
 41
69.01187578516154
 71
     7
 72
     1
  1
\A1;{\fCentury Gothic|b0|i0|c0|p34;LOW, MEDIUM OR HIGH WIND ZONE.\P ROOF PITCH \fArial|b0|i0|c0|p34;\H1.029412x;\U+2265\fCentury Gothic|b0|i0|c0|p34;\H0.971429x; 10\fArial|b0|i0|c0|p34;\H1.029412x;\U+00B0}
  7
GENERATED_STYLE_1
 73
     1
 44
1.056355725756043
  0
MTEXT
  5
3D9
330
E3
100
AcDbEntity
  8
0
  6
Continuous
100
AcDbMText
 10
15.90926378079977
 20
45.80822586804324
 30
0.0
 40
2.5
 41
69.01187578516154
 71
     7
 72
     1
  1
\A1;{\fCentury Gothic|b0|i0|c0|p34;VERY HIGH WIND ZONE.\P ROOF PITCH \fArial|b0|i0|c0|p34;\H1.029412x;<\fCentury Gothic|b0|i0|c0|p34;\H0.971429x; 10\fArial|b0|i0|c0|p34;\H1.029412x;\U+00B0}
  7
GENERATED_STYLE_1
 73
     1
 44
1.056355725756043
  0
MTEXT
  5
3DA
330
E3
100
AcDbEntity
  8
0
  6
Continuous
100
AcDbMText
 10
100.4085978373878
 20
58.27092490833574
 30
0.0
 40
2.499999999999999
 41
0.0
 71
     8
 72
     1
  1
{130mm}
  7
GENERATED_STYLE_1
 73
     1
 44
1.0
  0
MTEXT
  5
3DB
330
E3
100
AcDbEntity
  8
0
  6
Continuous
100
AcDbMText
 10
100.4085978373878
 20
47.03212328797556
 30
0.0
 40
2.499999999999999
 41
0.0
 71
     8
 72
     1
  1
{200mm}
  7
GENERATED_STYLE_1
 73
     1
 44
1.0
  0
MTEXT
  5
3DC
330
E3
100
AcDbEntity
  8
0
  6
Continuous
100
AcDbMText
 10
100.4085978373878
 20
68.15296554230767
 30
0.0
 40
2.499999999999999
 41
0.0
 71
     8
 72
     1
  1
{X}
  7
GENERATED_STYLE_1
 73
     1
 44
1.0
  0
MTEXT
  5
3DD
330
E3
100
AcDbEntity
  8
0
  6
Continuous
100
AcDbMText
 10
15.90926378079977
 20
37.33665455878342
 30
0.0
 40
2.5
 41
0.0
 71
     7
 72
     1
  1
{EXTRA WIND ZONE.}
  7
GENERATED_STYLE_1
 73
     1
 44
1.0
  0
MTEXT
  5
3DE
330
E3
100
AcDbEntity
  8
0
  6
Continuous
100
AcDbMText
 10
100.4085978373878
 20
36.27152992250026
 30
0.0
 40
2.499999999999999
 41
0.0
 71
     8
 72
     1
  1
{200mm}
  7
GENERATED_STYLE_1
 73
     1
 44
1.0
  0
HATCH
  5
3DF
330
E3
100
AcDbEntity
  8
Des_ Walls
  6
Continuous
 62
   255
370
     0
100
AcDbHatch
 10
0.0
 20
0.0
 30
0.0
210
0.0
220
0.0
230
1.0
  2
SOLID
 70
     1
 71
     0
 91
        1
 92
        3
 72
     0
 73
     1
 93
        8
 10
190.6067636521851
 20
29.88597950925474
 10
190.6067636521851
 20
22.4812814505333
 10
237.1854766654623
 20
22.4812814505333
 10
237.1854766654623
 20
29.88597950925474
 10
215.8961188838955
 20
29.88597950925474
 10
214.5627849788556
 20
23.88598120155125
 10
213.2294510738157
 20
35.8859820819344
 10
211.8961214337519
 20
29.88597950925474
 97
        0
 75
     0
 76
     1
 98
        0
  0
LINE
  5
3E0
330
E3
100
AcDbEntity
  8
Des_ Walls
  6
Continuous
100
AcDbLine
 10
190.6067636521851
 20
29.88597807292492
 30
0.0
 11
211.8961214337519
 21
29.88597807292492
 31
0.0
  0
LINE
  5
3E1
330
E3
100
AcDbEntity
  8
Des_ Walls
  6
Continuous
100
AcDbLine
 10
215.8961188838955
 20
29.88597807292492
 30
0.0
 11
237.1854766654623
 21
29.88597807292492
 31
0.0
  0
LINE
  5
3E2
330
E3
100
AcDbEntity
  8
Des_ Walls
  6
Continuous
100
AcDbLine
 10
215.8961188838955
 20
29.88597807292492
 30
0.0
 11
214.5627849788556
 21
23.88597976522142
 31
0.0
  0
LINE
  5
3E3
330
E3
100
AcDbEntity
  8
Des_ Walls
  6
Continuous
100
AcDbLine
 10
214.5627849788556
 20
23.88597976522142
 30
0.0
 11
213.2294510738157
 21
35.88598064560457
 31
0.0
  0
LINE
  5
3E4
330
E3
100
AcDbEntity
  8
Des_ Walls
  6
Continuous
100
AcDbLine
 10
213.2294510738157
 20
35.88598064560457
 30
0.0
 11
211.8961214337519
 21
29.88597807292492
 31
0.0
  0
MTEXT
  5
3E5
330
E3
100
AcDbEntity
  8
Doc_ Floor
  6
Continuous
100
AcDbMText
 10
93.74596513481877
 20
78.14576429009294
 30
0.0
 40
2.5
 41
0.0
 71
     6
 72
     1
  1
{STRUCTURAL STEEL}
  7
GENERATED_STYLE_1
 73
     1
 44
1.0
  0
LINE
  5
3E6
330
E3
100
AcDbEntity
  8
Doc_ Floor
  6
Continuous
100
AcDbLine
 10
141.4304285277786
 20
61.28458324148917
 30
0.0
 11
138.4375241617583
 21
63.72809043930857
 31
0.0
  0
LINE
  5
3E7
330
E3
100
AcDbEntity
  8
Doc_ Floor
  6
Continuous
100
AcDbLine
 10
141.4304285277786
 20
61.28458324148917
 30
0.0
 11
140.0602537587239
 21
64.89717158272144
 31
0.0
  0
LINE
  5
3E8
330
E3
100
AcDbEntity
  8
Doc_ Floor
  6
Continuous
100
AcDbLine
 10
138.4375241617583
 20
63.72809043930857
 30
0.0
 11
140.0602537587239
 21
64.89717158272144
 31
0.0
  0
LWPOLYLINE
  5
3E9
330
E3
100
AcDbEntity
  8
Doc_ Floor
  6
Continuous
100
AcDbPolyline
 90
       16
 70
   128
 43
0.0
 10
139.2488881464437
 20
64.31263143029295
 10
137.666679988877
 20
66.16794102781401
 10
135.9858120231056
 20
67.86916714846654
 10
134.1931620785833
 20
69.42105445955565
 10
132.2756079847635
 20
70.82834762838645
 10
130.2200275710999
 20
72.09579132226406
 10
128.0132986670459
 20
73.2281302084936
 10
125.6422991020551
 20
74.23010895438017
 10
123.0939067055811
 20
75.10647222722889
 10
120.3549993070774
 20
75.86196469434489
 10
117.4124547359976
 20
76.50133102303326
 10
114.2531508217952
 20
77.02931588059914
 10
110.8639653939238
 20
77.45066393434763
 10
107.2317762818369
 20
77.77011985158384
 10
103.3434613149881
 20
77.9924282996129
 10
94.74596513481882
 20
78.16458145727
  0
MTEXT
  5
3EA
330
E3
100
AcDbEntity
  8
Doc_ Floor
  6
Continuous
100
AcDbMText
 10
92.97091705298519
 20
123.3317031820057
 30
0.0
 40
2.5
 41
70.68559489308491
 71
     6
 72
     1
  1
{BMT 0.55 APRON FLASHING NOTCHED TURN-DOWN OVER ROOFING, 5mm GAP MAX TO CLEAR OF TROUGH OR ROOFING}
  7
GENERATED_STYLE_1
 73
     1
 44
1.065340909090909
  0
LINE
  5
3EB
330
E3
100
AcDbEntity
  8
Doc_ Floor
  6
Continuous
100
AcDbLine
 10
151.0888082256754
 20
110.2420355247174
 30
0.0
 11
147.269283241471
 21
110.8246227373454
 31
0.0
  0
LINE
  5
3EC
330
E3
100
AcDbEntity
  8
Doc_ Floor
  6
Continuous
100
AcDbLine
 10
151.0888082256754
 20
110.2420355247174
 30
0.0
 11
148.072297216645
 21
112.656336165837
 31
0.0
  0
LINE
  5
3ED
330
E3
100
AcDbEntity
  8
Doc_ Floor
  6
Continuous
100
AcDbLine
 10
147.269283241471
 20
110.8246227373454
 30
0.0
 11
148.072297216645
 21
112.656336165837
 31
0.0
  0
LWPOLYLINE
  5
3EE
330
E3
100
AcDbEntity
  8
Doc_ Floor
  6
Continuous
100
AcDbPolyline
 90
        9
 70
   128
 43
0.0
 10
147.6707892691245
 20
111.7404801385351
 10
140.3878558070944
 20
114.728252051214
 10
133.5524682874428
 20
117.211713058778
 10
127.0223465154109
 20
119.223516306803
 10
120.6552102962397
 20
120.7963149408652
 10
114.3087794351704
 20
121.9627621065405
 10
107.8407737374442
 20
122.7555109494049
 10
101.1089130083021
 20
123.2072146150345
 10
93.97091705298514
 20
123.3505262490052
  0
MTEXT
  5
3EF
330
E3
100
AcDbEntity
  8
Doc_ Floor
  6
Continuous
100
AcDbMText
 10
93.43472737837658
 20
99.50304823038952
 30
0.0
 40
2.5
 41
63.74107021605327
 71
     6
 72
     1
  1
{ROOFING UNDERLAY LAID OVER SAFETY NETTING}
  7
GENERATED_STYLE_1
 73
     1
 44
1.070162922071087
  0
LINE
  5
3F0
330
E3
100
AcDbEntity
  8
Doc_ Floor
  6
Continuous
100
AcDbLine
 10
130.5543554882702
 20
104.1923203899915
 30
0.0
 11
127.6362417440793
 21
101.6599652089404
 31
0.0
  0
LINE
  5
3F1
330
E3
100
AcDbEntity
  8
Doc_ Floor
  6
Continuous
100
AcDbLine
 10
130.5543554882702
 20
104.1923203899915
 30
0.0
 11
126.7610174576488
 21
103.4582924041017
 31
0.0
  0
LINE
  5
3F2
330
E3
100
AcDbEntity
  8
Doc_ Floor
  6
Continuous
100
AcDbLine
 10
127.6362417440793
 20
101.6599652089404
 30
0.0
 11
126.7610174576488
 21
103.4582924041017
 31
0.0
  0
LWPOLYLINE
  5
3F3
330
E3
100
AcDbEntity
  8
Doc_ Floor
  6
Continuous
100
AcDbPolyline
 90
        8
 70
   128
 43
0.0
 10
127.1986296803973
 20
102.5591283736898
 10
124.8215262205707
 20
101.7845940853009
 10
122.0721622197509
 20
101.1382310750451
 10
118.8911844730165
 20
100.6123646731575
 10
115.2192397754461
 20
100.1993202098735
 10
110.9969749221184
 20
99.8914230154283
 10
106.1650367081118
 20
99.68099842005714
 10
94.43472737837658
 20
99.52186834747789
  0
MTEXT
  5
3F4
330
E3
100
AcDbEntity
  8
Doc_ Floor
  6
Continuous
100
AcDbMText
 10
92.8390935253251
 20
140.7298290670684
 30
0.0
 40
2.5
 41
63.74107021605327
 71
     6
 72
     1
  1
{SCREW FIXING WITH 12x55 STEEL TEK & NEO WITH SELECTED WASHER SYSTEM}
  7
GENERATED_STYLE_1
 73
     1
 44
1.070162922071087
  0
LINE
  5
3F5
330
E3
100
AcDbEntity
  8
Doc_ Floor
  6
Continuous
100
AcDbLine
 10
165.746162208219
 20
117.4687902483587
 30
0.0
 11
161.9685619396043
 21
118.2799204731531
 31
0.0
  0
LINE
  5
3F6
330
E3
100
AcDbEntity
  8
Doc_ Floor
  6
Continuous
100
AcDbLine
 10
165.746162208219
 20
117.4687902483587
 30
0.0
 11
162.8802304472673
 21
120.0600490150669
 31
0.0
  0
LINE
  5
3F7
330
E3
100
AcDbEntity
  8
Doc_ Floor
  6
Continuous
100
AcDbLine
 10
161.9685619396043
 20
118.2799204731531
 30
0.0
 11
162.8802304472673
 21
120.0600490150669
 31
0.0
  0
LWPOLYLINE
  5
3F8
330
E3
100
AcDbEntity
  8
Doc_ Floor
  6
Continuous
100
AcDbPolyline
 90
       15
 70
   128
 43
0.0
 10
162.4243957380716
 20
119.1699853869559
 10
151.1610751060344
 20
124.7308043123418
 10
141.0471037713251
 20
129.3502224523133
 10
136.3616345955933
 20
131.3261659062604
 10
131.8921153503432
 20
133.0898707780439
 10
127.6147502376249
 20
134.6490409390606
 10
123.5057434594882
 20
136.0113802607072
 10
119.5412992179831
 20
137.1845926143803
 10
115.6976217151594
 20
138.1763818714766
 10
111.9509151530672
 20
138.9944519033928
 10
108.2773837337564
 20
139.6465065815257
 10
104.6532316592768
 20
140.1402497772718
 10
101.0546631316784
 20
140.4833853620279
 10
97.45788235301123
 20
140.6836172071907
 10
93.8390935253251
 20
140.7486491841568
  0
MTEXT
  5
3F9
330
E3
100
AcDbEntity
  8
Doc_ Floor
  6
Continuous
100
AcDbMText
 10
38.75571640699057
 20
109.9657790959761
 30
0.0
 40
2.5
 41
0.0
 71
     4
 72
     1
  1
{TRS PROFILED METAL ROOFING}
  7
GENERATED_STYLE_1
 73
     1
 44
1.0
  0
LINE
  5
3FA
330
E3
100
AcDbEntity
  8
Doc_ Floor
  6
Continuous
100
AcDbLine
 10
127.8618632475804
 20
109.9845972991105
 30
0.0
 11
124.1298129242861
 21
108.9845968703306
 31
0.0
  0
LINE
  5
3FB
330
E3
100
AcDbEntity
  8
Doc_ Floor
  6
Continuous
100
AcDbLine
 10
127.8618632475804
 20
109.9845972991105
 30
0.0
 11
124.1298129242861
 21
110.9845977278904
 31
0.0
  0
LINE
  5
3FC
330
E3
100
AcDbEntity
  8
Doc_ Floor
  6
Continuous
100
AcDbLine
 10
124.1298129242861
 20
108.9845968703306
 30
0.0
 11
124.1298129242861
 21
110.9845977278904
 31
0.0
  0
LWPOLYLINE
  5
3FD
330
E3
100
AcDbEntity
  8
Doc_ Floor
  6
Continuous
100
AcDbPolyline
 90
        2
 70
   128
 43
0.0
 10
124.1298114566234
 20
109.9845962631532
 10
93.97091705298514
 20
109.9845962631532
  0
ENDBLK
  5
E5
330
E3
100
AcDbEntity
  8
0
100
AcDbBlockEnd
  0
BLOCK
  5
403
330
402
100
AcDbEntity
  8
0
100
AcDbBlockBegin
  2
C-TRS9-07 APRON DETAIL - HEAD -_STORY_MARKER
 70
     0
 10
0.0
 20
0.0
 30
0.0
  3
C-TRS9-07 APRON DETAIL - HEAD -_STORY_MARKER
  1

  0
ENDBLK
  5
404
330
402
100
AcDbEntity
  8
0
100
AcDbBlockEnd
  0
ENDSEC
  0
SECTION
  2
ENTITIES
  0
HATCH
  5
3F
330
1F
100
AcDbEntity
  8
Doc_ Finishes
  6
Continuous
100
AcDbHatch
 10
0.0
 20
0.0
 30
0.0
210
0.0
220
0.0
230
1.0
  2
SOLID
 70
     1
 71
     0
 91
        1
 92
        3
 72
     0
 73
     1
 93
       54
 10
25.4117749414874
 20
16.87044408857867
 10
24.89356552397386
 20
16.5825499677378
 10
24.5480925789648
 20
16.29465584689693
 10
24.12584786839818
 20
16.02595466744544
 10
23.76118198199976
 20
15.60370995687884
 10
23.39651609560134
 20
15.33500877742737
 10
23.07023609198168
 20
14.89357112547136
 10
22.49444785029994
 20
14.45213347351537
 10
21.93785255000758
 20
14.02988876294876
 10
21.43883607388343
 20
13.81876640766546
 10
20.74789018386533
 20
13.39652169709885
 10
20.09533017662603
 20
12.99346992792163
 10
19.63469958328064
 20
12.55203227596564
 10
18.90536781048376
 20
12.12978756539902
 10
18.59828074825351
 20
11.7459287376112
 10
18.04168544796116
 20
11.28529814426581
 10
17.36993249933246
 20
10.8630534336992
 10
16.73656543348255
 20
10.42161578174319
 10
16.04561954346446
 20
10.15291460229172
 10
15.1051654153843
 20
9.692284008946325
 10
14.39502658397681
 20
9.020531060317637
 10
13.83843128368446
 20
8.598286349751023
 10
13.12829245227699
 20
8.137655756405634
 10
12.84039833143612
 20
7.98411222529051
 10
12.37976773809073
 20
7.81137575278599
 10
12.07268067586046
 20
7.523481631945121
 10
12.0151018516923
 20
7.216394569714853
 10
12.14945244141803
 20
6.890114566095209
 10
12.4373465622589
 20
6.563834562475543
 10
12.8787842142149
 20
6.659799269422514
 10
13.51215128006482
 20
7.06285103859973
 10
14.01116775618899
 20
7.389131042219374
 10
14.33744775980864
 20
7.696218104449641
 10
14.51018423231316
 20
7.907340459732938
 10
15.01303929671522
 20
8.421711288968723
 10
15.33548071205699
 20
8.652026585641417
 10
15.75004824606785
 20
8.99749953065046
 10
16.14158425041142
 20
9.204783297655894
 10
17.24709767444037
 20
9.75754000967037
 10
18.23745345013295
 20
10.47151742935572
 10
19.4120614631637
 20
11.1624633193738
 10
19.84966052684182
 20
11.64612544238645
 10
20.49454335752537
 20
12.06069297639732
 10
21.78430901889248
 20
12.9819541630881
 10
22.36009726057419
 20
13.25833251909534
 10
23.6498629219413
 20
14.24868829478776
 10
23.85714668894673
 20
14.64022429913134
 10
24.68628175696843
 20
15.23904407048036
 10
25.28510152831745
 20
15.72270619349301
 10
25.81482671066464
 20
16.1142421978366
 10
26.27545730401003
 20
16.52880973184745
 10
26.22939424467549
 20
16.7821565581874
 10
26.09120506667188
 20
16.89731420652375
 10
25.56147988432467
 20
16.89731420652375
 97
        0
 75
     0
 76
     1
 98
        0
  0
LINE
  5
41
330
1F
100
AcDbEntity
  8
Doc_ Finishes
  6
Continuous
100
AcDbLine
 10
25.41177616050354
 20
16.87044600708104
 30
0.0
 11
24.89356363099921
 21
16.58254868214004
 31
0.0
  0
LINE
  5
42
330
1F
100
AcDbEntity
  8
Doc_ Finishes
  6
Continuous
100
AcDbLine
 10
24.89356363099921
 20
16.58254868214004
 30
0.0
 11
24.54809303697876
 21
16.29465578284815
 31
0.0
  0
LINE
  5
43
330
1F
100
AcDbEntity
  8
Doc_ Finishes
  6
Continuous
100
AcDbLine
 10
24.54809303697876
 20
16.29465578284815
 30
0.0
 11
24.12584628245476
 21
16.02595249803305
 31
0.0
  0
LINE
  5
44
330
1F
100
AcDbEntity
  8
Doc_ Finishes
  6
Continuous
100
AcDbLine
 10
24.12584628245476
 20
16.02595249803305
 30
0.0
 11
23.76118164830842
 21
15.60371016915814
 31
0.0
  0
LINE
  5
45
330
1F
100
AcDbEntity
  8
Doc_ Finishes
  6
Continuous
100
AcDbLine
 10
23.76118164830842
 20
15.60371016915814
 30
0.0
 11
23.39651701416208
 21
15.33500688434304
 31
0.0
  0
LINE
  5
46
330
1F
100
AcDbEntity
  8
Doc_ Finishes
  6
Continuous
100
AcDbLine
 10
23.39651701416208
 20
15.33500688434304
 30
0.0
 11
23.07023603461841
 21
14.89357051534225
 31
0.0
  0
LINE
  5
47
330
1F
100
AcDbEntity
  8
Doc_ Finishes
  6
Continuous
100
AcDbLine
 10
23.07023603461841
 20
14.89357051534225
 30
0.0
 11
22.49444581038552
 21
14.45213414634146
 31
0.0
  0
LINE
  5
48
330
1F
100
AcDbEntity
  8
Doc_ Finishes
  6
Continuous
100
AcDbLine
 10
22.49444581038552
 20
14.45213414634146
 30
0.0
 11
21.93785405192762
 21
14.02988739181747
 31
0.0
  0
LINE
  5
49
330
1F
100
AcDbEntity
  8
Doc_ Finishes
  6
Continuous
100
AcDbLine
 10
21.93785405192762
 20
14.02988739181747
 30
0.0
 11
21.43883556254917
 21
13.81876622738001
 31
0.0
  0
LINE
  5
4A
330
1F
100
AcDbEntity
  8
Doc_ Finishes
  6
Continuous
100
AcDbLine
 10
21.43883556254917
 20
13.81876622738001
 30
0.0
 11
20.74788994885916
 21
13.39652389850511
 31
0.0
  0
LINE
  5
4B
330
1F
100
AcDbEntity
  8
Doc_ Finishes
  6
Continuous
100
AcDbLine
 10
20.74788994885916
 20
13.39652389850511
 30
0.0
 11
20.09532798977183
 21
12.993471184107
 31
0.0
  0
LINE
  5
4C
330
1F
100
AcDbEntity
  8
Doc_ Finishes
  6
Continuous
100
AcDbLine
 10
20.09532798977183
 20
12.993471184107
 30
0.0
 11
19.63469758064516
 21
12.55203038945712
 31
0.0
  0
LINE
  5
4D
330
1F
100
AcDbEntity
  8
Doc_ Finishes
  6
Continuous
100
AcDbLine
 10
19.63469758064516
 20
12.55203038945712
 30
0.0
 11
18.90536831235248
 21
12.12978806058222
 31
0.0
  0
LINE
  5
4E
330
1F
100
AcDbEntity
  8
Doc_ Finishes
  6
Continuous
100
AcDbLine
 10
18.90536831235248
 20
12.12978806058222
 30
0.0
 11
18.5982813729347
 21
11.74592938630999
 31
0.0
  0
LINE
  5
4F
330
1F
100
AcDbEntity
  8
Doc_ Finishes
  6
Continuous
100
AcDbLine
 10
18.5982813729347
 20
11.74592938630999
 30
0.0
 11
18.0416851888277
 21
11.28529897718332
 31
0.0
  0
LINE
  5
50
330
1F
100
AcDbEntity
  8
Doc_ Finishes
  6
Continuous
100
AcDbLine
 10
18.0416851888277
 20
11.28529897718332
 30
0.0
 11
17.36993361526357
 21
10.86305222265932
 31
0.0
  0
LINE
  5
51
330
1F
100
AcDbEntity
  8
Doc_ Finishes
  6
Continuous
100
AcDbLine
 10
17.36993361526357
 20
10.86305222265932
 30
0.0
 11
16.73656569630212
 21
10.42161585365854
 31
0.0
  0
LINE
  5
52
330
1F
100
AcDbEntity
  8
Doc_ Finishes
  6
Continuous
100
AcDbLine
 10
16.73656569630212
 20
10.42161585365854
 30
0.0
 11
16.04562008261211
 21
10.15291256884343
 31
0.0
  0
LINE
  5
53
330
1F
100
AcDbEntity
  8
Doc_ Finishes
  6
Continuous
100
AcDbLine
 10
16.04562008261211
 20
10.15291256884343
 30
0.0
 11
15.10516522423289
 21
9.692282159716758
 31
0.0
  0
LINE
  5
54
330
1F
100
AcDbEntity
  8
Doc_ Finishes
  6
Continuous
100
AcDbLine
 10
15.10516522423289
 20
9.692282159716758
 30
0.0
 11
14.39502557041699
 21
9.020530586152635
 31
0.0
  0
LINE
  5
55
330
1F
100
AcDbEntity
  8
Doc_ Finishes
  6
Continuous
100
AcDbLine
 10
14.39502557041699
 20
9.020530586152635
 30
0.0
 11
13.83842938630999
 21
8.598288257277733
 31
0.0
  0
LINE
  5
56
330
1F
100
AcDbEntity
  8
Doc_ Finishes
  6
Continuous
100
AcDbLine
 10
13.83842938630999
 20
8.598288257277733
 30
0.0
 11
13.12829415814319
 21
8.137657848151063
 31
0.0
  0
LINE
  5
57
330
1F
100
AcDbEntity
  8
Doc_ Finishes
  6
Continuous
100
AcDbLine
 10
13.12829415814319
 20
8.137657848151063
 30
0.0
 11
12.8403968332022
 21
7.984114378442171
 31
0.0
  0
LINE
  5
58
330
1F
100
AcDbEntity
  8
Doc_ Finishes
  6
Continuous
100
AcDbLine
 10
12.8403968332022
 20
7.984114378442171
 30
0.0
 11
12.37976642407553
 21
7.811376868607396
 31
0.0
  0
LINE
  5
59
330
1F
100
AcDbEntity
  8
Doc_ Finishes
  6
Continuous
100
AcDbLine
 10
12.37976642407553
 20
7.811376868607396
 30
0.0
 11
12.07267948465775
 21
7.523479543666405
 31
0.0
  0
LINE
  5
5A
330
1F
100
AcDbEntity
  8
Doc_ Finishes
  6
Continuous
100
AcDbLine
 10
12.07267948465775
 20
7.523479543666405
 30
0.0
 11
12.01510178992919
 21
7.216392604248622
 31
0.0
  0
LINE
  5
5B
330
1F
100
AcDbEntity
  8
Doc_ Finishes
  6
Continuous
100
AcDbLine
 10
12.01510178992919
 20
7.216392604248622
 30
0.0
 11
12.1494512195122
 21
6.890116050354051
 31
0.0
  0
LINE
  5
5C
330
1F
100
AcDbEntity
  8
Doc_ Finishes
  6
Continuous
100
AcDbLine
 10
12.1494512195122
 20
6.890116050354051
 30
0.0
 11
12.43734854445319
 21
6.563835070810386
 31
0.0
  0
LINE
  5
5D
330
1F
100
AcDbEntity
  8
Doc_ Finishes
  6
Continuous
100
AcDbLine
 10
12.43734854445319
 20
6.563835070810386
 30
0.0
 11
12.87878491345397
 21
6.659800845790715
 31
0.0
  0
LINE
  5
5E
330
1F
100
AcDbEntity
  8
Doc_ Finishes
  6
Continuous
100
AcDbLine
 10
12.87878491345397
 20
6.659800845790715
 30
0.0
 11
13.51215283241542
 21
7.062849134539732
 31
0.0
  0
LINE
  5
5F
330
1F
100
AcDbEntity
  8
Doc_ Finishes
  6
Continuous
100
AcDbLine
 10
13.51215283241542
 20
7.062849134539732
 30
0.0
 11
14.01116689614477
 21
7.389130114083398
 31
0.0
  0
LINE
  5
60
330
1F
100
AcDbEntity
  8
Doc_ Finishes
  6
Continuous
100
AcDbLine
 10
14.01116689614477
 20
7.389130114083398
 30
0.0
 11
14.33744787568843
 21
7.69621705350118
 31
0.0
  0
LINE
  5
61
330
1F
100
AcDbEntity
  8
Doc_ Finishes
  6
Continuous
100
AcDbLine
 10
14.33744787568843
 20
7.69621705350118
 30
0.0
 11
14.51018538552321
 21
7.907342643587726
 31
0.0
  0
LINE
  5
62
330
1F
100
AcDbEntity
  8
Doc_ Finishes
  6
Continuous
100
AcDbLine
 10
14.51018538552321
 20
7.907342643587726
 30
0.0
 11
15.01304091266719
 21
8.421709284028323
 31
0.0
  0
LINE
  5
63
330
1F
100
AcDbEntity
  8
Doc_ Finishes
  6
Continuous
100
AcDbLine
 10
15.01304091266719
 20
8.421709284028323
 30
0.0
 11
15.33548042879622
 21
8.65202448859166
 31
0.0
  0
LINE
  5
64
330
1F
100
AcDbEntity
  8
Doc_ Finishes
  6
Continuous
100
AcDbLine
 10
15.33548042879622
 20
8.65202448859166
 30
0.0
 11
15.75004868214005
 21
8.997499508261212
 31
0.0
  0
LINE
  5
65
330
1F
100
AcDbEntity
  8
Doc_ Finishes
  6
Continuous
100
AcDbLine
 10
15.75004868214005
 20
8.997499508261212
 30
0.0
 11
16.14158585759245
 21
9.204783634933122
 31
0.0
  0
LINE
  5
66
330
1F
100
AcDbEntity
  8
Doc_ Finishes
  6
Continuous
100
AcDbLine
 10
16.14158585759245
 20
9.204783634933122
 30
0.0
 11
17.24709972462628
 21
9.75753835562549
 31
0.0
  0
LINE
  5
67
330
1F
100
AcDbEntity
  8
Doc_ Finishes
  6
Continuous
100
AcDbLine
 10
17.24709972462628
 20
9.75753835562549
 30
0.0
 11
18.2374537765539
 21
10.47151947285602
 31
0.0
  0
LINE
  5
68
330
1F
100
AcDbEntity
  8
Doc_ Finishes
  6
Continuous
100
AcDbLine
 10
18.2374537765539
 20
10.47151947285602
 30
0.0
 11
19.41206087726199
 21
11.16246508654602
 31
0.0
  0
LINE
  5
69
330
1F
100
AcDbEntity
  8
Doc_ Finishes
  6
Continuous
100
AcDbLine
 10
19.41206087726199
 20
11.16246508654602
 30
0.0
 11
19.84966020849724
 21
11.64612657356412
 31
0.0
  0
LINE
  5
6A
330
1F
100
AcDbEntity
  8
Doc_ Finishes
  6
Continuous
100
AcDbLine
 10
19.84966020849724
 20
11.64612657356412
 30
0.0
 11
20.4945436664044
 21
12.06069482690795
 31
0.0
  0
LINE
  5
6B
330
1F
100
AcDbEntity
  8
Doc_ Finishes
  6
Continuous
100
AcDbLine
 10
20.4945436664044
 20
12.06069482690795
 30
0.0
 11
21.78431058221873
 21
12.98195564516129
 31
0.0
  0
LINE
  5
6C
330
1F
100
AcDbEntity
  8
Doc_ Finishes
  6
Continuous
100
AcDbLine
 10
21.78431058221873
 20
12.98195564516129
 30
0.0
 11
22.36009638080252
 21
13.25833300550747
 31
0.0
  0
LINE
  5
6D
330
1F
100
AcDbEntity
  8
Doc_ Finishes
  6
Continuous
100
AcDbLine
 10
22.36009638080252
 20
13.25833300550747
 30
0.0
 11
23.64986329661684
 21
14.24868705743509
 31
0.0
  0
LINE
  5
6E
330
1F
100
AcDbEntity
  8
Doc_ Finishes
  6
Continuous
100
AcDbLine
 10
23.64986329661684
 20
14.24868705743509
 30
0.0
 11
23.85714742328875
 21
14.64022423288749
 31
0.0
  0
LINE
  5
6F
330
1F
100
AcDbEntity
  8
Doc_ Finishes
  6
Continuous
100
AcDbLine
 10
23.85714742328875
 20
14.64022423288749
 30
0.0
 11
24.68628392997639
 21
15.2390455350118
 31
0.0
  0
LINE
  5
70
330
1F
100
AcDbEntity
  8
Doc_ Finishes
  6
Continuous
100
AcDbLine
 10
24.68628392997639
 20
15.2390455350118
 30
0.0
 11
25.28510080645161
 21
15.7227070220299
 31
0.0
  0
LINE
  5
71
330
1F
100
AcDbEntity
  8
Doc_ Finishes
  6
Continuous
100
AcDbLine
 10
25.28510080645161
 20
15.7227070220299
 30
0.0
 11
25.81482887490165
 21
16.1142441974823
 31
0.0
  0
LINE
  5
72
330
1F
100
AcDbEntity
  8
Doc_ Finishes
  6
Continuous
100
AcDbLine
 10
25.81482887490165
 20
16.1142441974823
 30
0.0
 11
26.27545928402832
 21
16.52880802517702
 31
0.0
  0
LINE
  5
73
330
1F
100
AcDbEntity
  8
Doc_ Finishes
  6
Continuous
100
AcDbLine
 10
26.27545928402832
 20
16.52880802517702
 30
0.0
 11
26.22939270259638
 21
16.78215873328088
 31
0.0
  0
LINE
  5
74
330
1F
100
AcDbEntity
  8
Doc_ Finishes
  6
Continuous
100
AcDbLine
 10
26.22939270259638
 20
16.78215873328088
 30
0.0
 11
26.09120623524784
 21
16.897314122738
 31
0.0
  0
LINE
  5
75
330
1F
100
AcDbEntity
  8
Doc_ Finishes
  6
Continuous
100
AcDbLine
 10
26.09120623524784
 20
16.897314122738
 30
0.0
 11
25.56147816679779
 21
16.897314122738
 31
0.0
  0
LINE
  5
76
330
1F
100
AcDbEntity
  8
Doc_ Finishes
  6
Continuous
100
AcDbLine
 10
25.56147816679779
 20
16.897314122738
 30
0.0
 11
25.41177616050354
 21
16.87044600708104
 31
0.0
  0
HATCH
  5
77
330
1F
100
AcDbEntity
  8
Doc_ Finishes
  6
Continuous
100
AcDbHatch
 10
0.0
 20
0.0
 30
0.0
210
0.0
220
0.0
230
1.0
  2
SOLID
 70
     1
 71
     0
 91
        1
 92
        3
 72
     0
 73
     1
 93
       39
 10
25.65360600299377
 20
13.12014334109181
 10
25.21600693931564
 20
12.77467039608275
 10
24.54809257896482
 20
12.24494521373555
 10
23.92624127794851
 20
11.85340920939199
 10
23.32742150659951
 20
11.32368402704478
 10
22.72860173525051
 20
11.04730567103754
 10
22.08371890456697
 20
10.56364354802488
 10
21.62308831122158
 20
10.33332825135219
 10
21.231552306878
 20
10.03391836567767
 10
20.81698477286715
 20
9.619350831666825
 10
20.4024172388563
 20
9.38903553499415
 10
19.91875511584363
 20
9.043562589985086
 10
19.66540828950367
 20
8.859310352646935
 10
19.25084075549282
 20
8.582931996639696
 10
18.09926427212933
 20
7.753796928618002
 10
17.75379132712029
 20
7.477418572610764
 10
17.2931607337749
 20
7.316197864939873
 10
17.22406614477309
 20
6.993756449598113
 10
17.3622553227767
 20
6.717378093590874
 10
17.63863367878394
 20
6.602220445254527
 10
18.00713815346025
 20
6.8325357419272
 10
18.26048497980021
 20
7.131945627601722
 10
18.55989486547472
 20
7.362260924274415
 10
19.31993534449462
 20
7.707733869283458
 10
19.84966052684182
 20
8.122301403294307
 10
20.88607936186895
 20
8.882341882314256
 10
21.20852077721072
 20
9.342972475659646
 10
22.01462431556515
 20
9.734508480003234
 10
22.5673810275796
 20
10.05694989534501
 10
23.46561068460312
 20
10.60970660735953
 10
23.88017821861399
 20
11.07033720070492
 10
24.31777728229212
 20
11.34671555671216
 10
24.70931328663568
 20
11.30065249737762
 10
25.21600693931562
 20
11.55399932371759
 10
26.0681735370046
 20
12.17585062473387
 10
26.41364648201364
 20
12.49829204007566
 10
26.39061495234636
 20
12.77467039608289
 10
26.22939424467547
 20
13.00498569275559
 10
26.04514200733731
 20
13.05104875209013
 97
        0
 75
     0
 76
     1
 98
        0
  0
LINE
  5
78
330
1F
100
AcDbEntity
  8
Doc_ Finishes
  6
Continuous
100
AcDbLine
 10
25.65360690401259
 20
13.12014211250983
 30
0.0
 11
25.21600757277734
 21
12.77467151848938
 31
0.0
  0
LINE
  5
79
330
1F
100
AcDbEntity
  8
Doc_ Finishes
  6
Continuous
100
AcDbLine
 10
25.21600757277734
 20
12.77467151848938
 30
0.0
 11
24.54809303697876
 21
12.24494345003934
 31
0.0
  0
LINE
  5
7A
330
1F
100
AcDbEntity
  8
Doc_ Finishes
  6
Continuous
100
AcDbLine
 10
24.54809303697876
 20
12.24494345003934
 30
0.0
 11
23.92624065696302
 21
11.85341070023603
 31
0.0
  0
LINE
  5
7B
330
1F
100
AcDbEntity
  8
Doc_ Finishes
  6
Continuous
100
AcDbLine
 10
23.92624065696302
 20
11.85341070023603
 30
0.0
 11
23.32741935483871
 21
11.32368263178599
 31
0.0
  0
LINE
  5
7C
330
1F
100
AcDbEntity
  8
Doc_ Finishes
  6
Continuous
100
AcDbLine
 10
23.32741935483871
 20
11.32368263178599
 30
0.0
 11
22.72860247836349
 21
11.04730527143981
 31
0.0
  0
LINE
  5
7D
330
1F
100
AcDbEntity
  8
Doc_ Finishes
  6
Continuous
100
AcDbLine
 10
22.72860247836349
 20
11.04730527143981
 30
0.0
 11
22.08371902045633
 21
10.56364378442171
 31
0.0
  0
LINE
  5
7E
330
1F
100
AcDbEntity
  8
Doc_ Finishes
  6
Continuous
100
AcDbLine
 10
22.08371902045633
 20
10.56364378442171
 30
0.0
 11
21.62308861132966
 21
10.33332857985838
 31
0.0
  0
LINE
  5
7F
330
1F
100
AcDbEntity
  8
Doc_ Finishes
  6
Continuous
100
AcDbLine
 10
21.62308861132966
 20
10.33332857985838
 30
0.0
 11
21.23155143587726
 21
10.03392014162077
 31
0.0
  0
LINE
  5
80
330
1F
100
AcDbEntity
  8
Doc_ Finishes
  6
Continuous
100
AcDbLine
 10
21.23155143587726
 20
10.03392014162077
 30
0.0
 11
20.81698318253344
 21
9.619351888276947
 31
0.0
  0
LINE
  5
81
330
1F
100
AcDbEntity
  8
Doc_ Finishes
  6
Continuous
100
AcDbLine
 10
20.81698318253344
 20
9.619351888276947
 30
0.0
 11
20.40241935483871
 21
9.389036683713611
 31
0.0
  0
LINE
  5
82
330
1F
100
AcDbEntity
  8
Doc_ Finishes
  6
Continuous
100
AcDbLine
 10
20.40241935483871
 20
9.389036683713611
 30
0.0
 11
19.91875344217151
 21
9.04356166404406
 31
0.0
  0
LINE
  5
83
330
1F
100
AcDbEntity
  8
Doc_ Finishes
  6
Continuous
100
AcDbLine
 10
19.91875344217151
 20
9.04356166404406
 30
0.0
 11
19.66540715971676
 21
8.859308615263572
 31
0.0
  0
LINE
  5
84
330
1F
100
AcDbEntity
  8
Doc_ Finishes
  6
Continuous
100
AcDbLine
 10
19.66540715971676
 20
8.859308615263572
 30
0.0
 11
19.25083890637293
 21
8.582931254917387
 31
0.0
  0
LINE
  5
85
330
1F
100
AcDbEntity
  8
Doc_ Finishes
  6
Continuous
100
AcDbLine
 10
19.25083890637293
 20
8.582931254917387
 30
0.0
 11
18.09926288355625
 21
7.75379474822974
 31
0.0
  0
LINE
  5
86
330
1F
100
AcDbEntity
  8
Doc_ Finishes
  6
Continuous
100
AcDbLine
 10
18.09926288355625
 20
7.75379474822974
 30
0.0
 11
17.7537922895358
 21
7.477417387883556
 31
0.0
  0
LINE
  5
87
330
1F
100
AcDbEntity
  8
Doc_ Finishes
  6
Continuous
100
AcDbLine
 10
17.7537922895358
 20
7.477417387883556
 30
0.0
 11
17.29316188040913
 21
7.316199842643588
 31
0.0
  0
LINE
  5
88
330
1F
100
AcDbEntity
  8
Doc_ Finishes
  6
Continuous
100
AcDbLine
 10
17.29316188040913
 20
7.316199842643588
 30
0.0
 11
17.22406422108576
 21
6.993755900865461
 31
0.0
  0
LINE
  5
89
330
1F
100
AcDbEntity
  8
Doc_ Finishes
  6
Continuous
100
AcDbLine
 10
17.22406422108576
 20
6.993755900865461
 30
0.0
 11
17.3622551140834
 21
6.717378540519276
 31
0.0
  0
LINE
  5
8A
330
1F
100
AcDbEntity
  8
Doc_ Finishes
  6
Continuous
100
AcDbLine
 10
17.3622551140834
 20
6.717378540519276
 30
0.0
 11
17.63863247442958
 21
6.602218725413059
 31
0.0
  0
LINE
  5
8B
330
1F
100
AcDbEntity
  8
Doc_ Finishes
  6
Continuous
100
AcDbLine
 10
17.63863247442958
 20
6.602218725413059
 30
0.0
 11
18.00713857199056
 21
6.832533929976396
 31
0.0
  0
LINE
  5
8C
330
1F
100
AcDbEntity
  8
Doc_ Finishes
  6
Continuous
100
AcDbLine
 10
18.00713857199056
 20
6.832533929976396
 30
0.0
 11
18.26048485444532
 21
7.1319467938631
 31
0.0
  0
LINE
  5
8D
330
1F
100
AcDbEntity
  8
Doc_ Finishes
  6
Continuous
100
AcDbLine
 10
18.26048485444532
 20
7.1319467938631
 30
0.0
 11
18.55989329268293
 21
7.362261998426435
 31
0.0
  0
LINE
  5
8E
330
1F
100
AcDbEntity
  8
Doc_ Finishes
  6
Continuous
100
AcDbLine
 10
18.55989329268293
 20
7.362261998426435
 30
0.0
 11
19.3199365656963
 21
7.707732592446892
 31
0.0
  0
LINE
  5
8F
330
1F
100
AcDbEntity
  8
Doc_ Finishes
  6
Continuous
100
AcDbLine
 10
19.3199365656963
 20
7.707732592446892
 30
0.0
 11
19.84966020849724
 21
8.122300845790717
 31
0.0
  0
LINE
  5
90
330
1F
100
AcDbEntity
  8
Doc_ Finishes
  6
Continuous
100
AcDbLine
 10
19.84966020849724
 20
8.122300845790717
 30
0.0
 11
20.8860808418568
 21
8.882339693154996
 31
0.0
  0
LINE
  5
91
330
1F
100
AcDbEntity
  8
Doc_ Finishes
  6
Continuous
100
AcDbLine
 10
20.8860808418568
 20
8.882339693154996
 30
0.0
 11
21.20852035798584
 21
9.342974527930762
 31
0.0
  0
LINE
  5
92
330
1F
100
AcDbEntity
  8
Doc_ Finishes
  6
Continuous
100
AcDbLine
 10
21.20852035798584
 20
9.342974527930762
 30
0.0
 11
22.01462578678206
 21
9.734507277734066
 31
0.0
  0
LINE
  5
93
330
1F
100
AcDbEntity
  8
Doc_ Finishes
  6
Continuous
100
AcDbLine
 10
22.01462578678206
 20
9.734507277734066
 30
0.0
 11
22.56738050747443
 21
10.05695121951219
 31
0.0
  0
LINE
  5
94
330
1F
100
AcDbEntity
  8
Doc_ Finishes
  6
Continuous
100
AcDbLine
 10
22.56738050747443
 20
10.05695121951219
 30
0.0
 11
23.46561024783635
 21
10.60970594020456
 31
0.0
  0
LINE
  5
95
330
1F
100
AcDbEntity
  8
Doc_ Finishes
  6
Continuous
100
AcDbLine
 10
23.46561024783635
 20
10.60970594020456
 30
0.0
 11
23.88017850118017
 21
11.07033634933124
 31
0.0
  0
LINE
  5
96
330
1F
100
AcDbEntity
  8
Doc_ Finishes
  6
Continuous
100
AcDbLine
 10
23.88017850118017
 20
11.07033634933124
 30
0.0
 11
24.31777783241542
 21
11.34671370967742
 31
0.0
  0
LINE
  5
97
330
1F
100
AcDbEntity
  8
Doc_ Finishes
  6
Continuous
100
AcDbLine
 10
24.31777783241542
 20
11.34671370967742
 30
0.0
 11
24.70931500786781
 21
11.30065155389457
 31
0.0
  0
LINE
  5
98
330
1F
100
AcDbEntity
  8
Doc_ Finishes
  6
Continuous
100
AcDbLine
 10
24.70931500786781
 20
11.30065155389457
 30
0.0
 11
25.21600757277734
 21
11.55399783634933
 31
0.0
  0
LINE
  5
99
330
1F
100
AcDbEntity
  8
Doc_ Finishes
  6
Continuous
100
AcDbLine
 10
25.21600757277734
 20
11.55399783634933
 30
0.0
 11
26.06817515735641
 21
12.17585021636507
 31
0.0
  0
LINE
  5
9A
330
1F
100
AcDbEntity
  8
Doc_ Finishes
  6
Continuous
100
AcDbLine
 10
26.06817515735641
 20
12.17585021636507
 30
0.0
 11
26.41364575137687
 21
12.49829415814319
 31
0.0
  0
LINE
  5
9B
330
1F
100
AcDbEntity
  8
Doc_ Finishes
  6
Continuous
100
AcDbLine
 10
26.41364575137687
 20
12.49829415814319
 30
0.0
 11
26.39061467348544
 21
12.77467151848938
 31
0.0
  0
LINE
  5
9C
330
1F
100
AcDbEntity
  8
Doc_ Finishes
  6
Continuous
100
AcDbLine
 10
26.39061467348544
 20
12.77467151848938
 30
0.0
 11
26.22939270259638
 21
13.00498672305271
 31
0.0
  0
LINE
  5
9D
330
1F
100
AcDbEntity
  8
Doc_ Finishes
  6
Continuous
100
AcDbLine
 10
26.22939270259638
 20
13.00498672305271
 30
0.0
 11
26.04514407946499
 21
13.05104887883556
 31
0.0
  0
LINE
  5
9E
330
1F
100
AcDbEntity
  8
Doc_ Finishes
  6
Continuous
100
AcDbLine
 10
26.04514407946499
 20
13.05104887883556
 30
0.0
 11
25.65360690401259
 21
13.12014211250983
 31
0.0
  0
HATCH
  5
9F
330
1F
100
AcDbEntity
  8
Doc_ Finishes
  6
Continuous
100
AcDbHatch
 10
0.0
 20
0.0
 30
0.0
210
0.0
220
0.0
230
1.0
  2
SOLID
 70
     1
 71
     0
 91
        1
 92
        3
 72
     0
 73
     1
 93
       47
 10
26.06817353700455
 20
15.74573772316067
 10
26.30309513961077
 20
15.62136746295728
 10
26.4412843176144
 20
15.4002647781515
 10
26.93876535842742
 20
15.17916209334572
 10
27.82317609765057
 20
14.40530269652538
 10
28.9286895216795
 20
13.74199464210799
 10
29.59199757609689
 20
13.3827027792986
 10
30.20002995931278
 20
13.07868658769064
 10
31.55428390374827
 20
12.08372450606458
 10
32.07940278016201
 20
11.69679480765445
 10
32.88090001258301
 20
11.08876242443854
 10
33.59948373820179
 20
10.50836787682334
 10
34.5668079842271
 20
9.817421986805197
 10
35.06428902504011
 20
9.458130123995785
 10
35.81051058625965
 20
8.933011247582023
 10
36.61200781868061
 20
8.407892371168286
 10
36.77783483228498
 20
8.186789686362482
 10
37.38586721550091
 20
7.744584316750918
 10
38.18736444792187
 20
6.915449248729224
 10
38.7953968311378
 20
6.44560604351692
 10
39.56925622795804
 20
6.169227687509681
 10
40.23256428237543
 20
6.086314180707507
 10
40.48130480278193
 20
6.30741686551329
 10
40.14965077557326
 20
6.611433057121246
 10
39.48634272115586
 20
6.998362755531397
 10
38.76775899553708
 20
7.357654618340788
 10
38.18736444792187
 20
8.048600508358874
 10
36.99893751709078
 20
8.822459905179112
 10
36.47381864067705
 20
9.319940945992132
 10
36.22507812027052
 20
9.734508480003
 10
35.174840367443
 20
10.31490302761817
 10
34.73263499783144
 20
10.78474623283046
 10
34.2351539570184
 20
11.17167593124059
 10
33.48893239579888
 20
11.61388130085215
 10
32.85326217698223
 20
12.16663801286669
 10
32.35578113616918
 20
12.58120554687754
 10
31.69247308175183
 20
12.99577308088841
 10
31.22262987653952
 20
13.32742710809708
 10
30.7251488357265
 20
13.5761676285036
 10
29.93747052110587
 20
14.06443605744977
 10
29.43077686842594
 20
14.38687747279155
 10
28.92408321574601
 20
14.70931888813342
 10
28.62467333007151
 20
15.100854892477
 10
27.95675896972068
 20
15.67664313415887
 10
27.47309684670803
 20
15.9530214901661
 10
26.82821401602446
 20
16.36758902417695
 10
26.50577260068269
 20
16.22939984617334
 97
        0
 75
     0
 76
     1
 98
        0
  0
LINE
  5
A0
330
1F
100
AcDbEntity
  8
Doc_ Finishes
  6
Continuous
100
AcDbLine
 10
26.30309303697875
 20
15.62136850904799
 30
0.0
 11
26.06817515735641
 21
15.74573809992132
 31
0.0
  0
LINE
  5
A1
330
1F
100
AcDbEntity
  8
Doc_ Finishes
  6
Continuous
100
AcDbLine
 10
26.4412839299764
 20
15.40026308025177
 30
0.0
 11
26.30309303697875
 21
15.62136850904799
 31
0.0
  0
LINE
  5
A2
330
1F
100
AcDbEntity
  8
Doc_ Finishes
  6
Continuous
100
AcDbLine
 10
26.9387667191188
 20
15.17916207710464
 30
0.0
 11
26.4412839299764
 21
15.40026308025177
 31
0.0
  0
LINE
  5
A3
330
1F
100
AcDbEntity
  8
Doc_ Finishes
  6
Continuous
100
AcDbLine
 10
27.82317515735641
 20
14.40530192761605
 30
0.0
 11
26.9387667191188
 21
15.17916207710464
 31
0.0
  0
LINE
  5
A4
330
1F
100
AcDbEntity
  8
Doc_ Finishes
  6
Continuous
100
AcDbLine
 10
28.92868902439024
 20
13.74199449252557
 30
0.0
 11
27.82317515735641
 21
14.40530192761605
 31
0.0
  0
LINE
  5
A5
330
1F
100
AcDbEntity
  8
Doc_ Finishes
  6
Continuous
100
AcDbLine
 10
29.59199645948072
 20
13.3827025963808
 30
0.0
 11
28.92868902439024
 21
13.74199449252557
 31
0.0
  0
LINE
  5
A6
330
1F
100
AcDbEntity
  8
Doc_ Finishes
  6
Continuous
100
AcDbLine
 10
30.20003196302124
 20
13.07868705743509
 30
0.0
 11
29.59199645948072
 21
13.3827025963808
 31
0.0
  0
LINE
  5
A7
330
1F
100
AcDbEntity
  8
Doc_ Finishes
  6
Continuous
100
AcDbLine
 10
31.55428501180173
 20
12.08372590479937
 30
0.0
 11
30.20003196302124
 21
13.07868705743509
 31
0.0
  0
LINE
  5
A8
330
1F
100
AcDbEntity
  8
Doc_ Finishes
  6
Continuous
100
AcDbLine
 10
32.07940155389457
 20
11.69679583005508
 30
0.0
 11
31.55428501180173
 21
12.08372590479937
 31
0.0
  0
LINE
  5
A9
330
1F
100
AcDbEntity
  8
Doc_ Finishes
  6
Continuous
100
AcDbLine
 10
32.88089988198269
 20
11.08876032651456
 30
0.0
 11
32.07940155389457
 21
11.69679583005508
 31
0.0
  0
LINE
  5
AA
330
1F
100
AcDbEntity
  8
Doc_ Finishes
  6
Continuous
100
AcDbLine
 10
33.59948367427223
 20
10.50836742722266
 30
0.0
 11
32.88089988198269
 21
11.08876032651456
 31
0.0
  0
LINE
  5
AB
330
1F
100
AcDbEntity
  8
Doc_ Finishes
  6
Continuous
100
AcDbLine
 10
34.56680664830842
 20
9.817421813532652
 30
0.0
 11
33.59948367427223
 21
10.50836742722266
 31
0.0
  0
LINE
  5
AC
330
1F
100
AcDbEntity
  8
Doc_ Finishes
  6
Continuous
100
AcDbLine
 10
35.06428943745082
 20
9.458129917387884
 30
0.0
 11
34.56680664830842
 21
9.817421813532652
 31
0.0
  0
LINE
  5
AD
330
1F
100
AcDbEntity
  8
Doc_ Finishes
  6
Continuous
100
AcDbLine
 10
35.81051140833988
 20
8.933013375295044
 30
0.0
 11
35.06428943745082
 21
9.458129917387884
 31
0.0
  0
LINE
  5
AE
330
1F
100
AcDbEntity
  8
Doc_ Finishes
  6
Continuous
100
AcDbLine
 10
36.61200973642801
 20
8.407892407553108
 30
0.0
 11
35.81051140833988
 21
8.933013375295044
 31
0.0
  0
LINE
  5
AF
330
1F
100
AcDbEntity
  8
Doc_ Finishes
  6
Continuous
100
AcDbLine
 10
36.77783438237608
 20
8.18679140440598
 30
0.0
 11
36.61200973642801
 21
8.407892407553108
 31
0.0
  0
LINE
  5
B0
330
1F
100
AcDbEntity
  8
Doc_ Finishes
  6
Continuous
100
AcDbLine
 10
37.38586546026751
 20
7.744584972462627
 30
0.0
 11
36.77783438237608
 21
8.18679140440598
 31
0.0
  0
LINE
  5
B1
330
1F
100
AcDbEntity
  8
Doc_ Finishes
  6
Continuous
100
AcDbLine
 10
38.18736378835562
 20
6.915448465774981
 30
0.0
 11
37.38586546026751
 21
7.744584972462627
 31
0.0
  0
LINE
  5
B2
330
1F
100
AcDbEntity
  8
Doc_ Finishes
  6
Continuous
100
AcDbLine
 10
38.79539486624704
 20
6.4456038552321
 30
0.0
 11
38.18736378835562
 21
6.915448465774981
 31
0.0
  0
LINE
  5
B3
330
1F
100
AcDbEntity
  8
Doc_ Finishes
  6
Continuous
100
AcDbLine
 10
39.56925501573564
 20
6.169226494885916
 30
0.0
 11
38.79539486624704
 21
6.4456038552321
 31
0.0
  0
LINE
  5
B4
330
1F
100
AcDbEntity
  8
Doc_ Finishes
  6
Continuous
100
AcDbLine
 10
40.23256245082612
 20
6.086316384736428
 30
0.0
 11
39.56925501573564
 21
6.169226494885916
 31
0.0
  0
LINE
  5
B5
330
1F
100
AcDbEntity
  8
Doc_ Finishes
  6
Continuous
100
AcDbLine
 10
40.48130605822187
 20
6.307417387883556
 30
0.0
 11
40.23256245082612
 21
6.086316384736428
 31
0.0
  0
LINE
  5
B6
330
1F
100
AcDbEntity
  8
Doc_ Finishes
  6
Continuous
100
AcDbLine
 10
40.14965234067663
 20
6.611432926829268
 30
0.0
 11
40.48130605822187
 21
6.307417387883556
 31
0.0
  0
LINE
  5
B7
330
1F
100
AcDbEntity
  8
Doc_ Finishes
  6
Continuous
100
AcDbLine
 10
39.48634490558615
 20
6.998363001573564
 30
0.0
 11
40.14965234067663
 21
6.611432926829268
 31
0.0
  0
LINE
  5
B8
330
1F
100
AcDbEntity
  8
Doc_ Finishes
  6
Continuous
100
AcDbLine
 10
38.76776111329661
 20
7.357654897718332
 30
0.0
 11
39.48634490558615
 21
6.998363001573564
 31
0.0
  0
LINE
  5
B9
330
1F
100
AcDbEntity
  8
Doc_ Finishes
  6
Continuous
100
AcDbLine
 10
38.18736378835562
 20
8.048600511408338
 30
0.0
 11
38.76776111329661
 21
7.357654897718332
 31
0.0
  0
LINE
  5
BA
330
1F
100
AcDbEntity
  8
Doc_ Finishes
  6
Continuous
100
AcDbLine
 10
36.9989353855232
 20
8.822460660896931
 30
0.0
 11
38.18736378835562
 21
8.048600511408338
 31
0.0
  0
LINE
  5
BB
330
1F
100
AcDbEntity
  8
Doc_ Finishes
  6
Continuous
100
AcDbLine
 10
36.47381884343037
 20
9.319939024390242
 30
0.0
 11
36.9989353855232
 21
8.822460660896931
 31
0.0
  0
LINE
  5
BC
330
1F
100
AcDbEntity
  8
Doc_ Finishes
  6
Continuous
100
AcDbLine
 10
36.22507966168371
 20
9.734507277734066
 30
0.0
 11
36.47381884343037
 21
9.319939024390242
 31
0.0
  0
LINE
  5
BD
330
1F
100
AcDbEntity
  8
Doc_ Finishes
  6
Continuous
100
AcDbLine
 10
35.17484215184894
 20
10.31490460267506
 30
0.0
 11
36.22507966168371
 21
9.734507277734066
 31
0.0
  0
LINE
  5
BE
330
1F
100
AcDbEntity
  8
Doc_ Finishes
  6
Continuous
100
AcDbLine
 10
34.73263571990559
 20
10.78474478756884
 30
0.0
 11
35.17484215184894
 21
10.31490460267506
 31
0.0
  0
LINE
  5
BF
330
1F
100
AcDbEntity
  8
Doc_ Finishes
  6
Continuous
100
AcDbLine
 10
34.23515293076317
 20
11.17167486231314
 30
0.0
 11
34.73263571990559
 21
10.78474478756884
 31
0.0
  0
LINE
  5
C0
330
1F
100
AcDbEntity
  8
Doc_ Finishes
  6
Continuous
100
AcDbLine
 10
33.48893095987412
 20
11.61388129425649
 30
0.0
 11
34.23515293076317
 21
11.17167486231314
 31
0.0
  0
LINE
  5
C1
330
1F
100
AcDbEntity
  8
Doc_ Finishes
  6
Continuous
100
AcDbLine
 10
32.85326170338316
 20
12.16663601494886
 30
0.0
 11
33.48893095987412
 21
11.61388129425649
 31
0.0
  0
LINE
  5
C2
330
1F
100
AcDbEntity
  8
Doc_ Finishes
  6
Continuous
100
AcDbLine
 10
32.35578333988985
 20
12.58120426829268
 30
0.0
 11
32.85326170338316
 21
12.16663601494886
 31
0.0
  0
LINE
  5
C3
330
1F
100
AcDbEntity
  8
Doc_ Finishes
  6
Continuous
100
AcDbLine
 10
31.69247147915027
 20
12.99577252163651
 30
0.0
 11
32.35578333988985
 21
12.58120426829268
 31
0.0
  0
LINE
  5
C4
330
1F
100
AcDbEntity
  8
Doc_ Finishes
  6
Continuous
100
AcDbLine
 10
31.22263129425649
 20
13.32742623918175
 30
0.0
 11
31.69247147915027
 21
12.99577252163651
 31
0.0
  0
LINE
  5
C5
330
1F
100
AcDbEntity
  8
Doc_ Finishes
  6
Continuous
100
AcDbLine
 10
30.72514850511408
 20
13.5761654209284
 30
0.0
 11
31.22263129425649
 21
13.32742623918175
 31
0.0
  0
LINE
  5
C6
330
1F
100
AcDbEntity
  8
Doc_ Finishes
  6
Continuous
100
AcDbLine
 10
29.93747147915028
 20
14.0644340086546
 30
0.0
 11
30.72514850511408
 21
13.5761654209284
 31
0.0
  0
LINE
  5
C7
330
1F
100
AcDbEntity
  8
Doc_ Finishes
  6
Continuous
100
AcDbLine
 10
29.43077891424075
 20
14.38687795043273
 30
0.0
 11
29.93747147915028
 21
14.0644340086546
 31
0.0
  0
LINE
  5
C8
330
1F
100
AcDbEntity
  8
Doc_ Finishes
  6
Continuous
100
AcDbLine
 10
28.92408192368214
 20
14.70931746656176
 30
0.0
 11
29.43077891424075
 21
14.38687795043273
 31
0.0
  0
LINE
  5
C9
330
1F
100
AcDbEntity
  8
Doc_ Finishes
  6
Continuous
100
AcDbLine
 10
28.62467348544453
 20
15.10085464201416
 30
0.0
 11
28.92408192368214
 21
14.70931746656176
 31
0.0
  0
LINE
  5
CA
330
1F
100
AcDbEntity
  8
Doc_ Finishes
  6
Continuous
100
AcDbLine
 10
27.95675894964595
 20
15.67664486624705
 30
0.0
 11
28.62467348544453
 21
15.10085464201416
 31
0.0
  0
LINE
  5
CB
330
1F
100
AcDbEntity
  8
Doc_ Finishes
  6
Continuous
100
AcDbLine
 10
27.47309746262785
 20
15.95302222659323
 30
0.0
 11
27.95675894964595
 21
15.67664486624705
 31
0.0
  0
LINE
  5
CC
330
1F
100
AcDbEntity
  8
Doc_ Finishes
  6
Continuous
100
AcDbLine
 10
26.82821400472069
 20
16.36759047993706
 30
0.0
 11
27.47309746262785
 21
15.95302222659323
 31
0.0
  0
LINE
  5
CD
330
1F
100
AcDbEntity
  8
Doc_ Finishes
  6
Continuous
100
AcDbLine
 10
26.50577448859166
 20
16.22939958693942
 30
0.0
 11
26.82821400472069
 21
16.36759047993706
 31
0.0
  0
LINE
  5
CE
330
1F
100
AcDbEntity
  8
Doc_ Finishes
  6
Continuous
100
AcDbLine
 10
26.06817515735641
 20
15.74573809992132
 30
0.0
 11
26.50577448859166
 21
16.22939958693942
 31
0.0
  0
LINE
  5
CF
330
1F
100
AcDbEntity
  8
Doc_ Finishes
  6
Continuous
 62
   254
370
    18
100
AcDbLine
 10
95.43333841463415
 20
5.093360051140834
 30
0.0
 11
95.43333841463415
 21
20.69901750590086
 31
0.0
  0
LINE
  5
D0
330
1F
100
AcDbEntity
  8
Doc_ Finishes
  6
Continuous
 62
   254
370
    18
100
AcDbLine
 10
5.000000983477577
 20
20.69901750590086
 30
0.0
 11
288.2406845003933
 21
20.69901750590086
 31
0.0
  0
LINE
  5
D1
330
1F
100
AcDbEntity
  8
Doc_ Finishes
  6
Continuous
 62
   254
370
    18
100
AcDbLine
 10
288.2406845003933
 20
20.69901750590086
 30
0.0
 11
288.2406845003933
 21
5.000000983477577
 31
0.0
  0
LINE
  5
D2
330
1F
100
AcDbEntity
  8
Doc_ Finishes
  6
Continuous
 62
   254
370
    18
100
AcDbLine
 10
288.2406845003933
 20
5.000000983477577
 30
0.0
 11
5.000000983477577
 21
5.000000983477577
 31
0.0
  0
LINE
  5
D3
330
1F
100
AcDbEntity
  8
Doc_ Finishes
  6
Continuous
 62
   254
370
    18
100
AcDbLine
 10
5.000000983477577
 20
20.69901750590086
 30
0.0
 11
5.000000983477577
 21
5.000000983477577
 31
0.0
  0
LINE
  5
D4
330
1F
100
AcDbEntity
  8
Doc_ Finishes
  6
Continuous
 62
   254
370
    18
100
AcDbLine
 10
188.291944826908
 20
5.093360051140834
 30
0.0
 11
188.291944826908
 21
20.69901750590086
 31
0.0
  0
LINE
  5
D5
330
1F
100
AcDbEntity
  8
Doc_ Finishes
  6
Continuous
 62
   254
370
    18
100
AcDbLine
 10
188.291944826908
 20
12.8961909913454
 30
0.0
 11
288.2406845003933
 21
12.8961909913454
 31
0.0
  0
MTEXT
  5
D7
330
1F
100
AcDbEntity
  8
0
  6
Continuous
100
AcDbMText
 10
208.3494767103412
 20
15.00228834043999
 30
0.0
 40
2.25
 41
0.0
 71
     7
 72
     1
  1
{C-TRS9-07}
  7
GENERATED_STYLE_1
 73
     1
 44
1.0
  0
MTEXT
  5
D8
330
1F
100
AcDbEntity
  8
0
  6
Continuous
100
AcDbMText
 10
208.3494767103412
 20
11.03300550383743
 30
0.0
 40
3.0
 41
0.0
 71
     1
 72
     1
  1
{APRON DETAIL - HEAD - PARAPET}
  7
GENERATED_STYLE_1
 73
     1
 44
1.0
  0
MTEXT
  5
DA
330
1F
100
AcDbEntity
  8
Doc_ Floor
  6
Continuous
100
AcDbMText
 10
27.78353726544612
 20
13.33283672870609
 30
0.0
 40
5.603347280334726
 41
0.0
 71
     1
 72
     1
  1
{The Roofing Store}
  7
GENERATED_STYLE_2
 73
     1
 44
1.0
  0
MTEXT
  5
DC
102
{ACAD_XDICTIONARY
360
430
102
}
330
1F
100
AcDbEntity
  8
0
  6
Continuous
100
AcDbMText
 10
100.7389238446655
 20
5.628836745729685
 30
0.0
 40
1.5
 41
0.0
 71
     7
 72
     1
  1
{P: HEAD OFFICE              09 277 2717\P    ALBANY             09 972 0060\P    KATIKAIT            07 549 5190\P    WELLINGTON              04 974 5792\P    CHRISTCHURCH03 348 6528}
  7
GENERATED_STYLE_1
 73
     1
 44
1.062946161486498
  0
MTEXT
  5
DD
330
1F
100
AcDbEntity
  8
0
  6
Continuous
100
AcDbMText
 10
147.4184566143587
 20
8.449084231526156
 30
0.0
 40
1.5
 41
0.0
 71
     7
 72
     1
  1
{WEB: www.theroofingstore.co.nz}
  7
GENERATED_STYLE_1
 73
     1
 44
1.0
  0
MTEXT
  5
DE
330
1F
100
AcDbEntity
  8
0
  6
Continuous
100
AcDbMText
 10
147.4184566143587
 20
5.870946023411262
 30
0.0
 40
1.5
 41
0.0
 71
     7
 72
     1
  1
{Copyright \U+00A9 The Roofing Store 2013}
  7
GENERATED_STYLE_1
 73
     1
 44
1.0
  0
MTEXT
  5
DF
330
1F
100
AcDbEntity
  8
0
  6
Continuous
100
AcDbMText
 10
271.9546684065315
 20
15.01595667428533
 30
0.0
 40
2.25
 41
0.0
 71
     7
 72
     1
  1
{1:5}
  7
GENERATED_STYLE_1
 73
     1
 44
1.0
  0
MTEXT
  5
E0
330
1F
100
AcDbEntity
  8
0
  6
Continuous
100
AcDbMText
 10
262.8396605309016
 20
15.51746459162148
 30
0.0
 40
1.5
 41
0.0
 71
     7
 72
     1
  1
{SCALE:}
  7
GENERATED_STYLE_1
 73
     1
 44
1.0
  0
MTEXT
  5
E1
330
1F
100
AcDbEntity
  8
0
  6
Continuous
100
AcDbMText
 10
189.5066235617487
 20
15.48695559872207
 30
0.0
 40
1.5
 41
0.0
 71
     7
 72
     1
  1
{DETAIL NUMBER:}
  7
GENERATED_STYLE_1
 73
     1
 44
1.0
  0
MTEXT
  5
E2
330
1F
100
AcDbEntity
  8
0
  6
Continuous
100
AcDbMText
 10
189.5066235617487
 20
9.005462392315325
 30
0.0
 40
1.5
 41
0.0
 71
     7
 72
     1
  1
{TITLE:}
  7
GENERATED_STYLE_1
 73
     1
 44
1.0
  0
INSERT
  5
3FE
102
{ACAD_XDICTIONARY
360
3FF
102
}
330
1F
100
AcDbEntity
  8
0
  6
Continuous
100
AcDbBlockReference
  2
Drawing_1_2
 10
131.9871046182792
 20
-811.5954765638904
 30
0.0
  0
ENDSEC
  0
SECTION
  2
OBJECTS
  0
DICTIONARY
  5
C
330
0
100
AcDbDictionary
281
     1
  3
ACAD_GROUP
350
D
  3
ACAD_LAYOUT
350
1A
  3
ACAD_MATERIAL
350
3B
  3
ACAD_MLEADERSTYLE
350
42B
  3
ACAD_MLINESTYLE
350
17
  3
ACAD_PLOTSETTINGS
350
19
  3
ACAD_PLOTSTYLENAME
350
E
  3
ACAD_SCALELIST
350
405
  3
ACAD_VISUALSTYLE
350
2A
  3
AcDbVariableDictionary
350
429
  3
WATERMARKS
350
427
  0
DICTIONARY
  5
430
330
DC
100
AcDbDictionary
280
     1
281
     1
  3
ACAD_MTEXT_RT
360
431
  0
DICTIONARY
  5
3FF
330
3FE
100
AcDbDictionary
280
     1
281
     1
  3
ACAD_FILTER
360
400
  0
DICTIONARY
  5
D
102
{ACAD_REACTORS
330
C
102
}
330
C
100
AcDbDictionary
281
     1
  0
DICTIONARY
  5
1A
102
{ACAD_REACTORS
330
C
102
}
330
C
100
AcDbDictionary
281
     1
  3
Layout1
350
1E
  3
Model
350
22
  0
DICTIONARY
  5
3B
102
{ACAD_REACTORS
330
C
102
}
330
C
100
AcDbDictionary
281
     1
  3
ByBlock
350
3D
  3
ByLayer
350
3C
  3
Global
350
3E
  0
DICTIONARY
  5
42B
102
{ACAD_REACTORS
330
C
102
}
330
C
100
AcDbDictionary
281
     1
  0
DICTIONARY
  5
17
102
{ACAD_REACTORS
330
C
102
}
330
C
100
AcDbDictionary
281
     1
  3
Standard
350
18
  0
DICTIONARY
  5
19
102
{ACAD_REACTORS
330
C
102
}
330
C
100
AcDbDictionary
281
     1
  0
ACDBDICTIONARYWDFLT
  5
E
102
{ACAD_REACTORS
330
C
102
}
330
C
100
AcDbDictionary
281
     1
  3
Normal
350
F
100
AcDbDictionaryWithDefault
340
F
  0
DICTIONARY
  5
405
102
{ACAD_REACTORS
330
C
102
}
330
C
100
AcDbDictionary
281
     1
  3
A0
350
406
  3
A1
350
407
  3
A2
350
408
  3
A3
350
409
  3
A4
350
40A
  3
A5
350
40B
  3
A6
350
40C
  3
A7
350
40D
  3
A8
350
40E
  3
A9
350
40F
  3
B0
350
410
  3
B1
350
411
  3
B2
350
412
  3
B3
350
413
  3
B4
350
414
  3
B5
350
415
  3
B6
350
416
  3
B7
350
417
  3
B8
350
418
  3
B9
350
419
  3
C0
350
41A
  3
C1
350
41B
  3
C2
350
41C
  3
C3
350
41D
  3
C4
350
41E
  3
C5
350
41F
  3
C6
350
420
  3
C7
350
421
  3
C8
350
422
  3
C9
350
423
  3
D0
350
424
  3
D1
350
425
  3
D2
350
426
  0
DICTIONARY
  5
2A
102
{ACAD_REACTORS
330
C
102
}
330
C
100
AcDbDictionary
281
     1
  3
2dWireframe
350
2F
  3
3D Hidden
350
31
  3
3dWireframe
350
30
  3
Basic
350
32
  3
Brighten
350
36
  3
ColorChange
350
3A
  3
Conceptual
350
34
  3
Dim
350
35
  3
Facepattern
350
39
  3
Flat
350
2B
  3
FlatWithEdges
350
2C
  3
Gouraud
350
2D
  3
GouraudWithEdges
350
2E
  3
Linepattern
350
38
  3
Realistic
350
33
  3
Thicken
350
37
  0
DICTIONARY
  5
429
102
{ACAD_REACTORS
330
C
102
}
330
C
100
AcDbDictionary
281
     1
  3
CANNOSCALE
350
42D
  3
DIMASSOC
350
42E
  3
HIDETEXT
350
42F
  3
XCLIPFRAME
350
42C
  0
DICTIONARY
  5
427
102
{ACAD_REACTORS
330
C
102
}
330
C
100
AcDbDictionary
281
     1
  3
AC_WATERMARK
350
428
  0
XRECORD
  5
431
102
{ACAD_REACTORS
330
430
102
}
330
430
100
AcDbXrecord
280
     1
 40
892718.0
  1
{P: HEAD OFFICE ^I^I09 277 2717\P    ALBANY ^I^I09 972 0060\P    KATIKAIT^I^I07 549 5190\P    WELLINGTON^I^I04 974 5792\P    CHRISTCHURCH^I03 348 6528}
  0
DICTIONARY
  5
400
102
{ACAD_REACTORS
330
3FF
102
}
330
3FF
100
AcDbDictionary
280
     1
281
     1
  3
SPATIAL
360
401
  0
LAYOUT
  5
1E
102
{ACAD_REACTORS
330
1A
102
}
330
1A
100
AcDbPlotSettings
  1

  2
none_device
  4

  6

 40
0.0
 41
0.0
 42
0.0
 43
0.0
 44
0.0
 45
0.0
 46
0.0
 47
0.0
 48
0.0
 49
0.0
140
0.0
141
0.0
142
1.0
143
1.0
 70
   688
 72
     0
 73
     0
 74
     5
  7

 75
    16
147
1.0
148
0.0
149
0.0
100
AcDbLayout
  1
Layout1
 70
     1
 71
     1
 10
0.0
 20
0.0
 11
12.0
 21
9.0
 12
0.0
 22
0.0
 32
0.0
 14
1.000000000000000E+20
 24
1.000000000000000E+20
 34
1.000000000000000E+20
 15
-1.000000000000000E+20
 25
-1.000000000000000E+20
 35
-1.000000000000000E+20
146
0.0
 13
0.0
 23
0.0
 33
0.0
 16
1.0
 26
0.0
 36
0.0
 17
0.0
 27
1.0
 37
0.0
 76
     0
330
1B
  0
LAYOUT
  5
22
102
{ACAD_REACTORS
330
1A
102
}
330
1A
100
AcDbPlotSettings
  1

  2
none_device
  4

  6

 40
0.0
 41
0.0
 42
0.0
 43
0.0
 44
0.0
 45
0.0
 46
0.0
 47
0.0
 48
0.0
 49
0.0
140
0.0
141
0.0
142
1.0
143
1.0
 70
  1712
 72
     0
 73
     0
 74
     0
  7

 75
     0
147
1.0
148
0.0
149
0.0
100
AcDbLayout
  1
Model
 70
     1
 71
     0
 10
0.0
 20
0.0
 11
12.0
 21
9.0
 12
0.0
 22
0.0
 32
0.0
 14
1.000000000000000E+20
 24
1.000000000000000E+20
 34
1.000000000000000E+20
 15
-1.000000000000000E+20
 25
-1.000000000000000E+20
 35
-1.000000000000000E+20
146
0.0
 13
0.0
 23
0.0
 33
0.0
 16
1.0
 26
0.0
 36
0.0
 17
0.0
 27
1.0
 37
0.0
 76
     0
330
1F
331
29
  0
MATERIAL
  5
3D
102
{ACAD_REACTORS
330
3B
102
}
102
{ACAD_XDICTIONARY
360
454
102
}
330
3B
100
AcDbMaterial
  1
ByBlock
  0
MATERIAL
  5
3C
102
{ACAD_REACTORS
330
3B
102
}
102
{ACAD_XDICTIONARY
360
452
102
}
330
3B
100
AcDbMaterial
  1
ByLayer
  0
MATERIAL
  5
3E
102
{ACAD_REACTORS
330
3B
102
}
102
{ACAD_XDICTIONARY
360
456
102
}
330
3B
100
AcDbMaterial
  1
Global
  0
MLINESTYLE
  5
18
102
{ACAD_REACTORS
330
17
102
}
330
17
100
AcDbMlineStyle
  2
Standard
 70
     0
  3

 62
   256
 51
90.0
 52
90.0
 71
     2
 49
0.5
 62
   256
  6
BYLAYER
 49
-0.5
 62
   256
  6
BYLAYER
  0
ACDBPLACEHOLDER
  5
F
102
{ACAD_REACTORS
330
E
102
}
330
E
  0
SCALE
  5
406
102
{ACAD_REACTORS
330
405
102
}
330
405
100
AcDbScale
 70
     0
300
1:1
140
1.0
141
1.0
290
     1
  0
SCALE
  5
407
102
{ACAD_REACTORS
330
405
102
}
330
405
100
AcDbScale
 70
     0
300
1:2
140
1.0
141
2.0
290
     0
  0
SCALE
  5
408
102
{ACAD_REACTORS
330
405
102
}
330
405
100
AcDbScale
 70
     0
300
1:4
140
1.0
141
4.0
290
     0
  0
SCALE
  5
409
102
{ACAD_REACTORS
330
405
102
}
330
405
100
AcDbScale
 70
     0
300
1:5
140
1.0
141
5.0
290
     0
  0
SCALE
  5
40A
102
{ACAD_REACTORS
330
405
102
}
330
405
100
AcDbScale
 70
     0
300
1:8
140
1.0
141
8.0
290
     0
  0
SCALE
  5
40B
102
{ACAD_REACTORS
330
405
102
}
330
405
100
AcDbScale
 70
     0
300
1:10
140
1.0
141
10.0
290
     0
  0
SCALE
  5
40C
102
{ACAD_REACTORS
330
405
102
}
330
405
100
AcDbScale
 70
     0
300
1:16
140
1.0
141
16.0
290
     0
  0
SCALE
  5
40D
102
{ACAD_REACTORS
330
405
102
}
330
405
100
AcDbScale
 70
     0
300
1:20
140
1.0
141
20.0
290
     0
  0
SCALE
  5
40E
102
{ACAD_REACTORS
330
405
102
}
330
405
100
AcDbScale
 70
     0
300
1:30
140
1.0
141
30.0
290
     0
  0
SCALE
  5
40F
102
{ACAD_REACTORS
330
405
102
}
330
405
100
AcDbScale
 70
     0
300
1:40
140
1.0
141
40.0
290
     0
  0
SCALE
  5
410
102
{ACAD_REACTORS
330
405
102
}
330
405
100
AcDbScale
 70
     0
300
1:50
140
1.0
141
50.0
290
     0
  0
SCALE
  5
411
102
{ACAD_REACTORS
330
405
102
}
330
405
100
AcDbScale
 70
     0
300
1:100
140
1.0
141
100.0
290
     0
  0
SCALE
  5
412
102
{ACAD_REACTORS
330
405
102
}
330
405
100
AcDbScale
 70
     0
300
2:1
140
2.0
141
1.0
290
     0
  0
SCALE
  5
413
102
{ACAD_REACTORS
330
405
102
}
330
405
100
AcDbScale
 70
     0
300
4:1
140
4.0
141
1.0
290
     0
  0
SCALE
  5
414
102
{ACAD_REACTORS
330
405
102
}
330
405
100
AcDbScale
 70
     0
300
8:1
140
8.0
141
1.0
290
     0
  0
SCALE
  5
415
102
{ACAD_REACTORS
330
405
102
}
330
405
100
AcDbScale
 70
     0
300
10:1
140
10.0
141
1.0
290
     0
  0
SCALE
  5
416
102
{ACAD_REACTORS
330
405
102
}
330
405
100
AcDbScale
 70
     0
300
100:1
140
100.0
141
1.0
290
     0
  0
SCALE
  5
417
102
{ACAD_REACTORS
330
405
102
}
330
405
100
AcDbScale
 70
     0
300
1/128" = 1'-0"
140
0.0078125
141
12.0
290
     0
  0
SCALE
  5
418
102
{ACAD_REACTORS
330
405
102
}
330
405
100
AcDbScale
 70
     0
300
1/64" = 1'-0"
140
0.015625
141
12.0
290
     0
  0
SCALE
  5
419
102
{ACAD_REACTORS
330
405
102
}
330
405
100
AcDbScale
 70
     0
300
1/32" = 1'-0"
140
0.03125
141
12.0
290
     0
  0
SCALE
  5
41A
102
{ACAD_REACTORS
330
405
102
}
330
405
100
AcDbScale
 70
     0
300
1/16" = 1'-0"
140
0.0625
141
12.0
290
     0
  0
SCALE
  5
41B
102
{ACAD_REACTORS
330
405
102
}
330
405
100
AcDbScale
 70
     0
300
3/32" = 1'-0"
140
0.09375
141
12.0
290
     0
  0
SCALE
  5
41C
102
{ACAD_REACTORS
330
405
102
}
330
405
100
AcDbScale
 70
     0
300
1/8" = 1'-0"
140
0.125
141
12.0
290
     0
  0
SCALE
  5
41D
102
{ACAD_REACTORS
330
405
102
}
330
405
100
AcDbScale
 70
     0
300
3/16" = 1'-0"
140
0.1875
141
12.0
290
     0
  0
SCALE
  5
41E
102
{ACAD_REACTORS
330
405
102
}
330
405
100
AcDbScale
 70
     0
300
1/4" = 1'-0"
140
0.25
141
12.0
290
     0
  0
SCALE
  5
41F
102
{ACAD_REACTORS
330
405
102
}
330
405
100
AcDbScale
 70
     0
300
3/8" = 1'-0"
140
0.375
141
12.0
290
     0
  0
SCALE
  5
420
102
{ACAD_REACTORS
330
405
102
}
330
405
100
AcDbScale
 70
     0
300
1/2" = 1'-0"
140
0.5
141
12.0
290
     0
  0
SCALE
  5
421
102
{ACAD_REACTORS
330
405
102
}
330
405
100
AcDbScale
 70
     0
300
3/4" = 1'-0"
140
0.75
141
12.0
290
     0
  0
SCALE
  5
422
102
{ACAD_REACTORS
330
405
102
}
330
405
100
AcDbScale
 70
     0
300
1" = 1'-0"
140
1.0
141
12.0
290
     0
  0
SCALE
  5
423
102
{ACAD_REACTORS
330
405
102
}
330
405
100
AcDbScale
 70
     0
300
1-1/2" = 1'-0"
140
1.5
141
12.0
290
     0
  0
SCALE
  5
424
102
{ACAD_REACTORS
330
405
102
}
330
405
100
AcDbScale
 70
     0
300
3" = 1'-0"
140
3.0
141
12.0
290
     0
  0
SCALE
  5
425
102
{ACAD_REACTORS
330
405
102
}
330
405
100
AcDbScale
 70
     0
300
6" = 1'-0"
140
6.0
141
12.0
290
     0
  0
SCALE
  5
426
102
{ACAD_REACTORS
330
405
102
}
330
405
100
AcDbScale
 70
     0
300
1'-0" = 1'-0"
140
12.0
141
12.0
290
     0
  0
VISUALSTYLE
  5
2F
102
{ACAD_REACTORS
330
2A
102
}
102
{ACAD_XDICTIONARY
360
43A
102
}
330
2A
100
AcDbVisualStyle
  2
2dWireframe
 70
     4
 71
     0
 72
     2
 73
     0
 90
        0
 40
-0.6
 41
-30.0
 62
     5
 63
     7
 74
     1
 91
        4
 64
     7
 65
   257
 75
     1
175
     1
 42
1.0
 92
        0
 66
   257
 43
1.0
 76
     1
 77
     6
 78
     2
 67
     7
 79
     5
170
     0
171
     0
290
     0
174
     0
 93
        1
 44
0.0
173
     0
291
     0
 45
0.0
1001
ACAD
1000
AcDbSavedByObjectVersion
1070
     0
  0
VISUALSTYLE
  5
31
102
{ACAD_REACTORS
330
2A
102
}
102
{ACAD_XDICTIONARY
360
43E
102
}
330
2A
100
AcDbVisualStyle
  2
3D Hidden
 70
     6
 71
     1
 72
     2
 73
     2
 90
        0
 40
-0.6
 41
-30.0
 62
     5
 63
     7
 74
     2
 91
        2
 64
     7
 65
   257
 75
     2
175
     1
 42
40.0
 92
        0
 66
   257
 43
1.0
 76
     1
 77
     6
 78
     2
 67
     7
 79
     3
170
     0
171
     0
290
     0
174
     0
 93
        1
 44
0.0
173
     0
291
     0
 45
0.0
1001
ACAD
1000
AcDbSavedByObjectVersion
1070
     0
  0
VISUALSTYLE
  5
30
102
{ACAD_REACTORS
330
2A
102
}
102
{ACAD_XDICTIONARY
360
43C
102
}
330
2A
100
AcDbVisualStyle
  2
3dWireframe
 70
     5
 71
     0
 72
     2
 73
     0
 90
        0
 40
-0.6
 41
-30.0
 62
     5
 63
     7
 74
     1
 91
        4
 64
     7
 65
   257
 75
     1
175
     1
 42
1.0
 92
        0
 66
   257
 43
1.0
 76
     1
 77
     6
 78
     2
 67
     7
 79
     5
170
     0
171
     0
290
     0
174
     0
 93
        1
 44
0.0
173
     0
291
     0
 45
0.0
1001
ACAD
1000
AcDbSavedByObjectVersion
1070
     0
  0
VISUALSTYLE
  5
32
102
{ACAD_REACTORS
330
2A
102
}
102
{ACAD_XDICTIONARY
360
440
102
}
330
2A
100
AcDbVisualStyle
  2
Basic
 70
     7
 71
     1
 72
     0
 73
     1
 90
        0
 40
-0.6
 41
-30.0
 62
     5
 63
     7
 74
     0
 91
        4
 64
     7
 65
   257
 75
     1
175
     1
 42
1.0
 92
        8
 66
     7
 43
1.0
 76
     1
 77
     6
 78
     2
 67
     7
 79
     5
170
     0
171
     0
290
     0
174
     0
 93
        1
 44
0.0
173
     0
291
     1
 45
0.0
1001
ACAD
1000
AcDbSavedByObjectVersion
1070
     0
  0
VISUALSTYLE
  5
36
102
{ACAD_REACTORS
330
2A
102
}
102
{ACAD_XDICTIONARY
360
448
102
}
330
2A
100
AcDbVisualStyle
  2
Brighten
 70
    12
 71
     2
 72
     2
 73
     0
 90
        0
 40
-0.6
 41
-30.0
 62
     5
 63
     7
 74
     1
 91
        4
 64
     7
 65
   257
 75
     1
175
     1
 42
1.0
 92
        8
 66
     7
 43
1.0
 76
     1
 77
     6
 78
     2
 67
     7
 79
     5
170
     0
171
     0
290
     0
174
     0
 93
        1
 44
50.0
173
     0
291
     1
 45
0.0
1001
ACAD
1000
AcDbSavedByObjectVersion
1070
     0
  0
VISUALSTYLE
  5
3A
102
{ACAD_REACTORS
330
2A
102
}
102
{ACAD_XDICTIONARY
360
450
102
}
330
2A
100
AcDbVisualStyle
  2
ColorChange
 70
    16
 71
     2
 72
     2
 73
     3
 90
        0
 40
-0.6
 41
-30.0
 62
     5
 63
     8
 74
     1
 91
        4
 64
     7
 65
   257
 75
     1
175
     1
 42
1.0
 92
        8
 66
     8
 43
1.0
 76
     1
 77
     6
 78
     2
 67
     7
 79
     5
170
     0
171
     0
290
     0
174
     0
 93
        1
 44
0.0
173
     0
291
     1
 45
0.0
1001
ACAD
1000
AcDbSavedByObjectVersion
1070
     0
  0
VISUALSTYLE
  5
34
102
{ACAD_REACTORS
330
2A
102
}
102
{ACAD_XDICTIONARY
360
444
102
}
330
2A
100
AcDbVisualStyle
  2
Conceptual
 70
     9
 71
     3
 72
     2
 73
     0
 90
        0
 40
-0.6
 41
-30.0
 62
     5
 63
     7
 74
     2
 91
        2
 64
     7
 65
   257
 75
     1
175
     1
 42
40.0
 92
        8
 66
     7
 43
1.0
 76
     1
 77
     6
 78
     2
 67
     7
 79
     3
170
     0
171
     0
290
     0
174
     0
 93
        1
 44
0.0
173
     0
291
     0
 45
0.0
1001
ACAD
1000
AcDbSavedByObjectVersion
1070
     0
  0
VISUALSTYLE
  5
35
102
{ACAD_REACTORS
330
2A
102
}
102
{ACAD_XDICTIONARY
360
446
102
}
330
2A
100
AcDbVisualStyle
  2
Dim
 70
    11
 71
     2
 72
     2
 73
     0
 90
        0
 40
-0.6
 41
-30.0
 62
     5
 63
     7
 74
     1
 91
        4
 64
     7
 65
   257
 75
     1
175
     1
 42
1.0
 92
        8
 66
     7
 43
1.0
 76
     1
 77
     6
 78
     2
 67
     7
 79
     5
170
     0
171
     0
290
     0
174
     0
 93
        1
 44
-50.0
173
     0
291
     1
 45
0.0
1001
ACAD
1000
AcDbSavedByObjectVersion
1070
     0
  0
VISUALSTYLE
  5
39
102
{ACAD_REACTORS
330
2A
102
}
102
{ACAD_XDICTIONARY
360
44E
102
}
330
2A
100
AcDbVisualStyle
  2
Facepattern
 70
    15
 71
     2
 72
     2
 73
     0
 90
        0
 40
-0.6
 41
-30.0
 62
     5
 63
     7
 74
     1
 91
        4
 64
     7
 65
   257
 75
     1
175
     1
 42
1.0
 92
        8
 66
     7
 43
1.0
 76
     1
 77
     6
 78
     2
 67
     7
 79
     5
170
     0
171
     0
290
     0
174
     0
 93
        1
 44
0.0
173
     0
291
     1
 45
0.0
1001
ACAD
1000
AcDbSavedByObjectVersion
1070
     0
  0
VISUALSTYLE
  5
2B
102
{ACAD_REACTORS
330
2A
102
}
102
{ACAD_XDICTIONARY
360
432
102
}
330
2A
100
AcDbVisualStyle
  2
Flat
 70
     0
 71
     2
 72
     1
 73
     1
 90
        2
 40
-0.6
 41
30.0
 62
     5
 63
     7
 74
     0
 91
        4
 64
     7
 65
   257
 75
     1
175
     1
 42
1.0
 92
        8
 66
     7
 43
1.0
 76
     1
 77
     6
 78
     2
 67
     7
 79
     5
170
     0
171
     0
290
     0
174
     0
 93
       13
 44
0.0
173
     0
291
     1
 45
0.0
1001
ACAD
1000
AcDbSavedByObjectVersion
1070
     0
  0
VISUALSTYLE
  5
2C
102
{ACAD_REACTORS
330
2A
102
}
102
{ACAD_XDICTIONARY
360
434
102
}
330
2A
100
AcDbVisualStyle
  2
FlatWithEdges
 70
     1
 71
     2
 72
     1
 73
     1
 90
        2
 40
-0.6
 41
30.0
 62
     5
 63
     7
 74
     1
 91
        4
 64
     7
 65
   257
 75
     1
175
     1
 42
1.0
 92
        0
 66
   257
 43
1.0
 76
     1
 77
     6
 78
     2
 67
     7
 79
     5
170
     0
171
     0
290
     0
174
     0
 93
       13
 44
0.0
173
     0
291
     1
 45
0.0
1001
ACAD
1000
AcDbSavedByObjectVersion
1070
     0
  0
VISUALSTYLE
  5
2D
102
{ACAD_REACTORS
330
2A
102
}
102
{ACAD_XDICTIONARY
360
436
102
}
330
2A
100
AcDbVisualStyle
  2
Gouraud
 70
     2
 71
     2
 72
     2
 73
     1
 90
        2
 40
-0.6
 41
30.0
 62
     5
 63
     7
 74
     0
 91
        4
 64
     7
 65
   257
 75
     1
175
     1
 42
1.0
 92
        0
 66
     7
 43
1.0
 76
     1
 77
     6
 78
     2
 67
     7
 79
     5
170
     0
171
     0
290
     0
174
     0
 93
       13
 44
0.0
173
     0
291
     1
 45
0.0
1001
ACAD
1000
AcDbSavedByObjectVersion
1070
     0
  0
VISUALSTYLE
  5
2E
102
{ACAD_REACTORS
330
2A
102
}
102
{ACAD_XDICTIONARY
360
438
102
}
330
2A
100
AcDbVisualStyle
  2
GouraudWithEdges
 70
     3
 71
     2
 72
     2
 73
     1
 90
        2
 40
-0.6
 41
30.0
 62
     5
 63
     7
 74
     1
 91
        4
 64
     7
 65
   257
 75
     1
175
     1
 42
1.0
 92
        0
 66
   257
 43
1.0
 76
     1
 77
     6
 78
     2
 67
     7
 79
     5
170
     0
171
     0
290
     0
174
     0
 93
       13
 44
0.0
173
     0
291
     1
 45
0.0
1001
ACAD
1000
AcDbSavedByObjectVersion
1070
     0
  0
VISUALSTYLE
  5
38
102
{ACAD_REACTORS
330
2A
102
}
102
{ACAD_XDICTIONARY
360
44C
102
}
330
2A
100
AcDbVisualStyle
  2
Linepattern
 70
    14
 71
     2
 72
     2
 73
     0
 90
        0
 40
-0.6
 41
-30.0
 62
     5
 63
     7
 74
     1
 91
        4
 64
     7
 65
   257
 75
     7
175
     7
 42
1.0
 92
        8
 66
     7
 43
1.0
 76
     1
 77
     6
 78
     2
 67
     7
 79
     5
170
     0
171
     0
290
     0
174
     0
 93
        1
 44
0.0
173
     0
291
     1
 45
0.0
1001
ACAD
1000
AcDbSavedByObjectVersion
1070
     0
  0
VISUALSTYLE
  5
33
102
{ACAD_REACTORS
330
2A
102
}
102
{ACAD_XDICTIONARY
360
442
102
}
330
2A
100
AcDbVisualStyle
  2
Realistic
 70
     8
 71
     2
 72
     2
 73
     0
 90
        0
 40
-0.6
 41
-30.0
 62
     5
 63
     7
 74
     1
 91
        0
 64
     7
 65
   257
 75
     1
175
     1
 42
1.0
 92
        8
 66
     8
 43
1.0
 76
     1
 77
     6
 78
     2
 67
     7
 79
     5
170
     0
171
     0
290
     0
174
     0
 93
       13
 44
0.0
173
     0
291
     0
 45
0.0
1001
ACAD
1000
AcDbSavedByObjectVersion
1070
     0
  0
VISUALSTYLE
  5
37
102
{ACAD_REACTORS
330
2A
102
}
102
{ACAD_XDICTIONARY
360
44A
102
}
330
2A
100
AcDbVisualStyle
  2
Thicken
 70
    13
 71
     2
 72
     2
 73
     0
 90
        0
 40
-0.6
 41
-30.0
 62
     5
 63
     7
 74
     1
 91
        4
 64
     7
 65
   257
 75
     1
175
     1
 42
1.0
 92
       12
 66
     7
 43
1.0
 76
     1
 77
     6
 78
     2
 67
     7
 79
     5
170
     0
171
     0
290
     0
174
     0
 93
        1
 44
0.0
173
     0
291
     1
 45
0.0
1001
ACAD
1000
AcDbSavedByObjectVersion
1070
     0
  0
DICTIONARYVAR
  5
42D
102
{ACAD_REACTORS
330
429
102
}
330
429
100
DictionaryVariables
280
     0
  1
1:1
  0
DICTIONARYVAR
  5
42E
102
{ACAD_REACTORS
330
429
102
}
330
429
100
DictionaryVariables
280
     0
  1
2
  0
DICTIONARYVAR
  5
42F
102
{ACAD_REACTORS
330
429
102
}
330
429
100
DictionaryVariables
280
     0
  1
1
  0
DICTIONARYVAR
  5
42C
102
{ACAD_REACTORS
330
429
102
}
330
429
100
DictionaryVariables
280
     0
  1
0
  0
XRECORD
  5
428
102
{ACAD_REACTORS
330
427
102
}
330
427
100
AcDbXrecord
280
     1
1000
This DWG file was created in ArchiCAD(TM)®
  0
SPATIAL_FILTER
  5
401
102
{ACAD_REACTORS
330
400
102
}
330
400
100
AcDbFilter
100
AcDbSpatialFilter
 70
     4
 10
5.000000000000001
 20
22.48128001420348
 10
291.2174316960411
 20
22.48128001420348
 10
291.2174316960411
 20
204.1755847715476
 10
5.000000000000001
 20
204.1755847715476
210
0.0
220
0.0
230
1.0
 11
0.0
 21
0.0
 31
0.0
 71
     1
 72
     0
 73
     0
 40
1.0
 40
0.0
 40
0.0
 40
0.0
 40
0.0
 40
1.0
 40
0.0
 40
0.0
 40
0.0
 40
0.0
 40
1.0
 40
0.0
 40
1.0
 40
0.0
 40
0.0
 40
0.0
 40
0.0
 40
1.0
 40
0.0
 40
0.0
 40
0.0
 40
0.0
 40
1.0
 40
0.0
  0
DICTIONARY
  5
454
330
3D
100
AcDbDictionary
280
     1
281
     1
  3
ACAD_XREC_ROUNDTRIP
360
455
  0
DICTIONARY
  5
452
330
3C
100
AcDbDictionary
280
     1
281
     1
  3
ACAD_XREC_ROUNDTRIP
360
453
  0
DICTIONARY
  5
456
330
3E
100
AcDbDictionary
280
     1
281
     1
  3
ACAD_XREC_ROUNDTRIP
360
457
  0
DICTIONARY
  5
43A
330
2F
100
AcDbDictionary
280
     1
281
     1
  3
ACAD_XREC_ROUNDTRIP
360
43B
  0
DICTIONARY
  5
43E
330
31
100
AcDbDictionary
280
     1
281
     1
  3
ACAD_XREC_ROUNDTRIP
360
43F
  0
DICTIONARY
  5
43C
330
30
100
AcDbDictionary
280
     1
281
     1
  3
ACAD_XREC_ROUNDTRIP
360
43D
  0
DICTIONARY
  5
440
330
32
100
AcDbDictionary
280
     1
281
     1
  3
ACAD_XREC_ROUNDTRIP
360
441
  0
DICTIONARY
  5
448
330
36
100
AcDbDictionary
280
     1
281
     1
  3
ACAD_XREC_ROUNDTRIP
360
449
  0
DICTIONARY
  5
450
330
3A
100
AcDbDictionary
280
     1
281
     1
  3
ACAD_XREC_ROUNDTRIP
360
451
  0
DICTIONARY
  5
444
330
34
100
AcDbDictionary
280
     1
281
     1
  3
ACAD_XREC_ROUNDTRIP
360
445
  0
DICTIONARY
  5
446
330
35
100
AcDbDictionary
280
     1
281
     1
  3
ACAD_XREC_ROUNDTRIP
360
447
  0
DICTIONARY
  5
44E
330
39
100
AcDbDictionary
280
     1
281
     1
  3
ACAD_XREC_ROUNDTRIP
360
44F
  0
DICTIONARY
  5
432
330
2B
100
AcDbDictionary
280
     1
281
     1
  3
ACAD_XREC_ROUNDTRIP
360
433
  0
DICTIONARY
  5
434
330
2C
100
AcDbDictionary
280
     1
281
     1
  3
ACAD_XREC_ROUNDTRIP
360
435
  0
DICTIONARY
  5
436
330
2D
100
AcDbDictionary
280
     1
281
     1
  3
ACAD_XREC_ROUNDTRIP
360
437
  0
DICTIONARY
  5
438
330
2E
100
AcDbDictionary
280
     1
281
     1
  3
ACAD_XREC_ROUNDTRIP
360
439
  0
DICTIONARY
  5
44C
330
38
100
AcDbDictionary
280
     1
281
     1
  3
ACAD_XREC_ROUNDTRIP
360
44D
  0
DICTIONARY
  5
442
330
33
100
AcDbDictionary
280
     1
281
     1
  3
ACAD_XREC_ROUNDTRIP
360
443
  0
DICTIONARY
  5
44A
330
37
100
AcDbDictionary
280
     1
281
     1
  3
ACAD_XREC_ROUNDTRIP
360
44B
  0
XRECORD
  5
455
102
{ACAD_REACTORS
330
454
102
}
330
454
100
AcDbXrecord
280
     1
102
MATERIAL
148
0.0
149
0.0
149
0.0
 93
        0
 94
      127
282
     0
 72
     1
 77
     1
171
     1
175
     1
179
     1
273
     0
  0
XRECORD
  5
453
102
{ACAD_REACTORS
330
452
102
}
330
452
100
AcDbXrecord
280
     1
102
MATERIAL
148
0.0
149
0.0
149
0.0
 93
        0
 94
      127
282
     0
 72
     1
 77
     1
171
     1
175
     1
179
     1
273
     0
  0
XRECORD
  5
457
102
{ACAD_REACTORS
330
456
102
}
330
456
100
AcDbXrecord
280
     1
102
MATERIAL
148
0.0
149
0.0
149
0.0
 93
        0
 94
      127
282
     0
 72
     1
 77
     1
171
     1
175
     1
179
     1
273
     0
  0
XRECORD
  5
43B
102
{ACAD_REACTORS
330
43A
102
}
330
43A
100
AcDbXrecord
280
     1
102
RTVSPropertyOp0
 70
     1
102
RTVSPropertyOp1
 70
     1
102
RTVSPropertyOp2
 70
     1
102
RTVSPropertyOp3
 70
     1
102
RTVSPropertyOp4
 70
     1
102
RTVSPropertyOp5
 70
     1
102
RTVSPropertyOp6
 70
     1
102
RTVSPropertyOp7
 70
     1
102
RTVSPropertyOp8
 70
     1
102
RTVSPropertyOp9
 70
     1
102
RTVSPropertyOp10
 70
     1
102
RTVSPropertyOp11
 70
     1
102
RTVSPropertyOp12
 70
     1
102
RTVSPropertyOp13
 70
     1
102
RTVSPropertyOp14
 70
     1
102
RTVSPropertyOp15
 70
     1
102
RTVSPropertyOp16
 70
     1
102
RTVSPropertyOp17
 70
     1
102
RTVSPropertyOp18
 70
     1
102
RTVSPropertyOp19
 70
     1
102
RTVSPropertyOp20
 70
     1
102
RTVSPropertyOp21
 70
     1
102
RTVSPropertyOp22
 70
     1
102
RTVSPropertyOp23
 70
     1
102
RTVSPropertyOp24
 70
     1
102
RTVSPropertyOp25
 70
     1
102
RTVSPropertyOp26
 70
     1
102
RTVSPropertyOp27
 70
     1
102
RTVSPropertyOp28
 70
     1
102
RTVSPropertyOp29
 70
     1
102
RTVSPropertyOp30
 70
     1
102
RTVSPropertyOp31
 70
     1
102
RTVSPropertyOp32
 70
     1
  0
XRECORD
  5
43F
102
{ACAD_REACTORS
330
43E
102
}
330
43E
100
AcDbXrecord
280
     1
102
RTVSPropertyOp0
 70
     1
102
RTVSPropertyOp1
 70
     1
102
RTVSPropertyOp2
 70
     1
102
RTVSPropertyOp3
 70
     1
102
RTVSPropertyOp4
 70
     1
102
RTVSPropertyOp5
 70
     1
102
RTVSPropertyOp6
 70
     1
102
RTVSPropertyOp7
 70
     1
102
RTVSPropertyOp8
 70
     1
102
RTVSPropertyOp9
 70
     1
102
RTVSPropertyOp10
 70
     1
102
RTVSPropertyOp11
 70
     1
102
RTVSPropertyOp12
 70
     1
102
RTVSPropertyOp13
 70
     1
102
RTVSPropertyOp14
 70
     1
102
RTVSPropertyOp15
 70
     1
102
RTVSPropertyOp16
 70
     1
102
RTVSPropertyOp17
 70
     1
102
RTVSPropertyOp18
 70
     1
102
RTVSPropertyOp19
 70
     1
102
RTVSPropertyOp20
 70
     1
102
RTVSPropertyOp21
 70
     1
102
RTVSPropertyOp22
 70
     1
102
RTVSPropertyOp23
 70
     1
102
RTVSPropertyOp24
 70
     1
102
RTVSPropertyOp25
 70
     1
102
RTVSPropertyOp26
 70
     1
102
RTVSPropertyOp27
 70
     1
102
RTVSPropertyOp28
 70
     1
102
RTVSPropertyOp29
 70
     1
102
RTVSPropertyOp30
 70
     1
102
RTVSPropertyOp31
 70
     1
102
RTVSPropertyOp32
 70
     1
  0
XRECORD
  5
43D
102
{ACAD_REACTORS
330
43C
102
}
330
43C
100
AcDbXrecord
280
     1
102
RTVSPropertyOp0
 70
     1
102
RTVSPropertyOp1
 70
     1
102
RTVSPropertyOp2
 70
     1
102
RTVSPropertyOp3
 70
     1
102
RTVSPropertyOp4
 70
     1
102
RTVSPropertyOp5
 70
     1
102
RTVSPropertyOp6
 70
     1
102
RTVSPropertyOp7
 70
     1
102
RTVSPropertyOp8
 70
     1
102
RTVSPropertyOp9
 70
     1
102
RTVSPropertyOp10
 70
     1
102
RTVSPropertyOp11
 70
     1
102
RTVSPropertyOp12
 70
     1
102
RTVSPropertyOp13
 70
     1
102
RTVSPropertyOp14
 70
     1
102
RTVSPropertyOp15
 70
     1
102
RTVSPropertyOp16
 70
     1
102
RTVSPropertyOp17
 70
     1
102
RTVSPropertyOp18
 70
     1
102
RTVSPropertyOp19
 70
     1
102
RTVSPropertyOp20
 70
     1
102
RTVSPropertyOp21
 70
     1
102
RTVSPropertyOp22
 70
     1
102
RTVSPropertyOp23
 70
     1
102
RTVSPropertyOp24
 70
     1
102
RTVSPropertyOp25
 70
     1
102
RTVSPropertyOp26
 70
     1
102
RTVSPropertyOp27
 70
     1
102
RTVSPropertyOp28
 70
     1
102
RTVSPropertyOp29
 70
     1
102
RTVSPropertyOp30
 70
     1
102
RTVSPropertyOp31
 70
     1
102
RTVSPropertyOp32
 70
     1
  0
XRECORD
  5
441
102
{ACAD_REACTORS
330
440
102
}
330
440
100
AcDbXrecord
280
     1
102
RTVSPropertyOp0
 70
     1
102
RTVSPropertyOp1
 70
     1
102
RTVSPropertyOp2
 70
     1
102
RTVSPropertyOp3
 70
     1
102
RTVSPropertyOp4
 70
     1
102
RTVSPropertyOp5
 70
     1
102
RTVSPropertyOp6
 70
     1
102
RTVSPropertyOp7
 70
     1
102
RTVSPropertyOp8
 70
     1
102
RTVSPropertyOp9
 70
     1
102
RTVSPropertyOp10
 70
     1
102
RTVSPropertyOp11
 70
     1
102
RTVSPropertyOp12
 70
     1
102
RTVSPropertyOp13
 70
     1
102
RTVSPropertyOp14
 70
     1
102
RTVSPropertyOp15
 70
     1
102
RTVSPropertyOp16
 70
     1
102
RTVSPropertyOp17
 70
     1
102
RTVSPropertyOp18
 70
     1
102
RTVSPropertyOp19
 70
     1
102
RTVSPropertyOp20
 70
     1
102
RTVSPropertyOp21
 70
     1
102
RTVSPropertyOp22
 70
     1
102
RTVSPropertyOp23
 70
     1
102
RTVSPropertyOp24
 70
     1
102
RTVSPropertyOp25
 70
     1
102
RTVSPropertyOp26
 70
     1
102
RTVSPropertyOp27
 70
     1
102
RTVSPropertyOp28
 70
     1
102
RTVSPropertyOp29
 70
     1
102
RTVSPropertyOp30
 70
     1
102
RTVSPropertyOp31
 70
     1
102
RTVSPropertyOp32
 70
     1
  0
XRECORD
  5
449
102
{ACAD_REACTORS
330
448
102
}
330
448
100
AcDbXrecord
280
     1
102
RTVSPropertyOp0
 70
     1
102
RTVSPropertyOp1
 70
     1
102
RTVSPropertyOp2
 70
     1
102
RTVSPropertyOp3
 70
     1
102
RTVSPropertyOp4
 70
     1
102
RTVSPropertyOp5
 70
     1
102
RTVSPropertyOp6
 70
     1
102
RTVSPropertyOp7
 70
     1
102
RTVSPropertyOp8
 70
     1
102
RTVSPropertyOp9
 70
     1
102
RTVSPropertyOp10
 70
     1
102
RTVSPropertyOp11
 70
     1
102
RTVSPropertyOp12
 70
     1
102
RTVSPropertyOp13
 70
     1
102
RTVSPropertyOp14
 70
     1
102
RTVSPropertyOp15
 70
     1
102
RTVSPropertyOp16
 70
     1
102
RTVSPropertyOp17
 70
     1
102
RTVSPropertyOp18
 70
     1
102
RTVSPropertyOp19
 70
     1
102
RTVSPropertyOp20
 70
     1
102
RTVSPropertyOp21
 70
     1
102
RTVSPropertyOp22
 70
     1
102
RTVSPropertyOp23
 70
     1
102
RTVSPropertyOp24
 70
     1
102
RTVSPropertyOp25
 70
     1
102
RTVSPropertyOp26
 70
     1
102
RTVSPropertyOp27
 70
     1
102
RTVSPropertyOp28
 70
     1
102
RTVSPropertyOp29
 70
     1
102
RTVSPropertyOp30
 70
     1
102
RTVSPropertyOp31
 70
     1
102
RTVSPropertyOp32
 70
     1
  0
XRECORD
  5
451
102
{ACAD_REACTORS
330
450
102
}
330
450
100
AcDbXrecord
280
     1
102
RTVSPropertyOp0
 70
     1
102
RTVSPropertyOp1
 70
     1
102
RTVSPropertyOp2
 70
     1
102
RTVSPropertyOp3
 70
     1
102
RTVSPropertyOp4
 70
     1
102
RTVSPropertyOp5
 70
     1
102
RTVSPropertyOp6
 70
     1
102
RTVSPropertyOp7
 70
     1
102
RTVSPropertyOp8
 70
     1
102
RTVSPropertyOp9
 70
     1
102
RTVSPropertyOp10
 70
     1
102
RTVSPropertyOp11
 70
     1
102
RTVSPropertyOp12
 70
     1
102
RTVSPropertyOp13
 70
     1
102
RTVSPropertyOp14
 70
     1
102
RTVSPropertyOp15
 70
     1
102
RTVSPropertyOp16
 70
     1
102
RTVSPropertyOp17
 70
     1
102
RTVSPropertyOp18
 70
     1
102
RTVSPropertyOp19
 70
     1
102
RTVSPropertyOp20
 70
     1
102
RTVSPropertyOp21
 70
     1
102
RTVSPropertyOp22
 70
     1
102
RTVSPropertyOp23
 70
     1
102
RTVSPropertyOp24
 70
     1
102
RTVSPropertyOp25
 70
     1
102
RTVSPropertyOp26
 70
     1
102
RTVSPropertyOp27
 70
     1
102
RTVSPropertyOp28
 70
     1
102
RTVSPropertyOp29
 70
     1
102
RTVSPropertyOp30
 70
     1
102
RTVSPropertyOp31
 70
     1
102
RTVSPropertyOp32
 70
     1
  0
XRECORD
  5
445
102
{ACAD_REACTORS
330
444
102
}
330
444
100
AcDbXrecord
280
     1
102
RTVSPropertyOp0
 70
     1
102
RTVSPropertyOp1
 70
     1
102
RTVSPropertyOp2
 70
     1
102
RTVSPropertyOp3
 70
     1
102
RTVSPropertyOp4
 70
     1
102
RTVSPropertyOp5
 70
     1
102
RTVSPropertyOp6
 70
     1
102
RTVSPropertyOp7
 70
     1
102
RTVSPropertyOp8
 70
     1
102
RTVSPropertyOp9
 70
     1
102
RTVSPropertyOp10
 70
     1
102
RTVSPropertyOp11
 70
     1
102
RTVSPropertyOp12
 70
     1
102
RTVSPropertyOp13
 70
     1
102
RTVSPropertyOp14
 70
     1
102
RTVSPropertyOp15
 70
     1
102
RTVSPropertyOp16
 70
     1
102
RTVSPropertyOp17
 70
     1
102
RTVSPropertyOp18
 70
     1
102
RTVSPropertyOp19
 70
     1
102
RTVSPropertyOp20
 70
     1
102
RTVSPropertyOp21
 70
     1
102
RTVSPropertyOp22
 70
     1
102
RTVSPropertyOp23
 70
     1
102
RTVSPropertyOp24
 70
     1
102
RTVSPropertyOp25
 70
     1
102
RTVSPropertyOp26
 70
     1
102
RTVSPropertyOp27
 70
     1
102
RTVSPropertyOp28
 70
     1
102
RTVSPropertyOp29
 70
     1
102
RTVSPropertyOp30
 70
     1
102
RTVSPropertyOp31
 70
     1
102
RTVSPropertyOp32
 70
     1
  0
XRECORD
  5
447
102
{ACAD_REACTORS
330
446
102
}
330
446
100
AcDbXrecord
280
     1
102
RTVSPropertyOp0
 70
     1
102
RTVSPropertyOp1
 70
     1
102
RTVSPropertyOp2
 70
     1
102
RTVSPropertyOp3
 70
     1
102
RTVSPropertyOp4
 70
     1
102
RTVSPropertyOp5
 70
     1
102
RTVSPropertyOp6
 70
     1
102
RTVSPropertyOp7
 70
     1
102
RTVSPropertyOp8
 70
     1
102
RTVSPropertyOp9
 70
     1
102
RTVSPropertyOp10
 70
     1
102
RTVSPropertyOp11
 70
     1
102
RTVSPropertyOp12
 70
     1
102
RTVSPropertyOp13
 70
     1
102
RTVSPropertyOp14
 70
     1
102
RTVSPropertyOp15
 70
     1
102
RTVSPropertyOp16
 70
     1
102
RTVSPropertyOp17
 70
     1
102
RTVSPropertyOp18
 70
     1
102
RTVSPropertyOp19
 70
     1
102
RTVSPropertyOp20
 70
     1
102
RTVSPropertyOp21
 70
     1
102
RTVSPropertyOp22
 70
     1
102
RTVSPropertyOp23
 70
     1
102
RTVSPropertyOp24
 70
     1
102
RTVSPropertyOp25
 70
     1
102
RTVSPropertyOp26
 70
     1
102
RTVSPropertyOp27
 70
     1
102
RTVSPropertyOp28
 70
     1
102
RTVSPropertyOp29
 70
     1
102
RTVSPropertyOp30
 70
     1
102
RTVSPropertyOp31
 70
     1
102
RTVSPropertyOp32
 70
     1
  0
XRECORD
  5
44F
102
{ACAD_REACTORS
330
44E
102
}
330
44E
100
AcDbXrecord
280
     1
102
RTVSPropertyOp0
 70
     1
102
RTVSPropertyOp1
 70
     1
102
RTVSPropertyOp2
 70
     1
102
RTVSPropertyOp3
 70
     1
102
RTVSPropertyOp4
 70
     1
102
RTVSPropertyOp5
 70
     1
102
RTVSPropertyOp6
 70
     1
102
RTVSPropertyOp7
 70
     1
102
RTVSPropertyOp8
 70
     1
102
RTVSPropertyOp9
 70
     1
102
RTVSPropertyOp10
 70
     1
102
RTVSPropertyOp11
 70
     1
102
RTVSPropertyOp12
 70
     1
102
RTVSPropertyOp13
 70
     1
102
RTVSPropertyOp14
 70
     1
102
RTVSPropertyOp15
 70
     1
102
RTVSPropertyOp16
 70
     1
102
RTVSPropertyOp17
 70
     1
102
RTVSPropertyOp18
 70
     1
102
RTVSPropertyOp19
 70
     1
102
RTVSPropertyOp20
 70
     1
102
RTVSPropertyOp21
 70
     1
102
RTVSPropertyOp22
 70
     1
102
RTVSPropertyOp23
 70
     1
102
RTVSPropertyOp24
 70
     1
102
RTVSPropertyOp25
 70
     1
102
RTVSPropertyOp26
 70
     1
102
RTVSPropertyOp27
 70
     1
102
RTVSPropertyOp28
 70
     1
102
RTVSPropertyOp29
 70
     1
102
RTVSPropertyOp30
 70
     1
102
RTVSPropertyOp31
 70
     1
102
RTVSPropertyOp32
 70
     1
  0
XRECORD
  5
433
102
{ACAD_REACTORS
330
432
102
}
330
432
100
AcDbXrecord
280
     1
102
RTVSPropertyOp0
 70
     1
102
RTVSPropertyOp1
 70
     1
102
RTVSPropertyOp2
 70
     1
102
RTVSPropertyOp3
 70
     1
102
RTVSPropertyOp4
 70
     1
102
RTVSPropertyOp5
 70
     1
102
RTVSPropertyOp6
 70
     1
102
RTVSPropertyOp7
 70
     1
102
RTVSPropertyOp8
 70
     1
102
RTVSPropertyOp9
 70
     1
102
RTVSPropertyOp10
 70
     1
102
RTVSPropertyOp11
 70
     1
102
RTVSPropertyOp12
 70
     1
102
RTVSPropertyOp13
 70
     1
102
RTVSPropertyOp14
 70
     1
102
RTVSPropertyOp15
 70
     1
102
RTVSPropertyOp16
 70
     1
102
RTVSPropertyOp17
 70
     1
102
RTVSPropertyOp18
 70
     1
102
RTVSPropertyOp19
 70
     1
102
RTVSPropertyOp20
 70
     1
102
RTVSPropertyOp21
 70
     1
102
RTVSPropertyOp22
 70
     1
102
RTVSPropertyOp23
 70
     1
102
RTVSPropertyOp24
 70
     1
102
RTVSPropertyOp25
 70
     1
102
RTVSPropertyOp26
 70
     1
102
RTVSPropertyOp27
 70
     1
102
RTVSPropertyOp28
 70
     1
102
RTVSPropertyOp29
 70
     1
102
RTVSPropertyOp30
 70
     1
102
RTVSPropertyOp31
 70
     1
102
RTVSPropertyOp32
 70
     1
  0
XRECORD
  5
435
102
{ACAD_REACTORS
330
434
102
}
330
434
100
AcDbXrecord
280
     1
102
RTVSPropertyOp0
 70
     1
102
RTVSPropertyOp1
 70
     1
102
RTVSPropertyOp2
 70
     1
102
RTVSPropertyOp3
 70
     1
102
RTVSPropertyOp4
 70
     1
102
RTVSPropertyOp5
 70
     1
102
RTVSPropertyOp6
 70
     1
102
RTVSPropertyOp7
 70
     1
102
RTVSPropertyOp8
 70
     1
102
RTVSPropertyOp9
 70
     1
102
RTVSPropertyOp10
 70
     1
102
RTVSPropertyOp11
 70
     1
102
RTVSPropertyOp12
 70
     1
102
RTVSPropertyOp13
 70
     1
102
RTVSPropertyOp14
 70
     1
102
RTVSPropertyOp15
 70
     1
102
RTVSPropertyOp16
 70
     1
102
RTVSPropertyOp17
 70
     1
102
RTVSPropertyOp18
 70
     1
102
RTVSPropertyOp19
 70
     1
102
RTVSPropertyOp20
 70
     1
102
RTVSPropertyOp21
 70
     1
102
RTVSPropertyOp22
 70
     1
102
RTVSPropertyOp23
 70
     1
102
RTVSPropertyOp24
 70
     1
102
RTVSPropertyOp25
 70
     1
102
RTVSPropertyOp26
 70
     1
102
RTVSPropertyOp27
 70
     1
102
RTVSPropertyOp28
 70
     1
102
RTVSPropertyOp29
 70
     1
102
RTVSPropertyOp30
 70
     1
102
RTVSPropertyOp31
 70
     1
102
RTVSPropertyOp32
 70
     1
  0
XRECORD
  5
437
102
{ACAD_REACTORS
330
436
102
}
330
436
100
AcDbXrecord
280
     1
102
RTVSPropertyOp0
 70
     1
102
RTVSPropertyOp1
 70
     1
102
RTVSPropertyOp2
 70
     1
102
RTVSPropertyOp3
 70
     1
102
RTVSPropertyOp4
 70
     1
102
RTVSPropertyOp5
 70
     1
102
RTVSPropertyOp6
 70
     1
102
RTVSPropertyOp7
 70
     1
102
RTVSPropertyOp8
 70
     1
102
RTVSPropertyOp9
 70
     1
102
RTVSPropertyOp10
 70
     1
102
RTVSPropertyOp11
 70
     1
102
RTVSPropertyOp12
 70
     1
102
RTVSPropertyOp13
 70
     1
102
RTVSPropertyOp14
 70
     1
102
RTVSPropertyOp15
 70
     1
102
RTVSPropertyOp16
 70
     1
102
RTVSPropertyOp17
 70
     1
102
RTVSPropertyOp18
 70
     1
102
RTVSPropertyOp19
 70
     1
102
RTVSPropertyOp20
 70
     1
102
RTVSPropertyOp21
 70
     1
102
RTVSPropertyOp22
 70
     1
102
RTVSPropertyOp23
 70
     1
102
RTVSPropertyOp24
 70
     1
102
RTVSPropertyOp25
 70
     1
102
RTVSPropertyOp26
 70
     1
102
RTVSPropertyOp27
 70
     1
102
RTVSPropertyOp28
 70
     1
102
RTVSPropertyOp29
 70
     1
102
RTVSPropertyOp30
 70
     1
102
RTVSPropertyOp31
 70
     1
102
RTVSPropertyOp32
 70
     1
  0
XRECORD
  5
439
102
{ACAD_REACTORS
330
438
102
}
330
438
100
AcDbXrecord
280
     1
102
RTVSPropertyOp0
 70
     1
102
RTVSPropertyOp1
 70
     1
102
RTVSPropertyOp2
 70
     1
102
RTVSPropertyOp3
 70
     1
102
RTVSPropertyOp4
 70
     1
102
RTVSPropertyOp5
 70
     1
102
RTVSPropertyOp6
 70
     1
102
RTVSPropertyOp7
 70
     1
102
RTVSPropertyOp8
 70
     1
102
RTVSPropertyOp9
 70
     1
102
RTVSPropertyOp10
 70
     1
102
RTVSPropertyOp11
 70
     1
102
RTVSPropertyOp12
 70
     1
102
RTVSPropertyOp13
 70
     1
102
RTVSPropertyOp14
 70
     1
102
RTVSPropertyOp15
 70
     1
102
RTVSPropertyOp16
 70
     1
102
RTVSPropertyOp17
 70
     1
102
RTVSPropertyOp18
 70
     1
102
RTVSPropertyOp19
 70
     1
102
RTVSPropertyOp20
 70
     1
102
RTVSPropertyOp21
 70
     1
102
RTVSPropertyOp22
 70
     1
102
RTVSPropertyOp23
 70
     1
102
RTVSPropertyOp24
 70
     1
102
RTVSPropertyOp25
 70
     1
102
RTVSPropertyOp26
 70
     1
102
RTVSPropertyOp27
 70
     1
102
RTVSPropertyOp28
 70
     1
102
RTVSPropertyOp29
 70
     1
102
RTVSPropertyOp30
 70
     1
102
RTVSPropertyOp31
 70
     1
102
RTVSPropertyOp32
 70
     1
  0
XRECORD
  5
44D
102
{ACAD_REACTORS
330
44C
102
}
330
44C
100
AcDbXrecord
280
     1
102
RTVSPropertyOp0
 70
     1
102
RTVSPropertyOp1
 70
     1
102
RTVSPropertyOp2
 70
     1
102
RTVSPropertyOp3
 70
     1
102
RTVSPropertyOp4
 70
     1
102
RTVSPropertyOp5
 70
     1
102
RTVSPropertyOp6
 70
     1
102
RTVSPropertyOp7
 70
     1
102
RTVSPropertyOp8
 70
     1
102
RTVSPropertyOp9
 70
     1
102
RTVSPropertyOp10
 70
     1
102
RTVSPropertyOp11
 70
     1
102
RTVSPropertyOp12
 70
     1
102
RTVSPropertyOp13
 70
     1
102
RTVSPropertyOp14
 70
     1
102
RTVSPropertyOp15
 70
     1
102
RTVSPropertyOp16
 70
     1
102
RTVSPropertyOp17
 70
     1
102
RTVSPropertyOp18
 70
     1
102
RTVSPropertyOp19
 70
     1
102
RTVSPropertyOp20
 70
     1
102
RTVSPropertyOp21
 70
     1
102
RTVSPropertyOp22
 70
     1
102
RTVSPropertyOp23
 70
     1
102
RTVSPropertyOp24
 70
     1
102
RTVSPropertyOp25
 70
     1
102
RTVSPropertyOp26
 70
     1
102
RTVSPropertyOp27
 70
     1
102
RTVSPropertyOp28
 70
     1
102
RTVSPropertyOp29
 70
     1
102
RTVSPropertyOp30
 70
     1
102
RTVSPropertyOp31
 70
     1
102
RTVSPropertyOp32
 70
     1
  0
XRECORD
  5
443
102
{ACAD_REACTORS
330
442
102
}
330
442
100
AcDbXrecord
280
     1
102
RTVSPropertyOp0
 70
     1
102
RTVSPropertyOp1
 70
     1
102
RTVSPropertyOp2
 70
     1
102
RTVSPropertyOp3
 70
     1
102
RTVSPropertyOp4
 70
     1
102
RTVSPropertyOp5
 70
     1
102
RTVSPropertyOp6
 70
     1
102
RTVSPropertyOp7
 70
     1
102
RTVSPropertyOp8
 70
     1
102
RTVSPropertyOp9
 70
     1
102
RTVSPropertyOp10
 70
     1
102
RTVSPropertyOp11
 70
     1
102
RTVSPropertyOp12
 70
     1
102
RTVSPropertyOp13
 70
     1
102
RTVSPropertyOp14
 70
     1
102
RTVSPropertyOp15
 70
     1
102
RTVSPropertyOp16
 70
     1
102
RTVSPropertyOp17
 70
     1
102
RTVSPropertyOp18
 70
     1
102
RTVSPropertyOp19
 70
     1
102
RTVSPropertyOp20
 70
     1
102
RTVSPropertyOp21
 70
     1
102
RTVSPropertyOp22
 70
     1
102
RTVSPropertyOp23
 70
     1
102
RTVSPropertyOp24
 70
     1
102
RTVSPropertyOp25
 70
     1
102
RTVSPropertyOp26
 70
     1
102
RTVSPropertyOp27
 70
     1
102
RTVSPropertyOp28
 70
     1
102
RTVSPropertyOp29
 70
     1
102
RTVSPropertyOp30
 70
     1
102
RTVSPropertyOp31
 70
     1
102
RTVSPropertyOp32
 70
     1
  0
XRECORD
  5
44B
102
{ACAD_REACTORS
330
44A
102
}
330
44A
100
AcDbXrecord
280
     1
102
RTVSPropertyOp0
 70
     1
102
RTVSPropertyOp1
 70
     1
102
RTVSPropertyOp2
 70
     1
102
RTVSPropertyOp3
 70
     1
102
RTVSPropertyOp4
 70
     1
102
RTVSPropertyOp5
 70
     1
102
RTVSPropertyOp6
 70
     1
102
RTVSPropertyOp7
 70
     1
102
RTVSPropertyOp8
 70
     1
102
RTVSPropertyOp9
 70
     1
102
RTVSPropertyOp10
 70
     1
102
RTVSPropertyOp11
 70
     1
102
RTVSPropertyOp12
 70
     1
102
RTVSPropertyOp13
 70
     1
102
RTVSPropertyOp14
 70
     1
102
RTVSPropertyOp15
 70
     1
102
RTVSPropertyOp16
 70
     1
102
RTVSPropertyOp17
 70
     1
102
RTVSPropertyOp18
 70
     1
102
RTVSPropertyOp19
 70
     1
102
RTVSPropertyOp20
 70
     1
102
RTVSPropertyOp21
 70
     1
102
RTVSPropertyOp22
 70
     1
102
RTVSPropertyOp23
 70
     1
102
RTVSPropertyOp24
 70
     1
102
RTVSPropertyOp25
 70
     1
102
RTVSPropertyOp26
 70
     1
102
RTVSPropertyOp27
 70
     1
102
RTVSPropertyOp28
 70
     1
102
RTVSPropertyOp29
 70
     1
102
RTVSPropertyOp30
 70
     1
102
RTVSPropertyOp31
 70
     1
102
RTVSPropertyOp32
 70
     1
  0
ENDSEC
  0
EOF
