  0
SECTION
  2
HEADER
  9
$ACADVER
  1
AC1015
  9
$ACADMAINTVER
 70
     6
  9
$DWGCODEPAGE
  3
ANSI_949
  9
$INSBASE
 10
0.0
 20
0.0
 30
0.0
  9
$EXTMIN
 10
1.000000000000000E+20
 20
1.000000000000000E+20
 30
1.000000000000000E+20
  9
$EXTMAX
 10
-1.000000000000000E+20
 20
-1.000000000000000E+20
 30
-1.000000000000000E+20
  9
$LIMMIN
 10
0.0
 20
0.0
  9
$LIMMAX
 10
12.0
 20
9.0
  9
$ORTHOMODE
 70
     0
  9
$REGENMODE
 70
     1
  9
$FILLMODE
 70
     1
  9
$QTEXTMODE
 70
     0
  9
$MIRRTEXT
 70
     1
  9
$LTSCALE
 40
1.0
  9
$ATTMODE
 70
     1
  9
$TEXTSIZE
 40
0.2
  9
$TRACEWID
 40
0.05
  9
$TEXTSTYLE
  7
Standard
  9
$CLAYER
  8
0
  9
$CELTYPE
  6
ByLayer
  9
$CECOLOR
 62
   256
  9
$CELTSCALE
 40
1.0
  9
$DISPSILH
 70
     0
  9
$DIMSCALE
 40
1.0
  9
$DIMASZ
 40
0.18
  9
$DIMEXO
 40
0.0625
  9
$DIMDLI
 40
0.38
  9
$DIMRND
 40
0.0
  9
$DIMDLE
 40
0.0
  9
$DIMEXE
 40
0.18
  9
$DIMTP
 40
0.0
  9
$DIMTM
 40
0.0
  9
$DIMTXT
 40
0.18
  9
$DIMCEN
 40
0.09
  9
$DIMTSZ
 40
0.0
  9
$DIMTOL
 70
     0
  9
$DIMLIM
 70
     0
  9
$DIMTIH
 70
     1
  9
$DIMTOH
 70
     1
  9
$DIMSE1
 70
     0
  9
$DIMSE2
 70
     0
  9
$DIMTAD
 70
     0
  9
$DIMZIN
 70
     0
  9
$DIMBLK
  1

  9
$DIMASO
 70
     1
  9
$DIMSHO
 70
     1
  9
$DIMPOST
  1

  9
$DIMAPOST
  1

  9
$DIMALT
 70
     0
  9
$DIMALTD
 70
     2
  9
$DIMALTF
 40
25.4
  9
$DIMLFAC
 40
1.0
  9
$DIMTOFL
 70
     0
  9
$DIMTVP
 40
0.0
  9
$DIMTIX
 70
     0
  9
$DIMSOXD
 70
     0
  9
$DIMSAH
 70
     0
  9
$DIMBLK1
  1

  9
$DIMBLK2
  1

  9
$DIMSTYLE
  2
Standard
  9
$DIMCLRD
 70
     0
  9
$DIMCLRE
 70
     0
  9
$DIMCLRT
 70
     0
  9
$DIMTFAC
 40
1.0
  9
$DIMGAP
 40
0.09
  9
$DIMJUST
 70
     0
  9
$DIMSD1
 70
     0
  9
$DIMSD2
 70
     0
  9
$DIMTOLJ
 70
     1
  9
$DIMTZIN
 70
     0
  9
$DIMALTZ
 70
     0
  9
$DIMALTTZ
 70
     0
  9
$DIMUPT
 70
     0
  9
$DIMDEC
 70
     4
  9
$DIMTDEC
 70
     4
  9
$DIMALTU
 70
     2
  9
$DIMALTTD
 70
     2
  9
$DIMTXSTY
  7
Standard
  9
$DIMAUNIT
 70
     0
  9
$DIMADEC
 70
     0
  9
$DIMALTRND
 40
0.0
  9
$DIMAZIN
 70
     0
  9
$DIMDSEP
 70
    46
  9
$DIMATFIT
 70
     3
  9
$DIMFRAC
 70
     0
  9
$DIMLDRBLK
  1

  9
$DIMLUNIT
 70
     2
  9
$DIMLWD
 70
    -2
  9
$DIMLWE
 70
    -2
  9
$DIMTMOVE
 70
     0
  9
$LUNITS
 70
     2
  9
$LUPREC
 70
     4
  9
$SKETCHINC
 40
0.1
  9
$FILLETRAD
 40
0.5
  9
$AUNITS
 70
     0
  9
$AUPREC
 70
     0
  9
$MENU
  1
.
  9
$ELEVATION
 40
0.0
  9
$PELEVATION
 40
0.0
  9
$THICKNESS
 40
0.0
  9
$LIMCHECK
 70
     0
  9
$CHAMFERA
 40
0.5
  9
$CHAMFERB
 40
0.5
  9
$CHAMFERC
 40
1.0
  9
$CHAMFERD
 40
0.0
  9
$SKPOLY
 70
     0
  9
$TDCREATE
 40
2456522.616906447
  9
$TDUCREATE
 40
2456522.116906447
  9
$TDUPDATE
 40
2456522.616933565
  9
$TDUUPDATE
 40
2456522.116933565
  9
$TDINDWG
 40
0.0000000116
  9
$TDUSRTIMER
 40
0.0000000116
  9
$USRTIMER
 70
     1
  9
$ANGBASE
 50
0.0
  9
$ANGDIR
 70
     0
  9
$PDMODE
 70
     0
  9
$PDSIZE
 40
0.0
  9
$PLINEWID
 40
0.0
  9
$SPLFRAME
 70
     0
  9
$SPLINETYPE
 70
     6
  9
$SPLINESEGS
 70
     8
  9
$HANDSEED
  5
456
  9
$SURFTAB1
 70
     6
  9
$SURFTAB2
 70
     6
  9
$SURFTYPE
 70
     6
  9
$SURFU
 70
     6
  9
$SURFV
 70
     6
  9
$UCSBASE
  2

  9
$UCSNAME
  2

  9
$UCSORG
 10
0.0
 20
0.0
 30
0.0
  9
$UCSXDIR
 10
1.0
 20
0.0
 30
0.0
  9
$UCSYDIR
 10
0.0
 20
1.0
 30
0.0
  9
$UCSORTHOREF
  2

  9
$UCSORTHOVIEW
 70
     0
  9
$UCSORGTOP
 10
0.0
 20
0.0
 30
0.0
  9
$UCSORGBOTTOM
 10
0.0
 20
0.0
 30
0.0
  9
$UCSORGLEFT
 10
0.0
 20
0.0
 30
0.0
  9
$UCSORGRIGHT
 10
0.0
 20
0.0
 30
0.0
  9
$UCSORGFRONT
 10
0.0
 20
0.0
 30
0.0
  9
$UCSORGBACK
 10
0.0
 20
0.0
 30
0.0
  9
$PUCSBASE
  2

  9
$PUCSNAME
  2

  9
$PUCSORG
 10
0.0
 20
0.0
 30
0.0
  9
$PUCSXDIR
 10
1.0
 20
0.0
 30
0.0
  9
$PUCSYDIR
 10
0.0
 20
1.0
 30
0.0
  9
$PUCSORTHOREF
  2

  9
$PUCSORTHOVIEW
 70
     0
  9
$PUCSORGTOP
 10
0.0
 20
0.0
 30
0.0
  9
$PUCSORGBOTTOM
 10
0.0
 20
0.0
 30
0.0
  9
$PUCSORGLEFT
 10
0.0
 20
0.0
 30
0.0
  9
$PUCSORGRIGHT
 10
0.0
 20
0.0
 30
0.0
  9
$PUCSORGFRONT
 10
0.0
 20
0.0
 30
0.0
  9
$PUCSORGBACK
 10
0.0
 20
0.0
 30
0.0
  9
$USERI1
 70
     0
  9
$USERI2
 70
     0
  9
$USERI3
 70
     0
  9
$USERI4
 70
     0
  9
$USERI5
 70
     0
  9
$USERR1
 40
0.0
  9
$USERR2
 40
0.0
  9
$USERR3
 40
0.0
  9
$USERR4
 40
0.0
  9
$USERR5
 40
0.0
  9
$WORLDVIEW
 70
     1
  9
$SHADEDGE
 70
     3
  9
$SHADEDIF
 70
    70
  9
$TILEMODE
 70
     1
  9
$MAXACTVP
 70
    64
  9
$PINSBASE
 10
0.0
 20
0.0
 30
0.0
  9
$PLIMCHECK
 70
     0
  9
$PEXTMIN
 10
1.000000000000000E+20
 20
1.000000000000000E+20
 30
1.000000000000000E+20
  9
$PEXTMAX
 10
-1.000000000000000E+20
 20
-1.000000000000000E+20
 30
-1.000000000000000E+20
  9
$PLIMMIN
 10
0.0
 20
0.0
  9
$PLIMMAX
 10
12.0
 20
9.0
  9
$UNITMODE
 70
     0
  9
$VISRETAIN
 70
     1
  9
$PLINEGEN
 70
     0
  9
$PSLTSCALE
 70
     1
  9
$TREEDEPTH
 70
  3020
  9
$CMLSTYLE
  2
Standard
  9
$CMLJUST
 70
     0
  9
$CMLSCALE
 40
1.0
  9
$PROXYGRAPHICS
 70
     1
  9
$MEASUREMENT
 70
     0
  9
$CELWEIGHT
370
    -1
  9
$ENDCAPS
280
     0
  9
$JOINSTYLE
280
     0
  9
$LWDISPLAY
290
     1
  9
$INSUNITS
 70
     4
  9
$HYPERLINKBASE
  1

  9
$STYLESHEET
  1

  9
$XEDIT
290
     1
  9
$CEPSNTYPE
380
     0
  9
$PSTYLEMODE
290
     1
  9
$FINGERPRINTGUID
  2
{36FE9CCA-4000-49CD-A1CF-F7492EC91AFC}
  9
$VERSIONGUID
  2
{FAEB1C32-E019-11D5-929B-00C0DF256EC4}
  9
$EXTNAMES
290
     1
  9
$PSVPSCALE
 40
0.0
  9
$OLESTARTUP
290
     0
  0
ENDSEC
  0
SECTION
  2
CLASSES
  0
CLASS
  1
ACDBDICTIONARYWDFLT
  2
AcDbDictionaryWithDefault
  3
ObjectDBX Classes
 90
        0
280
     0
281
     0
  0
CLASS
  1
VISUALSTYLE
  2
AcDbVisualStyle
  3
ObjectDBX Classes
 90
     4095
280
     0
281
     0
  0
CLASS
  1
MATERIAL
  2
AcDbMaterial
  3
ObjectDBX Classes
 90
     1153
280
     0
281
     0
  0
CLASS
  1
WIPEOUT
  2
AcDbWipeout
  3
WipeOut|AutoCAD Express Tool|expresstools@autodesk.com
 90
      127
280
     0
281
     1
  0
CLASS
  1
SPATIAL_FILTER
  2
AcDbSpatialFilter
  3
ObjectDBX Classes
 90
        0
280
     0
281
     0
  0
CLASS
  1
SCALE
  2
AcDbScale
  3
ObjectDBX Classes
 90
     1153
280
     0
281
     0
  0
CLASS
  1
DICTIONARYVAR
  2
AcDbDictionaryVar
  3
ObjectDBX Classes
 90
        0
280
     0
281
     0
  0
CLASS
  1
ACDBPLACEHOLDER
  2
AcDbPlaceHolder
  3
ObjectDBX Classes
 90
        0
280
     0
281
     0
  0
CLASS
  1
LAYOUT
  2
AcDbLayout
  3
ObjectDBX Classes
 90
        0
280
     0
281
     0
  0
ENDSEC
  0
SECTION
  2
TABLES
  0
TABLE
  2
VPORT
  5
8
330
0
100
AcDbSymbolTable
 70
     1
  0
VPORT
  5
29
330
8
100
AcDbSymbolTableRecord
100
AcDbViewportTableRecord
  2
*Active
 70
     0
 10
0.0
 20
0.0
 11
1.0
 21
1.0
 12
148.4046578700666
 22
103.5134588513207
 13
0.0
 23
0.0
 14
0.5
 24
0.5
 15
0.5
 25
0.5
 16
0.0
 26
0.0
 36
1.0
 17
0.0
 27
0.0
 37
0.0
 40
207.0325439433057
 41
1.413041140696446
 42
50.0
 43
0.0
 44
0.0
 50
0.0
 51
0.0
 71
     0
 72
   100
 73
     1
 74
     3
 75
     0
 76
     0
 77
     0
 78
     0
281
     0
 65
     1
110
0.0
120
0.0
130
0.0
111
1.0
121
0.0
131
0.0
112
0.0
122
1.0
132
0.0
 79
     0
146
0.0
  0
ENDTAB
  0
TABLE
  2
LTYPE
  5
5
330
0
100
AcDbSymbolTable
 70
     6
  0
LTYPE
  5
14
330
5
100
AcDbSymbolTableRecord
100
AcDbLinetypeTableRecord
  2
ByBlock
 70
     0
  3

 72
    65
 73
     0
 40
0.0
  0
LTYPE
  5
15
330
5
100
AcDbSymbolTableRecord
100
AcDbLinetypeTableRecord
  2
ByLayer
 70
     0
  3

 72
    65
 73
     0
 40
0.0
  0
LTYPE
  5
16
330
5
100
AcDbSymbolTableRecord
100
AcDbLinetypeTableRecord
  2
Continuous
 70
     0
  3
Solid line
 72
    65
 73
     0
 40
0.0
  0
LTYPE
  5
E7
330
5
100
AcDbSymbolTableRecord
100
AcDbLinetypeTableRecord
  2
Wipeout_Contour
 70
     0
  3
- - - - - 
 72
    65
 73
     2
 40
1000.0
 49
0.0
 74
     0
 49
-1000.0
 74
     0
  0
LTYPE
  5
F1
330
5
100
AcDbSymbolTableRecord
100
AcDbLinetypeTableRecord
  2
Hidden Line
 70
     0
  3
- - - - - 
 72
    65
 73
     2
 40
3.912222232818603
 49
2.822222232818604
 74
     0
 49
-1.089999999999999
 74
     0
  0
LTYPE
  5
F8
330
5
100
AcDbSymbolTableRecord
100
AcDbLinetypeTableRecord
  2
Double Dashed
 70
     0
  3
- - - - - 
 72
    65
 73
     4
 40
10.93611073493958
 49
5.291666507720947
 74
     0
 49
-2.116666555404663
 74
     0
 49
1.411111116409302
 74
     0
 49
-2.116666555404668
 74
     0
  0
LTYPE
  5
1FE
330
5
100
AcDbSymbolTableRecord
100
AcDbLinetypeTableRecord
  2
Dot & Dashed
 70
     0
  3
- - - - - 
 72
    65
 73
     4
 40
6.702777624130249
 49
3.527777671813965
 74
     0
 49
-1.763888835906982
 74
     0
 49
0.0
 74
     0
 49
-1.411111116409302
 74
     0
  0
LTYPE
  5
35E
330
5
100
AcDbSymbolTableRecord
100
AcDbLinetypeTableRecord
  2
Dashed
 70
     0
  3
- - - - - 
 72
    65
 73
     2
 40
5.644444465637207
 49
2.822222232818604
 74
     0
 49
-2.822222232818603
 74
     0
  0
ENDTAB
  0
TABLE
  2
LAYER
  5
2
330
0
100
AcDbSymbolTable
 70
     5
  0
LAYER
  5
10
330
2
100
AcDbSymbolTableRecord
100
AcDbLayerTableRecord
  2
0
 70
     0
 62
     7
  6
Continuous
370
    -3
390
F
  0
LAYER
  5
40
330
2
100
AcDbSymbolTableRecord
100
AcDbLayerTableRecord
  2
Doc_ Finishes
 70
     0
 62
     7
  6
Continuous
370
    -3
390
F
  0
LAYER
  5
DB
330
2
100
AcDbSymbolTableRecord
100
AcDbLayerTableRecord
  2
Doc_ Floor
 70
     0
 62
     7
  6
Continuous
370
    -3
390
F
  0
LAYER
  5
E8
330
2
100
AcDbSymbolTableRecord
100
AcDbLayerTableRecord
  2
Des_ Walls
 70
     0
 62
     7
  6
Continuous
370
    -3
390
F
  0
LAYER
  5
ED
330
2
100
AcDbSymbolTableRecord
100
AcDbLayerTableRecord
  2
Des_ Furniture
 70
     0
 62
     7
  6
Continuous
370
    -3
390
F
  0
ENDTAB
  0
TABLE
  2
STYLE
  5
3
330
0
100
AcDbSymbolTable
 70
     4
  0
STYLE
  5
11
330
3
100
AcDbSymbolTableRecord
100
AcDbTextStyleTableRecord
  2
Standard
 70
     0
 40
0.0
 41
1.0
 50
0.0
 71
     0
 42
0.2
  3
txt
  4

  0
STYLE
  5
D6
330
3
100
AcDbSymbolTableRecord
100
AcDbTextStyleTableRecord
  2
GENERATED_STYLE_1
 70
     0
 40
0.0
 41
1.0
 50
0.0
 71
     0
 42
0.2
  3

  4

1001
ACAD
1000
Century Gothic
1071
       34
  0
STYLE
  5
D9
330
3
100
AcDbSymbolTableRecord
100
AcDbTextStyleTableRecord
  2
GENERATED_STYLE_2
 70
     0
 40
0.0
 41
1.0
 50
0.0
 71
     0
 42
0.2
  3

  4

1001
ACAD
1000
DilleniaUPC
1071
 33554450
  0
STYLE
  5
3C1
330
3
100
AcDbSymbolTableRecord
100
AcDbTextStyleTableRecord
  2
GENERATED_STYLE_3
 70
     0
 40
0.0
 41
1.0
 50
0.0
 71
     0
 42
0.2
  3

  4

1001
ACAD
1000
Arial
1071
       34
  0
ENDTAB
  0
TABLE
  2
VIEW
  5
6
330
0
100
AcDbSymbolTable
 70
     0
  0
ENDTAB
  0
TABLE
  2
UCS
  5
7
330
0
100
AcDbSymbolTable
 70
     0
  0
ENDTAB
  0
TABLE
  2
APPID
  5
9
330
0
100
AcDbSymbolTable
 70
     1
  0
APPID
  5
12
330
9
100
AcDbSymbolTableRecord
100
AcDbRegAppTableRecord
  2
ACAD
 70
     0
  0
ENDTAB
  0
TABLE
  2
DIMSTYLE
  5
A
330
0
100
AcDbSymbolTable
 70
     1
100
AcDbDimStyleTable
  0
DIMSTYLE
105
27
330
A
100
AcDbSymbolTableRecord
100
AcDbDimStyleTableRecord
  2
Standard
 70
     0
178
     0
340
11
  0
ENDTAB
  0
TABLE
  2
BLOCK_RECORD
  5
1
330
0
100
AcDbSymbolTable
 70
     3
  0
BLOCK_RECORD
  5
1F
330
1
100
AcDbSymbolTableRecord
100
AcDbBlockTableRecord
  2
*Model_Space
340
22
  0
BLOCK_RECORD
  5
1B
330
1
100
AcDbSymbolTableRecord
100
AcDbBlockTableRecord
  2
*Paper_Space
340
1E
  0
BLOCK_RECORD
  5
E3
330
1
100
AcDbSymbolTableRecord
100
AcDbBlockTableRecord
  2
Drawing_1_2
340
0
102
{BLKREFS
331
3FC
102
}
  0
BLOCK_RECORD
  5
400
330
1
100
AcDbSymbolTableRecord
100
AcDbBlockTableRecord
  2
C-TRS9-09 APRON DETAIL - SIDE -_STORY_MARKER
340
0
  0
ENDTAB
  0
ENDSEC
  0
SECTION
  2
BLOCKS
  0
BLOCK
  5
20
330
1F
100
AcDbEntity
  8
0
100
AcDbBlockBegin
  2
*Model_Space
 70
     0
 10
0.0
 20
0.0
 30
0.0
  3
*Model_Space
  1

  0
ENDBLK
  5
21
330
1F
100
AcDbEntity
  8
0
100
AcDbBlockEnd
  0
BLOCK
  5
1C
330
1B
100
AcDbEntity
 67
     1
  8
0
100
AcDbBlockBegin
  2
*Paper_Space
 70
     0
 10
0.0
 20
0.0
 30
0.0
  3
*Paper_Space
  1

  0
ENDBLK
  5
1D
330
1B
100
AcDbEntity
 67
     1
  8
0
100
AcDbBlockEnd
  0
BLOCK
  5
E4
330
E3
100
AcDbEntity
  8
0
100
AcDbBlockBegin
  2
Drawing_1_2
 70
     0
 10
241.5610480017639
 20
-775.3770708762235
 30
0.0
  3
Drawing_1_2
  1

  0
WIPEOUT
  5
E6
330
E3
100
AcDbEntity
  8
Des_ Walls
  6
Wipeout_Contour
 62
   254
 48
1984.078154040797
370
     0
 92
      488
310
E8010000060000000C0000000E000000120000000C00000016000000000000C20C0000001400000001000000CC00000007000000080000005216D472429A6840128DAE26647D6340000000000000000015A75544BB18694002E15C09D89263400000000000000000DE94A59F5018694032B38E63D852634000000000000000
310
005216D472429A68408EB1774E9E3C634000000000000000005216D472429A684000129868C5A33540000000000000000059C14A73425A6C4000129868C5A33540000000000000000059C14A73425A6C40562684B3D09C654000000000000000005216D472429A6840562684B3D09C654000000000000000000C0000000E00
310
0000FE000000E400000006000000090000005216D472429A6840128DAE26647D6340000000000000000015A75544BB18694002E15C09D89263400000000000000000DE94A59F5018694032B38E63D852634000000000000000005216D472429A68408EB1774E9E3C634000000000000000005216D472429A684000129868C5
310
A33540000000000000000059C14A73425A6C4000129868C5A33540000000000000000059C14A73425A6C40562684B3D09C654000000000000000005216D472429A6840562684B3D09C654000000000000000005216D472429A6840128DAE26647D63400000000000000000
100
AcDbWipeout
 90
        0
 10
196.8206113951042
 20
21.639730965735
 30
0.0
 11
30.00000022103652
 21
0.0
 31
0.0
 12
0.0
 22
151.2607452592644
 32
0.0
 13
1.0
 23
1.0
340
0
 70
    15
280
     1
281
    50
282
    50
283
     0
360
0
 71
     2
 91
        9
 14
-0.5000000000000004
 24
-0.3877302850802224
 14
-0.3682583897106384
 24
-0.3921623416240214
 14
-0.3686923224533419
 24
-0.378940424804632
 14
-0.5000000000000004
 24
-0.3743484195664749
 14
-0.5000000000000004
 24
0.5
 14
0.4999999999999995
 24
0.5
 14
0.4999999999999995
 24
-0.5
 14
-0.5000000000000004
 24
-0.5
 14
-0.5000000000000004
 24
-0.3877302850802224
  0
HATCH
  5
E9
330
E3
100
AcDbEntity
  8
Des_ Walls
  6
Continuous
100
AcDbHatch
 10
0.0
 20
0.0
 30
0.0
210
0.0
220
0.0
230
1.0
  2
Lightweight_Concrete_0002
 70
     0
 71
     0
 91
        1
 92
        3
 72
     0
 73
     1
 93
        8
 10
196.8206113951042
 20
155.9184754761887
 10
200.7728597329048
 20
156.5888716520349
 10
200.7598417505278
 20
154.5889146601781
 10
196.8206113951042
 20
153.89432452562
 10
196.8206113951042
 20
21.639730965735
 10
226.8206116161407
 20
21.639730965735
 10
226.8206116161407
 20
172.9004762249994
 10
196.8206113951042
 20
172.9004762249994
 97
        0
 75
     0
 76
     2
 52
0.0
 41
1.0
 77
     0
 78
     8
 53
0.0
 43
241.5610480017639
 44
-775.3770708762235
 45
0.0
 46
31.17691453623978
 79
     2
 49
1.95
 49
-16.05
 53
0.0
 43
250.5610480017639
 44
-759.7886142455167
 45
0.0
 46
31.17691453623978
 79
     2
 49
1.95
 49
-16.05
 53
60.00000000000001
 43
241.5610480017639
 44
-775.3770708762235
 45
-27.0
 46
15.58845726811988
 79
     2
 49
1.95
 49
-16.05
 53
60.00000000000001
 43
259.5610480017639
 44
-775.3770708762235
 45
-27.0
 46
15.58845726811988
 79
     2
 49
1.95
 49
-16.05
 53
120.0
 43
243.5110479302383
 44
-775.3770708762235
 45
26.99999999999998
 46
15.58845726811991
 79
     2
 49
1.95
 49
-16.05
 53
120.0
 43
261.5110482878662
 44
-775.3770708762235
 45
26.99999999999998
 46
15.58845726811991
 79
     2
 49
1.95
 49
-16.05
 53
0.0
 43
241.5610480017639
 44
-772.3770708762235
 45
0.0
 46
6.0
 79
     4
 49
0.0
 49
-6.0
 49
0.0
 49
-9.0
 53
44.99999999999999
 43
244.5610480017639
 44
-772.3770708762235
 45
-4.242640687119285
 46
4.242640687119286
 79
     4
 49
0.0
 49
-4.5
 49
0.0
 49
-7.5
 98
        0
  0
WIPEOUT
  5
EA
330
E3
100
AcDbEntity
  8
Des_ Walls
  6
Wipeout_Contour
 62
   254
 48
1516.295363227987
370
     0
 92
      392
310
88010000060000000C0000000E000000120000000C00000016000000000000C20C00000014000000010000009C00000007000000060000005216D472429A68407CBBA8547333654000000000000000005216D472429A684020129868C5A33540000000000000000059C14A73425A6C4020129868C5A3354000000000000000
310
0059C14A73425A6C407CBBA8547333654000000000000000007B566F14E5F06B405A2684B3D09C654000000000000000003081AFD19F0369405A2684B3D09C654000000000000000000C0000000E000000FE000000B400000006000000070000005216D472429A68407CBBA8547333654000000000000000005216D472429A
310
684020129868C5A33540000000000000000059C14A73425A6C4020129868C5A33540000000000000000059C14A73425A6C407CBBA8547333654000000000000000007B566F14E5F06B405A2684B3D09C654000000000000000003081AFD19F0369405A2684B3D09C654000000000000000005216D472429A68407CBBA85473
310
3365400000000000000000
100
AcDbWipeout
 90
        0
 10
196.8206113951042
 20
21.63973096573511
 30
0.0
 11
30.00000022103652
 21
0.0
 31
0.0
 12
0.0
 22
151.2607452592644
 32
0.0
 13
1.0
 23
1.0
340
0
 70
    15
280
     1
281
    50
282
    50
283
     0
360
0
 71
     2
 91
        7
 14
-0.5000000000000004
 24
-0.4782319744305864
 14
-0.5000000000000004
 24
0.5
 14
0.4999999999999995
 24
0.5
 14
0.4999999999999995
 24
-0.4782319744305864
 14
0.3902450751269204
 24
-0.5
 14
-0.3902450751269214
 24
-0.5
 14
-0.5000000000000004
 24
-0.4782319744305864
  0
HATCH
  5
EB
330
E3
100
AcDbEntity
  8
Des_ Walls
  6
Continuous
100
AcDbHatch
 10
0.0
 20
0.0
 30
0.0
210
0.0
220
0.0
230
1.0
  2
Lightweight_Concrete_0002
 70
     0
 71
     0
 91
        1
 92
        3
 72
     0
 73
     1
 93
        6
 10
196.8206113951042
 20
169.6078284545473
 10
196.8206113951042
 20
21.63973096573511
 10
226.8206116161407
 20
21.63973096573511
 10
226.8206116161407
 20
169.6078284545473
 10
223.5279638456885
 20
172.9004762249995
 10
200.1132591655564
 20
172.9004762249995
 97
        0
 75
     0
 76
     2
 52
0.0
 41
1.0
 77
     0
 78
     8
 53
0.0
 43
241.5610480017639
 44
-775.3770708762235
 45
0.0
 46
31.17691453623978
 79
     2
 49
1.95
 49
-16.05
 53
0.0
 43
250.5610480017639
 44
-759.7886142455167
 45
0.0
 46
31.17691453623978
 79
     2
 49
1.95
 49
-16.05
 53
60.00000000000001
 43
241.5610480017639
 44
-775.3770708762235
 45
-27.0
 46
15.58845726811988
 79
     2
 49
1.95
 49
-16.05
 53
60.00000000000001
 43
259.5610480017639
 44
-775.3770708762235
 45
-27.0
 46
15.58845726811988
 79
     2
 49
1.95
 49
-16.05
 53
120.0
 43
243.5110479302383
 44
-775.3770708762235
 45
26.99999999999998
 46
15.58845726811991
 79
     2
 49
1.95
 49
-16.05
 53
120.0
 43
261.5110482878662
 44
-775.3770708762235
 45
26.99999999999998
 46
15.58845726811991
 79
     2
 49
1.95
 49
-16.05
 53
0.0
 43
241.5610480017639
 44
-772.3770708762235
 45
0.0
 46
6.0
 79
     4
 49
0.0
 49
-6.0
 49
0.0
 49
-9.0
 53
44.99999999999999
 43
244.5610480017639
 44
-772.3770708762235
 45
-4.242640687119285
 46
4.242640687119286
 79
     4
 49
0.0
 49
-4.5
 49
0.0
 49
-7.5
 98
        0
  0
LINE
  5
EC
330
E3
100
AcDbEntity
  8
Des_ Furniture
  6
Continuous
100
AcDbLine
 10
171.9640091731636
 20
101.4073920777055
 30
0.0
 11
171.976569859377
 21
101.1677218762209
 31
0.0
  0
LINE
  5
EE
330
E3
100
AcDbEntity
  8
Des_ Furniture
  6
Continuous
100
AcDbLine
 10
173.5780509408962
 20
70.60965365754424
 30
0.0
 11
173.5906116271096
 21
70.36998345605963
 31
0.0
  0
LINE
  5
EF
330
E3
100
AcDbEntity
  8
Des_ Walls
  6
Continuous
100
AcDbLine
 10
196.8206113951042
 20
169.6078281939675
 30
0.0
 11
196.8206113951042
 21
153.8943242650403
 31
0.0
  0
LINE
  5
F0
330
E3
100
AcDbEntity
  8
Des_ Walls
  6
Continuous
100
AcDbLine
 10
226.8206116161407
 20
169.6078284545472
 30
0.0
 11
226.8206116161407
 21
21.639730965735
 31
0.0
  0
LINE
  5
F2
330
E3
100
AcDbEntity
  8
Des_ Furniture
  6
Hidden Line
100
AcDbLine
 10
195.6021436302784
 20
151.2570630991578
 30
0.0
 11
195.6021436302784
 21
111.180691495923
 31
0.0
  0
LINE
  5
F3
330
E3
100
AcDbEntity
  8
Des_ Walls
  6
Continuous
100
AcDbLine
 10
196.8206113951042
 20
153.8943202518241
 30
0.0
 11
196.8206113951042
 21
21.639730965735
 31
0.0
  0
LINE
  5
F4
330
E3
100
AcDbEntity
  8
Des_ Furniture
  6
Continuous
 62
   251
370
    18
100
AcDbLine
 10
47.79548878240274
 20
67.60838047163556
 30
0.0
 11
193.9659892424476
 21
67.60838047163556
 31
0.0
  0
LINE
  5
F5
330
E3
100
AcDbEntity
  8
Des_ Furniture
  6
Hidden Line
 62
   251
370
    18
100
AcDbLine
 10
47.79548878240274
 20
72.57943337639901
 30
0.0
 11
193.9659892424476
 21
72.57943337639901
 31
0.0
  0
LINE
  5
F6
330
E3
100
AcDbEntity
  8
Des_ Furniture
  6
Hidden Line
 62
   251
370
    18
100
AcDbLine
 10
47.79548878240274
 20
103.1794360806579
 30
0.0
 11
193.9659892424476
 21
103.1794360806579
 31
0.0
  0
LINE
  5
F7
330
E3
100
AcDbEntity
  8
Des_ Furniture
  6
Continuous
 62
   251
370
    18
100
AcDbLine
 10
47.79548878240274
 20
108.179435405198
 30
0.0
 11
193.9659892424476
 21
108.179435405198
 31
0.0
  0
LINE
  5
F9
330
E3
100
AcDbEntity
  8
Des_ Furniture
  6
Double Dashed
 62
   251
370
    18
100
AcDbLine
 10
47.79548878240274
 20
109.2925925647209
 30
0.0
 11
194.5952373111611
 21
109.2925925647209
 31
0.0
  0
LINE
  5
FA
330
E3
100
AcDbEntity
  8
Des_ Furniture
  6
Hidden Line
100
AcDbLine
 10
47.79548878240274
 20
110.5815138553135
 30
0.0
 11
195.0335449994876
 21
110.5815138553135
 31
0.0
  0
LINE
  5
FB
330
E3
100
AcDbEntity
  8
Des_ Walls
  6
Continuous
100
AcDbLine
 10
5.00000204762112
 20
111.6936886676419
 30
0.0
 11
13.04965489096752
 21
111.6936886676419
 31
0.0
  0
LINE
  5
FC
330
E3
100
AcDbEntity
  8
Des_ Walls
  6
Continuous
100
AcDbLine
 10
13.04965489096752
 20
111.6936886676419
 30
0.0
 11
13.64965436350309
 21
112.3557161252063
 31
0.0
  0
LINE
  5
FD
330
E3
100
AcDbEntity
  8
Des_ Walls
  6
Continuous
100
AcDbLine
 10
13.64965436350309
 20
112.3557161252063
 30
0.0
 11
20.64965341785923
 21
112.3557161252063
 31
0.0
  0
LINE
  5
FE
330
E3
100
AcDbEntity
  8
Des_ Walls
  6
Continuous
100
AcDbLine
 10
20.64965341785923
 20
112.3557161252063
 30
0.0
 11
21.2496559010816
 21
111.6936880417744
 31
0.0
  0
LINE
  5
FF
330
E3
100
AcDbEntity
  8
Des_ Walls
  6
Continuous
100
AcDbLine
 10
21.2496559010816
 20
111.6936880417744
 30
0.0
 11
29.8496530297722
 21
111.6936880417744
 31
0.0
  0
LINE
  5
100
330
E3
100
AcDbEntity
  8
Des_ Walls
  6
Continuous
100
AcDbLine
 10
29.8496530297722
 20
111.6936880417744
 30
0.0
 11
33.44965510771863
 21
118.3139560547049
 31
0.0
  0
LINE
  5
101
330
E3
100
AcDbEntity
  8
Des_ Walls
  6
Continuous
100
AcDbLine
 10
33.44965510771863
 20
118.3139560547049
 30
0.0
 11
38.44965443225872
 21
118.3139560547049
 31
0.0
  0
LINE
  5
102
330
E3
100
AcDbEntity
  8
Des_ Walls
  6
Continuous
100
AcDbLine
 10
38.44965443225872
 20
118.3139560547049
 30
0.0
 11
42.24965306415002
 21
111.6936880417744
 31
0.0
  0
LINE
  5
103
330
E3
100
AcDbEntity
  8
Des_ Walls
  6
Continuous
100
AcDbLine
 10
42.24965306415002
 20
111.6936880417744
 30
0.0
 11
50.84965446663654
 21
111.6936880417744
 31
0.0
  0
LINE
  5
104
330
E3
100
AcDbEntity
  8
Des_ Walls
  6
Continuous
100
AcDbLine
 10
50.84965446663654
 20
111.6936880417744
 30
0.0
 11
51.44965267606298
 21
112.3557161252063
 31
0.0
  0
LINE
  5
105
330
E3
100
AcDbEntity
  8
Des_ Walls
  6
Continuous
100
AcDbLine
 10
51.44965267606298
 20
112.3557161252063
 30
0.0
 11
58.44965600421504
 21
112.3557161252063
 31
0.0
  0
LINE
  5
106
330
E3
100
AcDbEntity
  8
Des_ Walls
  6
Continuous
100
AcDbLine
 10
58.44965600421504
 20
112.3557161252063
 30
0.0
 11
59.04965421364148
 21
111.6936880417744
 31
0.0
  0
LINE
  5
107
330
E3
100
AcDbEntity
  8
Des_ Walls
  6
Continuous
100
AcDbLine
 10
59.04965421364148
 20
111.6936880417744
 30
0.0
 11
67.64965561612802
 21
111.6936880417744
 31
0.0
  0
LINE
  5
108
330
E3
100
AcDbEntity
  8
Des_ Walls
  6
Continuous
100
AcDbLine
 10
67.64965561612802
 20
111.6936880417744
 30
0.0
 11
71.24965342027852
 21
118.3139560547049
 31
0.0
  0
LINE
  5
109
330
E3
100
AcDbEntity
  8
Des_ Walls
  6
Continuous
100
AcDbLine
 10
71.24965342027852
 20
118.3139560547049
 30
0.0
 11
76.2496527448186
 21
118.3139560547049
 31
0.0
  0
LINE
  5
10A
330
E3
100
AcDbEntity
  8
Des_ Walls
  6
Continuous
100
AcDbLine
 10
76.2496527448186
 20
118.3139560547049
 30
0.0
 11
80.04965565050583
 21
111.6936880417744
 31
0.0
  0
LINE
  5
10B
330
E3
100
AcDbEntity
  8
Des_ Walls
  6
Continuous
100
AcDbLine
 10
80.04965565050583
 20
111.6936880417744
 30
0.0
 11
88.64965277919643
 21
111.6936880417744
 31
0.0
  0
LINE
  5
10C
330
E3
100
AcDbEntity
  8
Des_ Walls
  6
Continuous
100
AcDbLine
 10
88.64965277919643
 20
111.6936880417744
 30
0.0
 11
89.24965526241881
 21
112.3557161252063
 31
0.0
  0
LINE
  5
10D
330
E3
100
AcDbEntity
  8
Des_ Walls
  6
Continuous
100
AcDbLine
 10
89.24965526241881
 20
112.3557161252063
 30
0.0
 11
96.24965431677494
 21
112.3557161252063
 31
0.0
  0
LINE
  5
10E
330
E3
100
AcDbEntity
  8
Des_ Walls
  6
Continuous
100
AcDbLine
 10
96.24965431677494
 20
112.3557161252063
 30
0.0
 11
96.84965252620138
 21
111.6936880417744
 31
0.0
  0
LINE
  5
10F
330
E3
100
AcDbEntity
  8
Des_ Walls
  6
Continuous
100
AcDbLine
 10
96.84965252620138
 20
111.6936880417744
 30
0.0
 11
105.4496539286879
 21
111.6936880417744
 31
0.0
  0
LINE
  5
110
330
E3
100
AcDbEntity
  8
Des_ Walls
  6
Continuous
100
AcDbLine
 10
105.4496539286879
 20
111.6936880417744
 30
0.0
 11
109.0496560066343
 21
118.3139560547049
 31
0.0
  0
LINE
  5
111
330
E3
100
AcDbEntity
  8
Des_ Walls
  6
Continuous
100
AcDbLine
 10
109.0496560066343
 20
118.3139560547049
 30
0.0
 11
114.0496553311744
 21
118.3139560547049
 31
0.0
  0
LINE
  5
112
330
E3
100
AcDbEntity
  8
Des_ Walls
  6
Continuous
100
AcDbLine
 10
114.0496553311744
 20
118.3139560547049
 30
0.0
 11
117.8496539630657
 21
111.6936880417744
 31
0.0
  0
LINE
  5
113
330
E3
100
AcDbEntity
  8
Des_ Walls
  6
Continuous
100
AcDbLine
 10
117.8496539630657
 20
111.6936880417744
 30
0.0
 11
126.4496553655522
 21
111.6936880417744
 31
0.0
  0
LINE
  5
114
330
E3
100
AcDbEntity
  8
Des_ Walls
  6
Continuous
100
AcDbLine
 10
126.4496553655522
 20
111.6936880417744
 30
0.0
 11
127.0496535749787
 21
112.3557161252063
 31
0.0
  0
LINE
  5
115
330
E3
100
AcDbEntity
  8
Des_ Walls
  6
Continuous
100
AcDbLine
 10
127.0496535749787
 20
112.3557161252063
 30
0.0
 11
134.0496526293348
 21
112.3557161252063
 31
0.0
  0
LINE
  5
116
330
E3
100
AcDbEntity
  8
Des_ Walls
  6
Continuous
100
AcDbLine
 10
134.0496526293348
 20
112.3557161252063
 30
0.0
 11
134.6496551125572
 21
111.6936880417744
 31
0.0
  0
LINE
  5
117
330
E3
100
AcDbEntity
  8
Des_ Walls
  6
Continuous
100
AcDbLine
 10
134.6496551125572
 20
111.6936880417744
 30
0.0
 11
143.2496522412478
 21
111.6936880417744
 31
0.0
  0
LINE
  5
118
330
E3
100
AcDbEntity
  8
Des_ Walls
  6
Continuous
100
AcDbLine
 10
143.2496522412478
 20
111.6936880417744
 30
0.0
 11
146.8496543191942
 21
118.3139560547049
 31
0.0
  0
LINE
  5
119
330
E3
100
AcDbEntity
  8
Des_ Walls
  6
Continuous
100
AcDbLine
 10
146.8496543191942
 20
118.3139560547049
 30
0.0
 11
151.8496536437343
 21
118.3139560547049
 31
0.0
  0
LINE
  5
11A
330
E3
100
AcDbEntity
  8
Des_ Walls
  6
Continuous
100
AcDbLine
 10
151.8496536437343
 20
118.3139560547049
 30
0.0
 11
155.6496522756256
 21
111.6936880417744
 31
0.0
  0
LINE
  5
11B
330
E3
100
AcDbEntity
  8
Des_ Walls
  6
Continuous
100
AcDbLine
 10
155.6496522756256
 20
111.6936880417744
 30
0.0
 11
164.2496536781121
 21
111.6936880417744
 31
0.0
  0
LINE
  5
11C
330
E3
100
AcDbEntity
  8
Des_ Walls
  6
Continuous
100
AcDbLine
 10
164.2496536781121
 20
111.6936880417744
 30
0.0
 11
164.8496561613345
 21
112.3557161252063
 31
0.0
  0
LINE
  5
11D
330
E3
100
AcDbEntity
  8
Des_ Walls
  6
Continuous
100
AcDbLine
 10
164.8496561613345
 20
112.3557161252063
 30
0.0
 11
171.8496552156907
 21
112.3557161252063
 31
0.0
  0
LINE
  5
11E
330
E3
100
AcDbEntity
  8
Des_ Walls
  6
Continuous
100
AcDbLine
 10
171.8496552156907
 20
112.3557161252063
 30
0.0
 11
172.4496534251171
 21
111.6936880417744
 31
0.0
  0
LINE
  5
11F
330
E3
100
AcDbEntity
  8
Des_ Walls
  6
Continuous
100
AcDbLine
 10
172.4496534251171
 20
111.6936880417744
 30
0.0
 11
181.0496548276036
 21
111.6936880417744
 31
0.0
  0
LINE
  5
120
330
E3
100
AcDbEntity
  8
Des_ Walls
  6
Continuous
100
AcDbLine
 10
181.0496548276036
 20
111.6936880417744
 30
0.0
 11
184.6496526317541
 21
118.3139560547049
 31
0.0
  0
LINE
  5
121
330
E3
100
AcDbEntity
  8
Des_ Walls
  6
Continuous
100
AcDbLine
 10
184.6496526317541
 20
118.3139560547049
 30
0.0
 11
189.6496562300901
 21
118.3139560547049
 31
0.0
  0
LINE
  5
122
330
E3
100
AcDbEntity
  8
Des_ Walls
  6
Continuous
100
AcDbLine
 10
189.6496562300901
 20
118.3139560547049
 30
0.0
 11
193.4496548619814
 21
111.6936880417744
 31
0.0
  0
LINE
  5
123
330
E3
100
AcDbEntity
  8
Des_ Walls
  6
Continuous
100
AcDbLine
 10
193.4496548619814
 20
111.6936880417744
 30
0.0
 11
194.1429201198038
 21
111.6936880417744
 31
0.0
  0
HATCH
  5
124
330
E3
100
AcDbEntity
  8
Des_ Walls
  6
Continuous
 62
   255
370
     0
100
AcDbHatch
 10
0.0
 20
0.0
 30
0.0
210
0.0
220
0.0
230
1.0
  2
SOLID
 70
     1
 71
     0
 91
        1
 92
        3
 72
     1
 73
     1
 93
        2
 10
151.4848740233585
 20
119.8201352825903
 42
0.4999999999999998
 10
149.0848740233585
 20
119.8201352825903
 42
0.0
 97
        0
 75
     0
 76
     1
 98
        0
  0
ARC
  5
125
330
E3
100
AcDbEntity
  8
Des_ Walls
  6
Continuous
100
AcDbCircle
 10
150.2848740233586
 20
118.9201352825903
 30
0.0
 40
1.500000000000012
100
AcDbArc
 50
36.86989764584423
 51
143.1301023541558
  0
LINE
  5
126
330
E3
100
AcDbEntity
  8
Des_ Walls
  6
Continuous
100
AcDbLine
 10
149.0848752289405
 20
119.8201357609695
 30
0.0
 11
151.4848723404422
 21
119.8201357609695
 31
0.0
  0
HATCH
  5
127
330
E3
100
AcDbEntity
  8
Des_ Walls
  6
Continuous
 62
   255
370
     0
100
AcDbHatch
 10
0.0
 20
0.0
 30
0.0
210
0.0
220
0.0
230
1.0
  2
SOLID
 70
     1
 71
     0
 91
        1
 92
        3
 72
     0
 73
     1
 93
        4
 10
149.6448740233585
 20
120.4201352825901
 10
149.6448740233585
 20
120.2767487131592
 10
150.9248740233585
 20
120.2767487131592
 10
150.9248740233585
 20
120.4201352825901
 97
        0
 75
     0
 76
     1
 98
        0
  0
LINE
  5
128
330
E3
100
AcDbEntity
  8
Des_ Walls
  6
Continuous
100
AcDbLine
 10
149.6448749823372
 20
120.4201339703959
 30
0.0
 11
149.6448749823372
 21
120.2767481172279
 31
0.0
  0
LINE
  5
129
330
E3
100
AcDbEntity
  8
Des_ Walls
  6
Continuous
100
AcDbLine
 10
149.6448749823372
 20
120.2767481172279
 30
0.0
 11
150.9248725870456
 21
120.2767481172279
 31
0.0
  0
LINE
  5
12A
330
E3
100
AcDbEntity
  8
Des_ Walls
  6
Continuous
100
AcDbLine
 10
150.9248725870456
 20
120.2767481172279
 30
0.0
 11
150.9248725870456
 21
120.4201339703959
 31
0.0
  0
LINE
  5
12B
330
E3
100
AcDbEntity
  8
Des_ Walls
  6
Continuous
100
AcDbLine
 10
150.9248725870456
 20
120.4201339703959
 30
0.0
 11
149.6448749823372
 21
120.4201339703959
 31
0.0
  0
HATCH
  5
12C
330
E3
100
AcDbEntity
  8
Des_ Walls
  6
Continuous
 62
   255
370
     0
100
AcDbHatch
 10
0.0
 20
0.0
 30
0.0
210
0.0
220
0.0
230
1.0
  2
SOLID
 70
     1
 71
     0
 91
        1
 92
        3
 72
     1
 73
     1
 93
        4
 10
148.8848740233585
 20
119.8201352825903
 42
0.0
 10
148.8848740233585
 20
119.0201352825903
 42
-0.4285714285714285
 10
151.6848740233586
 20
119.0201352825903
 42
0.0
 10
151.6848740233586
 20
119.8201352825903
 42
0.0
 97
        0
 75
     0
 76
     1
 98
        0
  0
LINE
  5
12D
330
E3
100
AcDbEntity
  8
Des_ Walls
  6
Continuous
100
AcDbLine
 10
148.8848744011998
 20
119.8201357609695
 30
0.0
 11
148.8848744011998
 21
119.0201367238023
 31
0.0
  0
ARC
  5
12E
330
E3
100
AcDbEntity
  8
Des_ Walls
  6
Continuous
100
AcDbCircle
 10
150.2848740233586
 20
117.6868019492569
 30
0.0
 40
1.933333333333346
100
AcDbArc
 50
43.6028189727035
 51
136.3971810272965
  0
LINE
  5
12F
330
E3
100
AcDbEntity
  8
Des_ Walls
  6
Continuous
100
AcDbLine
 10
151.684873168183
 20
119.0201367238023
 30
0.0
 11
151.684873168183
 21
119.8201357609695
 31
0.0
  0
LINE
  5
130
330
E3
100
AcDbEntity
  8
Des_ Walls
  6
Continuous
100
AcDbLine
 10
151.684873168183
 20
119.8201357609695
 30
0.0
 11
148.8848744011998
 21
119.8201357609695
 31
0.0
  0
HATCH
  5
131
330
E3
100
AcDbEntity
  8
Des_ Walls
  6
Continuous
 62
   255
370
     0
100
AcDbHatch
 10
0.0
 20
0.0
 30
0.0
210
0.0
220
0.0
230
1.0
  2
SOLID
 70
     1
 71
     0
 91
        1
 92
        3
 72
     0
 73
     1
 93
        5
 10
149.9648740233586
 20
119.6201352825902
 10
149.9648740233586
 20
100.2601352825903
 10
150.2848740233586
 20
99.62013528259028
 10
150.6048740233585
 20
100.2601352825903
 10
150.6048740233585
 20
119.6201352825902
 97
        0
 75
     0
 76
     1
 98
        0
  0
LINE
  5
132
330
E3
100
AcDbEntity
  8
Des_ Walls
  6
Continuous
100
AcDbLine
 10
149.9648754519633
 20
119.6201349332287
 30
0.0
 11
149.9648754519633
 21
100.2601343005245
 31
0.0
  0
LINE
  5
133
330
E3
100
AcDbEntity
  8
Des_ Walls
  6
Continuous
100
AcDbLine
 10
149.9648754519633
 20
100.2601343005245
 30
0.0
 11
150.2848759215893
 21
99.6201333612724
 31
0.0
  0
LINE
  5
134
330
E3
100
AcDbEntity
  8
Des_ Walls
  6
Continuous
100
AcDbLine
 10
150.2848759215893
 20
99.6201333612724
 30
0.0
 11
150.6048721174195
 21
100.2601343005245
 31
0.0
  0
LINE
  5
135
330
E3
100
AcDbEntity
  8
Des_ Walls
  6
Continuous
100
AcDbLine
 10
150.6048721174195
 20
100.2601343005245
 30
0.0
 11
150.6048721174195
 21
119.6201349332287
 31
0.0
  0
LINE
  5
136
330
E3
100
AcDbEntity
  8
Des_ Walls
  6
Continuous
100
AcDbLine
 10
150.6048721174195
 20
119.6201349332287
 30
0.0
 11
149.9648754519633
 21
119.6201349332287
 31
0.0
  0
LINE
  5
137
330
E3
100
AcDbEntity
  8
Des_ Walls
  6
Continuous
100
AcDbLine
 10
150.8048729451603
 20
119.6201349332287
 30
0.0
 11
150.8028941776486
 21
119.3423595673075
 31
0.0
  0
LINE
  5
138
330
E3
100
AcDbEntity
  8
Des_ Walls
  6
Continuous
100
AcDbLine
 10
150.8028941776486
 20
119.3423595673075
 30
0.0
 11
150.7969749702973
 21
119.0645799275905
 31
0.0
  0
LINE
  5
139
330
E3
100
AcDbEntity
  8
Des_ Walls
  6
Continuous
100
AcDbLine
 10
150.7969749702973
 20
119.0645799275905
 30
0.0
 11
150.7871537872695
 21
118.7868002878734
 31
0.0
  0
LINE
  5
13A
330
E3
100
AcDbEntity
  8
Des_ Walls
  6
Continuous
100
AcDbLine
 10
150.7871537872695
 20
118.7868002878734
 30
0.0
 11
150.7735161044839
 21
118.5090249219522
 31
0.0
  0
LINE
  5
13B
330
E3
100
AcDbEntity
  8
Des_ Walls
  6
Continuous
100
AcDbLine
 10
150.7735161044839
 20
118.5090249219522
 30
0.0
 11
150.7561559454505
 21
118.2312452822352
 31
0.0
  0
LINE
  5
13C
330
E3
100
AcDbEntity
  8
Des_ Walls
  6
Continuous
100
AcDbLine
 10
150.7561559454505
 20
118.2312452822352
 30
0.0
 11
150.7352057978431
 21
117.953469916314
 31
0.0
  0
LINE
  5
13D
330
E3
100
AcDbEntity
  8
Des_ Walls
  6
Continuous
100
AcDbLine
 10
150.7352057978431
 20
117.953469916314
 30
0.0
 11
150.7108323397025
 21
117.6756902765969
 31
0.0
  0
LINE
  5
13E
330
E3
100
AcDbEntity
  8
Des_ Walls
  6
Continuous
100
AcDbLine
 10
150.7108323397025
 20
117.6756902765969
 30
0.0
 11
150.6832150704574
 21
117.3979149106757
 31
0.0
  0
LINE
  5
13F
330
E3
100
AcDbEntity
  8
Des_ Walls
  6
Continuous
100
AcDbLine
 10
150.6832150704574
 20
117.3979149106757
 30
0.0
 11
150.652567679904
 21
117.1201352709587
 31
0.0
  0
LINE
  5
140
330
E3
100
AcDbEntity
  8
Des_ Walls
  6
Continuous
100
AcDbLine
 10
150.652567679904
 20
117.1201352709587
 30
0.0
 11
150.6191252268179
 21
116.8423556312416
 31
0.0
  0
LINE
  5
141
330
E3
100
AcDbEntity
  8
Des_ Walls
  6
Continuous
100
AcDbLine
 10
150.6191252268179
 20
116.8423556312416
 30
0.0
 11
150.5831355913625
 21
116.5645802653204
 31
0.0
  0
LINE
  5
142
330
E3
100
AcDbEntity
  8
Des_ Walls
  6
Continuous
100
AcDbLine
 10
150.5831355913625
 20
116.5645802653204
 30
0.0
 11
150.5448722964769
 21
116.2868006256033
 31
0.0
  0
LINE
  5
143
330
E3
100
AcDbEntity
  8
Des_ Walls
  6
Continuous
100
AcDbLine
 10
150.5448722964769
 20
116.2868006256033
 30
0.0
 11
150.5046345078755
 21
116.0090252596822
 31
0.0
  0
LINE
  5
144
330
E3
100
AcDbEntity
  8
Des_ Walls
  6
Continuous
100
AcDbLine
 10
150.5046345078755
 20
116.0090252596822
 30
0.0
 11
150.4627256650687
 21
115.7312456199651
 31
0.0
  0
LINE
  5
145
330
E3
100
AcDbEntity
  8
Des_ Walls
  6
Continuous
100
AcDbLine
 10
150.4627256650687
 20
115.7312456199651
 30
0.0
 11
150.4194620289549
 21
115.4534702540439
 31
0.0
  0
LINE
  5
146
330
E3
100
AcDbEntity
  8
Des_ Walls
  6
Continuous
100
AcDbLine
 10
150.4194620289549
 20
115.4534702540439
 30
0.0
 11
150.3751726818199
 21
115.1756906143269
 31
0.0
  0
LINE
  5
147
330
E3
100
AcDbEntity
  8
Des_ Walls
  6
Continuous
100
AcDbLine
 10
150.3751726818199
 20
115.1756906143269
 30
0.0
 11
150.3301952535415
 21
114.8979109746098
 31
0.0
  0
LINE
  5
148
330
E3
100
AcDbEntity
  8
Des_ Walls
  6
Continuous
100
AcDbLine
 10
150.3301952535415
 20
114.8979109746098
 30
0.0
 11
150.2848759215893
 21
114.6201356086886
 31
0.0
  0
LINE
  5
149
330
E3
100
AcDbEntity
  8
Des_ Walls
  6
Continuous
100
AcDbLine
 10
150.2848759215893
 20
114.6201356086886
 30
0.0
 11
150.2395523158413
 21
114.3423559689715
 31
0.0
  0
LINE
  5
14A
330
E3
100
AcDbEntity
  8
Des_ Walls
  6
Continuous
100
AcDbLine
 10
150.2395523158413
 20
114.3423559689715
 30
0.0
 11
150.1945748875629
 21
114.0645806030504
 31
0.0
  0
LINE
  5
14B
330
E3
100
AcDbEntity
  8
Des_ Walls
  6
Continuous
100
AcDbLine
 10
150.1945748875629
 20
114.0645806030504
 30
0.0
 11
150.1502898142238
 21
113.7868009633333
 31
0.0
  0
LINE
  5
14C
330
E3
100
AcDbEntity
  8
Des_ Walls
  6
Continuous
100
AcDbLine
 10
150.1502898142238
 20
113.7868009633333
 30
0.0
 11
150.1070219043141
 21
113.5090255974121
 31
0.0
  0
LINE
  5
14D
330
E3
100
AcDbEntity
  8
Des_ Walls
  6
Continuous
100
AcDbLine
 10
150.1070219043141
 20
113.5090255974121
 30
0.0
 11
150.0651130615073
 21
113.231245957695
 31
0.0
  0
LINE
  5
14E
330
E3
100
AcDbEntity
  8
Des_ Walls
  6
Continuous
100
AcDbLine
 10
150.0651130615073
 20
113.231245957695
 30
0.0
 11
150.0248752729059
 21
112.9534705917739
 31
0.0
  0
LINE
  5
14F
330
E3
100
AcDbEntity
  8
Des_ Walls
  6
Continuous
100
AcDbLine
 10
150.0248752729059
 20
112.9534705917739
 30
0.0
 11
149.9866162518162
 21
112.6756909520568
 31
0.0
  0
LINE
  5
150
330
E3
100
AcDbEntity
  8
Des_ Walls
  6
Continuous
100
AcDbLine
 10
149.9866162518162
 20
112.6756909520568
 30
0.0
 11
149.9506223425649
 21
112.3979113123397
 31
0.0
  0
LINE
  5
151
330
E3
100
AcDbEntity
  8
Des_ Walls
  6
Continuous
100
AcDbLine
 10
149.9506223425649
 20
112.3979113123397
 30
0.0
 11
149.9171798894787
 21
112.1201359464186
 31
0.0
  0
LINE
  5
152
330
E3
100
AcDbEntity
  8
Des_ Walls
  6
Continuous
100
AcDbLine
 10
149.9171798894787
 20
112.1201359464186
 30
0.0
 11
149.8865324989253
 21
111.8423563067015
 31
0.0
  0
LINE
  5
153
330
E3
100
AcDbEntity
  8
Des_ Walls
  6
Continuous
100
AcDbLine
 10
149.8865324989253
 20
111.8423563067015
 30
0.0
 11
149.8589152296803
 21
111.5645809407803
 31
0.0
  0
LINE
  5
154
330
E3
100
AcDbEntity
  8
Des_ Walls
  6
Continuous
100
AcDbLine
 10
149.8589152296803
 20
111.5645809407803
 30
0.0
 11
149.8345417715397
 21
111.2868013010632
 31
0.0
  0
LINE
  5
155
330
E3
100
AcDbEntity
  8
Des_ Walls
  6
Continuous
100
AcDbLine
 10
149.8345417715397
 20
111.2868013010632
 30
0.0
 11
149.8135958977281
 21
111.0090259351421
 31
0.0
  0
LINE
  5
156
330
E3
100
AcDbEntity
  8
Des_ Walls
  6
Continuous
100
AcDbLine
 10
149.8135958977281
 20
111.0090259351421
 30
0.0
 11
149.7962357386948
 21
110.731246295425
 31
0.0
  0
LINE
  5
157
330
E3
100
AcDbEntity
  8
Des_ Walls
  6
Continuous
100
AcDbLine
 10
149.7962357386948
 20
110.731246295425
 30
0.0
 11
149.7825937821132
 21
110.4534666557079
 31
0.0
  0
LINE
  5
158
330
E3
100
AcDbEntity
  8
Des_ Walls
  6
Continuous
100
AcDbLine
 10
149.7825937821132
 20
110.4534666557079
 30
0.0
 11
149.7727725990855
 21
110.1756912897868
 31
0.0
  0
LINE
  5
159
330
E3
100
AcDbEntity
  8
Des_ Walls
  6
Continuous
100
AcDbLine
 10
149.7727725990855
 20
110.1756912897868
 30
0.0
 11
149.7668533917341
 21
109.8979116500697
 31
0.0
  0
LINE
  5
15A
330
E3
100
AcDbEntity
  8
Des_ Walls
  6
Continuous
100
AcDbLine
 10
149.7668533917341
 20
109.8979116500697
 30
0.0
 11
149.7648746242225
 21
109.6201362841485
 31
0.0
  0
LINE
  5
15B
330
E3
100
AcDbEntity
  8
Des_ Walls
  6
Continuous
100
AcDbLine
 10
149.7648746242225
 20
109.6201362841485
 30
0.0
 11
149.7668533917341
 21
109.3423566444314
 31
0.0
  0
LINE
  5
15C
330
E3
100
AcDbEntity
  8
Des_ Walls
  6
Continuous
100
AcDbLine
 10
150.8048729451603
 20
114.6201356086886
 30
0.0
 11
150.8028941776486
 21
114.3423559689715
 31
0.0
  0
LINE
  5
15D
330
E3
100
AcDbEntity
  8
Des_ Walls
  6
Continuous
100
AcDbLine
 10
150.8028941776486
 20
114.3423559689715
 30
0.0
 11
150.7969749702973
 21
114.0645806030504
 31
0.0
  0
LINE
  5
15E
330
E3
100
AcDbEntity
  8
Des_ Walls
  6
Continuous
100
AcDbLine
 10
150.7969749702973
 20
114.0645806030504
 30
0.0
 11
150.7871537872695
 21
113.7868009633333
 31
0.0
  0
LINE
  5
15F
330
E3
100
AcDbEntity
  8
Des_ Walls
  6
Continuous
100
AcDbLine
 10
150.7871537872695
 20
113.7868009633333
 30
0.0
 11
150.7735161044839
 21
113.5090255974121
 31
0.0
  0
LINE
  5
160
330
E3
100
AcDbEntity
  8
Des_ Walls
  6
Continuous
100
AcDbLine
 10
150.7735161044839
 20
113.5090255974121
 30
0.0
 11
150.7561559454505
 21
113.231245957695
 31
0.0
  0
LINE
  5
161
330
E3
100
AcDbEntity
  8
Des_ Walls
  6
Continuous
100
AcDbLine
 10
150.7561559454505
 20
113.231245957695
 30
0.0
 11
150.7352057978431
 21
112.9534705917739
 31
0.0
  0
LINE
  5
162
330
E3
100
AcDbEntity
  8
Des_ Walls
  6
Continuous
100
AcDbLine
 10
150.7352057978431
 20
112.9534705917739
 30
0.0
 11
150.7108323397025
 21
112.6756909520568
 31
0.0
  0
LINE
  5
163
330
E3
100
AcDbEntity
  8
Des_ Walls
  6
Continuous
100
AcDbLine
 10
150.7108323397025
 20
112.6756909520568
 30
0.0
 11
150.6832150704574
 21
112.3979113123397
 31
0.0
  0
LINE
  5
164
330
E3
100
AcDbEntity
  8
Des_ Walls
  6
Continuous
100
AcDbLine
 10
150.6832150704574
 20
112.3979113123397
 30
0.0
 11
150.652567679904
 21
112.1201359464186
 31
0.0
  0
LINE
  5
165
330
E3
100
AcDbEntity
  8
Des_ Walls
  6
Continuous
100
AcDbLine
 10
150.652567679904
 20
112.1201359464186
 30
0.0
 11
150.6191252268179
 21
111.8423563067015
 31
0.0
  0
LINE
  5
166
330
E3
100
AcDbEntity
  8
Des_ Walls
  6
Continuous
100
AcDbLine
 10
150.6191252268179
 20
111.8423563067015
 30
0.0
 11
150.5831355913625
 21
111.5645809407803
 31
0.0
  0
LINE
  5
167
330
E3
100
AcDbEntity
  8
Des_ Walls
  6
Continuous
100
AcDbLine
 10
150.5831355913625
 20
111.5645809407803
 30
0.0
 11
150.5448722964769
 21
111.2868013010632
 31
0.0
  0
LINE
  5
168
330
E3
100
AcDbEntity
  8
Des_ Walls
  6
Continuous
100
AcDbLine
 10
150.5448722964769
 20
111.2868013010632
 30
0.0
 11
150.5046345078755
 21
111.0090259351421
 31
0.0
  0
LINE
  5
169
330
E3
100
AcDbEntity
  8
Des_ Walls
  6
Continuous
100
AcDbLine
 10
150.5046345078755
 20
111.0090259351421
 30
0.0
 11
150.4627256650687
 21
110.731246295425
 31
0.0
  0
LINE
  5
16A
330
E3
100
AcDbEntity
  8
Des_ Walls
  6
Continuous
100
AcDbLine
 10
150.4627256650687
 20
110.731246295425
 30
0.0
 11
150.4194620289549
 21
110.4534666557079
 31
0.0
  0
LINE
  5
16B
330
E3
100
AcDbEntity
  8
Des_ Walls
  6
Continuous
100
AcDbLine
 10
150.4194620289549
 20
110.4534666557079
 30
0.0
 11
150.3751726818199
 21
110.1756912897868
 31
0.0
  0
LINE
  5
16C
330
E3
100
AcDbEntity
  8
Des_ Walls
  6
Continuous
100
AcDbLine
 10
150.3751726818199
 20
110.1756912897868
 30
0.0
 11
150.3301952535415
 21
109.8979116500697
 31
0.0
  0
LINE
  5
16D
330
E3
100
AcDbEntity
  8
Des_ Walls
  6
Continuous
100
AcDbLine
 10
150.3301952535415
 20
109.8979116500697
 30
0.0
 11
150.2848759215893
 21
109.6201362841485
 31
0.0
  0
LINE
  5
16E
330
E3
100
AcDbEntity
  8
Des_ Walls
  6
Continuous
100
AcDbLine
 10
150.2848759215893
 20
109.6201362841485
 30
0.0
 11
150.2395523158413
 21
109.3423566444314
 31
0.0
  0
LINE
  5
16F
330
E3
100
AcDbEntity
  8
Des_ Walls
  6
Continuous
100
AcDbLine
 10
150.2395523158413
 20
109.3423566444314
 30
0.0
 11
150.1945748875629
 21
109.0645812785103
 31
0.0
  0
LINE
  5
170
330
E3
100
AcDbEntity
  8
Des_ Walls
  6
Continuous
100
AcDbLine
 10
150.1945748875629
 20
109.0645812785103
 30
0.0
 11
150.1502898142238
 21
108.7868016387932
 31
0.0
  0
LINE
  5
171
330
E3
100
AcDbEntity
  8
Des_ Walls
  6
Continuous
100
AcDbLine
 10
150.1502898142238
 20
108.7868016387932
 30
0.0
 11
150.1070219043141
 21
108.509026272872
 31
0.0
  0
LINE
  5
172
330
E3
100
AcDbEntity
  8
Des_ Walls
  6
Continuous
100
AcDbLine
 10
150.1070219043141
 20
108.509026272872
 30
0.0
 11
150.0651130615073
 21
108.231246633155
 31
0.0
  0
LINE
  5
173
330
E3
100
AcDbEntity
  8
Des_ Walls
  6
Continuous
100
AcDbLine
 10
150.0651130615073
 20
108.231246633155
 30
0.0
 11
150.0248752729059
 21
107.9534669934379
 31
0.0
  0
LINE
  5
174
330
E3
100
AcDbEntity
  8
Des_ Walls
  6
Continuous
100
AcDbLine
 10
150.0248752729059
 20
107.9534669934379
 30
0.0
 11
149.9866162518162
 21
107.6756916275167
 31
0.0
  0
LINE
  5
175
330
E3
100
AcDbEntity
  8
Des_ Walls
  6
Continuous
100
AcDbLine
 10
149.9866162518162
 20
107.6756916275167
 30
0.0
 11
149.9506223425649
 21
107.3979119877996
 31
0.0
  0
LINE
  5
176
330
E3
100
AcDbEntity
  8
Des_ Walls
  6
Continuous
100
AcDbLine
 10
149.9506223425649
 20
107.3979119877996
 30
0.0
 11
149.9171798894787
 21
107.1201366218785
 31
0.0
  0
LINE
  5
177
330
E3
100
AcDbEntity
  8
Des_ Walls
  6
Continuous
100
AcDbLine
 10
149.9171798894787
 20
107.1201366218785
 30
0.0
 11
149.8865324989253
 21
106.8423569821614
 31
0.0
  0
LINE
  5
178
330
E3
100
AcDbEntity
  8
Des_ Walls
  6
Continuous
100
AcDbLine
 10
149.8865324989253
 20
106.8423569821614
 30
0.0
 11
149.8589152296803
 21
106.5645816162402
 31
0.0
  0
LINE
  5
179
330
E3
100
AcDbEntity
  8
Des_ Walls
  6
Continuous
100
AcDbLine
 10
149.8589152296803
 20
106.5645816162402
 30
0.0
 11
149.8345417715397
 21
106.2868019765231
 31
0.0
  0
LINE
  5
17A
330
E3
100
AcDbEntity
  8
Des_ Walls
  6
Continuous
100
AcDbLine
 10
149.8345417715397
 20
106.2868019765231
 30
0.0
 11
149.8135958977281
 21
106.0090223368061
 31
0.0
  0
LINE
  5
17B
330
E3
100
AcDbEntity
  8
Des_ Walls
  6
Continuous
100
AcDbLine
 10
149.8135958977281
 20
106.0090223368061
 30
0.0
 11
149.7962357386948
 21
105.7312469708849
 31
0.0
  0
LINE
  5
17C
330
E3
100
AcDbEntity
  8
Des_ Walls
  6
Continuous
100
AcDbLine
 10
149.7962357386948
 20
105.7312469708849
 30
0.0
 11
149.7825937821132
 21
105.4534673311678
 31
0.0
  0
LINE
  5
17D
330
E3
100
AcDbEntity
  8
Des_ Walls
  6
Continuous
100
AcDbLine
 10
149.7825937821132
 20
105.4534673311678
 30
0.0
 11
149.7727725990855
 21
105.1756919652466
 31
0.0
  0
LINE
  5
17E
330
E3
100
AcDbEntity
  8
Des_ Walls
  6
Continuous
100
AcDbLine
 10
149.7727725990855
 20
105.1756919652466
 30
0.0
 11
149.7668533917341
 21
104.8979123255296
 31
0.0
  0
LINE
  5
17F
330
E3
100
AcDbEntity
  8
Des_ Walls
  6
Continuous
100
AcDbLine
 10
149.7668533917341
 20
104.8979123255296
 30
0.0
 11
149.7648746242225
 21
104.6201369596084
 31
0.0
  0
LINE
  5
180
330
E3
100
AcDbEntity
  8
Des_ Walls
  6
Continuous
100
AcDbLine
 10
149.7648746242225
 20
104.6201369596084
 30
0.0
 11
149.7668533917341
 21
104.3423573198913
 31
0.0
  0
LINE
  5
181
330
E3
100
AcDbEntity
  8
Des_ Walls
  6
Continuous
100
AcDbLine
 10
150.8048729451603
 20
109.6201362841485
 30
0.0
 11
150.8028941776486
 21
109.3423566444314
 31
0.0
  0
LINE
  5
182
330
E3
100
AcDbEntity
  8
Des_ Walls
  6
Continuous
100
AcDbLine
 10
150.8028941776486
 20
109.3423566444314
 30
0.0
 11
150.7969749702973
 21
109.0645812785103
 31
0.0
  0
LINE
  5
183
330
E3
100
AcDbEntity
  8
Des_ Walls
  6
Continuous
100
AcDbLine
 10
150.7969749702973
 20
109.0645812785103
 30
0.0
 11
150.7871537872695
 21
108.7868016387932
 31
0.0
  0
LINE
  5
184
330
E3
100
AcDbEntity
  8
Des_ Walls
  6
Continuous
100
AcDbLine
 10
150.7871537872695
 20
108.7868016387932
 30
0.0
 11
150.7735161044839
 21
108.509026272872
 31
0.0
  0
LINE
  5
185
330
E3
100
AcDbEntity
  8
Des_ Walls
  6
Continuous
100
AcDbLine
 10
150.7735161044839
 20
108.509026272872
 30
0.0
 11
150.7561559454505
 21
108.231246633155
 31
0.0
  0
LINE
  5
186
330
E3
100
AcDbEntity
  8
Des_ Walls
  6
Continuous
100
AcDbLine
 10
150.7561559454505
 20
108.231246633155
 30
0.0
 11
150.7352057978431
 21
107.9534669934379
 31
0.0
  0
LINE
  5
187
330
E3
100
AcDbEntity
  8
Des_ Walls
  6
Continuous
100
AcDbLine
 10
150.7352057978431
 20
107.9534669934379
 30
0.0
 11
150.7108323397025
 21
107.6756916275167
 31
0.0
  0
LINE
  5
188
330
E3
100
AcDbEntity
  8
Des_ Walls
  6
Continuous
100
AcDbLine
 10
150.7108323397025
 20
107.6756916275167
 30
0.0
 11
150.6832150704574
 21
107.3979119877996
 31
0.0
  0
LINE
  5
189
330
E3
100
AcDbEntity
  8
Des_ Walls
  6
Continuous
100
AcDbLine
 10
150.6832150704574
 20
107.3979119877996
 30
0.0
 11
150.652567679904
 21
107.1201366218785
 31
0.0
  0
LINE
  5
18A
330
E3
100
AcDbEntity
  8
Des_ Walls
  6
Continuous
100
AcDbLine
 10
150.652567679904
 20
107.1201366218785
 30
0.0
 11
150.6191252268179
 21
106.8423569821614
 31
0.0
  0
LINE
  5
18B
330
E3
100
AcDbEntity
  8
Des_ Walls
  6
Continuous
100
AcDbLine
 10
150.6191252268179
 20
106.8423569821614
 30
0.0
 11
150.5831355913625
 21
106.5645816162402
 31
0.0
  0
LINE
  5
18C
330
E3
100
AcDbEntity
  8
Des_ Walls
  6
Continuous
100
AcDbLine
 10
150.5831355913625
 20
106.5645816162402
 30
0.0
 11
150.5448722964769
 21
106.2868019765231
 31
0.0
  0
LINE
  5
18D
330
E3
100
AcDbEntity
  8
Des_ Walls
  6
Continuous
100
AcDbLine
 10
150.5448722964769
 20
106.2868019765231
 30
0.0
 11
150.5046345078755
 21
106.0090223368061
 31
0.0
  0
LINE
  5
18E
330
E3
100
AcDbEntity
  8
Des_ Walls
  6
Continuous
100
AcDbLine
 10
150.5046345078755
 20
106.0090223368061
 30
0.0
 11
150.4627256650687
 21
105.7312469708849
 31
0.0
  0
LINE
  5
18F
330
E3
100
AcDbEntity
  8
Des_ Walls
  6
Continuous
100
AcDbLine
 10
150.4627256650687
 20
105.7312469708849
 30
0.0
 11
150.4194620289549
 21
105.4534673311678
 31
0.0
  0
LINE
  5
190
330
E3
100
AcDbEntity
  8
Des_ Walls
  6
Continuous
100
AcDbLine
 10
150.4194620289549
 20
105.4534673311678
 30
0.0
 11
150.3751726818199
 21
105.1756919652466
 31
0.0
  0
LINE
  5
191
330
E3
100
AcDbEntity
  8
Des_ Walls
  6
Continuous
100
AcDbLine
 10
150.3751726818199
 20
105.1756919652466
 30
0.0
 11
150.3301952535415
 21
104.8979123255296
 31
0.0
  0
LINE
  5
192
330
E3
100
AcDbEntity
  8
Des_ Walls
  6
Continuous
100
AcDbLine
 10
150.3301952535415
 20
104.8979123255296
 30
0.0
 11
150.2848759215893
 21
104.6201369596084
 31
0.0
  0
LINE
  5
193
330
E3
100
AcDbEntity
  8
Des_ Walls
  6
Continuous
100
AcDbLine
 10
150.2848759215893
 20
104.6201369596084
 30
0.0
 11
150.2395523158413
 21
104.3423573198913
 31
0.0
  0
LINE
  5
194
330
E3
100
AcDbEntity
  8
Des_ Walls
  6
Continuous
100
AcDbLine
 10
150.2395523158413
 20
104.3423573198913
 30
0.0
 11
150.1945748875629
 21
104.0645776801743
 31
0.0
  0
LINE
  5
195
330
E3
100
AcDbEntity
  8
Des_ Walls
  6
Continuous
100
AcDbLine
 10
150.1945748875629
 20
104.0645776801743
 30
0.0
 11
150.1502898142238
 21
103.7868023142531
 31
0.0
  0
LINE
  5
196
330
E3
100
AcDbEntity
  8
Des_ Walls
  6
Continuous
100
AcDbLine
 10
150.1502898142238
 20
103.7868023142531
 30
0.0
 11
150.1070219043141
 21
103.509022674536
 31
0.0
  0
LINE
  5
197
330
E3
100
AcDbEntity
  8
Des_ Walls
  6
Continuous
100
AcDbLine
 10
150.1070219043141
 20
103.509022674536
 30
0.0
 11
150.0651130615073
 21
103.2312473086148
 31
0.0
  0
LINE
  5
198
330
E3
100
AcDbEntity
  8
Des_ Walls
  6
Continuous
100
AcDbLine
 10
150.0651130615073
 20
103.2312473086148
 30
0.0
 11
150.0248752729059
 21
102.9534676688978
 31
0.0
  0
LINE
  5
199
330
E3
100
AcDbEntity
  8
Des_ Walls
  6
Continuous
100
AcDbLine
 10
150.0248752729059
 20
102.9534676688978
 30
0.0
 11
149.9866162518162
 21
102.6756923029766
 31
0.0
  0
LINE
  5
19A
330
E3
100
AcDbEntity
  8
Des_ Walls
  6
Continuous
100
AcDbLine
 10
149.9866162518162
 20
102.6756923029766
 30
0.0
 11
149.9506223425649
 21
102.3979126632595
 31
0.0
  0
LINE
  5
19B
330
E3
100
AcDbEntity
  8
Des_ Walls
  6
Continuous
100
AcDbLine
 10
149.9506223425649
 20
102.3979126632595
 30
0.0
 11
149.9171798894787
 21
102.1201372973383
 31
0.0
  0
LINE
  5
19C
330
E3
100
AcDbEntity
  8
Des_ Walls
  6
Continuous
100
AcDbLine
 10
149.9171798894787
 20
102.1201372973383
 30
0.0
 11
149.8865324989253
 21
101.8423576576213
 31
0.0
  0
LINE
  5
19D
330
E3
100
AcDbEntity
  8
Des_ Walls
  6
Continuous
100
AcDbLine
 10
149.8865324989253
 20
101.8423576576213
 30
0.0
 11
149.8589152296803
 21
101.5645780179042
 31
0.0
  0
LINE
  5
19E
330
E3
100
AcDbEntity
  8
Des_ Walls
  6
Continuous
100
AcDbLine
 10
149.8589152296803
 20
101.5645780179042
 30
0.0
 11
149.8345417715397
 21
101.2868026519831
 31
0.0
  0
LINE
  5
19F
330
E3
100
AcDbEntity
  8
Des_ Walls
  6
Continuous
100
AcDbLine
 10
149.8345417715397
 20
101.2868026519831
 30
0.0
 11
149.8135958977281
 21
101.009023012266
 31
0.0
  0
LINE
  5
1A0
330
E3
100
AcDbEntity
  8
Des_ Walls
  6
Continuous
100
AcDbLine
 10
149.8135958977281
 20
101.009023012266
 30
0.0
 11
149.7962357386948
 21
100.7312476463448
 31
0.0
  0
LINE
  5
1A1
330
E3
100
AcDbEntity
  8
Des_ Walls
  6
Continuous
100
AcDbLine
 10
150.2848759215893
 20
119.6201349332287
 30
0.0
 11
150.2395523158413
 21
119.3423595673075
 31
0.0
  0
LINE
  5
1A2
330
E3
100
AcDbEntity
  8
Des_ Walls
  6
Continuous
100
AcDbLine
 10
150.2395523158413
 20
119.3423595673075
 30
0.0
 11
150.1945748875629
 21
119.0645799275905
 31
0.0
  0
LINE
  5
1A3
330
E3
100
AcDbEntity
  8
Des_ Walls
  6
Continuous
100
AcDbLine
 10
150.1945748875629
 20
119.0645799275905
 30
0.0
 11
150.1502898142238
 21
118.7868002878734
 31
0.0
  0
LINE
  5
1A4
330
E3
100
AcDbEntity
  8
Des_ Walls
  6
Continuous
100
AcDbLine
 10
150.1502898142238
 20
118.7868002878734
 30
0.0
 11
150.1070219043141
 21
118.5090249219522
 31
0.0
  0
LINE
  5
1A5
330
E3
100
AcDbEntity
  8
Des_ Walls
  6
Continuous
100
AcDbLine
 10
150.1070219043141
 20
118.5090249219522
 30
0.0
 11
150.0651130615073
 21
118.2312452822352
 31
0.0
  0
LINE
  5
1A6
330
E3
100
AcDbEntity
  8
Des_ Walls
  6
Continuous
100
AcDbLine
 10
150.0651130615073
 20
118.2312452822352
 30
0.0
 11
150.0248752729059
 21
117.953469916314
 31
0.0
  0
LINE
  5
1A7
330
E3
100
AcDbEntity
  8
Des_ Walls
  6
Continuous
100
AcDbLine
 10
150.0248752729059
 20
117.953469916314
 30
0.0
 11
149.9866162518162
 21
117.6756902765969
 31
0.0
  0
LINE
  5
1A8
330
E3
100
AcDbEntity
  8
Des_ Walls
  6
Continuous
100
AcDbLine
 10
149.9866162518162
 20
117.6756902765969
 30
0.0
 11
149.9506223425649
 21
117.3979149106757
 31
0.0
  0
LINE
  5
1A9
330
E3
100
AcDbEntity
  8
Des_ Walls
  6
Continuous
100
AcDbLine
 10
149.9506223425649
 20
117.3979149106757
 30
0.0
 11
149.9171798894787
 21
117.1201352709587
 31
0.0
  0
LINE
  5
1AA
330
E3
100
AcDbEntity
  8
Des_ Walls
  6
Continuous
100
AcDbLine
 10
149.9171798894787
 20
117.1201352709587
 30
0.0
 11
149.8865324989253
 21
116.8423556312416
 31
0.0
  0
LINE
  5
1AB
330
E3
100
AcDbEntity
  8
Des_ Walls
  6
Continuous
100
AcDbLine
 10
149.8865324989253
 20
116.8423556312416
 30
0.0
 11
149.8589152296803
 21
116.5645802653204
 31
0.0
  0
LINE
  5
1AC
330
E3
100
AcDbEntity
  8
Des_ Walls
  6
Continuous
100
AcDbLine
 10
149.8589152296803
 20
116.5645802653204
 30
0.0
 11
149.8345417715397
 21
116.2868006256033
 31
0.0
  0
LINE
  5
1AD
330
E3
100
AcDbEntity
  8
Des_ Walls
  6
Continuous
100
AcDbLine
 10
149.8345417715397
 20
116.2868006256033
 30
0.0
 11
149.8135958977281
 21
116.0090252596822
 31
0.0
  0
LINE
  5
1AE
330
E3
100
AcDbEntity
  8
Des_ Walls
  6
Continuous
100
AcDbLine
 10
149.8135958977281
 20
116.0090252596822
 30
0.0
 11
149.7962357386948
 21
115.7312456199651
 31
0.0
  0
LINE
  5
1AF
330
E3
100
AcDbEntity
  8
Des_ Walls
  6
Continuous
100
AcDbLine
 10
149.7962357386948
 20
115.7312456199651
 30
0.0
 11
149.7825937821132
 21
115.4534702540439
 31
0.0
  0
LINE
  5
1B0
330
E3
100
AcDbEntity
  8
Des_ Walls
  6
Continuous
100
AcDbLine
 10
149.7825937821132
 20
115.4534702540439
 30
0.0
 11
149.7727725990855
 21
115.1756906143269
 31
0.0
  0
LINE
  5
1B1
330
E3
100
AcDbEntity
  8
Des_ Walls
  6
Continuous
100
AcDbLine
 10
149.7727725990855
 20
115.1756906143269
 30
0.0
 11
149.7668533917341
 21
114.8979109746098
 31
0.0
  0
LINE
  5
1B2
330
E3
100
AcDbEntity
  8
Des_ Walls
  6
Continuous
100
AcDbLine
 10
149.7668533917341
 20
114.8979109746098
 30
0.0
 11
149.7648746242225
 21
114.6201356086886
 31
0.0
  0
LINE
  5
1B3
330
E3
100
AcDbEntity
  8
Des_ Walls
  6
Continuous
100
AcDbLine
 10
149.7648746242225
 20
114.6201356086886
 30
0.0
 11
149.7668533917341
 21
114.3423559689715
 31
0.0
  0
LINE
  5
1B4
330
E3
100
AcDbEntity
  8
Des_ Walls
  6
Continuous
100
AcDbLine
 10
150.8048729451603
 20
104.6201369596084
 30
0.0
 11
150.8028941776486
 21
104.3423573198913
 31
0.0
  0
LINE
  5
1B5
330
E3
100
AcDbEntity
  8
Des_ Walls
  6
Continuous
100
AcDbLine
 10
150.8028941776486
 20
104.3423573198913
 30
0.0
 11
150.7969749702973
 21
104.0645776801743
 31
0.0
  0
LINE
  5
1B6
330
E3
100
AcDbEntity
  8
Des_ Walls
  6
Continuous
100
AcDbLine
 10
150.7969749702973
 20
104.0645776801743
 30
0.0
 11
150.7871537872695
 21
103.7868023142531
 31
0.0
  0
LINE
  5
1B7
330
E3
100
AcDbEntity
  8
Des_ Walls
  6
Continuous
100
AcDbLine
 10
150.7871537872695
 20
103.7868023142531
 30
0.0
 11
150.7735161044839
 21
103.509022674536
 31
0.0
  0
LINE
  5
1B8
330
E3
100
AcDbEntity
  8
Des_ Walls
  6
Continuous
100
AcDbLine
 10
150.7735161044839
 20
103.509022674536
 30
0.0
 11
150.7561559454505
 21
103.2312473086148
 31
0.0
  0
LINE
  5
1B9
330
E3
100
AcDbEntity
  8
Des_ Walls
  6
Continuous
100
AcDbLine
 10
150.7561559454505
 20
103.2312473086148
 30
0.0
 11
150.7352057978431
 21
102.9534676688978
 31
0.0
  0
LINE
  5
1BA
330
E3
100
AcDbEntity
  8
Des_ Walls
  6
Continuous
100
AcDbLine
 10
150.7352057978431
 20
102.9534676688978
 30
0.0
 11
150.7108323397025
 21
102.6756923029766
 31
0.0
  0
LINE
  5
1BB
330
E3
100
AcDbEntity
  8
Des_ Walls
  6
Continuous
100
AcDbLine
 10
150.7108323397025
 20
102.6756923029766
 30
0.0
 11
150.6832150704574
 21
102.3979126632595
 31
0.0
  0
LINE
  5
1BC
330
E3
100
AcDbEntity
  8
Des_ Walls
  6
Continuous
100
AcDbLine
 10
150.6832150704574
 20
102.3979126632595
 30
0.0
 11
150.652567679904
 21
102.1201372973383
 31
0.0
  0
LINE
  5
1BD
330
E3
100
AcDbEntity
  8
Des_ Walls
  6
Continuous
100
AcDbLine
 10
150.652567679904
 20
102.1201372973383
 30
0.0
 11
150.6191252268179
 21
101.8423576576213
 31
0.0
  0
LINE
  5
1BE
330
E3
100
AcDbEntity
  8
Des_ Walls
  6
Continuous
100
AcDbLine
 10
150.6191252268179
 20
101.8423576576213
 30
0.0
 11
150.5831355913625
 21
101.5645780179042
 31
0.0
  0
LINE
  5
1BF
330
E3
100
AcDbEntity
  8
Des_ Walls
  6
Continuous
100
AcDbLine
 10
150.5831355913625
 20
101.5645780179042
 30
0.0
 11
150.5448722964769
 21
101.2868026519831
 31
0.0
  0
LINE
  5
1C0
330
E3
100
AcDbEntity
  8
Des_ Walls
  6
Continuous
100
AcDbLine
 10
150.5448722964769
 20
101.2868026519831
 30
0.0
 11
150.5046345078755
 21
101.009023012266
 31
0.0
  0
LINE
  5
1C1
330
E3
100
AcDbEntity
  8
Des_ Walls
  6
Continuous
100
AcDbLine
 10
150.5046345078755
 20
101.009023012266
 30
0.0
 11
150.4627256650687
 21
100.7312476463448
 31
0.0
  0
HATCH
  5
1C2
330
E3
100
AcDbEntity
  8
Des_ Walls
  6
Continuous
 62
   255
370
     0
100
AcDbHatch
 10
0.0
 20
0.0
 30
0.0
210
0.0
220
0.0
230
1.0
  2
SOLID
 70
     1
 71
     0
 91
        1
 92
        3
 72
     0
 73
     1
 93
        6
 10
147.4848740233585
 20
119.4201352825902
 10
147.4848740233585
 20
116.7174129998353
 10
147.5168740233585
 20
116.6854129998353
 10
148.0528740233585
 20
116.6854129998353
 10
148.0848740233585
 20
116.7174129998353
 10
148.0848740233585
 20
119.4201352825902
 97
        0
 75
     0
 76
     1
 98
        0
  0
LINE
  5
1C3
330
E3
100
AcDbEntity
  8
Des_ Walls
  6
Continuous
100
AcDbLine
 10
147.4848728808101
 20
119.4201341054879
 30
0.0
 11
147.4848728808101
 21
116.717411207475
 31
0.0
  0
LINE
  5
1C4
330
E3
100
AcDbEntity
  8
Des_ Walls
  6
Continuous
100
AcDbLine
 10
147.4848728808101
 20
116.717411207475
 30
0.0
 11
147.5168750646707
 21
116.6854132974104
 31
0.0
  0
LINE
  5
1C5
330
E3
100
AcDbEntity
  8
Des_ Walls
  6
Continuous
100
AcDbLine
 10
147.5168750646707
 20
116.6854132974104
 30
0.0
 11
148.052873180172
 21
116.6854132974104
 31
0.0
  0
LINE
  5
1C6
330
E3
100
AcDbEntity
  8
Des_ Walls
  6
Continuous
100
AcDbLine
 10
148.052873180172
 20
116.6854132974104
 30
0.0
 11
148.0848753640325
 21
116.717411207475
 31
0.0
  0
LINE
  5
1C7
330
E3
100
AcDbEntity
  8
Des_ Walls
  6
Continuous
100
AcDbLine
 10
148.0848753640325
 20
116.717411207475
 30
0.0
 11
148.0848753640325
 21
119.4201341054879
 31
0.0
  0
LINE
  5
1C8
330
E3
100
AcDbEntity
  8
Des_ Walls
  6
Continuous
100
AcDbLine
 10
148.0848753640325
 20
119.4201341054879
 30
0.0
 11
147.4848728808101
 21
119.4201341054879
 31
0.0
  0
LINE
  5
1C9
330
E3
100
AcDbEntity
  8
Des_ Walls
  6
Continuous
100
AcDbLine
 10
147.4848728808101
 20
116.717411207475
 30
0.0
 11
148.0848753640325
 21
116.717411207475
 31
0.0
  0
LINE
  5
1CA
330
E3
100
AcDbEntity
  8
Des_ Walls
  6
Continuous
100
AcDbLine
 10
147.4848728808101
 20
119.4201341054879
 30
0.0
 11
148.0848753640325
 21
119.4201341054879
 31
0.0
  0
LINE
  5
1CB
330
E3
100
AcDbEntity
  8
Des_ Walls
  6
Continuous
100
AcDbLine
 10
147.5168750646707
 20
119.3881361954233
 30
0.0
 11
148.052873180172
 21
119.3881361954233
 31
0.0
  0
LINE
  5
1CC
330
E3
100
AcDbEntity
  8
Des_ Walls
  6
Continuous
100
AcDbLine
 10
147.5168750646707
 20
119.3881361954233
 30
0.0
 11
147.4848728808101
 21
119.4201341054879
 31
0.0
  0
LINE
  5
1CD
330
E3
100
AcDbEntity
  8
Des_ Walls
  6
Continuous
100
AcDbLine
 10
148.052873180172
 20
119.3881361954233
 30
0.0
 11
148.0848753640325
 21
119.4201341054879
 31
0.0
  0
LINE
  5
1CE
330
E3
100
AcDbEntity
  8
Des_ Walls
  6
Continuous
100
AcDbLine
 10
147.5168750646707
 20
119.3881361954233
 30
0.0
 11
147.5168750646707
 21
116.6854132974104
 31
0.0
  0
LINE
  5
1CF
330
E3
100
AcDbEntity
  8
Des_ Walls
  6
Continuous
100
AcDbLine
 10
148.052873180172
 20
119.3881361954233
 30
0.0
 11
148.052873180172
 21
116.6854132974104
 31
0.0
  0
HATCH
  5
1D0
330
E3
100
AcDbEntity
  8
Des_ Walls
  6
Continuous
 62
   255
370
     0
100
AcDbHatch
 10
0.0
 20
0.0
 30
0.0
210
0.0
220
0.0
230
1.0
  2
SOLID
 70
     1
 71
     0
 91
        1
 92
        3
 72
     0
 73
     1
 93
        4
 10
148.1745854550615
 20
119.7951352825902
 10
147.3951625916555
 20
119.7951352825902
 10
147.3951625916555
 20
119.4201352825902
 10
148.1745854550615
 20
119.4201352825902
 97
        0
 75
     0
 76
     1
 98
        0
  0
HATCH
  5
1D1
330
E3
100
AcDbEntity
  8
Des_ Walls
  6
Continuous
 62
   255
370
     0
100
AcDbHatch
 10
0.0
 20
0.0
 30
0.0
210
0.0
220
0.0
230
1.0
  2
SOLID
 70
     1
 71
     0
 91
        1
 92
        3
 72
     1
 73
     1
 93
        4
 10
148.0446816444939
 20
119.7326352825903
 42
0.2405626121623441
 10
147.5250664022232
 20
119.7326352825903
 42
0.0
 10
147.5250664022232
 20
119.4201352825902
 42
0.0
 10
148.0446816444939
 20
119.4201352825902
 42
0.0
 97
        0
 75
     0
 76
     1
 98
        0
  0
ARC
  5
1D2
330
E3
100
AcDbEntity
  8
Des_ Walls
  6
Continuous
100
AcDbCircle
 10
147.7848740233585
 20
119.2238852825902
 30
0.0
 40
0.5712500000000175
100
AcDbArc
 50
62.94758187956881
 51
117.0524181204312
  0
LINE
  5
1D3
330
E3
100
AcDbEntity
  8
Des_ Walls
  6
Continuous
100
AcDbLine
 10
147.5250679314524
 20
119.7326340632717
 30
0.0
 11
147.5250679314524
 21
119.4201341054879
 31
0.0
  0
LINE
  5
1D4
330
E3
100
AcDbEntity
  8
Des_ Walls
  6
Continuous
100
AcDbLine
 10
147.5250679314524
 20
119.4201341054879
 30
0.0
 11
148.0446803133903
 21
119.4201341054879
 31
0.0
  0
LINE
  5
1D5
330
E3
100
AcDbEntity
  8
Des_ Walls
  6
Continuous
100
AcDbLine
 10
148.0446803133903
 20
119.4201341054879
 30
0.0
 11
148.0446803133903
 21
119.7326340632717
 31
0.0
  0
HATCH
  5
1D6
330
E3
100
AcDbEntity
  8
Des_ Walls
  6
Continuous
 62
   255
370
     0
100
AcDbHatch
 10
0.0
 20
0.0
 30
0.0
210
0.0
220
0.0
230
1.0
  2
SOLID
 70
     1
 71
     0
 91
        1
 92
        3
 72
     1
 73
     1
 93
        4
 10
148.3044892656292
 20
119.7326352825903
 42
0.4811252243246882
 10
148.0446816444939
 20
119.7326352825903
 42
0.0
 10
148.0446816444939
 20
119.4201352825902
 42
0.0
 10
148.3044892656292
 20
119.4201352825902
 42
0.0
 97
        0
 75
     0
 76
     1
 98
        0
  0
ARC
  5
1D7
330
E3
100
AcDbEntity
  8
Des_ Walls
  6
Continuous
100
AcDbCircle
 10
148.1745854550615
 20
119.6288852825903
 30
0.0
 40
0.166249999999983
100
AcDbArc
 50
38.61323819100132
 51
141.3867618089987
  0
LINE
  5
1D8
330
E3
100
AcDbEntity
  8
Des_ Walls
  6
Continuous
100
AcDbLine
 10
148.0446803133903
 20
119.7326340632717
 30
0.0
 11
148.0446803133903
 21
119.4201341054879
 31
0.0
  0
LINE
  5
1D9
330
E3
100
AcDbEntity
  8
Des_ Walls
  6
Continuous
100
AcDbLine
 10
148.0446803133903
 20
119.4201341054879
 30
0.0
 11
148.3044886412573
 21
119.4201341054879
 31
0.0
  0
LINE
  5
1DA
330
E3
100
AcDbEntity
  8
Des_ Walls
  6
Continuous
100
AcDbLine
 10
148.3044886412573
 20
119.4201341054879
 30
0.0
 11
148.3044886412573
 21
119.7326340632717
 31
0.0
  0
HATCH
  5
1DB
330
E3
100
AcDbEntity
  8
Des_ Walls
  6
Continuous
 62
   255
370
     0
100
AcDbHatch
 10
0.0
 20
0.0
 30
0.0
210
0.0
220
0.0
230
1.0
  2
SOLID
 70
     1
 71
     0
 91
        1
 92
        3
 72
     1
 73
     1
 93
        4
 10
147.2652587810879
 20
119.7326352825903
 42
0.0
 10
147.2652587810879
 20
119.4201352825902
 42
0.0
 10
147.5250664022232
 20
119.4201352825902
 42
0.0
 10
147.5250664022232
 20
119.7326352825903
 42
0.4811252243246882
 97
        0
 75
     0
 76
     1
 98
        0
  0
LINE
  5
1DC
330
E3
100
AcDbEntity
  8
Des_ Walls
  6
Continuous
100
AcDbLine
 10
147.2652596035854
 20
119.4201341054879
 30
0.0
 11
147.2652596035854
 21
119.7326340632717
 31
0.0
  0
LINE
  5
1DD
330
E3
100
AcDbEntity
  8
Des_ Walls
  6
Continuous
100
AcDbLine
 10
147.5250679314524
 20
119.4201341054879
 30
0.0
 11
147.2652596035854
 21
119.4201341054879
 31
0.0
  0
LINE
  5
1DE
330
E3
100
AcDbEntity
  8
Des_ Walls
  6
Continuous
100
AcDbLine
 10
147.5250679314524
 20
119.7326340632717
 30
0.0
 11
147.5250679314524
 21
119.4201341054879
 31
0.0
  0
ARC
  5
1DF
330
E3
100
AcDbEntity
  8
Des_ Walls
  6
Continuous
100
AcDbCircle
 10
147.3951625916555
 20
119.6288852825903
 30
0.0
 40
0.166249999999983
100
AcDbArc
 50
38.61323819100132
 51
141.3867618090047
  0
HATCH
  5
1E0
330
E3
100
AcDbEntity
  8
Des_ Walls
  6
Continuous
 62
   255
370
     0
100
AcDbHatch
 10
0.0
 20
0.0
 30
0.0
210
0.0
220
0.0
230
1.0
  2
SOLID
 70
     1
 71
     0
 91
        1
 92
        3
 72
     0
 73
     1
 93
        4
 10
148.1745854550615
 20
117.9139555612834
 10
147.3951625916555
 20
117.9139555612834
 10
147.3951625916555
 20
117.3939555612833
 10
148.1745854550615
 20
117.3939555612833
 97
        0
 75
     0
 76
     1
 98
        0
  0
HATCH
  5
1E1
330
E3
100
AcDbEntity
  8
Des_ Walls
  6
Continuous
 62
   255
370
     0
100
AcDbHatch
 10
0.0
 20
0.0
 30
0.0
210
0.0
220
0.0
230
1.0
  2
SOLID
 70
     1
 71
     0
 91
        1
 92
        3
 72
     1
 73
     1
 93
        4
 10
148.0446816444939
 20
117.8272888946167
 42
0.3335801555317839
 10
147.5250664022232
 20
117.8272888946167
 42
0.0
 10
147.5250664022232
 20
117.48062222795
 42
0.3335801555317839
 10
148.0446816444939
 20
117.48062222795
 42
0.0
 97
        0
 75
     0
 76
     1
 98
        0
  0
ARC
  5
1E2
330
E3
100
AcDbEntity
  8
Des_ Walls
  6
Continuous
100
AcDbCircle
 10
147.7848740233585
 20
117.4811991510269
 30
0.0
 40
0.4327564102564219
100
AcDbArc
 50
53.10464887284949
 51
126.8953511271505
  0
LINE
  5
1E3
330
E3
100
AcDbEntity
  8
Des_ Walls
  6
Continuous
100
AcDbLine
 10
147.5250679314524
 20
117.8272903655261
 30
0.0
 11
147.5250679314524
 21
117.4806214093496
 31
0.0
  0
ARC
  5
1E4
330
E3
100
AcDbEntity
  8
Des_ Walls
  6
Continuous
100
AcDbCircle
 10
147.7848740233585
 20
117.8267119715397
 30
0.0
 40
0.4327564102564219
100
AcDbArc
 50
233.1046488728495
 51
306.8953511271505
  0
LINE
  5
1E5
330
E3
100
AcDbEntity
  8
Des_ Walls
  6
Continuous
100
AcDbLine
 10
148.0446803133903
 20
117.4806214093496
 30
0.0
 11
148.0446803133903
 21
117.8272903655261
 31
0.0
  0
HATCH
  5
1E6
330
E3
100
AcDbEntity
  8
Des_ Walls
  6
Continuous
 62
   255
370
     0
100
AcDbHatch
 10
0.0
 20
0.0
 30
0.0
210
0.0
220
0.0
230
1.0
  2
SOLID
 70
     1
 71
     0
 91
        1
 92
        3
 72
     1
 73
     1
 93
        4
 10
148.3044892656292
 20
117.8272888946167
 42
0.6671603110635675
 10
148.0446816444939
 20
117.8272888946167
 42
0.0
 10
148.0446816444939
 20
117.48062222795
 42
0.6671603110635675
 10
148.3044892656292
 20
117.48062222795
 42
0.0
 97
        0
 75
     0
 76
     1
 98
        0
  0
ARC
  5
1E7
330
E3
100
AcDbEntity
  8
Des_ Walls
  6
Continuous
100
AcDbCircle
 10
148.1745854550615
 20
117.7732664587193
 30
0.0
 40
0.1406891025640906
100
AcDbArc
 50
22.58071176780073
 51
157.4192882321993
  0
LINE
  5
1E8
330
E3
100
AcDbEntity
  8
Des_ Walls
  6
Continuous
100
AcDbLine
 10
148.0446803133903
 20
117.8272903655261
 30
0.0
 11
148.0446803133903
 21
117.4806214093496
 31
0.0
  0
ARC
  5
1E9
330
E3
100
AcDbEntity
  8
Des_ Walls
  6
Continuous
100
AcDbCircle
 10
148.1745854550615
 20
117.5346446638474
 30
0.0
 40
0.1406891025640906
100
AcDbArc
 50
202.5807117678007
 51
337.4192882321993
  0
LINE
  5
1EA
330
E3
100
AcDbEntity
  8
Des_ Walls
  6
Continuous
100
AcDbLine
 10
148.3044886412573
 20
117.4806214093496
 30
0.0
 11
148.3044886412573
 21
117.8272903655261
 31
0.0
  0
HATCH
  5
1EB
330
E3
100
AcDbEntity
  8
Des_ Walls
  6
Continuous
 62
   255
370
     0
100
AcDbHatch
 10
0.0
 20
0.0
 30
0.0
210
0.0
220
0.0
230
1.0
  2
SOLID
 70
     1
 71
     0
 91
        1
 92
        3
 72
     1
 73
     1
 93
        4
 10
147.2652587810879
 20
117.8272888946167
 42
0.0
 10
147.2652587810879
 20
117.48062222795
 42
0.6671603110635675
 10
147.5250664022232
 20
117.48062222795
 42
0.0
 10
147.5250664022232
 20
117.8272888946167
 42
0.6671603110635675
 97
        0
 75
     0
 76
     1
 98
        0
  0
LINE
  5
1EC
330
E3
100
AcDbEntity
  8
Des_ Walls
  6
Continuous
100
AcDbLine
 10
147.2652596035854
 20
117.4806214093496
 30
0.0
 11
147.2652596035854
 21
117.8272903655261
 31
0.0
  0
ARC
  5
1ED
330
E3
100
AcDbEntity
  8
Des_ Walls
  6
Continuous
100
AcDbCircle
 10
147.3951625916555
 20
117.5346446638474
 30
0.0
 40
0.1406891025641216
100
AcDbArc
 50
202.5807117678016
 51
337.419288232194
  0
LINE
  5
1EE
330
E3
100
AcDbEntity
  8
Des_ Walls
  6
Continuous
100
AcDbLine
 10
147.5250679314524
 20
117.8272903655261
 30
0.0
 11
147.5250679314524
 21
117.4806214093496
 31
0.0
  0
ARC
  5
1EF
330
E3
100
AcDbEntity
  8
Des_ Walls
  6
Continuous
100
AcDbCircle
 10
147.3951625916555
 20
117.7732664587193
 30
0.0
 40
0.1406891025640906
100
AcDbArc
 50
22.58071176780073
 51
157.4192882322036
  0
HATCH
  5
1F0
330
E3
100
AcDbEntity
  8
Des_ Walls
  6
Continuous
 62
   255
370
     0
100
AcDbHatch
 10
0.0
 20
0.0
 30
0.0
210
0.0
220
0.0
230
1.0
  2
SOLID
 70
     1
 71
     0
 91
        1
 92
        3
 72
     0
 73
     1
 93
        4
 10
147.1598740233585
 20
119.0201352825903
 10
148.4098740233585
 20
119.0201352825903
 10
148.4098740233585
 20
119.4201352825902
 10
147.1598740233585
 20
119.4201352825902
 97
        0
 75
     0
 76
     1
 98
        0
  0
LINE
  5
1F1
330
E3
100
AcDbEntity
  8
Des_ Walls
  6
Continuous
100
AcDbLine
 10
147.1598720699559
 20
119.0201367238023
 30
0.0
 11
148.4098719010909
 21
119.0201367238023
 31
0.0
  0
LINE
  5
1F2
330
E3
100
AcDbEntity
  8
Des_ Walls
  6
Continuous
100
AcDbLine
 10
148.4098719010909
 20
119.0201367238023
 30
0.0
 11
148.4098719010909
 21
119.4201341054879
 31
0.0
  0
LINE
  5
1F3
330
E3
100
AcDbEntity
  8
Des_ Walls
  6
Continuous
100
AcDbLine
 10
148.4098719010909
 20
119.4201341054879
 30
0.0
 11
147.1598720699559
 21
119.4201341054879
 31
0.0
  0
LINE
  5
1F4
330
E3
100
AcDbEntity
  8
Des_ Walls
  6
Continuous
100
AcDbLine
 10
147.1598720699559
 20
119.4201341054879
 30
0.0
 11
147.1598720699559
 21
119.0201367238023
 31
0.0
  0
HATCH
  5
1F5
330
E3
100
AcDbEntity
  8
Des_ Walls
  6
Continuous
 62
   255
370
     0
100
AcDbHatch
 10
0.0
 20
0.0
 30
0.0
210
0.0
220
0.0
230
1.0
  2
SOLID
 70
     1
 71
     0
 91
        1
 92
        3
 72
     0
 73
     1
 93
        4
 10
147.1598740233585
 20
118.3139555612833
 10
147.1598740233585
 20
117.9139555612834
 10
148.4098740233585
 20
117.9139555612834
 10
148.4098740233585
 20
118.3139555612833
 97
        0
 75
     0
 76
     1
 98
        0
  0
LINE
  5
1F6
330
E3
100
AcDbEntity
  8
Des_ Walls
  6
Continuous
100
AcDbLine
 10
147.1598720699559
 20
118.3139560547049
 30
0.0
 11
147.1598720699559
 21
117.9139543992233
 31
0.0
  0
LINE
  5
1F7
330
E3
100
AcDbEntity
  8
Des_ Walls
  6
Continuous
100
AcDbLine
 10
147.1598720699559
 20
117.9139543992233
 30
0.0
 11
148.4098719010909
 21
117.9139543992233
 31
0.0
  0
LINE
  5
1F8
330
E3
100
AcDbEntity
  8
Des_ Walls
  6
Continuous
100
AcDbLine
 10
148.4098719010909
 20
117.9139543992233
 30
0.0
 11
148.4098719010909
 21
118.3139560547049
 31
0.0
  0
LINE
  5
1F9
330
E3
100
AcDbEntity
  8
Des_ Walls
  6
Continuous
100
AcDbLine
 10
148.4098719010909
 20
118.3139560547049
 30
0.0
 11
147.1598720699559
 21
118.3139560547049
 31
0.0
  0
LINE
  5
1FA
330
E3
100
AcDbEntity
  8
Des_ Walls
  6
Continuous
100
AcDbLine
 10
148.1745866142218
 20
119.7951340548284
 30
0.0
 11
147.3951616306209
 21
119.7951340548284
 31
0.0
  0
LINE
  5
1FB
330
E3
100
AcDbEntity
  8
Des_ Walls
  6
Continuous
100
AcDbLine
 10
147.3951616306209
 20
119.4201341054879
 30
0.0
 11
148.1745866142218
 21
119.4201341054879
 31
0.0
  0
LINE
  5
1FC
330
E3
100
AcDbEntity
  8
Des_ Walls
  6
Continuous
100
AcDbLine
 10
148.1745866142218
 20
117.9139543992233
 30
0.0
 11
147.3951616306209
 21
117.9139543992233
 31
0.0
  0
LINE
  5
1FD
330
E3
100
AcDbEntity
  8
Des_ Walls
  6
Continuous
100
AcDbLine
 10
147.3951616306209
 20
117.3939573756524
 30
0.0
 11
148.1745866142218
 21
117.3939573756524
 31
0.0
  0
LINE
  5
1FF
330
E3
100
AcDbEntity
  8
Des_ Walls
  6
Dot & Dashed
100
AcDbLine
 10
147.7848719855234
 20
119.9201340379419
 30
0.0
 11
147.7848719855234
 21
115.9854125372156
 31
0.0
  0
HATCH
  5
200
330
E3
100
AcDbEntity
  8
Des_ Walls
  6
Continuous
 62
   255
370
     0
100
AcDbHatch
 10
0.0
 20
0.0
 30
0.0
210
0.0
220
0.0
230
1.0
  2
SOLID
 70
     1
 71
     0
 91
        1
 92
        3
 72
     0
 73
     1
 93
        6
 10
189.9602750279753
 20
82.36667268721243
 10
187.8818140588926
 20
82.36667268721243
 10
186.8425835743513
 20
80.5666726872124
 10
187.8818140588926
 20
78.76667268721238
 10
189.9602750279753
 20
78.76667268721238
 10
190.9995055125166
 20
80.5666726872124
 97
        0
 75
     0
 76
     1
 98
        0
  0
LINE
  5
201
330
E3
100
AcDbEntity
  8
Des_ Walls
  6
Continuous
100
AcDbLine
 10
189.9602757176684
 20
82.36667391691259
 30
0.0
 11
187.8818133685286
 21
82.36667391691259
 31
0.0
  0
LINE
  5
202
330
E3
100
AcDbEntity
  8
Des_ Walls
  6
Continuous
100
AcDbLine
 10
187.8818133685286
 20
82.36667391691259
 30
0.0
 11
186.8425843308567
 21
80.56667074104142
 31
0.0
  0
LINE
  5
203
330
E3
100
AcDbEntity
  8
Des_ Walls
  6
Continuous
100
AcDbLine
 10
186.8425843308567
 20
80.56667074104142
 30
0.0
 11
187.8818133685286
 21
78.76667183896618
 31
0.0
  0
LINE
  5
204
330
E3
100
AcDbEntity
  8
Des_ Walls
  6
Continuous
100
AcDbLine
 10
187.8818133685286
 20
78.76667183896618
 30
0.0
 11
189.9602757176684
 21
78.76667183896618
 31
0.0
  0
LINE
  5
205
330
E3
100
AcDbEntity
  8
Des_ Walls
  6
Continuous
100
AcDbLine
 10
189.9602757176684
 20
78.76667183896618
 30
0.0
 11
190.9995047553403
 21
80.56667074104142
 31
0.0
  0
LINE
  5
206
330
E3
100
AcDbEntity
  8
Des_ Walls
  6
Continuous
100
AcDbLine
 10
190.9995047553403
 20
80.56667074104142
 30
0.0
 11
189.9602757176684
 21
82.36667391691259
 31
0.0
  0
HATCH
  5
207
330
E3
100
AcDbEntity
  8
Des_ Walls
  6
Continuous
 62
   255
370
     0
100
AcDbHatch
 10
0.0
 20
0.0
 30
0.0
210
0.0
220
0.0
230
1.0
  2
SOLID
 70
     1
 71
     0
 91
        1
 92
        3
 72
     1
 73
     1
 93
        2
 10
190.1210445434339
 20
80.5666726872124
 42
0.9999999999999999
 10
187.7210445434339
 20
80.5666726872124
 42
0.9999999999999999
 97
        0
 75
     0
 76
     1
 98
        0
  0
ARC
  5
208
330
E3
100
AcDbEntity
  8
Des_ Walls
  6
Continuous
100
AcDbCircle
 10
188.9210445434339
 20
80.5666726872124
 30
0.0
 40
1.200000000000007
100
AcDbArc
 50
0.0
 51
180.0
  0
ARC
  5
209
330
E3
100
AcDbEntity
  8
Des_ Walls
  6
Continuous
100
AcDbCircle
 10
188.9210445434339
 20
80.5666726872124
 30
0.0
 40
1.200000000000007
100
AcDbArc
 50
180.0
 51
0.0
  0
LINE
  5
20A
330
E3
100
AcDbEntity
  8
Des_ Walls
  6
Dot & Dashed
100
AcDbLine
 10
188.9210466799965
 20
80.56667074104142
 30
0.0
 11
189.2210457847097
 21
80.56667074104142
 31
0.0
  0
LINE
  5
20B
330
E3
100
AcDbEntity
  8
Des_ Walls
  6
Dot & Dashed
100
AcDbLine
 10
190.1210430988494
 20
80.56667074104142
 30
0.0
 11
192.521044484147
 21
80.56667074104142
 31
0.0
  0
LINE
  5
20C
330
E3
100
AcDbEntity
  8
Des_ Walls
  6
Dot & Dashed
100
AcDbLine
 10
188.9210466799965
 20
80.56667074104142
 30
0.0
 11
188.6210433014873
 21
80.56667074104142
 31
0.0
  0
LINE
  5
20D
330
E3
100
AcDbEntity
  8
Des_ Walls
  6
Dot & Dashed
100
AcDbLine
 10
187.7210459873477
 20
80.56667074104142
 30
0.0
 11
185.3210446020501
 21
80.56667074104142
 31
0.0
  0
LINE
  5
20E
330
E3
100
AcDbEntity
  8
Des_ Walls
  6
Dot & Dashed
100
AcDbLine
 10
188.9210466799965
 20
80.86667411955057
 30
0.0
 11
188.9210466799965
 21
80.56667074104142
 31
0.0
  0
LINE
  5
20F
330
E3
100
AcDbEntity
  8
Des_ Walls
  6
Dot & Dashed
100
AcDbLine
 10
188.9210466799965
 20
81.76667143369023
 30
0.0
 11
188.9210466799965
 21
84.16667281898785
 31
0.0
  0
LINE
  5
210
330
E3
100
AcDbEntity
  8
Des_ Walls
  6
Dot & Dashed
100
AcDbLine
 10
188.9210466799965
 20
80.56667074104142
 30
0.0
 11
188.9210466799965
 21
80.2666716363282
 31
0.0
  0
LINE
  5
211
330
E3
100
AcDbEntity
  8
Des_ Walls
  6
Dot & Dashed
100
AcDbLine
 10
188.9210466799965
 20
79.36667432218853
 30
0.0
 11
188.9210466799965
 21
76.96667293689092
 31
0.0
  0
CIRCLE
  5
212
330
E3
100
AcDbEntity
  8
Des_ Walls
  6
Continuous
100
AcDbCircle
 10
188.9210445434339
 20
80.5666726872124
 30
0.0
 40
1.8
  0
ARC
  5
213
330
E3
100
AcDbEntity
  8
Des_ Walls
  6
Continuous
100
AcDbCircle
 10
188.9210445434339
 20
80.5666726872124
 30
0.0
 40
1.072
100
AcDbArc
 50
0.0
 51
270.0
  0
HATCH
  5
214
330
E3
100
AcDbEntity
  8
Des_ Walls
  6
Continuous
 62
   255
370
     0
100
AcDbHatch
 10
0.0
 20
0.0
 30
0.0
210
0.0
220
0.0
230
1.0
  2
SOLID
 70
     1
 71
     0
 91
        1
 92
        3
 72
     0
 73
     1
 93
        6
 10
189.9602750279753
 20
97.046293855933
 10
187.8818140588926
 20
97.046293855933
 10
186.8425835743513
 20
95.24629385593286
 10
187.8818140588926
 20
93.44629385593284
 10
189.9602750279753
 20
93.44629385593284
 10
190.9995055125166
 20
95.24629385593286
 97
        0
 75
     0
 76
     1
 98
        0
  0
LINE
  5
215
330
E3
100
AcDbEntity
  8
Des_ Walls
  6
Continuous
100
AcDbLine
 10
189.9602757176684
 20
97.04629532686572
 30
0.0
 11
187.8818133685286
 21
97.04629532686572
 31
0.0
  0
LINE
  5
216
330
E3
100
AcDbEntity
  8
Des_ Walls
  6
Continuous
100
AcDbLine
 10
187.8818133685286
 20
97.04629532686572
 30
0.0
 11
186.8425843308567
 21
95.24629215099455
 31
0.0
  0
LINE
  5
217
330
E3
100
AcDbEntity
  8
Des_ Walls
  6
Continuous
100
AcDbLine
 10
186.8425843308567
 20
95.24629215099455
 30
0.0
 11
187.8818133685286
 21
93.44629324891929
 31
0.0
  0
LINE
  5
218
330
E3
100
AcDbEntity
  8
Des_ Walls
  6
Continuous
100
AcDbLine
 10
187.8818133685286
 20
93.44629324891929
 30
0.0
 11
189.9602757176684
 21
93.44629324891929
 31
0.0
  0
LINE
  5
219
330
E3
100
AcDbEntity
  8
Des_ Walls
  6
Continuous
100
AcDbLine
 10
189.9602757176684
 20
93.44629324891929
 30
0.0
 11
190.9995047553403
 21
95.24629215099455
 31
0.0
  0
LINE
  5
21A
330
E3
100
AcDbEntity
  8
Des_ Walls
  6
Continuous
100
AcDbLine
 10
190.9995047553403
 20
95.24629215099455
 30
0.0
 11
189.9602757176684
 21
97.04629532686572
 31
0.0
  0
HATCH
  5
21B
330
E3
100
AcDbEntity
  8
Des_ Walls
  6
Continuous
 62
   255
370
     0
100
AcDbHatch
 10
0.0
 20
0.0
 30
0.0
210
0.0
220
0.0
230
1.0
  2
SOLID
 70
     1
 71
     0
 91
        1
 92
        3
 72
     1
 73
     1
 93
        2
 10
190.1210445434339
 20
95.24629385593286
 42
0.9999999999999999
 10
187.7210445434339
 20
95.24629385593286
 42
0.9999999999999999
 97
        0
 75
     0
 76
     1
 98
        0
  0
ARC
  5
21C
330
E3
100
AcDbEntity
  8
Des_ Walls
  6
Continuous
100
AcDbCircle
 10
188.9210445434339
 20
95.24629385593286
 30
0.0
 40
1.200000000000007
100
AcDbArc
 50
0.0
 51
180.0
  0
ARC
  5
21D
330
E3
100
AcDbEntity
  8
Des_ Walls
  6
Continuous
100
AcDbCircle
 10
188.9210445434339
 20
95.24629385593286
 30
0.0
 40
1.200000000000007
100
AcDbArc
 50
180.0
 51
0.0
  0
LINE
  5
21E
330
E3
100
AcDbEntity
  8
Des_ Walls
  6
Dot & Dashed
100
AcDbLine
 10
188.9210466799965
 20
95.24629215099455
 30
0.0
 11
189.2210457847097
 21
95.24629215099455
 31
0.0
  0
LINE
  5
21F
330
E3
100
AcDbEntity
  8
Des_ Walls
  6
Dot & Dashed
100
AcDbLine
 10
190.1210430988494
 20
95.24629215099455
 30
0.0
 11
192.521044484147
 21
95.24629215099455
 31
0.0
  0
LINE
  5
220
330
E3
100
AcDbEntity
  8
Des_ Walls
  6
Dot & Dashed
100
AcDbLine
 10
188.9210466799965
 20
95.24629215099455
 30
0.0
 11
188.6210433014873
 21
95.24629215099455
 31
0.0
  0
LINE
  5
221
330
E3
100
AcDbEntity
  8
Des_ Walls
  6
Dot & Dashed
100
AcDbLine
 10
187.7210459873477
 20
95.24629215099455
 30
0.0
 11
185.3210446020501
 21
95.24629215099455
 31
0.0
  0
LINE
  5
222
330
E3
100
AcDbEntity
  8
Des_ Walls
  6
Dot & Dashed
100
AcDbLine
 10
188.9210466799965
 20
95.54629552950368
 30
0.0
 11
188.9210466799965
 21
95.24629215099455
 31
0.0
  0
LINE
  5
223
330
E3
100
AcDbEntity
  8
Des_ Walls
  6
Dot & Dashed
100
AcDbLine
 10
188.9210466799965
 20
96.44629284364335
 30
0.0
 11
188.9210466799965
 21
98.84629422894096
 31
0.0
  0
LINE
  5
224
330
E3
100
AcDbEntity
  8
Des_ Walls
  6
Dot & Dashed
100
AcDbLine
 10
188.9210466799965
 20
95.24629215099455
 30
0.0
 11
188.9210466799965
 21
94.94629304628133
 31
0.0
  0
LINE
  5
225
330
E3
100
AcDbEntity
  8
Des_ Walls
  6
Dot & Dashed
100
AcDbLine
 10
188.9210466799965
 20
94.04629573214166
 30
0.0
 11
188.9210466799965
 21
91.64629434684404
 31
0.0
  0
CIRCLE
  5
226
330
E3
100
AcDbEntity
  8
Des_ Walls
  6
Continuous
100
AcDbCircle
 10
188.9210445434339
 20
95.24629385593286
 30
0.0
 40
1.8
  0
ARC
  5
227
330
E3
100
AcDbEntity
  8
Des_ Walls
  6
Continuous
100
AcDbCircle
 10
188.9210445434339
 20
95.24629385593286
 30
0.0
 40
1.072
100
AcDbArc
 50
0.0
 51
270.0
  0
HATCH
  5
228
330
E3
100
AcDbEntity
  8
Des_ Walls
  6
Continuous
 62
   255
370
     0
100
AcDbHatch
 10
0.0
 20
0.0
 30
0.0
210
0.0
220
0.0
230
1.0
  2
SOLID
 70
     1
 71
     0
 91
        1
 92
        3
 72
     1
 73
     1
 93
        2
 10
191.694200163492
 20
137.3807389632979
 42
0.4999999999999998
 10
191.694200163492
 20
134.9807389632979
 42
0.0
 97
        0
 75
     0
 76
     1
 98
        0
  0
ARC
  5
229
330
E3
100
AcDbEntity
  8
Des_ Walls
  6
Continuous
100
AcDbCircle
 10
192.594200163492
 20
136.1807389632979
 30
0.0
 40
1.500000000000051
100
AcDbArc
 50
126.8698976458444
 51
233.1301023541556
  0
LINE
  5
22A
330
E3
100
AcDbEntity
  8
Des_ Walls
  6
Continuous
100
AcDbLine
 10
191.6942017347965
 20
134.9807387115257
 30
0.0
 11
191.6942017347965
 21
137.3807400968234
 31
0.0
  0
HATCH
  5
22B
330
E3
100
AcDbEntity
  8
Des_ Walls
  6
Continuous
 62
   255
370
     0
100
AcDbHatch
 10
0.0
 20
0.0
 30
0.0
210
0.0
220
0.0
230
1.0
  2
SOLID
 70
     1
 71
     0
 91
        1
 92
        3
 72
     0
 73
     1
 93
        4
 10
191.094200163492
 20
135.540738963298
 10
191.2375867329231
 20
135.540738963298
 10
191.2375867329231
 20
136.8207389632978
 10
191.094200163492
 20
136.8207389632978
 97
        0
 75
     0
 76
     1
 98
        0
  0
LINE
  5
22C
330
E3
100
AcDbEntity
  8
Des_ Walls
  6
Continuous
100
AcDbLine
 10
191.0941992515741
 20
135.5407384649224
 30
0.0
 11
191.2375851047421
 21
135.5407384649224
 31
0.0
  0
LINE
  5
22D
330
E3
100
AcDbEntity
  8
Des_ Walls
  6
Continuous
100
AcDbLine
 10
191.2375851047421
 20
135.5407384649224
 30
0.0
 11
191.2375851047421
 21
136.8207403434267
 31
0.0
  0
LINE
  5
22E
330
E3
100
AcDbEntity
  8
Des_ Walls
  6
Continuous
100
AcDbLine
 10
191.2375851047421
 20
136.8207403434267
 30
0.0
 11
191.0941992515741
 21
136.8207403434267
 31
0.0
  0
LINE
  5
22F
330
E3
100
AcDbEntity
  8
Des_ Walls
  6
Continuous
100
AcDbLine
 10
191.0941992515741
 20
136.8207403434267
 30
0.0
 11
191.0941992515741
 21
135.5407384649224
 31
0.0
  0
HATCH
  5
230
330
E3
100
AcDbEntity
  8
Des_ Walls
  6
Continuous
 62
   255
370
     0
100
AcDbHatch
 10
0.0
 20
0.0
 30
0.0
210
0.0
220
0.0
230
1.0
  2
SOLID
 70
     1
 71
     0
 91
        1
 92
        3
 72
     1
 73
     1
 93
        4
 10
191.694200163492
 20
134.780738963298
 42
0.0
 10
192.494200163492
 20
134.780738963298
 42
-0.4285714285714285
 10
192.494200163492
 20
137.5807389632978
 42
0.0
 10
191.694200163492
 20
137.5807389632978
 42
0.0
 97
        0
 75
     0
 76
     1
 98
        0
  0
LINE
  5
231
330
E3
100
AcDbEntity
  8
Des_ Walls
  6
Continuous
100
AcDbLine
 10
191.6942017347965
 20
134.780737883785
 30
0.0
 11
192.4942007719637
 21
134.780737883785
 31
0.0
  0
ARC
  5
232
330
E3
100
AcDbEntity
  8
Des_ Walls
  6
Continuous
100
AcDbCircle
 10
193.8275334968253
 20
136.1807389632979
 30
0.0
 40
1.933333333333199
100
AcDbArc
 50
133.6028189727037
 51
226.3971810272963
  0
LINE
  5
233
330
E3
100
AcDbEntity
  8
Des_ Walls
  6
Continuous
100
AcDbLine
 10
192.4942007719637
 20
137.5807409245641
 30
0.0
 11
191.6942017347965
 21
137.5807409245641
 31
0.0
  0
LINE
  5
234
330
E3
100
AcDbEntity
  8
Des_ Walls
  6
Continuous
100
AcDbLine
 10
191.6942017347965
 20
137.5807409245641
 30
0.0
 11
191.6942017347965
 21
134.780737883785
 31
0.0
  0
HATCH
  5
235
330
E3
100
AcDbEntity
  8
Des_ Walls
  6
Continuous
 62
   255
370
     0
100
AcDbHatch
 10
0.0
 20
0.0
 30
0.0
210
0.0
220
0.0
230
1.0
  2
SOLID
 70
     1
 71
     0
 91
        1
 92
        3
 72
     0
 73
     1
 93
        5
 10
191.894200163492
 20
135.860738963298
 10
201.254200163492
 20
135.860738963298
 10
201.894200163492
 20
136.180738963298
 10
201.254200163492
 20
136.5007389632978
 10
191.894200163492
 20
136.5007389632978
 97
        0
 75
     0
 76
     1
 98
        0
  0
LINE
  5
236
330
E3
100
AcDbEntity
  8
Des_ Walls
  6
Continuous
100
AcDbLine
 10
191.8941982887414
 20
135.8607389345485
 30
0.0
 11
201.2542002723653
 21
135.8607389345485
 31
0.0
  0
LINE
  5
237
330
E3
100
AcDbEntity
  8
Des_ Walls
  6
Continuous
100
AcDbLine
 10
201.2542002723653
 20
135.8607389345485
 30
0.0
 11
201.8942012116175
 21
136.1807394041745
 31
0.0
  0
LINE
  5
238
330
E3
100
AcDbEntity
  8
Des_ Walls
  6
Continuous
100
AcDbLine
 10
201.8942012116175
 20
136.1807394041745
 30
0.0
 11
201.2542002723653
 21
136.5007398738006
 31
0.0
  0
LINE
  5
239
330
E3
100
AcDbEntity
  8
Des_ Walls
  6
Continuous
100
AcDbLine
 10
201.2542002723653
 20
136.5007398738006
 30
0.0
 11
191.8941982887414
 21
136.5007398738006
 31
0.0
  0
LINE
  5
23A
330
E3
100
AcDbEntity
  8
Des_ Walls
  6
Continuous
100
AcDbLine
 10
191.8941982887414
 20
136.5007398738006
 30
0.0
 11
191.8941982887414
 21
135.8607389345485
 31
0.0
  0
LINE
  5
23B
330
E3
100
AcDbEntity
  8
Des_ Walls
  6
Continuous
100
AcDbLine
 10
191.8941982887414
 20
136.7007407015414
 30
0.0
 11
192.0330881085999
 21
136.6987619340297
 31
0.0
  0
LINE
  5
23C
330
E3
100
AcDbEntity
  8
Des_ Walls
  6
Continuous
100
AcDbLine
 10
192.0330881085999
 20
136.6987619340297
 30
0.0
 11
192.1719779284584
 21
136.6928384528824
 31
0.0
  0
LINE
  5
23D
330
E3
100
AcDbEntity
  8
Des_ Walls
  6
Continuous
100
AcDbLine
 10
192.1719779284584
 20
136.6928384528824
 30
0.0
 11
192.310867748317
 21
136.6830215436507
 31
0.0
  0
LINE
  5
23E
330
E3
100
AcDbEntity
  8
Des_ Walls
  6
Continuous
100
AcDbLine
 10
192.310867748317
 20
136.6830215436507
 30
0.0
 11
192.4497575681755
 21
136.6693795870691
 31
0.0
  0
LINE
  5
23F
330
E3
100
AcDbEntity
  8
Des_ Walls
  6
Continuous
100
AcDbLine
 10
192.4497575681755
 20
136.6693795870691
 30
0.0
 11
192.5886431142381
 21
136.6520194280357
 31
0.0
  0
LINE
  5
240
330
E3
100
AcDbEntity
  8
Des_ Walls
  6
Continuous
100
AcDbLine
 10
192.5886431142381
 20
136.6520194280357
 30
0.0
 11
192.7275329340967
 21
136.6310735542242
 31
0.0
  0
LINE
  5
241
330
E3
100
AcDbEntity
  8
Des_ Walls
  6
Continuous
100
AcDbLine
 10
192.7275329340967
 20
136.6310735542242
 30
0.0
 11
192.8664227539552
 21
136.6067000960836
 31
0.0
  0
LINE
  5
242
330
E3
100
AcDbEntity
  8
Des_ Walls
  6
Continuous
100
AcDbLine
 10
192.8664227539552
 20
136.6067000960836
 30
0.0
 11
193.0053125738138
 21
136.5790828268386
 31
0.0
  0
LINE
  5
243
330
E3
100
AcDbEntity
  8
Des_ Walls
  6
Continuous
100
AcDbLine
 10
193.0053125738138
 20
136.5790828268386
 30
0.0
 11
193.1441981198764
 21
136.5484354362851
 31
0.0
  0
LINE
  5
244
330
E3
100
AcDbEntity
  8
Des_ Walls
  6
Continuous
100
AcDbLine
 10
193.1441981198764
 20
136.5484354362851
 30
0.0
 11
193.2830879397349
 21
136.5149887094031
 31
0.0
  0
LINE
  5
245
330
E3
100
AcDbEntity
  8
Des_ Walls
  6
Continuous
100
AcDbLine
 10
193.2830879397349
 20
136.5149887094031
 30
0.0
 11
193.4219777595935
 21
136.4789990739477
 31
0.0
  0
LINE
  5
246
330
E3
100
AcDbEntity
  8
Des_ Walls
  6
Continuous
100
AcDbLine
 10
193.4219777595935
 20
136.4789990739477
 30
0.0
 11
193.560867579452
 21
136.440740052858
 31
0.0
  0
LINE
  5
247
330
E3
100
AcDbEntity
  8
Des_ Walls
  6
Continuous
100
AcDbLine
 10
193.560867579452
 20
136.440740052858
 30
0.0
 11
193.6997573993106
 21
136.4005022642566
 31
0.0
  0
LINE
  5
248
330
E3
100
AcDbEntity
  8
Des_ Walls
  6
Continuous
100
AcDbLine
 10
193.6997573993106
 20
136.4005022642566
 30
0.0
 11
193.8386429453732
 21
136.3585891476539
 31
0.0
  0
LINE
  5
249
330
E3
100
AcDbEntity
  8
Des_ Walls
  6
Continuous
100
AcDbLine
 10
193.8386429453732
 20
136.3585891476539
 30
0.0
 11
193.9775327652317
 21
136.3153255115401
 31
0.0
  0
LINE
  5
24A
330
E3
100
AcDbEntity
  8
Des_ Walls
  6
Continuous
100
AcDbLine
 10
193.9775327652317
 20
136.3153255115401
 30
0.0
 11
194.1164225850902
 21
136.271036164405
 31
0.0
  0
LINE
  5
24B
330
E3
100
AcDbEntity
  8
Des_ Walls
  6
Continuous
100
AcDbLine
 10
194.1164225850902
 20
136.271036164405
 30
0.0
 11
194.2553124049488
 21
136.2260587361266
 31
0.0
  0
LINE
  5
24C
330
E3
100
AcDbEntity
  8
Des_ Walls
  6
Continuous
100
AcDbLine
 10
194.2553124049488
 20
136.2260587361266
 30
0.0
 11
194.3942022248073
 21
136.1807394041745
 31
0.0
  0
LINE
  5
24D
330
E3
100
AcDbEntity
  8
Des_ Walls
  6
Continuous
100
AcDbLine
 10
194.3942022248073
 20
136.1807394041745
 30
0.0
 11
194.5330877708699
 21
136.1354200722224
 31
0.0
  0
LINE
  5
24E
330
E3
100
AcDbEntity
  8
Des_ Walls
  6
Continuous
100
AcDbLine
 10
194.5330877708699
 20
136.1354200722224
 30
0.0
 11
194.6719775907285
 21
136.090442643944
 31
0.0
  0
LINE
  5
24F
330
E3
100
AcDbEntity
  8
Des_ Walls
  6
Continuous
100
AcDbLine
 10
194.6719775907285
 20
136.090442643944
 30
0.0
 11
194.810867410587
 21
136.046153296809
 31
0.0
  0
LINE
  5
250
330
E3
100
AcDbEntity
  8
Des_ Walls
  6
Continuous
100
AcDbLine
 10
194.810867410587
 20
136.046153296809
 30
0.0
 11
194.9497572304456
 21
136.0028896606952
 31
0.0
  0
LINE
  5
251
330
E3
100
AcDbEntity
  8
Des_ Walls
  6
Continuous
100
AcDbLine
 10
194.9497572304456
 20
136.0028896606952
 30
0.0
 11
195.0886427765082
 21
135.9609765440925
 31
0.0
  0
LINE
  5
252
330
E3
100
AcDbEntity
  8
Des_ Walls
  6
Continuous
100
AcDbLine
 10
195.0886427765082
 20
135.9609765440925
 30
0.0
 11
195.2275325963667
 21
135.9207387554911
 31
0.0
  0
LINE
  5
253
330
E3
100
AcDbEntity
  8
Des_ Walls
  6
Continuous
100
AcDbLine
 10
195.2275325963667
 20
135.9207387554911
 30
0.0
 11
195.3664224162252
 21
135.8824797344014
 31
0.0
  0
LINE
  5
254
330
E3
100
AcDbEntity
  8
Des_ Walls
  6
Continuous
100
AcDbLine
 10
195.3664224162252
 20
135.8824797344014
 30
0.0
 11
195.5053122360838
 21
135.846490098946
 31
0.0
  0
LINE
  5
255
330
E3
100
AcDbEntity
  8
Des_ Walls
  6
Continuous
100
AcDbLine
 10
195.5053122360838
 20
135.846490098946
 30
0.0
 11
195.6442020559423
 21
135.813043372064
 31
0.0
  0
LINE
  5
256
330
E3
100
AcDbEntity
  8
Des_ Walls
  6
Continuous
100
AcDbLine
 10
195.6442020559423
 20
135.813043372064
 30
0.0
 11
195.783087602005
 21
135.7823959815105
 31
0.0
  0
LINE
  5
257
330
E3
100
AcDbEntity
  8
Des_ Walls
  6
Continuous
100
AcDbLine
 10
195.783087602005
 20
135.7823959815105
 30
0.0
 11
195.9219774218635
 21
135.7547787122655
 31
0.0
  0
LINE
  5
258
330
E3
100
AcDbEntity
  8
Des_ Walls
  6
Continuous
100
AcDbLine
 10
195.9219774218635
 20
135.7547787122655
 30
0.0
 11
196.060867241722
 21
135.7304052541249
 31
0.0
  0
LINE
  5
259
330
E3
100
AcDbEntity
  8
Des_ Walls
  6
Continuous
100
AcDbLine
 10
196.060867241722
 20
135.7304052541249
 30
0.0
 11
196.1997570615806
 21
135.7094593803133
 31
0.0
  0
LINE
  5
25A
330
E3
100
AcDbEntity
  8
Des_ Walls
  6
Continuous
100
AcDbLine
 10
196.1997570615806
 20
135.7094593803133
 30
0.0
 11
196.3386426076432
 21
135.69209922128
 31
0.0
  0
LINE
  5
25B
330
E3
100
AcDbEntity
  8
Des_ Walls
  6
Continuous
100
AcDbLine
 10
196.3386426076432
 20
135.69209922128
 30
0.0
 11
196.4775324275017
 21
135.6784572646984
 31
0.0
  0
LINE
  5
25C
330
E3
100
AcDbEntity
  8
Des_ Walls
  6
Continuous
100
AcDbLine
 10
196.4775324275017
 20
135.6784572646984
 30
0.0
 11
196.6164222473603
 21
135.6686403554666
 31
0.0
  0
LINE
  5
25D
330
E3
100
AcDbEntity
  8
Des_ Walls
  6
Continuous
100
AcDbLine
 10
196.6164222473603
 20
135.6686403554666
 30
0.0
 11
196.7553120672188
 21
135.6627168743194
 31
0.0
  0
LINE
  5
25E
330
E3
100
AcDbEntity
  8
Des_ Walls
  6
Continuous
100
AcDbLine
 10
196.7553120672188
 20
135.6627168743194
 30
0.0
 11
196.8942018870774
 21
135.6607381068077
 31
0.0
  0
LINE
  5
25F
330
E3
100
AcDbEntity
  8
Des_ Walls
  6
Continuous
100
AcDbLine
 10
196.8942018870774
 20
135.6607381068077
 30
0.0
 11
197.03308743314
 21
135.6627168743194
 31
0.0
  0
LINE
  5
260
330
E3
100
AcDbEntity
  8
Des_ Walls
  6
Continuous
100
AcDbLine
 10
194.3942022248073
 20
136.7007407015414
 30
0.0
 11
194.5330877708699
 21
136.6987619340297
 31
0.0
  0
LINE
  5
261
330
E3
100
AcDbEntity
  8
Des_ Walls
  6
Continuous
100
AcDbLine
 10
194.5330877708699
 20
136.6987619340297
 30
0.0
 11
194.6719775907285
 21
136.6928384528824
 31
0.0
  0
LINE
  5
262
330
E3
100
AcDbEntity
  8
Des_ Walls
  6
Continuous
100
AcDbLine
 10
194.6719775907285
 20
136.6928384528824
 30
0.0
 11
194.810867410587
 21
136.6830215436507
 31
0.0
  0
LINE
  5
263
330
E3
100
AcDbEntity
  8
Des_ Walls
  6
Continuous
100
AcDbLine
 10
194.810867410587
 20
136.6830215436507
 30
0.0
 11
194.9497572304456
 21
136.6693795870691
 31
0.0
  0
LINE
  5
264
330
E3
100
AcDbEntity
  8
Des_ Walls
  6
Continuous
100
AcDbLine
 10
194.9497572304456
 20
136.6693795870691
 30
0.0
 11
195.0886427765082
 21
136.6520194280357
 31
0.0
  0
LINE
  5
265
330
E3
100
AcDbEntity
  8
Des_ Walls
  6
Continuous
100
AcDbLine
 10
195.0886427765082
 20
136.6520194280357
 30
0.0
 11
195.2275325963667
 21
136.6310735542242
 31
0.0
  0
LINE
  5
266
330
E3
100
AcDbEntity
  8
Des_ Walls
  6
Continuous
100
AcDbLine
 10
195.2275325963667
 20
136.6310735542242
 30
0.0
 11
195.3664224162252
 21
136.6067000960836
 31
0.0
  0
LINE
  5
267
330
E3
100
AcDbEntity
  8
Des_ Walls
  6
Continuous
100
AcDbLine
 10
195.3664224162252
 20
136.6067000960836
 30
0.0
 11
195.5053122360838
 21
136.5790828268386
 31
0.0
  0
LINE
  5
268
330
E3
100
AcDbEntity
  8
Des_ Walls
  6
Continuous
100
AcDbLine
 10
195.5053122360838
 20
136.5790828268386
 30
0.0
 11
195.6442020559423
 21
136.5484354362851
 31
0.0
  0
LINE
  5
269
330
E3
100
AcDbEntity
  8
Des_ Walls
  6
Continuous
100
AcDbLine
 10
195.6442020559423
 20
136.5484354362851
 30
0.0
 11
195.783087602005
 21
136.5149887094031
 31
0.0
  0
LINE
  5
26A
330
E3
100
AcDbEntity
  8
Des_ Walls
  6
Continuous
100
AcDbLine
 10
195.783087602005
 20
136.5149887094031
 30
0.0
 11
195.9219774218635
 21
136.4789990739477
 31
0.0
  0
LINE
  5
26B
330
E3
100
AcDbEntity
  8
Des_ Walls
  6
Continuous
100
AcDbLine
 10
195.9219774218635
 20
136.4789990739477
 30
0.0
 11
196.060867241722
 21
136.440740052858
 31
0.0
  0
LINE
  5
26C
330
E3
100
AcDbEntity
  8
Des_ Walls
  6
Continuous
100
AcDbLine
 10
196.060867241722
 20
136.440740052858
 30
0.0
 11
196.1997570615806
 21
136.4005022642566
 31
0.0
  0
LINE
  5
26D
330
E3
100
AcDbEntity
  8
Des_ Walls
  6
Continuous
100
AcDbLine
 10
196.1997570615806
 20
136.4005022642566
 30
0.0
 11
196.3386426076432
 21
136.3585891476539
 31
0.0
  0
LINE
  5
26E
330
E3
100
AcDbEntity
  8
Des_ Walls
  6
Continuous
100
AcDbLine
 10
196.3386426076432
 20
136.3585891476539
 30
0.0
 11
196.4775324275017
 21
136.3153255115401
 31
0.0
  0
LINE
  5
26F
330
E3
100
AcDbEntity
  8
Des_ Walls
  6
Continuous
100
AcDbLine
 10
196.4775324275017
 20
136.3153255115401
 30
0.0
 11
196.6164222473603
 21
136.271036164405
 31
0.0
  0
LINE
  5
270
330
E3
100
AcDbEntity
  8
Des_ Walls
  6
Continuous
100
AcDbLine
 10
196.6164222473603
 20
136.271036164405
 30
0.0
 11
196.7553120672188
 21
136.2260587361266
 31
0.0
  0
LINE
  5
271
330
E3
100
AcDbEntity
  8
Des_ Walls
  6
Continuous
100
AcDbLine
 10
196.7553120672188
 20
136.2260587361266
 30
0.0
 11
196.8942018870774
 21
136.1807394041745
 31
0.0
  0
LINE
  5
272
330
E3
100
AcDbEntity
  8
Des_ Walls
  6
Continuous
100
AcDbLine
 10
196.8942018870774
 20
136.1807394041745
 30
0.0
 11
197.03308743314
 21
136.1354200722224
 31
0.0
  0
LINE
  5
273
330
E3
100
AcDbEntity
  8
Des_ Walls
  6
Continuous
100
AcDbLine
 10
197.03308743314
 20
136.1354200722224
 30
0.0
 11
197.1719772529985
 21
136.090442643944
 31
0.0
  0
LINE
  5
274
330
E3
100
AcDbEntity
  8
Des_ Walls
  6
Continuous
100
AcDbLine
 10
197.1719772529985
 20
136.090442643944
 30
0.0
 11
197.3108670728571
 21
136.046153296809
 31
0.0
  0
LINE
  5
275
330
E3
100
AcDbEntity
  8
Des_ Walls
  6
Continuous
100
AcDbLine
 10
197.3108670728571
 20
136.046153296809
 30
0.0
 11
197.4497568927156
 21
136.0028896606952
 31
0.0
  0
LINE
  5
276
330
E3
100
AcDbEntity
  8
Des_ Walls
  6
Continuous
100
AcDbLine
 10
197.4497568927156
 20
136.0028896606952
 30
0.0
 11
197.5886467125741
 21
135.9609765440925
 31
0.0
  0
LINE
  5
277
330
E3
100
AcDbEntity
  8
Des_ Walls
  6
Continuous
100
AcDbLine
 10
197.5886467125741
 20
135.9609765440925
 30
0.0
 11
197.7275322586368
 21
135.9207387554911
 31
0.0
  0
LINE
  5
278
330
E3
100
AcDbEntity
  8
Des_ Walls
  6
Continuous
100
AcDbLine
 10
197.7275322586368
 20
135.9207387554911
 30
0.0
 11
197.8664220784953
 21
135.8824797344014
 31
0.0
  0
LINE
  5
279
330
E3
100
AcDbEntity
  8
Des_ Walls
  6
Continuous
100
AcDbLine
 10
197.8664220784953
 20
135.8824797344014
 30
0.0
 11
198.0053118983539
 21
135.846490098946
 31
0.0
  0
LINE
  5
27A
330
E3
100
AcDbEntity
  8
Des_ Walls
  6
Continuous
100
AcDbLine
 10
198.0053118983539
 20
135.846490098946
 30
0.0
 11
198.1442017182124
 21
135.813043372064
 31
0.0
  0
LINE
  5
27B
330
E3
100
AcDbEntity
  8
Des_ Walls
  6
Continuous
100
AcDbLine
 10
198.1442017182124
 20
135.813043372064
 30
0.0
 11
198.283087264275
 21
135.7823959815105
 31
0.0
  0
LINE
  5
27C
330
E3
100
AcDbEntity
  8
Des_ Walls
  6
Continuous
100
AcDbLine
 10
198.283087264275
 20
135.7823959815105
 30
0.0
 11
198.4219770841336
 21
135.7547787122655
 31
0.0
  0
LINE
  5
27D
330
E3
100
AcDbEntity
  8
Des_ Walls
  6
Continuous
100
AcDbLine
 10
198.4219770841336
 20
135.7547787122655
 30
0.0
 11
198.5608669039921
 21
135.7304052541249
 31
0.0
  0
LINE
  5
27E
330
E3
100
AcDbEntity
  8
Des_ Walls
  6
Continuous
100
AcDbLine
 10
198.5608669039921
 20
135.7304052541249
 30
0.0
 11
198.6997567238506
 21
135.7094593803133
 31
0.0
  0
LINE
  5
27F
330
E3
100
AcDbEntity
  8
Des_ Walls
  6
Continuous
100
AcDbLine
 10
198.6997567238506
 20
135.7094593803133
 30
0.0
 11
198.8386465437092
 21
135.69209922128
 31
0.0
  0
LINE
  5
280
330
E3
100
AcDbEntity
  8
Des_ Walls
  6
Continuous
100
AcDbLine
 10
198.8386465437092
 20
135.69209922128
 30
0.0
 11
198.9775320897718
 21
135.6784572646984
 31
0.0
  0
LINE
  5
281
330
E3
100
AcDbEntity
  8
Des_ Walls
  6
Continuous
100
AcDbLine
 10
198.9775320897718
 20
135.6784572646984
 30
0.0
 11
199.1164219096303
 21
135.6686403554666
 31
0.0
  0
LINE
  5
282
330
E3
100
AcDbEntity
  8
Des_ Walls
  6
Continuous
100
AcDbLine
 10
199.1164219096303
 20
135.6686403554666
 30
0.0
 11
199.2553117294889
 21
135.6627168743194
 31
0.0
  0
LINE
  5
283
330
E3
100
AcDbEntity
  8
Des_ Walls
  6
Continuous
100
AcDbLine
 10
199.2553117294889
 20
135.6627168743194
 30
0.0
 11
199.3942015493474
 21
135.6607381068077
 31
0.0
  0
LINE
  5
284
330
E3
100
AcDbEntity
  8
Des_ Walls
  6
Continuous
100
AcDbLine
 10
199.3942015493474
 20
135.6607381068077
 30
0.0
 11
199.53308709541
 21
135.6627168743194
 31
0.0
  0
LINE
  5
285
330
E3
100
AcDbEntity
  8
Des_ Walls
  6
Continuous
100
AcDbLine
 10
196.8942018870774
 20
136.7007407015414
 30
0.0
 11
197.03308743314
 21
136.6987619340297
 31
0.0
  0
LINE
  5
286
330
E3
100
AcDbEntity
  8
Des_ Walls
  6
Continuous
100
AcDbLine
 10
197.03308743314
 20
136.6987619340297
 30
0.0
 11
197.1719772529985
 21
136.6928384528824
 31
0.0
  0
LINE
  5
287
330
E3
100
AcDbEntity
  8
Des_ Walls
  6
Continuous
100
AcDbLine
 10
197.1719772529985
 20
136.6928384528824
 30
0.0
 11
197.3108670728571
 21
136.6830215436507
 31
0.0
  0
LINE
  5
288
330
E3
100
AcDbEntity
  8
Des_ Walls
  6
Continuous
100
AcDbLine
 10
197.3108670728571
 20
136.6830215436507
 30
0.0
 11
197.4497568927156
 21
136.6693795870691
 31
0.0
  0
LINE
  5
289
330
E3
100
AcDbEntity
  8
Des_ Walls
  6
Continuous
100
AcDbLine
 10
197.4497568927156
 20
136.6693795870691
 30
0.0
 11
197.5886467125741
 21
136.6520194280357
 31
0.0
  0
LINE
  5
28A
330
E3
100
AcDbEntity
  8
Des_ Walls
  6
Continuous
100
AcDbLine
 10
197.5886467125741
 20
136.6520194280357
 30
0.0
 11
197.7275322586368
 21
136.6310735542242
 31
0.0
  0
LINE
  5
28B
330
E3
100
AcDbEntity
  8
Des_ Walls
  6
Continuous
100
AcDbLine
 10
197.7275322586368
 20
136.6310735542242
 30
0.0
 11
197.8664220784953
 21
136.6067000960836
 31
0.0
  0
LINE
  5
28C
330
E3
100
AcDbEntity
  8
Des_ Walls
  6
Continuous
100
AcDbLine
 10
197.8664220784953
 20
136.6067000960836
 30
0.0
 11
198.0053118983539
 21
136.5790828268386
 31
0.0
  0
LINE
  5
28D
330
E3
100
AcDbEntity
  8
Des_ Walls
  6
Continuous
100
AcDbLine
 10
198.0053118983539
 20
136.5790828268386
 30
0.0
 11
198.1442017182124
 21
136.5484354362851
 31
0.0
  0
LINE
  5
28E
330
E3
100
AcDbEntity
  8
Des_ Walls
  6
Continuous
100
AcDbLine
 10
198.1442017182124
 20
136.5484354362851
 30
0.0
 11
198.283087264275
 21
136.5149887094031
 31
0.0
  0
LINE
  5
28F
330
E3
100
AcDbEntity
  8
Des_ Walls
  6
Continuous
100
AcDbLine
 10
198.283087264275
 20
136.5149887094031
 30
0.0
 11
198.4219770841336
 21
136.4789990739477
 31
0.0
  0
LINE
  5
290
330
E3
100
AcDbEntity
  8
Des_ Walls
  6
Continuous
100
AcDbLine
 10
198.4219770841336
 20
136.4789990739477
 30
0.0
 11
198.5608669039921
 21
136.440740052858
 31
0.0
  0
LINE
  5
291
330
E3
100
AcDbEntity
  8
Des_ Walls
  6
Continuous
100
AcDbLine
 10
198.5608669039921
 20
136.440740052858
 30
0.0
 11
198.6997567238506
 21
136.4005022642566
 31
0.0
  0
LINE
  5
292
330
E3
100
AcDbEntity
  8
Des_ Walls
  6
Continuous
100
AcDbLine
 10
198.6997567238506
 20
136.4005022642566
 30
0.0
 11
198.8386465437092
 21
136.3585891476539
 31
0.0
  0
LINE
  5
293
330
E3
100
AcDbEntity
  8
Des_ Walls
  6
Continuous
100
AcDbLine
 10
198.8386465437092
 20
136.3585891476539
 30
0.0
 11
198.9775320897718
 21
136.3153255115401
 31
0.0
  0
LINE
  5
294
330
E3
100
AcDbEntity
  8
Des_ Walls
  6
Continuous
100
AcDbLine
 10
198.9775320897718
 20
136.3153255115401
 30
0.0
 11
199.1164219096303
 21
136.271036164405
 31
0.0
  0
LINE
  5
295
330
E3
100
AcDbEntity
  8
Des_ Walls
  6
Continuous
100
AcDbLine
 10
199.1164219096303
 20
136.271036164405
 30
0.0
 11
199.2553117294889
 21
136.2260587361266
 31
0.0
  0
LINE
  5
296
330
E3
100
AcDbEntity
  8
Des_ Walls
  6
Continuous
100
AcDbLine
 10
199.2553117294889
 20
136.2260587361266
 30
0.0
 11
199.3942015493474
 21
136.1807394041745
 31
0.0
  0
LINE
  5
297
330
E3
100
AcDbEntity
  8
Des_ Walls
  6
Continuous
100
AcDbLine
 10
199.3942015493474
 20
136.1807394041745
 30
0.0
 11
199.53308709541
 21
136.1354200722224
 31
0.0
  0
LINE
  5
298
330
E3
100
AcDbEntity
  8
Des_ Walls
  6
Continuous
100
AcDbLine
 10
199.53308709541
 20
136.1354200722224
 30
0.0
 11
199.6719769152685
 21
136.090442643944
 31
0.0
  0
LINE
  5
299
330
E3
100
AcDbEntity
  8
Des_ Walls
  6
Continuous
100
AcDbLine
 10
199.6719769152685
 20
136.090442643944
 30
0.0
 11
199.8108667351271
 21
136.046153296809
 31
0.0
  0
LINE
  5
29A
330
E3
100
AcDbEntity
  8
Des_ Walls
  6
Continuous
100
AcDbLine
 10
199.8108667351271
 20
136.046153296809
 30
0.0
 11
199.9497565549856
 21
136.0028896606952
 31
0.0
  0
LINE
  5
29B
330
E3
100
AcDbEntity
  8
Des_ Walls
  6
Continuous
100
AcDbLine
 10
199.9497565549856
 20
136.0028896606952
 30
0.0
 11
200.0886463748442
 21
135.9609765440925
 31
0.0
  0
LINE
  5
29C
330
E3
100
AcDbEntity
  8
Des_ Walls
  6
Continuous
100
AcDbLine
 10
200.0886463748442
 20
135.9609765440925
 30
0.0
 11
200.2275319209068
 21
135.9207387554911
 31
0.0
  0
LINE
  5
29D
330
E3
100
AcDbEntity
  8
Des_ Walls
  6
Continuous
100
AcDbLine
 10
200.2275319209068
 20
135.9207387554911
 30
0.0
 11
200.3664217407654
 21
135.8824797344014
 31
0.0
  0
LINE
  5
29E
330
E3
100
AcDbEntity
  8
Des_ Walls
  6
Continuous
100
AcDbLine
 10
200.3664217407654
 20
135.8824797344014
 30
0.0
 11
200.5053115606239
 21
135.846490098946
 31
0.0
  0
LINE
  5
29F
330
E3
100
AcDbEntity
  8
Des_ Walls
  6
Continuous
100
AcDbLine
 10
200.5053115606239
 20
135.846490098946
 30
0.0
 11
200.6442013804825
 21
135.813043372064
 31
0.0
  0
LINE
  5
2A0
330
E3
100
AcDbEntity
  8
Des_ Walls
  6
Continuous
100
AcDbLine
 10
191.8941982887414
 20
136.1807394041745
 30
0.0
 11
192.0330881085999
 21
136.1354200722224
 31
0.0
  0
LINE
  5
2A1
330
E3
100
AcDbEntity
  8
Des_ Walls
  6
Continuous
100
AcDbLine
 10
192.0330881085999
 20
136.1354200722224
 30
0.0
 11
192.1719779284584
 21
136.090442643944
 31
0.0
  0
LINE
  5
2A2
330
E3
100
AcDbEntity
  8
Des_ Walls
  6
Continuous
100
AcDbLine
 10
192.1719779284584
 20
136.090442643944
 30
0.0
 11
192.310867748317
 21
136.046153296809
 31
0.0
  0
LINE
  5
2A3
330
E3
100
AcDbEntity
  8
Des_ Walls
  6
Continuous
100
AcDbLine
 10
192.310867748317
 20
136.046153296809
 30
0.0
 11
192.4497575681755
 21
136.0028896606952
 31
0.0
  0
LINE
  5
2A4
330
E3
100
AcDbEntity
  8
Des_ Walls
  6
Continuous
100
AcDbLine
 10
192.4497575681755
 20
136.0028896606952
 30
0.0
 11
192.5886431142381
 21
135.9609765440925
 31
0.0
  0
LINE
  5
2A5
330
E3
100
AcDbEntity
  8
Des_ Walls
  6
Continuous
100
AcDbLine
 10
192.5886431142381
 20
135.9609765440925
 30
0.0
 11
192.7275329340967
 21
135.9207387554911
 31
0.0
  0
LINE
  5
2A6
330
E3
100
AcDbEntity
  8
Des_ Walls
  6
Continuous
100
AcDbLine
 10
192.7275329340967
 20
135.9207387554911
 30
0.0
 11
192.8664227539552
 21
135.8824797344014
 31
0.0
  0
LINE
  5
2A7
330
E3
100
AcDbEntity
  8
Des_ Walls
  6
Continuous
100
AcDbLine
 10
192.8664227539552
 20
135.8824797344014
 30
0.0
 11
193.0053125738138
 21
135.846490098946
 31
0.0
  0
LINE
  5
2A8
330
E3
100
AcDbEntity
  8
Des_ Walls
  6
Continuous
100
AcDbLine
 10
193.0053125738138
 20
135.846490098946
 30
0.0
 11
193.1441981198764
 21
135.813043372064
 31
0.0
  0
LINE
  5
2A9
330
E3
100
AcDbEntity
  8
Des_ Walls
  6
Continuous
100
AcDbLine
 10
193.1441981198764
 20
135.813043372064
 30
0.0
 11
193.2830879397349
 21
135.7823959815105
 31
0.0
  0
LINE
  5
2AA
330
E3
100
AcDbEntity
  8
Des_ Walls
  6
Continuous
100
AcDbLine
 10
193.2830879397349
 20
135.7823959815105
 30
0.0
 11
193.4219777595935
 21
135.7547787122655
 31
0.0
  0
LINE
  5
2AB
330
E3
100
AcDbEntity
  8
Des_ Walls
  6
Continuous
100
AcDbLine
 10
193.4219777595935
 20
135.7547787122655
 30
0.0
 11
193.560867579452
 21
135.7304052541249
 31
0.0
  0
LINE
  5
2AC
330
E3
100
AcDbEntity
  8
Des_ Walls
  6
Continuous
100
AcDbLine
 10
193.560867579452
 20
135.7304052541249
 30
0.0
 11
193.6997573993106
 21
135.7094593803133
 31
0.0
  0
LINE
  5
2AD
330
E3
100
AcDbEntity
  8
Des_ Walls
  6
Continuous
100
AcDbLine
 10
193.6997573993106
 20
135.7094593803133
 30
0.0
 11
193.8386429453732
 21
135.69209922128
 31
0.0
  0
LINE
  5
2AE
330
E3
100
AcDbEntity
  8
Des_ Walls
  6
Continuous
100
AcDbLine
 10
193.8386429453732
 20
135.69209922128
 30
0.0
 11
193.9775327652317
 21
135.6784572646984
 31
0.0
  0
LINE
  5
2AF
330
E3
100
AcDbEntity
  8
Des_ Walls
  6
Continuous
100
AcDbLine
 10
193.9775327652317
 20
135.6784572646984
 30
0.0
 11
194.1164225850902
 21
135.6686403554666
 31
0.0
  0
LINE
  5
2B0
330
E3
100
AcDbEntity
  8
Des_ Walls
  6
Continuous
100
AcDbLine
 10
194.1164225850902
 20
135.6686403554666
 30
0.0
 11
194.2553124049488
 21
135.6627168743194
 31
0.0
  0
LINE
  5
2B1
330
E3
100
AcDbEntity
  8
Des_ Walls
  6
Continuous
100
AcDbLine
 10
194.2553124049488
 20
135.6627168743194
 30
0.0
 11
194.3942022248073
 21
135.6607381068077
 31
0.0
  0
LINE
  5
2B2
330
E3
100
AcDbEntity
  8
Des_ Walls
  6
Continuous
100
AcDbLine
 10
194.3942022248073
 20
135.6607381068077
 30
0.0
 11
194.5330877708699
 21
135.6627168743194
 31
0.0
  0
LINE
  5
2B3
330
E3
100
AcDbEntity
  8
Des_ Walls
  6
Continuous
100
AcDbLine
 10
199.3942015493474
 20
136.7007407015414
 30
0.0
 11
199.53308709541
 21
136.6987619340297
 31
0.0
  0
LINE
  5
2B4
330
E3
100
AcDbEntity
  8
Des_ Walls
  6
Continuous
100
AcDbLine
 10
199.53308709541
 20
136.6987619340297
 30
0.0
 11
199.6719769152685
 21
136.6928384528824
 31
0.0
  0
LINE
  5
2B5
330
E3
100
AcDbEntity
  8
Des_ Walls
  6
Continuous
100
AcDbLine
 10
199.6719769152685
 20
136.6928384528824
 30
0.0
 11
199.8108667351271
 21
136.6830215436507
 31
0.0
  0
LINE
  5
2B6
330
E3
100
AcDbEntity
  8
Des_ Walls
  6
Continuous
100
AcDbLine
 10
199.8108667351271
 20
136.6830215436507
 30
0.0
 11
199.9497565549856
 21
136.6693795870691
 31
0.0
  0
LINE
  5
2B7
330
E3
100
AcDbEntity
  8
Des_ Walls
  6
Continuous
100
AcDbLine
 10
199.9497565549856
 20
136.6693795870691
 30
0.0
 11
200.0886463748442
 21
136.6520194280357
 31
0.0
  0
LINE
  5
2B8
330
E3
100
AcDbEntity
  8
Des_ Walls
  6
Continuous
100
AcDbLine
 10
200.0886463748442
 20
136.6520194280357
 30
0.0
 11
200.2275319209068
 21
136.6310735542242
 31
0.0
  0
LINE
  5
2B9
330
E3
100
AcDbEntity
  8
Des_ Walls
  6
Continuous
100
AcDbLine
 10
200.2275319209068
 20
136.6310735542242
 30
0.0
 11
200.3664217407654
 21
136.6067000960836
 31
0.0
  0
LINE
  5
2BA
330
E3
100
AcDbEntity
  8
Des_ Walls
  6
Continuous
100
AcDbLine
 10
200.3664217407654
 20
136.6067000960836
 30
0.0
 11
200.5053115606239
 21
136.5790828268386
 31
0.0
  0
LINE
  5
2BB
330
E3
100
AcDbEntity
  8
Des_ Walls
  6
Continuous
100
AcDbLine
 10
200.5053115606239
 20
136.5790828268386
 30
0.0
 11
200.6442013804825
 21
136.5484354362851
 31
0.0
  0
HATCH
  5
2BC
330
E3
100
AcDbEntity
  8
Des_ Walls
  6
Continuous
 62
   255
370
     0
100
AcDbHatch
 10
0.0
 20
0.0
 30
0.0
210
0.0
220
0.0
230
1.0
  2
SOLID
 70
     1
 71
     0
 91
        1
 92
        3
 72
     1
 73
     1
 93
        2
 10
229.5654232508831
 20
157.9503855719896
 42
0.4999999999999998
 10
229.5654232508831
 20
160.3503855719896
 42
0.0
 97
        0
 75
     0
 76
     1
 98
        0
  0
ARC
  5
2BD
330
E3
100
AcDbEntity
  8
Des_ Walls
  6
Continuous
100
AcDbCircle
 10
228.665423250883
 20
159.1503855719896
 30
0.0
 40
1.500000000000051
100
AcDbArc
 50
306.8698976458444
 51
53.13010235415555
  0
LINE
  5
2BE
330
E3
100
AcDbEntity
  8
Des_ Walls
  6
Continuous
100
AcDbLine
 10
229.565422856389
 20
160.350384491073
 30
0.0
 11
229.565422856389
 21
157.9503873795713
 31
0.0
  0
HATCH
  5
2BF
330
E3
100
AcDbEntity
  8
Des_ Walls
  6
Continuous
 62
   255
370
     0
100
AcDbHatch
 10
0.0
 20
0.0
 30
0.0
210
0.0
220
0.0
230
1.0
  2
SOLID
 70
     1
 71
     0
 91
        1
 92
        3
 72
     0
 73
     1
 93
        4
 10
230.1654232508831
 20
159.7903855719895
 10
230.022036681452
 20
159.7903855719895
 10
230.022036681452
 20
158.5103855719897
 10
230.1654232508831
 20
158.5103855719897
 97
        0
 75
     0
 76
     1
 98
        0
  0
LINE
  5
2C0
330
E3
100
AcDbEntity
  8
Des_ Walls
  6
Continuous
100
AcDbLine
 10
230.1654253396114
 20
159.7903847376763
 30
0.0
 11
230.0220352126474
 21
159.7903847376763
 31
0.0
  0
LINE
  5
2C1
330
E3
100
AcDbEntity
  8
Des_ Walls
  6
Continuous
100
AcDbLine
 10
230.0220352126474
 20
159.7903847376763
 30
0.0
 11
230.0220352126474
 21
158.5103871329679
 31
0.0
  0
LINE
  5
2C2
330
E3
100
AcDbEntity
  8
Des_ Walls
  6
Continuous
100
AcDbLine
 10
230.0220352126474
 20
158.5103871329679
 30
0.0
 11
230.1654253396114
 21
158.5103871329679
 31
0.0
  0
LINE
  5
2C3
330
E3
100
AcDbEntity
  8
Des_ Walls
  6
Continuous
100
AcDbLine
 10
230.1654253396114
 20
158.5103871329679
 30
0.0
 11
230.1654253396114
 21
159.7903847376763
 31
0.0
  0
HATCH
  5
2C4
330
E3
100
AcDbEntity
  8
Des_ Walls
  6
Continuous
 62
   255
370
     0
100
AcDbHatch
 10
0.0
 20
0.0
 30
0.0
210
0.0
220
0.0
230
1.0
  2
SOLID
 70
     1
 71
     0
 91
        1
 92
        3
 72
     1
 73
     1
 93
        4
 10
229.5654232508831
 20
160.5503855719895
 42
0.0
 10
228.7654232508831
 20
160.5503855719895
 42
-0.4285714285714285
 10
228.7654232508831
 20
157.7503855719897
 42
0.0
 10
229.5654232508831
 20
157.7503855719897
 42
0.0
 97
        0
 75
     0
 76
     1
 98
        0
  0
LINE
  5
2C5
330
E3
100
AcDbEntity
  8
Des_ Walls
  6
Continuous
100
AcDbLine
 10
229.565422856389
 20
160.5503853188137
 30
0.0
 11
228.7654238192218
 21
160.5503853188137
 31
0.0
  0
ARC
  5
2C6
330
E3
100
AcDbEntity
  8
Des_ Walls
  6
Continuous
100
AcDbCircle
 10
227.4320899175499
 20
159.1503855719896
 30
0.0
 40
1.933333333333199
100
AcDbArc
 50
313.6028189727037
 51
46.39718102729632
  0
LINE
  5
2C7
330
E3
100
AcDbEntity
  8
Des_ Walls
  6
Continuous
100
AcDbLine
 10
228.7654238192218
 20
157.7503865518305
 30
0.0
 11
229.565422856389
 21
157.7503865518305
 31
0.0
  0
LINE
  5
2C8
330
E3
100
AcDbEntity
  8
Des_ Walls
  6
Continuous
100
AcDbLine
 10
229.565422856389
 20
157.7503865518305
 30
0.0
 11
229.565422856389
 21
160.5503853188137
 31
0.0
  0
HATCH
  5
2C9
330
E3
100
AcDbEntity
  8
Des_ Walls
  6
Continuous
 62
   255
370
     0
100
AcDbHatch
 10
0.0
 20
0.0
 30
0.0
210
0.0
220
0.0
230
1.0
  2
SOLID
 70
     1
 71
     0
 91
        1
 92
        3
 72
     0
 73
     1
 93
        5
 10
229.3654232508831
 20
159.4703855719896
 10
220.0054232508831
 20
159.4703855719896
 10
219.3654232508831
 20
159.1503855719897
 10
220.0054232508831
 20
158.8303855719897
 10
229.3654232508831
 20
158.8303855719897
 97
        0
 75
     0
 76
     1
 98
        0
  0
LINE
  5
2CA
330
E3
100
AcDbEntity
  8
Des_ Walls
  6
Continuous
100
AcDbLine
 10
229.3654220286482
 20
159.4703842680502
 30
0.0
 11
220.0054243188202
 21
159.4703842680502
 31
0.0
  0
LINE
  5
2CB
330
E3
100
AcDbEntity
  8
Des_ Walls
  6
Continuous
100
AcDbLine
 10
220.0054243188202
 20
159.4703842680502
 30
0.0
 11
219.365423379568
 21
159.1503837984242
 31
0.0
  0
LINE
  5
2CC
330
E3
100
AcDbEntity
  8
Des_ Walls
  6
Continuous
100
AcDbLine
 10
219.365423379568
 20
159.1503837984242
 30
0.0
 11
220.0054243188202
 21
158.830387602594
 31
0.0
  0
LINE
  5
2CD
330
E3
100
AcDbEntity
  8
Des_ Walls
  6
Continuous
100
AcDbLine
 10
220.0054243188202
 20
158.830387602594
 30
0.0
 11
229.3654220286482
 21
158.830387602594
 31
0.0
  0
LINE
  5
2CE
330
E3
100
AcDbEntity
  8
Des_ Walls
  6
Continuous
100
AcDbLine
 10
229.3654220286482
 20
158.830387602594
 30
0.0
 11
229.3654220286482
 21
159.4703842680502
 31
0.0
  0
LINE
  5
2CF
330
E3
100
AcDbEntity
  8
Des_ Walls
  6
Continuous
100
AcDbLine
 10
229.3654220286482
 20
158.6303867748532
 30
0.0
 11
229.2265364825856
 21
158.6323655423649
 31
0.0
  0
LINE
  5
2D0
330
E3
100
AcDbEntity
  8
Des_ Walls
  6
Continuous
100
AcDbLine
 10
229.2265364825856
 20
158.6323655423649
 30
0.0
 11
229.0876466627271
 21
158.6382847497163
 31
0.0
  0
LINE
  5
2D1
330
E3
100
AcDbEntity
  8
Des_ Walls
  6
Continuous
100
AcDbLine
 10
229.0876466627271
 20
158.6382847497163
 30
0.0
 11
228.9487568428685
 21
158.648105932744
 31
0.0
  0
LINE
  5
2D2
330
E3
100
AcDbEntity
  8
Des_ Walls
  6
Continuous
100
AcDbLine
 10
228.9487568428685
 20
158.648105932744
 30
0.0
 11
228.80986702301
 21
158.6617436155296
 31
0.0
  0
LINE
  5
2D3
330
E3
100
AcDbEntity
  8
Des_ Walls
  6
Continuous
100
AcDbLine
 10
228.80986702301
 20
158.6617436155296
 30
0.0
 11
228.6709772031514
 21
158.6791037745629
 31
0.0
  0
LINE
  5
2D4
330
E3
100
AcDbEntity
  8
Des_ Walls
  6
Continuous
100
AcDbLine
 10
228.6709772031514
 20
158.6791037745629
 30
0.0
 11
228.5320916570888
 21
158.7000539221704
 31
0.0
  0
LINE
  5
2D5
330
E3
100
AcDbEntity
  8
Des_ Walls
  6
Continuous
100
AcDbLine
 10
228.5320916570888
 20
158.7000539221704
 30
0.0
 11
228.3932018372303
 21
158.724427380311
 31
0.0
  0
LINE
  5
2D6
330
E3
100
AcDbEntity
  8
Des_ Walls
  6
Continuous
100
AcDbLine
 10
228.3932018372303
 20
158.724427380311
 30
0.0
 11
228.2543120173717
 21
158.7520403757601
 31
0.0
  0
LINE
  5
2D7
330
E3
100
AcDbEntity
  8
Des_ Walls
  6
Continuous
100
AcDbLine
 10
228.2543120173717
 20
158.7520403757601
 30
0.0
 11
228.1154221975132
 21
158.7826920401095
 31
0.0
  0
LINE
  5
2D8
330
E3
100
AcDbEntity
  8
Des_ Walls
  6
Continuous
100
AcDbLine
 10
228.1154221975132
 20
158.7826920401095
 30
0.0
 11
227.9765323776547
 21
158.8161344931956
 31
0.0
  0
LINE
  5
2D9
330
E3
100
AcDbEntity
  8
Des_ Walls
  6
Continuous
100
AcDbLine
 10
227.9765323776547
 20
158.8161344931956
 30
0.0
 11
227.8376468315921
 21
158.852124128651
 31
0.0
  0
LINE
  5
2DA
330
E3
100
AcDbEntity
  8
Des_ Walls
  6
Continuous
100
AcDbLine
 10
227.8376468315921
 20
158.852124128651
 30
0.0
 11
227.6987570117335
 21
158.8903874235366
 31
0.0
  0
LINE
  5
2DB
330
E3
100
AcDbEntity
  8
Des_ Walls
  6
Continuous
100
AcDbLine
 10
227.6987570117335
 20
158.8903874235366
 30
0.0
 11
227.559867191875
 21
158.930625212138
 31
0.0
  0
LINE
  5
2DC
330
E3
100
AcDbEntity
  8
Des_ Walls
  6
Continuous
100
AcDbLine
 10
227.559867191875
 20
158.930625212138
 30
0.0
 11
227.4209773720164
 21
158.9725340549448
 31
0.0
  0
LINE
  5
2DD
330
E3
100
AcDbEntity
  8
Des_ Walls
  6
Continuous
100
AcDbLine
 10
227.4209773720164
 20
158.9725340549448
 30
0.0
 11
227.2820918259538
 21
159.0157976910586
 31
0.0
  0
LINE
  5
2DE
330
E3
100
AcDbEntity
  8
Des_ Walls
  6
Continuous
100
AcDbLine
 10
227.2820918259538
 20
159.0157976910586
 30
0.0
 11
227.1432020060953
 21
159.0600870381936
 31
0.0
  0
LINE
  5
2DF
330
E3
100
AcDbEntity
  8
Des_ Walls
  6
Continuous
100
AcDbLine
 10
227.1432020060953
 20
159.0600870381936
 30
0.0
 11
227.0043121862367
 21
159.105064466472
 31
0.0
  0
LINE
  5
2E0
330
E3
100
AcDbEntity
  8
Des_ Walls
  6
Continuous
100
AcDbLine
 10
227.0043121862367
 20
159.105064466472
 30
0.0
 11
226.8654223663782
 21
159.1503837984242
 31
0.0
  0
LINE
  5
2E1
330
E3
100
AcDbEntity
  8
Des_ Walls
  6
Continuous
100
AcDbLine
 10
226.8654223663782
 20
159.1503837984242
 30
0.0
 11
226.7265325465196
 21
159.1957074041722
 31
0.0
  0
LINE
  5
2E2
330
E3
100
AcDbEntity
  8
Des_ Walls
  6
Continuous
100
AcDbLine
 10
226.7265325465196
 20
159.1957074041722
 30
0.0
 11
226.587647000457
 21
159.2406805586546
 31
0.0
  0
LINE
  5
2E3
330
E3
100
AcDbEntity
  8
Des_ Walls
  6
Continuous
100
AcDbLine
 10
226.587647000457
 20
159.2406805586546
 30
0.0
 11
226.4487571805984
 21
159.2849699057897
 31
0.0
  0
LINE
  5
2E4
330
E3
100
AcDbEntity
  8
Des_ Walls
  6
Continuous
100
AcDbLine
 10
226.4487571805984
 20
159.2849699057897
 30
0.0
 11
226.3098673607399
 21
159.3282378156994
 31
0.0
  0
LINE
  5
2E5
330
E3
100
AcDbEntity
  8
Des_ Walls
  6
Continuous
100
AcDbLine
 10
226.3098673607399
 20
159.3282378156994
 30
0.0
 11
226.1709775408814
 21
159.3701466585062
 31
0.0
  0
LINE
  5
2E6
330
E3
100
AcDbEntity
  8
Des_ Walls
  6
Continuous
100
AcDbLine
 10
226.1709775408814
 20
159.3701466585062
 30
0.0
 11
226.0320919948188
 21
159.4103844471076
 31
0.0
  0
LINE
  5
2E7
330
E3
100
AcDbEntity
  8
Des_ Walls
  6
Continuous
100
AcDbLine
 10
226.0320919948188
 20
159.4103844471076
 30
0.0
 11
225.8932021749602
 21
159.4486434681973
 31
0.0
  0
LINE
  5
2E8
330
E3
100
AcDbEntity
  8
Des_ Walls
  6
Continuous
100
AcDbLine
 10
225.8932021749602
 20
159.4486434681973
 30
0.0
 11
225.7543123551017
 21
159.4846331036527
 31
0.0
  0
LINE
  5
2E9
330
E3
100
AcDbEntity
  8
Des_ Walls
  6
Continuous
100
AcDbLine
 10
225.7543123551017
 20
159.4846331036527
 30
0.0
 11
225.6154225352431
 21
159.5180798305347
 31
0.0
  0
LINE
  5
2EA
330
E3
100
AcDbEntity
  8
Des_ Walls
  6
Continuous
100
AcDbLine
 10
225.6154225352431
 20
159.5180798305347
 30
0.0
 11
225.4765327153846
 21
159.5487272210881
 31
0.0
  0
LINE
  5
2EB
330
E3
100
AcDbEntity
  8
Des_ Walls
  6
Continuous
100
AcDbLine
 10
225.4765327153846
 20
159.5487272210881
 30
0.0
 11
225.337647169322
 21
159.5763444903332
 31
0.0
  0
LINE
  5
2EC
330
E3
100
AcDbEntity
  8
Des_ Walls
  6
Continuous
100
AcDbLine
 10
225.337647169322
 20
159.5763444903332
 30
0.0
 11
225.1987573494634
 21
159.6007179484738
 31
0.0
  0
LINE
  5
2ED
330
E3
100
AcDbEntity
  8
Des_ Walls
  6
Continuous
100
AcDbLine
 10
225.1987573494634
 20
159.6007179484738
 30
0.0
 11
225.0598675296049
 21
159.6216638222853
 31
0.0
  0
LINE
  5
2EE
330
E3
100
AcDbEntity
  8
Des_ Walls
  6
Continuous
100
AcDbLine
 10
225.0598675296049
 20
159.6216638222853
 30
0.0
 11
224.9209777097464
 21
159.6390239813187
 31
0.0
  0
LINE
  5
2EF
330
E3
100
AcDbEntity
  8
Des_ Walls
  6
Continuous
100
AcDbLine
 10
224.9209777097464
 20
159.6390239813187
 30
0.0
 11
224.7820878898878
 21
159.6526659379003
 31
0.0
  0
LINE
  5
2F0
330
E3
100
AcDbEntity
  8
Des_ Walls
  6
Continuous
100
AcDbLine
 10
224.7820878898878
 20
159.6526659379003
 30
0.0
 11
224.6432023438252
 21
159.662487120928
 31
0.0
  0
LINE
  5
2F1
330
E3
100
AcDbEntity
  8
Des_ Walls
  6
Continuous
100
AcDbLine
 10
224.6432023438252
 20
159.662487120928
 30
0.0
 11
224.5043125239667
 21
159.6684063282793
 31
0.0
  0
LINE
  5
2F2
330
E3
100
AcDbEntity
  8
Des_ Walls
  6
Continuous
100
AcDbLine
 10
224.5043125239667
 20
159.6684063282793
 30
0.0
 11
224.3654227041081
 21
159.670385095791
 31
0.0
  0
LINE
  5
2F3
330
E3
100
AcDbEntity
  8
Des_ Walls
  6
Continuous
100
AcDbLine
 10
224.3654227041081
 20
159.670385095791
 30
0.0
 11
224.2265328842496
 21
159.6684063282793
 31
0.0
  0
LINE
  5
2F4
330
E3
100
AcDbEntity
  8
Des_ Walls
  6
Continuous
100
AcDbLine
 10
226.8654223663782
 20
158.6303867748532
 30
0.0
 11
226.7265325465196
 21
158.6323655423649
 31
0.0
  0
LINE
  5
2F5
330
E3
100
AcDbEntity
  8
Des_ Walls
  6
Continuous
100
AcDbLine
 10
226.7265325465196
 20
158.6323655423649
 30
0.0
 11
226.587647000457
 21
158.6382847497163
 31
0.0
  0
LINE
  5
2F6
330
E3
100
AcDbEntity
  8
Des_ Walls
  6
Continuous
100
AcDbLine
 10
226.587647000457
 20
158.6382847497163
 30
0.0
 11
226.4487571805984
 21
158.648105932744
 31
0.0
  0
LINE
  5
2F7
330
E3
100
AcDbEntity
  8
Des_ Walls
  6
Continuous
100
AcDbLine
 10
226.4487571805984
 20
158.648105932744
 30
0.0
 11
226.3098673607399
 21
158.6617436155296
 31
0.0
  0
LINE
  5
2F8
330
E3
100
AcDbEntity
  8
Des_ Walls
  6
Continuous
100
AcDbLine
 10
226.3098673607399
 20
158.6617436155296
 30
0.0
 11
226.1709775408814
 21
158.6791037745629
 31
0.0
  0
LINE
  5
2F9
330
E3
100
AcDbEntity
  8
Des_ Walls
  6
Continuous
100
AcDbLine
 10
226.1709775408814
 20
158.6791037745629
 30
0.0
 11
226.0320919948188
 21
158.7000539221704
 31
0.0
  0
LINE
  5
2FA
330
E3
100
AcDbEntity
  8
Des_ Walls
  6
Continuous
100
AcDbLine
 10
226.0320919948188
 20
158.7000539221704
 30
0.0
 11
225.8932021749602
 21
158.724427380311
 31
0.0
  0
LINE
  5
2FB
330
E3
100
AcDbEntity
  8
Des_ Walls
  6
Continuous
100
AcDbLine
 10
225.8932021749602
 20
158.724427380311
 30
0.0
 11
225.7543123551017
 21
158.7520403757601
 31
0.0
  0
LINE
  5
2FC
330
E3
100
AcDbEntity
  8
Des_ Walls
  6
Continuous
100
AcDbLine
 10
225.7543123551017
 20
158.7520403757601
 30
0.0
 11
225.6154225352431
 21
158.7826920401095
 31
0.0
  0
LINE
  5
2FD
330
E3
100
AcDbEntity
  8
Des_ Walls
  6
Continuous
100
AcDbLine
 10
225.6154225352431
 20
158.7826920401095
 30
0.0
 11
225.4765327153846
 21
158.8161344931956
 31
0.0
  0
LINE
  5
2FE
330
E3
100
AcDbEntity
  8
Des_ Walls
  6
Continuous
100
AcDbLine
 10
225.4765327153846
 20
158.8161344931956
 30
0.0
 11
225.337647169322
 21
158.852124128651
 31
0.0
  0
LINE
  5
2FF
330
E3
100
AcDbEntity
  8
Des_ Walls
  6
Continuous
100
AcDbLine
 10
225.337647169322
 20
158.852124128651
 30
0.0
 11
225.1987573494634
 21
158.8903874235366
 31
0.0
  0
LINE
  5
300
330
E3
100
AcDbEntity
  8
Des_ Walls
  6
Continuous
100
AcDbLine
 10
225.1987573494634
 20
158.8903874235366
 30
0.0
 11
225.0598675296049
 21
158.930625212138
 31
0.0
  0
LINE
  5
301
330
E3
100
AcDbEntity
  8
Des_ Walls
  6
Continuous
100
AcDbLine
 10
225.0598675296049
 20
158.930625212138
 30
0.0
 11
224.9209777097464
 21
158.9725340549448
 31
0.0
  0
LINE
  5
302
330
E3
100
AcDbEntity
  8
Des_ Walls
  6
Continuous
100
AcDbLine
 10
224.9209777097464
 20
158.9725340549448
 30
0.0
 11
224.7820878898878
 21
159.0157976910586
 31
0.0
  0
LINE
  5
303
330
E3
100
AcDbEntity
  8
Des_ Walls
  6
Continuous
100
AcDbLine
 10
224.7820878898878
 20
159.0157976910586
 30
0.0
 11
224.6432023438252
 21
159.0600870381936
 31
0.0
  0
LINE
  5
304
330
E3
100
AcDbEntity
  8
Des_ Walls
  6
Continuous
100
AcDbLine
 10
224.6432023438252
 20
159.0600870381936
 30
0.0
 11
224.5043125239667
 21
159.105064466472
 31
0.0
  0
LINE
  5
305
330
E3
100
AcDbEntity
  8
Des_ Walls
  6
Continuous
100
AcDbLine
 10
224.5043125239667
 20
159.105064466472
 30
0.0
 11
224.3654227041081
 21
159.1503837984242
 31
0.0
  0
LINE
  5
306
330
E3
100
AcDbEntity
  8
Des_ Walls
  6
Continuous
100
AcDbLine
 10
224.3654227041081
 20
159.1503837984242
 30
0.0
 11
224.2265328842496
 21
159.1957074041722
 31
0.0
  0
LINE
  5
307
330
E3
100
AcDbEntity
  8
Des_ Walls
  6
Continuous
100
AcDbLine
 10
224.2265328842496
 20
159.1957074041722
 30
0.0
 11
224.087647338187
 21
159.2406805586546
 31
0.0
  0
LINE
  5
308
330
E3
100
AcDbEntity
  8
Des_ Walls
  6
Continuous
100
AcDbLine
 10
224.087647338187
 20
159.2406805586546
 30
0.0
 11
223.9487575183284
 21
159.2849699057897
 31
0.0
  0
LINE
  5
309
330
E3
100
AcDbEntity
  8
Des_ Walls
  6
Continuous
100
AcDbLine
 10
223.9487575183284
 20
159.2849699057897
 30
0.0
 11
223.8098676984699
 21
159.3282378156994
 31
0.0
  0
LINE
  5
30A
330
E3
100
AcDbEntity
  8
Des_ Walls
  6
Continuous
100
AcDbLine
 10
223.8098676984699
 20
159.3282378156994
 30
0.0
 11
223.6709778786114
 21
159.3701466585062
 31
0.0
  0
LINE
  5
30B
330
E3
100
AcDbEntity
  8
Des_ Walls
  6
Continuous
100
AcDbLine
 10
223.6709778786114
 20
159.3701466585062
 30
0.0
 11
223.5320880587528
 21
159.4103844471076
 31
0.0
  0
LINE
  5
30C
330
E3
100
AcDbEntity
  8
Des_ Walls
  6
Continuous
100
AcDbLine
 10
223.5320880587528
 20
159.4103844471076
 30
0.0
 11
223.3932025126902
 21
159.4486434681973
 31
0.0
  0
LINE
  5
30D
330
E3
100
AcDbEntity
  8
Des_ Walls
  6
Continuous
100
AcDbLine
 10
223.3932025126902
 20
159.4486434681973
 30
0.0
 11
223.2543126928316
 21
159.4846331036527
 31
0.0
  0
LINE
  5
30E
330
E3
100
AcDbEntity
  8
Des_ Walls
  6
Continuous
100
AcDbLine
 10
223.2543126928316
 20
159.4846331036527
 30
0.0
 11
223.1154228729731
 21
159.5180798305347
 31
0.0
  0
LINE
  5
30F
330
E3
100
AcDbEntity
  8
Des_ Walls
  6
Continuous
100
AcDbLine
 10
223.1154228729731
 20
159.5180798305347
 30
0.0
 11
222.9765330531145
 21
159.5487272210881
 31
0.0
  0
LINE
  5
310
330
E3
100
AcDbEntity
  8
Des_ Walls
  6
Continuous
100
AcDbLine
 10
222.9765330531145
 20
159.5487272210881
 30
0.0
 11
222.8376475070519
 21
159.5763444903332
 31
0.0
  0
LINE
  5
311
330
E3
100
AcDbEntity
  8
Des_ Walls
  6
Continuous
100
AcDbLine
 10
222.8376475070519
 20
159.5763444903332
 30
0.0
 11
222.6987576871934
 21
159.6007179484738
 31
0.0
  0
LINE
  5
312
330
E3
100
AcDbEntity
  8
Des_ Walls
  6
Continuous
100
AcDbLine
 10
222.6987576871934
 20
159.6007179484738
 30
0.0
 11
222.5598678673348
 21
159.6216638222853
 31
0.0
  0
LINE
  5
313
330
E3
100
AcDbEntity
  8
Des_ Walls
  6
Continuous
100
AcDbLine
 10
222.5598678673348
 20
159.6216638222853
 30
0.0
 11
222.4209780474763
 21
159.6390239813187
 31
0.0
  0
LINE
  5
314
330
E3
100
AcDbEntity
  8
Des_ Walls
  6
Continuous
100
AcDbLine
 10
222.4209780474763
 20
159.6390239813187
 30
0.0
 11
222.2820882276178
 21
159.6526659379003
 31
0.0
  0
LINE
  5
315
330
E3
100
AcDbEntity
  8
Des_ Walls
  6
Continuous
100
AcDbLine
 10
222.2820882276178
 20
159.6526659379003
 30
0.0
 11
222.1432026815552
 21
159.662487120928
 31
0.0
  0
LINE
  5
316
330
E3
100
AcDbEntity
  8
Des_ Walls
  6
Continuous
100
AcDbLine
 10
222.1432026815552
 20
159.662487120928
 30
0.0
 11
222.0043128616966
 21
159.6684063282793
 31
0.0
  0
LINE
  5
317
330
E3
100
AcDbEntity
  8
Des_ Walls
  6
Continuous
100
AcDbLine
 10
222.0043128616966
 20
159.6684063282793
 30
0.0
 11
221.8654230418381
 21
159.670385095791
 31
0.0
  0
LINE
  5
318
330
E3
100
AcDbEntity
  8
Des_ Walls
  6
Continuous
100
AcDbLine
 10
221.8654230418381
 20
159.670385095791
 30
0.0
 11
221.7265332219795
 21
159.6684063282793
 31
0.0
  0
LINE
  5
319
330
E3
100
AcDbEntity
  8
Des_ Walls
  6
Continuous
100
AcDbLine
 10
224.3654227041081
 20
158.6303867748532
 30
0.0
 11
224.2265328842496
 21
158.6323655423649
 31
0.0
  0
LINE
  5
31A
330
E3
100
AcDbEntity
  8
Des_ Walls
  6
Continuous
100
AcDbLine
 10
224.2265328842496
 20
158.6323655423649
 30
0.0
 11
224.087647338187
 21
158.6382847497163
 31
0.0
  0
LINE
  5
31B
330
E3
100
AcDbEntity
  8
Des_ Walls
  6
Continuous
100
AcDbLine
 10
224.087647338187
 20
158.6382847497163
 30
0.0
 11
223.9487575183284
 21
158.648105932744
 31
0.0
  0
LINE
  5
31C
330
E3
100
AcDbEntity
  8
Des_ Walls
  6
Continuous
100
AcDbLine
 10
223.9487575183284
 20
158.648105932744
 30
0.0
 11
223.8098676984699
 21
158.6617436155296
 31
0.0
  0
LINE
  5
31D
330
E3
100
AcDbEntity
  8
Des_ Walls
  6
Continuous
100
AcDbLine
 10
223.8098676984699
 20
158.6617436155296
 30
0.0
 11
223.6709778786114
 21
158.6791037745629
 31
0.0
  0
LINE
  5
31E
330
E3
100
AcDbEntity
  8
Des_ Walls
  6
Continuous
100
AcDbLine
 10
223.6709778786114
 20
158.6791037745629
 30
0.0
 11
223.5320880587528
 21
158.7000539221704
 31
0.0
  0
LINE
  5
31F
330
E3
100
AcDbEntity
  8
Des_ Walls
  6
Continuous
100
AcDbLine
 10
223.5320880587528
 20
158.7000539221704
 30
0.0
 11
223.3932025126902
 21
158.724427380311
 31
0.0
  0
LINE
  5
320
330
E3
100
AcDbEntity
  8
Des_ Walls
  6
Continuous
100
AcDbLine
 10
223.3932025126902
 20
158.724427380311
 30
0.0
 11
223.2543126928316
 21
158.7520403757601
 31
0.0
  0
LINE
  5
321
330
E3
100
AcDbEntity
  8
Des_ Walls
  6
Continuous
100
AcDbLine
 10
223.2543126928316
 20
158.7520403757601
 30
0.0
 11
223.1154228729731
 21
158.7826920401095
 31
0.0
  0
LINE
  5
322
330
E3
100
AcDbEntity
  8
Des_ Walls
  6
Continuous
100
AcDbLine
 10
223.1154228729731
 20
158.7826920401095
 30
0.0
 11
222.9765330531145
 21
158.8161344931956
 31
0.0
  0
LINE
  5
323
330
E3
100
AcDbEntity
  8
Des_ Walls
  6
Continuous
100
AcDbLine
 10
222.9765330531145
 20
158.8161344931956
 30
0.0
 11
222.8376475070519
 21
158.852124128651
 31
0.0
  0
LINE
  5
324
330
E3
100
AcDbEntity
  8
Des_ Walls
  6
Continuous
100
AcDbLine
 10
222.8376475070519
 20
158.852124128651
 30
0.0
 11
222.6987576871934
 21
158.8903874235366
 31
0.0
  0
LINE
  5
325
330
E3
100
AcDbEntity
  8
Des_ Walls
  6
Continuous
100
AcDbLine
 10
222.6987576871934
 20
158.8903874235366
 30
0.0
 11
222.5598678673348
 21
158.930625212138
 31
0.0
  0
LINE
  5
326
330
E3
100
AcDbEntity
  8
Des_ Walls
  6
Continuous
100
AcDbLine
 10
222.5598678673348
 20
158.930625212138
 30
0.0
 11
222.4209780474763
 21
158.9725340549448
 31
0.0
  0
LINE
  5
327
330
E3
100
AcDbEntity
  8
Des_ Walls
  6
Continuous
100
AcDbLine
 10
222.4209780474763
 20
158.9725340549448
 30
0.0
 11
222.2820882276178
 21
159.0157976910586
 31
0.0
  0
LINE
  5
328
330
E3
100
AcDbEntity
  8
Des_ Walls
  6
Continuous
100
AcDbLine
 10
222.2820882276178
 20
159.0157976910586
 30
0.0
 11
222.1432026815552
 21
159.0600870381936
 31
0.0
  0
LINE
  5
329
330
E3
100
AcDbEntity
  8
Des_ Walls
  6
Continuous
100
AcDbLine
 10
222.1432026815552
 20
159.0600870381936
 30
0.0
 11
222.0043128616966
 21
159.105064466472
 31
0.0
  0
LINE
  5
32A
330
E3
100
AcDbEntity
  8
Des_ Walls
  6
Continuous
100
AcDbLine
 10
222.0043128616966
 20
159.105064466472
 30
0.0
 11
221.8654230418381
 21
159.1503837984242
 31
0.0
  0
LINE
  5
32B
330
E3
100
AcDbEntity
  8
Des_ Walls
  6
Continuous
100
AcDbLine
 10
221.8654230418381
 20
159.1503837984242
 30
0.0
 11
221.7265332219795
 21
159.1957074041722
 31
0.0
  0
LINE
  5
32C
330
E3
100
AcDbEntity
  8
Des_ Walls
  6
Continuous
100
AcDbLine
 10
221.7265332219795
 20
159.1957074041722
 30
0.0
 11
221.587643402121
 21
159.2406805586546
 31
0.0
  0
LINE
  5
32D
330
E3
100
AcDbEntity
  8
Des_ Walls
  6
Continuous
100
AcDbLine
 10
221.587643402121
 20
159.2406805586546
 30
0.0
 11
221.4487578560584
 21
159.2849699057897
 31
0.0
  0
LINE
  5
32E
330
E3
100
AcDbEntity
  8
Des_ Walls
  6
Continuous
100
AcDbLine
 10
221.4487578560584
 20
159.2849699057897
 30
0.0
 11
221.3098680361998
 21
159.3282378156994
 31
0.0
  0
LINE
  5
32F
330
E3
100
AcDbEntity
  8
Des_ Walls
  6
Continuous
100
AcDbLine
 10
221.3098680361998
 20
159.3282378156994
 30
0.0
 11
221.1709782163413
 21
159.3701466585062
 31
0.0
  0
LINE
  5
330
330
E3
100
AcDbEntity
  8
Des_ Walls
  6
Continuous
100
AcDbLine
 10
221.1709782163413
 20
159.3701466585062
 30
0.0
 11
221.0320883964827
 21
159.4103844471076
 31
0.0
  0
LINE
  5
331
330
E3
100
AcDbEntity
  8
Des_ Walls
  6
Continuous
100
AcDbLine
 10
221.0320883964827
 20
159.4103844471076
 30
0.0
 11
220.8932028504201
 21
159.4486434681973
 31
0.0
  0
LINE
  5
332
330
E3
100
AcDbEntity
  8
Des_ Walls
  6
Continuous
100
AcDbLine
 10
220.8932028504201
 20
159.4486434681973
 30
0.0
 11
220.7543130305615
 21
159.4846331036527
 31
0.0
  0
LINE
  5
333
330
E3
100
AcDbEntity
  8
Des_ Walls
  6
Continuous
100
AcDbLine
 10
220.7543130305615
 20
159.4846331036527
 30
0.0
 11
220.6154232107031
 21
159.5180798305347
 31
0.0
  0
LINE
  5
334
330
E3
100
AcDbEntity
  8
Des_ Walls
  6
Continuous
100
AcDbLine
 10
229.3654220286482
 20
159.1503837984242
 30
0.0
 11
229.2265364825856
 21
159.1957074041722
 31
0.0
  0
LINE
  5
335
330
E3
100
AcDbEntity
  8
Des_ Walls
  6
Continuous
100
AcDbLine
 10
229.2265364825856
 20
159.1957074041722
 30
0.0
 11
229.0876466627271
 21
159.2406805586546
 31
0.0
  0
LINE
  5
336
330
E3
100
AcDbEntity
  8
Des_ Walls
  6
Continuous
100
AcDbLine
 10
229.0876466627271
 20
159.2406805586546
 30
0.0
 11
228.9487568428685
 21
159.2849699057897
 31
0.0
  0
LINE
  5
337
330
E3
100
AcDbEntity
  8
Des_ Walls
  6
Continuous
100
AcDbLine
 10
228.9487568428685
 20
159.2849699057897
 30
0.0
 11
228.80986702301
 21
159.3282378156994
 31
0.0
  0
LINE
  5
338
330
E3
100
AcDbEntity
  8
Des_ Walls
  6
Continuous
100
AcDbLine
 10
228.80986702301
 20
159.3282378156994
 30
0.0
 11
228.6709772031514
 21
159.3701466585062
 31
0.0
  0
LINE
  5
339
330
E3
100
AcDbEntity
  8
Des_ Walls
  6
Continuous
100
AcDbLine
 10
228.6709772031514
 20
159.3701466585062
 30
0.0
 11
228.5320916570888
 21
159.4103844471076
 31
0.0
  0
LINE
  5
33A
330
E3
100
AcDbEntity
  8
Des_ Walls
  6
Continuous
100
AcDbLine
 10
228.5320916570888
 20
159.4103844471076
 30
0.0
 11
228.3932018372303
 21
159.4486434681973
 31
0.0
  0
LINE
  5
33B
330
E3
100
AcDbEntity
  8
Des_ Walls
  6
Continuous
100
AcDbLine
 10
228.3932018372303
 20
159.4486434681973
 30
0.0
 11
228.2543120173717
 21
159.4846331036527
 31
0.0
  0
LINE
  5
33C
330
E3
100
AcDbEntity
  8
Des_ Walls
  6
Continuous
100
AcDbLine
 10
228.2543120173717
 20
159.4846331036527
 30
0.0
 11
228.1154221975132
 21
159.5180798305347
 31
0.0
  0
LINE
  5
33D
330
E3
100
AcDbEntity
  8
Des_ Walls
  6
Continuous
100
AcDbLine
 10
228.1154221975132
 20
159.5180798305347
 30
0.0
 11
227.9765323776547
 21
159.5487272210881
 31
0.0
  0
LINE
  5
33E
330
E3
100
AcDbEntity
  8
Des_ Walls
  6
Continuous
100
AcDbLine
 10
227.9765323776547
 20
159.5487272210881
 30
0.0
 11
227.8376468315921
 21
159.5763444903332
 31
0.0
  0
LINE
  5
33F
330
E3
100
AcDbEntity
  8
Des_ Walls
  6
Continuous
100
AcDbLine
 10
227.8376468315921
 20
159.5763444903332
 30
0.0
 11
227.6987570117335
 21
159.6007179484738
 31
0.0
  0
LINE
  5
340
330
E3
100
AcDbEntity
  8
Des_ Walls
  6
Continuous
100
AcDbLine
 10
227.6987570117335
 20
159.6007179484738
 30
0.0
 11
227.559867191875
 21
159.6216638222853
 31
0.0
  0
LINE
  5
341
330
E3
100
AcDbEntity
  8
Des_ Walls
  6
Continuous
100
AcDbLine
 10
227.559867191875
 20
159.6216638222853
 30
0.0
 11
227.4209773720164
 21
159.6390239813187
 31
0.0
  0
LINE
  5
342
330
E3
100
AcDbEntity
  8
Des_ Walls
  6
Continuous
100
AcDbLine
 10
227.4209773720164
 20
159.6390239813187
 30
0.0
 11
227.2820918259538
 21
159.6526659379003
 31
0.0
  0
LINE
  5
343
330
E3
100
AcDbEntity
  8
Des_ Walls
  6
Continuous
100
AcDbLine
 10
227.2820918259538
 20
159.6526659379003
 30
0.0
 11
227.1432020060953
 21
159.662487120928
 31
0.0
  0
LINE
  5
344
330
E3
100
AcDbEntity
  8
Des_ Walls
  6
Continuous
100
AcDbLine
 10
227.1432020060953
 20
159.662487120928
 30
0.0
 11
227.0043121862367
 21
159.6684063282793
 31
0.0
  0
LINE
  5
345
330
E3
100
AcDbEntity
  8
Des_ Walls
  6
Continuous
100
AcDbLine
 10
227.0043121862367
 20
159.6684063282793
 30
0.0
 11
226.8654223663782
 21
159.670385095791
 31
0.0
  0
LINE
  5
346
330
E3
100
AcDbEntity
  8
Des_ Walls
  6
Continuous
100
AcDbLine
 10
226.8654223663782
 20
159.670385095791
 30
0.0
 11
226.7265325465196
 21
159.6684063282793
 31
0.0
  0
LINE
  5
347
330
E3
100
AcDbEntity
  8
Des_ Walls
  6
Continuous
100
AcDbLine
 10
221.8654230418381
 20
158.6303867748532
 30
0.0
 11
221.7265332219795
 21
158.6323655423649
 31
0.0
  0
LINE
  5
348
330
E3
100
AcDbEntity
  8
Des_ Walls
  6
Continuous
100
AcDbLine
 10
221.7265332219795
 20
158.6323655423649
 30
0.0
 11
221.587643402121
 21
158.6382847497163
 31
0.0
  0
LINE
  5
349
330
E3
100
AcDbEntity
  8
Des_ Walls
  6
Continuous
100
AcDbLine
 10
221.587643402121
 20
158.6382847497163
 30
0.0
 11
221.4487578560584
 21
158.648105932744
 31
0.0
  0
LINE
  5
34A
330
E3
100
AcDbEntity
  8
Des_ Walls
  6
Continuous
100
AcDbLine
 10
221.4487578560584
 20
158.648105932744
 30
0.0
 11
221.3098680361998
 21
158.6617436155296
 31
0.0
  0
LINE
  5
34B
330
E3
100
AcDbEntity
  8
Des_ Walls
  6
Continuous
100
AcDbLine
 10
221.3098680361998
 20
158.6617436155296
 30
0.0
 11
221.1709782163413
 21
158.6791037745629
 31
0.0
  0
LINE
  5
34C
330
E3
100
AcDbEntity
  8
Des_ Walls
  6
Continuous
100
AcDbLine
 10
221.1709782163413
 20
158.6791037745629
 30
0.0
 11
221.0320883964827
 21
158.7000539221704
 31
0.0
  0
LINE
  5
34D
330
E3
100
AcDbEntity
  8
Des_ Walls
  6
Continuous
100
AcDbLine
 10
221.0320883964827
 20
158.7000539221704
 30
0.0
 11
220.8932028504201
 21
158.724427380311
 31
0.0
  0
LINE
  5
34E
330
E3
100
AcDbEntity
  8
Des_ Walls
  6
Continuous
100
AcDbLine
 10
220.8932028504201
 20
158.724427380311
 30
0.0
 11
220.7543130305615
 21
158.7520403757601
 31
0.0
  0
LINE
  5
34F
330
E3
100
AcDbEntity
  8
Des_ Walls
  6
Continuous
100
AcDbLine
 10
220.7543130305615
 20
158.7520403757601
 30
0.0
 11
220.6154232107031
 21
158.7826920401095
 31
0.0
  0
LINE
  5
350
330
E3
100
AcDbEntity
  8
Des_ Furniture
  6
Continuous
 62
   251
370
    18
100
AcDbLine
 10
193.9659892424476
 20
108.179435405198
 30
0.0
 11
193.9659892424476
 21
101.9343810314041
 31
0.0
  0
LINE
  5
351
330
E3
100
AcDbEntity
  8
Des_ Furniture
  6
Continuous
 62
   251
370
    18
100
AcDbLine
 10
193.9659892424476
 20
67.60838047163556
 30
0.0
 11
193.9659892424476
 21
74.19495815131647
 31
0.0
  0
LINE
  5
352
330
E3
100
AcDbEntity
  8
Des_ Walls
  6
Continuous
100
AcDbLine
 10
196.8206113951042
 20
169.6078281939675
 30
0.0
 11
200.1132591655564
 21
172.9004759644197
 31
0.0
  0
LINE
  5
353
330
E3
100
AcDbEntity
  8
Des_ Walls
  6
Continuous
100
AcDbLine
 10
226.8206116161407
 20
169.6078281939675
 30
0.0
 11
223.5279638456885
 21
172.9004759644197
 31
0.0
  0
ARC
  5
354
330
E3
100
AcDbEntity
  8
Des_ Furniture
  6
Hidden Line
100
AcDbCircle
 10
195.0021426634166
 20
111.1806894551155
 30
0.0
 40
0.6000000000001117
100
AcDbArc
 50
273.0000017665966
 51
0.0
  0
LWPOLYLINE
  5
355
330
E3
100
AcDbEntity
  8
Des_ Furniture
  6
Continuous
100
AcDbPolyline
 90
        6
 70
   128
 43
0.0
 10
141.7934388091784
 20
112.6936880475083
 10
145.1200609439915
 20
118.8112237279827
 42
-0.2604542593494868
 10
145.4714655626828
 20
119.0201352825903
 10
193.96181138618
 20
119.0201352825903
 42
0.5419685754561748
 10
194.4344779465266
 20
119.8488150435216
 10
194.4344779465266
 20
146.0201352825902
  0
LWPOLYLINE
  5
356
330
E3
100
AcDbEntity
  8
Des_ Furniture
  6
Continuous
100
AcDbPolyline
 90
        3
 70
   128
 43
0.0
 10
194.4344779465266
 20
146.0201352825902
 42
0.9216465519400844
 10
193.9192793783964
 20
146.0168424696141
 10
193.9192793783964
 20
144.0168424696141
  0
LWPOLYLINE
  5
357
330
E3
100
AcDbEntity
  8
Des_ Furniture
  6
Hidden Line
 62
   251
370
    18
100
AcDbPolyline
 90
        2
 70
   128
 43
0.0
 10
193.9659909445942
 20
74.19495857451541
 10
193.9659909445942
 20
101.9343806450632
  0
LWPOLYLINE
  5
358
330
E3
100
AcDbEntity
  8
Des_ Furniture
  6
Continuous
 62
   251
370
    18
100
AcDbPolyline
 90
        4
 70
   129
 43
0.0
 10
183.4908408594148
 20
101.8365111259438
 10
183.4908408594148
 20
73.6583877331125
 10
196.8206118057241
 20
73.6583877331125
 10
196.8206118057241
 20
101.8365111259438
  0
LWPOLYLINE
  5
359
330
E3
100
AcDbEntity
  8
Des_ Furniture
  6
Continuous
 62
   251
370
    18
100
AcDbPolyline
 90
        2
 70
   128
 43
0.0
 10
195.2176646666109
 20
101.8365111259438
 10
195.2176646666109
 20
73.6583877331125
  0
LWPOLYLINE
  5
35A
330
E3
100
AcDbEntity
  8
Doc_ Floor
  6
Continuous
100
AcDbPolyline
 90
        2
 70
   128
 43
0.0
 10
203.6184371967597
 20
191.4604052083412
 42
0.1172793849241032
 10
203.8585432516218
 20
187.9087564449098
  0
LWPOLYLINE
  5
35B
330
E3
100
AcDbEntity
  8
Des_ Furniture
  6
Hidden Line
100
AcDbPolyline
 90
        6
 70
   128
 43
0.0
 10
193.5148636214431
 20
130.2850050168211
 10
193.5148636214431
 20
147.8230874246729
 10
194.8466556910928
 20
149.1548794943226
 10
194.8466556910928
 20
182.5615157023975
 10
227.7210807281205
 20
185.4376552130708
 10
227.732418164097
 20
155.2395937013377
  0
LWPOLYLINE
  5
35C
330
E3
100
AcDbEntity
  8
Des_ Furniture
  6
Continuous
100
AcDbPolyline
 90
        7
 70
   128
 43
0.0
 10
191.1380906654087
 20
126.0201352825903
 10
192.494200163492
 20
127.3762447806736
 10
192.494200163492
 20
183.4748192778796
 10
228.7556871740315
 20
186.6472883138943
 10
228.767024610008
 20
154.9004744669784
 10
230.5633597181901
 20
153.3088777281302
 10
228.3406052065
 20
151.08612321644
  0
LWPOLYLINE
  5
35D
330
E3
100
AcDbEntity
  8
Des_ Walls
  6
Continuous
100
AcDbPolyline
 90
        2
 70
   128
 43
0.0
 10
200.1132593282791
 20
172.9004744669783
 10
223.5279642831691
 20
172.9004744669783
  0
LWPOLYLINE
  5
35F
330
E3
100
AcDbEntity
  8
Des_ Walls
  6
Dashed
100
AcDbPolyline
 90
        2
 70
   128
 43
0.0
 10
196.8206118057241
 20
173.8659606731846
 10
226.8206118057242
 20
173.8659606731846
  0
LWPOLYLINE
  5
360
330
E3
100
AcDbEntity
  8
Des_ Walls
  6
Continuous
100
AcDbPolyline
 90
        2
 70
   128
 43
0.0
 10
196.8206118057241
 20
174.8744806958987
 10
226.8206118057242
 20
174.8744806958987
  0
LWPOLYLINE
  5
361
330
E3
100
AcDbEntity
  8
Des_ Walls
  6
Continuous
100
AcDbPolyline
 90
        2
 70
   128
 43
0.0
 10
226.8206118057242
 20
174.8744806958987
 10
226.8206118057242
 20
184.1267575932065
  0
LWPOLYLINE
  5
362
330
E3
100
AcDbEntity
  8
Des_ Walls
  6
Continuous
100
AcDbPolyline
 90
        2
 70
   128
 43
0.0
 10
196.8206118057241
 20
174.8744806958987
 10
196.8206118057241
 20
181.5020976874282
  0
LWPOLYLINE
  5
363
330
E3
100
AcDbEntity
  8
Des_ Walls
  6
Continuous
100
AcDbPolyline
 90
        2
 70
   128
 43
0.0
 10
196.8206118057241
 20
181.5020976874282
 10
226.8206118057242
 20
184.1267575932065
  0
LWPOLYLINE
  5
364
330
E3
100
AcDbEntity
  8
Des_ Walls
  6
Continuous
100
AcDbPolyline
 90
        2
 70
   128
 43
0.0
 10
226.8206118057242
 20
184.1267575932065
 10
196.8206118057241
 20
174.8744806958987
  0
LWPOLYLINE
  5
365
330
E3
100
AcDbEntity
  8
Doc_ Floor
  6
Continuous
100
AcDbPolyline
 90
        3
 70
   128
 43
0.0
 10
201.7427924025509
 20
190.1296612377046
 10
221.742792402551
 20
190.1296612377046
 10
201.7702017074594
 20
188.3961996446066
  0
LINE
  5
366
330
E3
100
AcDbEntity
  8
Doc_ Floor
  6
Continuous
100
AcDbLine
 10
234.5976594235654
 20
118.0421340865025
 30
0.0
 11
234.5976594235654
 21
119.0201367238023
 31
0.0
  0
LINE
  5
367
330
E3
100
AcDbEntity
  8
Doc_ Floor
  6
Continuous
100
AcDbLine
 10
234.5976594235654
 20
119.0201367238023
 30
0.0
 11
234.5976594235654
 21
126.0201357781584
 31
0.0
  0
LINE
  5
368
330
E3
100
AcDbEntity
  8
Doc_ Floor
  6
Continuous
100
AcDbLine
 10
233.5976595586573
 20
119.5974838148445
 30
0.0
 11
235.5976592884734
 21
118.4427853589641
 31
0.0
  0
LINE
  5
369
330
E3
100
AcDbEntity
  8
Doc_ Floor
  6
Continuous
100
AcDbLine
 10
235.5976592884734
 20
125.4427844133202
 30
0.0
 11
233.5976595586573
 21
126.5974871429966
 31
0.0
  0
LINE
  5
36A
330
E3
100
AcDbEntity
  8
Doc_ Floor
  6
Continuous
100
AcDbLine
 10
234.5976594235654
 20
126.0201357781584
 30
0.0
 11
234.5976594235654
 21
126.9981341416623
 31
0.0
  0
LINE
  5
36B
330
E3
100
AcDbEntity
  8
Doc_ Floor
  6
Continuous
100
AcDbLine
 10
236.0976592209274
 20
119.0201367238023
 30
0.0
 11
224.5976607744851
 21
119.0201367238023
 31
0.0
  0
LINE
  5
36C
330
E3
100
AcDbEntity
  8
Doc_ Floor
  6
Continuous
100
AcDbLine
 10
236.0976592209274
 20
126.0201357781584
 30
0.0
 11
224.5976607744851
 21
126.0201357781584
 31
0.0
  0
MTEXT
  5
36D
330
E3
100
AcDbEntity
  8
Doc_ Floor
  6
Continuous
100
AcDbMText
 10
234.0976603182586
 20
120.5671851849698
 30
0.0
 40
2.5
 41
0.0
 71
     7
 72
     1
  1
{35}
  7
GENERATED_STYLE_1
 11
6.123233995736766E-17
 21
1.0
 31
0.0
 73
     1
 44
1.0
  0
LINE
  5
36E
330
E3
100
AcDbEntity
  8
Doc_ Floor
  6
Continuous
100
AcDbLine
 10
234.5976594235654
 20
125.0421374146545
 30
0.0
 11
234.5976594235654
 21
126.0201357781584
 31
0.0
  0
LINE
  5
36F
330
E3
100
AcDbEntity
  8
Doc_ Floor
  6
Continuous
100
AcDbLine
 10
234.5976594235654
 20
126.0201357781584
 30
0.0
 11
234.5976594235654
 21
141.0201337517787
 31
0.0
  0
LINE
  5
370
330
E3
100
AcDbEntity
  8
Doc_ Floor
  6
Continuous
100
AcDbLine
 10
233.5976595586573
 20
126.5974871429966
 30
0.0
 11
235.5976592884734
 21
125.4427844133202
 31
0.0
  0
LINE
  5
371
330
E3
100
AcDbEntity
  8
Doc_ Floor
  6
Continuous
100
AcDbLine
 10
235.5976592884734
 20
140.4427866607365
 30
0.0
 11
233.5976595586573
 21
141.5974851166168
 31
0.0
  0
LINE
  5
372
330
E3
100
AcDbEntity
  8
Doc_ Floor
  6
Continuous
100
AcDbLine
 10
234.5976594235654
 20
141.0201337517787
 30
0.0
 11
234.5976594235654
 21
141.9981363890785
 31
0.0
  0
LINE
  5
373
330
E3
100
AcDbEntity
  8
Doc_ Floor
  6
Continuous
100
AcDbLine
 10
236.0976592209274
 20
126.0201357781584
 30
0.0
 11
224.5976607744851
 21
126.0201357781584
 31
0.0
  0
LINE
  5
374
330
E3
100
AcDbEntity
  8
Doc_ Floor
  6
Continuous
100
AcDbLine
 10
236.0976592209274
 20
141.0201337517787
 30
0.0
 11
224.5976607744851
 21
141.0201337517787
 31
0.0
  0
MTEXT
  5
375
330
E3
100
AcDbEntity
  8
Doc_ Floor
  6
Continuous
100
AcDbMText
 10
234.0976603182586
 20
131.5671851849697
 30
0.0
 40
2.5
 41
0.0
 71
     7
 72
     1
  1
{75}
  7
GENERATED_STYLE_1
 11
6.123233995736766E-17
 21
1.0
 31
0.0
 73
     1
 44
1.0
  0
LINE
  5
376
330
E3
100
AcDbEntity
  8
Doc_ Floor
  6
Continuous
100
AcDbLine
 10
148.2334837958167
 20
125.4150047398302
 30
0.0
 11
149.0578562911245
 21
124.8887978907852
 31
0.0
  0
LINE
  5
377
330
E3
100
AcDbEntity
  8
Doc_ Floor
  6
Continuous
100
AcDbLine
 10
149.0578562911245
 20
124.8887978907852
 30
0.0
 11
150.54252170872
 21
123.9411178355488
 31
0.0
  0
LINE
  5
378
330
E3
100
AcDbEntity
  8
Doc_ Floor
  6
Continuous
100
AcDbLine
 10
150.0825586964591
 20
125.4210735300388
 30
0.0
 11
148.0331538857899
 21
124.3565222515317
 31
0.0
  0
LINE
  5
379
330
E3
100
AcDbEntity
  8
Doc_ Floor
  6
Continuous
100
AcDbLine
 10
149.5178193033854
 20
123.4088421962953
 30
0.0
 11
151.5672241140546
 21
124.4733934748024
 31
0.0
  0
LINE
  5
37A
330
E3
100
AcDbEntity
  8
Doc_ Floor
  6
Continuous
100
AcDbLine
 10
150.54252170872
 20
123.9411178355488
 30
0.0
 11
151.3668942040279
 21
123.4149109865039
 31
0.0
  0
LINE
  5
37B
330
E3
100
AcDbEntity
  8
Doc_ Floor
  6
Continuous
100
AcDbLine
 10
147.9817700374251
 20
123.2029648991623
 30
0.0
 11
149.864924186746
 21
126.1531747714003
 31
0.0
  0
LINE
  5
37C
330
E3
100
AcDbEntity
  8
Doc_ Floor
  6
Continuous
100
AcDbLine
 10
149.4664354550206
 20
122.2552848439259
 30
0.0
 11
151.3495896043415
 21
125.205490442368
 31
0.0
  0
MTEXT
  5
37D
330
E3
100
AcDbEntity
  8
Doc_ Floor
  6
Continuous
100
AcDbMText
 10
145.5473272327456
 20
127.7227945787717
 30
0.0
 40
2.5
 41
0.0
 71
     7
 72
     1
  1
{10}
  7
GENERATED_STYLE_1
 11
0.8429164341874207
 21
-0.5380445009260514
 31
0.0
 73
     1
 44
1.0
  0
LINE
  5
37E
330
E3
100
AcDbEntity
  8
Doc_ Floor
  6
Continuous
100
AcDbLine
 10
139.7997458760662
 20
110.7156896782705
 30
0.0
 11
139.7997458760662
 21
111.6936880417744
 31
0.0
  0
LINE
  5
37F
330
E3
100
AcDbEntity
  8
Doc_ Floor
  6
Continuous
100
AcDbLine
 10
139.7997458760662
 20
111.6936880417744
 30
0.0
 11
139.7997458760662
 21
112.6936879066824
 31
0.0
  0
LINE
  5
380
330
E3
100
AcDbEntity
  8
Doc_ Floor
  6
Continuous
100
AcDbLine
 10
140.7997457409742
 20
111.1163366769363
 30
0.0
 11
138.7997460111582
 21
112.2710394066126
 31
0.0
  0
LINE
  5
381
330
E3
100
AcDbEntity
  8
Doc_ Floor
  6
Continuous
100
AcDbLine
 10
138.7997460111582
 20
113.2710392715206
 30
0.0
 11
140.7997457409742
 21
112.1163365418443
 31
0.0
  0
LINE
  5
382
330
E3
100
AcDbEntity
  8
Doc_ Floor
  6
Continuous
100
AcDbLine
 10
139.7997458760662
 20
112.6936879066824
 30
0.0
 11
139.7997458760662
 21
113.6716862701863
 31
0.0
  0
LINE
  5
383
330
E3
100
AcDbEntity
  8
Doc_ Floor
  6
Continuous
100
AcDbLine
 10
141.7997456058823
 20
111.6936880417744
 30
0.0
 11
138.2997460787042
 21
111.6936880417744
 31
0.0
  0
LINE
  5
384
330
E3
100
AcDbEntity
  8
Doc_ Floor
  6
Continuous
100
AcDbLine
 10
141.7997456058823
 20
112.6936879066824
 30
0.0
 11
138.2997460787042
 21
112.6936879066824
 31
0.0
  0
MTEXT
  5
385
330
E3
100
AcDbEntity
  8
Doc_ Floor
  6
Continuous
100
AcDbMText
 10
137.8434102411536
 20
111.9196748870973
 30
0.0
 40
2.5
 41
0.0
 71
     7
 72
     1
  1
{5}
  7
GENERATED_STYLE_1
 11
6.123233995736766E-17
 21
1.0
 31
0.0
 73
     1
 44
1.0
  0
LINE
  5
386
330
E3
100
AcDbEntity
  8
Doc_ Floor
  6
Continuous
100
AcDbLine
 10
239.1140146326432
 20
153.9224757587755
 30
0.0
 11
239.1140146326432
 21
154.9004741222794
 31
0.0
  0
LINE
  5
387
330
E3
100
AcDbEntity
  8
Doc_ Floor
  6
Continuous
100
AcDbLine
 10
239.1140146326432
 20
154.9004741222794
 30
0.0
 11
239.1140146326432
 21
172.9004759644197
 31
0.0
  0
LINE
  5
388
330
E3
100
AcDbEntity
  8
Doc_ Floor
  6
Continuous
100
AcDbLine
 10
238.1140147677352
 20
155.4778254871176
 30
0.0
 11
240.1140144975512
 21
154.3231227574413
 31
0.0
  0
LINE
  5
389
330
E3
100
AcDbEntity
  8
Doc_ Floor
  6
Continuous
100
AcDbLine
 10
240.1140144975512
 20
172.3231245995815
 30
0.0
 11
238.1140147677352
 21
173.477823055462
 31
0.0
  0
LINE
  5
38A
330
E3
100
AcDbEntity
  8
Doc_ Floor
  6
Continuous
100
AcDbLine
 10
239.1140146326432
 20
172.9004759644197
 30
0.0
 11
239.1140146326432
 21
173.8784743279236
 31
0.0
  0
LINE
  5
38B
330
E3
100
AcDbEntity
  8
Doc_ Floor
  6
Continuous
100
AcDbLine
 10
240.6140144300053
 20
154.9004741222794
 30
0.0
 11
235.1140151730112
 21
154.9004741222794
 31
0.0
  0
LINE
  5
38C
330
E3
100
AcDbEntity
  8
Doc_ Floor
  6
Continuous
100
AcDbLine
 10
240.6140144300053
 20
172.9004759644197
 30
0.0
 11
235.1140151730112
 21
172.9004759644197
 31
0.0
  0
MTEXT
  5
38D
330
E3
100
AcDbEntity
  8
Doc_ Floor
  6
Continuous
100
AcDbMText
 10
240.794306994417
 20
162.6583762080526
 30
0.0
 40
2.5
 41
0.0
 71
     7
 72
     1
  1
{Z}
  7
GENERATED_STYLE_1
 73
     1
 44
1.0
  0
LINE
  5
38E
330
E3
100
AcDbEntity
  8
Doc_ Floor
  6
Continuous
100
AcDbLine
 10
144.1420592938308
 20
132.7152678742467
 30
0.0
 11
145.1200619311306
 21
132.7152678742467
 31
0.0
  0
LINE
  5
38F
330
E3
100
AcDbEntity
  8
Doc_ Floor
  6
Continuous
100
AcDbLine
 10
145.1200619311306
 20
132.7152678742467
 30
0.0
 11
189.8869843914098
 21
132.7152678742467
 31
0.0
  0
LINE
  5
390
330
E3
100
AcDbEntity
  8
Doc_ Floor
  6
Continuous
100
AcDbLine
 10
145.6974090221728
 20
133.7152677391547
 30
0.0
 11
144.5427105662924
 21
131.7152680093386
 31
0.0
  0
LINE
  5
391
330
E3
100
AcDbEntity
  8
Doc_ Floor
  6
Continuous
100
AcDbLine
 10
189.3096330265716
 20
131.7152680093386
 30
0.0
 11
190.4643357562479
 21
133.7152677391547
 31
0.0
  0
LINE
  5
392
330
E3
100
AcDbEntity
  8
Doc_ Floor
  6
Continuous
100
AcDbLine
 10
189.8869843914098
 20
132.7152678742467
 30
0.0
 11
190.8649827549136
 21
132.7152678742467
 31
0.0
  0
LINE
  5
393
330
E3
100
AcDbEntity
  8
Doc_ Floor
  6
Continuous
100
AcDbLine
 10
145.1200619311306
 20
130.7152638706347
 30
0.0
 11
145.1200619311306
 21
134.2152676716087
 31
0.0
  0
LINE
  5
394
330
E3
100
AcDbEntity
  8
Doc_ Floor
  6
Continuous
100
AcDbLine
 10
189.8869843914098
 20
130.7152638706347
 30
0.0
 11
189.8869843914098
 21
134.2152676716087
 31
0.0
  0
MTEXT
  5
395
330
E3
100
AcDbEntity
  8
Doc_ Floor
  6
Continuous
100
AcDbMText
 10
166.4446986759408
 20
133.2152660094241
 30
0.0
 40
2.5
 41
0.0
 71
     7
 72
     1
  1
{Y}
  7
GENERATED_STYLE_1
 73
     1
 44
1.0
  0
MTEXT
  5
396
330
E3
100
AcDbEntity
  8
Doc_ Floor
  6
Continuous
100
AcDbMText
 10
239.106790341213
 20
144.0834769382865
 30
0.0
 40
2.500000000000001
 41
0.0
 71
     4
 72
     1
  1
{HEM TO FLASHING EDGE}
  7
GENERATED_STYLE_1
 73
     1
 44
1.0
  0
LINE
  5
397
330
E3
100
AcDbEntity
  8
Doc_ Floor
  6
Continuous
100
AcDbLine
 10
194.434478477572
 20
144.1022671565231
 30
0.0
 11
198.1665280281065
 21
145.1022670214311
 31
0.0
  0
LINE
  5
398
330
E3
100
AcDbEntity
  8
Doc_ Floor
  6
Continuous
100
AcDbLine
 10
194.434478477572
 20
144.1022671565231
 30
0.0
 11
198.1665280281065
 21
143.1022672916151
 31
0.0
  0
LINE
  5
399
330
E3
100
AcDbEntity
  8
Doc_ Floor
  6
Continuous
100
AcDbLine
 10
198.1665280281065
 20
145.1022670214311
 30
0.0
 11
198.1665280281065
 21
143.1022672916151
 31
0.0
  0
LWPOLYLINE
  5
39A
330
E3
100
AcDbEntity
  8
Doc_ Floor
  6
Continuous
100
AcDbPolyline
 90
        2
 70
   128
 43
0.0
 10
198.1665278598874
 20
144.1022686376329
 10
238.106790341213
 20
144.1022686376329
  0
MTEXT
  5
39B
330
E3
100
AcDbEntity
  8
Doc_ Floor
  6
Continuous
100
AcDbMText
 10
90.21878449342924
 20
199.4958845557493
 30
0.0
 40
2.500000000000001
 41
61.87837262817281
 71
     6
 72
     1
  1
{EX 50mm H3.2 TIMBER CAPPING SUPPORT ON DPC}
  7
GENERATED_STYLE_1
 73
     1
 44
1.070162922071087
  0
LINE
  5
39C
330
E3
100
AcDbEntity
  8
Doc_ Floor
  6
Continuous
100
AcDbLine
 10
201.5021830069174
 20
180.9151297298988
 30
0.0
 11
197.6386757676318
 21
180.8763664008904
 31
0.0
  0
LINE
  5
39D
330
E3
100
AcDbEntity
  8
Doc_ Floor
  6
Continuous
100
AcDbLine
 10
201.5021830069174
 20
180.9151297298988
 30
0.0
 11
198.1369020747784
 21
182.8133148194758
 31
0.0
  0
LINE
  5
39E
330
E3
100
AcDbEntity
  8
Doc_ Floor
  6
Continuous
100
AcDbLine
 10
197.6386757676318
 20
180.8763664008904
 30
0.0
 11
198.1369020747784
 21
182.8133148194758
 31
0.0
  0
LWPOLYLINE
  5
39F
330
E3
100
AcDbEntity
  8
Doc_ Floor
  6
Continuous
100
AcDbPolyline
 90
       14
 70
   128
 43
0.0
 10
197.8877890832151
 20
181.8448411258033
 10
179.6284918817092
 20
186.4017880118366
 10
163.3799779734512
 20
190.1860433985388
 10
148.8405230872149
 20
193.248493834908
 10
142.1174039425965
 20
194.5249442432795
 10
135.7084029517736
 20
195.640025869942
 10
129.5758045808428
 20
196.6000995335201
 10
123.6818932959009
 20
197.4115260526387
 10
117.9889535630445
 20
198.0806662459224
 10
112.4592698483703
 20
198.6138809319961
 10
107.0551266179749
 20
199.0175309294843
 10
101.7388083379552
 20
199.297977057012
 10
96.47259947440772
 20
199.4615801332038
 10
91.2187844934292
 20
199.5147009766845
  0
MTEXT
  5
3A0
330
E3
100
AcDbEntity
  8
Doc_ Floor
  6
Continuous
100
AcDbMText
 10
90.21878449342924
 20
184.6611341394038
 30
0.0
 40
2.500000000000001
 41
61.87837262817281
 71
     6
 72
     1
  1
{SEPERATION BARRIER BETWEEN CONCRETE & FLASHING (SELF ADHESIVE TAPE OR SIM)}
  7
GENERATED_STYLE_1
 73
     1
 44
1.05445724262312
  0
LINE
  5
3A1
330
E3
100
AcDbEntity
  8
Doc_ Floor
  6
Continuous
100
AcDbLine
 10
194.8466561776341
 20
174.3715293420051
 30
0.0
 11
191.0027101022815
 21
173.9813146791838
 31
0.0
  0
LINE
  5
3A2
330
E3
100
AcDbEntity
  8
Doc_ Floor
  6
Continuous
100
AcDbLine
 10
194.8466561776341
 20
174.3715293420051
 30
0.0
 11
191.3225909056218
 21
175.9555690623685
 31
0.0
  0
LINE
  5
3A3
330
E3
100
AcDbEntity
  8
Doc_ Floor
  6
Continuous
100
AcDbLine
 10
191.0027101022815
 20
173.9813146791838
 30
0.0
 11
191.3225909056218
 21
175.9555690623685
 31
0.0
  0
LWPOLYLINE
  5
3A4
330
E3
100
AcDbEntity
  8
Doc_ Floor
  6
Continuous
100
AcDbPolyline
 90
        9
 70
   128
 43
0.0
 10
191.162650493343
 20
174.9684422824286
 10
174.6217393884502
 20
177.5589406747119
 10
159.7995544616503
 20
179.7103696226206
 10
146.4150080317403
 20
181.4515999113819
 10
134.187012417517
 20
182.8115023262229
 10
122.8344799377773
 20
183.8189476523706
 10
112.0763229113182
 20
184.502806675052
 10
101.6314536569365
 20
184.8919501794944
 10
91.2187844934292
 20
185.0152489509247
  0
MTEXT
  5
3A5
330
E3
100
AcDbEntity
  8
Doc_ Floor
  6
Continuous
100
AcDbMText
 10
90.21878449342924
 20
172.7973707810017
 30
0.0
 40
2.500000000000001
 41
0.0
 71
     6
 72
     1
  1
{BMT 0.55 PARAPET FLASHING}
  7
GENERATED_STYLE_1
 73
     1
 44
1.0
  0
LINE
  5
3A6
330
E3
100
AcDbEntity
  8
Doc_ Floor
  6
Continuous
100
AcDbLine
 10
190.6585755070864
 20
162.6893517968149
 30
0.0
 11
186.8136635538556
 21
162.3087489010213
 31
0.0
  0
LINE
  5
3A7
330
E3
100
AcDbEntity
  8
Doc_ Floor
  6
Continuous
100
AcDbLine
 10
190.6585755070864
 20
162.6893517968149
 30
0.0
 11
187.1384848652811
 21
164.2821955367767
 31
0.0
  0
LINE
  5
3A8
330
E3
100
AcDbEntity
  8
Doc_ Floor
  6
Continuous
100
AcDbLine
 10
186.8136635538556
 20
162.3087489010213
 30
0.0
 11
187.1384848652811
 21
164.2821955367767
 31
0.0
  0
LWPOLYLINE
  5
3A9
330
E3
100
AcDbEntity
  8
Doc_ Floor
  6
Continuous
100
AcDbPolyline
 90
        9
 70
   128
 43
0.0
 10
186.9760735777666
 20
163.2954713006988
 10
171.5045637981943
 20
165.7500211866692
 10
157.5701589753131
 20
167.7886524089738
 10
144.9045707227816
 20
169.4386871631548
 10
133.2395106542587
 20
170.7274476447541
 10
122.3066903834032
 20
171.6822560493138
 10
111.8378215238739
 20
172.3304345723758
 10
101.5646156893297
 20
172.6993054094823
 10
91.2187844934292
 20
172.816190756175
  0
MTEXT
  5
3AA
330
E3
100
AcDbEntity
  8
Doc_ Floor
  6
Continuous
100
AcDbMText
 10
241.0517878490089
 20
182.283927319318
 30
0.0
 40
2.500000000000001
 41
50.20957346130765
 71
     4
 72
     1
  1
{FIX CAPPING TO CONCRETE WITH MASONRY FASTENERS AT 600mm crs}
  7
GENERATED_STYLE_1
 73
     1
 44
1.065340909090909
  0
LINE
  5
3AB
330
E3
100
AcDbEntity
  8
Doc_ Floor
  6
Continuous
100
AcDbLine
 10
223.9307092781517
 20
159.1503837984242
 30
0.0
 11
224.4833367335837
 21
162.9743626992313
 31
0.0
  0
LINE
  5
3AC
330
E3
100
AcDbEntity
  8
Doc_ Floor
  6
Continuous
100
AcDbLine
 10
223.9307092781517
 20
159.1503837984242
 30
0.0
 11
226.3212869434423
 21
162.1857319592154
 31
0.0
  0
LINE
  5
3AD
330
E3
100
AcDbEntity
  8
Doc_ Floor
  6
Continuous
100
AcDbLine
 10
224.4833367335837
 20
162.9743626992313
 30
0.0
 11
226.3212869434423
 21
162.1857319592154
 31
0.0
  0
LWPOLYLINE
  5
3AE
330
E3
100
AcDbEntity
  8
Doc_ Floor
  6
Continuous
100
AcDbPolyline
 90
       12
 70
   128
 43
0.0
 10
225.4023128539761
 20
162.5800465783658
 10
227.6937272957585
 20
167.6495973570223
 10
229.7774162004032
 20
171.8656074224405
 10
231.6914951839929
 20
175.282816688482
 10
233.4740798626102
 20
177.9559650690083
 10
235.1632858523379
 20
179.9397924778808
 10
235.9847829688939
 20
180.6903170410287
 10
236.7972287692584
 20
181.2890388289613
 10
237.6053877054419
 20
181.7428003309112
 10
238.4140242294546
 20
182.0584440361111
 10
239.2279027933068
 20
182.2428124337937
 10
240.0517878490089
 20
182.3027480131918
  0
MTEXT
  5
3AF
330
E3
100
AcDbEntity
  8
Doc_ Floor
  6
Continuous
100
AcDbMText
 10
238.2622923005434
 20
108.7642462993084
 30
0.0
 40
2.500000000000001
 41
0.0
 71
     4
 72
     1
  1
{CONCRETE WALL}
  7
GENERATED_STYLE_1
 73
     1
 44
1.0
  0
LINE
  5
3B0
330
E3
100
AcDbEntity
  8
Doc_ Floor
  6
Continuous
100
AcDbLine
 10
216.1916213261023
 20
108.7830663411577
 30
0.0
 11
219.9236708766368
 21
109.7830662060658
 31
0.0
  0
LINE
  5
3B1
330
E3
100
AcDbEntity
  8
Doc_ Floor
  6
Continuous
100
AcDbLine
 10
216.1916213261023
 20
108.7830663411577
 30
0.0
 11
219.9236708766368
 21
107.7830664762497
 31
0.0
  0
LINE
  5
3B2
330
E3
100
AcDbEntity
  8
Doc_ Floor
  6
Continuous
100
AcDbLine
 10
219.9236708766368
 20
109.7830662060658
 30
0.0
 11
219.9236708766368
 21
107.7830664762497
 31
0.0
  0
LWPOLYLINE
  5
3B3
330
E3
100
AcDbEntity
  8
Doc_ Floor
  6
Continuous
100
AcDbPolyline
 90
        2
 70
   128
 43
0.0
 10
219.923669720924
 20
108.7830662744818
 10
237.2622923005434
 20
108.7830662744818
  0
MTEXT
  5
3B4
330
E3
100
AcDbEntity
  8
Doc_ Floor
  6
Continuous
100
AcDbMText
 10
204.9965505035907
 20
194.4113972264965
 30
0.0
 40
2.5
 41
0.0
 71
     1
 72
     1
  1
{5° MIN.}
  7
GENERATED_STYLE_1
 73
     1
 44
1.0
  0
MTEXT
  5
3B5
330
E3
100
AcDbEntity
  8
Doc_ Floor
  6
Continuous
100
AcDbMText
 10
244.6219577520203
 20
119.3186502642819
 30
0.0
 40
2.5
 41
8.699894760218264
 71
     7
 72
     1
  1
{min gap}
  7
GENERATED_STYLE_1
 11
6.123233995736766E-17
 21
1.0
 31
0.0
 73
     1
 44
1.088534107402031
  0
MTEXT
  5
3B6
330
E3
100
AcDbEntity
  8
Doc_ Floor
  6
Continuous
100
AcDbMText
 10
243.0622031478427
 20
130.1933802925278
 30
0.0
 40
2.5
 41
13.47826031520083
 71
     7
 72
     1
  1
{min. cover}
  7
GENERATED_STYLE_1
 11
6.123233995736766E-17
 21
1.0
 31
0.0
 73
     1
 44
1.086169442433019
  0
LINE
  5
3B7
330
E3
100
AcDbEntity
  8
Des_ Walls
  6
Continuous
100
AcDbLine
 10
29.57696775479361
 20
54.54648484149949
 30
0.0
 11
153.9400698000667
 21
54.54648484149949
 31
0.0
  0
LINE
  5
3B8
330
E3
100
AcDbEntity
  8
Des_ Walls
  6
Continuous
100
AcDbLine
 10
129.9700537206639
 20
62.63285290254227
 30
0.0
 11
129.9700537206639
 21
22.26470497794729
 31
0.0
  0
LINE
  5
3B9
330
E3
100
AcDbEntity
  8
Des_ Walls
  6
Continuous
100
AcDbLine
 10
29.57696775479361
 20
22.26470497794729
 30
0.0
 11
29.57696775479361
 21
54.54648484149949
 31
0.0
  0
LINE
  5
3BA
330
E3
100
AcDbEntity
  8
Des_ Walls
  6
Continuous
100
AcDbLine
 10
106.0000376412611
 20
62.63285290254227
 30
0.0
 11
106.0000376412611
 21
22.26470497794729
 31
0.0
  0
LINE
  5
3BB
330
E3
100
AcDbEntity
  8
Des_ Walls
  6
Continuous
100
AcDbLine
 10
29.57696775479361
 20
43.78589155364876
 30
0.0
 11
153.9400698000667
 21
43.78589155364876
 31
0.0
  0
LINE
  5
3BC
330
E3
100
AcDbEntity
  8
Des_ Walls
  6
Continuous
100
AcDbLine
 10
29.57696775479361
 20
33.02529826579802
 30
0.0
 11
153.9400698000667
 21
33.02529826579802
 31
0.0
  0
LINE
  5
3BD
330
E3
100
AcDbEntity
  8
Des_ Walls
  6
Continuous
100
AcDbLine
 10
106.0000376412611
 20
62.63285290254227
 30
0.0
 11
129.9700537206639
 21
62.63285290254227
 31
0.0
  0
LINE
  5
3BE
330
E3
100
AcDbEntity
  8
Des_ Walls
  6
Continuous
100
AcDbLine
 10
29.57696775479361
 20
22.26470497794729
 30
0.0
 11
153.9400698000667
 21
22.26470497794729
 31
0.0
  0
LINE
  5
3BF
330
E3
100
AcDbEntity
  8
Des_ Walls
  6
Continuous
100
AcDbLine
 10
153.9400698000667
 20
62.63285290254227
 30
0.0
 11
153.9400698000667
 21
22.26470497794729
 31
0.0
  0
LINE
  5
3C0
330
E3
100
AcDbEntity
  8
Des_ Walls
  6
Continuous
100
AcDbLine
 10
129.9700537206639
 20
62.63285290254227
 30
0.0
 11
153.9400698000667
 21
62.63285290254227
 31
0.0
  0
MTEXT
  5
3C2
330
E3
100
AcDbEntity
  8
0
  6
Continuous
100
AcDbMText
 10
33.13289529427455
 20
45.70284282783812
 30
0.0
 40
2.499999999999999
 41
69.01187578516152
 71
     7
 72
     1
  1
\A1;{\fCentury Gothic|b0|i0|c0|p34;LOW, MEDIUM OR HIGH WIND ZONE.\P ROOF PITCH \fArial|b0|i0|c0|p34;\H1.029412x;\U+2265\fCentury Gothic|b0|i0|c0|p34;\H0.971429x; 10\fArial|b0|i0|c0|p34;\H1.029412x;\U+00B0}
  7
GENERATED_STYLE_1
 73
     1
 44
1.056355725756043
  0
MTEXT
  5
3C3
330
E3
100
AcDbEntity
  8
0
  6
Continuous
100
AcDbMText
 10
33.13289529427455
 20
35.27999821984863
 30
0.0
 40
2.5
 41
69.01187578516152
 71
     7
 72
     1
  1
\A1;{\fCentury Gothic|b0|i0|c0|p34;VERY HIGH WIND ZONE.\P ROOF PITCH \fArial|b0|i0|c0|p34;\H1.029412x;<\fCentury Gothic|b0|i0|c0|p34;\H0.971429x; 10\fArial|b0|i0|c0|p34;\H1.029412x;\U+00B0}
  7
GENERATED_STYLE_1
 73
     1
 44
1.056355725756043
  0
MTEXT
  5
3C4
330
E3
100
AcDbEntity
  8
0
  6
Continuous
100
AcDbMText
 10
117.6322293508626
 20
47.74267983937374
 30
0.0
 40
2.499999999999999
 41
0.0
 71
     8
 72
     1
  1
{2 CRESTS}
  7
GENERATED_STYLE_1
 73
     1
 44
1.0
  0
MTEXT
  5
3C5
330
E3
100
AcDbEntity
  8
0
  6
Continuous
100
AcDbMText
 10
117.6322293508626
 20
36.50390031791594
 30
0.0
 40
2.499999999999999
 41
0.0
 71
     8
 72
     1
  1
{2 CRESTS}
  7
GENERATED_STYLE_1
 73
     1
 44
1.0
  0
MTEXT
  5
3C6
330
E3
100
AcDbEntity
  8
0
  6
Continuous
100
AcDbMText
 10
117.6322293508626
 20
57.62473789411316
 30
0.0
 40
2.499999999999999
 41
0.0
 71
     8
 72
     1
  1
{X}
  7
GENERATED_STYLE_1
 73
     1
 44
1.0
  0
MTEXT
  5
3C7
330
E3
100
AcDbEntity
  8
0
  6
Continuous
100
AcDbMText
 10
33.13289529427455
 20
26.80842691058892
 30
0.0
 40
2.5
 41
0.0
 71
     7
 72
     1
  1
{EXTRA WIND ZONE.}
  7
GENERATED_STYLE_1
 73
     1
 44
1.0
  0
MTEXT
  5
3C8
330
E3
100
AcDbEntity
  8
0
  6
Continuous
100
AcDbMText
 10
117.6322293508626
 20
25.74330695244042
 30
0.0
 40
2.499999999999999
 41
0.0
 71
     8
 72
     1
  1
{2 CRESTS}
  7
GENERATED_STYLE_1
 73
     1
 44
1.0
  0
MTEXT
  5
3C9
330
E3
100
AcDbEntity
  8
0
  6
Continuous
100
AcDbMText
 10
141.6022461876507
 20
47.74267382869689
 30
0.0
 40
2.499999999999999
 41
0.0
 71
     8
 72
     1
  1
{50mm}
  7
GENERATED_STYLE_1
 73
     1
 44
1.0
  0
MTEXT
  5
3CA
330
E3
100
AcDbEntity
  8
0
  6
Continuous
100
AcDbMText
 10
141.6022461876507
 20
36.50389430723898
 30
0.0
 40
2.499999999999999
 41
0.0
 71
     8
 72
     1
  1
{70mm}
  7
GENERATED_STYLE_1
 73
     1
 44
1.0
  0
MTEXT
  5
3CB
330
E3
100
AcDbEntity
  8
0
  6
Continuous
100
AcDbMText
 10
141.6022461876507
 20
57.62473789411316
 30
0.0
 40
2.499999999999999
 41
0.0
 71
     8
 72
     1
  1
{Z}
  7
GENERATED_STYLE_1
 73
     1
 44
1.0
  0
MTEXT
  5
3CC
330
E3
100
AcDbEntity
  8
0
  6
Continuous
100
AcDbMText
 10
141.6022461876507
 20
25.74330094176346
 30
0.0
 40
2.499999999999999
 41
0.0
 71
     8
 72
     1
  1
{90mm}
  7
GENERATED_STYLE_1
 73
     1
 44
1.0
  0
HATCH
  5
3CD
330
E3
100
AcDbEntity
  8
Des_ Walls
  6
Continuous
 62
   255
370
     0
100
AcDbHatch
 10
0.0
 20
0.0
 30
0.0
210
0.0
220
0.0
230
1.0
  2
SOLID
 70
     1
 71
     0
 91
        1
 92
        3
 72
     0
 73
     1
 93
        8
 10
188.5711253651236
 20
46.23415281587183
 10
188.5711253651236
 20
21.6397308785346
 10
235.1498424042215
 20
21.6397308785346
 10
235.1498424042215
 20
46.23415281587183
 10
213.8604836144886
 20
46.23415281587183
 10
212.5271490366793
 20
40.2341536264237
 10
211.1938187326658
 20
52.23415200531993
 10
209.8604841548565
 20
46.23415281587183
 97
        0
 75
     0
 76
     1
 98
        0
  0
LINE
  5
3CE
330
E3
100
AcDbEntity
  8
Des_ Walls
  6
Continuous
100
AcDbLine
 10
188.5711253651236
 20
46.23415264249252
 30
0.0
 11
209.8604841548565
 21
46.23415264249252
 31
0.0
  0
LINE
  5
3CF
330
E3
100
AcDbEntity
  8
Des_ Walls
  6
Continuous
100
AcDbLine
 10
213.8604836144886
 20
46.23415264249252
 30
0.0
 11
235.1498424042215
 21
46.23415264249252
 31
0.0
  0
LINE
  5
3D0
330
E3
100
AcDbEntity
  8
Des_ Walls
  6
Continuous
100
AcDbLine
 10
213.8604836144886
 20
46.23415264249252
 30
0.0
 11
212.5271490366793
 21
40.2341534530444
 31
0.0
  0
LINE
  5
3D1
330
E3
100
AcDbEntity
  8
Des_ Walls
  6
Continuous
100
AcDbLine
 10
212.5271490366793
 20
40.2341534530444
 30
0.0
 11
211.1938187326658
 21
52.23415183194065
 31
0.0
  0
LINE
  5
3D2
330
E3
100
AcDbEntity
  8
Des_ Walls
  6
Continuous
100
AcDbLine
 10
211.1938187326658
 20
52.23415183194065
 30
0.0
 11
209.8604841548565
 21
46.23415264249252
 31
0.0
  0
HATCH
  5
3D3
330
E3
100
AcDbEntity
  8
Des_ Walls
  6
Continuous
 62
   255
370
     0
100
AcDbHatch
 10
0.0
 20
0.0
 30
0.0
210
0.0
220
0.0
230
1.0
  2
SOLID
 70
     1
 71
     0
 91
        1
 92
        3
 72
     0
 73
     1
 93
        8
 10
5.00000138339296
 20
59.65263425218744
 10
103.0496518866086
 20
59.65263425218744
 10
103.0496518866086
 20
88.05398674210261
 10
109.0496529751966
 20
89.38731866010298
 10
97.04965576974473
 20
90.72065057810336
 10
103.0496518866086
 20
92.05398249610373
 10
103.0496518866086
 20
120.4553349860189
 10
5.00000138339296
 20
120.4553349860189
 97
        0
 75
     0
 76
     1
 98
        0
  0
LINE
  5
3D4
330
E3
100
AcDbEntity
  8
Des_ Walls
  6
Continuous
100
AcDbLine
 10
103.0496525433903
 20
120.4553329536058
 30
0.0
 11
103.0496525433903
 21
92.05398456118849
 31
0.0
  0
LINE
  5
3D5
330
E3
100
AcDbEntity
  8
Des_ Walls
  6
Continuous
100
AcDbLine
 10
103.0496525433903
 20
88.0539851015564
 30
0.0
 11
103.0496525433903
 21
59.65263243534314
 31
0.0
  0
LINE
  5
3D6
330
E3
100
AcDbEntity
  8
Des_ Walls
  6
Continuous
100
AcDbLine
 10
103.0496525433903
 20
88.0539851015564
 30
0.0
 11
109.0496560066343
 21
89.38731967936573
 31
0.0
  0
LINE
  5
3D7
330
E3
100
AcDbEntity
  8
Des_ Walls
  6
Continuous
100
AcDbLine
 10
109.0496560066343
 20
89.38731967936573
 30
0.0
 11
97.04965335394216
 21
90.72064998337916
 31
0.0
  0
LINE
  5
3D8
330
E3
100
AcDbEntity
  8
Des_ Walls
  6
Continuous
100
AcDbLine
 10
97.04965335394216
 20
90.72064998337916
 30
0.0
 11
103.0496525433903
 21
92.05398456118849
 31
0.0
  0
MTEXT
  5
3D9
330
E3
100
AcDbEntity
  8
Doc_ Floor
  6
Continuous
100
AcDbMText
 10
91.23617349711802
 20
81.43093348305241
 30
0.0
 40
2.5
 41
63.74107021605327
 71
     6
 72
     1
  1
{ROOFING UNDERLAY LAID OVER SAFETY NETTING}
  7
GENERATED_STYLE_1
 73
     1
 44
1.070162922071087
  0
LINE
  5
3DA
330
E3
100
AcDbEntity
  8
Doc_ Floor
  6
Continuous
100
AcDbLine
 10
143.5922226271356
 20
109.2925925647209
 30
0.0
 11
141.9630088838814
 21
105.7891868221933
 31
0.0
  0
LINE
  5
3DB
330
E3
100
AcDbEntity
  8
Doc_ Floor
  6
Continuous
100
AcDbLine
 10
143.5922226271356
 20
109.2925925647209
 30
0.0
 11
140.429579454821
 21
107.0731590571088
 31
0.0
  0
LINE
  5
3DC
330
E3
100
AcDbEntity
  8
Doc_ Floor
  6
Continuous
100
AcDbLine
 10
141.9630088838814
 20
105.7891868221933
 30
0.0
 11
140.429579454821
 21
107.0731590571088
 31
0.0
  0
LWPOLYLINE
  5
3DD
330
E3
100
AcDbEntity
  8
Doc_ Floor
  6
Continuous
100
AcDbPolyline
 90
       17
 70
   128
 43
0.0
 10
141.196293711769
 20
106.4311730233205
 10
138.2391226964884
 20
103.0752865360078
 10
135.3441693651118
 20
99.99983831603463
 10
132.4951631711416
 20
97.19600723589552
 10
129.6758335680803
 20
94.65497216808501
 10
126.8699100094302
 20
92.36791198509755
 10
124.0611219486939
 20
90.3260055594277
 10
121.2331988393737
 20
88.52043176356992
 10
118.369870134972
 20
86.94236947001873
 10
115.4548652889914
 20
85.58299755126865
 10
112.4719137549341
 20
84.43349487981418
 10
109.4047449863027
 20
83.48504032814984
 10
106.2370884365996
 20
82.7288127687701
 10
102.9526735593271
 20
82.1559910741695
 10
99.53522980798772
 20
81.75775411684255
 10
95.9684866360839
 20
81.52528076928373
 10
92.23617349711802
 20
81.44974990398757
  0
MTEXT
  5
3DE
330
E3
100
AcDbEntity
  8
Doc_ Floor
  6
Continuous
100
AcDbMText
 10
90.75851879016955
 20
65.85668046824892
 30
0.0
 40
2.5
 41
0.0
 71
     6
 72
     1
  1
{STEEL PURLIN}
  7
GENERATED_STYLE_1
 73
     1
 44
1.0
  0
LINE
  5
3DF
330
E3
100
AcDbEntity
  8
Doc_ Floor
  6
Continuous
100
AcDbLine
 10
129.3607343623325
 20
78.5391306703069
 30
0.0
 11
126.6979372658188
 21
75.73953791393619
 31
0.0
  0
LINE
  5
3E0
330
E3
100
AcDbEntity
  8
Doc_ Floor
  6
Continuous
100
AcDbLine
 10
129.3607343623325
 20
78.5391306703069
 30
0.0
 11
125.6548917283889
 21
77.44600906606424
 31
0.0
  0
LINE
  5
3E1
330
E3
100
AcDbEntity
  8
Doc_ Floor
  6
Continuous
100
AcDbLine
 10
126.6979372658188
 20
75.73953791393619
 30
0.0
 11
125.6548917283889
 21
77.44600906606424
 31
0.0
  0
LWPOLYLINE
  5
3E2
330
E3
100
AcDbEntity
  8
Doc_ Floor
  6
Continuous
100
AcDbPolyline
 90
        9
 70
   128
 43
0.0
 10
126.1764142982064
 20
76.59277426857587
 10
121.3488349116159
 20
73.83853376832009
 10
116.8476062547478
 20
71.54781757784772
 10
112.584601883896
 20
69.69094658114014
 10
108.4716953553545
 20
68.23824166217872
 10
104.4207602254171
 20
67.16002370494483
 10
100.3436700503779
 20
66.42661359341989
 10
96.15229838653075
 20
66.00833221158524
 10
91.75851879016955
 20
65.87550044342227
  0
MTEXT
  5
3E3
330
E3
100
AcDbEntity
  8
Doc_ Floor
  6
Continuous
100
AcDbMText
 10
88.51578829366596
 20
134.7392292754493
 30
0.0
 40
2.5
 41
63.74107021605327
 71
     6
 72
     1
  1
{SCREW FIXING WITH 12x25 TYPE 17 TEK & NEO OR 4.8mm ALUM RIVETS MIDSPAN WHERE APPLICABLE}
  7
GENERATED_STYLE_1
 73
     1
 44
1.065340909090909
  0
LINE
  5
3E4
330
E3
100
AcDbEntity
  8
Doc_ Floor
  6
Continuous
100
AcDbLine
 10
147.0447189126456
 20
120.1914730672052
 30
0.0
 11
143.2807697493526
 21
121.0637590885896
 31
0.0
  0
LINE
  5
3E5
330
E3
100
AcDbEntity
  8
Doc_ Floor
  6
Continuous
100
AcDbLine
 10
147.0447189126456
 20
120.1914730672052
 30
0.0
 11
144.2211843515224
 21
122.8288667207613
 31
0.0
  0
LINE
  5
3E6
330
E3
100
AcDbEntity
  8
Doc_ Floor
  6
Continuous
100
AcDbLine
 10
143.2807697493526
 20
121.0637590885896
 30
0.0
 11
144.2211843515224
 21
122.8288667207613
 31
0.0
  0
LWPOLYLINE
  5
3E7
330
E3
100
AcDbEntity
  8
Doc_ Floor
  6
Continuous
100
AcDbPolyline
 90
       14
 70
   128
 43
0.0
 10
143.7509778109964
 20
121.9463129005214
 10
137.0365665692439
 20
125.2426361328914
 10
133.7877493260985
 20
126.679998570336
 10
130.5875291925011
 20
127.9828194945428
 10
127.4181598117473
 20
129.1555923599537
 10
124.2618948271326
 20
130.2028106210106
 10
121.1009878819527
 20
131.1289677321554
 10
117.9176926195031
 20
131.93855714783
 10
114.6942626830793
 20
132.6360723224761
 10
111.412951715977
 20
133.2260067105358
 10
108.0560133614917
 20
133.7128537664509
 10
104.605701262919
 20
134.1011069446633
 10
97.35397040669383
 20
134.5998054857474
 10
89.51578829366596
 20
134.7580499693232
  0
MTEXT
  5
3E8
330
E3
100
AcDbEntity
  8
Doc_ Floor
  6
Continuous
100
AcDbMText
 10
88.48849991736843
 20
97.18033815053856
 30
0.0
 40
2.5
 41
63.74107021605327
 71
     6
 72
     1
  1
{5mm GAP MAX TO CLEAR OF TROUGH OR ROOFING}
  7
GENERATED_STYLE_1
 73
     1
 44
1.070162922071087
  0
LINE
  5
3E9
330
E3
100
AcDbEntity
  8
Doc_ Floor
  6
Continuous
100
AcDbLine
 10
137.3748453557296
 20
111.164126262931
 30
0.0
 11
137.0942877486636
 21
107.3106239798979
 31
0.0
  0
LINE
  5
3EA
330
E3
100
AcDbEntity
  8
Doc_ Floor
  6
Continuous
100
AcDbLine
 10
137.3748453557296
 20
111.164126262931
 30
0.0
 11
135.2051203684811
 21
107.9671773307542
 31
0.0
  0
LINE
  5
3EB
330
E3
100
AcDbEntity
  8
Doc_ Floor
  6
Continuous
100
AcDbLine
 10
137.0942877486636
 20
107.3106239798979
 30
0.0
 11
135.2051203684811
 21
107.9671773307542
 31
0.0
  0
LWPOLYLINE
  5
3EC
330
E3
100
AcDbEntity
  8
Doc_ Floor
  6
Continuous
100
AcDbPolyline
 90
       15
 70
   128
 43
0.0
 10
136.1497036983321
 20
107.6389001112477
 10
135.2756925576869
 20
106.2448632221265
 10
134.184782541334
 20
104.9658590194993
 10
132.8651001484774
 20
103.7984248646285
 10
131.3047718783213
 20
102.7390981187762
 10
129.4919242300696
 20
101.7844161432049
 10
127.4146837029266
 20
100.9309162991767
 10
125.0611767960963
 20
100.175135947954
 10
122.4195300087827
 20
99.5136124507991
 10
119.47786984019
 20
98.94288316897422
 10
116.2243227895223
 20
98.45948546374169
 10
112.6470153559836
 20
98.05995669636376
 10
108.734074038778
 20
97.74083422810276
 10
99.85379575018246
 20
97.32995763398065
 10
89.48849991736843
 20
97.19915457147366
  0
MTEXT
  5
3ED
330
E3
100
AcDbEntity
  8
Doc_ Floor
  6
Continuous
100
AcDbMText
 10
88.81618546384229
 20
149.9575469049815
 30
0.0
 40
2.5
 41
63.74107021605327
 71
     6
 72
     1
  1
{12x55mm STEEL TEK & NEO WITH SELECTED WASHER SYSTEM}
  7
GENERATED_STYLE_1
 73
     1
 44
1.070162922071087
  0
LINE
  5
3EE
330
E3
100
AcDbEntity
  8
Doc_ Floor
  6
Continuous
100
AcDbLine
 10
147.1535682209716
 20
123.2731748185616
 30
0.0
 11
144.3369572092413
 21
125.9179621390619
 31
0.0
  0
LINE
  5
3EF
330
E3
100
AcDbEntity
  8
Doc_ Floor
  6
Continuous
100
AcDbLine
 10
147.1535682209716
 20
123.2731748185616
 30
0.0
 11
146.0367056803847
 21
126.9719314988673
 31
0.0
  0
LINE
  5
3F0
330
E3
100
AcDbEntity
  8
Doc_ Floor
  6
Continuous
100
AcDbLine
 10
144.3369572092413
 20
125.9179621390619
 30
0.0
 11
146.0367056803847
 21
126.9719314988673
 31
0.0
  0
LWPOLYLINE
  5
3F1
330
E3
100
AcDbEntity
  8
Doc_ Floor
  6
Continuous
100
AcDbPolyline
 90
       17
 70
   128
 43
0.0
 10
145.1868325826403
 20
126.4449471982176
 10
142.9984853878128
 20
129.6041501850056
 10
140.7232490405571
 20
132.4996813487433
 10
138.3433906949622
 20
135.1397992378329
 10
135.8411775051171
 20
137.5327624006763
 10
133.1988766251108
 20
139.6868293856755
 10
130.3987552090323
 20
141.6102587412325
 10
127.4230804109704
 20
143.3113090157492
 10
124.2541193850141
 20
144.7982387576277
 10
120.8741392852524
 20
146.0793065152699
 10
117.2654072657743
 20
147.1627708370779
 10
113.4101904806687
 20
148.0568902714535
 10
109.2907560840246
 20
148.7699233667988
 10
104.889371229931
 20
149.3101286715158
 10
100.1883030724767
 20
149.6857647340065
 10
95.16981876575085
 20
149.9050901026727
 10
89.81618546384229
 20
149.9763633259166
  0
MTEXT
  5
3F2
330
E3
100
AcDbEntity
  8
Doc_ Floor
  6
Continuous
100
AcDbMText
 10
88.24965413695642
 20
115.0242440132977
 30
0.0
 40
2.5
 41
0.0
 71
     6
 72
     1
  1
{TRS PROFILED METAL ROOFING}
  7
GENERATED_STYLE_1
 73
     1
 44
1.0
  0
LINE
  5
3F3
330
E3
100
AcDbEntity
  8
Doc_ Floor
  6
Continuous
100
AcDbLine
 10
105.8981247037158
 20
115.0430619054934
 30
0.0
 11
102.1660751531812
 21
114.0430620405854
 31
0.0
  0
LINE
  5
3F4
330
E3
100
AcDbEntity
  8
Doc_ Floor
  6
Continuous
100
AcDbLine
 10
105.8981247037158
 20
115.0430619054934
 30
0.0
 11
102.1660751531812
 21
116.0430660441973
 31
0.0
  0
LINE
  5
3F5
330
E3
100
AcDbEntity
  8
Doc_ Floor
  6
Continuous
100
AcDbLine
 10
102.1660751531812
 20
114.0430620405854
 30
0.0
 11
102.1660751531812
 21
116.0430660441973
 31
0.0
  0
LWPOLYLINE
  5
3F6
330
E3
100
AcDbEntity
  8
Doc_ Floor
  6
Continuous
100
AcDbPolyline
 90
        2
 70
   128
 43
0.0
 10
102.1660759200877
 20
115.0430639884711
 10
89.24965413695644
 20
115.0430639884711
  0
MTEXT
  5
3F7
330
E3
100
AcDbEntity
  8
Doc_ Floor
  6
Continuous
100
AcDbMText
 10
88.24508145599188
 20
163.2833070881569
 30
0.0
 40
2.5
 41
63.74107021605325
 71
     6
 72
     1
  1
{BMT 0.55mm 2 PIECE APRON FLASHING TO COVER 2 CRESTS}
  7
GENERATED_STYLE_1
 73
     1
 44
1.070162922071087
  0
LINE
  5
3F8
330
E3
100
AcDbEntity
  8
Doc_ Floor
  6
Continuous
100
AcDbLine
 10
173.2786159772446
 20
119.0201367238023
 30
0.0
 11
169.9649197618788
 21
121.0069902573636
 31
0.0
  0
LINE
  5
3F9
330
E3
100
AcDbEntity
  8
Doc_ Floor
  6
Continuous
100
AcDbLine
 10
173.2786159772446
 20
119.0201367238023
 30
0.0
 11
171.4022999013983
 21
122.3976535336646
 31
0.0
  0
LINE
  5
3FA
330
E3
100
AcDbEntity
  8
Doc_ Floor
  6
Continuous
100
AcDbLine
 10
169.9649197618788
 20
121.0069902573636
 30
0.0
 11
171.4022999013983
 21
122.3976535336646
 31
0.0
  0
LWPOLYLINE
  5
3FB
330
E3
100
AcDbEntity
  8
Doc_ Floor
  6
Continuous
100
AcDbPolyline
 90
       17
 70
   128
 43
0.0
 10
170.6836077773672
 20
121.7023227761943
 10
165.0918564363101
 20
127.2992557274251
 10
159.6991373242321
 20
132.4269746322683
 10
154.4771390619512
 20
137.1003983462233
 10
149.3975502702854
 20
141.3344457247897
 10
144.4320595700524
 20
145.1440356234669
 10
139.5523555820704
 20
148.5440868977545
 10
134.7301269271572
 20
151.549518403152
 10
129.9370622261306
 20
154.1752489951588
 10
125.1448500998088
 20
156.4361975292746
 10
120.3251791690095
 20
158.3472828609987
 10
115.4497380545507
 20
159.9234238458307
 10
110.4902153772504
 20
161.1795393392701
 10
105.4182997579264
 20
162.1305481968165
 10
100.2056798173967
 20
162.7913692739692
 10
94.82404417647926
 20
163.1769214262279
 10
89.24508145599192
 20
163.302123509092
  0
ENDBLK
  5
E5
330
E3
100
AcDbEntity
  8
0
100
AcDbBlockEnd
  0
BLOCK
  5
401
330
400
100
AcDbEntity
  8
0
100
AcDbBlockBegin
  2
C-TRS9-09 APRON DETAIL - SIDE -_STORY_MARKER
 70
     0
 10
0.0
 20
0.0
 30
0.0
  3
C-TRS9-09 APRON DETAIL - SIDE -_STORY_MARKER
  1

  0
ENDBLK
  5
402
330
400
100
AcDbEntity
  8
0
100
AcDbBlockEnd
  0
ENDSEC
  0
SECTION
  2
ENTITIES
  0
HATCH
  5
3F
330
1F
100
AcDbEntity
  8
Doc_ Finishes
  6
Continuous
100
AcDbHatch
 10
0.0
 20
0.0
 30
0.0
210
0.0
220
0.0
230
1.0
  2
SOLID
 70
     1
 71
     0
 91
        1
 92
        3
 72
     0
 73
     1
 93
       54
 10
25.4117749414874
 20
16.87044408857867
 10
24.89356552397386
 20
16.5825499677378
 10
24.5480925789648
 20
16.29465584689693
 10
24.12584786839818
 20
16.02595466744544
 10
23.76118198199976
 20
15.60370995687884
 10
23.39651609560134
 20
15.33500877742737
 10
23.07023609198168
 20
14.89357112547136
 10
22.49444785029994
 20
14.45213347351537
 10
21.93785255000758
 20
14.02988876294876
 10
21.43883607388343
 20
13.81876640766546
 10
20.74789018386533
 20
13.39652169709885
 10
20.09533017662603
 20
12.99346992792163
 10
19.63469958328064
 20
12.55203227596564
 10
18.90536781048376
 20
12.12978756539902
 10
18.59828074825351
 20
11.7459287376112
 10
18.04168544796116
 20
11.28529814426581
 10
17.36993249933246
 20
10.8630534336992
 10
16.73656543348255
 20
10.42161578174319
 10
16.04561954346446
 20
10.15291460229172
 10
15.1051654153843
 20
9.692284008946325
 10
14.39502658397681
 20
9.020531060317637
 10
13.83843128368446
 20
8.598286349751023
 10
13.12829245227699
 20
8.137655756405634
 10
12.84039833143612
 20
7.98411222529051
 10
12.37976773809073
 20
7.81137575278599
 10
12.07268067586046
 20
7.523481631945121
 10
12.0151018516923
 20
7.216394569714853
 10
12.14945244141803
 20
6.890114566095209
 10
12.4373465622589
 20
6.563834562475543
 10
12.8787842142149
 20
6.659799269422514
 10
13.51215128006482
 20
7.06285103859973
 10
14.01116775618899
 20
7.389131042219374
 10
14.33744775980864
 20
7.696218104449641
 10
14.51018423231316
 20
7.907340459732938
 10
15.01303929671522
 20
8.421711288968723
 10
15.33548071205699
 20
8.652026585641417
 10
15.75004824606785
 20
8.99749953065046
 10
16.14158425041142
 20
9.204783297655894
 10
17.24709767444037
 20
9.75754000967037
 10
18.23745345013295
 20
10.47151742935572
 10
19.4120614631637
 20
11.1624633193738
 10
19.84966052684182
 20
11.64612544238645
 10
20.49454335752537
 20
12.06069297639732
 10
21.78430901889248
 20
12.9819541630881
 10
22.36009726057419
 20
13.25833251909534
 10
23.6498629219413
 20
14.24868829478776
 10
23.85714668894673
 20
14.64022429913134
 10
24.68628175696843
 20
15.23904407048036
 10
25.28510152831745
 20
15.72270619349301
 10
25.81482671066464
 20
16.1142421978366
 10
26.27545730401003
 20
16.52880973184745
 10
26.22939424467549
 20
16.7821565581874
 10
26.09120506667188
 20
16.89731420652375
 10
25.56147988432467
 20
16.89731420652375
 97
        0
 75
     0
 76
     1
 98
        0
  0
LINE
  5
41
330
1F
100
AcDbEntity
  8
Doc_ Finishes
  6
Continuous
100
AcDbLine
 10
25.41177616050354
 20
16.87044600708104
 30
0.0
 11
24.89356363099921
 21
16.58254868214004
 31
0.0
  0
LINE
  5
42
330
1F
100
AcDbEntity
  8
Doc_ Finishes
  6
Continuous
100
AcDbLine
 10
24.89356363099921
 20
16.58254868214004
 30
0.0
 11
24.54809303697876
 21
16.29465578284815
 31
0.0
  0
LINE
  5
43
330
1F
100
AcDbEntity
  8
Doc_ Finishes
  6
Continuous
100
AcDbLine
 10
24.54809303697876
 20
16.29465578284815
 30
0.0
 11
24.12584628245476
 21
16.02595249803305
 31
0.0
  0
LINE
  5
44
330
1F
100
AcDbEntity
  8
Doc_ Finishes
  6
Continuous
100
AcDbLine
 10
24.12584628245476
 20
16.02595249803305
 30
0.0
 11
23.76118164830842
 21
15.60371016915814
 31
0.0
  0
LINE
  5
45
330
1F
100
AcDbEntity
  8
Doc_ Finishes
  6
Continuous
100
AcDbLine
 10
23.76118164830842
 20
15.60371016915814
 30
0.0
 11
23.39651701416208
 21
15.33500688434304
 31
0.0
  0
LINE
  5
46
330
1F
100
AcDbEntity
  8
Doc_ Finishes
  6
Continuous
100
AcDbLine
 10
23.39651701416208
 20
15.33500688434304
 30
0.0
 11
23.07023603461841
 21
14.89357051534225
 31
0.0
  0
LINE
  5
47
330
1F
100
AcDbEntity
  8
Doc_ Finishes
  6
Continuous
100
AcDbLine
 10
23.07023603461841
 20
14.89357051534225
 30
0.0
 11
22.49444581038552
 21
14.45213414634146
 31
0.0
  0
LINE
  5
48
330
1F
100
AcDbEntity
  8
Doc_ Finishes
  6
Continuous
100
AcDbLine
 10
22.49444581038552
 20
14.45213414634146
 30
0.0
 11
21.93785405192762
 21
14.02988739181747
 31
0.0
  0
LINE
  5
49
330
1F
100
AcDbEntity
  8
Doc_ Finishes
  6
Continuous
100
AcDbLine
 10
21.93785405192762
 20
14.02988739181747
 30
0.0
 11
21.43883556254917
 21
13.81876622738001
 31
0.0
  0
LINE
  5
4A
330
1F
100
AcDbEntity
  8
Doc_ Finishes
  6
Continuous
100
AcDbLine
 10
21.43883556254917
 20
13.81876622738001
 30
0.0
 11
20.74788994885916
 21
13.39652389850511
 31
0.0
  0
LINE
  5
4B
330
1F
100
AcDbEntity
  8
Doc_ Finishes
  6
Continuous
100
AcDbLine
 10
20.74788994885916
 20
13.39652389850511
 30
0.0
 11
20.09532798977183
 21
12.993471184107
 31
0.0
  0
LINE
  5
4C
330
1F
100
AcDbEntity
  8
Doc_ Finishes
  6
Continuous
100
AcDbLine
 10
20.09532798977183
 20
12.993471184107
 30
0.0
 11
19.63469758064516
 21
12.55203038945712
 31
0.0
  0
LINE
  5
4D
330
1F
100
AcDbEntity
  8
Doc_ Finishes
  6
Continuous
100
AcDbLine
 10
19.63469758064516
 20
12.55203038945712
 30
0.0
 11
18.90536831235248
 21
12.12978806058222
 31
0.0
  0
LINE
  5
4E
330
1F
100
AcDbEntity
  8
Doc_ Finishes
  6
Continuous
100
AcDbLine
 10
18.90536831235248
 20
12.12978806058222
 30
0.0
 11
18.5982813729347
 21
11.74592938630999
 31
0.0
  0
LINE
  5
4F
330
1F
100
AcDbEntity
  8
Doc_ Finishes
  6
Continuous
100
AcDbLine
 10
18.5982813729347
 20
11.74592938630999
 30
0.0
 11
18.0416851888277
 21
11.28529897718332
 31
0.0
  0
LINE
  5
50
330
1F
100
AcDbEntity
  8
Doc_ Finishes
  6
Continuous
100
AcDbLine
 10
18.0416851888277
 20
11.28529897718332
 30
0.0
 11
17.36993361526357
 21
10.86305222265932
 31
0.0
  0
LINE
  5
51
330
1F
100
AcDbEntity
  8
Doc_ Finishes
  6
Continuous
100
AcDbLine
 10
17.36993361526357
 20
10.86305222265932
 30
0.0
 11
16.73656569630212
 21
10.42161585365854
 31
0.0
  0
LINE
  5
52
330
1F
100
AcDbEntity
  8
Doc_ Finishes
  6
Continuous
100
AcDbLine
 10
16.73656569630212
 20
10.42161585365854
 30
0.0
 11
16.04562008261211
 21
10.15291256884343
 31
0.0
  0
LINE
  5
53
330
1F
100
AcDbEntity
  8
Doc_ Finishes
  6
Continuous
100
AcDbLine
 10
16.04562008261211
 20
10.15291256884343
 30
0.0
 11
15.10516522423289
 21
9.692282159716758
 31
0.0
  0
LINE
  5
54
330
1F
100
AcDbEntity
  8
Doc_ Finishes
  6
Continuous
100
AcDbLine
 10
15.10516522423289
 20
9.692282159716758
 30
0.0
 11
14.39502557041699
 21
9.020530586152635
 31
0.0
  0
LINE
  5
55
330
1F
100
AcDbEntity
  8
Doc_ Finishes
  6
Continuous
100
AcDbLine
 10
14.39502557041699
 20
9.020530586152635
 30
0.0
 11
13.83842938630999
 21
8.598288257277733
 31
0.0
  0
LINE
  5
56
330
1F
100
AcDbEntity
  8
Doc_ Finishes
  6
Continuous
100
AcDbLine
 10
13.83842938630999
 20
8.598288257277733
 30
0.0
 11
13.12829415814319
 21
8.137657848151063
 31
0.0
  0
LINE
  5
57
330
1F
100
AcDbEntity
  8
Doc_ Finishes
  6
Continuous
100
AcDbLine
 10
13.12829415814319
 20
8.137657848151063
 30
0.0
 11
12.8403968332022
 21
7.984114378442171
 31
0.0
  0
LINE
  5
58
330
1F
100
AcDbEntity
  8
Doc_ Finishes
  6
Continuous
100
AcDbLine
 10
12.8403968332022
 20
7.984114378442171
 30
0.0
 11
12.37976642407553
 21
7.811376868607396
 31
0.0
  0
LINE
  5
59
330
1F
100
AcDbEntity
  8
Doc_ Finishes
  6
Continuous
100
AcDbLine
 10
12.37976642407553
 20
7.811376868607396
 30
0.0
 11
12.07267948465775
 21
7.523479543666405
 31
0.0
  0
LINE
  5
5A
330
1F
100
AcDbEntity
  8
Doc_ Finishes
  6
Continuous
100
AcDbLine
 10
12.07267948465775
 20
7.523479543666405
 30
0.0
 11
12.01510178992919
 21
7.216392604248622
 31
0.0
  0
LINE
  5
5B
330
1F
100
AcDbEntity
  8
Doc_ Finishes
  6
Continuous
100
AcDbLine
 10
12.01510178992919
 20
7.216392604248622
 30
0.0
 11
12.1494512195122
 21
6.890116050354051
 31
0.0
  0
LINE
  5
5C
330
1F
100
AcDbEntity
  8
Doc_ Finishes
  6
Continuous
100
AcDbLine
 10
12.1494512195122
 20
6.890116050354051
 30
0.0
 11
12.43734854445319
 21
6.563835070810386
 31
0.0
  0
LINE
  5
5D
330
1F
100
AcDbEntity
  8
Doc_ Finishes
  6
Continuous
100
AcDbLine
 10
12.43734854445319
 20
6.563835070810386
 30
0.0
 11
12.87878491345397
 21
6.659800845790715
 31
0.0
  0
LINE
  5
5E
330
1F
100
AcDbEntity
  8
Doc_ Finishes
  6
Continuous
100
AcDbLine
 10
12.87878491345397
 20
6.659800845790715
 30
0.0
 11
13.51215283241542
 21
7.062849134539732
 31
0.0
  0
LINE
  5
5F
330
1F
100
AcDbEntity
  8
Doc_ Finishes
  6
Continuous
100
AcDbLine
 10
13.51215283241542
 20
7.062849134539732
 30
0.0
 11
14.01116689614477
 21
7.389130114083398
 31
0.0
  0
LINE
  5
60
330
1F
100
AcDbEntity
  8
Doc_ Finishes
  6
Continuous
100
AcDbLine
 10
14.01116689614477
 20
7.389130114083398
 30
0.0
 11
14.33744787568843
 21
7.69621705350118
 31
0.0
  0
LINE
  5
61
330
1F
100
AcDbEntity
  8
Doc_ Finishes
  6
Continuous
100
AcDbLine
 10
14.33744787568843
 20
7.69621705350118
 30
0.0
 11
14.51018538552321
 21
7.907342643587726
 31
0.0
  0
LINE
  5
62
330
1F
100
AcDbEntity
  8
Doc_ Finishes
  6
Continuous
100
AcDbLine
 10
14.51018538552321
 20
7.907342643587726
 30
0.0
 11
15.01304091266719
 21
8.421709284028323
 31
0.0
  0
LINE
  5
63
330
1F
100
AcDbEntity
  8
Doc_ Finishes
  6
Continuous
100
AcDbLine
 10
15.01304091266719
 20
8.421709284028323
 30
0.0
 11
15.33548042879622
 21
8.65202448859166
 31
0.0
  0
LINE
  5
64
330
1F
100
AcDbEntity
  8
Doc_ Finishes
  6
Continuous
100
AcDbLine
 10
15.33548042879622
 20
8.65202448859166
 30
0.0
 11
15.75004868214005
 21
8.997499508261212
 31
0.0
  0
LINE
  5
65
330
1F
100
AcDbEntity
  8
Doc_ Finishes
  6
Continuous
100
AcDbLine
 10
15.75004868214005
 20
8.997499508261212
 30
0.0
 11
16.14158585759245
 21
9.204783634933122
 31
0.0
  0
LINE
  5
66
330
1F
100
AcDbEntity
  8
Doc_ Finishes
  6
Continuous
100
AcDbLine
 10
16.14158585759245
 20
9.204783634933122
 30
0.0
 11
17.24709972462628
 21
9.75753835562549
 31
0.0
  0
LINE
  5
67
330
1F
100
AcDbEntity
  8
Doc_ Finishes
  6
Continuous
100
AcDbLine
 10
17.24709972462628
 20
9.75753835562549
 30
0.0
 11
18.2374537765539
 21
10.47151947285602
 31
0.0
  0
LINE
  5
68
330
1F
100
AcDbEntity
  8
Doc_ Finishes
  6
Continuous
100
AcDbLine
 10
18.2374537765539
 20
10.47151947285602
 30
0.0
 11
19.41206087726199
 21
11.16246508654602
 31
0.0
  0
LINE
  5
69
330
1F
100
AcDbEntity
  8
Doc_ Finishes
  6
Continuous
100
AcDbLine
 10
19.41206087726199
 20
11.16246508654602
 30
0.0
 11
19.84966020849724
 21
11.64612657356412
 31
0.0
  0
LINE
  5
6A
330
1F
100
AcDbEntity
  8
Doc_ Finishes
  6
Continuous
100
AcDbLine
 10
19.84966020849724
 20
11.64612657356412
 30
0.0
 11
20.4945436664044
 21
12.06069482690795
 31
0.0
  0
LINE
  5
6B
330
1F
100
AcDbEntity
  8
Doc_ Finishes
  6
Continuous
100
AcDbLine
 10
20.4945436664044
 20
12.06069482690795
 30
0.0
 11
21.78431058221873
 21
12.98195564516129
 31
0.0
  0
LINE
  5
6C
330
1F
100
AcDbEntity
  8
Doc_ Finishes
  6
Continuous
100
AcDbLine
 10
21.78431058221873
 20
12.98195564516129
 30
0.0
 11
22.36009638080252
 21
13.25833300550747
 31
0.0
  0
LINE
  5
6D
330
1F
100
AcDbEntity
  8
Doc_ Finishes
  6
Continuous
100
AcDbLine
 10
22.36009638080252
 20
13.25833300550747
 30
0.0
 11
23.64986329661684
 21
14.24868705743509
 31
0.0
  0
LINE
  5
6E
330
1F
100
AcDbEntity
  8
Doc_ Finishes
  6
Continuous
100
AcDbLine
 10
23.64986329661684
 20
14.24868705743509
 30
0.0
 11
23.85714742328875
 21
14.64022423288749
 31
0.0
  0
LINE
  5
6F
330
1F
100
AcDbEntity
  8
Doc_ Finishes
  6
Continuous
100
AcDbLine
 10
23.85714742328875
 20
14.64022423288749
 30
0.0
 11
24.68628392997639
 21
15.2390455350118
 31
0.0
  0
LINE
  5
70
330
1F
100
AcDbEntity
  8
Doc_ Finishes
  6
Continuous
100
AcDbLine
 10
24.68628392997639
 20
15.2390455350118
 30
0.0
 11
25.28510080645161
 21
15.7227070220299
 31
0.0
  0
LINE
  5
71
330
1F
100
AcDbEntity
  8
Doc_ Finishes
  6
Continuous
100
AcDbLine
 10
25.28510080645161
 20
15.7227070220299
 30
0.0
 11
25.81482887490165
 21
16.1142441974823
 31
0.0
  0
LINE
  5
72
330
1F
100
AcDbEntity
  8
Doc_ Finishes
  6
Continuous
100
AcDbLine
 10
25.81482887490165
 20
16.1142441974823
 30
0.0
 11
26.27545928402832
 21
16.52880802517702
 31
0.0
  0
LINE
  5
73
330
1F
100
AcDbEntity
  8
Doc_ Finishes
  6
Continuous
100
AcDbLine
 10
26.27545928402832
 20
16.52880802517702
 30
0.0
 11
26.22939270259638
 21
16.78215873328088
 31
0.0
  0
LINE
  5
74
330
1F
100
AcDbEntity
  8
Doc_ Finishes
  6
Continuous
100
AcDbLine
 10
26.22939270259638
 20
16.78215873328088
 30
0.0
 11
26.09120623524784
 21
16.897314122738
 31
0.0
  0
LINE
  5
75
330
1F
100
AcDbEntity
  8
Doc_ Finishes
  6
Continuous
100
AcDbLine
 10
26.09120623524784
 20
16.897314122738
 30
0.0
 11
25.56147816679779
 21
16.897314122738
 31
0.0
  0
LINE
  5
76
330
1F
100
AcDbEntity
  8
Doc_ Finishes
  6
Continuous
100
AcDbLine
 10
25.56147816679779
 20
16.897314122738
 30
0.0
 11
25.41177616050354
 21
16.87044600708104
 31
0.0
  0
HATCH
  5
77
330
1F
100
AcDbEntity
  8
Doc_ Finishes
  6
Continuous
100
AcDbHatch
 10
0.0
 20
0.0
 30
0.0
210
0.0
220
0.0
230
1.0
  2
SOLID
 70
     1
 71
     0
 91
        1
 92
        3
 72
     0
 73
     1
 93
       39
 10
25.65360600299377
 20
13.12014334109181
 10
25.21600693931564
 20
12.77467039608275
 10
24.54809257896482
 20
12.24494521373555
 10
23.92624127794851
 20
11.85340920939199
 10
23.32742150659951
 20
11.32368402704478
 10
22.72860173525051
 20
11.04730567103754
 10
22.08371890456697
 20
10.56364354802488
 10
21.62308831122158
 20
10.33332825135219
 10
21.231552306878
 20
10.03391836567767
 10
20.81698477286715
 20
9.619350831666825
 10
20.4024172388563
 20
9.38903553499415
 10
19.91875511584363
 20
9.043562589985086
 10
19.66540828950367
 20
8.859310352646935
 10
19.25084075549282
 20
8.582931996639696
 10
18.09926427212933
 20
7.753796928618002
 10
17.75379132712029
 20
7.477418572610764
 10
17.2931607337749
 20
7.316197864939873
 10
17.22406614477309
 20
6.993756449598113
 10
17.3622553227767
 20
6.717378093590874
 10
17.63863367878394
 20
6.602220445254527
 10
18.00713815346025
 20
6.8325357419272
 10
18.26048497980021
 20
7.131945627601722
 10
18.55989486547472
 20
7.362260924274415
 10
19.31993534449462
 20
7.707733869283458
 10
19.84966052684182
 20
8.122301403294307
 10
20.88607936186895
 20
8.882341882314256
 10
21.20852077721072
 20
9.342972475659646
 10
22.01462431556515
 20
9.734508480003234
 10
22.5673810275796
 20
10.05694989534501
 10
23.46561068460312
 20
10.60970660735953
 10
23.88017821861399
 20
11.07033720070492
 10
24.31777728229212
 20
11.34671555671216
 10
24.70931328663568
 20
11.30065249737762
 10
25.21600693931562
 20
11.55399932371759
 10
26.0681735370046
 20
12.17585062473387
 10
26.41364648201364
 20
12.49829204007566
 10
26.39061495234636
 20
12.77467039608289
 10
26.22939424467547
 20
13.00498569275559
 10
26.04514200733731
 20
13.05104875209013
 97
        0
 75
     0
 76
     1
 98
        0
  0
LINE
  5
78
330
1F
100
AcDbEntity
  8
Doc_ Finishes
  6
Continuous
100
AcDbLine
 10
25.65360690401259
 20
13.12014211250983
 30
0.0
 11
25.21600757277734
 21
12.77467151848938
 31
0.0
  0
LINE
  5
79
330
1F
100
AcDbEntity
  8
Doc_ Finishes
  6
Continuous
100
AcDbLine
 10
25.21600757277734
 20
12.77467151848938
 30
0.0
 11
24.54809303697876
 21
12.24494345003934
 31
0.0
  0
LINE
  5
7A
330
1F
100
AcDbEntity
  8
Doc_ Finishes
  6
Continuous
100
AcDbLine
 10
24.54809303697876
 20
12.24494345003934
 30
0.0
 11
23.92624065696302
 21
11.85341070023603
 31
0.0
  0
LINE
  5
7B
330
1F
100
AcDbEntity
  8
Doc_ Finishes
  6
Continuous
100
AcDbLine
 10
23.92624065696302
 20
11.85341070023603
 30
0.0
 11
23.32741935483871
 21
11.32368263178599
 31
0.0
  0
LINE
  5
7C
330
1F
100
AcDbEntity
  8
Doc_ Finishes
  6
Continuous
100
AcDbLine
 10
23.32741935483871
 20
11.32368263178599
 30
0.0
 11
22.72860247836349
 21
11.04730527143981
 31
0.0
  0
LINE
  5
7D
330
1F
100
AcDbEntity
  8
Doc_ Finishes
  6
Continuous
100
AcDbLine
 10
22.72860247836349
 20
11.04730527143981
 30
0.0
 11
22.08371902045633
 21
10.56364378442171
 31
0.0
  0
LINE
  5
7E
330
1F
100
AcDbEntity
  8
Doc_ Finishes
  6
Continuous
100
AcDbLine
 10
22.08371902045633
 20
10.56364378442171
 30
0.0
 11
21.62308861132966
 21
10.33332857985838
 31
0.0
  0
LINE
  5
7F
330
1F
100
AcDbEntity
  8
Doc_ Finishes
  6
Continuous
100
AcDbLine
 10
21.62308861132966
 20
10.33332857985838
 30
0.0
 11
21.23155143587726
 21
10.03392014162077
 31
0.0
  0
LINE
  5
80
330
1F
100
AcDbEntity
  8
Doc_ Finishes
  6
Continuous
100
AcDbLine
 10
21.23155143587726
 20
10.03392014162077
 30
0.0
 11
20.81698318253344
 21
9.619351888276947
 31
0.0
  0
LINE
  5
81
330
1F
100
AcDbEntity
  8
Doc_ Finishes
  6
Continuous
100
AcDbLine
 10
20.81698318253344
 20
9.619351888276947
 30
0.0
 11
20.40241935483871
 21
9.389036683713611
 31
0.0
  0
LINE
  5
82
330
1F
100
AcDbEntity
  8
Doc_ Finishes
  6
Continuous
100
AcDbLine
 10
20.40241935483871
 20
9.389036683713611
 30
0.0
 11
19.91875344217151
 21
9.04356166404406
 31
0.0
  0
LINE
  5
83
330
1F
100
AcDbEntity
  8
Doc_ Finishes
  6
Continuous
100
AcDbLine
 10
19.91875344217151
 20
9.04356166404406
 30
0.0
 11
19.66540715971676
 21
8.859308615263572
 31
0.0
  0
LINE
  5
84
330
1F
100
AcDbEntity
  8
Doc_ Finishes
  6
Continuous
100
AcDbLine
 10
19.66540715971676
 20
8.859308615263572
 30
0.0
 11
19.25083890637293
 21
8.582931254917387
 31
0.0
  0
LINE
  5
85
330
1F
100
AcDbEntity
  8
Doc_ Finishes
  6
Continuous
100
AcDbLine
 10
19.25083890637293
 20
8.582931254917387
 30
0.0
 11
18.09926288355625
 21
7.75379474822974
 31
0.0
  0
LINE
  5
86
330
1F
100
AcDbEntity
  8
Doc_ Finishes
  6
Continuous
100
AcDbLine
 10
18.09926288355625
 20
7.75379474822974
 30
0.0
 11
17.7537922895358
 21
7.477417387883556
 31
0.0
  0
LINE
  5
87
330
1F
100
AcDbEntity
  8
Doc_ Finishes
  6
Continuous
100
AcDbLine
 10
17.7537922895358
 20
7.477417387883556
 30
0.0
 11
17.29316188040913
 21
7.316199842643588
 31
0.0
  0
LINE
  5
88
330
1F
100
AcDbEntity
  8
Doc_ Finishes
  6
Continuous
100
AcDbLine
 10
17.29316188040913
 20
7.316199842643588
 30
0.0
 11
17.22406422108576
 21
6.993755900865461
 31
0.0
  0
LINE
  5
89
330
1F
100
AcDbEntity
  8
Doc_ Finishes
  6
Continuous
100
AcDbLine
 10
17.22406422108576
 20
6.993755900865461
 30
0.0
 11
17.3622551140834
 21
6.717378540519276
 31
0.0
  0
LINE
  5
8A
330
1F
100
AcDbEntity
  8
Doc_ Finishes
  6
Continuous
100
AcDbLine
 10
17.3622551140834
 20
6.717378540519276
 30
0.0
 11
17.63863247442958
 21
6.602218725413059
 31
0.0
  0
LINE
  5
8B
330
1F
100
AcDbEntity
  8
Doc_ Finishes
  6
Continuous
100
AcDbLine
 10
17.63863247442958
 20
6.602218725413059
 30
0.0
 11
18.00713857199056
 21
6.832533929976396
 31
0.0
  0
LINE
  5
8C
330
1F
100
AcDbEntity
  8
Doc_ Finishes
  6
Continuous
100
AcDbLine
 10
18.00713857199056
 20
6.832533929976396
 30
0.0
 11
18.26048485444532
 21
7.1319467938631
 31
0.0
  0
LINE
  5
8D
330
1F
100
AcDbEntity
  8
Doc_ Finishes
  6
Continuous
100
AcDbLine
 10
18.26048485444532
 20
7.1319467938631
 30
0.0
 11
18.55989329268293
 21
7.362261998426435
 31
0.0
  0
LINE
  5
8E
330
1F
100
AcDbEntity
  8
Doc_ Finishes
  6
Continuous
100
AcDbLine
 10
18.55989329268293
 20
7.362261998426435
 30
0.0
 11
19.3199365656963
 21
7.707732592446892
 31
0.0
  0
LINE
  5
8F
330
1F
100
AcDbEntity
  8
Doc_ Finishes
  6
Continuous
100
AcDbLine
 10
19.3199365656963
 20
7.707732592446892
 30
0.0
 11
19.84966020849724
 21
8.122300845790717
 31
0.0
  0
LINE
  5
90
330
1F
100
AcDbEntity
  8
Doc_ Finishes
  6
Continuous
100
AcDbLine
 10
19.84966020849724
 20
8.122300845790717
 30
0.0
 11
20.8860808418568
 21
8.882339693154996
 31
0.0
  0
LINE
  5
91
330
1F
100
AcDbEntity
  8
Doc_ Finishes
  6
Continuous
100
AcDbLine
 10
20.8860808418568
 20
8.882339693154996
 30
0.0
 11
21.20852035798584
 21
9.342974527930762
 31
0.0
  0
LINE
  5
92
330
1F
100
AcDbEntity
  8
Doc_ Finishes
  6
Continuous
100
AcDbLine
 10
21.20852035798584
 20
9.342974527930762
 30
0.0
 11
22.01462578678206
 21
9.734507277734066
 31
0.0
  0
LINE
  5
93
330
1F
100
AcDbEntity
  8
Doc_ Finishes
  6
Continuous
100
AcDbLine
 10
22.01462578678206
 20
9.734507277734066
 30
0.0
 11
22.56738050747443
 21
10.05695121951219
 31
0.0
  0
LINE
  5
94
330
1F
100
AcDbEntity
  8
Doc_ Finishes
  6
Continuous
100
AcDbLine
 10
22.56738050747443
 20
10.05695121951219
 30
0.0
 11
23.46561024783635
 21
10.60970594020456
 31
0.0
  0
LINE
  5
95
330
1F
100
AcDbEntity
  8
Doc_ Finishes
  6
Continuous
100
AcDbLine
 10
23.46561024783635
 20
10.60970594020456
 30
0.0
 11
23.88017850118017
 21
11.07033634933124
 31
0.0
  0
LINE
  5
96
330
1F
100
AcDbEntity
  8
Doc_ Finishes
  6
Continuous
100
AcDbLine
 10
23.88017850118017
 20
11.07033634933124
 30
0.0
 11
24.31777783241542
 21
11.34671370967742
 31
0.0
  0
LINE
  5
97
330
1F
100
AcDbEntity
  8
Doc_ Finishes
  6
Continuous
100
AcDbLine
 10
24.31777783241542
 20
11.34671370967742
 30
0.0
 11
24.70931500786781
 21
11.30065155389457
 31
0.0
  0
LINE
  5
98
330
1F
100
AcDbEntity
  8
Doc_ Finishes
  6
Continuous
100
AcDbLine
 10
24.70931500786781
 20
11.30065155389457
 30
0.0
 11
25.21600757277734
 21
11.55399783634933
 31
0.0
  0
LINE
  5
99
330
1F
100
AcDbEntity
  8
Doc_ Finishes
  6
Continuous
100
AcDbLine
 10
25.21600757277734
 20
11.55399783634933
 30
0.0
 11
26.06817515735641
 21
12.17585021636507
 31
0.0
  0
LINE
  5
9A
330
1F
100
AcDbEntity
  8
Doc_ Finishes
  6
Continuous
100
AcDbLine
 10
26.06817515735641
 20
12.17585021636507
 30
0.0
 11
26.41364575137687
 21
12.49829415814319
 31
0.0
  0
LINE
  5
9B
330
1F
100
AcDbEntity
  8
Doc_ Finishes
  6
Continuous
100
AcDbLine
 10
26.41364575137687
 20
12.49829415814319
 30
0.0
 11
26.39061467348544
 21
12.77467151848938
 31
0.0
  0
LINE
  5
9C
330
1F
100
AcDbEntity
  8
Doc_ Finishes
  6
Continuous
100
AcDbLine
 10
26.39061467348544
 20
12.77467151848938
 30
0.0
 11
26.22939270259638
 21
13.00498672305271
 31
0.0
  0
LINE
  5
9D
330
1F
100
AcDbEntity
  8
Doc_ Finishes
  6
Continuous
100
AcDbLine
 10
26.22939270259638
 20
13.00498672305271
 30
0.0
 11
26.04514407946499
 21
13.05104887883556
 31
0.0
  0
LINE
  5
9E
330
1F
100
AcDbEntity
  8
Doc_ Finishes
  6
Continuous
100
AcDbLine
 10
26.04514407946499
 20
13.05104887883556
 30
0.0
 11
25.65360690401259
 21
13.12014211250983
 31
0.0
  0
HATCH
  5
9F
330
1F
100
AcDbEntity
  8
Doc_ Finishes
  6
Continuous
100
AcDbHatch
 10
0.0
 20
0.0
 30
0.0
210
0.0
220
0.0
230
1.0
  2
SOLID
 70
     1
 71
     0
 91
        1
 92
        3
 72
     0
 73
     1
 93
       47
 10
26.06817353700455
 20
15.74573772316067
 10
26.30309513961077
 20
15.62136746295728
 10
26.4412843176144
 20
15.4002647781515
 10
26.93876535842742
 20
15.17916209334572
 10
27.82317609765057
 20
14.40530269652538
 10
28.9286895216795
 20
13.74199464210799
 10
29.59199757609689
 20
13.3827027792986
 10
30.20002995931278
 20
13.07868658769064
 10
31.55428390374827
 20
12.08372450606458
 10
32.07940278016201
 20
11.69679480765445
 10
32.88090001258301
 20
11.08876242443854
 10
33.59948373820179
 20
10.50836787682334
 10
34.5668079842271
 20
9.817421986805197
 10
35.06428902504011
 20
9.458130123995785
 10
35.81051058625965
 20
8.933011247582023
 10
36.61200781868061
 20
8.407892371168286
 10
36.77783483228498
 20
8.186789686362482
 10
37.38586721550091
 20
7.744584316750918
 10
38.18736444792187
 20
6.915449248729224
 10
38.7953968311378
 20
6.44560604351692
 10
39.56925622795804
 20
6.169227687509681
 10
40.23256428237543
 20
6.086314180707507
 10
40.48130480278193
 20
6.30741686551329
 10
40.14965077557326
 20
6.611433057121246
 10
39.48634272115586
 20
6.998362755531397
 10
38.76775899553708
 20
7.357654618340788
 10
38.18736444792187
 20
8.048600508358874
 10
36.99893751709078
 20
8.822459905179112
 10
36.47381864067705
 20
9.319940945992132
 10
36.22507812027052
 20
9.734508480003
 10
35.174840367443
 20
10.31490302761817
 10
34.73263499783144
 20
10.78474623283046
 10
34.2351539570184
 20
11.17167593124059
 10
33.48893239579888
 20
11.61388130085215
 10
32.85326217698223
 20
12.16663801286669
 10
32.35578113616918
 20
12.58120554687754
 10
31.69247308175183
 20
12.99577308088841
 10
31.22262987653952
 20
13.32742710809708
 10
30.7251488357265
 20
13.5761676285036
 10
29.93747052110587
 20
14.06443605744977
 10
29.43077686842594
 20
14.38687747279155
 10
28.92408321574601
 20
14.70931888813342
 10
28.62467333007151
 20
15.100854892477
 10
27.95675896972068
 20
15.67664313415887
 10
27.47309684670803
 20
15.9530214901661
 10
26.82821401602446
 20
16.36758902417695
 10
26.50577260068269
 20
16.22939984617334
 97
        0
 75
     0
 76
     1
 98
        0
  0
LINE
  5
A0
330
1F
100
AcDbEntity
  8
Doc_ Finishes
  6
Continuous
100
AcDbLine
 10
26.30309303697875
 20
15.62136850904799
 30
0.0
 11
26.06817515735641
 21
15.74573809992132
 31
0.0
  0
LINE
  5
A1
330
1F
100
AcDbEntity
  8
Doc_ Finishes
  6
Continuous
100
AcDbLine
 10
26.4412839299764
 20
15.40026308025177
 30
0.0
 11
26.30309303697875
 21
15.62136850904799
 31
0.0
  0
LINE
  5
A2
330
1F
100
AcDbEntity
  8
Doc_ Finishes
  6
Continuous
100
AcDbLine
 10
26.9387667191188
 20
15.17916207710464
 30
0.0
 11
26.4412839299764
 21
15.40026308025177
 31
0.0
  0
LINE
  5
A3
330
1F
100
AcDbEntity
  8
Doc_ Finishes
  6
Continuous
100
AcDbLine
 10
27.82317515735641
 20
14.40530192761605
 30
0.0
 11
26.9387667191188
 21
15.17916207710464
 31
0.0
  0
LINE
  5
A4
330
1F
100
AcDbEntity
  8
Doc_ Finishes
  6
Continuous
100
AcDbLine
 10
28.92868902439024
 20
13.74199449252557
 30
0.0
 11
27.82317515735641
 21
14.40530192761605
 31
0.0
  0
LINE
  5
A5
330
1F
100
AcDbEntity
  8
Doc_ Finishes
  6
Continuous
100
AcDbLine
 10
29.59199645948072
 20
13.3827025963808
 30
0.0
 11
28.92868902439024
 21
13.74199449252557
 31
0.0
  0
LINE
  5
A6
330
1F
100
AcDbEntity
  8
Doc_ Finishes
  6
Continuous
100
AcDbLine
 10
30.20003196302124
 20
13.07868705743509
 30
0.0
 11
29.59199645948072
 21
13.3827025963808
 31
0.0
  0
LINE
  5
A7
330
1F
100
AcDbEntity
  8
Doc_ Finishes
  6
Continuous
100
AcDbLine
 10
31.55428501180173
 20
12.08372590479937
 30
0.0
 11
30.20003196302124
 21
13.07868705743509
 31
0.0
  0
LINE
  5
A8
330
1F
100
AcDbEntity
  8
Doc_ Finishes
  6
Continuous
100
AcDbLine
 10
32.07940155389457
 20
11.69679583005508
 30
0.0
 11
31.55428501180173
 21
12.08372590479937
 31
0.0
  0
LINE
  5
A9
330
1F
100
AcDbEntity
  8
Doc_ Finishes
  6
Continuous
100
AcDbLine
 10
32.88089988198269
 20
11.08876032651456
 30
0.0
 11
32.07940155389457
 21
11.69679583005508
 31
0.0
  0
LINE
  5
AA
330
1F
100
AcDbEntity
  8
Doc_ Finishes
  6
Continuous
100
AcDbLine
 10
33.59948367427223
 20
10.50836742722266
 30
0.0
 11
32.88089988198269
 21
11.08876032651456
 31
0.0
  0
LINE
  5
AB
330
1F
100
AcDbEntity
  8
Doc_ Finishes
  6
Continuous
100
AcDbLine
 10
34.56680664830842
 20
9.817421813532652
 30
0.0
 11
33.59948367427223
 21
10.50836742722266
 31
0.0
  0
LINE
  5
AC
330
1F
100
AcDbEntity
  8
Doc_ Finishes
  6
Continuous
100
AcDbLine
 10
35.06428943745082
 20
9.458129917387884
 30
0.0
 11
34.56680664830842
 21
9.817421813532652
 31
0.0
  0
LINE
  5
AD
330
1F
100
AcDbEntity
  8
Doc_ Finishes
  6
Continuous
100
AcDbLine
 10
35.81051140833988
 20
8.933013375295044
 30
0.0
 11
35.06428943745082
 21
9.458129917387884
 31
0.0
  0
LINE
  5
AE
330
1F
100
AcDbEntity
  8
Doc_ Finishes
  6
Continuous
100
AcDbLine
 10
36.61200973642801
 20
8.407892407553108
 30
0.0
 11
35.81051140833988
 21
8.933013375295044
 31
0.0
  0
LINE
  5
AF
330
1F
100
AcDbEntity
  8
Doc_ Finishes
  6
Continuous
100
AcDbLine
 10
36.77783438237608
 20
8.18679140440598
 30
0.0
 11
36.61200973642801
 21
8.407892407553108
 31
0.0
  0
LINE
  5
B0
330
1F
100
AcDbEntity
  8
Doc_ Finishes
  6
Continuous
100
AcDbLine
 10
37.38586546026751
 20
7.744584972462627
 30
0.0
 11
36.77783438237608
 21
8.18679140440598
 31
0.0
  0
LINE
  5
B1
330
1F
100
AcDbEntity
  8
Doc_ Finishes
  6
Continuous
100
AcDbLine
 10
38.18736378835562
 20
6.915448465774981
 30
0.0
 11
37.38586546026751
 21
7.744584972462627
 31
0.0
  0
LINE
  5
B2
330
1F
100
AcDbEntity
  8
Doc_ Finishes
  6
Continuous
100
AcDbLine
 10
38.79539486624704
 20
6.4456038552321
 30
0.0
 11
38.18736378835562
 21
6.915448465774981
 31
0.0
  0
LINE
  5
B3
330
1F
100
AcDbEntity
  8
Doc_ Finishes
  6
Continuous
100
AcDbLine
 10
39.56925501573564
 20
6.169226494885916
 30
0.0
 11
38.79539486624704
 21
6.4456038552321
 31
0.0
  0
LINE
  5
B4
330
1F
100
AcDbEntity
  8
Doc_ Finishes
  6
Continuous
100
AcDbLine
 10
40.23256245082612
 20
6.086316384736428
 30
0.0
 11
39.56925501573564
 21
6.169226494885916
 31
0.0
  0
LINE
  5
B5
330
1F
100
AcDbEntity
  8
Doc_ Finishes
  6
Continuous
100
AcDbLine
 10
40.48130605822187
 20
6.307417387883556
 30
0.0
 11
40.23256245082612
 21
6.086316384736428
 31
0.0
  0
LINE
  5
B6
330
1F
100
AcDbEntity
  8
Doc_ Finishes
  6
Continuous
100
AcDbLine
 10
40.14965234067663
 20
6.611432926829268
 30
0.0
 11
40.48130605822187
 21
6.307417387883556
 31
0.0
  0
LINE
  5
B7
330
1F
100
AcDbEntity
  8
Doc_ Finishes
  6
Continuous
100
AcDbLine
 10
39.48634490558615
 20
6.998363001573564
 30
0.0
 11
40.14965234067663
 21
6.611432926829268
 31
0.0
  0
LINE
  5
B8
330
1F
100
AcDbEntity
  8
Doc_ Finishes
  6
Continuous
100
AcDbLine
 10
38.76776111329661
 20
7.357654897718332
 30
0.0
 11
39.48634490558615
 21
6.998363001573564
 31
0.0
  0
LINE
  5
B9
330
1F
100
AcDbEntity
  8
Doc_ Finishes
  6
Continuous
100
AcDbLine
 10
38.18736378835562
 20
8.048600511408338
 30
0.0
 11
38.76776111329661
 21
7.357654897718332
 31
0.0
  0
LINE
  5
BA
330
1F
100
AcDbEntity
  8
Doc_ Finishes
  6
Continuous
100
AcDbLine
 10
36.9989353855232
 20
8.822460660896931
 30
0.0
 11
38.18736378835562
 21
8.048600511408338
 31
0.0
  0
LINE
  5
BB
330
1F
100
AcDbEntity
  8
Doc_ Finishes
  6
Continuous
100
AcDbLine
 10
36.47381884343037
 20
9.319939024390242
 30
0.0
 11
36.9989353855232
 21
8.822460660896931
 31
0.0
  0
LINE
  5
BC
330
1F
100
AcDbEntity
  8
Doc_ Finishes
  6
Continuous
100
AcDbLine
 10
36.22507966168371
 20
9.734507277734066
 30
0.0
 11
36.47381884343037
 21
9.319939024390242
 31
0.0
  0
LINE
  5
BD
330
1F
100
AcDbEntity
  8
Doc_ Finishes
  6
Continuous
100
AcDbLine
 10
35.17484215184894
 20
10.31490460267506
 30
0.0
 11
36.22507966168371
 21
9.734507277734066
 31
0.0
  0
LINE
  5
BE
330
1F
100
AcDbEntity
  8
Doc_ Finishes
  6
Continuous
100
AcDbLine
 10
34.73263571990559
 20
10.78474478756884
 30
0.0
 11
35.17484215184894
 21
10.31490460267506
 31
0.0
  0
LINE
  5
BF
330
1F
100
AcDbEntity
  8
Doc_ Finishes
  6
Continuous
100
AcDbLine
 10
34.23515293076317
 20
11.17167486231314
 30
0.0
 11
34.73263571990559
 21
10.78474478756884
 31
0.0
  0
LINE
  5
C0
330
1F
100
AcDbEntity
  8
Doc_ Finishes
  6
Continuous
100
AcDbLine
 10
33.48893095987412
 20
11.61388129425649
 30
0.0
 11
34.23515293076317
 21
11.17167486231314
 31
0.0
  0
LINE
  5
C1
330
1F
100
AcDbEntity
  8
Doc_ Finishes
  6
Continuous
100
AcDbLine
 10
32.85326170338316
 20
12.16663601494886
 30
0.0
 11
33.48893095987412
 21
11.61388129425649
 31
0.0
  0
LINE
  5
C2
330
1F
100
AcDbEntity
  8
Doc_ Finishes
  6
Continuous
100
AcDbLine
 10
32.35578333988985
 20
12.58120426829268
 30
0.0
 11
32.85326170338316
 21
12.16663601494886
 31
0.0
  0
LINE
  5
C3
330
1F
100
AcDbEntity
  8
Doc_ Finishes
  6
Continuous
100
AcDbLine
 10
31.69247147915027
 20
12.99577252163651
 30
0.0
 11
32.35578333988985
 21
12.58120426829268
 31
0.0
  0
LINE
  5
C4
330
1F
100
AcDbEntity
  8
Doc_ Finishes
  6
Continuous
100
AcDbLine
 10
31.22263129425649
 20
13.32742623918175
 30
0.0
 11
31.69247147915027
 21
12.99577252163651
 31
0.0
  0
LINE
  5
C5
330
1F
100
AcDbEntity
  8
Doc_ Finishes
  6
Continuous
100
AcDbLine
 10
30.72514850511408
 20
13.5761654209284
 30
0.0
 11
31.22263129425649
 21
13.32742623918175
 31
0.0
  0
LINE
  5
C6
330
1F
100
AcDbEntity
  8
Doc_ Finishes
  6
Continuous
100
AcDbLine
 10
29.93747147915028
 20
14.0644340086546
 30
0.0
 11
30.72514850511408
 21
13.5761654209284
 31
0.0
  0
LINE
  5
C7
330
1F
100
AcDbEntity
  8
Doc_ Finishes
  6
Continuous
100
AcDbLine
 10
29.43077891424075
 20
14.38687795043273
 30
0.0
 11
29.93747147915028
 21
14.0644340086546
 31
0.0
  0
LINE
  5
C8
330
1F
100
AcDbEntity
  8
Doc_ Finishes
  6
Continuous
100
AcDbLine
 10
28.92408192368214
 20
14.70931746656176
 30
0.0
 11
29.43077891424075
 21
14.38687795043273
 31
0.0
  0
LINE
  5
C9
330
1F
100
AcDbEntity
  8
Doc_ Finishes
  6
Continuous
100
AcDbLine
 10
28.62467348544453
 20
15.10085464201416
 30
0.0
 11
28.92408192368214
 21
14.70931746656176
 31
0.0
  0
LINE
  5
CA
330
1F
100
AcDbEntity
  8
Doc_ Finishes
  6
Continuous
100
AcDbLine
 10
27.95675894964595
 20
15.67664486624705
 30
0.0
 11
28.62467348544453
 21
15.10085464201416
 31
0.0
  0
LINE
  5
CB
330
1F
100
AcDbEntity
  8
Doc_ Finishes
  6
Continuous
100
AcDbLine
 10
27.47309746262785
 20
15.95302222659323
 30
0.0
 11
27.95675894964595
 21
15.67664486624705
 31
0.0
  0
LINE
  5
CC
330
1F
100
AcDbEntity
  8
Doc_ Finishes
  6
Continuous
100
AcDbLine
 10
26.82821400472069
 20
16.36759047993706
 30
0.0
 11
27.47309746262785
 21
15.95302222659323
 31
0.0
  0
LINE
  5
CD
330
1F
100
AcDbEntity
  8
Doc_ Finishes
  6
Continuous
100
AcDbLine
 10
26.50577448859166
 20
16.22939958693942
 30
0.0
 11
26.82821400472069
 21
16.36759047993706
 31
0.0
  0
LINE
  5
CE
330
1F
100
AcDbEntity
  8
Doc_ Finishes
  6
Continuous
100
AcDbLine
 10
26.06817515735641
 20
15.74573809992132
 30
0.0
 11
26.50577448859166
 21
16.22939958693942
 31
0.0
  0
LINE
  5
CF
330
1F
100
AcDbEntity
  8
Doc_ Finishes
  6
Continuous
 62
   254
370
    18
100
AcDbLine
 10
95.43333841463415
 20
5.093360051140834
 30
0.0
 11
95.43333841463415
 21
20.69901750590086
 31
0.0
  0
LINE
  5
D0
330
1F
100
AcDbEntity
  8
Doc_ Finishes
  6
Continuous
 62
   254
370
    18
100
AcDbLine
 10
5.000000983477577
 20
20.69901750590086
 30
0.0
 11
288.2406845003933
 21
20.69901750590086
 31
0.0
  0
LINE
  5
D1
330
1F
100
AcDbEntity
  8
Doc_ Finishes
  6
Continuous
 62
   254
370
    18
100
AcDbLine
 10
288.2406845003933
 20
20.69901750590086
 30
0.0
 11
288.2406845003933
 21
5.000000983477577
 31
0.0
  0
LINE
  5
D2
330
1F
100
AcDbEntity
  8
Doc_ Finishes
  6
Continuous
 62
   254
370
    18
100
AcDbLine
 10
288.2406845003933
 20
5.000000983477577
 30
0.0
 11
5.000000983477577
 21
5.000000983477577
 31
0.0
  0
LINE
  5
D3
330
1F
100
AcDbEntity
  8
Doc_ Finishes
  6
Continuous
 62
   254
370
    18
100
AcDbLine
 10
5.000000983477577
 20
20.69901750590086
 30
0.0
 11
5.000000983477577
 21
5.000000983477577
 31
0.0
  0
LINE
  5
D4
330
1F
100
AcDbEntity
  8
Doc_ Finishes
  6
Continuous
 62
   254
370
    18
100
AcDbLine
 10
188.291944826908
 20
5.093360051140834
 30
0.0
 11
188.291944826908
 21
20.69901750590086
 31
0.0
  0
LINE
  5
D5
330
1F
100
AcDbEntity
  8
Doc_ Finishes
  6
Continuous
 62
   254
370
    18
100
AcDbLine
 10
188.291944826908
 20
12.8961909913454
 30
0.0
 11
288.2406845003933
 21
12.8961909913454
 31
0.0
  0
MTEXT
  5
D7
330
1F
100
AcDbEntity
  8
0
  6
Continuous
100
AcDbMText
 10
208.3494767103412
 20
15.00228834043999
 30
0.0
 40
2.25
 41
0.0
 71
     7
 72
     1
  1
{C-TRS9-09}
  7
GENERATED_STYLE_1
 73
     1
 44
1.0
  0
MTEXT
  5
D8
330
1F
100
AcDbEntity
  8
0
  6
Continuous
100
AcDbMText
 10
208.3494767103412
 20
11.03300550383743
 30
0.0
 40
3.0
 41
0.0
 71
     1
 72
     1
  1
{APRON DETAIL - SIDE - PARAPET}
  7
GENERATED_STYLE_1
 73
     1
 44
1.0
  0
MTEXT
  5
DA
330
1F
100
AcDbEntity
  8
Doc_ Floor
  6
Continuous
100
AcDbMText
 10
27.78353726544612
 20
13.33283672870609
 30
0.0
 40
5.603347280334726
 41
0.0
 71
     1
 72
     1
  1
{The Roofing Store}
  7
GENERATED_STYLE_2
 73
     1
 44
1.0
  0
MTEXT
  5
DC
102
{ACAD_XDICTIONARY
360
42E
102
}
330
1F
100
AcDbEntity
  8
0
  6
Continuous
100
AcDbMText
 10
100.7389238446655
 20
5.628836745729685
 30
0.0
 40
1.5
 41
0.0
 71
     7
 72
     1
  1
{P: HEAD OFFICE              09 277 2717\P    ALBANY             09 972 0060\P    KATIKAIT            07 549 5190\P    WELLINGTON              04 974 5792\P    CHRISTCHURCH03 348 6528}
  7
GENERATED_STYLE_1
 73
     1
 44
1.062946161486498
  0
MTEXT
  5
DD
330
1F
100
AcDbEntity
  8
0
  6
Continuous
100
AcDbMText
 10
147.4184566143587
 20
8.449084231526156
 30
0.0
 40
1.5
 41
0.0
 71
     7
 72
     1
  1
{WEB: www.theroofingstore.co.nz}
  7
GENERATED_STYLE_1
 73
     1
 44
1.0
  0
MTEXT
  5
DE
330
1F
100
AcDbEntity
  8
0
  6
Continuous
100
AcDbMText
 10
147.4184566143587
 20
5.870946023411262
 30
0.0
 40
1.5
 41
0.0
 71
     7
 72
     1
  1
{Copyright \U+00A9 The Roofing Store 2013}
  7
GENERATED_STYLE_1
 73
     1
 44
1.0
  0
MTEXT
  5
DF
330
1F
100
AcDbEntity
  8
0
  6
Continuous
100
AcDbMText
 10
271.9546684065315
 20
15.01595667428533
 30
0.0
 40
2.25
 41
0.0
 71
     7
 72
     1
  1
{1:5}
  7
GENERATED_STYLE_1
 73
     1
 44
1.0
  0
MTEXT
  5
E0
330
1F
100
AcDbEntity
  8
0
  6
Continuous
100
AcDbMText
 10
262.8396605309016
 20
15.51746459162148
 30
0.0
 40
1.5
 41
0.0
 71
     7
 72
     1
  1
{SCALE:}
  7
GENERATED_STYLE_1
 73
     1
 44
1.0
  0
MTEXT
  5
E1
330
1F
100
AcDbEntity
  8
0
  6
Continuous
100
AcDbMText
 10
189.5066235617487
 20
15.48695559872207
 30
0.0
 40
1.5
 41
0.0
 71
     7
 72
     1
  1
{DETAIL NUMBER:}
  7
GENERATED_STYLE_1
 73
     1
 44
1.0
  0
MTEXT
  5
E2
330
1F
100
AcDbEntity
  8
0
  6
Continuous
100
AcDbMText
 10
189.5066235617487
 20
9.005462392315325
 30
0.0
 40
1.5
 41
0.0
 71
     7
 72
     1
  1
{TITLE:}
  7
GENERATED_STYLE_1
 73
     1
 44
1.0
  0
INSERT
  5
3FC
102
{ACAD_XDICTIONARY
360
3FD
102
}
330
1F
100
AcDbEntity
  8
0
  6
Continuous
100
AcDbBlockReference
  2
Drawing_1_2
 10
241.5610480017639
 20
-775.3770708762235
 30
0.0
  0
ENDSEC
  0
SECTION
  2
OBJECTS
  0
DICTIONARY
  5
C
330
0
100
AcDbDictionary
281
     1
  3
ACAD_GROUP
350
D
  3
ACAD_LAYOUT
350
1A
  3
ACAD_MATERIAL
350
3B
  3
ACAD_MLEADERSTYLE
350
429
  3
ACAD_MLINESTYLE
350
17
  3
ACAD_PLOTSETTINGS
350
19
  3
ACAD_PLOTSTYLENAME
350
E
  3
ACAD_SCALELIST
350
403
  3
ACAD_VISUALSTYLE
350
2A
  3
AcDbVariableDictionary
350
427
  3
WATERMARKS
350
425
  0
DICTIONARY
  5
42E
330
DC
100
AcDbDictionary
280
     1
281
     1
  3
ACAD_MTEXT_RT
360
42F
  0
DICTIONARY
  5
3FD
330
3FC
100
AcDbDictionary
280
     1
281
     1
  3
ACAD_FILTER
360
3FE
  0
DICTIONARY
  5
D
102
{ACAD_REACTORS
330
C
102
}
330
C
100
AcDbDictionary
281
     1
  0
DICTIONARY
  5
1A
102
{ACAD_REACTORS
330
C
102
}
330
C
100
AcDbDictionary
281
     1
  3
Layout1
350
1E
  3
Model
350
22
  0
DICTIONARY
  5
3B
102
{ACAD_REACTORS
330
C
102
}
330
C
100
AcDbDictionary
281
     1
  3
ByBlock
350
3D
  3
ByLayer
350
3C
  3
Global
350
3E
  0
DICTIONARY
  5
429
102
{ACAD_REACTORS
330
C
102
}
330
C
100
AcDbDictionary
281
     1
  0
DICTIONARY
  5
17
102
{ACAD_REACTORS
330
C
102
}
330
C
100
AcDbDictionary
281
     1
  3
Standard
350
18
  0
DICTIONARY
  5
19
102
{ACAD_REACTORS
330
C
102
}
330
C
100
AcDbDictionary
281
     1
  0
ACDBDICTIONARYWDFLT
  5
E
102
{ACAD_REACTORS
330
C
102
}
330
C
100
AcDbDictionary
281
     1
  3
Normal
350
F
100
AcDbDictionaryWithDefault
340
F
  0
DICTIONARY
  5
403
102
{ACAD_REACTORS
330
C
102
}
330
C
100
AcDbDictionary
281
     1
  3
A0
350
404
  3
A1
350
405
  3
A2
350
406
  3
A3
350
407
  3
A4
350
408
  3
A5
350
409
  3
A6
350
40A
  3
A7
350
40B
  3
A8
350
40C
  3
A9
350
40D
  3
B0
350
40E
  3
B1
350
40F
  3
B2
350
410
  3
B3
350
411
  3
B4
350
412
  3
B5
350
413
  3
B6
350
414
  3
B7
350
415
  3
B8
350
416
  3
B9
350
417
  3
C0
350
418
  3
C1
350
419
  3
C2
350
41A
  3
C3
350
41B
  3
C4
350
41C
  3
C5
350
41D
  3
C6
350
41E
  3
C7
350
41F
  3
C8
350
420
  3
C9
350
421
  3
D0
350
422
  3
D1
350
423
  3
D2
350
424
  0
DICTIONARY
  5
2A
102
{ACAD_REACTORS
330
C
102
}
330
C
100
AcDbDictionary
281
     1
  3
2dWireframe
350
2F
  3
3D Hidden
350
31
  3
3dWireframe
350
30
  3
Basic
350
32
  3
Brighten
350
36
  3
ColorChange
350
3A
  3
Conceptual
350
34
  3
Dim
350
35
  3
Facepattern
350
39
  3
Flat
350
2B
  3
FlatWithEdges
350
2C
  3
Gouraud
350
2D
  3
GouraudWithEdges
350
2E
  3
Linepattern
350
38
  3
Realistic
350
33
  3
Thicken
350
37
  0
DICTIONARY
  5
427
102
{ACAD_REACTORS
330
C
102
}
330
C
100
AcDbDictionary
281
     1
  3
CANNOSCALE
350
42B
  3
DIMASSOC
350
42C
  3
HIDETEXT
350
42D
  3
XCLIPFRAME
350
42A
  0
DICTIONARY
  5
425
102
{ACAD_REACTORS
330
C
102
}
330
C
100
AcDbDictionary
281
     1
  3
AC_WATERMARK
350
426
  0
XRECORD
  5
42F
102
{ACAD_REACTORS
330
42E
102
}
330
42E
100
AcDbXrecord
280
     1
 40
892718.0
  1
{P: HEAD OFFICE ^I^I09 277 2717\P    ALBANY ^I^I09 972 0060\P    KATIKAIT^I^I07 549 5190\P    WELLINGTON^I^I04 974 5792\P    CHRISTCHURCH^I03 348 6528}
  0
DICTIONARY
  5
3FE
102
{ACAD_REACTORS
330
3FD
102
}
330
3FD
100
AcDbDictionary
280
     1
281
     1
  3
SPATIAL
360
3FF
  0
LAYOUT
  5
1E
102
{ACAD_REACTORS
330
1A
102
}
330
1A
100
AcDbPlotSettings
  1

  2
none_device
  4

  6

 40
0.0
 41
0.0
 42
0.0
 43
0.0
 44
0.0
 45
0.0
 46
0.0
 47
0.0
 48
0.0
 49
0.0
140
0.0
141
0.0
142
1.0
143
1.0
 70
   688
 72
     0
 73
     0
 74
     5
  7

 75
    16
147
1.0
148
0.0
149
0.0
100
AcDbLayout
  1
Layout1
 70
     1
 71
     1
 10
0.0
 20
0.0
 11
12.0
 21
9.0
 12
0.0
 22
0.0
 32
0.0
 14
1.000000000000000E+20
 24
1.000000000000000E+20
 34
1.000000000000000E+20
 15
-1.000000000000000E+20
 25
-1.000000000000000E+20
 35
-1.000000000000000E+20
146
0.0
 13
0.0
 23
0.0
 33
0.0
 16
1.0
 26
0.0
 36
0.0
 17
0.0
 27
1.0
 37
0.0
 76
     0
330
1B
  0
LAYOUT
  5
22
102
{ACAD_REACTORS
330
1A
102
}
330
1A
100
AcDbPlotSettings
  1

  2
none_device
  4

  6

 40
0.0
 41
0.0
 42
0.0
 43
0.0
 44
0.0
 45
0.0
 46
0.0
 47
0.0
 48
0.0
 49
0.0
140
0.0
141
0.0
142
1.0
143
1.0
 70
  1712
 72
     0
 73
     0
 74
     0
  7

 75
     0
147
1.0
148
0.0
149
0.0
100
AcDbLayout
  1
Model
 70
     1
 71
     0
 10
0.0
 20
0.0
 11
12.0
 21
9.0
 12
0.0
 22
0.0
 32
0.0
 14
1.000000000000000E+20
 24
1.000000000000000E+20
 34
1.000000000000000E+20
 15
-1.000000000000000E+20
 25
-1.000000000000000E+20
 35
-1.000000000000000E+20
146
0.0
 13
0.0
 23
0.0
 33
0.0
 16
1.0
 26
0.0
 36
0.0
 17
0.0
 27
1.0
 37
0.0
 76
     0
330
1F
331
29
  0
MATERIAL
  5
3D
102
{ACAD_REACTORS
330
3B
102
}
102
{ACAD_XDICTIONARY
360
452
102
}
330
3B
100
AcDbMaterial
  1
ByBlock
  0
MATERIAL
  5
3C
102
{ACAD_REACTORS
330
3B
102
}
102
{ACAD_XDICTIONARY
360
450
102
}
330
3B
100
AcDbMaterial
  1
ByLayer
  0
MATERIAL
  5
3E
102
{ACAD_REACTORS
330
3B
102
}
102
{ACAD_XDICTIONARY
360
454
102
}
330
3B
100
AcDbMaterial
  1
Global
  0
MLINESTYLE
  5
18
102
{ACAD_REACTORS
330
17
102
}
330
17
100
AcDbMlineStyle
  2
Standard
 70
     0
  3

 62
   256
 51
90.0
 52
90.0
 71
     2
 49
0.5
 62
   256
  6
BYLAYER
 49
-0.5
 62
   256
  6
BYLAYER
  0
ACDBPLACEHOLDER
  5
F
102
{ACAD_REACTORS
330
E
102
}
330
E
  0
SCALE
  5
404
102
{ACAD_REACTORS
330
403
102
}
330
403
100
AcDbScale
 70
     0
300
1:1
140
1.0
141
1.0
290
     1
  0
SCALE
  5
405
102
{ACAD_REACTORS
330
403
102
}
330
403
100
AcDbScale
 70
     0
300
1:2
140
1.0
141
2.0
290
     0
  0
SCALE
  5
406
102
{ACAD_REACTORS
330
403
102
}
330
403
100
AcDbScale
 70
     0
300
1:4
140
1.0
141
4.0
290
     0
  0
SCALE
  5
407
102
{ACAD_REACTORS
330
403
102
}
330
403
100
AcDbScale
 70
     0
300
1:5
140
1.0
141
5.0
290
     0
  0
SCALE
  5
408
102
{ACAD_REACTORS
330
403
102
}
330
403
100
AcDbScale
 70
     0
300
1:8
140
1.0
141
8.0
290
     0
  0
SCALE
  5
409
102
{ACAD_REACTORS
330
403
102
}
330
403
100
AcDbScale
 70
     0
300
1:10
140
1.0
141
10.0
290
     0
  0
SCALE
  5
40A
102
{ACAD_REACTORS
330
403
102
}
330
403
100
AcDbScale
 70
     0
300
1:16
140
1.0
141
16.0
290
     0
  0
SCALE
  5
40B
102
{ACAD_REACTORS
330
403
102
}
330
403
100
AcDbScale
 70
     0
300
1:20
140
1.0
141
20.0
290
     0
  0
SCALE
  5
40C
102
{ACAD_REACTORS
330
403
102
}
330
403
100
AcDbScale
 70
     0
300
1:30
140
1.0
141
30.0
290
     0
  0
SCALE
  5
40D
102
{ACAD_REACTORS
330
403
102
}
330
403
100
AcDbScale
 70
     0
300
1:40
140
1.0
141
40.0
290
     0
  0
SCALE
  5
40E
102
{ACAD_REACTORS
330
403
102
}
330
403
100
AcDbScale
 70
     0
300
1:50
140
1.0
141
50.0
290
     0
  0
SCALE
  5
40F
102
{ACAD_REACTORS
330
403
102
}
330
403
100
AcDbScale
 70
     0
300
1:100
140
1.0
141
100.0
290
     0
  0
SCALE
  5
410
102
{ACAD_REACTORS
330
403
102
}
330
403
100
AcDbScale
 70
     0
300
2:1
140
2.0
141
1.0
290
     0
  0
SCALE
  5
411
102
{ACAD_REACTORS
330
403
102
}
330
403
100
AcDbScale
 70
     0
300
4:1
140
4.0
141
1.0
290
     0
  0
SCALE
  5
412
102
{ACAD_REACTORS
330
403
102
}
330
403
100
AcDbScale
 70
     0
300
8:1
140
8.0
141
1.0
290
     0
  0
SCALE
  5
413
102
{ACAD_REACTORS
330
403
102
}
330
403
100
AcDbScale
 70
     0
300
10:1
140
10.0
141
1.0
290
     0
  0
SCALE
  5
414
102
{ACAD_REACTORS
330
403
102
}
330
403
100
AcDbScale
 70
     0
300
100:1
140
100.0
141
1.0
290
     0
  0
SCALE
  5
415
102
{ACAD_REACTORS
330
403
102
}
330
403
100
AcDbScale
 70
     0
300
1/128" = 1'-0"
140
0.0078125
141
12.0
290
     0
  0
SCALE
  5
416
102
{ACAD_REACTORS
330
403
102
}
330
403
100
AcDbScale
 70
     0
300
1/64" = 1'-0"
140
0.015625
141
12.0
290
     0
  0
SCALE
  5
417
102
{ACAD_REACTORS
330
403
102
}
330
403
100
AcDbScale
 70
     0
300
1/32" = 1'-0"
140
0.03125
141
12.0
290
     0
  0
SCALE
  5
418
102
{ACAD_REACTORS
330
403
102
}
330
403
100
AcDbScale
 70
     0
300
1/16" = 1'-0"
140
0.0625
141
12.0
290
     0
  0
SCALE
  5
419
102
{ACAD_REACTORS
330
403
102
}
330
403
100
AcDbScale
 70
     0
300
3/32" = 1'-0"
140
0.09375
141
12.0
290
     0
  0
SCALE
  5
41A
102
{ACAD_REACTORS
330
403
102
}
330
403
100
AcDbScale
 70
     0
300
1/8" = 1'-0"
140
0.125
141
12.0
290
     0
  0
SCALE
  5
41B
102
{ACAD_REACTORS
330
403
102
}
330
403
100
AcDbScale
 70
     0
300
3/16" = 1'-0"
140
0.1875
141
12.0
290
     0
  0
SCALE
  5
41C
102
{ACAD_REACTORS
330
403
102
}
330
403
100
AcDbScale
 70
     0
300
1/4" = 1'-0"
140
0.25
141
12.0
290
     0
  0
SCALE
  5
41D
102
{ACAD_REACTORS
330
403
102
}
330
403
100
AcDbScale
 70
     0
300
3/8" = 1'-0"
140
0.375
141
12.0
290
     0
  0
SCALE
  5
41E
102
{ACAD_REACTORS
330
403
102
}
330
403
100
AcDbScale
 70
     0
300
1/2" = 1'-0"
140
0.5
141
12.0
290
     0
  0
SCALE
  5
41F
102
{ACAD_REACTORS
330
403
102
}
330
403
100
AcDbScale
 70
     0
300
3/4" = 1'-0"
140
0.75
141
12.0
290
     0
  0
SCALE
  5
420
102
{ACAD_REACTORS
330
403
102
}
330
403
100
AcDbScale
 70
     0
300
1" = 1'-0"
140
1.0
141
12.0
290
     0
  0
SCALE
  5
421
102
{ACAD_REACTORS
330
403
102
}
330
403
100
AcDbScale
 70
     0
300
1-1/2" = 1'-0"
140
1.5
141
12.0
290
     0
  0
SCALE
  5
422
102
{ACAD_REACTORS
330
403
102
}
330
403
100
AcDbScale
 70
     0
300
3" = 1'-0"
140
3.0
141
12.0
290
     0
  0
SCALE
  5
423
102
{ACAD_REACTORS
330
403
102
}
330
403
100
AcDbScale
 70
     0
300
6" = 1'-0"
140
6.0
141
12.0
290
     0
  0
SCALE
  5
424
102
{ACAD_REACTORS
330
403
102
}
330
403
100
AcDbScale
 70
     0
300
1'-0" = 1'-0"
140
12.0
141
12.0
290
     0
  0
VISUALSTYLE
  5
2F
102
{ACAD_REACTORS
330
2A
102
}
102
{ACAD_XDICTIONARY
360
438
102
}
330
2A
100
AcDbVisualStyle
  2
2dWireframe
 70
     4
 71
     0
 72
     2
 73
     0
 90
        0
 40
-0.6
 41
-30.0
 62
     5
 63
     7
 74
     1
 91
        4
 64
     7
 65
   257
 75
     1
175
     1
 42
1.0
 92
        0
 66
   257
 43
1.0
 76
     1
 77
     6
 78
     2
 67
     7
 79
     5
170
     0
171
     0
290
     0
174
     0
 93
        1
 44
0.0
173
     0
291
     0
 45
0.0
1001
ACAD
1000
AcDbSavedByObjectVersion
1070
     0
  0
VISUALSTYLE
  5
31
102
{ACAD_REACTORS
330
2A
102
}
102
{ACAD_XDICTIONARY
360
43C
102
}
330
2A
100
AcDbVisualStyle
  2
3D Hidden
 70
     6
 71
     1
 72
     2
 73
     2
 90
        0
 40
-0.6
 41
-30.0
 62
     5
 63
     7
 74
     2
 91
        2
 64
     7
 65
   257
 75
     2
175
     1
 42
40.0
 92
        0
 66
   257
 43
1.0
 76
     1
 77
     6
 78
     2
 67
     7
 79
     3
170
     0
171
     0
290
     0
174
     0
 93
        1
 44
0.0
173
     0
291
     0
 45
0.0
1001
ACAD
1000
AcDbSavedByObjectVersion
1070
     0
  0
VISUALSTYLE
  5
30
102
{ACAD_REACTORS
330
2A
102
}
102
{ACAD_XDICTIONARY
360
43A
102
}
330
2A
100
AcDbVisualStyle
  2
3dWireframe
 70
     5
 71
     0
 72
     2
 73
     0
 90
        0
 40
-0.6
 41
-30.0
 62
     5
 63
     7
 74
     1
 91
        4
 64
     7
 65
   257
 75
     1
175
     1
 42
1.0
 92
        0
 66
   257
 43
1.0
 76
     1
 77
     6
 78
     2
 67
     7
 79
     5
170
     0
171
     0
290
     0
174
     0
 93
        1
 44
0.0
173
     0
291
     0
 45
0.0
1001
ACAD
1000
AcDbSavedByObjectVersion
1070
     0
  0
VISUALSTYLE
  5
32
102
{ACAD_REACTORS
330
2A
102
}
102
{ACAD_XDICTIONARY
360
43E
102
}
330
2A
100
AcDbVisualStyle
  2
Basic
 70
     7
 71
     1
 72
     0
 73
     1
 90
        0
 40
-0.6
 41
-30.0
 62
     5
 63
     7
 74
     0
 91
        4
 64
     7
 65
   257
 75
     1
175
     1
 42
1.0
 92
        8
 66
     7
 43
1.0
 76
     1
 77
     6
 78
     2
 67
     7
 79
     5
170
     0
171
     0
290
     0
174
     0
 93
        1
 44
0.0
173
     0
291
     1
 45
0.0
1001
ACAD
1000
AcDbSavedByObjectVersion
1070
     0
  0
VISUALSTYLE
  5
36
102
{ACAD_REACTORS
330
2A
102
}
102
{ACAD_XDICTIONARY
360
446
102
}
330
2A
100
AcDbVisualStyle
  2
Brighten
 70
    12
 71
     2
 72
     2
 73
     0
 90
        0
 40
-0.6
 41
-30.0
 62
     5
 63
     7
 74
     1
 91
        4
 64
     7
 65
   257
 75
     1
175
     1
 42
1.0
 92
        8
 66
     7
 43
1.0
 76
     1
 77
     6
 78
     2
 67
     7
 79
     5
170
     0
171
     0
290
     0
174
     0
 93
        1
 44
50.0
173
     0
291
     1
 45
0.0
1001
ACAD
1000
AcDbSavedByObjectVersion
1070
     0
  0
VISUALSTYLE
  5
3A
102
{ACAD_REACTORS
330
2A
102
}
102
{ACAD_XDICTIONARY
360
44E
102
}
330
2A
100
AcDbVisualStyle
  2
ColorChange
 70
    16
 71
     2
 72
     2
 73
     3
 90
        0
 40
-0.6
 41
-30.0
 62
     5
 63
     8
 74
     1
 91
        4
 64
     7
 65
   257
 75
     1
175
     1
 42
1.0
 92
        8
 66
     8
 43
1.0
 76
     1
 77
     6
 78
     2
 67
     7
 79
     5
170
     0
171
     0
290
     0
174
     0
 93
        1
 44
0.0
173
     0
291
     1
 45
0.0
1001
ACAD
1000
AcDbSavedByObjectVersion
1070
     0
  0
VISUALSTYLE
  5
34
102
{ACAD_REACTORS
330
2A
102
}
102
{ACAD_XDICTIONARY
360
442
102
}
330
2A
100
AcDbVisualStyle
  2
Conceptual
 70
     9
 71
     3
 72
     2
 73
     0
 90
        0
 40
-0.6
 41
-30.0
 62
     5
 63
     7
 74
     2
 91
        2
 64
     7
 65
   257
 75
     1
175
     1
 42
40.0
 92
        8
 66
     7
 43
1.0
 76
     1
 77
     6
 78
     2
 67
     7
 79
     3
170
     0
171
     0
290
     0
174
     0
 93
        1
 44
0.0
173
     0
291
     0
 45
0.0
1001
ACAD
1000
AcDbSavedByObjectVersion
1070
     0
  0
VISUALSTYLE
  5
35
102
{ACAD_REACTORS
330
2A
102
}
102
{ACAD_XDICTIONARY
360
444
102
}
330
2A
100
AcDbVisualStyle
  2
Dim
 70
    11
 71
     2
 72
     2
 73
     0
 90
        0
 40
-0.6
 41
-30.0
 62
     5
 63
     7
 74
     1
 91
        4
 64
     7
 65
   257
 75
     1
175
     1
 42
1.0
 92
        8
 66
     7
 43
1.0
 76
     1
 77
     6
 78
     2
 67
     7
 79
     5
170
     0
171
     0
290
     0
174
     0
 93
        1
 44
-50.0
173
     0
291
     1
 45
0.0
1001
ACAD
1000
AcDbSavedByObjectVersion
1070
     0
  0
VISUALSTYLE
  5
39
102
{ACAD_REACTORS
330
2A
102
}
102
{ACAD_XDICTIONARY
360
44C
102
}
330
2A
100
AcDbVisualStyle
  2
Facepattern
 70
    15
 71
     2
 72
     2
 73
     0
 90
        0
 40
-0.6
 41
-30.0
 62
     5
 63
     7
 74
     1
 91
        4
 64
     7
 65
   257
 75
     1
175
     1
 42
1.0
 92
        8
 66
     7
 43
1.0
 76
     1
 77
     6
 78
     2
 67
     7
 79
     5
170
     0
171
     0
290
     0
174
     0
 93
        1
 44
0.0
173
     0
291
     1
 45
0.0
1001
ACAD
1000
AcDbSavedByObjectVersion
1070
     0
  0
VISUALSTYLE
  5
2B
102
{ACAD_REACTORS
330
2A
102
}
102
{ACAD_XDICTIONARY
360
430
102
}
330
2A
100
AcDbVisualStyle
  2
Flat
 70
     0
 71
     2
 72
     1
 73
     1
 90
        2
 40
-0.6
 41
30.0
 62
     5
 63
     7
 74
     0
 91
        4
 64
     7
 65
   257
 75
     1
175
     1
 42
1.0
 92
        8
 66
     7
 43
1.0
 76
     1
 77
     6
 78
     2
 67
     7
 79
     5
170
     0
171
     0
290
     0
174
     0
 93
       13
 44
0.0
173
     0
291
     1
 45
0.0
1001
ACAD
1000
AcDbSavedByObjectVersion
1070
     0
  0
VISUALSTYLE
  5
2C
102
{ACAD_REACTORS
330
2A
102
}
102
{ACAD_XDICTIONARY
360
432
102
}
330
2A
100
AcDbVisualStyle
  2
FlatWithEdges
 70
     1
 71
     2
 72
     1
 73
     1
 90
        2
 40
-0.6
 41
30.0
 62
     5
 63
     7
 74
     1
 91
        4
 64
     7
 65
   257
 75
     1
175
     1
 42
1.0
 92
        0
 66
   257
 43
1.0
 76
     1
 77
     6
 78
     2
 67
     7
 79
     5
170
     0
171
     0
290
     0
174
     0
 93
       13
 44
0.0
173
     0
291
     1
 45
0.0
1001
ACAD
1000
AcDbSavedByObjectVersion
1070
     0
  0
VISUALSTYLE
  5
2D
102
{ACAD_REACTORS
330
2A
102
}
102
{ACAD_XDICTIONARY
360
434
102
}
330
2A
100
AcDbVisualStyle
  2
Gouraud
 70
     2
 71
     2
 72
     2
 73
     1
 90
        2
 40
-0.6
 41
30.0
 62
     5
 63
     7
 74
     0
 91
        4
 64
     7
 65
   257
 75
     1
175
     1
 42
1.0
 92
        0
 66
     7
 43
1.0
 76
     1
 77
     6
 78
     2
 67
     7
 79
     5
170
     0
171
     0
290
     0
174
     0
 93
       13
 44
0.0
173
     0
291
     1
 45
0.0
1001
ACAD
1000
AcDbSavedByObjectVersion
1070
     0
  0
VISUALSTYLE
  5
2E
102
{ACAD_REACTORS
330
2A
102
}
102
{ACAD_XDICTIONARY
360
436
102
}
330
2A
100
AcDbVisualStyle
  2
GouraudWithEdges
 70
     3
 71
     2
 72
     2
 73
     1
 90
        2
 40
-0.6
 41
30.0
 62
     5
 63
     7
 74
     1
 91
        4
 64
     7
 65
   257
 75
     1
175
     1
 42
1.0
 92
        0
 66
   257
 43
1.0
 76
     1
 77
     6
 78
     2
 67
     7
 79
     5
170
     0
171
     0
290
     0
174
     0
 93
       13
 44
0.0
173
     0
291
     1
 45
0.0
1001
ACAD
1000
AcDbSavedByObjectVersion
1070
     0
  0
VISUALSTYLE
  5
38
102
{ACAD_REACTORS
330
2A
102
}
102
{ACAD_XDICTIONARY
360
44A
102
}
330
2A
100
AcDbVisualStyle
  2
Linepattern
 70
    14
 71
     2
 72
     2
 73
     0
 90
        0
 40
-0.6
 41
-30.0
 62
     5
 63
     7
 74
     1
 91
        4
 64
     7
 65
   257
 75
     7
175
     7
 42
1.0
 92
        8
 66
     7
 43
1.0
 76
     1
 77
     6
 78
     2
 67
     7
 79
     5
170
     0
171
     0
290
     0
174
     0
 93
        1
 44
0.0
173
     0
291
     1
 45
0.0
1001
ACAD
1000
AcDbSavedByObjectVersion
1070
     0
  0
VISUALSTYLE
  5
33
102
{ACAD_REACTORS
330
2A
102
}
102
{ACAD_XDICTIONARY
360
440
102
}
330
2A
100
AcDbVisualStyle
  2
Realistic
 70
     8
 71
     2
 72
     2
 73
     0
 90
        0
 40
-0.6
 41
-30.0
 62
     5
 63
     7
 74
     1
 91
        0
 64
     7
 65
   257
 75
     1
175
     1
 42
1.0
 92
        8
 66
     8
 43
1.0
 76
     1
 77
     6
 78
     2
 67
     7
 79
     5
170
     0
171
     0
290
     0
174
     0
 93
       13
 44
0.0
173
     0
291
     0
 45
0.0
1001
ACAD
1000
AcDbSavedByObjectVersion
1070
     0
  0
VISUALSTYLE
  5
37
102
{ACAD_REACTORS
330
2A
102
}
102
{ACAD_XDICTIONARY
360
448
102
}
330
2A
100
AcDbVisualStyle
  2
Thicken
 70
    13
 71
     2
 72
     2
 73
     0
 90
        0
 40
-0.6
 41
-30.0
 62
     5
 63
     7
 74
     1
 91
        4
 64
     7
 65
   257
 75
     1
175
     1
 42
1.0
 92
       12
 66
     7
 43
1.0
 76
     1
 77
     6
 78
     2
 67
     7
 79
     5
170
     0
171
     0
290
     0
174
     0
 93
        1
 44
0.0
173
     0
291
     1
 45
0.0
1001
ACAD
1000
AcDbSavedByObjectVersion
1070
     0
  0
DICTIONARYVAR
  5
42B
102
{ACAD_REACTORS
330
427
102
}
330
427
100
DictionaryVariables
280
     0
  1
1:1
  0
DICTIONARYVAR
  5
42C
102
{ACAD_REACTORS
330
427
102
}
330
427
100
DictionaryVariables
280
     0
  1
2
  0
DICTIONARYVAR
  5
42D
102
{ACAD_REACTORS
330
427
102
}
330
427
100
DictionaryVariables
280
     0
  1
1
  0
DICTIONARYVAR
  5
42A
102
{ACAD_REACTORS
330
427
102
}
330
427
100
DictionaryVariables
280
     0
  1
0
  0
XRECORD
  5
426
102
{ACAD_REACTORS
330
425
102
}
330
425
100
AcDbXrecord
280
     1
1000
This DWG file was created in ArchiCAD(TM)®
  0
SPATIAL_FILTER
  5
3FF
102
{ACAD_REACTORS
330
3FE
102
}
330
3FE
100
AcDbFilter
100
AcDbSpatialFilter
 70
     4
 10
4.999999999999999
 20
21.6397307051553
 10
291.8093157401332
 20
21.6397307051553
 10
291.8093157401332
 20
205.0
 10
4.999999999999999
 20
205.0
210
0.0
220
0.0
230
1.0
 11
0.0
 21
0.0
 31
0.0
 71
     1
 72
     0
 73
     0
 40
1.0
 40
0.0
 40
0.0
 40
0.0
 40
0.0
 40
1.0
 40
0.0
 40
0.0
 40
0.0
 40
0.0
 40
1.0
 40
0.0
 40
1.0
 40
0.0
 40
0.0
 40
0.0
 40
0.0
 40
1.0
 40
0.0
 40
0.0
 40
0.0
 40
0.0
 40
1.0
 40
0.0
  0
DICTIONARY
  5
452
330
3D
100
AcDbDictionary
280
     1
281
     1
  3
ACAD_XREC_ROUNDTRIP
360
453
  0
DICTIONARY
  5
450
330
3C
100
AcDbDictionary
280
     1
281
     1
  3
ACAD_XREC_ROUNDTRIP
360
451
  0
DICTIONARY
  5
454
330
3E
100
AcDbDictionary
280
     1
281
     1
  3
ACAD_XREC_ROUNDTRIP
360
455
  0
DICTIONARY
  5
438
330
2F
100
AcDbDictionary
280
     1
281
     1
  3
ACAD_XREC_ROUNDTRIP
360
439
  0
DICTIONARY
  5
43C
330
31
100
AcDbDictionary
280
     1
281
     1
  3
ACAD_XREC_ROUNDTRIP
360
43D
  0
DICTIONARY
  5
43A
330
30
100
AcDbDictionary
280
     1
281
     1
  3
ACAD_XREC_ROUNDTRIP
360
43B
  0
DICTIONARY
  5
43E
330
32
100
AcDbDictionary
280
     1
281
     1
  3
ACAD_XREC_ROUNDTRIP
360
43F
  0
DICTIONARY
  5
446
330
36
100
AcDbDictionary
280
     1
281
     1
  3
ACAD_XREC_ROUNDTRIP
360
447
  0
DICTIONARY
  5
44E
330
3A
100
AcDbDictionary
280
     1
281
     1
  3
ACAD_XREC_ROUNDTRIP
360
44F
  0
DICTIONARY
  5
442
330
34
100
AcDbDictionary
280
     1
281
     1
  3
ACAD_XREC_ROUNDTRIP
360
443
  0
DICTIONARY
  5
444
330
35
100
AcDbDictionary
280
     1
281
     1
  3
ACAD_XREC_ROUNDTRIP
360
445
  0
DICTIONARY
  5
44C
330
39
100
AcDbDictionary
280
     1
281
     1
  3
ACAD_XREC_ROUNDTRIP
360
44D
  0
DICTIONARY
  5
430
330
2B
100
AcDbDictionary
280
     1
281
     1
  3
ACAD_XREC_ROUNDTRIP
360
431
  0
DICTIONARY
  5
432
330
2C
100
AcDbDictionary
280
     1
281
     1
  3
ACAD_XREC_ROUNDTRIP
360
433
  0
DICTIONARY
  5
434
330
2D
100
AcDbDictionary
280
     1
281
     1
  3
ACAD_XREC_ROUNDTRIP
360
435
  0
DICTIONARY
  5
436
330
2E
100
AcDbDictionary
280
     1
281
     1
  3
ACAD_XREC_ROUNDTRIP
360
437
  0
DICTIONARY
  5
44A
330
38
100
AcDbDictionary
280
     1
281
     1
  3
ACAD_XREC_ROUNDTRIP
360
44B
  0
DICTIONARY
  5
440
330
33
100
AcDbDictionary
280
     1
281
     1
  3
ACAD_XREC_ROUNDTRIP
360
441
  0
DICTIONARY
  5
448
330
37
100
AcDbDictionary
280
     1
281
     1
  3
ACAD_XREC_ROUNDTRIP
360
449
  0
XRECORD
  5
453
102
{ACAD_REACTORS
330
452
102
}
330
452
100
AcDbXrecord
280
     1
102
MATERIAL
148
0.0
149
0.0
149
0.0
 93
        0
 94
      127
282
     0
 72
     1
 77
     1
171
     1
175
     1
179
     1
273
     0
  0
XRECORD
  5
451
102
{ACAD_REACTORS
330
450
102
}
330
450
100
AcDbXrecord
280
     1
102
MATERIAL
148
0.0
149
0.0
149
0.0
 93
        0
 94
      127
282
     0
 72
     1
 77
     1
171
     1
175
     1
179
     1
273
     0
  0
XRECORD
  5
455
102
{ACAD_REACTORS
330
454
102
}
330
454
100
AcDbXrecord
280
     1
102
MATERIAL
148
0.0
149
0.0
149
0.0
 93
        0
 94
      127
282
     0
 72
     1
 77
     1
171
     1
175
     1
179
     1
273
     0
  0
XRECORD
  5
439
102
{ACAD_REACTORS
330
438
102
}
330
438
100
AcDbXrecord
280
     1
102
RTVSPropertyOp0
 70
     1
102
RTVSPropertyOp1
 70
     1
102
RTVSPropertyOp2
 70
     1
102
RTVSPropertyOp3
 70
     1
102
RTVSPropertyOp4
 70
     1
102
RTVSPropertyOp5
 70
     1
102
RTVSPropertyOp6
 70
     1
102
RTVSPropertyOp7
 70
     1
102
RTVSPropertyOp8
 70
     1
102
RTVSPropertyOp9
 70
     1
102
RTVSPropertyOp10
 70
     1
102
RTVSPropertyOp11
 70
     1
102
RTVSPropertyOp12
 70
     1
102
RTVSPropertyOp13
 70
     1
102
RTVSPropertyOp14
 70
     1
102
RTVSPropertyOp15
 70
     1
102
RTVSPropertyOp16
 70
     1
102
RTVSPropertyOp17
 70
     1
102
RTVSPropertyOp18
 70
     1
102
RTVSPropertyOp19
 70
     1
102
RTVSPropertyOp20
 70
     1
102
RTVSPropertyOp21
 70
     1
102
RTVSPropertyOp22
 70
     1
102
RTVSPropertyOp23
 70
     1
102
RTVSPropertyOp24
 70
     1
102
RTVSPropertyOp25
 70
     1
102
RTVSPropertyOp26
 70
     1
102
RTVSPropertyOp27
 70
     1
102
RTVSPropertyOp28
 70
     1
102
RTVSPropertyOp29
 70
     1
102
RTVSPropertyOp30
 70
     1
102
RTVSPropertyOp31
 70
     1
102
RTVSPropertyOp32
 70
     1
  0
XRECORD
  5
43D
102
{ACAD_REACTORS
330
43C
102
}
330
43C
100
AcDbXrecord
280
     1
102
RTVSPropertyOp0
 70
     1
102
RTVSPropertyOp1
 70
     1
102
RTVSPropertyOp2
 70
     1
102
RTVSPropertyOp3
 70
     1
102
RTVSPropertyOp4
 70
     1
102
RTVSPropertyOp5
 70
     1
102
RTVSPropertyOp6
 70
     1
102
RTVSPropertyOp7
 70
     1
102
RTVSPropertyOp8
 70
     1
102
RTVSPropertyOp9
 70
     1
102
RTVSPropertyOp10
 70
     1
102
RTVSPropertyOp11
 70
     1
102
RTVSPropertyOp12
 70
     1
102
RTVSPropertyOp13
 70
     1
102
RTVSPropertyOp14
 70
     1
102
RTVSPropertyOp15
 70
     1
102
RTVSPropertyOp16
 70
     1
102
RTVSPropertyOp17
 70
     1
102
RTVSPropertyOp18
 70
     1
102
RTVSPropertyOp19
 70
     1
102
RTVSPropertyOp20
 70
     1
102
RTVSPropertyOp21
 70
     1
102
RTVSPropertyOp22
 70
     1
102
RTVSPropertyOp23
 70
     1
102
RTVSPropertyOp24
 70
     1
102
RTVSPropertyOp25
 70
     1
102
RTVSPropertyOp26
 70
     1
102
RTVSPropertyOp27
 70
     1
102
RTVSPropertyOp28
 70
     1
102
RTVSPropertyOp29
 70
     1
102
RTVSPropertyOp30
 70
     1
102
RTVSPropertyOp31
 70
     1
102
RTVSPropertyOp32
 70
     1
  0
XRECORD
  5
43B
102
{ACAD_REACTORS
330
43A
102
}
330
43A
100
AcDbXrecord
280
     1
102
RTVSPropertyOp0
 70
     1
102
RTVSPropertyOp1
 70
     1
102
RTVSPropertyOp2
 70
     1
102
RTVSPropertyOp3
 70
     1
102
RTVSPropertyOp4
 70
     1
102
RTVSPropertyOp5
 70
     1
102
RTVSPropertyOp6
 70
     1
102
RTVSPropertyOp7
 70
     1
102
RTVSPropertyOp8
 70
     1
102
RTVSPropertyOp9
 70
     1
102
RTVSPropertyOp10
 70
     1
102
RTVSPropertyOp11
 70
     1
102
RTVSPropertyOp12
 70
     1
102
RTVSPropertyOp13
 70
     1
102
RTVSPropertyOp14
 70
     1
102
RTVSPropertyOp15
 70
     1
102
RTVSPropertyOp16
 70
     1
102
RTVSPropertyOp17
 70
     1
102
RTVSPropertyOp18
 70
     1
102
RTVSPropertyOp19
 70
     1
102
RTVSPropertyOp20
 70
     1
102
RTVSPropertyOp21
 70
     1
102
RTVSPropertyOp22
 70
     1
102
RTVSPropertyOp23
 70
     1
102
RTVSPropertyOp24
 70
     1
102
RTVSPropertyOp25
 70
     1
102
RTVSPropertyOp26
 70
     1
102
RTVSPropertyOp27
 70
     1
102
RTVSPropertyOp28
 70
     1
102
RTVSPropertyOp29
 70
     1
102
RTVSPropertyOp30
 70
     1
102
RTVSPropertyOp31
 70
     1
102
RTVSPropertyOp32
 70
     1
  0
XRECORD
  5
43F
102
{ACAD_REACTORS
330
43E
102
}
330
43E
100
AcDbXrecord
280
     1
102
RTVSPropertyOp0
 70
     1
102
RTVSPropertyOp1
 70
     1
102
RTVSPropertyOp2
 70
     1
102
RTVSPropertyOp3
 70
     1
102
RTVSPropertyOp4
 70
     1
102
RTVSPropertyOp5
 70
     1
102
RTVSPropertyOp6
 70
     1
102
RTVSPropertyOp7
 70
     1
102
RTVSPropertyOp8
 70
     1
102
RTVSPropertyOp9
 70
     1
102
RTVSPropertyOp10
 70
     1
102
RTVSPropertyOp11
 70
     1
102
RTVSPropertyOp12
 70
     1
102
RTVSPropertyOp13
 70
     1
102
RTVSPropertyOp14
 70
     1
102
RTVSPropertyOp15
 70
     1
102
RTVSPropertyOp16
 70
     1
102
RTVSPropertyOp17
 70
     1
102
RTVSPropertyOp18
 70
     1
102
RTVSPropertyOp19
 70
     1
102
RTVSPropertyOp20
 70
     1
102
RTVSPropertyOp21
 70
     1
102
RTVSPropertyOp22
 70
     1
102
RTVSPropertyOp23
 70
     1
102
RTVSPropertyOp24
 70
     1
102
RTVSPropertyOp25
 70
     1
102
RTVSPropertyOp26
 70
     1
102
RTVSPropertyOp27
 70
     1
102
RTVSPropertyOp28
 70
     1
102
RTVSPropertyOp29
 70
     1
102
RTVSPropertyOp30
 70
     1
102
RTVSPropertyOp31
 70
     1
102
RTVSPropertyOp32
 70
     1
  0
XRECORD
  5
447
102
{ACAD_REACTORS
330
446
102
}
330
446
100
AcDbXrecord
280
     1
102
RTVSPropertyOp0
 70
     1
102
RTVSPropertyOp1
 70
     1
102
RTVSPropertyOp2
 70
     1
102
RTVSPropertyOp3
 70
     1
102
RTVSPropertyOp4
 70
     1
102
RTVSPropertyOp5
 70
     1
102
RTVSPropertyOp6
 70
     1
102
RTVSPropertyOp7
 70
     1
102
RTVSPropertyOp8
 70
     1
102
RTVSPropertyOp9
 70
     1
102
RTVSPropertyOp10
 70
     1
102
RTVSPropertyOp11
 70
     1
102
RTVSPropertyOp12
 70
     1
102
RTVSPropertyOp13
 70
     1
102
RTVSPropertyOp14
 70
     1
102
RTVSPropertyOp15
 70
     1
102
RTVSPropertyOp16
 70
     1
102
RTVSPropertyOp17
 70
     1
102
RTVSPropertyOp18
 70
     1
102
RTVSPropertyOp19
 70
     1
102
RTVSPropertyOp20
 70
     1
102
RTVSPropertyOp21
 70
     1
102
RTVSPropertyOp22
 70
     1
102
RTVSPropertyOp23
 70
     1
102
RTVSPropertyOp24
 70
     1
102
RTVSPropertyOp25
 70
     1
102
RTVSPropertyOp26
 70
     1
102
RTVSPropertyOp27
 70
     1
102
RTVSPropertyOp28
 70
     1
102
RTVSPropertyOp29
 70
     1
102
RTVSPropertyOp30
 70
     1
102
RTVSPropertyOp31
 70
     1
102
RTVSPropertyOp32
 70
     1
  0
XRECORD
  5
44F
102
{ACAD_REACTORS
330
44E
102
}
330
44E
100
AcDbXrecord
280
     1
102
RTVSPropertyOp0
 70
     1
102
RTVSPropertyOp1
 70
     1
102
RTVSPropertyOp2
 70
     1
102
RTVSPropertyOp3
 70
     1
102
RTVSPropertyOp4
 70
     1
102
RTVSPropertyOp5
 70
     1
102
RTVSPropertyOp6
 70
     1
102
RTVSPropertyOp7
 70
     1
102
RTVSPropertyOp8
 70
     1
102
RTVSPropertyOp9
 70
     1
102
RTVSPropertyOp10
 70
     1
102
RTVSPropertyOp11
 70
     1
102
RTVSPropertyOp12
 70
     1
102
RTVSPropertyOp13
 70
     1
102
RTVSPropertyOp14
 70
     1
102
RTVSPropertyOp15
 70
     1
102
RTVSPropertyOp16
 70
     1
102
RTVSPropertyOp17
 70
     1
102
RTVSPropertyOp18
 70
     1
102
RTVSPropertyOp19
 70
     1
102
RTVSPropertyOp20
 70
     1
102
RTVSPropertyOp21
 70
     1
102
RTVSPropertyOp22
 70
     1
102
RTVSPropertyOp23
 70
     1
102
RTVSPropertyOp24
 70
     1
102
RTVSPropertyOp25
 70
     1
102
RTVSPropertyOp26
 70
     1
102
RTVSPropertyOp27
 70
     1
102
RTVSPropertyOp28
 70
     1
102
RTVSPropertyOp29
 70
     1
102
RTVSPropertyOp30
 70
     1
102
RTVSPropertyOp31
 70
     1
102
RTVSPropertyOp32
 70
     1
  0
XRECORD
  5
443
102
{ACAD_REACTORS
330
442
102
}
330
442
100
AcDbXrecord
280
     1
102
RTVSPropertyOp0
 70
     1
102
RTVSPropertyOp1
 70
     1
102
RTVSPropertyOp2
 70
     1
102
RTVSPropertyOp3
 70
     1
102
RTVSPropertyOp4
 70
     1
102
RTVSPropertyOp5
 70
     1
102
RTVSPropertyOp6
 70
     1
102
RTVSPropertyOp7
 70
     1
102
RTVSPropertyOp8
 70
     1
102
RTVSPropertyOp9
 70
     1
102
RTVSPropertyOp10
 70
     1
102
RTVSPropertyOp11
 70
     1
102
RTVSPropertyOp12
 70
     1
102
RTVSPropertyOp13
 70
     1
102
RTVSPropertyOp14
 70
     1
102
RTVSPropertyOp15
 70
     1
102
RTVSPropertyOp16
 70
     1
102
RTVSPropertyOp17
 70
     1
102
RTVSPropertyOp18
 70
     1
102
RTVSPropertyOp19
 70
     1
102
RTVSPropertyOp20
 70
     1
102
RTVSPropertyOp21
 70
     1
102
RTVSPropertyOp22
 70
     1
102
RTVSPropertyOp23
 70
     1
102
RTVSPropertyOp24
 70
     1
102
RTVSPropertyOp25
 70
     1
102
RTVSPropertyOp26
 70
     1
102
RTVSPropertyOp27
 70
     1
102
RTVSPropertyOp28
 70
     1
102
RTVSPropertyOp29
 70
     1
102
RTVSPropertyOp30
 70
     1
102
RTVSPropertyOp31
 70
     1
102
RTVSPropertyOp32
 70
     1
  0
XRECORD
  5
445
102
{ACAD_REACTORS
330
444
102
}
330
444
100
AcDbXrecord
280
     1
102
RTVSPropertyOp0
 70
     1
102
RTVSPropertyOp1
 70
     1
102
RTVSPropertyOp2
 70
     1
102
RTVSPropertyOp3
 70
     1
102
RTVSPropertyOp4
 70
     1
102
RTVSPropertyOp5
 70
     1
102
RTVSPropertyOp6
 70
     1
102
RTVSPropertyOp7
 70
     1
102
RTVSPropertyOp8
 70
     1
102
RTVSPropertyOp9
 70
     1
102
RTVSPropertyOp10
 70
     1
102
RTVSPropertyOp11
 70
     1
102
RTVSPropertyOp12
 70
     1
102
RTVSPropertyOp13
 70
     1
102
RTVSPropertyOp14
 70
     1
102
RTVSPropertyOp15
 70
     1
102
RTVSPropertyOp16
 70
     1
102
RTVSPropertyOp17
 70
     1
102
RTVSPropertyOp18
 70
     1
102
RTVSPropertyOp19
 70
     1
102
RTVSPropertyOp20
 70
     1
102
RTVSPropertyOp21
 70
     1
102
RTVSPropertyOp22
 70
     1
102
RTVSPropertyOp23
 70
     1
102
RTVSPropertyOp24
 70
     1
102
RTVSPropertyOp25
 70
     1
102
RTVSPropertyOp26
 70
     1
102
RTVSPropertyOp27
 70
     1
102
RTVSPropertyOp28
 70
     1
102
RTVSPropertyOp29
 70
     1
102
RTVSPropertyOp30
 70
     1
102
RTVSPropertyOp31
 70
     1
102
RTVSPropertyOp32
 70
     1
  0
XRECORD
  5
44D
102
{ACAD_REACTORS
330
44C
102
}
330
44C
100
AcDbXrecord
280
     1
102
RTVSPropertyOp0
 70
     1
102
RTVSPropertyOp1
 70
     1
102
RTVSPropertyOp2
 70
     1
102
RTVSPropertyOp3
 70
     1
102
RTVSPropertyOp4
 70
     1
102
RTVSPropertyOp5
 70
     1
102
RTVSPropertyOp6
 70
     1
102
RTVSPropertyOp7
 70
     1
102
RTVSPropertyOp8
 70
     1
102
RTVSPropertyOp9
 70
     1
102
RTVSPropertyOp10
 70
     1
102
RTVSPropertyOp11
 70
     1
102
RTVSPropertyOp12
 70
     1
102
RTVSPropertyOp13
 70
     1
102
RTVSPropertyOp14
 70
     1
102
RTVSPropertyOp15
 70
     1
102
RTVSPropertyOp16
 70
     1
102
RTVSPropertyOp17
 70
     1
102
RTVSPropertyOp18
 70
     1
102
RTVSPropertyOp19
 70
     1
102
RTVSPropertyOp20
 70
     1
102
RTVSPropertyOp21
 70
     1
102
RTVSPropertyOp22
 70
     1
102
RTVSPropertyOp23
 70
     1
102
RTVSPropertyOp24
 70
     1
102
RTVSPropertyOp25
 70
     1
102
RTVSPropertyOp26
 70
     1
102
RTVSPropertyOp27
 70
     1
102
RTVSPropertyOp28
 70
     1
102
RTVSPropertyOp29
 70
     1
102
RTVSPropertyOp30
 70
     1
102
RTVSPropertyOp31
 70
     1
102
RTVSPropertyOp32
 70
     1
  0
XRECORD
  5
431
102
{ACAD_REACTORS
330
430
102
}
330
430
100
AcDbXrecord
280
     1
102
RTVSPropertyOp0
 70
     1
102
RTVSPropertyOp1
 70
     1
102
RTVSPropertyOp2
 70
     1
102
RTVSPropertyOp3
 70
     1
102
RTVSPropertyOp4
 70
     1
102
RTVSPropertyOp5
 70
     1
102
RTVSPropertyOp6
 70
     1
102
RTVSPropertyOp7
 70
     1
102
RTVSPropertyOp8
 70
     1
102
RTVSPropertyOp9
 70
     1
102
RTVSPropertyOp10
 70
     1
102
RTVSPropertyOp11
 70
     1
102
RTVSPropertyOp12
 70
     1
102
RTVSPropertyOp13
 70
     1
102
RTVSPropertyOp14
 70
     1
102
RTVSPropertyOp15
 70
     1
102
RTVSPropertyOp16
 70
     1
102
RTVSPropertyOp17
 70
     1
102
RTVSPropertyOp18
 70
     1
102
RTVSPropertyOp19
 70
     1
102
RTVSPropertyOp20
 70
     1
102
RTVSPropertyOp21
 70
     1
102
RTVSPropertyOp22
 70
     1
102
RTVSPropertyOp23
 70
     1
102
RTVSPropertyOp24
 70
     1
102
RTVSPropertyOp25
 70
     1
102
RTVSPropertyOp26
 70
     1
102
RTVSPropertyOp27
 70
     1
102
RTVSPropertyOp28
 70
     1
102
RTVSPropertyOp29
 70
     1
102
RTVSPropertyOp30
 70
     1
102
RTVSPropertyOp31
 70
     1
102
RTVSPropertyOp32
 70
     1
  0
XRECORD
  5
433
102
{ACAD_REACTORS
330
432
102
}
330
432
100
AcDbXrecord
280
     1
102
RTVSPropertyOp0
 70
     1
102
RTVSPropertyOp1
 70
     1
102
RTVSPropertyOp2
 70
     1
102
RTVSPropertyOp3
 70
     1
102
RTVSPropertyOp4
 70
     1
102
RTVSPropertyOp5
 70
     1
102
RTVSPropertyOp6
 70
     1
102
RTVSPropertyOp7
 70
     1
102
RTVSPropertyOp8
 70
     1
102
RTVSPropertyOp9
 70
     1
102
RTVSPropertyOp10
 70
     1
102
RTVSPropertyOp11
 70
     1
102
RTVSPropertyOp12
 70
     1
102
RTVSPropertyOp13
 70
     1
102
RTVSPropertyOp14
 70
     1
102
RTVSPropertyOp15
 70
     1
102
RTVSPropertyOp16
 70
     1
102
RTVSPropertyOp17
 70
     1
102
RTVSPropertyOp18
 70
     1
102
RTVSPropertyOp19
 70
     1
102
RTVSPropertyOp20
 70
     1
102
RTVSPropertyOp21
 70
     1
102
RTVSPropertyOp22
 70
     1
102
RTVSPropertyOp23
 70
     1
102
RTVSPropertyOp24
 70
     1
102
RTVSPropertyOp25
 70
     1
102
RTVSPropertyOp26
 70
     1
102
RTVSPropertyOp27
 70
     1
102
RTVSPropertyOp28
 70
     1
102
RTVSPropertyOp29
 70
     1
102
RTVSPropertyOp30
 70
     1
102
RTVSPropertyOp31
 70
     1
102
RTVSPropertyOp32
 70
     1
  0
XRECORD
  5
435
102
{ACAD_REACTORS
330
434
102
}
330
434
100
AcDbXrecord
280
     1
102
RTVSPropertyOp0
 70
     1
102
RTVSPropertyOp1
 70
     1
102
RTVSPropertyOp2
 70
     1
102
RTVSPropertyOp3
 70
     1
102
RTVSPropertyOp4
 70
     1
102
RTVSPropertyOp5
 70
     1
102
RTVSPropertyOp6
 70
     1
102
RTVSPropertyOp7
 70
     1
102
RTVSPropertyOp8
 70
     1
102
RTVSPropertyOp9
 70
     1
102
RTVSPropertyOp10
 70
     1
102
RTVSPropertyOp11
 70
     1
102
RTVSPropertyOp12
 70
     1
102
RTVSPropertyOp13
 70
     1
102
RTVSPropertyOp14
 70
     1
102
RTVSPropertyOp15
 70
     1
102
RTVSPropertyOp16
 70
     1
102
RTVSPropertyOp17
 70
     1
102
RTVSPropertyOp18
 70
     1
102
RTVSPropertyOp19
 70
     1
102
RTVSPropertyOp20
 70
     1
102
RTVSPropertyOp21
 70
     1
102
RTVSPropertyOp22
 70
     1
102
RTVSPropertyOp23
 70
     1
102
RTVSPropertyOp24
 70
     1
102
RTVSPropertyOp25
 70
     1
102
RTVSPropertyOp26
 70
     1
102
RTVSPropertyOp27
 70
     1
102
RTVSPropertyOp28
 70
     1
102
RTVSPropertyOp29
 70
     1
102
RTVSPropertyOp30
 70
     1
102
RTVSPropertyOp31
 70
     1
102
RTVSPropertyOp32
 70
     1
  0
XRECORD
  5
437
102
{ACAD_REACTORS
330
436
102
}
330
436
100
AcDbXrecord
280
     1
102
RTVSPropertyOp0
 70
     1
102
RTVSPropertyOp1
 70
     1
102
RTVSPropertyOp2
 70
     1
102
RTVSPropertyOp3
 70
     1
102
RTVSPropertyOp4
 70
     1
102
RTVSPropertyOp5
 70
     1
102
RTVSPropertyOp6
 70
     1
102
RTVSPropertyOp7
 70
     1
102
RTVSPropertyOp8
 70
     1
102
RTVSPropertyOp9
 70
     1
102
RTVSPropertyOp10
 70
     1
102
RTVSPropertyOp11
 70
     1
102
RTVSPropertyOp12
 70
     1
102
RTVSPropertyOp13
 70
     1
102
RTVSPropertyOp14
 70
     1
102
RTVSPropertyOp15
 70
     1
102
RTVSPropertyOp16
 70
     1
102
RTVSPropertyOp17
 70
     1
102
RTVSPropertyOp18
 70
     1
102
RTVSPropertyOp19
 70
     1
102
RTVSPropertyOp20
 70
     1
102
RTVSPropertyOp21
 70
     1
102
RTVSPropertyOp22
 70
     1
102
RTVSPropertyOp23
 70
     1
102
RTVSPropertyOp24
 70
     1
102
RTVSPropertyOp25
 70
     1
102
RTVSPropertyOp26
 70
     1
102
RTVSPropertyOp27
 70
     1
102
RTVSPropertyOp28
 70
     1
102
RTVSPropertyOp29
 70
     1
102
RTVSPropertyOp30
 70
     1
102
RTVSPropertyOp31
 70
     1
102
RTVSPropertyOp32
 70
     1
  0
XRECORD
  5
44B
102
{ACAD_REACTORS
330
44A
102
}
330
44A
100
AcDbXrecord
280
     1
102
RTVSPropertyOp0
 70
     1
102
RTVSPropertyOp1
 70
     1
102
RTVSPropertyOp2
 70
     1
102
RTVSPropertyOp3
 70
     1
102
RTVSPropertyOp4
 70
     1
102
RTVSPropertyOp5
 70
     1
102
RTVSPropertyOp6
 70
     1
102
RTVSPropertyOp7
 70
     1
102
RTVSPropertyOp8
 70
     1
102
RTVSPropertyOp9
 70
     1
102
RTVSPropertyOp10
 70
     1
102
RTVSPropertyOp11
 70
     1
102
RTVSPropertyOp12
 70
     1
102
RTVSPropertyOp13
 70
     1
102
RTVSPropertyOp14
 70
     1
102
RTVSPropertyOp15
 70
     1
102
RTVSPropertyOp16
 70
     1
102
RTVSPropertyOp17
 70
     1
102
RTVSPropertyOp18
 70
     1
102
RTVSPropertyOp19
 70
     1
102
RTVSPropertyOp20
 70
     1
102
RTVSPropertyOp21
 70
     1
102
RTVSPropertyOp22
 70
     1
102
RTVSPropertyOp23
 70
     1
102
RTVSPropertyOp24
 70
     1
102
RTVSPropertyOp25
 70
     1
102
RTVSPropertyOp26
 70
     1
102
RTVSPropertyOp27
 70
     1
102
RTVSPropertyOp28
 70
     1
102
RTVSPropertyOp29
 70
     1
102
RTVSPropertyOp30
 70
     1
102
RTVSPropertyOp31
 70
     1
102
RTVSPropertyOp32
 70
     1
  0
XRECORD
  5
441
102
{ACAD_REACTORS
330
440
102
}
330
440
100
AcDbXrecord
280
     1
102
RTVSPropertyOp0
 70
     1
102
RTVSPropertyOp1
 70
     1
102
RTVSPropertyOp2
 70
     1
102
RTVSPropertyOp3
 70
     1
102
RTVSPropertyOp4
 70
     1
102
RTVSPropertyOp5
 70
     1
102
RTVSPropertyOp6
 70
     1
102
RTVSPropertyOp7
 70
     1
102
RTVSPropertyOp8
 70
     1
102
RTVSPropertyOp9
 70
     1
102
RTVSPropertyOp10
 70
     1
102
RTVSPropertyOp11
 70
     1
102
RTVSPropertyOp12
 70
     1
102
RTVSPropertyOp13
 70
     1
102
RTVSPropertyOp14
 70
     1
102
RTVSPropertyOp15
 70
     1
102
RTVSPropertyOp16
 70
     1
102
RTVSPropertyOp17
 70
     1
102
RTVSPropertyOp18
 70
     1
102
RTVSPropertyOp19
 70
     1
102
RTVSPropertyOp20
 70
     1
102
RTVSPropertyOp21
 70
     1
102
RTVSPropertyOp22
 70
     1
102
RTVSPropertyOp23
 70
     1
102
RTVSPropertyOp24
 70
     1
102
RTVSPropertyOp25
 70
     1
102
RTVSPropertyOp26
 70
     1
102
RTVSPropertyOp27
 70
     1
102
RTVSPropertyOp28
 70
     1
102
RTVSPropertyOp29
 70
     1
102
RTVSPropertyOp30
 70
     1
102
RTVSPropertyOp31
 70
     1
102
RTVSPropertyOp32
 70
     1
  0
XRECORD
  5
449
102
{ACAD_REACTORS
330
448
102
}
330
448
100
AcDbXrecord
280
     1
102
RTVSPropertyOp0
 70
     1
102
RTVSPropertyOp1
 70
     1
102
RTVSPropertyOp2
 70
     1
102
RTVSPropertyOp3
 70
     1
102
RTVSPropertyOp4
 70
     1
102
RTVSPropertyOp5
 70
     1
102
RTVSPropertyOp6
 70
     1
102
RTVSPropertyOp7
 70
     1
102
RTVSPropertyOp8
 70
     1
102
RTVSPropertyOp9
 70
     1
102
RTVSPropertyOp10
 70
     1
102
RTVSPropertyOp11
 70
     1
102
RTVSPropertyOp12
 70
     1
102
RTVSPropertyOp13
 70
     1
102
RTVSPropertyOp14
 70
     1
102
RTVSPropertyOp15
 70
     1
102
RTVSPropertyOp16
 70
     1
102
RTVSPropertyOp17
 70
     1
102
RTVSPropertyOp18
 70
     1
102
RTVSPropertyOp19
 70
     1
102
RTVSPropertyOp20
 70
     1
102
RTVSPropertyOp21
 70
     1
102
RTVSPropertyOp22
 70
     1
102
RTVSPropertyOp23
 70
     1
102
RTVSPropertyOp24
 70
     1
102
RTVSPropertyOp25
 70
     1
102
RTVSPropertyOp26
 70
     1
102
RTVSPropertyOp27
 70
     1
102
RTVSPropertyOp28
 70
     1
102
RTVSPropertyOp29
 70
     1
102
RTVSPropertyOp30
 70
     1
102
RTVSPropertyOp31
 70
     1
102
RTVSPropertyOp32
 70
     1
  0
ENDSEC
  0
EOF
