  0
SECTION
  2
HEADER
  9
$ACADVER
  1
AC1015
  9
$ACADMAINTVER
 70
     6
  9
$DWGCODEPAGE
  3
ANSI_949
  9
$INSBASE
 10
0.0
 20
0.0
 30
0.0
  9
$EXTMIN
 10
1.000000000000000E+20
 20
1.000000000000000E+20
 30
1.000000000000000E+20
  9
$EXTMAX
 10
-1.000000000000000E+20
 20
-1.000000000000000E+20
 30
-1.000000000000000E+20
  9
$LIMMIN
 10
0.0
 20
0.0
  9
$LIMMAX
 10
12.0
 20
9.0
  9
$ORTHOMODE
 70
     0
  9
$REGENMODE
 70
     1
  9
$FILLMODE
 70
     1
  9
$QTEXTMODE
 70
     0
  9
$MIRRTEXT
 70
     1
  9
$LTSCALE
 40
1.0
  9
$ATTMODE
 70
     1
  9
$TEXTSIZE
 40
0.2
  9
$TRACEWID
 40
0.05
  9
$TEXTSTYLE
  7
Standard
  9
$CLAYER
  8
0
  9
$CELTYPE
  6
ByLayer
  9
$CECOLOR
 62
   256
  9
$CELTSCALE
 40
1.0
  9
$DISPSILH
 70
     0
  9
$DIMSCALE
 40
1.0
  9
$DIMASZ
 40
0.18
  9
$DIMEXO
 40
0.0625
  9
$DIMDLI
 40
0.38
  9
$DIMRND
 40
0.0
  9
$DIMDLE
 40
0.0
  9
$DIMEXE
 40
0.18
  9
$DIMTP
 40
0.0
  9
$DIMTM
 40
0.0
  9
$DIMTXT
 40
0.18
  9
$DIMCEN
 40
0.09
  9
$DIMTSZ
 40
0.0
  9
$DIMTOL
 70
     0
  9
$DIMLIM
 70
     0
  9
$DIMTIH
 70
     1
  9
$DIMTOH
 70
     1
  9
$DIMSE1
 70
     0
  9
$DIMSE2
 70
     0
  9
$DIMTAD
 70
     0
  9
$DIMZIN
 70
     0
  9
$DIMBLK
  1

  9
$DIMASO
 70
     1
  9
$DIMSHO
 70
     1
  9
$DIMPOST
  1

  9
$DIMAPOST
  1

  9
$DIMALT
 70
     0
  9
$DIMALTD
 70
     2
  9
$DIMALTF
 40
25.4
  9
$DIMLFAC
 40
1.0
  9
$DIMTOFL
 70
     0
  9
$DIMTVP
 40
0.0
  9
$DIMTIX
 70
     0
  9
$DIMSOXD
 70
     0
  9
$DIMSAH
 70
     0
  9
$DIMBLK1
  1

  9
$DIMBLK2
  1

  9
$DIMSTYLE
  2
Standard
  9
$DIMCLRD
 70
     0
  9
$DIMCLRE
 70
     0
  9
$DIMCLRT
 70
     0
  9
$DIMTFAC
 40
1.0
  9
$DIMGAP
 40
0.09
  9
$DIMJUST
 70
     0
  9
$DIMSD1
 70
     0
  9
$DIMSD2
 70
     0
  9
$DIMTOLJ
 70
     1
  9
$DIMTZIN
 70
     0
  9
$DIMALTZ
 70
     0
  9
$DIMALTTZ
 70
     0
  9
$DIMUPT
 70
     0
  9
$DIMDEC
 70
     4
  9
$DIMTDEC
 70
     4
  9
$DIMALTU
 70
     2
  9
$DIMALTTD
 70
     2
  9
$DIMTXSTY
  7
Standard
  9
$DIMAUNIT
 70
     0
  9
$DIMADEC
 70
     0
  9
$DIMALTRND
 40
0.0
  9
$DIMAZIN
 70
     0
  9
$DIMDSEP
 70
    46
  9
$DIMATFIT
 70
     3
  9
$DIMFRAC
 70
     0
  9
$DIMLDRBLK
  1

  9
$DIMLUNIT
 70
     2
  9
$DIMLWD
 70
    -2
  9
$DIMLWE
 70
    -2
  9
$DIMTMOVE
 70
     0
  9
$LUNITS
 70
     2
  9
$LUPREC
 70
     4
  9
$SKETCHINC
 40
0.1
  9
$FILLETRAD
 40
0.5
  9
$AUNITS
 70
     0
  9
$AUPREC
 70
     0
  9
$MENU
  1
.
  9
$ELEVATION
 40
0.0
  9
$PELEVATION
 40
0.0
  9
$THICKNESS
 40
0.0
  9
$LIMCHECK
 70
     0
  9
$CHAMFERA
 40
0.5
  9
$CHAMFERB
 40
0.5
  9
$CHAMFERC
 40
1.0
  9
$CHAMFERD
 40
0.0
  9
$SKPOLY
 70
     0
  9
$TDCREATE
 40
2456522.535040347
  9
$TDUCREATE
 40
2456522.035040347
  9
$TDUPDATE
 40
2456522.535073067
  9
$TDUUPDATE
 40
2456522.035073067
  9
$TDINDWG
 40
0.0000000116
  9
$TDUSRTIMER
 40
0.0000000116
  9
$USRTIMER
 70
     1
  9
$ANGBASE
 50
0.0
  9
$ANGDIR
 70
     0
  9
$PDMODE
 70
     0
  9
$PDSIZE
 40
0.0
  9
$PLINEWID
 40
0.0
  9
$SPLFRAME
 70
     0
  9
$SPLINETYPE
 70
     6
  9
$SPLINESEGS
 70
     8
  9
$HANDSEED
  5
2E2
  9
$SURFTAB1
 70
     6
  9
$SURFTAB2
 70
     6
  9
$SURFTYPE
 70
     6
  9
$SURFU
 70
     6
  9
$SURFV
 70
     6
  9
$UCSBASE
  2

  9
$UCSNAME
  2

  9
$UCSORG
 10
0.0
 20
0.0
 30
0.0
  9
$UCSXDIR
 10
1.0
 20
0.0
 30
0.0
  9
$UCSYDIR
 10
0.0
 20
1.0
 30
0.0
  9
$UCSORTHOREF
  2

  9
$UCSORTHOVIEW
 70
     0
  9
$UCSORGTOP
 10
0.0
 20
0.0
 30
0.0
  9
$UCSORGBOTTOM
 10
0.0
 20
0.0
 30
0.0
  9
$UCSORGLEFT
 10
0.0
 20
0.0
 30
0.0
  9
$UCSORGRIGHT
 10
0.0
 20
0.0
 30
0.0
  9
$UCSORGFRONT
 10
0.0
 20
0.0
 30
0.0
  9
$UCSORGBACK
 10
0.0
 20
0.0
 30
0.0
  9
$PUCSBASE
  2

  9
$PUCSNAME
  2

  9
$PUCSORG
 10
0.0
 20
0.0
 30
0.0
  9
$PUCSXDIR
 10
1.0
 20
0.0
 30
0.0
  9
$PUCSYDIR
 10
0.0
 20
1.0
 30
0.0
  9
$PUCSORTHOREF
  2

  9
$PUCSORTHOVIEW
 70
     0
  9
$PUCSORGTOP
 10
0.0
 20
0.0
 30
0.0
  9
$PUCSORGBOTTOM
 10
0.0
 20
0.0
 30
0.0
  9
$PUCSORGLEFT
 10
0.0
 20
0.0
 30
0.0
  9
$PUCSORGRIGHT
 10
0.0
 20
0.0
 30
0.0
  9
$PUCSORGFRONT
 10
0.0
 20
0.0
 30
0.0
  9
$PUCSORGBACK
 10
0.0
 20
0.0
 30
0.0
  9
$USERI1
 70
     0
  9
$USERI2
 70
     0
  9
$USERI3
 70
     0
  9
$USERI4
 70
     0
  9
$USERI5
 70
     0
  9
$USERR1
 40
0.0
  9
$USERR2
 40
0.0
  9
$USERR3
 40
0.0
  9
$USERR4
 40
0.0
  9
$USERR5
 40
0.0
  9
$WORLDVIEW
 70
     1
  9
$SHADEDGE
 70
     3
  9
$SHADEDIF
 70
    70
  9
$TILEMODE
 70
     1
  9
$MAXACTVP
 70
    64
  9
$PINSBASE
 10
0.0
 20
0.0
 30
0.0
  9
$PLIMCHECK
 70
     0
  9
$PEXTMIN
 10
1.000000000000000E+20
 20
1.000000000000000E+20
 30
1.000000000000000E+20
  9
$PEXTMAX
 10
-1.000000000000000E+20
 20
-1.000000000000000E+20
 30
-1.000000000000000E+20
  9
$PLIMMIN
 10
0.0
 20
0.0
  9
$PLIMMAX
 10
12.0
 20
9.0
  9
$UNITMODE
 70
     0
  9
$VISRETAIN
 70
     1
  9
$PLINEGEN
 70
     0
  9
$PSLTSCALE
 70
     1
  9
$TREEDEPTH
 70
  3020
  9
$CMLSTYLE
  2
Standard
  9
$CMLJUST
 70
     0
  9
$CMLSCALE
 40
1.0
  9
$PROXYGRAPHICS
 70
     1
  9
$MEASUREMENT
 70
     0
  9
$CELWEIGHT
370
    -1
  9
$ENDCAPS
280
     0
  9
$JOINSTYLE
280
     0
  9
$LWDISPLAY
290
     1
  9
$INSUNITS
 70
     4
  9
$HYPERLINKBASE
  1

  9
$STYLESHEET
  1

  9
$XEDIT
290
     1
  9
$CEPSNTYPE
380
     0
  9
$PSTYLEMODE
290
     1
  9
$FINGERPRINTGUID
  2
{385A11C0-51FA-482B-B530-2D1108B842AA}
  9
$VERSIONGUID
  2
{FAEB1C32-E019-11D5-929B-00C0DF256EC4}
  9
$EXTNAMES
290
     1
  9
$PSVPSCALE
 40
0.0
  9
$OLESTARTUP
290
     0
  0
ENDSEC
  0
SECTION
  2
CLASSES
  0
CLASS
  1
ACDBDICTIONARYWDFLT
  2
AcDbDictionaryWithDefault
  3
ObjectDBX Classes
 90
        0
280
     0
281
     0
  0
CLASS
  1
VISUALSTYLE
  2
AcDbVisualStyle
  3
ObjectDBX Classes
 90
     4095
280
     0
281
     0
  0
CLASS
  1
MATERIAL
  2
AcDbMaterial
  3
ObjectDBX Classes
 90
     1153
280
     0
281
     0
  0
CLASS
  1
SPATIAL_FILTER
  2
AcDbSpatialFilter
  3
ObjectDBX Classes
 90
        0
280
     0
281
     0
  0
CLASS
  1
SCALE
  2
AcDbScale
  3
ObjectDBX Classes
 90
     1153
280
     0
281
     0
  0
CLASS
  1
DICTIONARYVAR
  2
AcDbDictionaryVar
  3
ObjectDBX Classes
 90
        0
280
     0
281
     0
  0
CLASS
  1
ACDBPLACEHOLDER
  2
AcDbPlaceHolder
  3
ObjectDBX Classes
 90
        0
280
     0
281
     0
  0
CLASS
  1
LAYOUT
  2
AcDbLayout
  3
ObjectDBX Classes
 90
        0
280
     0
281
     0
  0
ENDSEC
  0
SECTION
  2
TABLES
  0
TABLE
  2
VPORT
  5
8
330
0
100
AcDbSymbolTable
 70
     1
  0
VPORT
  5
29
330
8
100
AcDbSymbolTableRecord
100
AcDbViewportTableRecord
  2
*Active
 70
     0
 10
0.0
 20
0.0
 11
1.0
 21
1.0
 12
148.6203422501967
 22
97.79696374944321
 13
0.0
 23
0.0
 14
0.5
 24
0.5
 15
0.5
 25
0.5
 16
0.0
 26
0.0
 36
1.0
 17
0.0
 27
0.0
 37
0.0
 40
195.3708939354756
 41
1.478754032228925
 42
50.0
 43
0.0
 44
0.0
 50
0.0
 51
0.0
 71
     0
 72
   100
 73
     1
 74
     3
 75
     0
 76
     0
 77
     0
 78
     0
281
     0
 65
     1
110
0.0
120
0.0
130
0.0
111
1.0
121
0.0
131
0.0
112
0.0
122
1.0
132
0.0
 79
     0
146
0.0
  0
ENDTAB
  0
TABLE
  2
LTYPE
  5
5
330
0
100
AcDbSymbolTable
 70
     2
  0
LTYPE
  5
14
330
5
100
AcDbSymbolTableRecord
100
AcDbLinetypeTableRecord
  2
ByBlock
 70
     0
  3

 72
    65
 73
     0
 40
0.0
  0
LTYPE
  5
15
330
5
100
AcDbSymbolTableRecord
100
AcDbLinetypeTableRecord
  2
ByLayer
 70
     0
  3

 72
    65
 73
     0
 40
0.0
  0
LTYPE
  5
16
330
5
100
AcDbSymbolTableRecord
100
AcDbLinetypeTableRecord
  2
Continuous
 70
     0
  3
Solid line
 72
    65
 73
     0
 40
0.0
  0
LTYPE
  5
1DF
330
5
100
AcDbSymbolTableRecord
100
AcDbLinetypeTableRecord
  2
Contour Line
 70
     0
  3
- - - - - 
 72
    65
 73
     2
 40
2.0
 49
1.0
 74
     0
 49
-1.0
 74
     0
  0
ENDTAB
  0
TABLE
  2
LAYER
  5
2
330
0
100
AcDbSymbolTable
 70
     5
  0
LAYER
  5
10
330
2
100
AcDbSymbolTableRecord
100
AcDbLayerTableRecord
  2
0
 70
     0
 62
     7
  6
Continuous
370
    -3
390
F
  0
LAYER
  5
40
330
2
100
AcDbSymbolTableRecord
100
AcDbLayerTableRecord
  2
Doc_ Finishes
 70
     0
 62
     7
  6
Continuous
370
    -3
390
F
  0
LAYER
  5
DB
330
2
100
AcDbSymbolTableRecord
100
AcDbLayerTableRecord
  2
Doc_ Floor
 70
     0
 62
     7
  6
Continuous
370
    -3
390
F
  0
LAYER
  5
E7
330
2
100
AcDbSymbolTableRecord
100
AcDbLayerTableRecord
  2
Des_ Roofs
 70
     0
 62
     7
  6
Continuous
370
    -3
390
F
  0
LAYER
  5
12C
330
2
100
AcDbSymbolTableRecord
100
AcDbLayerTableRecord
  2
Des_ Roof Beams
 70
     0
 62
     7
  6
Continuous
370
    -3
390
F
  0
ENDTAB
  0
TABLE
  2
STYLE
  5
3
330
0
100
AcDbSymbolTable
 70
     4
  0
STYLE
  5
11
330
3
100
AcDbSymbolTableRecord
100
AcDbTextStyleTableRecord
  2
Standard
 70
     0
 40
0.0
 41
1.0
 50
0.0
 71
     0
 42
0.2
  3
txt
  4

  0
STYLE
  5
D6
330
3
100
AcDbSymbolTableRecord
100
AcDbTextStyleTableRecord
  2
GENERATED_STYLE_1
 70
     0
 40
0.0
 41
1.0
 50
0.0
 71
     0
 42
0.2
  3

  4

1001
ACAD
1000
Century Gothic
1071
       34
  0
STYLE
  5
D9
330
3
100
AcDbSymbolTableRecord
100
AcDbTextStyleTableRecord
  2
GENERATED_STYLE_2
 70
     0
 40
0.0
 41
1.0
 50
0.0
 71
     0
 42
0.2
  3

  4

1001
ACAD
1000
DilleniaUPC
1071
 33554450
  0
STYLE
  5
1E3
330
3
100
AcDbSymbolTableRecord
100
AcDbTextStyleTableRecord
  2
GENERATED_STYLE_3
 70
     0
 40
0.0
 41
1.0
 50
0.0
 71
     0
 42
0.2
  3

  4

1001
ACAD
1000
Arial
1071
       34
  0
ENDTAB
  0
TABLE
  2
VIEW
  5
6
330
0
100
AcDbSymbolTable
 70
     0
  0
ENDTAB
  0
TABLE
  2
UCS
  5
7
330
0
100
AcDbSymbolTable
 70
     0
  0
ENDTAB
  0
TABLE
  2
APPID
  5
9
330
0
100
AcDbSymbolTable
 70
     1
  0
APPID
  5
12
330
9
100
AcDbSymbolTableRecord
100
AcDbRegAppTableRecord
  2
ACAD
 70
     0
  0
ENDTAB
  0
TABLE
  2
DIMSTYLE
  5
A
330
0
100
AcDbSymbolTable
 70
     1
100
AcDbDimStyleTable
  0
DIMSTYLE
105
27
330
A
100
AcDbSymbolTableRecord
100
AcDbDimStyleTableRecord
  2
Standard
 70
     0
178
     0
340
11
  0
ENDTAB
  0
TABLE
  2
BLOCK_RECORD
  5
1
330
0
100
AcDbSymbolTable
 70
     3
  0
BLOCK_RECORD
  5
1F
330
1
100
AcDbSymbolTableRecord
100
AcDbBlockTableRecord
  2
*Model_Space
340
22
  0
BLOCK_RECORD
  5
1B
330
1
100
AcDbSymbolTableRecord
100
AcDbBlockTableRecord
  2
*Paper_Space
340
1E
  0
BLOCK_RECORD
  5
E3
330
1
100
AcDbSymbolTableRecord
100
AcDbBlockTableRecord
  2
Drawing_1_2
340
0
102
{BLKREFS
331
285
102
}
  0
BLOCK_RECORD
  5
28C
330
1
100
AcDbSymbolTableRecord
100
AcDbBlockTableRecord
  2
R-TRSC-10 APRON DETAIL - KICKOU_STORY_MARKER
340
0
  0
ENDTAB
  0
ENDSEC
  0
SECTION
  2
BLOCKS
  0
BLOCK
  5
20
330
1F
100
AcDbEntity
  8
0
100
AcDbBlockBegin
  2
*Model_Space
 70
     0
 10
0.0
 20
0.0
 30
0.0
  3
*Model_Space
  1

  0
ENDBLK
  5
21
330
1F
100
AcDbEntity
  8
0
100
AcDbBlockEnd
  0
BLOCK
  5
1C
330
1B
100
AcDbEntity
 67
     1
  8
0
100
AcDbBlockBegin
  2
*Paper_Space
 70
     0
 10
0.0
 20
0.0
 30
0.0
  3
*Paper_Space
  1

  0
ENDBLK
  5
1D
330
1B
100
AcDbEntity
 67
     1
  8
0
100
AcDbBlockEnd
  0
BLOCK
  5
E4
330
E3
100
AcDbEntity
  8
0
100
AcDbBlockBegin
  2
Drawing_1_2
 70
     0
 10
180.1182711515631
 20
104.2792165591143
 30
0.0
  3
Drawing_1_2
  1

  0
HATCH
  5
E6
330
E3
100
AcDbEntity
  8
Des_ Roofs
  6
Continuous
 62
   255
 48
0.999999999999998
370
    18
100
AcDbHatch
 10
0.0
 20
0.0
 30
0.0
210
0.0
220
0.0
230
1.0
  2
SOLID
 70
     1
 71
     0
 91
        1
 92
        3
 72
     0
 73
     1
 93
        3
 10
191.461931168265
 20
71.48374816235156
 10
193.7734083393828
 20
74.34191296309184
 10
191.4913817502012
 20
74.81804319680246
 97
        0
 75
     0
 76
     1
 98
        0
  0
HATCH
  5
E8
330
E3
100
AcDbEntity
  8
Des_ Roofs
  6
Continuous
 62
   255
 48
0.999999999999998
370
    18
100
AcDbHatch
 10
0.0
 20
0.0
 30
0.0
210
0.0
220
0.0
230
1.0
  2
SOLID
 70
     1
 71
     0
 91
        1
 92
        3
 72
     0
 73
     1
 93
        4
 10
230.0615953016971
 20
126.1587844863582
 10
198.4535773703163
 20
88.15566084048469
 10
199.6983394402256
 20
81.66815176615304
 10
235.2180795083049
 20
125.588670331534
 97
        0
 75
     0
 76
     1
 98
        0
  0
HATCH
  5
E9
330
E3
100
AcDbEntity
  8
Des_ Roofs
  6
Continuous
 62
   255
 48
0.999999999999998
370
    18
100
AcDbHatch
 10
0.0
 20
0.0
 30
0.0
210
0.0
220
0.0
230
1.0
  2
SOLID
 70
     1
 71
     0
 91
        1
 92
        3
 72
     0
 73
     1
 93
        4
 10
191.3171708983521
 20
55.09478773105239
 10
234.64084583729
 20
111.5676419038354
 10
235.2180793097499
 20
125.5886698937156
 10
191.4619301685681
 20
71.48374871946656
 97
        0
 75
     0
 76
     1
 98
        0
  0
HATCH
  5
EA
330
E3
100
AcDbEntity
  8
Des_ Roofs
  6
Continuous
 62
   255
 48
0.999999999999998
370
    18
100
AcDbHatch
 10
0.0
 20
0.0
 30
0.0
210
0.0
220
0.0
230
1.0
  2
SOLID
 70
     1
 71
     0
 91
        1
 92
        3
 72
     0
 73
     1
 93
        6
 10
113.3715790972052
 20
93.85922569630597
 10
132.3942635067658
 20
89.99697383783544
 10
132.4388506393618
 20
88.77982198472988
 10
133.0979130389703
 20
88.64444212267672
 10
133.0223860783382
 20
90.7348791979627
 10
113.9400777509494
 20
94.57675739557449
 97
        0
 75
     0
 76
     1
 98
        0
  0
HATCH
  5
EB
330
E3
100
AcDbEntity
  8
Des_ Roofs
  6
Continuous
 62
   255
 48
0.999999999999998
370
    18
100
AcDbHatch
 10
0.0
 20
0.0
 30
0.0
210
0.0
220
0.0
230
1.0
  2
SOLID
 70
     1
 71
     0
 91
        1
 92
        3
 72
     0
 73
     1
 93
        4
 10
170.4895647744402
 20
143.4353460434933
 10
113.9400778808196
 20
94.57675765749913
 10
133.0223859482319
 20
90.73487909176981
 10
187.8868738951222
 20
141.8525213363147
 97
        0
 75
     0
 76
     1
 98
        0
  0
HATCH
  5
EC
330
E3
100
AcDbEntity
  8
Des_ Roofs
  6
Continuous
 62
   255
 48
0.999999999999998
370
    18
100
AcDbHatch
 10
0.0
 20
0.0
 30
0.0
210
0.0
220
0.0
230
1.0
  2
SOLID
 70
     1
 71
     0
 91
        1
 92
        3
 72
     0
 73
     1
 93
        4
 10
133.0223861960721
 20
90.73487945346642
 10
133.0979126717625
 20
88.64444212267672
 10
187.8766894475142
 20
140.0765724301474
 10
187.8868744276418
 20
141.8525221336587
 97
        0
 75
     0
 76
     1
 98
        0
  0
HATCH
  5
ED
330
E3
100
AcDbEntity
  8
Des_ Roofs
  6
Continuous
 62
   255
 48
0.999999999999998
370
    18
100
AcDbHatch
 10
0.0
 20
0.0
 30
0.0
210
0.0
220
0.0
230
1.0
  2
SOLID
 70
     1
 71
     0
 91
        1
 92
        3
 72
     0
 73
     1
 93
        4
 10
169.7211307722144
 20
171.0391108546294
 10
111.6729426602465
 20
127.1120927337149
 10
112.297437983709
 20
127.0274871783313
 10
170.2937539174397
 20
171.0159337752435
 97
        0
 75
     0
 76
     1
 98
        0
  0
HATCH
  5
EE
330
E3
100
AcDbEntity
  8
Des_ Roofs
  6
Continuous
 62
   255
 48
0.999999999999998
370
    18
100
AcDbHatch
 10
0.0
 20
0.0
 30
0.0
210
0.0
220
0.0
230
1.0
  2
SOLID
 70
     1
 71
     0
 91
        1
 92
        3
 72
     0
 73
     1
 93
        4
 10
113.3715790972052
 20
93.85922576669702
 10
113.9400778808196
 20
94.57675743822696
 10
112.2974372569931
 20
127.0274878125259
 10
111.6729426602465
 20
127.1120922948019
 97
        0
 75
     0
 76
     1
 98
        0
  0
HATCH
  5
EF
330
E3
100
AcDbEntity
  8
Des_ Roofs
  6
Continuous
 62
   255
 48
0.999999999999998
370
    18
100
AcDbHatch
 10
0.0
 20
0.0
 30
0.0
210
0.0
220
0.0
230
1.0
  2
SOLID
 70
     1
 71
     0
 91
        1
 92
        3
 72
     0
 73
     1
 93
        4
 10
170.2937533100984
 20
171.0159334552602
 10
112.2974372569931
 20
127.0274876167244
 10
113.9400774415794
 20
94.57675708178157
 10
170.4895645719651
 20
143.4353471350213
 97
        0
 75
     0
 76
     1
 98
        0
  0
HATCH
  5
F0
330
E3
100
AcDbEntity
  8
Des_ Roofs
  6
Continuous
 62
   255
 48
0.999999999999998
370
    18
100
AcDbHatch
 10
0.0
 20
0.0
 30
0.0
210
0.0
220
0.0
230
1.0
  2
SOLID
 70
     1
 71
     0
 91
        1
 92
        3
 72
     0
 73
     1
 93
        7
 10
177.4071710972295
 20
58.02867281072705
 10
118.5326768200705
 20
72.41335120692112
 10
118.705260867574
 20
68.81177999434634
 10
189.6169753388166
 20
50.97528473172169
 10
189.7919262423354
 20
74.25185785093346
 10
189.5070795275525
 20
74.311753430681
 10
189.4404199851232
 20
65.17354003400227
 97
        0
 75
     0
 76
     1
 98
        0
  0
HATCH
  5
F1
330
E3
100
AcDbEntity
  8
Des_ Roofs
  6
Continuous
 62
   255
 48
0.999999999999998
370
    18
100
AcDbHatch
 10
0.0
 20
0.0
 30
0.0
210
0.0
220
0.0
230
1.0
  2
SOLID
 70
     1
 71
     0
 91
        1
 92
        3
 72
     0
 73
     1
 93
        4
 10
189.5070789297743
 20
74.31175360712301
 10
189.7919270861796
 20
74.2518577883235
 10
191.4946907623927
 20
75.19268142727901
 10
189.5165062150095
 20
75.60410706384486
 97
        0
 75
     0
 76
     1
 98
        0
  0
HATCH
  5
F2
330
E3
100
AcDbEntity
  8
Des_ Roofs
  6
Continuous
 62
   255
 48
0.999999999999998
370
    18
100
AcDbHatch
 10
0.0
 20
0.0
 30
0.0
210
0.0
220
0.0
230
1.0
  2
SOLID
 70
     1
 71
     0
 91
        1
 92
        3
 72
     0
 73
     1
 93
        4
 10
176.0818269285747
 20
72.45133954332437
 10
101.5931871929255
 20
88.74679411519513
 10
101.7118151787196
 20
86.78054787774178
 10
176.0888758941835
 20
70.20705657057044
 97
        0
 75
     0
 76
     1
 98
        0
  0
HATCH
  5
F3
330
E3
100
AcDbEntity
  8
Des_ Roofs
  6
Continuous
 62
   255
 48
0.999999999999998
370
    18
100
AcDbHatch
 10
0.0
 20
0.0
 30
0.0
210
0.0
220
0.0
230
1.0
  2
SOLID
 70
     1
 71
     0
 91
        1
 92
        3
 72
     0
 73
     1
 93
        4
 10
103.0768966182253
 20
89.25728957798613
 10
101.5931871929255
 20
88.74679300646027
 10
176.0818270583827
 20
72.45134070588728
 10
177.374948326584
 20
73.13319000608574
 97
        0
 75
     0
 76
     1
 98
        0
  0
HATCH
  5
F4
330
E3
100
AcDbEntity
  8
Des_ Roofs
  6
Continuous
 62
   255
 48
0.999999999999998
370
    18
100
AcDbHatch
 10
0.0
 20
0.0
 30
0.0
210
0.0
220
0.0
230
1.0
  2
SOLID
 70
     1
 71
     0
 91
        1
 92
        3
 72
     0
 73
     1
 93
        3
 10
177.3797116873064
 20
70.90038386960512
 10
176.0857999489271
 20
71.18641121535475
 10
176.0888760977817
 20
70.20705638171846
 97
        0
 75
     0
 76
     1
 98
        0
  0
HATCH
  5
F5
330
E3
100
AcDbEntity
  8
Des_ Roofs
  6
Continuous
 62
   255
 48
0.999999999999998
370
    18
100
AcDbHatch
 10
0.0
 20
0.0
 30
0.0
210
0.0
220
0.0
230
1.0
  2
SOLID
 70
     1
 71
     0
 91
        1
 92
        3
 72
     0
 73
     1
 93
        5
 10
103.2436396474554
 20
86.43921071636092
 10
103.8614436349618
 20
75.99794139671734
 10
177.407171578803
 20
58.02867154200428
 10
177.3797114626718
 20
70.90038437427238
 10
176.0888760309805
 20
70.20705622641455
 97
        0
 75
     0
 76
     1
 98
        0
  0
HATCH
  5
F6
330
E3
100
AcDbEntity
  8
Des_ Roofs
  6
Continuous
 62
   255
 48
0.999999999999998
370
    18
100
AcDbHatch
 10
0.0
 20
0.0
 30
0.0
210
0.0
220
0.0
230
1.0
  2
SOLID
 70
     1
 71
     0
 91
        1
 92
        3
 72
     0
 73
     1
 93
        3
 10
189.4404197940059
 20
65.1735397567203
 10
177.3861046994143
 20
67.90353601133863
 10
177.4071709392263
 20
58.02867323126419
 97
        0
 75
     0
 76
     1
 98
        0
  0
HATCH
  5
F7
330
E3
100
AcDbEntity
  8
Des_ Roofs
  6
Continuous
 62
   255
 48
0.999999999999998
370
    18
100
AcDbHatch
 10
0.0
 20
0.0
 30
0.0
210
0.0
220
0.0
230
1.0
  2
SOLID
 70
     1
 71
     0
 91
        1
 92
        3
 72
     0
 73
     1
 93
       10
 10
117.3686717669599
 20
89.62051120451477
 10
117.5373690266339
 20
86.11908982557931
 10
177.3749481185734
 20
73.13319013720971
 10
176.0818268373392
 20
72.45133969785188
 10
176.0858000177026
 20
71.18641025498523
 10
177.379711633867
 20
70.90038320495832
 10
177.3861052821595
 20
67.90353637703576
 10
189.4404194460824
 20
65.17353995540503
 10
189.5297993373321
 20
77.42637335036822
 10
187.434752622201
 20
74.90744796881228
 97
        0
 75
     0
 76
     1
 98
        0
  0
HATCH
  5
F8
330
E3
100
AcDbEntity
  8
Des_ Roofs
  6
Continuous
 62
   255
 48
0.999999999999998
370
    18
100
AcDbHatch
 10
0.0
 20
0.0
 30
0.0
210
0.0
220
0.0
230
1.0
  2
SOLID
 70
     1
 71
     0
 91
        1
 92
        3
 72
     0
 73
     1
 93
        6
 10
189.529798688021
 20
77.42637425130324
 10
189.5165062206133
 20
75.60410741918139
 10
191.4946907296534
 20
75.19268091245482
 10
191.4913815497116
 20
74.8180438346473
 10
193.7734076469175
 20
74.34191349445489
 10
192.4226659538993
 20
80.9045422388313
 97
        0
 75
     0
 76
     1
 98
        0
  0
HATCH
  5
F9
330
E3
100
AcDbEntity
  8
Des_ Roofs
  6
Continuous
 62
   255
 48
0.999999999999998
370
    18
100
AcDbHatch
 10
0.0
 20
0.0
 30
0.0
210
0.0
220
0.0
230
1.0
  2
SOLID
 70
     1
 71
     0
 91
        1
 92
        3
 72
     0
 73
     1
 93
        4
 10
114.2113242450669
 20
92.06944138858604
 10
116.6927263909308
 20
90.05586637976707
 10
119.5665155510532
 20
92.60144299491412
 10
115.716763906096
 20
93.38307343561102
 97
        0
 75
     0
 76
     1
 98
        0
  0
HATCH
  5
FA
330
E3
100
AcDbEntity
  8
Des_ Roofs
  6
Continuous
 62
   255
 48
0.999999999999998
370
    18
100
AcDbHatch
 10
0.0
 20
0.0
 30
0.0
210
0.0
220
0.0
230
1.0
  2
SOLID
 70
     1
 71
     0
 91
        1
 92
        3
 72
     0
 73
     1
 93
       44
 10
114.21132432716
 20
92.0694415246846
 10
114.8768325556947
 20
90.14376840141314
 10
187.4347527753092
 20
74.9074473434346
 10
186.860386486456
 20
77.54634316079581
 10
185.5402331718302
 20
77.53921926997468
 10
183.2028932132227
 20
76.12915806690317
 10
181.6244369355456
 20
76.2683319866487
 10
179.9637269422074
 20
76.80741488486268
 10
176.782965882997
 20
79.34327015182025
 10
175.1064663623081
 20
80.01535016690973
 10
173.6032370187195
 20
79.99831349494139
 10
171.4167862832342
 20
78.5970772312115
 10
169.9094554377929
 20
78.72538146182235
 10
168.312477480427
 20
79.24709380683178
 10
165.211905747012
 20
81.72698141323187
 10
163.595856187921
 20
82.37977487691154
 10
162.1636704429319
 20
82.35493454938296
 10
160.1177247876764
 20
80.96300986235205
 10
158.6770545312728
 20
81.08121800447033
 10
157.1400235314201
 20
81.58651888649295
 10
154.115808036275
 20
84.01284474124361
 10
152.5567081413774
 20
84.64735766168278
 10
151.1910695094502
 20
84.61535743653305
 10
149.2761307770347
 20
83.23315567661308
 10
147.8980174255857
 20
83.34196604393543
 10
146.4174461792236
 20
83.8317436307042
 10
143.4660124291135
 20
86.20676852439838
 10
141.960637953138
 20
86.82392616724509
 10
140.6574165634261
 20
86.78535633777096
 10
138.8647743815998
 20
85.41321356842842
 10
137.5454394033374
 20
85.51327101000913
 10
136.1181091207703
 20
85.98834363788735
 10
133.2361226677936
 20
88.31418760726352
 10
131.7814937752627
 20
88.91485086237192
 10
130.536889273695
 20
88.87024716611255
 10
128.8585403128251
 20
87.50844053059582
 10
127.5945030504173
 20
87.60033643084677
 10
126.2174382606285
 20
88.06146569820982
 10
123.4017894266047
 20
90.34012111953379
 10
121.9951455961863
 20
90.92509195653994
 10
120.805648956437
 20
90.87494212196782
 10
119.23423582706
 20
89.5236942077677
 10
118.0222774908114
 20
89.60797303314922
 10
116.6927264013897
 20
90.055865982615
 97
        0
 75
     0
 76
     1
 98
        0
  0
HATCH
  5
FB
330
E3
100
AcDbEntity
  8
Des_ Roofs
  6
Continuous
 62
   255
 48
0.999999999999998
370
    18
100
AcDbHatch
 10
0.0
 20
0.0
 30
0.0
210
0.0
220
0.0
230
1.0
  2
SOLID
 70
     1
 71
     0
 91
        1
 92
        3
 72
     0
 73
     1
 93
        4
 10
119.5665160099772
 20
92.60144285139658
 10
116.6927264062316
 20
90.05586602999726
 10
118.0222770577192
 20
89.6079738740049
 10
121.0451811601456
 20
92.3012236439241
 97
        0
 75
     0
 76
     1
 98
        0
  0
HATCH
  5
FC
330
E3
100
AcDbEntity
  8
Des_ Roofs
  6
Continuous
 62
   255
 48
0.999999999999998
370
    18
100
AcDbHatch
 10
0.0
 20
0.0
 30
0.0
210
0.0
220
0.0
230
1.0
  2
SOLID
 70
     1
 71
     0
 91
        1
 92
        3
 72
     0
 73
     1
 93
        4
 10
121.0451819314158
 20
92.30122340923575
 10
118.022277705724
 20
89.60797352949348
 10
119.2342350408656
 20
89.52369440742766
 10
122.0995400126333
 20
92.08715297242841
 97
        0
 75
     0
 76
     1
 98
        0
  0
HATCH
  5
FD
330
E3
100
AcDbEntity
  8
Des_ Roofs
  6
Continuous
 62
   255
 48
0.999999999999998
370
    18
100
AcDbHatch
 10
0.0
 20
0.0
 30
0.0
210
0.0
220
0.0
230
1.0
  2
SOLID
 70
     1
 71
     0
 91
        1
 92
        3
 72
     0
 73
     1
 93
        4
 10
122.0995406378585
 20
92.08715285874831
 10
119.2342353034248
 20
89.52369392100043
 10
120.8056492066707
 20
90.874942547965
 10
122.1490896278571
 20
92.07709271783722
 97
        0
 75
     0
 76
     1
 98
        0
  0
HATCH
  5
FE
330
E3
100
AcDbEntity
  8
Des_ Roofs
  6
Continuous
 62
   255
 48
0.999999999999998
370
    18
100
AcDbHatch
 10
0.0
 20
0.0
 30
0.0
210
0.0
220
0.0
230
1.0
  2
SOLID
 70
     1
 71
     0
 91
        1
 92
        3
 72
     0
 73
     1
 93
        4
 10
122.1490895457387
 20
92.07709257658307
 10
120.8056490669664
 20
90.8749423551812
 10
121.9951448149684
 20
90.92509271897495
 10
123.0697354876771
 20
91.89017003511682
 97
        0
 75
     0
 76
     1
 98
        0
  0
HATCH
  5
FF
330
E3
100
AcDbEntity
  8
Des_ Roofs
  6
Continuous
 62
   255
 48
0.999999999999998
370
    18
100
AcDbHatch
 10
0.0
 20
0.0
 30
0.0
210
0.0
220
0.0
230
1.0
  2
SOLID
 70
     1
 71
     0
 91
        1
 92
        3
 72
     0
 73
     1
 93
        4
 10
123.0697365062649
 20
91.89016995603201
 10
121.9951449563326
 20
90.92509221700341
 10
123.4017894543756
 20
90.34012123778939
 10
124.7410074480685
 20
91.55084508626422
 97
        0
 75
     0
 76
     1
 98
        0
  0
HATCH
  5
100
330
E3
100
AcDbEntity
  8
Des_ Roofs
  6
Continuous
 62
   255
 48
0.999999999999998
370
    18
100
AcDbHatch
 10
0.0
 20
0.0
 30
0.0
210
0.0
220
0.0
230
1.0
  2
SOLID
 70
     1
 71
     0
 91
        1
 92
        3
 72
     0
 73
     1
 93
        5
 10
123.4017891265278
 20
90.34012167382868
 10
126.2174382514774
 20
88.06146652537977
 10
129.0582081695295
 20
90.67430656112397
 10
126.4539472835492
 20
91.20306005752036
 10
124.741006714673
 20
91.55084533463044
 97
        0
 75
     0
 76
     1
 98
        0
  0
HATCH
  5
101
330
E3
100
AcDbEntity
  8
Des_ Roofs
  6
Continuous
 62
   255
 48
0.999999999999998
370
    18
100
AcDbHatch
 10
0.0
 20
0.0
 30
0.0
210
0.0
220
0.0
230
1.0
  2
SOLID
 70
     1
 71
     0
 91
        1
 92
        3
 72
     0
 73
     1
 93
        4
 10
129.0582083380473
 20
90.67430639676704
 10
126.2174384743272
 20
88.06146603969364
 10
127.5945032880474
 20
87.60033683024648
 10
130.5819178640871
 20
90.36494155756284
 97
        0
 75
     0
 76
     1
 98
        0
  0
HATCH
  5
102
330
E3
100
AcDbEntity
  8
Des_ Roofs
  6
Continuous
 62
   255
 48
0.999999999999998
370
    18
100
AcDbHatch
 10
0.0
 20
0.0
 30
0.0
210
0.0
220
0.0
230
1.0
  2
SOLID
 70
     1
 71
     0
 91
        1
 92
        3
 72
     0
 73
     1
 93
        4
 10
127.5945027657079
 20
87.60033680720646
 10
128.8585406343603
 20
87.50844016453443
 10
131.6895639572745
 20
90.14005173009411
 10
130.5819175506834
 20
90.36494163899071
 97
        0
 75
     0
 76
     1
 98
        0
  0
HATCH
  5
103
330
E3
100
AcDbEntity
  8
Des_ Roofs
  6
Continuous
 62
   255
 48
0.999999999999998
370
    18
100
AcDbHatch
 10
0.0
 20
0.0
 30
0.0
210
0.0
220
0.0
230
1.0
  2
SOLID
 70
     1
 71
     0
 91
        1
 92
        3
 72
     0
 73
     1
 93
        4
 10
128.8585400075529
 20
87.50844049774146
 10
130.5368889789646
 20
88.87024705872835
 10
131.8639001823381
 20
90.1046555076712
 10
131.6895632461757
 20
90.14005185850073
 97
        0
 75
     0
 76
     1
 98
        0
  0
HATCH
  5
104
330
E3
100
AcDbEntity
  8
Des_ Roofs
  6
Continuous
 62
   255
 48
0.999999999999998
370
    18
100
AcDbHatch
 10
0.0
 20
0.0
 30
0.0
210
0.0
220
0.0
230
1.0
  2
SOLID
 70
     1
 71
     0
 91
        1
 92
        3
 72
     0
 73
     1
 93
        5
 10
130.53688899316
 20
88.87024709849153
 10
131.7814943944159
 20
88.9148511706361
 10
132.4123227955138
 20
89.50398773118661
 10
132.3942635939009
 20
89.99697373307045
 10
131.8639001072673
 20
90.10465554576413
 97
        0
 75
     0
 76
     1
 98
        0
  0
HATCH
  5
105
330
E3
100
AcDbEntity
  8
Des_ Roofs
  6
Continuous
 62
   255
 48
0.999999999999998
370
    18
100
AcDbHatch
 10
0.0
 20
0.0
 30
0.0
210
0.0
220
0.0
230
1.0
  2
SOLID
 70
     1
 71
     0
 91
        1
 92
        3
 72
     0
 73
     1
 93
        7
 10
131.7814944135986
 20
88.91485161387487
 10
133.2361235523523
 20
88.31418807930297
 10
187.9085153076512
 20
139.7302620175811
 10
187.6220934381432
 20
139.8375300240391
 10
133.0979127873885
 20
88.64444182944386
 10
132.4388505147386
 20
88.77982235696186
 10
132.4123228931939
 20
89.50398761809333
 97
        0
 75
     0
 76
     1
 98
        0
  0
HATCH
  5
106
330
E3
100
AcDbEntity
  8
Des_ Roofs
  6
Continuous
 62
   255
 48
0.999999999999998
370
    18
100
AcDbHatch
 10
0.0
 20
0.0
 30
0.0
210
0.0
220
0.0
230
1.0
  2
SOLID
 70
     1
 71
     0
 91
        1
 92
        3
 72
     0
 73
     1
 93
        4
 10
187.9085155022319
 20
139.7302638544924
 10
133.2361235366858
 20
88.3141877439437
 10
136.1181088548664
 20
85.98834328283458
 10
189.9852975828092
 20
137.5601640331193
 97
        0
 75
     0
 76
     1
 98
        0
  0
HATCH
  5
107
330
E3
100
AcDbEntity
  8
Des_ Roofs
  6
Continuous
 62
   255
 48
0.999999999999998
370
    18
100
AcDbHatch
 10
0.0
 20
0.0
 30
0.0
210
0.0
220
0.0
230
1.0
  2
SOLID
 70
     1
 71
     0
 91
        1
 92
        3
 72
     0
 73
     1
 93
        4
 10
136.1181088357444
 20
85.98834309681713
 10
137.5454400847436
 20
85.51327026092375
 10
191.2224751915891
 20
137.2373235859121
 10
189.9852980513851
 20
137.560164090056
 97
        0
 75
     0
 76
     1
 98
        0
  0
HATCH
  5
108
330
E3
100
AcDbEntity
  8
Des_ Roofs
  6
Continuous
 62
   255
 48
0.999999999999998
370
    18
100
AcDbHatch
 10
0.0
 20
0.0
 30
0.0
210
0.0
220
0.0
230
1.0
  2
SOLID
 70
     1
 71
     0
 91
        1
 92
        3
 72
     0
 73
     1
 93
        4
 10
137.5454399684216
 20
85.513270272626
 10
138.8647735426478
 20
85.41321310042841
 10
192.4684035416676
 20
137.3162370043601
 10
191.2224753993492
 20
137.2373219911341
 97
        0
 75
     0
 76
     1
 98
        0
  0
HATCH
  5
109
330
E3
100
AcDbEntity
  8
Des_ Roofs
  6
Continuous
 62
   255
 48
0.999999999999998
370
    18
100
AcDbHatch
 10
0.0
 20
0.0
 30
0.0
210
0.0
220
0.0
230
1.0
  2
SOLID
 70
     1
 71
     0
 91
        1
 92
        3
 72
     0
 73
     1
 93
        4
 10
192.4684044158487
 20
137.3162372782429
 10
138.8647739498313
 20
85.41321279300335
 10
140.657417081628
 20
86.78535592134384
 10
194.6118993643344
 20
139.0951522999468
 97
        0
 75
     0
 76
     1
 98
        0
  0
HATCH
  5
10A
330
E3
100
AcDbEntity
  8
Des_ Roofs
  6
Continuous
 62
   255
 48
0.999999999999998
370
    18
100
AcDbHatch
 10
0.0
 20
0.0
 30
0.0
210
0.0
220
0.0
230
1.0
  2
SOLID
 70
     1
 71
     0
 91
        1
 92
        3
 72
     0
 73
     1
 93
        4
 10
194.6118989126392
 20
139.0951528501361
 10
140.6574170388952
 20
86.7853562667833
 10
141.960637587825
 20
86.82392589771274
 10
195.8769768827037
 20
139.3234652513393
 97
        0
 75
     0
 76
     1
 98
        0
  0
HATCH
  5
10B
330
E3
100
AcDbEntity
  8
Des_ Roofs
  6
Continuous
 62
   255
 48
0.999999999999998
370
    18
100
AcDbHatch
 10
0.0
 20
0.0
 30
0.0
210
0.0
220
0.0
230
1.0
  2
SOLID
 70
     1
 71
     0
 91
        1
 92
        3
 72
     0
 73
     1
 93
        4
 10
195.8769760482193
 20
139.3234646762992
 10
141.9606378011339
 20
86.82392573267543
 10
143.4660110599138
 20
86.20676776302783
 10
197.139538070904
 20
138.8556739163456
 97
        0
 75
     0
 76
     1
 98
        0
  0
HATCH
  5
10C
330
E3
100
AcDbEntity
  8
Des_ Roofs
  6
Continuous
 62
   255
 48
0.999999999999998
370
    18
100
AcDbHatch
 10
0.0
 20
0.0
 30
0.0
210
0.0
220
0.0
230
1.0
  2
SOLID
 70
     1
 71
     0
 91
        1
 92
        3
 72
     0
 73
     1
 93
        4
 10
197.139537370435
 20
138.8556727863561
 10
143.4660112814687
 20
86.20676868599503
 10
146.4174455316978
 20
83.83174225423193
 10
199.2715231674692
 20
136.6479344961948
 97
        0
 75
     0
 76
     1
 98
        0
  0
HATCH
  5
10D
330
E3
100
AcDbEntity
  8
Des_ Roofs
  6
Continuous
 62
   255
 48
0.999999999999998
370
    18
100
AcDbHatch
 10
0.0
 20
0.0
 30
0.0
210
0.0
220
0.0
230
1.0
  2
SOLID
 70
     1
 71
     0
 91
        1
 92
        3
 72
     0
 73
     1
 93
        4
 10
146.4174455341856
 20
83.83174299299937
 10
147.8980183901706
 20
83.34196542916405
 10
200.5483353795921
 20
136.3178866320734
 10
199.2715228701731
 20
136.6479336748366
 97
        0
 75
     0
 76
     1
 98
        0
  0
HATCH
  5
10E
330
E3
100
AcDbEntity
  8
Des_ Roofs
  6
Continuous
 62
   255
 48
0.999999999999998
370
    18
100
AcDbHatch
 10
0.0
 20
0.0
 30
0.0
210
0.0
220
0.0
230
1.0
  2
SOLID
 70
     1
 71
     0
 91
        1
 92
        3
 72
     0
 73
     1
 93
        4
 10
147.898018360509
 20
83.3419653482607
 10
149.2761317521251
 20
83.23315621997527
 10
201.8370476439935
 20
136.3959109482259
 10
200.5483343064558
 20
136.3178872415188
 97
        0
 75
     0
 76
     1
 98
        0
  0
HATCH
  5
10F
330
E3
100
AcDbEntity
  8
Des_ Roofs
  6
Continuous
 62
   255
 48
0.999999999999998
370
    18
100
AcDbHatch
 10
0.0
 20
0.0
 30
0.0
210
0.0
220
0.0
230
1.0
  2
SOLID
 70
     1
 71
     0
 91
        1
 92
        3
 72
     0
 73
     1
 93
        4
 10
149.2761318709432
 20
83.23315621997527
 10
151.1910694419555
 20
84.61535840985644
 10
204.0657552937336
 20
138.1994505820104
 10
201.8370480247177
 20
136.3959112299694
 97
        0
 75
     0
 76
     1
 98
        0
  0
HATCH
  5
110
330
E3
100
AcDbEntity
  8
Des_ Roofs
  6
Continuous
 62
   255
 48
0.999999999999998
370
    18
100
AcDbHatch
 10
0.0
 20
0.0
 30
0.0
210
0.0
220
0.0
230
1.0
  2
SOLID
 70
     1
 71
     0
 91
        1
 92
        3
 72
     0
 73
     1
 93
        4
 10
151.1910696851485
 20
84.61535846126804
 10
152.5567074906195
 20
84.64735786382857
 10
205.3756050745967
 20
138.4293081172727
 10
204.0657554887442
 20
138.1994504790374
 97
        0
 75
     0
 76
     1
 98
        0
  0
HATCH
  5
111
330
E3
100
AcDbEntity
  8
Des_ Roofs
  6
Continuous
 62
   255
 48
0.999999999999998
370
    18
100
AcDbHatch
 10
0.0
 20
0.0
 30
0.0
210
0.0
220
0.0
230
1.0
  2
SOLID
 70
     1
 71
     0
 91
        1
 92
        3
 72
     0
 73
     1
 93
        4
 10
152.556707797056
 20
84.6473578782433
 10
154.1158066908911
 20
84.01284456376408
 10
206.6781182013239
 20
137.9519423642643
 10
205.3756042931468
 20
138.42930840285
 97
        0
 75
     0
 76
     1
 98
        0
  0
HATCH
  5
112
330
E3
100
AcDbEntity
  8
Des_ Roofs
  6
Continuous
 62
   255
 48
0.999999999999998
370
    18
100
AcDbHatch
 10
0.0
 20
0.0
 30
0.0
210
0.0
220
0.0
230
1.0
  2
SOLID
 70
     1
 71
     0
 91
        1
 92
        3
 72
     0
 73
     1
 93
        4
 10
154.1158068859745
 20
84.01284491111002
 10
157.1400226275386
 20
81.58651903001414
 10
208.8678663600695
 20
135.7052410365344
 10
206.6781182321181
 20
137.9519435346378
 97
        0
 75
     0
 76
     1
 98
        0
  0
HATCH
  5
113
330
E3
100
AcDbEntity
  8
Des_ Roofs
  6
Continuous
 62
   255
 48
0.999999999999998
370
    18
100
AcDbHatch
 10
0.0
 20
0.0
 30
0.0
210
0.0
220
0.0
230
1.0
  2
SOLID
 70
     1
 71
     0
 91
        1
 92
        3
 72
     0
 73
     1
 93
        4
 10
157.140022627471
 20
81.58651905772439
 10
158.677055048067
 20
81.08121704680943
 10
210.1862914529967
 20
135.3676817586235
 10
208.8678672914781
 20
135.7052408197736
 97
        0
 75
     0
 76
     1
 98
        0
  0
HATCH
  5
114
330
E3
100
AcDbEntity
  8
Des_ Roofs
  6
Continuous
 62
   255
 48
0.999999999999998
370
    18
100
AcDbHatch
 10
0.0
 20
0.0
 30
0.0
210
0.0
220
0.0
230
1.0
  2
SOLID
 70
     1
 71
     0
 91
        1
 92
        3
 72
     0
 73
     1
 93
        4
 10
158.6770552376771
 20
81.08121703603419
 10
160.1177254062442
 20
80.96301130750392
 10
211.5199803007486
 20
135.4447120725553
 10
210.1862913417995
 20
135.3676821269492
 97
        0
 75
     0
 76
     1
 98
        0
  0
HATCH
  5
115
330
E3
100
AcDbEntity
  8
Des_ Roofs
  6
Continuous
 62
   255
 48
0.999999999999998
370
    18
100
AcDbHatch
 10
0.0
 20
0.0
 30
0.0
210
0.0
220
0.0
230
1.0
  2
SOLID
 70
     1
 71
     0
 91
        1
 92
        3
 72
     0
 73
     1
 93
        4
 10
160.1177256974397
 20
80.96301130750392
 10
162.1636695015866
 20
82.35493494133698
 10
213.838469926595
 20
137.2735390416995
 10
211.5199803085854
 20
135.4447122426588
 97
        0
 75
     0
 76
     1
 98
        0
  0
HATCH
  5
116
330
E3
100
AcDbEntity
  8
Des_ Roofs
  6
Continuous
 62
   255
 48
0.999999999999998
370
    18
100
AcDbHatch
 10
0.0
 20
0.0
 30
0.0
210
0.0
220
0.0
230
1.0
  2
SOLID
 70
     1
 71
     0
 91
        1
 92
        3
 72
     0
 73
     1
 93
        4
 10
162.1636698791426
 20
82.3549351634863
 10
163.595855347637
 20
82.37977652124337
 10
215.1954183862232
 20
137.5049189350985
 10
213.838468669438
 20
137.2735387974586
 97
        0
 75
     0
 76
     1
 98
        0
  0
HATCH
  5
117
330
E3
100
AcDbEntity
  8
Des_ Roofs
  6
Continuous
 62
   255
 48
0.999999999999998
370
    18
100
AcDbHatch
 10
0.0
 20
0.0
 30
0.0
210
0.0
220
0.0
230
1.0
  2
SOLID
 70
     1
 71
     0
 91
        1
 92
        3
 72
     0
 73
     1
 93
        4
 10
215.1954178242613
 20
137.5049181898442
 10
163.5958552911952
 20
82.37977616497813
 10
165.211905958559
 20
81.72697976141771
 10
216.539889655085
 20
137.0175934777752
 97
        0
 75
     0
 76
     1
 98
        0
  0
HATCH
  5
118
330
E3
100
AcDbEntity
  8
Des_ Roofs
  6
Continuous
 62
   255
 48
0.999999999999998
370
    18
100
AcDbHatch
 10
0.0
 20
0.0
 30
0.0
210
0.0
220
0.0
230
1.0
  2
SOLID
 70
     1
 71
     0
 91
        1
 92
        3
 72
     0
 73
     1
 93
        4
 10
216.5398892841038
 20
137.0175931057191
 10
165.2119061249539
 20
81.72697962957848
 10
168.3124769047331
 20
79.247095125551
 10
218.7901261416874
 20
134.7305308785477
 97
        0
 75
     0
 76
     1
 98
        0
  0
HATCH
  5
119
330
E3
100
AcDbEntity
  8
Des_ Roofs
  6
Continuous
 62
   255
 48
0.999999999999998
370
    18
100
AcDbHatch
 10
0.0
 20
0.0
 30
0.0
210
0.0
220
0.0
230
1.0
  2
SOLID
 70
     1
 71
     0
 91
        1
 92
        3
 72
     0
 73
     1
 93
        4
 10
218.7901265581304
 20
134.7305311980375
 10
168.3124763367629
 20
79.24709444645981
 10
169.9094561339074
 20
78.72538183779662
 10
220.1522794332083
 20
134.3851357329671
 97
        0
 75
     0
 76
     1
 98
        0
  0
HATCH
  5
11A
330
E3
100
AcDbEntity
  8
Des_ Roofs
  6
Continuous
 62
   255
 48
0.999999999999998
370
    18
100
AcDbHatch
 10
0.0
 20
0.0
 30
0.0
210
0.0
220
0.0
230
1.0
  2
SOLID
 70
     1
 71
     0
 91
        1
 92
        3
 72
     0
 73
     1
 93
        4
 10
220.1522797810715
 20
134.3851357675564
 10
169.9094557054927
 20
78.72538155556131
 10
171.4167862535256
 20
78.59707690403826
 10
221.5332885472178
 20
134.4610575317538
 97
        0
 75
     0
 76
     1
 98
        0
  0
HATCH
  5
11B
330
E3
100
AcDbEntity
  8
Des_ Roofs
  6
Continuous
 62
   255
 48
0.999999999999998
370
    18
100
AcDbHatch
 10
0.0
 20
0.0
 30
0.0
210
0.0
220
0.0
230
1.0
  2
SOLID
 70
     1
 71
     0
 91
        1
 92
        3
 72
     0
 73
     1
 93
        4
 10
221.5332883648247
 20
134.4610579028582
 10
171.4167864872677
 20
78.59707621962173
 10
173.6032382696045
 20
79.99831315035279
 10
223.9464488982208
 20
136.3158611291566
 97
        0
 75
     0
 76
     1
 98
        0
  0
HATCH
  5
11C
330
E3
100
AcDbEntity
  8
Des_ Roofs
  6
Continuous
 62
   255
 48
0.999999999999998
370
    18
100
AcDbHatch
 10
0.0
 20
0.0
 30
0.0
210
0.0
220
0.0
230
1.0
  2
SOLID
 70
     1
 71
     0
 91
        1
 92
        3
 72
     0
 73
     1
 93
        4
 10
223.9464487171138
 20
136.3158615425115
 10
173.6032385063089
 20
79.99831331866838
 10
175.106464181613
 20
80.01535037461935
 10
225.3529883836288
 20
136.5487327667694
 97
        0
 75
     0
 76
     1
 98
        0
  0
HATCH
  5
11D
330
E3
100
AcDbEntity
  8
Des_ Roofs
  6
Continuous
 62
   255
 48
0.999999999999998
370
    18
100
AcDbHatch
 10
0.0
 20
0.0
 30
0.0
210
0.0
220
0.0
230
1.0
  2
SOLID
 70
     1
 71
     0
 91
        1
 92
        3
 72
     0
 73
     1
 93
        4
 10
225.3529883825559
 20
136.5487327667694
 10
175.1064648435025
 20
80.01535123850239
 10
176.7829651945502
 20
79.34327094102619
 10
226.741559656222
 20
136.0510389068165
 97
        0
 75
     0
 76
     1
 98
        0
  0
HATCH
  5
11E
330
E3
100
AcDbEntity
  8
Des_ Roofs
  6
Continuous
 62
   255
 48
0.999999999999998
370
    18
100
AcDbHatch
 10
0.0
 20
0.0
 30
0.0
210
0.0
220
0.0
230
1.0
  2
SOLID
 70
     1
 71
     0
 91
        1
 92
        3
 72
     0
 73
     1
 93
        4
 10
226.7415592588447
 20
136.0510392838695
 10
176.7829644706092
 20
79.34327086396011
 10
179.9637251215854
 20
76.80741477193456
 10
229.0551908457753
 20
133.7221458567545
 97
        0
 75
     0
 76
     1
 98
        0
  0
HATCH
  5
11F
330
E3
100
AcDbEntity
  8
Des_ Roofs
  6
Continuous
 62
   255
 48
0.999999999999998
370
    18
100
AcDbHatch
 10
0.0
 20
0.0
 30
0.0
210
0.0
220
0.0
230
1.0
  2
SOLID
 70
     1
 71
     0
 91
        1
 92
        3
 72
     0
 73
     1
 93
        4
 10
229.0551906334161
 20
133.7221459212055
 10
179.9637258752907
 20
76.8074139429721
 10
181.6244361765756
 20
76.268332404959
 10
230.4633359265679
 20
133.3685696352441
 97
        0
 75
     0
 76
     1
 98
        0
  0
HATCH
  5
120
330
E3
100
AcDbEntity
  8
Des_ Roofs
  6
Continuous
 62
   255
 48
0.999999999999998
370
    18
100
AcDbHatch
 10
0.0
 20
0.0
 30
0.0
210
0.0
220
0.0
230
1.0
  2
SOLID
 70
     1
 71
     0
 91
        1
 92
        3
 72
     0
 73
     1
 93
        4
 10
230.4633353679183
 20
133.368569643901
 10
181.6244367316936
 20
76.26833314970149
 10
183.2028923963508
 20
76.12915842748065
 10
231.894172342985
 20
133.4432595116414
 97
        0
 75
     0
 76
     1
 98
        0
  0
HATCH
  5
121
330
E3
100
AcDbEntity
  8
Des_ Roofs
  6
Continuous
 62
   255
 48
0.999999999999998
370
    18
100
AcDbHatch
 10
0.0
 20
0.0
 30
0.0
210
0.0
220
0.0
230
1.0
  2
SOLID
 70
     1
 71
     0
 91
        1
 92
        3
 72
     0
 73
     1
 93
        4
 10
183.2028928859209
 20
76.12915793823242
 10
185.5402328755508
 20
77.539218597485
 10
234.407247682943
 20
135.3247561966919
 10
231.8941727456723
 20
133.44325957288
 97
        0
 75
     0
 76
     1
 98
        0
  0
HATCH
  5
122
330
E3
100
AcDbEntity
  8
Des_ Roofs
  6
Continuous
 62
   255
 48
0.999999999999998
370
    18
100
AcDbHatch
 10
0.0
 20
0.0
 30
0.0
210
0.0
220
0.0
230
1.0
  2
SOLID
 70
     1
 71
     0
 91
        1
 92
        3
 72
     0
 73
     1
 93
        4
 10
185.5402333135469
 20
77.53921895447678
 10
186.8603870645825
 20
77.54634343194103
 10
235.6269713436585
 20
135.5206806634737
 10
234.4072480146996
 20
135.3247558052231
 97
        0
 75
     0
 76
     1
 98
        0
  0
HATCH
  5
123
330
E3
100
AcDbEntity
  8
Des_ Roofs
  6
Continuous
 62
   255
 48
0.999999999999998
370
    18
100
AcDbHatch
 10
0.0
 20
0.0
 30
0.0
210
0.0
220
0.0
230
1.0
  2
SOLID
 70
     1
 71
     0
 91
        1
 92
        3
 72
     0
 73
     1
 93
        3
 10
211.2752891171723
 20
81.11040029927099
 10
192.5031107293578
 20
56.64067286511047
 10
226.1648524845922
 20
78.26822958455645
 97
        0
 75
     0
 76
     1
 98
        0
  0
HATCH
  5
124
330
E3
100
AcDbEntity
  8
Des_ Roofs
  6
Continuous
 62
   255
 48
0.999999999999998
370
    18
100
AcDbHatch
 10
0.0
 20
0.0
 30
0.0
210
0.0
220
0.0
230
1.0
  2
SOLID
 70
     1
 71
     0
 91
        1
 92
        3
 72
     0
 73
     1
 93
        4
 10
189.7919268130722
 20
74.25185763757722
 10
189.6169753310307
 20
50.97528416896662
 10
191.2905435413423
 20
52.08017269004891
 10
191.494690670167
 20
75.19268081111277
 97
        0
 75
     0
 76
     1
 98
        0
  0
HATCH
  5
125
330
E3
100
AcDbEntity
  8
Des_ Roofs
  6
Continuous
 62
   255
 48
0.999999999999998
370
    18
100
AcDbHatch
 10
0.0
 20
0.0
 30
0.0
210
0.0
220
0.0
230
1.0
  2
Wood_0002
 70
     0
 71
     0
 91
        1
 92
        3
 72
     0
 73
     1
 93
        4
 10
189.7919268130722
 20
74.25185763757722
 10
189.6169753310307
 20
50.97528416896662
 10
191.2905435413423
 20
52.08017269004891
 10
191.494690670167
 20
75.19268081111277
 97
        0
 75
     0
 76
     2
 52
0.0
 41
1.0
 77
     0
 78
     1
 53
47.48584846409718
 43
180.1182711515631
 44
104.2792165591143
 45
-0.2691161692994589
 46
5.235533326441558
 79
     0
 98
        0
  0
HATCH
  5
126
330
E3
100
AcDbEntity
  8
Des_ Roofs
  6
Continuous
 62
   255
 48
0.999999999999998
370
    18
100
AcDbHatch
 10
0.0
 20
0.0
 30
0.0
210
0.0
220
0.0
230
1.0
  2
SOLID
 70
     1
 71
     0
 91
        1
 92
        3
 72
     0
 73
     1
 93
        4
 10
192.4226654236951
 20
80.90454211445439
 10
193.7734073946869
 20
74.34191328885898
 10
199.6983390851315
 20
81.66815139516704
 10
198.4535776734064
 20
88.15566128097744
 97
        0
 75
     0
 76
     1
 98
        0
  0
HATCH
  5
127
330
E3
100
AcDbEntity
  8
Des_ Roofs
  6
Continuous
 62
   255
 48
0.999999999999998
370
    18
100
AcDbHatch
 10
0.0
 20
0.0
 30
0.0
210
0.0
220
0.0
230
1.0
  2
SOLID
 70
     1
 71
     0
 91
        1
 92
        3
 72
     0
 73
     1
 93
        4
 10
235.6269712719962
 20
135.5206806634737
 10
186.8603871443296
 20
77.5463428817828
 10
187.4347527289325
 20
74.9074478925336
 10
235.5113036929552
 20
132.711107283559
 97
        0
 75
     0
 76
     1
 98
        0
  0
HATCH
  5
128
330
E3
100
AcDbEntity
  8
Des_ Roofs
  6
Continuous
 62
   255
 48
0.999999999999998
370
    18
100
AcDbHatch
 10
0.0
 20
0.0
 30
0.0
210
0.0
220
0.0
230
1.0
  2
Steel_0002
 70
     0
 71
     0
 91
        1
 92
        3
 72
     0
 73
     1
 93
        4
 10
235.6269712719962
 20
135.5206806634737
 10
186.8603871443296
 20
77.5463428817828
 10
187.4347527289325
 20
74.9074478925336
 10
235.5113036929552
 20
132.711107283559
 97
        0
 75
     0
 76
     2
 52
0.0
 41
1.0
 77
     0
 78
     2
 53
74.26095348373028
 43
180.1182711515631
 44
104.2792165591143
 45
-1.814554165748002
 46
7.334352336131905
 79
     0
 53
74.26095348373028
 43
179.5134197629804
 44
106.7240006711582
 45
-1.814554165748002
 46
7.334352336131905
 79
     0
 98
        0
  0
HATCH
  5
129
330
E3
100
AcDbEntity
  8
Des_ Roofs
  6
Continuous
 62
   255
 48
0.999999999999998
370
    18
100
AcDbHatch
 10
0.0
 20
0.0
 30
0.0
210
0.0
220
0.0
230
1.0
  2
SOLID
 70
     1
 71
     0
 91
        1
 92
        3
 72
     0
 73
     1
 93
        5
 10
191.3151777368236
 20
54.86913203714293
 10
226.1340473814342
 20
77.40451441314231
 10
226.1648523235056
 20
78.26823056606797
 10
192.5031127892442
 20
56.64067533750492
 10
191.3171708144984
 20
55.09478758523608
 97
        0
 75
     0
 76
     1
 98
        0
  0
HATCH
  5
12A
330
E3
100
AcDbEntity
  8
Des_ Roofs
  6
Continuous
 62
   255
 48
0.999999999999998
370
    18
100
AcDbHatch
 10
0.0
 20
0.0
 30
0.0
210
0.0
220
0.0
230
1.0
  2
Plaster_0002
 70
     0
 71
     0
 91
        1
 92
        3
 72
     0
 73
     1
 93
        5
 10
191.3151777368236
 20
54.86913203714293
 10
226.1340473814342
 20
77.40451441314231
 10
226.1648523235056
 20
78.26823056606797
 10
192.5031127892442
 20
56.64067533750492
 10
191.3171708144984
 20
55.09478758523608
 97
        0
 75
     0
 76
     2
 52
0.0
 41
1.0
 77
     0
 78
     2
 53
32.9116516761714
 43
180.1182711515631
 44
104.2792165591143
 45
0.0894190647324562
 46
10.12357544142443
 79
     2
 49
0.0
 49
-2.305624100718087
 53
32.9116516761714
 43
181.1307772210304
 44
109.9673790644901
 45
0.0894190647324562
 46
10.12357544142443
 79
     2
 49
0.0
 49
-2.305624100718087
 98
        0
  0
HATCH
  5
12B
330
E3
100
AcDbEntity
  8
Des_ Roof Beams
  6
Continuous
 62
    31
 48
0.999999999999998
370
     0
100
AcDbHatch
 10
0.0
 20
0.0
 30
0.0
210
0.0
220
0.0
230
1.0
  2
SOLID
 70
     1
 71
     0
 91
        1
 92
        3
 72
     0
 73
     1
 93
        4
 10
97.35401419888326
 20
75.58486970795431
 10
97.24949389801888
 20
77.21191428689485
 10
93.621764941471
 20
78.10135095906269
 10
93.73002457904438
 20
76.4856645504149
 97
        0
 75
     0
 76
     1
 98
        0
  0
HATCH
  5
12D
330
E3
100
AcDbEntity
  8
Des_ Roof Beams
  6
Continuous
 62
    31
 48
0.999999999999998
370
     0
100
AcDbHatch
 10
0.0
 20
0.0
 30
0.0
210
0.0
220
0.0
230
1.0
  2
SOLID
 70
     1
 71
     0
 91
        1
 92
        3
 72
     0
 73
     1
 93
        4
 10
103.5205939290766
 20
81.758526241921
 10
93.621764941471
 20
78.10135100735866
 10
97.24949384966521
 20
77.21191428689485
 10
103.6470175984431
 20
79.62188022692729
 97
        0
 75
     0
 76
     1
 98
        0
  0
HATCH
  5
12E
330
E3
100
AcDbEntity
  8
Des_ Roof Beams
  6
Continuous
 62
    21
 48
0.999999999999998
370
     0
100
AcDbHatch
 10
0.0
 20
0.0
 30
0.0
210
0.0
220
0.0
230
1.0
  2
SOLID
 70
     1
 71
     0
 91
        1
 92
        3
 72
     0
 73
     1
 93
        4
 10
97.24949389801888
 20
77.21191427349717
 10
97.35401419346113
 20
75.58486970795431
 10
103.7414658344244
 20
78.02565141139448
 10
103.6470179975865
 20
79.62188046999258
 97
        0
 75
     0
 76
     1
 98
        0
  0
LINE
  5
12F
330
E3
100
AcDbEntity
  8
Des_ Roofs
  6
Continuous
 48
0.999999999999998
100
AcDbLine
 10
235.2180774819848
 20
125.5886717868797
 30
0.0
 11
230.0615952660125
 21
126.1587840259935
 31
0.0
  0
LINE
  5
130
330
E3
100
AcDbEntity
  8
Des_ Roofs
  6
Continuous
 48
0.999999999999998
100
AcDbLine
 10
235.2180774819848
 20
125.5886717868797
 30
0.0
 11
199.6983373185835
 21
81.66815336725375
 31
0.0
  0
LINE
  5
131
330
E3
100
AcDbEntity
  8
Des_ Roofs
  6
Continuous
 48
0.999999999999998
100
AcDbLine
 10
193.7734062191667
 20
74.34191329624637
 30
0.0
 11
191.4619287926573
 21
71.48374794041045
 31
0.0
  0
LINE
  5
132
330
E3
100
AcDbEntity
  8
Des_ Roofs
  6
Continuous
 48
0.999999999999998
100
AcDbLine
 10
235.2180774819848
 20
125.5886717868797
 30
0.0
 11
234.6408438864307
 21
111.5676407804491
 31
0.0
  0
LINE
  5
133
330
E3
100
AcDbEntity
  8
Des_ Roofs
  6
Continuous
 48
0.999999999999998
100
AcDbLine
 10
234.6408438864307
 20
111.5676407804491
 30
0.0
 11
191.3171708867579
 21
55.0947889186921
 31
0.0
  0
LINE
  5
134
330
E3
100
AcDbEntity
  8
Des_ Roofs
  6
Continuous
 48
0.999999999999998
100
AcDbLine
 10
191.3171708867579
 20
55.0947889186921
 30
0.0
 11
234.6408438864307
 21
111.5676407804491
 31
0.0
  0
LINE
  5
135
330
E3
100
AcDbEntity
  8
Des_ Roofs
  6
Continuous
 48
0.999999999999998
100
AcDbLine
 10
234.6408438864307
 20
111.5676407804491
 30
0.0
 11
235.2180774819848
 21
125.5886717868797
 31
0.0
  0
LINE
  5
136
330
E3
100
AcDbEntity
  8
Des_ Roofs
  6
Continuous
 48
0.999999999999998
100
AcDbLine
 10
191.4619287926573
 20
71.48374794041045
 30
0.0
 11
235.2180774819848
 21
125.5886717868797
 31
0.0
  0
LINE
  5
137
330
E3
100
AcDbEntity
  8
Des_ Roofs
  6
Continuous
 48
0.999999999999998
100
AcDbLine
 10
191.3171708867579
 20
55.0947889186921
 30
0.0
 11
191.4619287926573
 21
71.48374794041045
 31
0.0
  0
LINE
  5
138
330
E3
100
AcDbEntity
  8
Des_ Roofs
  6
Continuous
 48
0.999999999999998
100
AcDbLine
 10
170.2937529622248
 20
171.0159335447506
 30
0.0
 11
169.7211309756338
 21
171.0391081284207
 31
0.0
  0
LINE
  5
139
330
E3
100
AcDbEntity
  8
Des_ Roofs
  6
Continuous
 48
0.999999999999998
100
AcDbLine
 10
111.6729443354586
 20
127.1120926676474
 30
0.0
 11
169.7211309756338
 21
171.0391081284207
 31
0.0
  0
LINE
  5
13A
330
E3
100
AcDbEntity
  8
Des_ Roofs
  6
Continuous
 48
0.999999999999998
100
AcDbLine
 10
112.2974385986806
 20
127.0274896212639
 30
0.0
 11
111.6729443354586
 21
127.1120926676474
 31
0.0
  0
LINE
  5
13B
330
E3
100
AcDbEntity
  8
Des_ Roofs
  6
Continuous
 48
0.999999999999998
100
AcDbLine
 10
170.2937529622248
 20
171.0159335447506
 30
0.0
 11
112.2974385986806
 21
127.0274896212639
 31
0.0
  0
LINE
  5
13C
330
E3
100
AcDbEntity
  8
Des_ Roofs
  6
Continuous
 48
0.999999999999998
100
AcDbLine
 10
170.4895673727725
 20
143.4353445858455
 30
0.0
 11
170.2937529622248
 21
171.0159335447506
 31
0.0
  0
LINE
  5
13D
330
E3
100
AcDbEntity
  8
Des_ Roofs
  6
Continuous
 48
0.999999999999998
100
AcDbLine
 10
111.6729443354586
 20
127.1120926676474
 30
0.0
 11
113.3715772221104
 21
93.85922468413314
 31
0.0
  0
LINE
  5
13E
330
E3
100
AcDbEntity
  8
Des_ Roofs
  6
Continuous
 48
0.999999999999998
100
AcDbLine
 10
113.9400787277687
 20
94.5767585743958
 30
0.0
 11
112.2974385986806
 21
127.0274896212639
 31
0.0
  0
LINE
  5
13F
330
E3
100
AcDbEntity
  8
Des_ Roofs
  6
Continuous
 48
0.999999999999998
100
AcDbLine
 10
191.2905417584674
 20
52.08017431257293
 30
0.0
 11
191.3171708867579
 21
55.0947889186921
 31
0.0
  0
LINE
  5
140
330
E3
100
AcDbEntity
  8
Des_ Roofs
  6
Continuous
 48
0.999999999999998
100
AcDbLine
 10
191.4619287926573
 20
71.48374794041045
 30
0.0
 11
191.4946886971235
 21
75.1926802321026
 31
0.0
  0
LINE
  5
141
330
E3
100
AcDbEntity
  8
Des_ Roofs
  6
Continuous
 48
0.999999999999998
100
AcDbLine
 10
113.9400787277687
 20
94.5767585743958
 30
0.0
 11
113.3715772221104
 21
93.85922468413314
 31
0.0
  0
LINE
  5
142
330
E3
100
AcDbEntity
  8
Des_ Roofs
  6
Continuous
 48
0.999999999999998
100
AcDbLine
 10
170.4895673727725
 20
143.4353445858455
 30
0.0
 11
113.9400787277687
 21
94.5767585743958
 31
0.0
  0
LINE
  5
143
330
E3
100
AcDbEntity
  8
Des_ Roofs
  6
Continuous
 48
0.999999999999998
100
AcDbLine
 10
187.8868746723613
 20
141.8525221860152
 30
0.0
 11
170.4895673727725
 21
143.4353445858455
 31
0.0
  0
LINE
  5
144
330
E3
100
AcDbEntity
  8
Des_ Roofs
  6
Continuous
 48
0.999999999999998
100
AcDbLine
 10
187.8766900088842
 20
140.0765740934984
 30
0.0
 11
187.8868746723613
 21
141.8525221860152
 31
0.0
  0
LINE
  5
145
330
E3
100
AcDbEntity
  8
Des_ Roofs
  6
Continuous
 48
0.999999999999998
100
AcDbLine
 10
113.3715772221104
 20
93.85922468413314
 30
0.0
 11
132.3942644139913
 21
89.99697304282583
 31
0.0
  0
LINE
  5
146
330
E3
100
AcDbEntity
  8
Des_ Roofs
  6
Continuous
 48
0.999999999999998
100
AcDbLine
 10
132.4388488501039
 20
88.77982043421467
 30
0.0
 11
133.0979135321413
 21
88.64444390611567
 31
0.0
  0
LINE
  5
147
330
E3
100
AcDbEntity
  8
Des_ Roofs
  6
Continuous
 48
0.999999999999998
100
AcDbLine
 10
133.0979135321413
 20
88.64444390611567
 30
0.0
 11
133.0223880301157
 21
90.73488042214476
 31
0.0
  0
LINE
  5
148
330
E3
100
AcDbEntity
  8
Des_ Roofs
  6
Continuous
 48
0.999999999999998
100
AcDbLine
 10
133.0223880301157
 20
90.73488042214476
 30
0.0
 11
113.9400787277687
 21
94.5767585743958
 31
0.0
  0
LINE
  5
149
330
E3
100
AcDbEntity
  8
Des_ Roofs
  6
Continuous
 48
0.999999999999998
100
AcDbLine
 10
132.3942644139913
 20
89.99697304282583
 30
0.0
 11
132.4388488501039
 21
88.77982043421467
 31
0.0
  0
LINE
  5
14A
330
E3
100
AcDbEntity
  8
Des_ Roofs
  6
Continuous
 48
0.999999999999998
100
AcDbLine
 10
187.8868746723613
 20
141.8525221860152
 30
0.0
 11
133.0223880301157
 21
90.73488042214476
 31
0.0
  0
LINE
  5
14B
330
E3
100
AcDbEntity
  8
Des_ Roofs
  6
Continuous
 48
0.999999999999998
100
AcDbLine
 10
187.8766900088842
 20
140.0765740934984
 30
0.0
 11
133.0979135321413
 21
88.64444390611567
 31
0.0
  0
LINE
  5
14C
330
E3
100
AcDbEntity
  8
Des_ Roofs
  6
Continuous
 48
0.999999999999998
100
AcDbLine
 10
176.0888764259547
 20
70.20705646337231
 30
0.0
 11
176.0818258252476
 21
72.45134091596451
 31
0.0
  0
LINE
  5
14D
330
E3
100
AcDbEntity
  8
Des_ Roofs
  6
Continuous
 48
0.999999999999998
100
AcDbLine
 10
176.0818258252476
 20
72.45134091596451
 30
0.0
 11
101.5931866380008
 21
88.74679415522354
 31
0.0
  0
LINE
  5
14E
330
E3
100
AcDbEntity
  8
Des_ Roofs
  6
Continuous
 48
0.999999999999998
100
AcDbLine
 10
101.711814867844
 20
86.78055059934775
 30
0.0
 11
101.5931866380008
 21
88.74679415522354
 31
0.0
  0
LINE
  5
14F
330
E3
100
AcDbEntity
  8
Des_ Roofs
  6
Continuous
 48
0.999999999999998
100
AcDbLine
 10
176.0888764259547
 20
70.20705646337231
 30
0.0
 11
101.711814867844
 21
86.78055059934775
 31
0.0
  0
LINE
  5
150
330
E3
100
AcDbEntity
  8
Des_ Roofs
  6
Continuous
 48
0.999999999999998
100
AcDbLine
 10
176.0818258252476
 20
72.45134091596451
 30
0.0
 11
177.3749492807933
 21
73.13318894408852
 31
0.0
  0
LINE
  5
151
330
E3
100
AcDbEntity
  8
Des_ Roofs
  6
Continuous
 48
0.999999999999998
100
AcDbLine
 10
177.3749492807933
 20
73.13318894408852
 30
0.0
 11
103.0768969040421
 21
89.25728844597329
 31
0.0
  0
LINE
  5
152
330
E3
100
AcDbEntity
  8
Des_ Roofs
  6
Continuous
 48
0.999999999999998
100
AcDbLine
 10
101.5931866380008
 20
88.74679415522354
 30
0.0
 11
103.0768969040421
 21
89.25728844597329
 31
0.0
  0
LINE
  5
153
330
E3
100
AcDbEntity
  8
Des_ Roofs
  6
Continuous
 48
0.999999999999998
100
AcDbLine
 10
177.3797107254266
 20
70.90038356868065
 30
0.0
 11
176.0888764259547
 21
70.20705646337231
 31
0.0
  0
LINE
  5
154
330
E3
100
AcDbEntity
  8
Des_ Roofs
  6
Continuous
 48
0.999999999999998
100
AcDbLine
 10
177.3797107254266
 20
70.90038356868065
 30
0.0
 11
176.085800632612
 21
71.18641153904342
 31
0.0
  0
LINE
  5
155
330
E3
100
AcDbEntity
  8
Des_ Roofs
  6
Continuous
 48
0.999999999999998
100
AcDbLine
 10
177.4071722741076
 20
58.0286712332434
 30
0.0
 11
177.3797107254266
 21
70.90038356868065
 31
0.0
  0
LINE
  5
156
330
E3
100
AcDbEntity
  8
Des_ Roofs
  6
Continuous
 48
0.999999999999998
100
AcDbLine
 10
103.861444797838
 20
75.99794290731485
 30
0.0
 11
103.2436390324533
 21
86.43921245614148
 31
0.0
  0
LINE
  5
157
330
E3
100
AcDbEntity
  8
Des_ Roofs
  6
Continuous
 48
0.999999999999998
100
AcDbLine
 10
177.4071722741076
 20
58.0286712332434
 30
0.0
 11
103.861444797838
 21
75.99794290731485
 31
0.0
  0
LINE
  5
158
330
E3
100
AcDbEntity
  8
Des_ Roofs
  6
Continuous
 48
0.999999999999998
100
AcDbLine
 10
189.4404208470595
 20
65.17353938747745
 30
0.0
 11
177.4071722741076
 21
58.0286712332434
 31
0.0
  0
LINE
  5
159
330
E3
100
AcDbEntity
  8
Des_ Roofs
  6
Continuous
 48
0.999999999999998
100
AcDbLine
 10
189.4404208470595
 20
65.17353938747745
 30
0.0
 11
177.3861037140253
 21
67.90353697579565
 31
0.0
  0
LINE
  5
15A
330
E3
100
AcDbEntity
  8
Des_ Roofs
  6
Continuous
 48
0.999999999999998
100
AcDbLine
 10
189.5297978243822
 20
77.42637629732826
 30
0.0
 11
189.4404208470595
 21
65.17353938747745
 31
0.0
  0
LINE
  5
15B
330
E3
100
AcDbEntity
  8
Des_ Roofs
  6
Continuous
 48
0.999999999999998
100
AcDbLine
 10
117.3686726424668
 20
89.6205109212445
 30
0.0
 11
117.5373709587955
 21
86.11908854658586
 31
0.0
  0
LINE
  5
15C
330
E3
100
AcDbEntity
  8
Des_ Roofs
  6
Continuous
 48
0.999999999999998
100
AcDbLine
 10
183.6214152423275
 20
74.25289425969156
 30
0.0
 11
189.5297978243822
 21
77.42637629732826
 31
0.0
  0
LINE
  5
15D
330
E3
100
AcDbEntity
  8
Des_ Roofs
  6
Continuous
 48
0.999999999999998
100
AcDbLine
 10
177.3749492807933
 20
73.13318894408852
 30
0.0
 11
183.6214152423275
 21
74.25289425969156
 31
0.0
  0
LINE
  5
15E
330
E3
100
AcDbEntity
  8
Des_ Roofs
  6
Continuous
 48
0.999999999999998
100
AcDbLine
 10
189.6169772118741
 20
50.9752860799199
 30
0.0
 11
189.7919270053351
 21
74.25185789630545
 31
0.0
  0
LINE
  5
15F
330
E3
100
AcDbEntity
  8
Des_ Roofs
  6
Continuous
 48
0.999999999999998
100
AcDbLine
 10
189.7919270053351
 20
74.25185789630545
 30
0.0
 11
189.5070769098249
 21
74.31175470550033
 31
0.0
  0
LINE
  5
160
330
E3
100
AcDbEntity
  8
Des_ Roofs
  6
Continuous
 48
0.999999999999998
100
AcDbLine
 10
118.7052609286998
 20
68.81177837751055
 30
0.0
 11
118.5326752091477
 21
72.41334924934434
 31
0.0
  0
LINE
  5
161
330
E3
100
AcDbEntity
  8
Des_ Roofs
  6
Continuous
 48
0.999999999999998
100
AcDbLine
 10
189.6169772118741
 20
50.9752860799199
 30
0.0
 11
118.7052609286998
 21
68.81177837751055
 31
0.0
  0
LINE
  5
162
330
E3
100
AcDbEntity
  8
Des_ Roofs
  6
Continuous
 48
0.999999999999998
100
AcDbLine
 10
191.2905417584674
 20
52.08017431257293
 30
0.0
 11
189.6169772118741
 21
50.9752860799199
 31
0.0
  0
LINE
  5
163
330
E3
100
AcDbEntity
  8
Des_ Roofs
  6
Continuous
 48
0.999999999999998
100
AcDbLine
 10
191.4946886971235
 20
75.1926802321026
 30
0.0
 11
189.7919270053351
 21
74.25185789630545
 31
0.0
  0
LINE
  5
164
330
E3
100
AcDbEntity
  8
Des_ Roofs
  6
Continuous
 48
0.999999999999998
100
AcDbLine
 10
191.4946886971235
 20
75.1926802321026
 30
0.0
 11
189.5165040707467
 21
75.60410817218482
 31
0.0
  0
LINE
  5
165
330
E3
100
AcDbEntity
  8
Des_ Roofs
  6
Continuous
 48
0.999999999999998
100
AcDbLine
 10
193.7734062191667
 20
74.34191329624637
 30
0.0
 11
198.453577487723
 21
88.15566330125083
 31
0.0
  0
LINE
  5
166
330
E3
100
AcDbEntity
  8
Des_ Roofs
  6
Continuous
 48
0.999999999999998
100
AcDbLine
 10
193.7734062191667
 20
74.34191329624637
 30
0.0
 11
192.422666786296
 21
80.90454084627771
 31
0.0
  0
LINE
  5
167
330
E3
100
AcDbEntity
  8
Des_ Roofs
  6
Continuous
 48
0.999999999999998
100
AcDbLine
 10
191.4913798260714
 20
74.81804527327832
 30
0.0
 11
193.7734062191667
 21
74.34191329624637
 31
0.0
  0
LINE
  5
168
330
E3
100
AcDbEntity
  8
Des_ Roofs
  6
Continuous
 48
0.999999999999998
100
AcDbLine
 10
199.6983373185835
 20
81.66815336725375
 30
0.0
 11
193.7734062191667
 21
74.34191329624637
 31
0.0
  0
LINE
  5
169
330
E3
100
AcDbEntity
  8
Des_ Roofs
  6
Continuous
 48
0.999999999999998
100
AcDbLine
 10
199.6983373185835
 20
81.66815336725375
 30
0.0
 11
198.453577487723
 21
88.15566330125083
 31
0.0
  0
LINE
  5
16A
330
E3
100
AcDbEntity
  8
Des_ Roofs
  6
Continuous
 48
0.999999999999998
100
AcDbLine
 10
198.453577487723
 20
88.15566330125083
 30
0.0
 11
192.422666786296
 21
80.90454084627771
 31
0.0
  0
LINE
  5
16B
330
E3
100
AcDbEntity
  8
Des_ Roofs
  6
Continuous
 48
0.999999999999998
100
AcDbLine
 10
192.422666786296
 20
80.90454084627771
 30
0.0
 11
199.6983373185835
 21
81.66815336725375
 31
0.0
  0
LINE
  5
16C
330
E3
100
AcDbEntity
  8
Des_ Roofs
  6
Continuous
 48
0.999999999999998
100
AcDbLine
 10
191.3151772399228
 20
54.86913223714676
 30
0.0
 11
191.3241340833241
 21
55.88318675679381
 31
0.0
  0
LINE
  5
16D
330
E3
100
AcDbEntity
  8
Des_ Roofs
  6
Continuous
 48
0.999999999999998
100
AcDbLine
 10
226.1340485692783
 20
77.40451277577307
 30
0.0
 11
191.3151772399228
 21
54.86913223714676
 31
0.0
  0
LINE
  5
16E
330
E3
100
AcDbEntity
  8
Des_ Roofs
  6
Continuous
 48
0.999999999999998
100
AcDbLine
 10
226.1340485692783
 20
77.40451277577307
 30
0.0
 11
226.1648522858269
 21
78.26823217290473
 31
0.0
  0
LINE
  5
16F
330
E3
100
AcDbEntity
  8
Des_ Roofs
  6
Continuous
 48
0.999999999999998
100
AcDbLine
 10
226.1648522858269
 20
78.26823217290473
 30
0.0
 11
191.3241340833241
 21
55.88318675679381
 31
0.0
  0
LINE
  5
170
330
E3
100
AcDbEntity
  8
Des_ Roofs
  6
Continuous
 48
0.999999999999998
100
AcDbLine
 10
211.2752904924079
 20
81.11039840883618
 30
0.0
 11
226.1648522858269
 21
78.26823217290473
 31
0.0
  0
LINE
  5
171
330
E3
100
AcDbEntity
  8
Des_ Roofs
  6
Continuous
 48
0.999999999999998
100
AcDbLine
 10
114.211322911997
 20
92.06944176472703
 30
0.0
 11
115.716763512331
 21
93.38307189659143
 31
0.0
  0
LINE
  5
172
330
E3
100
AcDbEntity
  8
Des_ Roofs
  6
Continuous
 48
0.999999999999998
100
AcDbLine
 10
116.6927264749111
 20
90.05586678545022
 30
0.0
 11
114.211322911997
 21
92.06944176472703
 31
0.0
  0
LINE
  5
173
330
E3
100
AcDbEntity
  8
Des_ Roofs
  6
Continuous
 48
0.999999999999998
100
AcDbLine
 10
187.9085134404111
 20
139.7302622384592
 30
0.0
 11
187.6220942324648
 21
139.8375320920746
 31
0.0
  0
LINE
  5
174
330
E3
100
AcDbEntity
  8
Des_ Roofs
  6
Continuous
 48
0.999999999999998
100
AcDbLine
 10
189.9852982620368
 20
137.560163091064
 30
0.0
 11
187.9085134404111
 21
139.7302622384592
 31
0.0
  0
LINE
  5
175
330
E3
100
AcDbEntity
  8
Des_ Roofs
  6
Continuous
 48
0.999999999999998
100
AcDbLine
 10
191.2224747431403
 20
137.2373213289335
 30
0.0
 11
189.9852982620368
 21
137.560163091064
 31
0.0
  0
LINE
  5
176
330
E3
100
AcDbEntity
  8
Des_ Roofs
  6
Continuous
 48
0.999999999999998
100
AcDbLine
 10
192.4684041246493
 20
137.3162389440502
 30
0.0
 11
191.2224747431403
 21
137.2373213289335
 31
0.0
  0
LINE
  5
177
330
E3
100
AcDbEntity
  8
Des_ Roofs
  6
Continuous
 48
0.999999999999998
100
AcDbLine
 10
194.6118991163657
 20
139.095154615259
 30
0.0
 11
192.4684041246493
 21
137.3162389440502
 31
0.0
  0
LINE
  5
178
330
E3
100
AcDbEntity
  8
Des_ Roofs
  6
Continuous
 48
0.999999999999998
100
AcDbLine
 10
195.8769783289571
 20
139.3234625557479
 30
0.0
 11
194.6118991163657
 21
139.095154615259
 31
0.0
  0
LINE
  5
179
330
E3
100
AcDbEntity
  8
Des_ Roofs
  6
Continuous
 48
0.999999999999998
100
AcDbLine
 10
197.1395394698673
 20
138.8556714310283
 30
0.0
 11
195.8769783289571
 21
139.3234625557479
 31
0.0
  0
LINE
  5
17A
330
E3
100
AcDbEntity
  8
Des_ Roofs
  6
Continuous
 48
0.999999999999998
100
AcDbLine
 10
199.2715220875838
 20
136.6479343956788
 30
0.0
 11
197.1395394698673
 21
138.8556714310283
 31
0.0
  0
LINE
  5
17B
330
E3
100
AcDbEntity
  8
Des_ Roofs
  6
Continuous
 48
0.999999999999998
100
AcDbLine
 10
200.5483342655786
 20
136.317888035069
 30
0.0
 11
199.2715220875838
 21
136.6479343956788
 31
0.0
  0
LINE
  5
17C
330
E3
100
AcDbEntity
  8
Des_ Roofs
  6
Continuous
 48
0.999999999999998
100
AcDbLine
 10
201.8370458930548
 20
136.395910798266
 30
0.0
 11
200.5483342655786
 21
136.317888035069
 31
0.0
  0
LINE
  5
17D
330
E3
100
AcDbEntity
  8
Des_ Roofs
  6
Continuous
 48
0.999999999999998
100
AcDbLine
 10
204.0657557601417
 20
138.1994494646243
 30
0.0
 11
201.8370458930548
 21
136.395910798266
 31
0.0
  0
LINE
  5
17E
330
E3
100
AcDbEntity
  8
Des_ Roofs
  6
Continuous
 48
0.999999999999998
100
AcDbLine
 10
205.3756025413315
 20
138.4293098691414
 30
0.0
 11
204.0657557601417
 21
138.1994494646243
 31
0.0
  0
LINE
  5
17F
330
E3
100
AcDbEntity
  8
Des_ Roofs
  6
Continuous
 48
0.999999999999998
100
AcDbLine
 10
206.6781198609834
 20
137.9519417478296
 30
0.0
 11
205.3756025413315
 21
138.4293098691414
 31
0.0
  0
LINE
  5
180
330
E3
100
AcDbEntity
  8
Des_ Roofs
  6
Continuous
 48
0.999999999999998
100
AcDbLine
 10
208.8678682916952
 20
135.7052391140032
 30
0.0
 11
206.6781198609834
 21
137.9519417478296
 31
0.0
  0
LINE
  5
181
330
E3
100
AcDbEntity
  8
Des_ Roofs
  6
Continuous
 48
0.999999999999998
100
AcDbLine
 10
210.1862931650085
 20
135.3676801593696
 30
0.0
 11
208.8678682916952
 21
135.7052391140032
 31
0.0
  0
LINE
  5
182
330
E3
100
AcDbEntity
  8
Des_ Roofs
  6
Continuous
 48
0.999999999999998
100
AcDbLine
 10
211.5199804661809
 20
135.4447123423019
 30
0.0
 11
210.1862931650085
 21
135.3676801593696
 31
0.0
  0
LINE
  5
183
330
E3
100
AcDbEntity
  8
Des_ Roofs
  6
Continuous
 48
0.999999999999998
100
AcDbLine
 10
213.8384710344798
 20
137.273539940122
 30
0.0
 11
211.5199804661809
 21
135.4447123423019
 31
0.0
  0
LINE
  5
184
330
E3
100
AcDbEntity
  8
Des_ Roofs
  6
Continuous
 48
0.999999999999998
100
AcDbLine
 10
215.1954161613613
 20
137.5049195118517
 30
0.0
 11
213.8384710344798
 21
137.273539940122
 31
0.0
  0
LINE
  5
185
330
E3
100
AcDbEntity
  8
Des_ Roofs
  6
Continuous
 48
0.999999999999998
100
AcDbLine
 10
216.5398916307938
 20
137.0175914805682
 30
0.0
 11
215.1954161613613
 21
137.5049195118517
 31
0.0
  0
LINE
  5
186
330
E3
100
AcDbEntity
  8
Des_ Roofs
  6
Continuous
 48
0.999999999999998
100
AcDbLine
 10
218.7901278891777
 20
134.7305331062127
 30
0.0
 11
216.5398916307938
 21
137.0175914805682
 31
0.0
  0
LINE
  5
187
330
E3
100
AcDbEntity
  8
Des_ Roofs
  6
Continuous
 48
0.999999999999998
100
AcDbLine
 10
220.1522798056015
 20
134.385136913603
 30
0.0
 11
218.7901278891777
 21
134.7305331062127
 31
0.0
  0
LINE
  5
188
330
E3
100
AcDbEntity
  8
Des_ Roofs
  6
Continuous
 48
0.999999999999998
100
AcDbLine
 10
221.5332902059709
 20
134.4610578153141
 30
0.0
 11
220.1522798056015
 21
134.385136913603
 31
0.0
  0
LINE
  5
189
330
E3
100
AcDbEntity
  8
Des_ Roofs
  6
Continuous
 48
0.999999999999998
100
AcDbLine
 10
223.9464477831739
 20
136.3158610914183
 30
0.0
 11
221.5332902059709
 21
134.4610578153141
 31
0.0
  0
LINE
  5
18A
330
E3
100
AcDbEntity
  8
Des_ Roofs
  6
Continuous
 48
0.999999999999998
100
AcDbLine
 10
225.3529885169184
 20
136.5487306956468
 30
0.0
 11
223.9464477831739
 21
136.3158610914183
 31
0.0
  0
LINE
  5
18B
330
E3
100
AcDbEntity
  8
Des_ Roofs
  6
Continuous
 48
0.999999999999998
100
AcDbLine
 10
226.7415614565351
 20
136.0510390305022
 30
0.0
 11
225.3529885169184
 21
136.5487306956468
 31
0.0
  0
LINE
  5
18C
330
E3
100
AcDbEntity
  8
Des_ Roofs
  6
Continuous
 48
0.999999999999998
100
AcDbLine
 10
229.0551906897537
 20
133.7221473694247
 30
0.0
 11
226.7415614565351
 21
136.0510390305022
 31
0.0
  0
LINE
  5
18D
330
E3
100
AcDbEntity
  8
Des_ Roofs
  6
Continuous
 48
0.999999999999998
100
AcDbLine
 10
230.4633338327499
 20
133.3685684843768
 30
0.0
 11
229.0551906897537
 21
133.7221473694247
 31
0.0
  0
LINE
  5
18E
330
E3
100
AcDbEntity
  8
Des_ Roofs
  6
Continuous
 48
0.999999999999998
100
AcDbLine
 10
231.8941729176917
 20
133.4432615660119
 30
0.0
 11
230.4633338327499
 21
133.3685684843768
 31
0.0
  0
LINE
  5
18F
330
E3
100
AcDbEntity
  8
Des_ Roofs
  6
Continuous
 48
0.999999999999998
100
AcDbLine
 10
234.4072500764624
 20
135.324756401936
 30
0.0
 11
231.8941729176917
 21
133.4432615660119
 31
0.0
  0
LINE
  5
190
330
E3
100
AcDbEntity
  8
Des_ Roofs
  6
Continuous
 48
0.999999999999998
100
AcDbLine
 10
235.6269707019781
 20
135.5206790271344
 30
0.0
 11
234.4072500764624
 21
135.324756401936
 31
0.0
  0
LINE
  5
191
330
E3
100
AcDbEntity
  8
Des_ Roofs
  6
Continuous
 48
0.999999999999998
100
AcDbLine
 10
235.6269707019781
 20
135.5206790271344
 30
0.0
 11
235.511301726623
 21
132.711106211591
 31
0.0
  0
LINE
  5
192
330
E3
100
AcDbEntity
  8
Des_ Roofs
  6
Continuous
 48
0.999999999999998
100
AcDbLine
 10
114.211322911997
 20
92.06944176472703
 30
0.0
 11
114.8768346899585
 21
90.14377037868182
 31
0.0
  0
LINE
  5
193
330
E3
100
AcDbEntity
  8
Des_ Roofs
  6
Continuous
 48
0.999999999999998
100
AcDbLine
 10
187.4347538614919
 20
74.90744722321271
 30
0.0
 11
186.8603879541829
 21
77.54634472400002
 31
0.0
  0
LINE
  5
194
330
E3
100
AcDbEntity
  8
Des_ Roofs
  6
Continuous
 48
0.999999999999998
100
AcDbLine
 10
186.8603879541829
 20
77.54634472400002
 30
0.0
 11
185.5402316464574
 21
77.53921920545775
 31
0.0
  0
LINE
  5
195
330
E3
100
AcDbEntity
  8
Des_ Roofs
  6
Continuous
 48
0.999999999999998
100
AcDbLine
 10
185.5402316464574
 20
77.53921920545775
 30
0.0
 11
183.2028909184167
 21
76.12915733346159
 31
0.0
  0
LINE
  5
196
330
E3
100
AcDbEntity
  8
Des_ Roofs
  6
Continuous
 48
0.999999999999998
100
AcDbLine
 10
183.2028909184167
 20
76.12915733346159
 30
0.0
 11
181.6244387256363
 21
76.268333860643
 31
0.0
  0
LINE
  5
197
330
E3
100
AcDbEntity
  8
Des_ Roofs
  6
Continuous
 48
0.999999999999998
100
AcDbLine
 10
181.6244387256363
 20
76.268333860643
 30
0.0
 11
179.9637267498715
 21
76.80741346760084
 31
0.0
  0
LINE
  5
198
330
E3
100
AcDbEntity
  8
Des_ Roofs
  6
Continuous
 48
0.999999999999998
100
AcDbLine
 10
179.9637267498715
 20
76.80741346760084
 30
0.0
 11
176.7829651959204
 21
79.34326981035619
 31
0.0
  0
LINE
  5
199
330
E3
100
AcDbEntity
  8
Des_ Roofs
  6
Continuous
 48
0.999999999999998
100
AcDbLine
 10
176.7829651959204
 20
79.34326981035619
 30
0.0
 11
175.1064663674507
 21
80.01534938519828
 31
0.0
  0
LINE
  5
19A
330
E3
100
AcDbEntity
  8
Des_ Roofs
  6
Continuous
 48
0.999999999999998
100
AcDbLine
 10
175.1064663674507
 20
80.01534938519828
 30
0.0
 11
173.6032400053553
 21
79.99831390190771
 31
0.0
  0
LINE
  5
19B
330
E3
100
AcDbEntity
  8
Des_ Roofs
  6
Continuous
 48
0.999999999999998
100
AcDbLine
 10
173.6032400053553
 20
79.99831390190771
 30
0.0
 11
171.4167879593896
 21
78.59707568605032
 31
0.0
  0
LINE
  5
19C
330
E3
100
AcDbEntity
  8
Des_ Roofs
  6
Continuous
 48
0.999999999999998
100
AcDbLine
 10
171.4167879593896
 20
78.59707568605032
 30
0.0
 11
169.9094577647693
 21
78.72538080293242
 31
0.0
  0
LINE
  5
19D
330
E3
100
AcDbEntity
  8
Des_ Roofs
  6
Continuous
 48
0.999999999999998
100
AcDbLine
 10
169.9094577647693
 20
78.72538080293242
 30
0.0
 11
168.3124758940975
 21
79.24709612054545
 31
0.0
  0
LINE
  5
19E
330
E3
100
AcDbEntity
  8
Des_ Roofs
  6
Continuous
 48
0.999999999999998
100
AcDbLine
 10
168.3124758940975
 20
79.24709612054545
 30
0.0
 11
165.2119055584604
 21
81.72698051624691
 31
0.0
  0
LINE
  5
19F
330
E3
100
AcDbEntity
  8
Des_ Roofs
  6
Continuous
 48
0.999999999999998
100
AcDbLine
 10
165.2119055584604
 20
81.72698051624691
 30
0.0
 11
163.5958570987453
 21
82.37977707274422
 31
0.0
  0
LINE
  5
1A0
330
E3
100
AcDbEntity
  8
Des_ Roofs
  6
Continuous
 48
0.999999999999998
100
AcDbLine
 10
163.5958570987453
 20
82.37977707274422
 30
0.0
 11
162.1636694927709
 21
82.3549334861912
 31
0.0
  0
LINE
  5
1A1
330
E3
100
AcDbEntity
  8
Des_ Roofs
  6
Continuous
 48
0.999999999999998
100
AcDbLine
 10
162.1636694927709
 20
82.3549334861912
 30
0.0
 11
160.1177258466114
 21
80.96301005450297
 31
0.0
  0
LINE
  5
1A2
330
E3
100
AcDbEntity
  8
Des_ Roofs
  6
Continuous
 48
0.999999999999998
100
AcDbLine
 10
160.1177258466114
 20
80.96301005450297
 30
0.0
 11
158.6770558768584
 21
81.08121791204891
 31
0.0
  0
LINE
  5
1A3
330
E3
100
AcDbEntity
  8
Des_ Roofs
  6
Continuous
 48
0.999999999999998
100
AcDbLine
 10
158.6770558768584
 20
81.08121791204891
 30
0.0
 11
157.1400207606048
 21
81.58651789956225
 31
0.0
  0
LINE
  5
1A4
330
E3
100
AcDbEntity
  8
Des_ Roofs
  6
Continuous
 48
0.999999999999998
100
AcDbLine
 10
157.1400207606048
 20
81.58651789956225
 30
0.0
 11
154.1158083473838
 21
84.0128443673421
 31
0.0
  0
LINE
  5
1A5
330
E3
100
AcDbEntity
  8
Des_ Roofs
  6
Continuous
 48
0.999999999999998
100
AcDbLine
 10
154.1158083473838
 20
84.0128443673421
 30
0.0
 11
152.5567057665793
 21
84.64735680996316
 31
0.0
  0
LINE
  5
1A6
330
E3
100
AcDbEntity
  8
Des_ Roofs
  6
Continuous
 48
0.999999999999998
100
AcDbLine
 10
152.5567057665793
 20
84.64735680996316
 30
0.0
 11
151.1910701708215
 21
84.61535857015423
 31
0.0
  0
LINE
  5
1A7
330
E3
100
AcDbEntity
  8
Des_ Roofs
  6
Continuous
 48
0.999999999999998
100
AcDbLine
 10
151.1910701708215
 20
84.61535857015423
 30
0.0
 11
149.2761328457112
 21
83.23315780862646
 31
0.0
  0
LINE
  5
1A8
330
E3
100
AcDbEntity
  8
Des_ Roofs
  6
Continuous
 48
0.999999999999998
100
AcDbLine
 10
149.2761328457112
 20
83.23315780862646
 30
0.0
 11
147.8980192683005
 21
83.34196347786227
 31
0.0
  0
LINE
  5
1A9
330
E3
100
AcDbEntity
  8
Des_ Roofs
  6
Continuous
 48
0.999999999999998
100
AcDbLine
 10
147.8980192683005
 20
83.34196347786227
 30
0.0
 11
146.4174472271312
 21
83.83174298719564
 31
0.0
  0
LINE
  5
1AA
330
E3
100
AcDbEntity
  8
Des_ Roofs
  6
Continuous
 48
0.999999999999998
100
AcDbLine
 10
146.4174472271312
 20
83.83174298719564
 30
0.0
 11
143.4660133286473
 21
86.20676738631202
 31
0.0
  0
LINE
  5
1AB
330
E3
100
AcDbEntity
  8
Des_ Roofs
  6
Continuous
 48
0.999999999999998
100
AcDbLine
 10
143.4660133286473
 20
86.20676738631202
 30
0.0
 11
141.9606393219445
 21
86.82392386379217
 31
0.0
  0
LINE
  5
1AC
330
E3
100
AcDbEntity
  8
Des_ Roofs
  6
Continuous
 48
0.999999999999998
100
AcDbLine
 10
141.9606393219445
 20
86.82392386379217
 30
0.0
 11
140.6574186070627
 21
86.78535782710259
 31
0.0
  0
LINE
  5
1AD
330
E3
100
AcDbEntity
  8
Des_ Roofs
  6
Continuous
 48
0.999999999999998
100
AcDbLine
 10
140.6574186070627
 20
86.78535782710259
 30
0.0
 11
138.8647721615134
 21
85.41321270389146
 31
0.0
  0
LINE
  5
1AE
330
E3
100
AcDbEntity
  8
Des_ Roofs
  6
Continuous
 48
0.999999999999998
100
AcDbLine
 10
138.8647721615134
 20
85.41321270389146
 30
0.0
 11
137.5454399499745
 21
85.51326963482364
 31
0.0
  0
LINE
  5
1AF
330
E3
100
AcDbEntity
  8
Des_ Roofs
  6
Continuous
 48
0.999999999999998
100
AcDbLine
 10
137.5454399499745
 20
85.51326963482364
 30
0.0
 11
136.1181095169784
 21
85.98834443795973
 31
0.0
  0
LINE
  5
1B0
330
E3
100
AcDbEntity
  8
Des_ Roofs
  6
Continuous
 48
0.999999999999998
100
AcDbLine
 10
136.1181095169784
 20
85.98834443795973
 30
0.0
 11
133.2361244516698
 21
88.31418944040826
 31
0.0
  0
LINE
  5
1B1
330
E3
100
AcDbEntity
  8
Des_ Roofs
  6
Continuous
 48
0.999999999999998
100
AcDbLine
 10
133.2361244516698
 20
88.31418944040826
 30
0.0
 11
131.7814947919688
 21
88.91485150785164
 31
0.0
  0
LINE
  5
1B2
330
E3
100
AcDbEntity
  8
Des_ Roofs
  6
Continuous
 48
0.999999999999998
100
AcDbLine
 10
131.7814947919688
 20
88.91485150785164
 30
0.0
 11
130.5368889588806
 21
88.87024626122933
 31
0.0
  0
LINE
  5
1B3
330
E3
100
AcDbEntity
  8
Des_ Roofs
  6
Continuous
 48
0.999999999999998
100
AcDbLine
 10
130.5368889588806
 20
88.87024626122933
 30
0.0
 11
128.8585421571441
 21
87.5084397992676
 31
0.0
  0
LINE
  5
1B4
330
E3
100
AcDbEntity
  8
Des_ Roofs
  6
Continuous
 48
0.999999999999998
100
AcDbLine
 10
128.8585421571441
 20
87.5084397992676
 30
0.0
 11
127.5945034700409
 21
87.6003348482714
 31
0.0
  0
LINE
  5
1B5
330
E3
100
AcDbEntity
  8
Des_ Roofs
  6
Continuous
 48
0.999999999999998
100
AcDbLine
 10
127.5945034700409
 20
87.6003348482714
 30
0.0
 11
126.2174387423222
 21
88.06146660986742
 31
0.0
  0
LINE
  5
1B6
330
E3
100
AcDbEntity
  8
Des_ Roofs
  6
Continuous
 48
0.999999999999998
100
AcDbLine
 10
126.2174387423222
 20
88.06146660986742
 30
0.0
 11
123.4017892579285
 21
90.34012170038133
 31
0.0
  0
LINE
  5
1B7
330
E3
100
AcDbEntity
  8
Des_ Roofs
  6
Continuous
 48
0.999999999999998
100
AcDbLine
 10
123.4017892579285
 20
90.34012170038133
 30
0.0
 11
121.9951444716352
 21
90.92509264346468
 31
0.0
  0
LINE
  5
1B8
330
E3
100
AcDbEntity
  8
Des_ Roofs
  6
Continuous
 48
0.999999999999998
100
AcDbLine
 10
121.9951444716352
 20
90.92509264346468
 30
0.0
 11
120.8056490304967
 21
90.87494347704201
 31
0.0
  0
LINE
  5
1B9
330
E3
100
AcDbEntity
  8
Des_ Roofs
  6
Continuous
 48
0.999999999999998
100
AcDbLine
 10
120.8056490304967
 20
90.87494347704201
 30
0.0
 11
119.2342349521176
 21
89.52369626773313
 31
0.0
  0
LINE
  5
1BA
330
E3
100
AcDbEntity
  8
Des_ Roofs
  6
Continuous
 48
0.999999999999998
100
AcDbLine
 10
119.2342349521176
 20
89.52369626773313
 30
0.0
 11
118.0222766467428
 21
89.60797467016432
 31
0.0
  0
LINE
  5
1BB
330
E3
100
AcDbEntity
  8
Des_ Roofs
  6
Continuous
 48
0.999999999999998
100
AcDbLine
 10
118.0222766467428
 20
89.60797467016432
 30
0.0
 11
116.6927264749111
 21
90.05586678545022
 31
0.0
  0
LINE
  5
1BC
330
E3
100
AcDbEntity
  8
Des_ Roofs
  6
Continuous
 48
0.999999999999998
100
AcDbLine
 10
114.8768346899585
 20
90.14377037868182
 30
0.0
 11
187.4347538614919
 21
74.90744722321271
 31
0.0
  0
LINE
  5
1BD
330
E3
100
AcDbEntity
  8
Des_ Roofs
  6
Continuous
 48
0.999999999999998
100
AcDbLine
 10
121.0451821599509
 20
92.30122506034607
 30
0.0
 11
118.0222766467428
 21
89.60797467016432
 31
0.0
  0
LINE
  5
1BE
330
E3
100
AcDbEntity
  8
Des_ Roofs
  6
Continuous
 48
0.999999999999998
100
AcDbLine
 10
130.5819187399021
 20
90.36494031432261
 30
0.0
 11
127.5945034700409
 21
87.6003348482714
 31
0.0
  0
LINE
  5
1BF
330
E3
100
AcDbEntity
  8
Des_ Roofs
  6
Continuous
 48
0.999999999999998
100
AcDbLine
 10
191.2224747431403
 20
137.2373213289335
 30
0.0
 11
137.5454399499745
 21
85.51326963482364
 31
0.0
  0
LINE
  5
1C0
330
E3
100
AcDbEntity
  8
Des_ Roofs
  6
Continuous
 48
0.999999999999998
100
AcDbLine
 10
200.5483342655786
 20
136.317888035069
 30
0.0
 11
147.8980192683005
 21
83.34196347786227
 31
0.0
  0
LINE
  5
1C1
330
E3
100
AcDbEntity
  8
Des_ Roofs
  6
Continuous
 48
0.999999999999998
100
AcDbLine
 10
210.1862931650085
 20
135.3676801593696
 30
0.0
 11
158.6770558768584
 21
81.08121791204891
 31
0.0
  0
LINE
  5
1C2
330
E3
100
AcDbEntity
  8
Des_ Roofs
  6
Continuous
 48
0.999999999999998
100
AcDbLine
 10
220.1522798056015
 20
134.385136913603
 30
0.0
 11
169.9094577647693
 21
78.72538080293242
 31
0.0
  0
LINE
  5
1C3
330
E3
100
AcDbEntity
  8
Des_ Roofs
  6
Continuous
 48
0.999999999999998
100
AcDbLine
 10
230.4633338327499
 20
133.3685684843768
 30
0.0
 11
181.6244387256363
 21
76.268333860643
 31
0.0
  0
LINE
  5
1C4
330
E3
100
AcDbEntity
  8
Des_ Roofs
  6
Continuous
 48
0.999999999999998
100
AcDbLine
 10
235.6269707019781
 20
135.5206790271344
 30
0.0
 11
186.8603879541829
 21
77.54634472400002
 31
0.0
  0
LINE
  5
1C5
330
E3
100
AcDbEntity
  8
Des_ Roofs
  6
Continuous
 48
0.999999999999998
100
AcDbLine
 10
235.511301726623
 20
132.711106211591
 30
0.0
 11
198.453577487723
 21
88.15566330125083
 31
0.0
  0
LINE
  5
1C6
330
E3
100
AcDbEntity
  8
Des_ Roofs
  6
Continuous
 48
0.999999999999998
100
AcDbLine
 10
192.422666786296
 20
80.90454084627771
 30
0.0
 11
187.4347538614919
 21
74.90744722321271
 31
0.0
  0
LINE
  5
1C7
330
E3
100
AcDbEntity
  8
Des_ Roofs
  6
Continuous
 48
0.999999999999998
100
AcDbLine
 10
191.3151772399228
 20
54.86913223714676
 30
0.0
 11
226.1340485692783
 21
77.40451277577307
 31
0.0
  0
LINE
  5
1C8
330
E3
100
AcDbEntity
  8
Des_ Roofs
  6
Continuous
 48
0.999999999999998
100
AcDbLine
 10
226.1340485692783
 20
77.40451277577307
 30
0.0
 11
226.1648522858269
 21
78.26823217290473
 31
0.0
  0
LINE
  5
1C9
330
E3
100
AcDbEntity
  8
Des_ Roofs
  6
Continuous
 48
0.999999999999998
100
AcDbLine
 10
192.5031118928291
 20
56.6406768257981
 30
0.0
 11
226.1648522858269
 21
78.26823217290473
 31
0.0
  0
LINE
  5
1CA
330
E3
100
AcDbEntity
  8
Des_ Roofs
  6
Continuous
 48
0.999999999999998
100
AcDbLine
 10
191.3171708867579
 20
55.0947889186921
 30
0.0
 11
192.5031118928291
 21
56.6406768257981
 31
0.0
  0
LINE
  5
1CB
330
E3
100
AcDbEntity
  8
Des_ Roofs
  6
Continuous
 48
0.999999999999998
100
AcDbLine
 10
191.3151772399228
 20
54.86913223714676
 30
0.0
 11
191.3171708867579
 21
55.0947889186921
 31
0.0
  0
LINE
  5
1CC
330
E3
100
AcDbEntity
  8
Des_ Roofs
  6
Continuous
 48
0.999999999999998
100
AcDbLine
 10
186.8603879541829
 20
77.54634472400002
 30
0.0
 11
235.6269707019781
 21
135.5206790271344
 31
0.0
  0
LINE
  5
1CD
330
E3
100
AcDbEntity
  8
Des_ Roofs
  6
Continuous
 48
0.999999999999998
100
AcDbLine
 10
187.4347538614919
 20
74.90744722321271
 30
0.0
 11
186.8603879541829
 21
77.54634472400002
 31
0.0
  0
LINE
  5
1CE
330
E3
100
AcDbEntity
  8
Des_ Roofs
  6
Continuous
 48
0.999999999999998
100
AcDbLine
 10
187.4347538614919
 20
74.90744722321271
 30
0.0
 11
235.511301726623
 21
132.711106211591
 31
0.0
  0
LINE
  5
1CF
330
E3
100
AcDbEntity
  8
Des_ Roofs
  6
Continuous
 48
0.999999999999998
100
AcDbLine
 10
235.511301726623
 20
132.711106211591
 30
0.0
 11
235.6269707019781
 21
135.5206790271344
 31
0.0
  0
LINE
  5
1D0
330
E3
100
AcDbEntity
  8
Des_ Roofs
  6
Continuous
 48
0.999999999999998
100
AcDbLine
 10
193.7734062191667
 20
74.34191329624637
 30
0.0
 11
192.422666786296
 21
80.90454084627771
 31
0.0
  0
LINE
  5
1D1
330
E3
100
AcDbEntity
  8
Des_ Roofs
  6
Continuous
 48
0.999999999999998
100
AcDbLine
 10
193.7734062191667
 20
74.34191329624637
 30
0.0
 11
199.6983373185835
 21
81.66815336725375
 31
0.0
  0
LINE
  5
1D2
330
E3
100
AcDbEntity
  8
Des_ Roofs
  6
Continuous
 48
0.999999999999998
100
AcDbLine
 10
199.6983373185835
 20
81.66815336725375
 30
0.0
 11
198.453577487723
 21
88.15566330125083
 31
0.0
  0
LINE
  5
1D3
330
E3
100
AcDbEntity
  8
Des_ Roofs
  6
Continuous
 48
0.999999999999998
100
AcDbLine
 10
192.422666786296
 20
80.90454084627771
 30
0.0
 11
198.453577487723
 21
88.15566330125083
 31
0.0
  0
LINE
  5
1D4
330
E3
100
AcDbEntity
  8
Des_ Roofs
  6
Continuous
 48
0.999999999999998
100
AcDbLine
 10
189.6169772118741
 20
50.9752860799199
 30
0.0
 11
189.7919270053351
 21
74.25185789630545
 31
0.0
  0
LINE
  5
1D5
330
E3
100
AcDbEntity
  8
Des_ Roofs
  6
Continuous
 48
0.999999999999998
100
AcDbLine
 10
189.6169772118741
 20
50.9752860799199
 30
0.0
 11
191.2905417584674
 21
52.08017431257293
 31
0.0
  0
LINE
  5
1D6
330
E3
100
AcDbEntity
  8
Des_ Roofs
  6
Continuous
 48
0.999999999999998
100
AcDbLine
 10
191.2905417584674
 20
52.08017431257293
 30
0.0
 11
191.4946886971235
 21
75.1926802321026
 31
0.0
  0
LINE
  5
1D7
330
E3
100
AcDbEntity
  8
Des_ Roofs
  6
Continuous
 48
0.999999999999998
100
AcDbLine
 10
189.7919270053351
 20
74.25185789630545
 30
0.0
 11
191.4946886971235
 21
75.1926802321026
 31
0.0
  0
LINE
  5
1D8
330
E3
100
AcDbEntity
  8
Des_ Roof Beams
  6
Continuous
 48
0.999999999999998
100
AcDbLine
 10
97.35401504389743
 20
75.58487093696151
 30
0.0
 11
93.73002292884688
 21
76.48566633828382
 31
0.0
  0
LINE
  5
1D9
330
E3
100
AcDbEntity
  8
Des_ Roof Beams
  6
Continuous
 48
0.999999999999998
100
AcDbLine
 10
93.73002292884688
 20
76.48566633828382
 30
0.0
 11
93.62176665706876
 21
78.10135269512911
 31
0.0
  0
LINE
  5
1DA
330
E3
100
AcDbEntity
  8
Des_ Roof Beams
  6
Continuous
 48
0.999999999999998
100
AcDbLine
 10
93.62176665706876
 20
78.10135269512911
 30
0.0
 11
97.24949217757049
 21
77.21191567003449
 31
0.0
  0
LINE
  5
1DB
330
E3
100
AcDbEntity
  8
Des_ Roof Beams
  6
Continuous
 48
0.999999999999998
100
AcDbLine
 10
97.24949217757049
 20
77.21191567003449
 30
0.0
 11
97.35401504389743
 21
75.58487093696151
 31
0.0
  0
LINE
  5
1DC
330
E3
100
AcDbEntity
  8
Des_ Roof Beams
  6
Continuous
 48
0.999999999999998
100
AcDbLine
 10
103.7414638848604
 20
78.02565238482154
 30
0.0
 11
97.35401504389743
 21
75.58487093696151
 31
0.0
  0
LINE
  5
1DD
330
E3
100
AcDbEntity
  8
Des_ Roof Beams
  6
Continuous
 48
0.999999999999998
100
AcDbLine
 10
103.5205936205601
 20
81.75852508694304
 30
0.0
 11
93.62176665706876
 21
78.10135269512911
 31
0.0
  0
LINE
  5
1DE
330
E3
100
AcDbEntity
  8
Des_ Roof Beams
  6
Continuous
 48
0.999999999999998
100
AcDbLine
 10
103.6470174673599
 20
79.62188091504002
 30
0.0
 11
97.24949217757049
 21
77.21191567003449
 31
0.0
  0
LINE
  5
1E0
330
E3
100
AcDbEntity
  8
Des_ Roofs
  6
Contour Line
 48
0.999999999999998
100
AcDbLine
 10
136.0949349333083
 20
119.8286348426072
 30
0.0
 11
112.2221961195878
 21
97.83843139029877
 31
0.0
  0
LINE
  5
1E1
330
E3
100
AcDbEntity
  8
Des_ Roofs
  6
Contour Line
 48
0.999999999999998
100
AcDbLine
 10
112.2221961195878
 20
97.83843139029877
 30
0.0
 11
110.3181135563689
 21
98.39107944962095
 31
0.0
  0
LINE
  5
1E2
330
E3
100
AcDbEntity
  8
Des_ Roofs
  6
Contour Line
 48
0.999999999999998
100
AcDbLine
 10
134.0008857127846
 20
120.0272669961766
 30
0.0
 11
110.3181135563689
 21
98.39107944962095
 31
0.0
  0
MTEXT
  5
1E4
330
E3
100
AcDbEntity
  8
0
  6
Continuous
100
AcDbMText
 10
249.3953058099475
 20
148.9033299702785
 30
0.0
 40
2.499999999999994
 41
46.56436411831652
 71
     4
 72
     1
  1
\A1;{\fCentury Gothic|b0|i0|c0|p34;TRS CORRUGATE ON ROOFING UNDERLAY\PMIN. ROOF PITCH 8\fArial|b0|i0|c0|p34;\H1.029412x;\U+00B0}
  7
GENERATED_STYLE_1
 73
     1
 44
1.058454985772255
  0
LINE
  5
1E5
330
E3
100
AcDbEntity
  8
Des_ Roofs
  6
Continuous
 48
0.999999999999998
100
AcDbLine
 10
218.847456681468
 20
128.3663545772648
 30
0.0
 11
221.0959115602164
 21
131.5084335556718
 31
0.0
  0
LINE
  5
1E6
330
E3
100
AcDbEntity
  8
Des_ Roofs
  6
Continuous
 48
0.999999999999998
100
AcDbLine
 10
218.847456681468
 20
128.3663545772648
 30
0.0
 11
222.3657147585236
 21
129.9632490437957
 31
0.0
  0
LINE
  5
1E7
330
E3
100
AcDbEntity
  8
Des_ Roofs
  6
Continuous
 48
0.999999999999998
100
AcDbLine
 10
221.0959115602164
 20
131.5084335556718
 30
0.0
 11
222.3657147585236
 21
129.9632490437957
 31
0.0
  0
LWPOLYLINE
  5
1E8
330
E3
100
AcDbEntity
  8
Des_ Roofs
  6
Continuous
 48
0.999999999999998
100
AcDbPolyline
 90
        8
 70
   128
 43
0.0
 10
221.7308120537561
 20
130.7358418358436
 10
232.4327512370918
 20
139.3059126949782
 10
236.5910253280227
 20
142.4572497740457
 10
240.0521645862837
 20
144.920961300086
 10
242.8896656377407
 20
146.7481772835789
 10
245.1770251082597
 20
147.9900277350038
 10
246.9877396237067
 20
148.6976426648404
 10
248.3953058099476
 20
148.9221520835682
  0
MTEXT
  5
1E9
330
E3
100
AcDbEntity
  8
0
  6
Continuous
100
AcDbMText
 10
249.3953058099475
 20
99.94500443831512
 30
0.0
 40
2.499999999999994
 41
0.0
 71
     4
 72
     1
  1
{PURLIN}
  7
GENERATED_STYLE_1
 73
     1
 44
1.0
  0
LINE
  5
1EA
330
E3
100
AcDbEntity
  8
Des_ Roofs
  6
Continuous
 48
0.999999999999998
100
AcDbLine
 10
198.0466612661571
 20
83.19902441051602
 30
0.0
 11
201.0923709359616
 21
85.57638374882762
 31
0.0
  0
LINE
  5
1EB
330
E3
100
AcDbEntity
  8
Des_ Roofs
  6
Continuous
 48
0.999999999999998
100
AcDbLine
 10
198.0466612661571
 20
83.19902441051602
 30
0.0
 11
201.8730022918203
 21
83.73502406202918
 31
0.0
  0
LINE
  5
1EC
330
E3
100
AcDbEntity
  8
Des_ Roofs
  6
Continuous
 48
0.999999999999998
100
AcDbLine
 10
201.0923709359616
 20
85.57638374882762
 30
0.0
 11
201.8730022918203
 21
83.73502406202918
 31
0.0
  0
LWPOLYLINE
  5
1ED
330
E3
100
AcDbEntity
  8
Des_ Roofs
  6
Continuous
 48
0.999999999999998
100
AcDbPolyline
 90
        9
 70
   128
 43
0.0
 10
201.4826867018723
 20
84.6557043269173
 10
210.9739252401023
 20
88.60700373176297
 10
219.1674835514222
 20
91.89002624465637
 10
226.1940358707554
 20
94.54836545264392
 10
232.1842564330257
 20
96.62561494277205
 10
237.2688194731565
 20
98.16536830208717
 10
241.5783992260714
 20
99.21121911763575
 10
245.2436699266939
 20
99.80676097646418
 10
248.3953058099476
 20
99.99558746561888
  0
HATCH
  5
1EE
330
E3
100
AcDbEntity
  8
Des_ Roofs
  6
Continuous
 62
   255
 48
0.999999999999998
370
    18
100
AcDbHatch
 10
0.0
 20
0.0
 30
0.0
210
0.0
220
0.0
230
1.0
  2
SOLID
 70
     1
 71
     0
 91
        1
 92
        3
 72
     0
 73
     1
 93
        5
 10
133.8610055414489
 20
88.85136855137155
 10
132.3942636476692
 20
89.99697371558845
 10
131.756312330988
 20
89.35902239890727
 10
132.3029609095331
 20
88.9227757814876
 10
133.4579352720757
 20
88.39624335150494
 97
        0
 75
     0
 76
     1
 98
        0
  0
LINE
  5
1EF
330
E3
100
AcDbEntity
  8
Des_ Roofs
  6
Continuous
 62
   255
 48
0.999999999999998
370
    18
100
AcDbLine
 10
133.8610057903733
 20
88.8513669667739
 30
0.0
 11
132.3942644139913
 21
89.99697304282583
 31
0.0
  0
LINE
  5
1F0
330
E3
100
AcDbEntity
  8
Des_ Roofs
  6
Continuous
 62
   255
 48
0.999999999999998
370
    18
100
AcDbLine
 10
132.3942644139913
 20
89.99697304282583
 30
0.0
 11
131.7563140751577
 21
89.35902270399222
 31
0.0
  0
LINE
  5
1F1
330
E3
100
AcDbEntity
  8
Des_ Roofs
  6
Continuous
 62
   255
 48
0.999999999999998
370
    18
100
AcDbLine
 10
131.7563140751577
 20
89.35902270399222
 30
0.0
 11
132.3029603834647
 21
88.92277614996873
 31
0.0
  0
LINE
  5
1F2
330
E3
100
AcDbEntity
  8
Des_ Roofs
  6
Continuous
 62
   255
 48
0.999999999999998
370
    18
100
AcDbLine
 10
132.3029603834647
 20
88.92277614996873
 30
0.0
 11
133.4579353510112
 21
88.39624528039694
 31
0.0
  0
LINE
  5
1F3
330
E3
100
AcDbEntity
  8
Des_ Roofs
  6
Continuous
 62
   255
 48
0.999999999999998
370
    18
100
AcDbLine
 10
133.4579353510112
 20
88.39624528039694
 30
0.0
 11
133.8610057903733
 21
88.8513669667739
 31
0.0
  0
MTEXT
  5
1F4
330
E3
100
AcDbEntity
  8
0
  6
Continuous
100
AcDbMText
 10
249.3953058099475
 20
64.43479823618088
 30
0.0
 40
2.499999999999994
 41
0.0
 71
     4
 72
     1
  1
{ROOF FRAME}
  7
GENERATED_STYLE_1
 73
     1
 44
1.0
  0
LINE
  5
1F5
330
E3
100
AcDbEntity
  8
Des_ Roofs
  6
Continuous
 48
0.999999999999998
100
AcDbLine
 10
204.0681864276818
 20
78.71788901941837
 30
0.0
 11
207.8854374226813
 21
78.12058160614852
 31
0.0
  0
LINE
  5
1F6
330
E3
100
AcDbEntity
  8
Des_ Roofs
  6
Continuous
 48
0.999999999999998
100
AcDbLine
 10
204.0681864276818
 20
78.71788901941837
 30
0.0
 11
207.0753675197142
 21
76.29197876183376
 31
0.0
  0
LINE
  5
1F7
330
E3
100
AcDbEntity
  8
Des_ Roofs
  6
Continuous
 48
0.999999999999998
100
AcDbLine
 10
207.8854374226813
 20
78.12058160614852
 30
0.0
 11
207.0753675197142
 21
76.29197876183376
 31
0.0
  0
LWPOLYLINE
  5
1F8
330
E3
100
AcDbEntity
  8
Des_ Roofs
  6
Continuous
 48
0.999999999999998
100
AcDbPolyline
 90
        9
 70
   128
 43
0.0
 10
207.4804036119061
 20
77.20628017655442
 10
215.0944455626081
 20
73.92353065593544
 10
221.7706676840996
 20
71.19521908990063
 10
227.6208828658505
 20
68.98536458233647
 10
232.756903997331
 20
67.25798623712944
 10
237.2905439680109
 20
65.97710315816603
 10
241.3336156673603
 20
65.10673444933272
 10
244.9979319848492
 20
64.61089921451597
 10
248.3953058099476
 20
64.45361655760229
  0
MTEXT
  5
1F9
330
E3
100
AcDbEntity
  8
0
  6
Continuous
100
AcDbMText
 10
249.3953058099475
 20
52.23894138117671
 30
0.0
 40
2.499999999999994
 41
0.0
 71
     4
 72
     1
  1
{SOFFIT BOARD}
  7
GENERATED_STYLE_1
 73
     1
 44
1.0
  0
LINE
  5
1FA
330
E3
100
AcDbEntity
  8
Des_ Roofs
  6
Continuous
 48
0.999999999999998
100
AcDbLine
 10
205.7486101182924
 20
69.47554623475399
 30
0.0
 11
209.4904355017132
 21
68.51276464905676
 31
0.0
  0
LINE
  5
1FB
330
E3
100
AcDbEntity
  8
Des_ Roofs
  6
Continuous
 48
0.999999999999998
100
AcDbLine
 10
205.7486101182924
 20
69.47554623475399
 30
0.0
 11
208.5077340960725
 21
66.77084173999961
 31
0.0
  0
LINE
  5
1FC
330
E3
100
AcDbEntity
  8
Des_ Roofs
  6
Continuous
 48
0.999999999999998
100
AcDbLine
 10
209.4904355017132
 20
68.51276464905676
 30
0.0
 11
208.5077340960725
 21
66.77084173999961
 31
0.0
  0
LWPOLYLINE
  5
1FD
330
E3
100
AcDbEntity
  8
Des_ Roofs
  6
Continuous
 48
0.999999999999998
100
AcDbPolyline
 90
        9
 70
   128
 43
0.0
 10
208.999084586405
 20
67.64180449796675
 10
216.222636190458
 20
63.68176470355458
 10
222.5743467309774
 20
60.39052756783315
 10
228.1617047467141
 20
57.72469664645584
 10
233.0921987764194
 20
55.64087549507599
 10
237.4733173588442
 20
54.09566766934694
 10
241.4125490327398
 20
53.04567672492205
 10
245.0173823368573
 20
52.44750621745466
 10
248.3953058099476
 20
52.25775970259811
  0
MTEXT
  5
1FE
330
E3
100
AcDbEntity
  8
0
  6
Continuous
100
AcDbMText
 10
249.3953058099475
 20
37.47808288603277
 30
0.0
 40
2.499999999999994
 41
0.0
 71
     4
 72
     1
  1
{FASCIA}
  7
GENERATED_STYLE_1
 73
     1
 44
1.0
  0
LINE
  5
1FF
330
E3
100
AcDbEntity
  8
Des_ Roofs
  6
Continuous
 48
0.999999999999998
100
AcDbLine
 10
190.4808839035936
 20
52.71974370906596
 30
0.0
 11
194.3377372986689
 21
52.48972098257272
 31
0.0
  0
LINE
  5
200
330
E3
100
AcDbEntity
  8
Des_ Roofs
  6
Continuous
 48
0.999999999999998
100
AcDbLine
 10
190.4808839035936
 20
52.71974370906596
 30
0.0
 11
193.7060051401519
 21
50.59211464999154
 31
0.0
  0
LINE
  5
201
330
E3
100
AcDbEntity
  8
Des_ Roofs
  6
Continuous
 48
0.999999999999998
100
AcDbLine
 10
194.3377372986689
 20
52.48972098257272
 30
0.0
 11
193.7060051401519
 21
50.59211464999154
 31
0.0
  0
LWPOLYLINE
  5
202
330
E3
100
AcDbEntity
  8
Des_ Roofs
  6
Continuous
 48
0.999999999999998
100
AcDbPolyline
 90
        9
 70
   128
 43
0.0
 10
194.0218691704534
 20
51.54091657738913
 10
205.080614550972
 20
47.92229621477891
 10
214.6169103889083
 20
44.91609032773069
 10
222.7831149126133
 20
42.48225145580179
 10
229.7315863504377
 20
40.58073213854956
 10
235.6146829307324
 20
39.17148491553134
 10
240.5847628818484
 20
38.21446232630448
 10
244.7941844321365
 20
37.66961691042631
 10
248.3953058099476
 20
37.49690120745418
  0
HATCH
  5
203
330
E3
100
AcDbEntity
  8
Des_ Roofs
  6
Continuous
 62
   255
 48
0.999999999999998
370
    18
100
AcDbHatch
 10
0.0
 20
0.0
 30
0.0
210
0.0
220
0.0
230
1.0
  2
SOLID
 70
     1
 71
     0
 91
        1
 92
        3
 72
     0
 73
     1
 93
        6
 10
111.6729426602465
 20
127.1120922948019
 10
111.7038271745024
 20
126.5074905048076
 10
112.8186093730704
 20
126.2779349643096
 10
113.0606755585747
 20
122.26646140814
 10
113.4173480826124
 20
122.2324915739476
 10
113.2137069963508
 20
126.8621995046855
 97
        0
 75
     0
 76
     1
 98
        0
  0
LINE
  5
204
330
E3
100
AcDbEntity
  8
Des_ Roofs
  6
Continuous
 48
0.999999999999998
100
AcDbLine
 10
111.6729443354586
 20
127.1120926676474
 30
0.0
 11
111.7038271319443
 21
126.5074890896552
 31
0.0
  0
LINE
  5
205
330
E3
100
AcDbEntity
  8
Des_ Roofs
  6
Continuous
 48
0.999999999999998
100
AcDbLine
 10
111.7038271319443
 20
126.5074890896552
 30
0.0
 11
112.8186086809379
 21
126.2779366806826
 31
0.0
  0
LINE
  5
206
330
E3
100
AcDbEntity
  8
Des_ Roofs
  6
Continuous
 48
0.999999999999998
100
AcDbLine
 10
112.8186086809379
 20
126.2779366806826
 30
0.0
 11
113.0606765304809
 21
122.2664611980811
 31
0.0
  0
LINE
  5
207
330
E3
100
AcDbEntity
  8
Des_ Roofs
  6
Continuous
 48
0.999999999999998
100
AcDbLine
 10
113.0606765304809
 20
122.2664611980811
 30
0.0
 11
113.4173478572793
 21
122.2324901219468
 31
0.0
  0
LINE
  5
208
330
E3
100
AcDbEntity
  8
Des_ Roofs
  6
Continuous
 48
0.999999999999998
100
AcDbLine
 10
113.4173478572793
 20
122.2324901219468
 30
0.0
 11
113.2137086950614
 21
126.8622000664341
 31
0.0
  0
LINE
  5
209
330
E3
100
AcDbEntity
  8
Des_ Roofs
  6
Continuous
 48
0.999999999999998
100
AcDbLine
 10
113.2137086950614
 20
126.8622000664341
 30
0.0
 11
111.6729443354586
 21
127.1120926676474
 31
0.0
  0
HATCH
  5
20A
330
E3
100
AcDbEntity
  8
Des_ Roofs
  6
Continuous
 62
   255
 48
0.999999999999998
370
    18
100
AcDbHatch
 10
0.0
 20
0.0
 30
0.0
210
0.0
220
0.0
230
1.0
  2
SOLID
 70
     1
 71
     0
 91
        1
 92
        3
 72
     0
 73
     1
 93
        4
 10
111.6729426602465
 20
127.1120922948019
 10
113.2137069963508
 20
126.8621995046855
 10
170.8071697613072
 20
171.0209775381015
 10
169.7211308042947
 20
171.0391099883112
 97
        0
 75
     0
 76
     1
 98
        0
  0
LINE
  5
20B
330
E3
100
AcDbEntity
  8
Des_ Roofs
  6
Continuous
 48
0.999999999999998
100
AcDbLine
 10
113.2137086950614
 20
126.8622000664341
 30
0.0
 11
111.6729443354586
 21
127.1120926676474
 31
0.0
  0
LINE
  5
20C
330
E3
100
AcDbEntity
  8
Des_ Roofs
  6
Continuous
 48
0.999999999999998
100
AcDbLine
 10
170.8071690485451
 20
171.0209780123167
 30
0.0
 11
113.2137086950614
 21
126.8622000664341
 31
0.0
  0
LINE
  5
20D
330
E3
100
AcDbEntity
  8
Des_ Roofs
  6
Continuous
 48
0.999999999999998
100
AcDbLine
 10
169.7211309756338
 20
171.0391081284207
 30
0.0
 11
170.8071690485451
 21
171.0209780123167
 31
0.0
  0
LINE
  5
20E
330
E3
100
AcDbEntity
  8
Des_ Roofs
  6
Continuous
 48
0.999999999999998
100
AcDbLine
 10
111.6729443354586
 20
127.1120926676474
 30
0.0
 11
169.7211309756338
 21
171.0391081284207
 31
0.0
  0
HATCH
  5
20F
330
E3
100
AcDbEntity
  8
Des_ Roofs
  6
Continuous
 62
   255
 48
0.999999999999998
370
    18
100
AcDbHatch
 10
0.0
 20
0.0
 30
0.0
210
0.0
220
0.0
230
1.0
  2
SOLID
 70
     1
 71
     0
 91
        1
 92
        3
 72
     0
 73
     1
 93
        4
 10
113.2137069963508
 20
126.8621995046855
 10
113.4173480826124
 20
122.2324915739476
 10
170.8071697613072
 20
166.7651684804067
 10
170.8071697613072
 20
171.0209775381015
 97
        0
 75
     0
 76
     1
 98
        0
  0
LINE
  5
210
330
E3
100
AcDbEntity
  8
Des_ Roofs
  6
Continuous
 48
0.999999999999998
100
AcDbLine
 10
113.4173478572793
 20
122.2324901219468
 30
0.0
 11
113.2137086950614
 21
126.8622000664341
 31
0.0
  0
LINE
  5
211
330
E3
100
AcDbEntity
  8
Des_ Roofs
  6
Continuous
 48
0.999999999999998
100
AcDbLine
 10
170.8071690485451
 20
166.7651704967102
 30
0.0
 11
113.4173478572793
 21
122.2324901219468
 31
0.0
  0
LINE
  5
212
330
E3
100
AcDbEntity
  8
Des_ Roofs
  6
Continuous
 48
0.999999999999998
100
AcDbLine
 10
170.8071690485451
 20
171.0209780123167
 30
0.0
 11
170.8071690485451
 21
166.7651704967102
 31
0.0
  0
LINE
  5
213
330
E3
100
AcDbEntity
  8
Des_ Roofs
  6
Continuous
 48
0.999999999999998
100
AcDbLine
 10
113.2137086950614
 20
126.8622000664341
 30
0.0
 11
170.8071690485451
 21
171.0209780123167
 31
0.0
  0
HATCH
  5
214
330
E3
100
AcDbEntity
  8
Des_ Roofs
  6
Continuous
 62
   255
 48
0.999999999999998
370
    18
100
AcDbHatch
 10
0.0
 20
0.0
 30
0.0
210
0.0
220
0.0
230
1.0
  2
SOLID
 70
     1
 71
     0
 91
        1
 92
        3
 72
     0
 73
     1
 93
        6
 10
113.3715790972052
 20
93.85922576669702
 10
132.3942636476692
 20
89.99697371558845
 10
134.9950676913306
 20
87.96560435457793
 10
135.3403936250332
 20
88.29566281225621
 10
129.9132125698755
 20
93.00585068450995
 10
113.1595272420706
 20
98.01039777879245
 97
        0
 75
     0
 76
     1
 98
        0
  0
LINE
  5
215
330
E3
100
AcDbEntity
  8
Des_ Roofs
  6
Continuous
 48
0.999999999999998
100
AcDbLine
 10
132.3942644139913
 20
89.99697304282583
 30
0.0
 11
113.3715772221104
 21
93.85922468413314
 31
0.0
  0
LINE
  5
216
330
E3
100
AcDbEntity
  8
Des_ Roofs
  6
Continuous
 48
0.999999999999998
100
AcDbLine
 10
134.9950661956096
 20
87.96560507770312
 30
0.0
 11
132.3942644139913
 21
89.99697304282583
 31
0.0
  0
LINE
  5
217
330
E3
100
AcDbEntity
  8
Des_ Roofs
  6
Continuous
 48
0.999999999999998
100
AcDbLine
 10
135.3403916324862
 20
88.29566392461878
 30
0.0
 11
134.9950661956096
 21
87.96560507770312
 31
0.0
  0
LINE
  5
218
330
E3
100
AcDbEntity
  8
Des_ Roofs
  6
Continuous
 48
0.999999999999998
100
AcDbLine
 10
129.9132146297433
 20
93.00585227245479
 30
0.0
 11
135.3403916324862
 21
88.29566392461878
 31
0.0
  0
LINE
  5
219
330
E3
100
AcDbEntity
  8
Des_ Roofs
  6
Continuous
 48
0.999999999999998
100
AcDbLine
 10
113.159526451847
 20
98.01039695666003
 30
0.0
 11
129.9132146297433
 21
93.00585227245479
 31
0.0
  0
LINE
  5
21A
330
E3
100
AcDbEntity
  8
Des_ Roofs
  6
Continuous
 48
0.999999999999998
100
AcDbLine
 10
113.3715772221104
 20
93.85922468413314
 30
0.0
 11
113.159526451847
 21
98.01039695666003
 31
0.0
  0
HATCH
  5
21B
330
E3
100
AcDbEntity
  8
Des_ Roofs
  6
Continuous
 62
   255
 48
0.999999999999998
370
    18
100
AcDbHatch
 10
0.0
 20
0.0
 30
0.0
210
0.0
220
0.0
230
1.0
  2
SOLID
 70
     1
 71
     0
 91
        1
 92
        3
 72
     0
 73
     1
 93
        4
 10
132.6268030974544
 20
90.65075674838307
 10
135.3403936250332
 20
88.29566281225621
 10
190.9649685964911
 20
139.5240008130328
 10
187.8866099591797
 20
141.8063870387635
 97
        0
 75
     0
 76
     1
 98
        0
  0
LINE
  5
21C
330
E3
100
AcDbEntity
  8
Des_ Roofs
  6
Continuous
 48
0.999999999999998
100
AcDbLine
 10
135.3403916324862
 20
88.29566392461878
 30
0.0
 11
132.6268010500637
 21
90.65075601748582
 31
0.0
  0
LINE
  5
21D
330
E3
100
AcDbEntity
  8
Des_ Roofs
  6
Continuous
 48
0.999999999999998
100
AcDbLine
 10
190.9649696574563
 20
139.5240009520114
 30
0.0
 11
135.3403916324862
 21
88.29566392461878
 31
0.0
  0
LINE
  5
21E
330
E3
100
AcDbEntity
  8
Des_ Roofs
  6
Continuous
 48
0.999999999999998
100
AcDbLine
 10
187.8866082978364
 20
141.8063852858745
 30
0.0
 11
190.9649696574563
 21
139.5240009520114
 31
0.0
  0
LINE
  5
21F
330
E3
100
AcDbEntity
  8
Des_ Roofs
  6
Continuous
 48
0.999999999999998
100
AcDbLine
 10
132.6268010500637
 20
90.65075601748582
 30
0.0
 11
187.8866082978364
 21
141.8063852858745
 31
0.0
  0
HATCH
  5
220
330
E3
100
AcDbEntity
  8
Des_ Roofs
  6
Continuous
 62
   255
 48
0.999999999999998
370
    18
100
AcDbHatch
 10
0.0
 20
0.0
 30
0.0
210
0.0
220
0.0
230
1.0
  2
SOLID
 70
     1
 71
     0
 91
        1
 92
        3
 72
     0
 73
     1
 93
       43
 10
93.94880683516905
 20
166.4343397919112
 10
78.85793940383206
 20
138.4674393735322
 10
79.30956754661123
 20
100.609885032236
 10
93.23566038299747
 20
74.51928808765265
 10
113.4216500309343
 20
62.14722991633653
 10
131.3285763315234
 20
62.14722991633653
 10
137.8912111580057
 20
63.985917978191
 10
118.7052598978566
 20
68.81177971495397
 10
118.5326761309695
 20
72.41335109095832
 10
103.8614445283279
 20
75.99794153880408
 10
103.2436398316206
 20
86.43921132961707
 10
101.7118160154561
 20
86.78054868886015
 10
101.5931871929255
 20
88.74679374112867
 10
103.0768955772213
 20
89.25728920363134
 10
114.5440786972439
 20
91.10660485060038
 10
114.2632666107387
 20
92.02729192391692
 10
115.7167639336278
 20
93.38307346965013
 10
113.3715790972052
 20
93.85922576669702
 10
113.3021291195028
 20
95.21879323426612
 10
109.8950304128623
 20
98.24725369511056
 10
105.498689079244
 20
100.9164609333788
 10
103.1435062219485
 20
104.6847535050516
 10
103.1435062219485
 20
120.3859725536882
 10
104.8706403172985
 20
128.2365820780065
 10
106.2837500316758
 20
133.4179843640567
 10
111.1511279367532
 20
140.012496364484
 10
117.1960972704783
 20
146.0574656982091
 10
122.4560056517716
 20
148.0201180792887
 10
129.5215542236581
 20
146.7640205553978
 10
130.856104939049
 20
145.412036642068
 10
136.2487578689311
 20
139.9489396407405
 10
136.8136044271927
 20
138.5980215731113
 10
136.9581339927914
 20
138.2523567219795
 10
139.5703344147855
 20
132.0048746496794
 10
137.3721637479764
 20
124.7823138873065
 10
136.094936563771
 20
119.8286361249347
 10
173.9796189747448
 20
152.4820667237217
 10
173.9796189747448
 20
168.5676522909292
 10
169.5763096115626
 20
178.3267877564024
 10
159.6280172223464
 20
182.6226412881094
 10
146.514359072925
 20
187.3706899284172
 10
129.3309449460971
 20
187.3706899284172
 10
110.1636835021585
 20
178.2364921352687
 97
        0
 75
     0
 76
     1
 98
        0
  0
LINE
  5
221
330
E3
100
AcDbEntity
  8
Des_ Roofs
  6
Continuous
 48
0.999999999999998
100
AcDbLine
 10
93.94880798006905
 20
166.4343416609333
 30
0.0
 11
78.85793780152535
 21
138.467438885126
 31
0.0
  0
LINE
  5
222
330
E3
100
AcDbEntity
  8
Des_ Roofs
  6
Continuous
 48
0.999999999999998
100
AcDbLine
 10
78.85793780152535
 20
138.467438885126
 30
0.0
 11
79.30956748436438
 21
100.6098835140614
 31
0.0
  0
LINE
  5
223
330
E3
100
AcDbEntity
  8
Des_ Roofs
  6
Continuous
 48
0.999999999999998
100
AcDbLine
 10
79.30956748436438
 20
100.6098835140614
 30
0.0
 11
93.23566094526407
 21
74.51928959514557
 31
0.0
  0
LINE
  5
224
330
E3
100
AcDbEntity
  8
Des_ Roofs
  6
Continuous
 48
0.999999999999998
100
AcDbLine
 10
93.23566094526407
 20
74.51928959514557
 30
0.0
 11
113.4216514706979
 21
62.14722927487244
 31
0.0
  0
LINE
  5
225
330
E3
100
AcDbEntity
  8
Des_ Roofs
  6
Continuous
 48
0.999999999999998
100
AcDbLine
 10
113.4216514706979
 20
62.14722927487244
 30
0.0
 11
131.3285748575246
 21
62.14722927487244
 31
0.0
  0
LINE
  5
226
330
E3
100
AcDbEntity
  8
Des_ Roofs
  6
Continuous
 48
0.999999999999998
100
AcDbLine
 10
131.3285748575246
 20
62.14722927487244
 30
0.0
 11
137.8912107317599
 21
63.98591689221751
 31
0.0
  0
LINE
  5
227
330
E3
100
AcDbEntity
  8
Des_ Roofs
  6
Continuous
 48
0.999999999999998
100
AcDbLine
 10
137.8912107317599
 20
63.98591689221751
 30
0.0
 11
118.7052609286998
 21
68.81177837751055
 31
0.0
  0
LINE
  5
228
330
E3
100
AcDbEntity
  8
Des_ Roofs
  6
Continuous
 48
0.999999999999998
100
AcDbLine
 10
118.7052609286998
 20
68.81177837751055
 30
0.0
 11
118.5326752091477
 21
72.41334924934434
 31
0.0
  0
LINE
  5
229
330
E3
100
AcDbEntity
  8
Des_ Roofs
  6
Continuous
 48
0.999999999999998
100
AcDbLine
 10
118.5326752091477
 20
72.41334924934434
 30
0.0
 11
103.861444797838
 21
75.99794290731485
 31
0.0
  0
LINE
  5
22A
330
E3
100
AcDbEntity
  8
Des_ Roofs
  6
Continuous
 48
0.999999999999998
100
AcDbLine
 10
103.861444797838
 20
75.99794290731485
 30
0.0
 11
103.2436390324533
 21
86.43921245614148
 31
0.0
  0
LINE
  5
22B
330
E3
100
AcDbEntity
  8
Des_ Roofs
  6
Continuous
 48
0.999999999999998
100
AcDbLine
 10
103.2436390324533
 20
86.43921245614148
 30
0.0
 11
101.711814867844
 21
86.78055059934775
 31
0.0
  0
LINE
  5
22C
330
E3
100
AcDbEntity
  8
Des_ Roofs
  6
Continuous
 48
0.999999999999998
100
AcDbLine
 10
101.711814867844
 20
86.78055059934775
 30
0.0
 11
101.5931866380008
 21
88.74679415522354
 31
0.0
  0
LINE
  5
22D
330
E3
100
AcDbEntity
  8
Des_ Roofs
  6
Continuous
 48
0.999999999999998
100
AcDbLine
 10
101.5931866380008
 20
88.74679415522354
 30
0.0
 11
103.0768969040421
 21
89.25728844597329
 31
0.0
  0
LINE
  5
22E
330
E3
100
AcDbEntity
  8
Des_ Roofs
  6
Continuous
 48
0.999999999999998
100
AcDbLine
 10
103.0768969040421
 20
89.25728844597329
 30
0.0
 11
114.5440788009778
 21
91.10660607170443
 31
0.0
  0
LINE
  5
22F
330
E3
100
AcDbEntity
  8
Des_ Roofs
  6
Continuous
 48
0.999999999999998
100
AcDbLine
 10
114.5440788009778
 20
91.10660607170443
 30
0.0
 11
114.2632659443612
 21
92.02729215825656
 31
0.0
  0
LINE
  5
230
330
E3
100
AcDbEntity
  8
Des_ Roofs
  6
Continuous
 48
0.999999999999998
100
AcDbLine
 10
114.2632659443612
 20
92.02729215825656
 30
0.0
 11
115.716763512331
 21
93.38307189659143
 31
0.0
  0
LINE
  5
231
330
E3
100
AcDbEntity
  8
Des_ Roofs
  6
Continuous
 48
0.999999999999998
100
AcDbLine
 10
115.716763512331
 20
93.38307189659143
 30
0.0
 11
113.3715772221104
 21
93.85922468413314
 31
0.0
  0
LINE
  5
232
330
E3
100
AcDbEntity
  8
Des_ Roofs
  6
Continuous
 48
0.999999999999998
100
AcDbLine
 10
113.3715772221104
 20
93.85922468413314
 30
0.0
 11
113.3021283889351
 21
95.21879193524455
 31
0.0
  0
LINE
  5
233
330
E3
100
AcDbEntity
  8
Des_ Roofs
  6
Continuous
 48
0.999999999999998
100
AcDbLine
 10
113.3021283889351
 20
95.21879193524455
 30
0.0
 11
109.8950317308203
 21
98.24725385455888
 31
0.0
  0
LINE
  5
234
330
E3
100
AcDbEntity
  8
Des_ Roofs
  6
Continuous
 48
0.999999999999998
100
AcDbLine
 10
109.8950317308203
 20
98.24725385455888
 30
0.0
 11
105.498690842796
 21
100.9164597817625
 31
0.0
  0
LINE
  5
235
330
E3
100
AcDbEntity
  8
Des_ Roofs
  6
Continuous
 48
0.999999999999998
100
AcDbLine
 10
105.498690842796
 20
100.9164597817625
 30
0.0
 11
103.143507183686
 21
104.6847519714977
 31
0.0
  0
LINE
  5
236
330
E3
100
AcDbEntity
  8
Des_ Roofs
  6
Continuous
 48
0.999999999999998
100
AcDbLine
 10
103.143507183686
 20
104.6847519714977
 30
0.0
 11
103.143507183686
 21
120.3859735908296
 31
0.0
  0
LINE
  5
237
330
E3
100
AcDbEntity
  8
Des_ Roofs
  6
Continuous
 48
0.999999999999998
100
AcDbLine
 10
103.143507183686
 20
120.3859735908296
 30
0.0
 11
104.8706421445068
 21
128.2365802383936
 31
0.0
  0
LINE
  5
238
330
E3
100
AcDbEntity
  8
Des_ Roofs
  6
Continuous
 48
0.999999999999998
100
AcDbLine
 10
104.8706421445068
 20
128.2365802383936
 30
0.0
 11
106.283750675132
 21
133.4179851208559
 31
0.0
  0
LINE
  5
239
330
E3
100
AcDbEntity
  8
Des_ Roofs
  6
Continuous
 48
0.999999999999998
100
AcDbLine
 10
106.283750675132
 20
133.4179851208559
 30
0.0
 11
111.1511291273987
 21
140.0124943718415
 31
0.0
  0
LINE
  5
23A
330
E3
100
AcDbEntity
  8
Des_ Roofs
  6
Continuous
 48
0.999999999999998
100
AcDbLine
 10
111.1511291273987
 20
140.0124943718415
 30
0.0
 11
117.1960952471185
 21
146.0574646536633
 31
0.0
  0
LINE
  5
23B
330
E3
100
AcDbEntity
  8
Des_ Roofs
  6
Continuous
 48
0.999999999999998
100
AcDbLine
 10
117.1960952471185
 20
146.0574646536633
 30
0.0
 11
122.4560056966043
 21
148.0201163155543
 31
0.0
  0
LINE
  5
23C
330
E3
100
AcDbEntity
  8
Des_ Roofs
  6
Continuous
 48
0.999999999999998
100
AcDbLine
 10
122.4560056966043
 20
148.0201163155543
 30
0.0
 11
129.5215525118323
 21
146.7640189189759
 31
0.0
  0
LINE
  5
23D
330
E3
100
AcDbEntity
  8
Des_ Roofs
  6
Continuous
 48
0.999999999999998
100
AcDbLine
 10
129.5215525118323
 20
146.7640189189759
 30
0.0
 11
130.8561055302106
 21
145.4120350176215
 31
0.0
  0
LINE
  5
23E
330
E3
100
AcDbEntity
  8
Des_ Roofs
  6
Continuous
 48
0.999999999999998
100
AcDbLine
 10
130.8561055302106
 20
145.4120350176215
 30
0.0
 11
136.2487578972597
 21
139.9489390750306
 31
0.0
  0
LINE
  5
23F
330
E3
100
AcDbEntity
  8
Des_ Roofs
  6
Continuous
 48
0.999999999999998
100
AcDbLine
 10
136.2487578972597
 20
139.9489390750306
 30
0.0
 11
136.8136050774039
 21
138.598020671776
 31
0.0
  0
LINE
  5
240
330
E3
100
AcDbEntity
  8
Des_ Roofs
  6
Continuous
 48
0.999999999999998
100
AcDbLine
 10
136.8136050774039
 20
138.598020671776
 30
0.0
 11
136.9581340676959
 21
138.2523581046413
 31
0.0
  0
LINE
  5
241
330
E3
100
AcDbEntity
  8
Des_ Roofs
  6
Continuous
 48
0.999999999999998
100
AcDbLine
 10
136.9581340676959
 20
138.2523581046413
 30
0.0
 11
139.5703358465614
 21
132.0048765902307
 31
0.0
  0
LINE
  5
242
330
E3
100
AcDbEntity
  8
Des_ Roofs
  6
Continuous
 48
0.999999999999998
100
AcDbLine
 10
139.5703358465614
 20
132.0048765902307
 30
0.0
 11
137.3721633214982
 21
124.7823144788539
 31
0.0
  0
LINE
  5
243
330
E3
100
AcDbEntity
  8
Des_ Roofs
  6
Continuous
 48
0.999999999999998
100
AcDbLine
 10
137.3721633214982
 20
124.7823144788539
 30
0.0
 11
136.0949349333083
 21
119.8286348426072
 31
0.0
  0
LINE
  5
244
330
E3
100
AcDbEntity
  8
Des_ Roofs
  6
Continuous
 48
0.999999999999998
100
AcDbLine
 10
136.0949349333083
 20
119.8286348426072
 30
0.0
 11
173.9796188848976
 21
152.482068578754
 31
0.0
  0
LINE
  5
245
330
E3
100
AcDbEntity
  8
Des_ Roofs
  6
Continuous
 48
0.999999999999998
100
AcDbLine
 10
173.9796188848976
 20
152.482068578754
 30
0.0
 11
173.9796188848976
 21
168.5676519891726
 31
0.0
  0
LINE
  5
246
330
E3
100
AcDbEntity
  8
Des_ Roofs
  6
Continuous
 48
0.999999999999998
100
AcDbLine
 10
173.9796188848976
 20
168.5676519891726
 30
0.0
 11
169.5763106382051
 21
178.3267863248405
 31
0.0
  0
LINE
  5
247
330
E3
100
AcDbEntity
  8
Des_ Roofs
  6
Continuous
 48
0.999999999999998
100
AcDbLine
 10
169.5763106382051
 20
178.3267863248405
 30
0.0
 11
159.6280170930112
 21
182.6226415854316
 31
0.0
  0
LINE
  5
248
330
E3
100
AcDbEntity
  8
Des_ Roofs
  6
Continuous
 48
0.999999999999998
100
AcDbLine
 10
159.6280170930112
 20
182.6226415854316
 30
0.0
 11
146.5143576089875
 21
187.3706884126253
 31
0.0
  0
LINE
  5
249
330
E3
100
AcDbEntity
  8
Des_ Roofs
  6
Continuous
 48
0.999999999999998
100
AcDbLine
 10
146.5143576089875
 20
187.3706884126253
 30
0.0
 11
129.3309448908269
 21
187.3706884126253
 31
0.0
  0
LINE
  5
24A
330
E3
100
AcDbEntity
  8
Des_ Roofs
  6
Continuous
 48
0.999999999999998
100
AcDbLine
 10
129.3309448908269
 20
187.3706884126253
 30
0.0
 11
110.1636829255325
 21
178.2364936850883
 31
0.0
  0
LINE
  5
24B
330
E3
100
AcDbEntity
  8
Des_ Roofs
  6
Continuous
 48
0.999999999999998
100
AcDbLine
 10
110.1636829255325
 20
178.2364936850883
 30
0.0
 11
93.94880798006905
 21
166.4343416609333
 31
0.0
  0
HATCH
  5
24C
330
E3
100
AcDbEntity
  8
Des_ Roofs
  6
Continuous
 62
   255
 48
0.999999999999998
370
    18
100
AcDbHatch
 10
0.0
 20
0.0
 30
0.0
210
0.0
220
0.0
230
1.0
  2
SOLID
 70
     1
 71
     0
 91
        1
 92
        3
 72
     0
 73
     1
 93
        9
 10
136.094936563771
 20
119.8286361249347
 10
139.5703344147855
 20
132.0048746496794
 10
136.2487578689311
 20
139.9489396407405
 10
129.5215542236581
 20
146.7640205553978
 10
122.4560056517716
 20
148.0201180792887
 10
129.0855618480383
 20
145.907959816722
 10
134.7411469565746
 20
138.7790815074202
 10
137.6121464972605
 20
131.86417333565
 10
134.0008871164135
 20
120.0272675873179
 97
        0
 75
     0
 76
     1
 98
        0
  0
LINE
  5
24D
330
E3
100
AcDbEntity
  8
Des_ Roofs
  6
Continuous
 48
0.999999999999998
100
AcDbLine
 10
139.5703358465614
 20
132.0048765902307
 30
0.0
 11
136.0949349333083
 21
119.8286348426072
 31
0.0
  0
LINE
  5
24E
330
E3
100
AcDbEntity
  8
Des_ Roofs
  6
Continuous
 48
0.999999999999998
100
AcDbLine
 10
136.2487578972597
 20
139.9489390750306
 30
0.0
 11
139.5703358465614
 21
132.0048765902307
 31
0.0
  0
LINE
  5
24F
330
E3
100
AcDbEntity
  8
Des_ Roofs
  6
Continuous
 48
0.999999999999998
100
AcDbLine
 10
129.5215525118323
 20
146.7640189189759
 30
0.0
 11
136.2487578972597
 21
139.9489390750306
 31
0.0
  0
LINE
  5
250
330
E3
100
AcDbEntity
  8
Des_ Roofs
  6
Continuous
 48
0.999999999999998
100
AcDbLine
 10
122.4560056966043
 20
148.0201163155543
 30
0.0
 11
129.5215525118323
 21
146.7640189189759
 31
0.0
  0
LINE
  5
251
330
E3
100
AcDbEntity
  8
Des_ Roofs
  6
Continuous
 48
0.999999999999998
100
AcDbLine
 10
129.0855598460279
 20
145.9079577894364
 30
0.0
 11
122.4560056966043
 21
148.0201163155543
 31
0.0
  0
LINE
  5
252
330
E3
100
AcDbEntity
  8
Des_ Roofs
  6
Continuous
 48
0.999999999999998
100
AcDbLine
 10
134.7411488418085
 20
138.7790804309029
 30
0.0
 11
129.0855598460279
 21
145.9079577894364
 31
0.0
  0
LINE
  5
253
330
E3
100
AcDbEntity
  8
Des_ Roofs
  6
Continuous
 48
0.999999999999998
100
AcDbLine
 10
137.6121459579632
 20
131.8641725716328
 30
0.0
 11
134.7411488418085
 21
138.7790804309029
 31
0.0
  0
LINE
  5
254
330
E3
100
AcDbEntity
  8
Des_ Roofs
  6
Continuous
 48
0.999999999999998
100
AcDbLine
 10
134.0008857127846
 20
120.0272669961766
 30
0.0
 11
137.6121459579632
 21
131.8641725716328
 31
0.0
  0
LINE
  5
255
330
E3
100
AcDbEntity
  8
Des_ Roofs
  6
Continuous
 48
0.999999999999998
100
AcDbLine
 10
136.0949349333083
 20
119.8286348426072
 30
0.0
 11
134.0008857127846
 21
120.0272669961766
 31
0.0
  0
LINE
  5
256
330
E3
100
AcDbEntity
  8
Des_ Roofs
  6
Continuous
 48
0.999999999999998
100
AcDbLine
 10
103.0768969040421
 20
89.25728844597329
 30
0.0
 11
114.5440788009778
 21
91.10660607170443
 31
0.0
  0
LINE
  5
257
330
E3
100
AcDbEntity
  8
Des_ Roofs
  6
Contour Line
 48
0.999999999999998
100
AcDbLine
 10
110.3181135563689
 20
98.39107944962095
 30
0.0
 11
110.3181135563689
 21
90.42508268753268
 31
0.0
  0
LINE
  5
258
330
E3
100
AcDbEntity
  8
Des_ Roofs
  6
Contour Line
 48
0.999999999999998
100
AcDbLine
 10
124.8289823415602
 20
67.9431601863811
 30
0.0
 11
117.8070876516074
 21
69.74878822791943
 31
0.0
  0
LINE
  5
259
330
E3
100
AcDbEntity
  8
Des_ Roofs
  6
Contour Line
 48
0.999999999999998
100
AcDbLine
 10
117.8070876516074
 20
69.74878822791943
 30
0.0
 11
111.9889477640815
 21
65.8365913631851
 31
0.0
  0
LINE
  5
25A
330
E3
100
AcDbEntity
  8
Des_ Roofs
  6
Contour Line
 48
0.999999999999998
100
AcDbLine
 10
124.8289823415602
 20
90.25350835875493
 30
0.0
 11
117.8070876516074
 21
92.0591405623952
 31
0.0
  0
LINE
  5
25B
330
E3
100
AcDbEntity
  8
Des_ Roofs
  6
Contour Line
 48
0.999999999999998
100
AcDbLine
 10
117.8070876516074
 20
92.0591405623952
 30
0.0
 11
111.9889477640815
 21
88.14693953555891
 31
0.0
  0
LINE
  5
25C
330
E3
100
AcDbEntity
  8
Des_ Roofs
  6
Contour Line
 48
0.999999999999998
100
AcDbLine
 10
117.8070876516074
 20
69.74878822791943
 30
0.0
 11
117.8070876516074
 21
92.0591405623952
 31
0.0
  0
LINE
  5
25D
330
E3
100
AcDbEntity
  8
Des_ Roofs
  6
Contour Line
 48
0.999999999999998
100
AcDbLine
 10
111.9889477640815
 20
65.8365913631851
 30
0.0
 11
111.9889477640815
 21
88.14693953555891
 31
0.0
  0
LINE
  5
25E
330
E3
100
AcDbEntity
  8
Des_ Roofs
  6
Contour Line
 48
0.999999999999998
100
AcDbLine
 10
124.8289823415602
 20
90.25350835875493
 30
0.0
 11
124.8289823415602
 21
67.9431601863811
 31
0.0
  0
LINE
  5
25F
330
E3
100
AcDbEntity
  8
Des_ Roofs
  6
Continuous
 48
0.999999999999998
100
AcDbLine
 10
97.11431959246715
 20
84.15620380698552
 30
0.0
 11
100.7019723953726
 21
83.32906512391223
 31
0.0
  0
LINE
  5
260
330
E3
100
AcDbEntity
  8
Des_ Roofs
  6
Continuous
 48
0.999999999999998
100
AcDbLine
 10
100.7019723953726
 20
83.32906512391223
 30
0.0
 11
101.937234309578
 21
83.04427329782929
 31
0.0
  0
LINE
  5
261
330
E3
100
AcDbEntity
  8
Des_ Roofs
  6
Continuous
 48
0.999999999999998
100
AcDbLine
 10
98.8812692205632
 20
78.98837570109143
 30
0.0
 11
102.552921565069
 21
87.74186712515777
 31
0.0
  0
LINE
  5
262
330
E3
100
AcDbEntity
  8
Des_ Roofs
  6
Continuous
 48
0.999999999999998
100
AcDbLine
 10
103.8033168819728
 20
87.46624440967565
 30
0.0
 11
100.1017307002264
 21
78.69474773256385
 31
0.0
  0
LINE
  5
263
330
E3
100
AcDbEntity
  8
Des_ Roofs
  6
Continuous
 48
0.999999999999998
100
AcDbLine
 10
101.937234309578
 20
83.04427329782929
 30
0.0
 11
105.5987769084418
 21
82.20009496936348
 31
0.0
  0
LINE
  5
264
330
E3
100
AcDbEntity
  8
Des_ Roofs
  6
Continuous
 48
0.999999999999998
100
AcDbLine
 10
101.1469177424763
 20
76.06730849845111
 30
0.0
 11
100.2519825807028
 21
90.67311482917331
 31
0.0
  0
LINE
  5
265
330
E3
100
AcDbEntity
  8
Des_ Roofs
  6
Continuous
 48
0.999999999999998
100
AcDbLine
 10
102.3763901728661
 20
75.76538129863074
 30
0.0
 11
101.4930922481511
 21
90.40586210071716
 31
0.0
  0
MTEXT
  5
266
330
E3
100
AcDbEntity
  8
0
  6
Continuous
100
AcDbMText
 10
98.59213118308456
 20
91.27240362947154
 30
0.0
 40
2.5
 41
0.0
 71
     7
 72
     1
  1
{10}
  7
GENERATED_STYLE_3
 73
     1
 44
1.0
  0
MTEXT
  5
267
330
E3
100
AcDbEntity
  8
0
  6
Continuous
100
AcDbMText
 10
203.0376565583614
 20
183.4178074959334
 30
0.0
 40
2.499999999999994
 41
0.0
 71
     4
 72
     1
  1
{HEM TO FLASHING EDGE}
  7
GENERATED_STYLE_1
 73
     1
 44
1.0
  0
LINE
  5
268
330
E3
100
AcDbEntity
  8
Des_ Roofs
  6
Continuous
 48
0.999999999999998
100
AcDbLine
 10
168.2465981443972
 20
166.4731074785166
 30
0.0
 11
170.5200214727571
 21
169.5971645554703
 31
0.0
  0
LINE
  5
269
330
E3
100
AcDbEntity
  8
Des_ Roofs
  6
Continuous
 48
0.999999999999998
100
AcDbLine
 10
168.2465981443972
 20
166.4731074785166
 30
0.0
 11
171.77747155247
 21
168.0419077568698
 31
0.0
  0
LINE
  5
26A
330
E3
100
AcDbEntity
  8
Des_ Roofs
  6
Continuous
 48
0.999999999999998
100
AcDbLine
 10
170.5200214727571
 20
169.5971645554703
 30
0.0
 11
171.77747155247
 21
168.0419077568698
 31
0.0
  0
LWPOLYLINE
  5
26B
330
E3
100
AcDbEntity
  8
Des_ Roofs
  6
Continuous
 48
0.999999999999998
100
AcDbPolyline
 90
       11
 70
   128
 43
0.0
 10
171.1487473116148
 20
168.8195376986458
 10
176.0319084624546
 20
172.5780305461289
 10
180.4607965982227
 20
175.7032509549803
 10
184.5165414414554
 20
178.2359270255667
 10
188.280272714689
 20
180.2167868582547
 10
191.83312014046
 20
181.6865585534109
 10
193.5558154488397
 20
182.2425138807792
 10
195.2562134413049
 20
182.685970211402
 10
196.9444553331726
 20
183.0220185578251
 10
198.6306823397599
 20
183.2557499325944
 10
202.0376565583614
 20
183.4366258173548
  0
MTEXT
  5
26C
330
E3
100
AcDbEntity
  8
0
  6
Continuous
100
AcDbMText
 10
66.27371153339308
 20
162.1238734324684
 30
0.0
 40
2.499999999999995
 41
56.71228972547941
 71
     6
 72
     1
  1
{CLADDING ON CAVITY BATTENS WITH BUILDING WRAP OVER METAL HIDDEN GUTTER}
  7
GENERATED_STYLE_1
 73
     1
 44
1.065340909090909
  0
LINE
  5
26D
330
E3
100
AcDbEntity
  8
Des_ Roofs
  6
Continuous
 48
0.999999999999998
100
AcDbLine
 10
105.8033442193951
 20
152.3379599607592
 30
0.0
 11
101.9608958591766
 21
152.7426744303924
 31
0.0
  0
LINE
  5
26E
330
E3
100
AcDbEntity
  8
Des_ Roofs
  6
Continuous
 48
0.999999999999998
100
AcDbLine
 10
105.8033442193951
 20
152.3379599607592
 30
0.0
 11
102.6780468360596
 21
154.6096768273186
 31
0.0
  0
LINE
  5
26F
330
E3
100
AcDbEntity
  8
Des_ Roofs
  6
Continuous
 48
0.999999999999998
100
AcDbLine
 10
101.9608958591766
 20
152.7426744303924
 30
0.0
 11
102.6780468360596
 21
154.6096768273186
 31
0.0
  0
LWPOLYLINE
  5
270
330
E3
100
AcDbEntity
  8
Des_ Roofs
  6
Continuous
 48
0.999999999999998
100
AcDbPolyline
 90
        9
 70
   128
 43
0.0
 10
102.3194725252008
 20
153.6761767694403
 10
96.41464544525685
 20
155.8533092889137
 10
91.13081924236555
 20
157.6635638815979
 10
86.37522304313886
 20
159.130548161114
 10
82.05508597418876
 20
160.277869741083
 10
78.07763716212715
 20
161.129136235126
 10
74.35010573356605
 20
161.707955256864
 10
70.77972081511739
 20
162.037934419918
 10
67.27371153339308
 20
162.1426813379091
  0
MTEXT
  5
271
330
E3
100
AcDbEntity
  8
0
  6
Continuous
100
AcDbMText
 10
107.2513939797411
 20
37.83376964421407
 30
0.0
 40
2.499999999999995
 41
0.0
 71
     6
 72
     1
  1
{GUTTER}
  7
GENERATED_STYLE_1
 73
     1
 44
1.0
  0
LINE
  5
272
330
E3
100
AcDbEntity
  8
Des_ Roofs
  6
Continuous
 48
0.999999999999998
100
AcDbLine
 10
160.8684941209628
 20
65.93373898485264
 30
0.0
 11
158.4221354564867
 21
62.94316467960969
 31
0.0
  0
LINE
  5
273
330
E3
100
AcDbEntity
  8
Des_ Roofs
  6
Continuous
 48
0.999999999999998
100
AcDbLine
 10
160.8684941209628
 20
65.93373898485264
 30
0.0
 11
157.2545992652484
 21
64.56700459417944
 31
0.0
  0
LINE
  5
274
330
E3
100
AcDbEntity
  8
Des_ Roofs
  6
Continuous
 48
0.999999999999998
100
AcDbLine
 10
158.4221354564867
 20
62.94316467960969
 30
0.0
 11
157.2545992652484
 21
64.56700459417944
 31
0.0
  0
LWPOLYLINE
  5
275
330
E3
100
AcDbEntity
  8
Des_ Roofs
  6
Continuous
 48
0.999999999999998
100
AcDbPolyline
 90
       13
 70
   128
 43
0.0
 10
157.8383676664313
 20
63.75508565125952
 10
148.3454361038879
 20
57.08100773450603
 10
140.0705933299502
 20
51.53643757581235
 10
132.8754463577022
 20
47.04751639701293
 10
126.6216022002276
 20
43.54038541994224
 10
123.8044208686191
 20
42.13191038887842
 10
121.1706678706104
 20
40.94118586643471
 10
118.703044082837
 20
39.95897950534039
 10
116.3842503819343
 20
39.17605895832477
 10
114.196987644538
 20
38.58319187811716
 10
112.1239567472833
 20
38.17114591744689
 10
110.1478585668059
 20
37.93068872904322
 10
108.2513939797411
 20
37.85258796563548
  0
MTEXT
  5
276
330
E3
100
AcDbEntity
  8
0
  6
Continuous
100
AcDbMText
 10
66.27371153339307
 20
119.1651193318805
 30
0.0
 40
2.499999999999995
 41
45.30613427755453
 71
     6
 72
     1
  1
{TAPERED STOP END TO DIVERT APRON FLASHING WATER INTO GUTTER}
  7
GENERATED_STYLE_1
 73
     1
 44
1.065340909090909
  0
LINE
  5
277
330
E3
100
AcDbEntity
  8
Des_ Roofs
  6
Continuous
 48
0.999999999999998
100
AcDbLine
 10
120.3387152987793
 20
94.38608435975915
 30
0.0
 11
116.64609844674
 21
95.52308320897382
 31
0.0
  0
LINE
  5
278
330
E3
100
AcDbEntity
  8
Des_ Roofs
  6
Continuous
 48
0.999999999999998
100
AcDbLine
 10
120.3387152987793
 20
94.38608435975915
 30
0.0
 11
117.709315714647
 21
97.21706702774489
 31
0.0
  0
LINE
  5
279
330
E3
100
AcDbEntity
  8
Des_ Roofs
  6
Continuous
 48
0.999999999999998
100
AcDbLine
 10
116.64609844674
 20
95.52308320897382
 30
0.0
 11
117.709315714647
 21
97.21706702774489
 31
0.0
  0
LWPOLYLINE
  5
27A
330
E3
100
AcDbEntity
  8
Des_ Roofs
  6
Continuous
 48
0.999999999999998
100
AcDbPolyline
 90
       13
 70
   128
 43
0.0
 10
117.1777056331011
 20
96.37007501051951
 10
107.6010345249143
 20
102.2478566557559
 10
99.25643187929641
 20
107.1310643828012
 10
92.0048165857805
 20
111.08469227691
 10
85.7071075338998
 20
114.1737344233371
 10
82.87250500155179
 20
115.4143464928121
 10
80.22422361318752
 20
116.4631849073371
 10
77.74487822999865
 20
117.328373927569
 10
75.41708371317685
 20
118.0180378141647
 10
73.22345492391372
 20
118.5403008277809
 10
71.14660672340095
 20
118.9032872290745
 10
69.16915397283019
 20
119.1151212787023
 10
67.27371153339307
 20
119.1839272373211
  0
MTEXT
  5
27B
330
E3
100
AcDbEntity
  8
0
  6
Continuous
100
AcDbMText
 10
66.27371153339307
 20
82.26440427613359
 30
0.0
 40
2.499999999999995
 41
45.30613427755453
 71
     6
 72
     1
  1
{STOP GUTTER MIN. 10MM CLEAR OF FINISHED WALL CALDDING}
  7
GENERATED_STYLE_1
 73
     1
 44
1.065340909090909
  0
LINE
  5
27C
330
E3
100
AcDbEntity
  8
Des_ Roofs
  6
Continuous
 48
0.999999999999998
100
AcDbLine
 10
100.7019723953726
 20
83.32906512391223
 30
0.0
 11
97.02681556102299
 21
82.13682685758727
 31
0.0
  0
LINE
  5
27D
330
E3
100
AcDbEntity
  8
Des_ Roofs
  6
Continuous
 48
0.999999999999998
100
AcDbLine
 10
100.7019723953726
 20
83.32906512391223
 30
0.0
 11
96.92307516986307
 21
84.13413634243469
 31
0.0
  0
LINE
  5
27E
330
E3
100
AcDbEntity
  8
Des_ Roofs
  6
Continuous
 48
0.999999999999998
100
AcDbLine
 10
97.02681556102299
 20
82.13682685758727
 30
0.0
 11
96.92307516986307
 21
84.13413634243469
 31
0.0
  0
LWPOLYLINE
  5
27F
330
E3
100
AcDbEntity
  8
Des_ Roofs
  6
Continuous
 48
0.999999999999998
100
AcDbPolyline
 90
        4
 70
   128
 43
0.0
 10
96.97494495117789
 20
83.13548181191227
 10
80.95310878231376
 20
82.4714282286554
 10
74.11847391823645
 20
82.32715977328164
 10
67.27371153339307
 20
82.28321218157427
  0
MTEXT
  5
280
330
E3
100
AcDbEntity
  8
0
  6
Continuous
100
AcDbMText
 10
66.27371153339307
 20
45.87953857617077
 30
0.0
 40
2.499999999999995
 41
45.30613427755453
 71
     6
 72
     1
  1
{TRANSITION TRAY FLASHING BEHIND FASCIA EXTENDED TO UNDERSIDE OF ROOFING}
  7
GENERATED_STYLE_1
 73
     1
 44
1.06374321355081
  0
LINE
  5
281
330
E3
100
AcDbEntity
  8
Des_ Roofs
  6
Continuous
 48
0.999999999999998
100
AcDbLine
 10
114.5093918433077
 20
70.38282619091792
 30
0.0
 11
112.0777878302524
 21
67.38024005944077
 31
0.0
  0
LINE
  5
282
330
E3
100
AcDbEntity
  8
Des_ Roofs
  6
Continuous
 48
0.999999999999998
100
AcDbLine
 10
114.5093918433077
 20
70.38282619091792
 30
0.0
 11
110.9022687274696
 21
68.9983113007047
 31
0.0
  0
LINE
  5
283
330
E3
100
AcDbEntity
  8
Des_ Roofs
  6
Continuous
 48
0.999999999999998
100
AcDbLine
 10
112.0777878302524
 20
67.38024005944077
 30
0.0
 11
110.9022687274696
 21
68.9983113007047
 31
0.0
  0
LWPOLYLINE
  5
284
330
E3
100
AcDbEntity
  8
Des_ Roofs
  6
Continuous
 48
0.999999999999998
100
AcDbPolyline
 90
       13
 70
   128
 43
0.0
 10
111.4900294147844
 20
68.18927706406126
 10
103.3700801887121
 20
62.44805499635679
 10
96.23512370307718
 20
57.67763817204078
 10
89.96307922921781
 20
53.81474642983753
 10
84.43186603847228
 20
50.7960996084713
 10
81.90592094656039
 20
49.58359299270342
 10
79.51940340217881
 20
48.55841754666641
 10
77.25705331424477
 20
47.7126632502008
 10
75.10361059167562
 20
47.03842008314712
 10
73.04381514338857
 20
46.52777802534593
 10
71.06240687830095
 20
46.17282705663775
 10
69.14412570533001
 20
45.96565715686311
 10
67.27371153339307
 20
45.89835830586256
  0
ENDBLK
  5
E5
330
E3
100
AcDbEntity
  8
0
100
AcDbBlockEnd
  0
BLOCK
  5
28D
330
28C
100
AcDbEntity
  8
0
100
AcDbBlockBegin
  2
R-TRSC-10 APRON DETAIL - KICKOU_STORY_MARKER
 70
     0
 10
0.0
 20
0.0
 30
0.0
  3
R-TRSC-10 APRON DETAIL - KICKOU_STORY_MARKER
  1

  0
ENDBLK
  5
28E
330
28C
100
AcDbEntity
  8
0
100
AcDbBlockEnd
  0
ENDSEC
  0
SECTION
  2
ENTITIES
  0
HATCH
  5
3F
330
1F
100
AcDbEntity
  8
Doc_ Finishes
  6
Continuous
100
AcDbHatch
 10
0.0
 20
0.0
 30
0.0
210
0.0
220
0.0
230
1.0
  2
SOLID
 70
     1
 71
     0
 91
        1
 92
        3
 72
     0
 73
     1
 93
       54
 10
27.4117749414874
 20
16.87044408857867
 10
26.89356552397386
 20
16.5825499677378
 10
26.5480925789648
 20
16.29465584689693
 10
26.12584786839819
 20
16.02595466744544
 10
25.76118198199976
 20
15.60370995687884
 10
25.39651609560134
 20
15.33500877742737
 10
25.07023609198168
 20
14.89357112547136
 10
24.49444785029994
 20
14.45213347351537
 10
23.93785255000758
 20
14.02988876294876
 10
23.43883607388344
 20
13.81876640766546
 10
22.74789018386533
 20
13.39652169709885
 10
22.09533017662603
 20
12.99346992792163
 10
21.63469958328064
 20
12.55203227596564
 10
20.90536781048376
 20
12.12978756539902
 10
20.59828074825351
 20
11.7459287376112
 10
20.04168544796116
 20
11.28529814426581
 10
19.36993249933246
 20
10.8630534336992
 10
18.73656543348255
 20
10.42161578174319
 10
18.04561954346447
 20
10.15291460229172
 10
17.1051654153843
 20
9.692284008946325
 10
16.39502658397681
 20
9.020531060317637
 10
15.83843128368446
 20
8.598286349751023
 10
15.12829245227699
 20
8.137655756405634
 10
14.84039833143612
 20
7.98411222529051
 10
14.37976773809073
 20
7.81137575278599
 10
14.07268067586046
 20
7.523481631945121
 10
14.0151018516923
 20
7.216394569714853
 10
14.14945244141803
 20
6.890114566095209
 10
14.4373465622589
 20
6.563834562475543
 10
14.8787842142149
 20
6.659799269422514
 10
15.51215128006482
 20
7.06285103859973
 10
16.01116775618899
 20
7.389131042219374
 10
16.33744775980864
 20
7.696218104449641
 10
16.51018423231316
 20
7.907340459732938
 10
17.01303929671522
 20
8.421711288968723
 10
17.33548071205699
 20
8.652026585641417
 10
17.75004824606785
 20
8.99749953065046
 10
18.14158425041142
 20
9.204783297655894
 10
19.24709767444037
 20
9.75754000967037
 10
20.23745345013295
 20
10.47151742935572
 10
21.4120614631637
 20
11.1624633193738
 10
21.84966052684182
 20
11.64612544238645
 10
22.49454335752537
 20
12.06069297639732
 10
23.78430901889248
 20
12.9819541630881
 10
24.3600972605742
 20
13.25833251909534
 10
25.6498629219413
 20
14.24868829478776
 10
25.85714668894673
 20
14.64022429913134
 10
26.68628175696843
 20
15.23904407048036
 10
27.28510152831745
 20
15.72270619349301
 10
27.81482671066464
 20
16.1142421978366
 10
28.27545730401003
 20
16.52880973184745
 10
28.22939424467549
 20
16.7821565581874
 10
28.09120506667188
 20
16.89731420652375
 10
27.56147988432467
 20
16.89731420652375
 97
        0
 75
     0
 76
     1
 98
        0
  0
LINE
  5
41
330
1F
100
AcDbEntity
  8
Doc_ Finishes
  6
Continuous
100
AcDbLine
 10
27.41177566876475
 20
16.87044600708104
 30
0.0
 11
26.89356756490952
 21
16.58254868214004
 31
0.0
  0
LINE
  5
42
330
1F
100
AcDbEntity
  8
Doc_ Finishes
  6
Continuous
100
AcDbLine
 10
26.89356756490952
 20
16.58254868214004
 30
0.0
 11
26.54809254523997
 21
16.29465578284815
 31
0.0
  0
LINE
  5
43
330
1F
100
AcDbEntity
  8
Doc_ Finishes
  6
Continuous
100
AcDbLine
 10
26.54809254523997
 20
16.29465578284815
 30
0.0
 11
26.12584579071597
 21
16.02595249803305
 31
0.0
  0
LINE
  5
44
330
1F
100
AcDbEntity
  8
Doc_ Finishes
  6
Continuous
100
AcDbLine
 10
26.12584579071597
 20
16.02595249803305
 30
0.0
 11
25.76118115656963
 21
15.60371016915814
 31
0.0
  0
LINE
  5
45
330
1F
100
AcDbEntity
  8
Doc_ Finishes
  6
Continuous
100
AcDbLine
 10
25.76118115656963
 20
15.60371016915814
 30
0.0
 11
25.39651652242329
 21
15.33500688434304
 31
0.0
  0
LINE
  5
46
330
1F
100
AcDbEntity
  8
Doc_ Finishes
  6
Continuous
100
AcDbLine
 10
25.39651652242329
 20
15.33500688434304
 30
0.0
 11
25.07023554287962
 21
14.89357051534225
 31
0.0
  0
LINE
  5
47
330
1F
100
AcDbEntity
  8
Doc_ Finishes
  6
Continuous
100
AcDbLine
 10
25.07023554287962
 20
14.89357051534225
 30
0.0
 11
24.49444974429583
 21
14.45213414634146
 31
0.0
  0
LINE
  5
48
330
1F
100
AcDbEntity
  8
Doc_ Finishes
  6
Continuous
100
AcDbLine
 10
24.49444974429583
 20
14.45213414634146
 30
0.0
 11
23.93785356018882
 21
14.02988739181747
 31
0.0
  0
LINE
  5
49
330
1F
100
AcDbEntity
  8
Doc_ Finishes
  6
Continuous
100
AcDbLine
 10
23.93785356018882
 20
14.02988739181747
 30
0.0
 11
23.43883507081038
 21
13.81876622738001
 31
0.0
  0
LINE
  5
4A
330
1F
100
AcDbEntity
  8
Doc_ Finishes
  6
Continuous
100
AcDbLine
 10
23.43883507081038
 20
13.81876622738001
 30
0.0
 11
22.74788945712038
 21
13.39652389850511
 31
0.0
  0
LINE
  5
4B
330
1F
100
AcDbEntity
  8
Doc_ Finishes
  6
Continuous
100
AcDbLine
 10
22.74788945712038
 20
13.39652389850511
 30
0.0
 11
22.09533192368214
 21
12.993471184107
 31
0.0
  0
LINE
  5
4C
330
1F
100
AcDbEntity
  8
Doc_ Finishes
  6
Continuous
100
AcDbLine
 10
22.09533192368214
 20
12.993471184107
 30
0.0
 11
21.63470151455547
 21
12.55203038945712
 31
0.0
  0
LINE
  5
4D
330
1F
100
AcDbEntity
  8
Doc_ Finishes
  6
Continuous
100
AcDbLine
 10
21.63470151455547
 20
12.55203038945712
 30
0.0
 11
20.90536782061369
 21
12.12978806058222
 31
0.0
  0
LINE
  5
4E
330
1F
100
AcDbEntity
  8
Doc_ Finishes
  6
Continuous
100
AcDbLine
 10
20.90536782061369
 20
12.12978806058222
 30
0.0
 11
20.59828088119591
 21
11.74592938630999
 31
0.0
  0
LINE
  5
4F
330
1F
100
AcDbEntity
  8
Doc_ Finishes
  6
Continuous
100
AcDbLine
 10
20.59828088119591
 20
11.74592938630999
 30
0.0
 11
20.0416846970889
 21
11.28529897718332
 31
0.0
  0
LINE
  5
50
330
1F
100
AcDbEntity
  8
Doc_ Finishes
  6
Continuous
100
AcDbLine
 10
20.0416846970889
 20
11.28529897718332
 30
0.0
 11
19.36993312352478
 21
10.86305222265932
 31
0.0
  0
LINE
  5
51
330
1F
100
AcDbEntity
  8
Doc_ Finishes
  6
Continuous
100
AcDbLine
 10
19.36993312352478
 20
10.86305222265932
 30
0.0
 11
18.73656520456333
 21
10.42161585365854
 31
0.0
  0
LINE
  5
52
330
1F
100
AcDbEntity
  8
Doc_ Finishes
  6
Continuous
100
AcDbLine
 10
18.73656520456333
 20
10.42161585365854
 30
0.0
 11
18.04561959087333
 21
10.15291256884343
 31
0.0
  0
LINE
  5
53
330
1F
100
AcDbEntity
  8
Doc_ Finishes
  6
Continuous
100
AcDbLine
 10
18.04561959087333
 20
10.15291256884343
 30
0.0
 11
17.1051647324941
 21
9.692282159716758
 31
0.0
  0
LINE
  5
54
330
1F
100
AcDbEntity
  8
Doc_ Finishes
  6
Continuous
100
AcDbLine
 10
17.1051647324941
 20
9.692282159716758
 30
0.0
 11
16.3950250786782
 21
9.020530586152635
 31
0.0
  0
LINE
  5
55
330
1F
100
AcDbEntity
  8
Doc_ Finishes
  6
Continuous
100
AcDbLine
 10
16.3950250786782
 20
9.020530586152635
 30
0.0
 11
15.8384333202203
 21
8.598288257277733
 31
0.0
  0
LINE
  5
56
330
1F
100
AcDbEntity
  8
Doc_ Finishes
  6
Continuous
100
AcDbLine
 10
15.8384333202203
 20
8.598288257277733
 30
0.0
 11
15.1282936664044
 21
8.137657848151063
 31
0.0
  0
LINE
  5
57
330
1F
100
AcDbEntity
  8
Doc_ Finishes
  6
Continuous
100
AcDbLine
 10
15.1282936664044
 20
8.137657848151063
 30
0.0
 11
14.84039634146341
 21
7.984114378442171
 31
0.0
  0
LINE
  5
58
330
1F
100
AcDbEntity
  8
Doc_ Finishes
  6
Continuous
100
AcDbLine
 10
14.84039634146341
 20
7.984114378442171
 30
0.0
 11
14.37976593233674
 21
7.811376868607396
 31
0.0
  0
LINE
  5
59
330
1F
100
AcDbEntity
  8
Doc_ Finishes
  6
Continuous
100
AcDbLine
 10
14.37976593233674
 20
7.811376868607396
 30
0.0
 11
14.07267899291896
 21
7.523479543666405
 31
0.0
  0
LINE
  5
5A
330
1F
100
AcDbEntity
  8
Doc_ Finishes
  6
Continuous
100
AcDbLine
 10
14.07267899291896
 20
7.523479543666405
 30
0.0
 11
14.0151012981904
 21
7.216392604248622
 31
0.0
  0
LINE
  5
5B
330
1F
100
AcDbEntity
  8
Doc_ Finishes
  6
Continuous
100
AcDbLine
 10
14.0151012981904
 20
7.216392604248622
 30
0.0
 11
14.14945072777341
 21
6.890116050354051
 31
0.0
  0
LINE
  5
5C
330
1F
100
AcDbEntity
  8
Doc_ Finishes
  6
Continuous
100
AcDbLine
 10
14.14945072777341
 20
6.890116050354051
 30
0.0
 11
14.4373480527144
 21
6.563835070810386
 31
0.0
  0
LINE
  5
5D
330
1F
100
AcDbEntity
  8
Doc_ Finishes
  6
Continuous
100
AcDbLine
 10
14.4373480527144
 20
6.563835070810386
 30
0.0
 11
14.87878442171519
 21
6.659800845790715
 31
0.0
  0
LINE
  5
5E
330
1F
100
AcDbEntity
  8
Doc_ Finishes
  6
Continuous
100
AcDbLine
 10
14.87878442171519
 20
6.659800845790715
 30
0.0
 11
15.51215234067663
 21
7.062849134539732
 31
0.0
  0
LINE
  5
5F
330
1F
100
AcDbEntity
  8
Doc_ Finishes
  6
Continuous
100
AcDbLine
 10
15.51215234067663
 20
7.062849134539732
 30
0.0
 11
16.01116640440598
 21
7.389130114083398
 31
0.0
  0
LINE
  5
60
330
1F
100
AcDbEntity
  8
Doc_ Finishes
  6
Continuous
100
AcDbLine
 10
16.01116640440598
 20
7.389130114083398
 30
0.0
 11
16.33744738394964
 21
7.69621705350118
 31
0.0
  0
LINE
  5
61
330
1F
100
AcDbEntity
  8
Doc_ Finishes
  6
Continuous
100
AcDbLine
 10
16.33744738394964
 20
7.69621705350118
 30
0.0
 11
16.51018489378442
 21
7.907342643587726
 31
0.0
  0
LINE
  5
62
330
1F
100
AcDbEntity
  8
Doc_ Finishes
  6
Continuous
100
AcDbLine
 10
16.51018489378442
 20
7.907342643587726
 30
0.0
 11
17.0130404209284
 21
8.421709284028323
 31
0.0
  0
LINE
  5
63
330
1F
100
AcDbEntity
  8
Doc_ Finishes
  6
Continuous
100
AcDbLine
 10
17.0130404209284
 20
8.421709284028323
 30
0.0
 11
17.33547993705743
 21
8.65202448859166
 31
0.0
  0
LINE
  5
64
330
1F
100
AcDbEntity
  8
Doc_ Finishes
  6
Continuous
100
AcDbLine
 10
17.33547993705743
 20
8.65202448859166
 30
0.0
 11
17.75004819040126
 21
8.997499508261212
 31
0.0
  0
LINE
  5
65
330
1F
100
AcDbEntity
  8
Doc_ Finishes
  6
Continuous
100
AcDbLine
 10
17.75004819040126
 20
8.997499508261212
 30
0.0
 11
18.14158536585366
 21
9.204783634933122
 31
0.0
  0
LINE
  5
66
330
1F
100
AcDbEntity
  8
Doc_ Finishes
  6
Continuous
100
AcDbLine
 10
18.14158536585366
 20
9.204783634933122
 30
0.0
 11
19.24709923288749
 21
9.75753835562549
 31
0.0
  0
LINE
  5
67
330
1F
100
AcDbEntity
  8
Doc_ Finishes
  6
Continuous
100
AcDbLine
 10
19.24709923288749
 20
9.75753835562549
 30
0.0
 11
20.23745328481511
 21
10.47151947285602
 31
0.0
  0
LINE
  5
68
330
1F
100
AcDbEntity
  8
Doc_ Finishes
  6
Continuous
100
AcDbLine
 10
20.23745328481511
 20
10.47151947285602
 30
0.0
 11
21.41206038552321
 21
11.16246508654602
 31
0.0
  0
LINE
  5
69
330
1F
100
AcDbEntity
  8
Doc_ Finishes
  6
Continuous
100
AcDbLine
 10
21.41206038552321
 20
11.16246508654602
 30
0.0
 11
21.84965971675846
 21
11.64612657356412
 31
0.0
  0
LINE
  5
6A
330
1F
100
AcDbEntity
  8
Doc_ Finishes
  6
Continuous
100
AcDbLine
 10
21.84965971675846
 20
11.64612657356412
 30
0.0
 11
22.49454317466562
 21
12.06069482690795
 31
0.0
  0
LINE
  5
6B
330
1F
100
AcDbEntity
  8
Doc_ Finishes
  6
Continuous
100
AcDbLine
 10
22.49454317466562
 20
12.06069482690795
 30
0.0
 11
23.78431009047993
 21
12.98195564516129
 31
0.0
  0
LINE
  5
6C
330
1F
100
AcDbEntity
  8
Doc_ Finishes
  6
Continuous
100
AcDbLine
 10
23.78431009047993
 20
12.98195564516129
 30
0.0
 11
24.36009588906373
 21
13.25833300550747
 31
0.0
  0
LINE
  5
6D
330
1F
100
AcDbEntity
  8
Doc_ Finishes
  6
Continuous
100
AcDbLine
 10
24.36009588906373
 20
13.25833300550747
 30
0.0
 11
25.64986280487805
 21
14.24868705743509
 31
0.0
  0
LINE
  5
6E
330
1F
100
AcDbEntity
  8
Doc_ Finishes
  6
Continuous
100
AcDbLine
 10
25.64986280487805
 20
14.24868705743509
 30
0.0
 11
25.85714693154996
 21
14.64022423288749
 31
0.0
  0
LINE
  5
6F
330
1F
100
AcDbEntity
  8
Doc_ Finishes
  6
Continuous
100
AcDbLine
 10
25.85714693154996
 20
14.64022423288749
 30
0.0
 11
26.68628343823761
 21
15.2390455350118
 31
0.0
  0
LINE
  5
70
330
1F
100
AcDbEntity
  8
Doc_ Finishes
  6
Continuous
100
AcDbLine
 10
26.68628343823761
 20
15.2390455350118
 30
0.0
 11
27.28510031471282
 21
15.7227070220299
 31
0.0
  0
LINE
  5
71
330
1F
100
AcDbEntity
  8
Doc_ Finishes
  6
Continuous
100
AcDbLine
 10
27.28510031471282
 20
15.7227070220299
 30
0.0
 11
27.81482838316287
 21
16.1142441974823
 31
0.0
  0
LINE
  5
72
330
1F
100
AcDbEntity
  8
Doc_ Finishes
  6
Continuous
100
AcDbLine
 10
27.81482838316287
 20
16.1142441974823
 30
0.0
 11
28.27545879228953
 21
16.52880802517702
 31
0.0
  0
LINE
  5
73
330
1F
100
AcDbEntity
  8
Doc_ Finishes
  6
Continuous
100
AcDbLine
 10
28.27545879228953
 20
16.52880802517702
 30
0.0
 11
28.22939221085759
 21
16.78215873328088
 31
0.0
  0
LINE
  5
74
330
1F
100
AcDbEntity
  8
Doc_ Finishes
  6
Continuous
100
AcDbLine
 10
28.22939221085759
 20
16.78215873328088
 30
0.0
 11
28.09120574350905
 21
16.897314122738
 31
0.0
  0
LINE
  5
75
330
1F
100
AcDbEntity
  8
Doc_ Finishes
  6
Continuous
100
AcDbLine
 10
28.09120574350905
 20
16.897314122738
 30
0.0
 11
27.56147767505901
 21
16.897314122738
 31
0.0
  0
LINE
  5
76
330
1F
100
AcDbEntity
  8
Doc_ Finishes
  6
Continuous
100
AcDbLine
 10
27.56147767505901
 20
16.897314122738
 30
0.0
 11
27.41177566876475
 21
16.87044600708104
 31
0.0
  0
HATCH
  5
77
330
1F
100
AcDbEntity
  8
Doc_ Finishes
  6
Continuous
100
AcDbHatch
 10
0.0
 20
0.0
 30
0.0
210
0.0
220
0.0
230
1.0
  2
SOLID
 70
     1
 71
     0
 91
        1
 92
        3
 72
     0
 73
     1
 93
       39
 10
27.65360600299377
 20
13.12014334109181
 10
27.21600693931564
 20
12.77467039608275
 10
26.54809257896482
 20
12.24494521373555
 10
25.92624127794851
 20
11.85340920939199
 10
25.32742150659951
 20
11.32368402704478
 10
24.72860173525052
 20
11.04730567103754
 10
24.08371890456698
 20
10.56364354802488
 10
23.62308831122158
 20
10.33332825135219
 10
23.231552306878
 20
10.03391836567767
 10
22.81698477286715
 20
9.619350831666825
 10
22.40241723885631
 20
9.38903553499415
 10
21.91875511584363
 20
9.043562589985086
 10
21.66540828950367
 20
8.859310352646935
 10
21.25084075549282
 20
8.582931996639696
 10
20.09926427212933
 20
7.753796928618002
 10
19.75379132712029
 20
7.477418572610764
 10
19.2931607337749
 20
7.316197864939873
 10
19.22406614477309
 20
6.993756449598113
 10
19.3622553227767
 20
6.717378093590874
 10
19.63863367878394
 20
6.602220445254527
 10
20.00713815346026
 20
6.8325357419272
 10
20.26048497980021
 20
7.131945627601722
 10
20.55989486547472
 20
7.362260924274415
 10
21.31993534449462
 20
7.707733869283458
 10
21.84966052684182
 20
8.122301403294307
 10
22.88607936186895
 20
8.882341882314256
 10
23.20852077721072
 20
9.342972475659646
 10
24.01462431556515
 20
9.734508480003234
 10
24.5673810275796
 20
10.05694989534501
 10
25.46561068460312
 20
10.60970660735953
 10
25.88017821861399
 20
11.07033720070492
 10
26.31777728229212
 20
11.34671555671216
 10
26.70931328663569
 20
11.30065249737762
 10
27.21600693931562
 20
11.55399932371759
 10
28.0681735370046
 20
12.17585062473387
 10
28.41364648201364
 20
12.49829204007566
 10
28.39061495234636
 20
12.77467039608289
 10
28.22939424467547
 20
13.00498569275559
 10
28.04514200733732
 20
13.05104875209013
 97
        0
 75
     0
 76
     1
 98
        0
  0
LINE
  5
78
330
1F
100
AcDbEntity
  8
Doc_ Finishes
  6
Continuous
100
AcDbLine
 10
27.6536064122738
 20
13.12014211250983
 30
0.0
 11
27.21600708103855
 21
12.77467151848938
 31
0.0
  0
LINE
  5
79
330
1F
100
AcDbEntity
  8
Doc_ Finishes
  6
Continuous
100
AcDbLine
 10
27.21600708103855
 20
12.77467151848938
 30
0.0
 11
26.54809254523997
 21
12.24494345003934
 31
0.0
  0
LINE
  5
7A
330
1F
100
AcDbEntity
  8
Doc_ Finishes
  6
Continuous
100
AcDbLine
 10
26.54809254523997
 20
12.24494345003934
 30
0.0
 11
25.92624016522423
 21
11.85341070023603
 31
0.0
  0
LINE
  5
7B
330
1F
100
AcDbEntity
  8
Doc_ Finishes
  6
Continuous
100
AcDbLine
 10
25.92624016522423
 20
11.85341070023603
 30
0.0
 11
25.32742328874902
 21
11.32368263178599
 31
0.0
  0
LINE
  5
7C
330
1F
100
AcDbEntity
  8
Doc_ Finishes
  6
Continuous
100
AcDbLine
 10
25.32742328874902
 20
11.32368263178599
 30
0.0
 11
24.72860198662471
 21
11.04730527143981
 31
0.0
  0
LINE
  5
7D
330
1F
100
AcDbEntity
  8
Doc_ Finishes
  6
Continuous
100
AcDbLine
 10
24.72860198662471
 20
11.04730527143981
 30
0.0
 11
24.08371852871754
 21
10.56364378442171
 31
0.0
  0
LINE
  5
7E
330
1F
100
AcDbEntity
  8
Doc_ Finishes
  6
Continuous
100
AcDbLine
 10
24.08371852871754
 20
10.56364378442171
 30
0.0
 11
23.62308811959087
 21
10.33332857985838
 31
0.0
  0
LINE
  5
7F
330
1F
100
AcDbEntity
  8
Doc_ Finishes
  6
Continuous
100
AcDbLine
 10
23.62308811959087
 20
10.33332857985838
 30
0.0
 11
23.23155094413847
 21
10.03392014162077
 31
0.0
  0
LINE
  5
80
330
1F
100
AcDbEntity
  8
Doc_ Finishes
  6
Continuous
100
AcDbLine
 10
23.23155094413847
 20
10.03392014162077
 30
0.0
 11
22.81698269079465
 21
9.619351888276947
 31
0.0
  0
LINE
  5
81
330
1F
100
AcDbEntity
  8
Doc_ Finishes
  6
Continuous
100
AcDbLine
 10
22.81698269079465
 20
9.619351888276947
 30
0.0
 11
22.40241886309992
 21
9.389036683713611
 31
0.0
  0
LINE
  5
82
330
1F
100
AcDbEntity
  8
Doc_ Finishes
  6
Continuous
100
AcDbLine
 10
22.40241886309992
 20
9.389036683713611
 30
0.0
 11
21.91875295043273
 21
9.04356166404406
 31
0.0
  0
LINE
  5
83
330
1F
100
AcDbEntity
  8
Doc_ Finishes
  6
Continuous
100
AcDbLine
 10
21.91875295043273
 20
9.04356166404406
 30
0.0
 11
21.66540666797797
 21
8.859308615263572
 31
0.0
  0
LINE
  5
84
330
1F
100
AcDbEntity
  8
Doc_ Finishes
  6
Continuous
100
AcDbLine
 10
21.66540666797797
 20
8.859308615263572
 30
0.0
 11
21.25084284028324
 21
8.582931254917387
 31
0.0
  0
LINE
  5
85
330
1F
100
AcDbEntity
  8
Doc_ Finishes
  6
Continuous
100
AcDbLine
 10
21.25084284028324
 20
8.582931254917387
 30
0.0
 11
20.09926239181747
 21
7.75379474822974
 31
0.0
  0
LINE
  5
86
330
1F
100
AcDbEntity
  8
Doc_ Finishes
  6
Continuous
100
AcDbLine
 10
20.09926239181747
 20
7.75379474822974
 30
0.0
 11
19.75379179779701
 21
7.477417387883556
 31
0.0
  0
LINE
  5
87
330
1F
100
AcDbEntity
  8
Doc_ Finishes
  6
Continuous
100
AcDbLine
 10
19.75379179779701
 20
7.477417387883556
 30
0.0
 11
19.29316138867033
 21
7.316199842643588
 31
0.0
  0
LINE
  5
88
330
1F
100
AcDbEntity
  8
Doc_ Finishes
  6
Continuous
100
AcDbLine
 10
19.29316138867033
 20
7.316199842643588
 30
0.0
 11
19.22406815499606
 21
6.993755900865461
 31
0.0
  0
LINE
  5
89
330
1F
100
AcDbEntity
  8
Doc_ Finishes
  6
Continuous
100
AcDbLine
 10
19.22406815499606
 20
6.993755900865461
 30
0.0
 11
19.36225462234461
 21
6.717378540519276
 31
0.0
  0
LINE
  5
8A
330
1F
100
AcDbEntity
  8
Doc_ Finishes
  6
Continuous
100
AcDbLine
 10
19.36225462234461
 20
6.717378540519276
 30
0.0
 11
19.63863198269079
 21
6.602218725413059
 31
0.0
  0
LINE
  5
8B
330
1F
100
AcDbEntity
  8
Doc_ Finishes
  6
Continuous
100
AcDbLine
 10
19.63863198269079
 20
6.602218725413059
 30
0.0
 11
20.00713808025177
 21
6.832533929976396
 31
0.0
  0
LINE
  5
8C
330
1F
100
AcDbEntity
  8
Doc_ Finishes
  6
Continuous
100
AcDbLine
 10
20.00713808025177
 20
6.832533929976396
 30
0.0
 11
20.26048436270653
 21
7.1319467938631
 31
0.0
  0
LINE
  5
8D
330
1F
100
AcDbEntity
  8
Doc_ Finishes
  6
Continuous
100
AcDbLine
 10
20.26048436270653
 20
7.1319467938631
 30
0.0
 11
20.55989280094414
 21
7.362261998426435
 31
0.0
  0
LINE
  5
8E
330
1F
100
AcDbEntity
  8
Doc_ Finishes
  6
Continuous
100
AcDbLine
 10
20.55989280094414
 20
7.362261998426435
 30
0.0
 11
21.31993607395751
 21
7.707732592446892
 31
0.0
  0
LINE
  5
8F
330
1F
100
AcDbEntity
  8
Doc_ Finishes
  6
Continuous
100
AcDbLine
 10
21.31993607395751
 20
7.707732592446892
 30
0.0
 11
21.84965971675846
 21
8.122300845790717
 31
0.0
  0
LINE
  5
90
330
1F
100
AcDbEntity
  8
Doc_ Finishes
  6
Continuous
100
AcDbLine
 10
21.84965971675846
 20
8.122300845790717
 30
0.0
 11
22.88608035011802
 21
8.882339693154996
 31
0.0
  0
LINE
  5
91
330
1F
100
AcDbEntity
  8
Doc_ Finishes
  6
Continuous
100
AcDbLine
 10
22.88608035011802
 20
8.882339693154996
 30
0.0
 11
23.20851986624705
 21
9.342974527930762
 31
0.0
  0
LINE
  5
92
330
1F
100
AcDbEntity
  8
Doc_ Finishes
  6
Continuous
100
AcDbLine
 10
23.20851986624705
 20
9.342974527930762
 30
0.0
 11
24.01462529504327
 21
9.734507277734066
 31
0.0
  0
LINE
  5
93
330
1F
100
AcDbEntity
  8
Doc_ Finishes
  6
Continuous
100
AcDbLine
 10
24.01462529504327
 20
9.734507277734066
 30
0.0
 11
24.56738001573564
 21
10.05695121951219
 31
0.0
  0
LINE
  5
94
330
1F
100
AcDbEntity
  8
Doc_ Finishes
  6
Continuous
100
AcDbLine
 10
24.56738001573564
 20
10.05695121951219
 30
0.0
 11
25.46560975609756
 21
10.60970594020456
 31
0.0
  0
LINE
  5
95
330
1F
100
AcDbEntity
  8
Doc_ Finishes
  6
Continuous
100
AcDbLine
 10
25.46560975609756
 20
10.60970594020456
 30
0.0
 11
25.88017800944139
 21
11.07033634933124
 31
0.0
  0
LINE
  5
96
330
1F
100
AcDbEntity
  8
Doc_ Finishes
  6
Continuous
100
AcDbLine
 10
25.88017800944139
 20
11.07033634933124
 30
0.0
 11
26.31777734067663
 21
11.34671370967742
 31
0.0
  0
LINE
  5
97
330
1F
100
AcDbEntity
  8
Doc_ Finishes
  6
Continuous
100
AcDbLine
 10
26.31777734067663
 20
11.34671370967742
 30
0.0
 11
26.70931451612903
 21
11.30065155389457
 31
0.0
  0
LINE
  5
98
330
1F
100
AcDbEntity
  8
Doc_ Finishes
  6
Continuous
100
AcDbLine
 10
26.70931451612903
 20
11.30065155389457
 30
0.0
 11
27.21600708103855
 21
11.55399783634933
 31
0.0
  0
LINE
  5
99
330
1F
100
AcDbEntity
  8
Doc_ Finishes
  6
Continuous
100
AcDbLine
 10
27.21600708103855
 20
11.55399783634933
 30
0.0
 11
28.06817466561763
 21
12.17585021636507
 31
0.0
  0
LINE
  5
9A
330
1F
100
AcDbEntity
  8
Doc_ Finishes
  6
Continuous
100
AcDbLine
 10
28.06817466561763
 20
12.17585021636507
 30
0.0
 11
28.41364525963808
 21
12.49829415814319
 31
0.0
  0
LINE
  5
9B
330
1F
100
AcDbEntity
  8
Doc_ Finishes
  6
Continuous
100
AcDbLine
 10
28.41364525963808
 20
12.49829415814319
 30
0.0
 11
28.39061418174666
 21
12.77467151848938
 31
0.0
  0
LINE
  5
9C
330
1F
100
AcDbEntity
  8
Doc_ Finishes
  6
Continuous
100
AcDbLine
 10
28.39061418174666
 20
12.77467151848938
 30
0.0
 11
28.22939221085759
 21
13.00498672305271
 31
0.0
  0
LINE
  5
9D
330
1F
100
AcDbEntity
  8
Doc_ Finishes
  6
Continuous
100
AcDbLine
 10
28.22939221085759
 20
13.00498672305271
 30
0.0
 11
28.04514358772619
 21
13.05104887883556
 31
0.0
  0
LINE
  5
9E
330
1F
100
AcDbEntity
  8
Doc_ Finishes
  6
Continuous
100
AcDbLine
 10
28.04514358772619
 20
13.05104887883556
 30
0.0
 11
27.6536064122738
 21
13.12014211250983
 31
0.0
  0
HATCH
  5
9F
330
1F
100
AcDbEntity
  8
Doc_ Finishes
  6
Continuous
100
AcDbHatch
 10
0.0
 20
0.0
 30
0.0
210
0.0
220
0.0
230
1.0
  2
SOLID
 70
     1
 71
     0
 91
        1
 92
        3
 72
     0
 73
     1
 93
       47
 10
28.06817353700456
 20
15.74573772316067
 10
28.30309513961077
 20
15.62136746295728
 10
28.4412843176144
 20
15.4002647781515
 10
28.93876535842742
 20
15.17916209334572
 10
29.82317609765057
 20
14.40530269652538
 10
30.92868952167951
 20
13.74199464210799
 10
31.59199757609689
 20
13.3827027792986
 10
32.20002995931279
 20
13.07868658769064
 10
33.55428390374828
 20
12.08372450606458
 10
34.07940278016201
 20
11.69679480765445
 10
34.88090001258301
 20
11.08876242443854
 10
35.59948373820179
 20
10.50836787682334
 10
36.5668079842271
 20
9.817421986805197
 10
37.06428902504012
 20
9.458130123995785
 10
37.81051058625966
 20
8.933011247582023
 10
38.61200781868061
 20
8.407892371168286
 10
38.77783483228498
 20
8.186789686362482
 10
39.38586721550092
 20
7.744584316750918
 10
40.18736444792187
 20
6.915449248729224
 10
40.7953968311378
 20
6.44560604351692
 10
41.56925622795804
 20
6.169227687509681
 10
42.23256428237543
 20
6.086314180707507
 10
42.48130480278193
 20
6.30741686551329
 10
42.14965077557326
 20
6.611433057121246
 10
41.48634272115586
 20
6.998362755531397
 10
40.76775899553709
 20
7.357654618340788
 10
40.18736444792187
 20
8.048600508358874
 10
38.99893751709079
 20
8.822459905179112
 10
38.47381864067705
 20
9.319940945992132
 10
38.22507812027052
 20
9.734508480003
 10
37.17484036744301
 20
10.31490302761817
 10
36.73263499783144
 20
10.78474623283046
 10
36.2351539570184
 20
11.17167593124059
 10
35.48893239579888
 20
11.61388130085215
 10
34.85326217698223
 20
12.16663801286669
 10
34.35578113616919
 20
12.58120554687754
 10
33.69247308175183
 20
12.99577308088841
 10
33.22262987653953
 20
13.32742710809708
 10
32.7251488357265
 20
13.5761676285036
 10
31.93747052110588
 20
14.06443605744977
 10
31.43077686842594
 20
14.38687747279155
 10
30.92408321574601
 20
14.70931888813342
 10
30.62467333007151
 20
15.100854892477
 10
29.95675896972068
 20
15.67664313415887
 10
29.47309684670803
 20
15.9530214901661
 10
28.82821401602447
 20
16.36758902417695
 10
28.50577260068269
 20
16.22939984617334
 97
        0
 75
     0
 76
     1
 98
        0
  0
LINE
  5
A0
330
1F
100
AcDbEntity
  8
Doc_ Finishes
  6
Continuous
100
AcDbLine
 10
28.30309697088906
 20
15.62136850904799
 30
0.0
 11
28.06817466561763
 21
15.74573809992132
 31
0.0
  0
LINE
  5
A1
330
1F
100
AcDbEntity
  8
Doc_ Finishes
  6
Continuous
100
AcDbLine
 10
28.44128343823761
 20
15.40026308025177
 30
0.0
 11
28.30309697088906
 21
15.62136850904799
 31
0.0
  0
LINE
  5
A2
330
1F
100
AcDbEntity
  8
Doc_ Finishes
  6
Continuous
100
AcDbLine
 10
28.93876622738001
 20
15.17916207710464
 30
0.0
 11
28.44128343823761
 21
15.40026308025177
 31
0.0
  0
LINE
  5
A3
330
1F
100
AcDbEntity
  8
Doc_ Finishes
  6
Continuous
100
AcDbLine
 10
29.82317466561762
 20
14.40530192761605
 30
0.0
 11
28.93876622738001
 21
15.17916207710464
 31
0.0
  0
LINE
  5
A4
330
1F
100
AcDbEntity
  8
Doc_ Finishes
  6
Continuous
100
AcDbLine
 10
30.92868853265146
 20
13.74199449252557
 30
0.0
 11
29.82317466561762
 21
14.40530192761605
 31
0.0
  0
LINE
  5
A5
330
1F
100
AcDbEntity
  8
Doc_ Finishes
  6
Continuous
100
AcDbLine
 10
31.59199596774193
 20
13.3827025963808
 30
0.0
 11
30.92868853265146
 21
13.74199449252557
 31
0.0
  0
LINE
  5
A6
330
1F
100
AcDbEntity
  8
Doc_ Finishes
  6
Continuous
100
AcDbLine
 10
32.20003147128246
 20
13.07868705743509
 30
0.0
 11
31.59199596774193
 21
13.3827025963808
 31
0.0
  0
LINE
  5
A7
330
1F
100
AcDbEntity
  8
Doc_ Finishes
  6
Continuous
100
AcDbLine
 10
33.55428452006294
 20
12.08372590479937
 30
0.0
 11
32.20003147128246
 21
13.07868705743509
 31
0.0
  0
LINE
  5
A8
330
1F
100
AcDbEntity
  8
Doc_ Finishes
  6
Continuous
100
AcDbLine
 10
34.07940106215578
 20
11.69679583005508
 30
0.0
 11
33.55428452006294
 21
12.08372590479937
 31
0.0
  0
LINE
  5
A9
330
1F
100
AcDbEntity
  8
Doc_ Finishes
  6
Continuous
100
AcDbLine
 10
34.8808993902439
 20
11.08876032651456
 30
0.0
 11
34.07940106215578
 21
11.69679583005508
 31
0.0
  0
LINE
  5
AA
330
1F
100
AcDbEntity
  8
Doc_ Finishes
  6
Continuous
100
AcDbLine
 10
35.59948318253343
 20
10.50836742722266
 30
0.0
 11
34.8808993902439
 21
11.08876032651456
 31
0.0
  0
LINE
  5
AB
330
1F
100
AcDbEntity
  8
Doc_ Finishes
  6
Continuous
100
AcDbLine
 10
36.56680615656963
 20
9.817421813532652
 30
0.0
 11
35.59948318253343
 21
10.50836742722266
 31
0.0
  0
LINE
  5
AC
330
1F
100
AcDbEntity
  8
Doc_ Finishes
  6
Continuous
100
AcDbLine
 10
37.06428894571204
 20
9.458129917387884
 30
0.0
 11
36.56680615656963
 21
9.817421813532652
 31
0.0
  0
LINE
  5
AD
330
1F
100
AcDbEntity
  8
Doc_ Finishes
  6
Continuous
100
AcDbLine
 10
37.8105109166011
 20
8.933013375295044
 30
0.0
 11
37.06428894571204
 21
9.458129917387884
 31
0.0
  0
LINE
  5
AE
330
1F
100
AcDbEntity
  8
Doc_ Finishes
  6
Continuous
100
AcDbLine
 10
38.61200924468922
 20
8.407892407553108
 30
0.0
 11
37.8105109166011
 21
8.933013375295044
 31
0.0
  0
LINE
  5
AF
330
1F
100
AcDbEntity
  8
Doc_ Finishes
  6
Continuous
100
AcDbLine
 10
38.77783389063729
 20
8.18679140440598
 30
0.0
 11
38.61200924468922
 21
8.407892407553108
 31
0.0
  0
LINE
  5
B0
330
1F
100
AcDbEntity
  8
Doc_ Finishes
  6
Continuous
100
AcDbLine
 10
39.3858693941778
 20
7.744584972462627
 30
0.0
 11
38.77783389063729
 21
8.18679140440598
 31
0.0
  0
LINE
  5
B1
330
1F
100
AcDbEntity
  8
Doc_ Finishes
  6
Continuous
100
AcDbLine
 10
40.18736329661684
 20
6.915448465774981
 30
0.0
 11
39.3858693941778
 21
7.744584972462627
 31
0.0
  0
LINE
  5
B2
330
1F
100
AcDbEntity
  8
Doc_ Finishes
  6
Continuous
100
AcDbLine
 10
40.79539880015735
 20
6.4456038552321
 30
0.0
 11
40.18736329661684
 21
6.915448465774981
 31
0.0
  0
LINE
  5
B3
330
1F
100
AcDbEntity
  8
Doc_ Finishes
  6
Continuous
100
AcDbLine
 10
41.56925452399685
 20
6.169226494885916
 30
0.0
 11
40.79539880015735
 21
6.4456038552321
 31
0.0
  0
LINE
  5
B4
330
1F
100
AcDbEntity
  8
Doc_ Finishes
  6
Continuous
100
AcDbLine
 10
42.23256638473643
 20
6.086316384736428
 30
0.0
 11
41.56925452399685
 21
6.169226494885916
 31
0.0
  0
LINE
  5
B5
330
1F
100
AcDbEntity
  8
Doc_ Finishes
  6
Continuous
100
AcDbLine
 10
42.48130556648308
 20
6.307417387883556
 30
0.0
 11
42.23256638473643
 21
6.086316384736428
 31
0.0
  0
LINE
  5
B6
330
1F
100
AcDbEntity
  8
Doc_ Finishes
  6
Continuous
100
AcDbLine
 10
42.14965184893784
 20
6.611432926829268
 30
0.0
 11
42.48130556648308
 21
6.307417387883556
 31
0.0
  0
LINE
  5
B7
330
1F
100
AcDbEntity
  8
Doc_ Finishes
  6
Continuous
100
AcDbLine
 10
41.48634441384736
 20
6.998363001573564
 30
0.0
 11
42.14965184893784
 21
6.611432926829268
 31
0.0
  0
LINE
  5
B8
330
1F
100
AcDbEntity
  8
Doc_ Finishes
  6
Continuous
100
AcDbLine
 10
40.76776062155783
 20
7.357654897718332
 30
0.0
 11
41.48634441384736
 21
6.998363001573564
 31
0.0
  0
LINE
  5
B9
330
1F
100
AcDbEntity
  8
Doc_ Finishes
  6
Continuous
100
AcDbLine
 10
40.18736329661684
 20
8.048600511408338
 30
0.0
 11
40.76776062155783
 21
7.357654897718332
 31
0.0
  0
LINE
  5
BA
330
1F
100
AcDbEntity
  8
Doc_ Finishes
  6
Continuous
100
AcDbLine
 10
38.99893931943352
 20
8.822460660896931
 30
0.0
 11
40.18736329661684
 21
8.048600511408338
 31
0.0
  0
LINE
  5
BB
330
1F
100
AcDbEntity
  8
Doc_ Finishes
  6
Continuous
100
AcDbLine
 10
38.47381835169158
 20
9.319939024390242
 30
0.0
 11
38.99893931943352
 21
8.822460660896931
 31
0.0
  0
LINE
  5
BC
330
1F
100
AcDbEntity
  8
Doc_ Finishes
  6
Continuous
100
AcDbLine
 10
38.22507916994492
 20
9.734507277734066
 30
0.0
 11
38.47381835169158
 21
9.319939024390242
 31
0.0
  0
LINE
  5
BD
330
1F
100
AcDbEntity
  8
Doc_ Finishes
  6
Continuous
100
AcDbLine
 10
37.17484166011014
 20
10.31490460267506
 30
0.0
 11
38.22507916994492
 21
9.734507277734066
 31
0.0
  0
LINE
  5
BE
330
1F
100
AcDbEntity
  8
Doc_ Finishes
  6
Continuous
100
AcDbLine
 10
36.7326352281668
 20
10.78474478756884
 30
0.0
 11
37.17484166011014
 21
10.31490460267506
 31
0.0
  0
LINE
  5
BF
330
1F
100
AcDbEntity
  8
Doc_ Finishes
  6
Continuous
100
AcDbLine
 10
36.23515243902439
 20
11.17167486231314
 30
0.0
 11
36.7326352281668
 21
10.78474478756884
 31
0.0
  0
LINE
  5
C0
330
1F
100
AcDbEntity
  8
Doc_ Finishes
  6
Continuous
100
AcDbLine
 10
35.48893046813532
 20
11.61388129425649
 30
0.0
 11
36.23515243902439
 21
11.17167486231314
 31
0.0
  0
LINE
  5
C1
330
1F
100
AcDbEntity
  8
Doc_ Finishes
  6
Continuous
100
AcDbLine
 10
34.85326121164437
 20
12.16663601494886
 30
0.0
 11
35.48893046813532
 21
11.61388129425649
 31
0.0
  0
LINE
  5
C2
330
1F
100
AcDbEntity
  8
Doc_ Finishes
  6
Continuous
100
AcDbLine
 10
34.35578284815106
 20
12.58120426829268
 30
0.0
 11
34.85326121164437
 21
12.16663601494886
 31
0.0
  0
LINE
  5
C3
330
1F
100
AcDbEntity
  8
Doc_ Finishes
  6
Continuous
100
AcDbLine
 10
33.69247098741149
 20
12.99577252163651
 30
0.0
 11
34.35578284815106
 21
12.58120426829268
 31
0.0
  0
LINE
  5
C4
330
1F
100
AcDbEntity
  8
Doc_ Finishes
  6
Continuous
100
AcDbLine
 10
33.2226308025177
 20
13.32742623918175
 30
0.0
 11
33.69247098741149
 21
12.99577252163651
 31
0.0
  0
LINE
  5
C5
330
1F
100
AcDbEntity
  8
Doc_ Finishes
  6
Continuous
100
AcDbLine
 10
32.7251480133753
 20
13.5761654209284
 30
0.0
 11
33.2226308025177
 21
13.32742623918175
 31
0.0
  0
LINE
  5
C6
330
1F
100
AcDbEntity
  8
Doc_ Finishes
  6
Continuous
100
AcDbLine
 10
31.93747098741148
 20
14.0644340086546
 30
0.0
 11
32.7251480133753
 21
13.5761654209284
 31
0.0
  0
LINE
  5
C7
330
1F
100
AcDbEntity
  8
Doc_ Finishes
  6
Continuous
100
AcDbLine
 10
31.43077842250197
 20
14.38687795043273
 30
0.0
 11
31.93747098741148
 21
14.0644340086546
 31
0.0
  0
LINE
  5
C8
330
1F
100
AcDbEntity
  8
Doc_ Finishes
  6
Continuous
100
AcDbLine
 10
30.92408143194335
 20
14.70931746656176
 30
0.0
 11
31.43077842250197
 21
14.38687795043273
 31
0.0
  0
LINE
  5
C9
330
1F
100
AcDbEntity
  8
Doc_ Finishes
  6
Continuous
100
AcDbLine
 10
30.62467299370574
 20
15.10085464201416
 30
0.0
 11
30.92408143194335
 21
14.70931746656176
 31
0.0
  0
LINE
  5
CA
330
1F
100
AcDbEntity
  8
Doc_ Finishes
  6
Continuous
100
AcDbLine
 10
29.95675845790716
 20
15.67664486624705
 30
0.0
 11
30.62467299370574
 21
15.10085464201416
 31
0.0
  0
LINE
  5
CB
330
1F
100
AcDbEntity
  8
Doc_ Finishes
  6
Continuous
100
AcDbLine
 10
29.47309697088906
 20
15.95302222659323
 30
0.0
 11
29.95675845790716
 21
15.67664486624705
 31
0.0
  0
LINE
  5
CC
330
1F
100
AcDbEntity
  8
Doc_ Finishes
  6
Continuous
100
AcDbLine
 10
28.8282135129819
 20
16.36759047993706
 30
0.0
 11
29.47309697088906
 21
15.95302222659323
 31
0.0
  0
LINE
  5
CD
330
1F
100
AcDbEntity
  8
Doc_ Finishes
  6
Continuous
100
AcDbLine
 10
28.50577399685287
 20
16.22939958693942
 30
0.0
 11
28.8282135129819
 21
16.36759047993706
 31
0.0
  0
LINE
  5
CE
330
1F
100
AcDbEntity
  8
Doc_ Finishes
  6
Continuous
100
AcDbLine
 10
28.06817466561763
 20
15.74573809992132
 30
0.0
 11
28.50577399685287
 21
16.22939958693942
 31
0.0
  0
LINE
  5
CF
330
1F
100
AcDbEntity
  8
Doc_ Finishes
  6
Continuous
 62
   254
370
    18
100
AcDbLine
 10
97.43333792289535
 20
5.093360051140834
 30
0.0
 11
97.43333792289535
 21
20.69901750590086
 31
0.0
  0
LINE
  5
D0
330
1F
100
AcDbEntity
  8
Doc_ Finishes
  6
Continuous
 62
   254
370
    18
100
AcDbLine
 10
7.000000491738787
 20
20.69901750590086
 30
0.0
 11
290.2406840086546
 21
20.69901750590086
 31
0.0
  0
LINE
  5
D1
330
1F
100
AcDbEntity
  8
Doc_ Finishes
  6
Continuous
 62
   254
370
    18
100
AcDbLine
 10
290.2406840086546
 20
20.69901750590086
 30
0.0
 11
290.2406840086546
 21
5.000000983477577
 31
0.0
  0
LINE
  5
D2
330
1F
100
AcDbEntity
  8
Doc_ Finishes
  6
Continuous
 62
   254
370
    18
100
AcDbLine
 10
290.2406840086546
 20
5.000000983477577
 30
0.0
 11
7.000000491738787
 21
5.000000983477577
 31
0.0
  0
LINE
  5
D3
330
1F
100
AcDbEntity
  8
Doc_ Finishes
  6
Continuous
 62
   254
370
    18
100
AcDbLine
 10
7.000000491738787
 20
20.69901750590086
 30
0.0
 11
7.000000491738787
 21
5.000000983477577
 31
0.0
  0
LINE
  5
D4
330
1F
100
AcDbEntity
  8
Doc_ Finishes
  6
Continuous
 62
   254
370
    18
100
AcDbLine
 10
190.2919443351691
 20
5.093360051140834
 30
0.0
 11
190.2919443351691
 21
20.69901750590086
 31
0.0
  0
LINE
  5
D5
330
1F
100
AcDbEntity
  8
Doc_ Finishes
  6
Continuous
 62
   254
370
    18
100
AcDbLine
 10
190.2919443351691
 20
12.8961909913454
 30
0.0
 11
290.2406840086546
 21
12.8961909913454
 31
0.0
  0
MTEXT
  5
D7
330
1F
100
AcDbEntity
  8
0
  6
Continuous
100
AcDbMText
 10
210.3494767103412
 20
15.00230533707754
 30
0.0
 40
2.25
 41
0.0
 71
     7
 72
     1
  1
{R-TRSC-10}
  7
GENERATED_STYLE_1
 73
     1
 44
1.0
  0
MTEXT
  5
D8
330
1F
100
AcDbEntity
  8
0
  6
Continuous
100
AcDbMText
 10
210.3494767103412
 20
11.03300550383743
 30
0.0
 40
3.0
 41
0.0
 71
     1
 72
     1
  1
{APRON DETAIL - KICKOUT - 3D VIEW}
  7
GENERATED_STYLE_1
 73
     1
 44
1.0
  0
MTEXT
  5
DA
330
1F
100
AcDbEntity
  8
Doc_ Floor
  6
Continuous
100
AcDbMText
 10
29.78353726544612
 20
13.33283672870609
 30
0.0
 40
5.603347280334726
 41
0.0
 71
     1
 72
     1
  1
{The Roofing Store}
  7
GENERATED_STYLE_2
 73
     1
 44
1.0
  0
MTEXT
  5
DC
102
{ACAD_XDICTIONARY
360
2BA
102
}
330
1F
100
AcDbEntity
  8
0
  6
Continuous
100
AcDbMText
 10
102.7389238446655
 20
6.378784417288157
 30
0.0
 40
1.5
 41
0.0
 71
     7
 72
     1
  1
{P: HEAD OFFICE              09 277 2717\P    ALBANY             09 972 0060\P    KATIKAIT            07 549 5190\P    WELLINGTON              04 974 5792\P    CHRISTCHURCH          03 348 6528}
  7
GENERATED_STYLE_1
 73
     1
 44
1.062946161486498
  0
MTEXT
  5
DD
330
1F
100
AcDbEntity
  8
0
  6
Continuous
100
AcDbMText
 10
149.4184566143587
 20
9.199084231526156
 30
0.0
 40
1.5
 41
0.0
 71
     7
 72
     1
  1
{WEB: www.theroofingstore.co.nz}
  7
GENERATED_STYLE_1
 73
     1
 44
1.0
  0
MTEXT
  5
DE
330
1F
100
AcDbEntity
  8
0
  6
Continuous
100
AcDbMText
 10
149.4184566143587
 20
6.620946023411263
 30
0.0
 40
1.5
 41
0.0
 71
     7
 72
     1
  1
{Copyright \U+00A9 The Roofing Store 2013}
  7
GENERATED_STYLE_1
 73
     1
 44
1.0
  0
MTEXT
  5
DF
330
1F
100
AcDbEntity
  8
0
  6
Continuous
100
AcDbMText
 10
273.9546684065315
 20
15.01597367092287
 30
0.0
 40
2.25
 41
0.0
 71
     7
 72
     1
  1
{1:30}
  7
GENERATED_STYLE_1
 73
     1
 44
1.0
  0
MTEXT
  5
E0
330
1F
100
AcDbEntity
  8
0
  6
Continuous
100
AcDbMText
 10
264.8396605309016
 20
15.51746459162148
 30
0.0
 40
1.5
 41
0.0
 71
     7
 72
     1
  1
{SCALE:}
  7
GENERATED_STYLE_1
 73
     1
 44
1.0
  0
MTEXT
  5
E1
330
1F
100
AcDbEntity
  8
0
  6
Continuous
100
AcDbMText
 10
191.5066235617487
 20
15.48695559872207
 30
0.0
 40
1.5
 41
0.0
 71
     7
 72
     1
  1
{DETAIL NUMBER:}
  7
GENERATED_STYLE_1
 73
     1
 44
1.0
  0
MTEXT
  5
E2
330
1F
100
AcDbEntity
  8
0
  6
Continuous
100
AcDbMText
 10
191.5066235617487
 20
9.005462392315325
 30
0.0
 40
1.5
 41
0.0
 71
     7
 72
     1
  1
{TITLE:}
  7
GENERATED_STYLE_1
 73
     1
 44
1.0
  0
INSERT
  5
285
102
{ACAD_XDICTIONARY
360
286
102
}
330
1F
100
AcDbEntity
  8
0
  6
Continuous
100
AcDbBlockReference
  2
Drawing_1_2
 10
180.1182711515631
 20
104.2792165591143
 30
0.0
  0
HATCH
  5
289
330
1F
100
AcDbEntity
  8
0
  6
Continuous
 62
   255
370
    18
100
AcDbHatch
 10
0.0
 20
0.0
 30
0.0
210
0.0
220
0.0
230
1.0
  2
SOLID
 70
     1
 71
     1
 91
        1
 92
        3
 72
     0
 73
     1
 93
        4
 10
273.3048340926641
 20
18.76127115967694
 10
281.1157441007591
 20
18.76127115967694
 10
281.1157441007591
 20
13.60607055433428
 10
273.3048340926641
 20
13.60607055433428
 97
        1
330
28A
 75
     0
 76
     1
 98
        0
  0
LWPOLYLINE
  5
28A
102
{ACAD_REACTORS
330
289
102
}
330
1F
100
AcDbEntity
  8
0
  6
Continuous
 62
   255
370
    18
100
AcDbPolyline
 90
        4
 70
   129
 43
0.0
 10
273.3048340926641
 20
18.76127115967694
 10
281.1157441007591
 20
18.76127115967694
 10
281.1157441007591
 20
13.60607055433428
 10
273.3048340926641
 20
13.60607055433428
  0
MTEXT
  5
28B
330
1F
100
AcDbEntity
  8
0
  6
Continuous
100
AcDbMText
 10
273.3048340926641
 20
15.04971009924697
 30
0.0
 40
2.0
 41
0.0
 71
     7
 72
     1
  1
{NTS}
  7
GENERATED_STYLE_1
 73
     1
 44
1.0
  0
ENDSEC
  0
SECTION
  2
OBJECTS
  0
DICTIONARY
  5
C
330
0
100
AcDbDictionary
281
     1
  3
ACAD_GROUP
350
D
  3
ACAD_LAYOUT
350
1A
  3
ACAD_MATERIAL
350
3B
  3
ACAD_MLEADERSTYLE
350
2B5
  3
ACAD_MLINESTYLE
350
17
  3
ACAD_PLOTSETTINGS
350
19
  3
ACAD_PLOTSTYLENAME
350
E
  3
ACAD_SCALELIST
350
28F
  3
ACAD_VISUALSTYLE
350
2A
  3
AcDbVariableDictionary
350
2B3
  3
WATERMARKS
350
2B1
  0
DICTIONARY
  5
2BA
330
DC
100
AcDbDictionary
280
     1
281
     1
  3
ACAD_MTEXT_RT
360
2BB
  0
DICTIONARY
  5
286
330
285
100
AcDbDictionary
280
     1
281
     1
  3
ACAD_FILTER
360
287
  0
DICTIONARY
  5
D
102
{ACAD_REACTORS
330
C
102
}
330
C
100
AcDbDictionary
281
     1
  0
DICTIONARY
  5
1A
102
{ACAD_REACTORS
330
C
102
}
330
C
100
AcDbDictionary
281
     1
  3
Layout1
350
1E
  3
Model
350
22
  0
DICTIONARY
  5
3B
102
{ACAD_REACTORS
330
C
102
}
330
C
100
AcDbDictionary
281
     1
  3
ByBlock
350
3D
  3
ByLayer
350
3C
  3
Global
350
3E
  0
DICTIONARY
  5
2B5
102
{ACAD_REACTORS
330
C
102
}
330
C
100
AcDbDictionary
281
     1
  0
DICTIONARY
  5
17
102
{ACAD_REACTORS
330
C
102
}
330
C
100
AcDbDictionary
281
     1
  3
Standard
350
18
  0
DICTIONARY
  5
19
102
{ACAD_REACTORS
330
C
102
}
330
C
100
AcDbDictionary
281
     1
  0
ACDBDICTIONARYWDFLT
  5
E
102
{ACAD_REACTORS
330
C
102
}
330
C
100
AcDbDictionary
281
     1
  3
Normal
350
F
100
AcDbDictionaryWithDefault
340
F
  0
DICTIONARY
  5
28F
102
{ACAD_REACTORS
330
C
102
}
330
C
100
AcDbDictionary
281
     1
  3
A0
350
290
  3
A1
350
291
  3
A2
350
292
  3
A3
350
293
  3
A4
350
294
  3
A5
350
295
  3
A6
350
296
  3
A7
350
297
  3
A8
350
298
  3
A9
350
299
  3
B0
350
29A
  3
B1
350
29B
  3
B2
350
29C
  3
B3
350
29D
  3
B4
350
29E
  3
B5
350
29F
  3
B6
350
2A0
  3
B7
350
2A1
  3
B8
350
2A2
  3
B9
350
2A3
  3
C0
350
2A4
  3
C1
350
2A5
  3
C2
350
2A6
  3
C3
350
2A7
  3
C4
350
2A8
  3
C5
350
2A9
  3
C6
350
2AA
  3
C7
350
2AB
  3
C8
350
2AC
  3
C9
350
2AD
  3
D0
350
2AE
  3
D1
350
2AF
  3
D2
350
2B0
  0
DICTIONARY
  5
2A
102
{ACAD_REACTORS
330
C
102
}
330
C
100
AcDbDictionary
281
     1
  3
2dWireframe
350
2F
  3
3D Hidden
350
31
  3
3dWireframe
350
30
  3
Basic
350
32
  3
Brighten
350
36
  3
ColorChange
350
3A
  3
Conceptual
350
34
  3
Dim
350
35
  3
Facepattern
350
39
  3
Flat
350
2B
  3
FlatWithEdges
350
2C
  3
Gouraud
350
2D
  3
GouraudWithEdges
350
2E
  3
Linepattern
350
38
  3
Realistic
350
33
  3
Thicken
350
37
  0
DICTIONARY
  5
2B3
102
{ACAD_REACTORS
330
C
102
}
330
C
100
AcDbDictionary
281
     1
  3
CANNOSCALE
350
2B7
  3
DIMASSOC
350
2B8
  3
HIDETEXT
350
2B9
  3
XCLIPFRAME
350
2B6
  0
DICTIONARY
  5
2B1
102
{ACAD_REACTORS
330
C
102
}
330
C
100
AcDbDictionary
281
     1
  3
AC_WATERMARK
350
2B2
  0
XRECORD
  5
2BB
102
{ACAD_REACTORS
330
2BA
102
}
330
2BA
100
AcDbXrecord
280
     1
 40
956118.0
  1
{P: HEAD OFFICE ^I^I09 277 2717\P    ALBANY ^I^I09 972 0060\P    KATIKAIT^I^I07 549 5190\P    WELLINGTON^I^I04 974 5792\P    CHRISTCHURCH^I^I03 348 6528}
  0
DICTIONARY
  5
287
102
{ACAD_REACTORS
330
286
102
}
330
286
100
AcDbDictionary
280
     1
281
     1
  3
SPATIAL
360
288
  0
LAYOUT
  5
1E
102
{ACAD_REACTORS
330
1A
102
}
330
1A
100
AcDbPlotSettings
  1

  2
none_device
  4

  6

 40
0.0
 41
0.0
 42
0.0
 43
0.0
 44
0.0
 45
0.0
 46
0.0
 47
0.0
 48
0.0
 49
0.0
140
0.0
141
0.0
142
1.0
143
1.0
 70
   688
 72
     0
 73
     0
 74
     5
  7

 75
    16
147
1.0
148
0.0
149
0.0
100
AcDbLayout
  1
Layout1
 70
     1
 71
     1
 10
0.0
 20
0.0
 11
12.0
 21
9.0
 12
0.0
 22
0.0
 32
0.0
 14
1.000000000000000E+20
 24
1.000000000000000E+20
 34
1.000000000000000E+20
 15
-1.000000000000000E+20
 25
-1.000000000000000E+20
 35
-1.000000000000000E+20
146
0.0
 13
0.0
 23
0.0
 33
0.0
 16
1.0
 26
0.0
 36
0.0
 17
0.0
 27
1.0
 37
0.0
 76
     0
330
1B
  0
LAYOUT
  5
22
102
{ACAD_REACTORS
330
1A
102
}
330
1A
100
AcDbPlotSettings
  1

  2
none_device
  4

  6

 40
0.0
 41
0.0
 42
0.0
 43
0.0
 44
0.0
 45
0.0
 46
0.0
 47
0.0
 48
0.0
 49
0.0
140
0.0
141
0.0
142
1.0
143
1.0
 70
  1712
 72
     0
 73
     0
 74
     0
  7

 75
     0
147
1.0
148
0.0
149
0.0
100
AcDbLayout
  1
Model
 70
     1
 71
     0
 10
0.0
 20
0.0
 11
12.0
 21
9.0
 12
0.0
 22
0.0
 32
0.0
 14
1.000000000000000E+20
 24
1.000000000000000E+20
 34
1.000000000000000E+20
 15
-1.000000000000000E+20
 25
-1.000000000000000E+20
 35
-1.000000000000000E+20
146
0.0
 13
0.0
 23
0.0
 33
0.0
 16
1.0
 26
0.0
 36
0.0
 17
0.0
 27
1.0
 37
0.0
 76
     0
330
1F
331
29
  0
MATERIAL
  5
3D
102
{ACAD_REACTORS
330
3B
102
}
102
{ACAD_XDICTIONARY
360
2DE
102
}
330
3B
100
AcDbMaterial
  1
ByBlock
  0
MATERIAL
  5
3C
102
{ACAD_REACTORS
330
3B
102
}
102
{ACAD_XDICTIONARY
360
2DC
102
}
330
3B
100
AcDbMaterial
  1
ByLayer
  0
MATERIAL
  5
3E
102
{ACAD_REACTORS
330
3B
102
}
102
{ACAD_XDICTIONARY
360
2E0
102
}
330
3B
100
AcDbMaterial
  1
Global
  0
MLINESTYLE
  5
18
102
{ACAD_REACTORS
330
17
102
}
330
17
100
AcDbMlineStyle
  2
Standard
 70
     0
  3

 62
   256
 51
90.0
 52
90.0
 71
     2
 49
0.5
 62
   256
  6
BYLAYER
 49
-0.5
 62
   256
  6
BYLAYER
  0
ACDBPLACEHOLDER
  5
F
102
{ACAD_REACTORS
330
E
102
}
330
E
  0
SCALE
  5
290
102
{ACAD_REACTORS
330
28F
102
}
330
28F
100
AcDbScale
 70
     0
300
1:1
140
1.0
141
1.0
290
     1
  0
SCALE
  5
291
102
{ACAD_REACTORS
330
28F
102
}
330
28F
100
AcDbScale
 70
     0
300
1:2
140
1.0
141
2.0
290
     0
  0
SCALE
  5
292
102
{ACAD_REACTORS
330
28F
102
}
330
28F
100
AcDbScale
 70
     0
300
1:4
140
1.0
141
4.0
290
     0
  0
SCALE
  5
293
102
{ACAD_REACTORS
330
28F
102
}
330
28F
100
AcDbScale
 70
     0
300
1:5
140
1.0
141
5.0
290
     0
  0
SCALE
  5
294
102
{ACAD_REACTORS
330
28F
102
}
330
28F
100
AcDbScale
 70
     0
300
1:8
140
1.0
141
8.0
290
     0
  0
SCALE
  5
295
102
{ACAD_REACTORS
330
28F
102
}
330
28F
100
AcDbScale
 70
     0
300
1:10
140
1.0
141
10.0
290
     0
  0
SCALE
  5
296
102
{ACAD_REACTORS
330
28F
102
}
330
28F
100
AcDbScale
 70
     0
300
1:16
140
1.0
141
16.0
290
     0
  0
SCALE
  5
297
102
{ACAD_REACTORS
330
28F
102
}
330
28F
100
AcDbScale
 70
     0
300
1:20
140
1.0
141
20.0
290
     0
  0
SCALE
  5
298
102
{ACAD_REACTORS
330
28F
102
}
330
28F
100
AcDbScale
 70
     0
300
1:30
140
1.0
141
30.0
290
     0
  0
SCALE
  5
299
102
{ACAD_REACTORS
330
28F
102
}
330
28F
100
AcDbScale
 70
     0
300
1:40
140
1.0
141
40.0
290
     0
  0
SCALE
  5
29A
102
{ACAD_REACTORS
330
28F
102
}
330
28F
100
AcDbScale
 70
     0
300
1:50
140
1.0
141
50.0
290
     0
  0
SCALE
  5
29B
102
{ACAD_REACTORS
330
28F
102
}
330
28F
100
AcDbScale
 70
     0
300
1:100
140
1.0
141
100.0
290
     0
  0
SCALE
  5
29C
102
{ACAD_REACTORS
330
28F
102
}
330
28F
100
AcDbScale
 70
     0
300
2:1
140
2.0
141
1.0
290
     0
  0
SCALE
  5
29D
102
{ACAD_REACTORS
330
28F
102
}
330
28F
100
AcDbScale
 70
     0
300
4:1
140
4.0
141
1.0
290
     0
  0
SCALE
  5
29E
102
{ACAD_REACTORS
330
28F
102
}
330
28F
100
AcDbScale
 70
     0
300
8:1
140
8.0
141
1.0
290
     0
  0
SCALE
  5
29F
102
{ACAD_REACTORS
330
28F
102
}
330
28F
100
AcDbScale
 70
     0
300
10:1
140
10.0
141
1.0
290
     0
  0
SCALE
  5
2A0
102
{ACAD_REACTORS
330
28F
102
}
330
28F
100
AcDbScale
 70
     0
300
100:1
140
100.0
141
1.0
290
     0
  0
SCALE
  5
2A1
102
{ACAD_REACTORS
330
28F
102
}
330
28F
100
AcDbScale
 70
     0
300
1/128" = 1'-0"
140
0.0078125
141
12.0
290
     0
  0
SCALE
  5
2A2
102
{ACAD_REACTORS
330
28F
102
}
330
28F
100
AcDbScale
 70
     0
300
1/64" = 1'-0"
140
0.015625
141
12.0
290
     0
  0
SCALE
  5
2A3
102
{ACAD_REACTORS
330
28F
102
}
330
28F
100
AcDbScale
 70
     0
300
1/32" = 1'-0"
140
0.03125
141
12.0
290
     0
  0
SCALE
  5
2A4
102
{ACAD_REACTORS
330
28F
102
}
330
28F
100
AcDbScale
 70
     0
300
1/16" = 1'-0"
140
0.0625
141
12.0
290
     0
  0
SCALE
  5
2A5
102
{ACAD_REACTORS
330
28F
102
}
330
28F
100
AcDbScale
 70
     0
300
3/32" = 1'-0"
140
0.09375
141
12.0
290
     0
  0
SCALE
  5
2A6
102
{ACAD_REACTORS
330
28F
102
}
330
28F
100
AcDbScale
 70
     0
300
1/8" = 1'-0"
140
0.125
141
12.0
290
     0
  0
SCALE
  5
2A7
102
{ACAD_REACTORS
330
28F
102
}
330
28F
100
AcDbScale
 70
     0
300
3/16" = 1'-0"
140
0.1875
141
12.0
290
     0
  0
SCALE
  5
2A8
102
{ACAD_REACTORS
330
28F
102
}
330
28F
100
AcDbScale
 70
     0
300
1/4" = 1'-0"
140
0.25
141
12.0
290
     0
  0
SCALE
  5
2A9
102
{ACAD_REACTORS
330
28F
102
}
330
28F
100
AcDbScale
 70
     0
300
3/8" = 1'-0"
140
0.375
141
12.0
290
     0
  0
SCALE
  5
2AA
102
{ACAD_REACTORS
330
28F
102
}
330
28F
100
AcDbScale
 70
     0
300
1/2" = 1'-0"
140
0.5
141
12.0
290
     0
  0
SCALE
  5
2AB
102
{ACAD_REACTORS
330
28F
102
}
330
28F
100
AcDbScale
 70
     0
300
3/4" = 1'-0"
140
0.75
141
12.0
290
     0
  0
SCALE
  5
2AC
102
{ACAD_REACTORS
330
28F
102
}
330
28F
100
AcDbScale
 70
     0
300
1" = 1'-0"
140
1.0
141
12.0
290
     0
  0
SCALE
  5
2AD
102
{ACAD_REACTORS
330
28F
102
}
330
28F
100
AcDbScale
 70
     0
300
1-1/2" = 1'-0"
140
1.5
141
12.0
290
     0
  0
SCALE
  5
2AE
102
{ACAD_REACTORS
330
28F
102
}
330
28F
100
AcDbScale
 70
     0
300
3" = 1'-0"
140
3.0
141
12.0
290
     0
  0
SCALE
  5
2AF
102
{ACAD_REACTORS
330
28F
102
}
330
28F
100
AcDbScale
 70
     0
300
6" = 1'-0"
140
6.0
141
12.0
290
     0
  0
SCALE
  5
2B0
102
{ACAD_REACTORS
330
28F
102
}
330
28F
100
AcDbScale
 70
     0
300
1'-0" = 1'-0"
140
12.0
141
12.0
290
     0
  0
VISUALSTYLE
  5
2F
102
{ACAD_REACTORS
330
2A
102
}
102
{ACAD_XDICTIONARY
360
2C4
102
}
330
2A
100
AcDbVisualStyle
  2
2dWireframe
 70
     4
 71
     0
 72
     2
 73
     0
 90
        0
 40
-0.6
 41
-30.0
 62
     5
 63
     7
 74
     1
 91
        4
 64
     7
 65
   257
 75
     1
175
     1
 42
1.0
 92
        0
 66
   257
 43
1.0
 76
     1
 77
     6
 78
     2
 67
     7
 79
     5
170
     0
171
     0
290
     0
174
     0
 93
        1
 44
0.0
173
     0
291
     0
 45
0.0
1001
ACAD
1000
AcDbSavedByObjectVersion
1070
     0
  0
VISUALSTYLE
  5
31
102
{ACAD_REACTORS
330
2A
102
}
102
{ACAD_XDICTIONARY
360
2C8
102
}
330
2A
100
AcDbVisualStyle
  2
3D Hidden
 70
     6
 71
     1
 72
     2
 73
     2
 90
        0
 40
-0.6
 41
-30.0
 62
     5
 63
     7
 74
     2
 91
        2
 64
     7
 65
   257
 75
     2
175
     1
 42
40.0
 92
        0
 66
   257
 43
1.0
 76
     1
 77
     6
 78
     2
 67
     7
 79
     3
170
     0
171
     0
290
     0
174
     0
 93
        1
 44
0.0
173
     0
291
     0
 45
0.0
1001
ACAD
1000
AcDbSavedByObjectVersion
1070
     0
  0
VISUALSTYLE
  5
30
102
{ACAD_REACTORS
330
2A
102
}
102
{ACAD_XDICTIONARY
360
2C6
102
}
330
2A
100
AcDbVisualStyle
  2
3dWireframe
 70
     5
 71
     0
 72
     2
 73
     0
 90
        0
 40
-0.6
 41
-30.0
 62
     5
 63
     7
 74
     1
 91
        4
 64
     7
 65
   257
 75
     1
175
     1
 42
1.0
 92
        0
 66
   257
 43
1.0
 76
     1
 77
     6
 78
     2
 67
     7
 79
     5
170
     0
171
     0
290
     0
174
     0
 93
        1
 44
0.0
173
     0
291
     0
 45
0.0
1001
ACAD
1000
AcDbSavedByObjectVersion
1070
     0
  0
VISUALSTYLE
  5
32
102
{ACAD_REACTORS
330
2A
102
}
102
{ACAD_XDICTIONARY
360
2CA
102
}
330
2A
100
AcDbVisualStyle
  2
Basic
 70
     7
 71
     1
 72
     0
 73
     1
 90
        0
 40
-0.6
 41
-30.0
 62
     5
 63
     7
 74
     0
 91
        4
 64
     7
 65
   257
 75
     1
175
     1
 42
1.0
 92
        8
 66
     7
 43
1.0
 76
     1
 77
     6
 78
     2
 67
     7
 79
     5
170
     0
171
     0
290
     0
174
     0
 93
        1
 44
0.0
173
     0
291
     1
 45
0.0
1001
ACAD
1000
AcDbSavedByObjectVersion
1070
     0
  0
VISUALSTYLE
  5
36
102
{ACAD_REACTORS
330
2A
102
}
102
{ACAD_XDICTIONARY
360
2D2
102
}
330
2A
100
AcDbVisualStyle
  2
Brighten
 70
    12
 71
     2
 72
     2
 73
     0
 90
        0
 40
-0.6
 41
-30.0
 62
     5
 63
     7
 74
     1
 91
        4
 64
     7
 65
   257
 75
     1
175
     1
 42
1.0
 92
        8
 66
     7
 43
1.0
 76
     1
 77
     6
 78
     2
 67
     7
 79
     5
170
     0
171
     0
290
     0
174
     0
 93
        1
 44
50.0
173
     0
291
     1
 45
0.0
1001
ACAD
1000
AcDbSavedByObjectVersion
1070
     0
  0
VISUALSTYLE
  5
3A
102
{ACAD_REACTORS
330
2A
102
}
102
{ACAD_XDICTIONARY
360
2DA
102
}
330
2A
100
AcDbVisualStyle
  2
ColorChange
 70
    16
 71
     2
 72
     2
 73
     3
 90
        0
 40
-0.6
 41
-30.0
 62
     5
 63
     8
 74
     1
 91
        4
 64
     7
 65
   257
 75
     1
175
     1
 42
1.0
 92
        8
 66
     8
 43
1.0
 76
     1
 77
     6
 78
     2
 67
     7
 79
     5
170
     0
171
     0
290
     0
174
     0
 93
        1
 44
0.0
173
     0
291
     1
 45
0.0
1001
ACAD
1000
AcDbSavedByObjectVersion
1070
     0
  0
VISUALSTYLE
  5
34
102
{ACAD_REACTORS
330
2A
102
}
102
{ACAD_XDICTIONARY
360
2CE
102
}
330
2A
100
AcDbVisualStyle
  2
Conceptual
 70
     9
 71
     3
 72
     2
 73
     0
 90
        0
 40
-0.6
 41
-30.0
 62
     5
 63
     7
 74
     2
 91
        2
 64
     7
 65
   257
 75
     1
175
     1
 42
40.0
 92
        8
 66
     7
 43
1.0
 76
     1
 77
     6
 78
     2
 67
     7
 79
     3
170
     0
171
     0
290
     0
174
     0
 93
        1
 44
0.0
173
     0
291
     0
 45
0.0
1001
ACAD
1000
AcDbSavedByObjectVersion
1070
     0
  0
VISUALSTYLE
  5
35
102
{ACAD_REACTORS
330
2A
102
}
102
{ACAD_XDICTIONARY
360
2D0
102
}
330
2A
100
AcDbVisualStyle
  2
Dim
 70
    11
 71
     2
 72
     2
 73
     0
 90
        0
 40
-0.6
 41
-30.0
 62
     5
 63
     7
 74
     1
 91
        4
 64
     7
 65
   257
 75
     1
175
     1
 42
1.0
 92
        8
 66
     7
 43
1.0
 76
     1
 77
     6
 78
     2
 67
     7
 79
     5
170
     0
171
     0
290
     0
174
     0
 93
        1
 44
-50.0
173
     0
291
     1
 45
0.0
1001
ACAD
1000
AcDbSavedByObjectVersion
1070
     0
  0
VISUALSTYLE
  5
39
102
{ACAD_REACTORS
330
2A
102
}
102
{ACAD_XDICTIONARY
360
2D8
102
}
330
2A
100
AcDbVisualStyle
  2
Facepattern
 70
    15
 71
     2
 72
     2
 73
     0
 90
        0
 40
-0.6
 41
-30.0
 62
     5
 63
     7
 74
     1
 91
        4
 64
     7
 65
   257
 75
     1
175
     1
 42
1.0
 92
        8
 66
     7
 43
1.0
 76
     1
 77
     6
 78
     2
 67
     7
 79
     5
170
     0
171
     0
290
     0
174
     0
 93
        1
 44
0.0
173
     0
291
     1
 45
0.0
1001
ACAD
1000
AcDbSavedByObjectVersion
1070
     0
  0
VISUALSTYLE
  5
2B
102
{ACAD_REACTORS
330
2A
102
}
102
{ACAD_XDICTIONARY
360
2BC
102
}
330
2A
100
AcDbVisualStyle
  2
Flat
 70
     0
 71
     2
 72
     1
 73
     1
 90
        2
 40
-0.6
 41
30.0
 62
     5
 63
     7
 74
     0
 91
        4
 64
     7
 65
   257
 75
     1
175
     1
 42
1.0
 92
        8
 66
     7
 43
1.0
 76
     1
 77
     6
 78
     2
 67
     7
 79
     5
170
     0
171
     0
290
     0
174
     0
 93
       13
 44
0.0
173
     0
291
     1
 45
0.0
1001
ACAD
1000
AcDbSavedByObjectVersion
1070
     0
  0
VISUALSTYLE
  5
2C
102
{ACAD_REACTORS
330
2A
102
}
102
{ACAD_XDICTIONARY
360
2BE
102
}
330
2A
100
AcDbVisualStyle
  2
FlatWithEdges
 70
     1
 71
     2
 72
     1
 73
     1
 90
        2
 40
-0.6
 41
30.0
 62
     5
 63
     7
 74
     1
 91
        4
 64
     7
 65
   257
 75
     1
175
     1
 42
1.0
 92
        0
 66
   257
 43
1.0
 76
     1
 77
     6
 78
     2
 67
     7
 79
     5
170
     0
171
     0
290
     0
174
     0
 93
       13
 44
0.0
173
     0
291
     1
 45
0.0
1001
ACAD
1000
AcDbSavedByObjectVersion
1070
     0
  0
VISUALSTYLE
  5
2D
102
{ACAD_REACTORS
330
2A
102
}
102
{ACAD_XDICTIONARY
360
2C0
102
}
330
2A
100
AcDbVisualStyle
  2
Gouraud
 70
     2
 71
     2
 72
     2
 73
     1
 90
        2
 40
-0.6
 41
30.0
 62
     5
 63
     7
 74
     0
 91
        4
 64
     7
 65
   257
 75
     1
175
     1
 42
1.0
 92
        0
 66
     7
 43
1.0
 76
     1
 77
     6
 78
     2
 67
     7
 79
     5
170
     0
171
     0
290
     0
174
     0
 93
       13
 44
0.0
173
     0
291
     1
 45
0.0
1001
ACAD
1000
AcDbSavedByObjectVersion
1070
     0
  0
VISUALSTYLE
  5
2E
102
{ACAD_REACTORS
330
2A
102
}
102
{ACAD_XDICTIONARY
360
2C2
102
}
330
2A
100
AcDbVisualStyle
  2
GouraudWithEdges
 70
     3
 71
     2
 72
     2
 73
     1
 90
        2
 40
-0.6
 41
30.0
 62
     5
 63
     7
 74
     1
 91
        4
 64
     7
 65
   257
 75
     1
175
     1
 42
1.0
 92
        0
 66
   257
 43
1.0
 76
     1
 77
     6
 78
     2
 67
     7
 79
     5
170
     0
171
     0
290
     0
174
     0
 93
       13
 44
0.0
173
     0
291
     1
 45
0.0
1001
ACAD
1000
AcDbSavedByObjectVersion
1070
     0
  0
VISUALSTYLE
  5
38
102
{ACAD_REACTORS
330
2A
102
}
102
{ACAD_XDICTIONARY
360
2D6
102
}
330
2A
100
AcDbVisualStyle
  2
Linepattern
 70
    14
 71
     2
 72
     2
 73
     0
 90
        0
 40
-0.6
 41
-30.0
 62
     5
 63
     7
 74
     1
 91
        4
 64
     7
 65
   257
 75
     7
175
     7
 42
1.0
 92
        8
 66
     7
 43
1.0
 76
     1
 77
     6
 78
     2
 67
     7
 79
     5
170
     0
171
     0
290
     0
174
     0
 93
        1
 44
0.0
173
     0
291
     1
 45
0.0
1001
ACAD
1000
AcDbSavedByObjectVersion
1070
     0
  0
VISUALSTYLE
  5
33
102
{ACAD_REACTORS
330
2A
102
}
102
{ACAD_XDICTIONARY
360
2CC
102
}
330
2A
100
AcDbVisualStyle
  2
Realistic
 70
     8
 71
     2
 72
     2
 73
     0
 90
        0
 40
-0.6
 41
-30.0
 62
     5
 63
     7
 74
     1
 91
        0
 64
     7
 65
   257
 75
     1
175
     1
 42
1.0
 92
        8
 66
     8
 43
1.0
 76
     1
 77
     6
 78
     2
 67
     7
 79
     5
170
     0
171
     0
290
     0
174
     0
 93
       13
 44
0.0
173
     0
291
     0
 45
0.0
1001
ACAD
1000
AcDbSavedByObjectVersion
1070
     0
  0
VISUALSTYLE
  5
37
102
{ACAD_REACTORS
330
2A
102
}
102
{ACAD_XDICTIONARY
360
2D4
102
}
330
2A
100
AcDbVisualStyle
  2
Thicken
 70
    13
 71
     2
 72
     2
 73
     0
 90
        0
 40
-0.6
 41
-30.0
 62
     5
 63
     7
 74
     1
 91
        4
 64
     7
 65
   257
 75
     1
175
     1
 42
1.0
 92
       12
 66
     7
 43
1.0
 76
     1
 77
     6
 78
     2
 67
     7
 79
     5
170
     0
171
     0
290
     0
174
     0
 93
        1
 44
0.0
173
     0
291
     1
 45
0.0
1001
ACAD
1000
AcDbSavedByObjectVersion
1070
     0
  0
DICTIONARYVAR
  5
2B7
102
{ACAD_REACTORS
330
2B3
102
}
330
2B3
100
DictionaryVariables
280
     0
  1
1:1
  0
DICTIONARYVAR
  5
2B8
102
{ACAD_REACTORS
330
2B3
102
}
330
2B3
100
DictionaryVariables
280
     0
  1
2
  0
DICTIONARYVAR
  5
2B9
102
{ACAD_REACTORS
330
2B3
102
}
330
2B3
100
DictionaryVariables
280
     0
  1
1
  0
DICTIONARYVAR
  5
2B6
102
{ACAD_REACTORS
330
2B3
102
}
330
2B3
100
DictionaryVariables
280
     0
  1
0
  0
XRECORD
  5
2B2
102
{ACAD_REACTORS
330
2B1
102
}
330
2B1
100
AcDbXrecord
280
     1
1000
This DWG file was created in ArchiCAD(TM)®
  0
SPATIAL_FILTER
  5
288
102
{ACAD_REACTORS
330
287
102
}
330
287
100
AcDbFilter
100
AcDbSpatialFilter
 70
     4
 10
8.561421807913666
 20
34.25424126763513
 10
287.8750893013041
 20
34.25424126763513
 10
287.8750893013041
 20
193.567009796245
 10
8.561421807913666
 20
193.567009796245
210
0.0
220
0.0
230
1.0
 11
0.0
 21
0.0
 31
0.0
 71
     1
 72
     0
 73
     0
 40
1.0
 40
0.0
 40
0.0
 40
0.0
 40
0.0
 40
1.0
 40
0.0
 40
0.0
 40
0.0
 40
0.0
 40
1.0
 40
0.0
 40
1.0
 40
0.0
 40
0.0
 40
0.0
 40
0.0
 40
1.0
 40
0.0
 40
0.0
 40
0.0
 40
0.0
 40
1.0
 40
0.0
  0
DICTIONARY
  5
2DE
330
3D
100
AcDbDictionary
280
     1
281
     1
  3
ACAD_XREC_ROUNDTRIP
360
2DF
  0
DICTIONARY
  5
2DC
330
3C
100
AcDbDictionary
280
     1
281
     1
  3
ACAD_XREC_ROUNDTRIP
360
2DD
  0
DICTIONARY
  5
2E0
330
3E
100
AcDbDictionary
280
     1
281
     1
  3
ACAD_XREC_ROUNDTRIP
360
2E1
  0
DICTIONARY
  5
2C4
330
2F
100
AcDbDictionary
280
     1
281
     1
  3
ACAD_XREC_ROUNDTRIP
360
2C5
  0
DICTIONARY
  5
2C8
330
31
100
AcDbDictionary
280
     1
281
     1
  3
ACAD_XREC_ROUNDTRIP
360
2C9
  0
DICTIONARY
  5
2C6
330
30
100
AcDbDictionary
280
     1
281
     1
  3
ACAD_XREC_ROUNDTRIP
360
2C7
  0
DICTIONARY
  5
2CA
330
32
100
AcDbDictionary
280
     1
281
     1
  3
ACAD_XREC_ROUNDTRIP
360
2CB
  0
DICTIONARY
  5
2D2
330
36
100
AcDbDictionary
280
     1
281
     1
  3
ACAD_XREC_ROUNDTRIP
360
2D3
  0
DICTIONARY
  5
2DA
330
3A
100
AcDbDictionary
280
     1
281
     1
  3
ACAD_XREC_ROUNDTRIP
360
2DB
  0
DICTIONARY
  5
2CE
330
34
100
AcDbDictionary
280
     1
281
     1
  3
ACAD_XREC_ROUNDTRIP
360
2CF
  0
DICTIONARY
  5
2D0
330
35
100
AcDbDictionary
280
     1
281
     1
  3
ACAD_XREC_ROUNDTRIP
360
2D1
  0
DICTIONARY
  5
2D8
330
39
100
AcDbDictionary
280
     1
281
     1
  3
ACAD_XREC_ROUNDTRIP
360
2D9
  0
DICTIONARY
  5
2BC
330
2B
100
AcDbDictionary
280
     1
281
     1
  3
ACAD_XREC_ROUNDTRIP
360
2BD
  0
DICTIONARY
  5
2BE
330
2C
100
AcDbDictionary
280
     1
281
     1
  3
ACAD_XREC_ROUNDTRIP
360
2BF
  0
DICTIONARY
  5
2C0
330
2D
100
AcDbDictionary
280
     1
281
     1
  3
ACAD_XREC_ROUNDTRIP
360
2C1
  0
DICTIONARY
  5
2C2
330
2E
100
AcDbDictionary
280
     1
281
     1
  3
ACAD_XREC_ROUNDTRIP
360
2C3
  0
DICTIONARY
  5
2D6
330
38
100
AcDbDictionary
280
     1
281
     1
  3
ACAD_XREC_ROUNDTRIP
360
2D7
  0
DICTIONARY
  5
2CC
330
33
100
AcDbDictionary
280
     1
281
     1
  3
ACAD_XREC_ROUNDTRIP
360
2CD
  0
DICTIONARY
  5
2D4
330
37
100
AcDbDictionary
280
     1
281
     1
  3
ACAD_XREC_ROUNDTRIP
360
2D5
  0
XRECORD
  5
2DF
102
{ACAD_REACTORS
330
2DE
102
}
330
2DE
100
AcDbXrecord
280
     1
102
MATERIAL
148
0.0
149
0.0
149
0.0
 93
        0
 94
      127
282
     0
 72
     1
 77
     1
171
     1
175
     1
179
     1
273
     0
  0
XRECORD
  5
2DD
102
{ACAD_REACTORS
330
2DC
102
}
330
2DC
100
AcDbXrecord
280
     1
102
MATERIAL
148
0.0
149
0.0
149
0.0
 93
        0
 94
      127
282
     0
 72
     1
 77
     1
171
     1
175
     1
179
     1
273
     0
  0
XRECORD
  5
2E1
102
{ACAD_REACTORS
330
2E0
102
}
330
2E0
100
AcDbXrecord
280
     1
102
MATERIAL
148
0.0
149
0.0
149
0.0
 93
        0
 94
      127
282
     0
 72
     1
 77
     1
171
     1
175
     1
179
     1
273
     0
  0
XRECORD
  5
2C5
102
{ACAD_REACTORS
330
2C4
102
}
330
2C4
100
AcDbXrecord
280
     1
102
RTVSPropertyOp0
 70
     1
102
RTVSPropertyOp1
 70
     1
102
RTVSPropertyOp2
 70
     1
102
RTVSPropertyOp3
 70
     1
102
RTVSPropertyOp4
 70
     1
102
RTVSPropertyOp5
 70
     1
102
RTVSPropertyOp6
 70
     1
102
RTVSPropertyOp7
 70
     1
102
RTVSPropertyOp8
 70
     1
102
RTVSPropertyOp9
 70
     1
102
RTVSPropertyOp10
 70
     1
102
RTVSPropertyOp11
 70
     1
102
RTVSPropertyOp12
 70
     1
102
RTVSPropertyOp13
 70
     1
102
RTVSPropertyOp14
 70
     1
102
RTVSPropertyOp15
 70
     1
102
RTVSPropertyOp16
 70
     1
102
RTVSPropertyOp17
 70
     1
102
RTVSPropertyOp18
 70
     1
102
RTVSPropertyOp19
 70
     1
102
RTVSPropertyOp20
 70
     1
102
RTVSPropertyOp21
 70
     1
102
RTVSPropertyOp22
 70
     1
102
RTVSPropertyOp23
 70
     1
102
RTVSPropertyOp24
 70
     1
102
RTVSPropertyOp25
 70
     1
102
RTVSPropertyOp26
 70
     1
102
RTVSPropertyOp27
 70
     1
102
RTVSPropertyOp28
 70
     1
102
RTVSPropertyOp29
 70
     1
102
RTVSPropertyOp30
 70
     1
102
RTVSPropertyOp31
 70
     1
102
RTVSPropertyOp32
 70
     1
  0
XRECORD
  5
2C9
102
{ACAD_REACTORS
330
2C8
102
}
330
2C8
100
AcDbXrecord
280
     1
102
RTVSPropertyOp0
 70
     1
102
RTVSPropertyOp1
 70
     1
102
RTVSPropertyOp2
 70
     1
102
RTVSPropertyOp3
 70
     1
102
RTVSPropertyOp4
 70
     1
102
RTVSPropertyOp5
 70
     1
102
RTVSPropertyOp6
 70
     1
102
RTVSPropertyOp7
 70
     1
102
RTVSPropertyOp8
 70
     1
102
RTVSPropertyOp9
 70
     1
102
RTVSPropertyOp10
 70
     1
102
RTVSPropertyOp11
 70
     1
102
RTVSPropertyOp12
 70
     1
102
RTVSPropertyOp13
 70
     1
102
RTVSPropertyOp14
 70
     1
102
RTVSPropertyOp15
 70
     1
102
RTVSPropertyOp16
 70
     1
102
RTVSPropertyOp17
 70
     1
102
RTVSPropertyOp18
 70
     1
102
RTVSPropertyOp19
 70
     1
102
RTVSPropertyOp20
 70
     1
102
RTVSPropertyOp21
 70
     1
102
RTVSPropertyOp22
 70
     1
102
RTVSPropertyOp23
 70
     1
102
RTVSPropertyOp24
 70
     1
102
RTVSPropertyOp25
 70
     1
102
RTVSPropertyOp26
 70
     1
102
RTVSPropertyOp27
 70
     1
102
RTVSPropertyOp28
 70
     1
102
RTVSPropertyOp29
 70
     1
102
RTVSPropertyOp30
 70
     1
102
RTVSPropertyOp31
 70
     1
102
RTVSPropertyOp32
 70
     1
  0
XRECORD
  5
2C7
102
{ACAD_REACTORS
330
2C6
102
}
330
2C6
100
AcDbXrecord
280
     1
102
RTVSPropertyOp0
 70
     1
102
RTVSPropertyOp1
 70
     1
102
RTVSPropertyOp2
 70
     1
102
RTVSPropertyOp3
 70
     1
102
RTVSPropertyOp4
 70
     1
102
RTVSPropertyOp5
 70
     1
102
RTVSPropertyOp6
 70
     1
102
RTVSPropertyOp7
 70
     1
102
RTVSPropertyOp8
 70
     1
102
RTVSPropertyOp9
 70
     1
102
RTVSPropertyOp10
 70
     1
102
RTVSPropertyOp11
 70
     1
102
RTVSPropertyOp12
 70
     1
102
RTVSPropertyOp13
 70
     1
102
RTVSPropertyOp14
 70
     1
102
RTVSPropertyOp15
 70
     1
102
RTVSPropertyOp16
 70
     1
102
RTVSPropertyOp17
 70
     1
102
RTVSPropertyOp18
 70
     1
102
RTVSPropertyOp19
 70
     1
102
RTVSPropertyOp20
 70
     1
102
RTVSPropertyOp21
 70
     1
102
RTVSPropertyOp22
 70
     1
102
RTVSPropertyOp23
 70
     1
102
RTVSPropertyOp24
 70
     1
102
RTVSPropertyOp25
 70
     1
102
RTVSPropertyOp26
 70
     1
102
RTVSPropertyOp27
 70
     1
102
RTVSPropertyOp28
 70
     1
102
RTVSPropertyOp29
 70
     1
102
RTVSPropertyOp30
 70
     1
102
RTVSPropertyOp31
 70
     1
102
RTVSPropertyOp32
 70
     1
  0
XRECORD
  5
2CB
102
{ACAD_REACTORS
330
2CA
102
}
330
2CA
100
AcDbXrecord
280
     1
102
RTVSPropertyOp0
 70
     1
102
RTVSPropertyOp1
 70
     1
102
RTVSPropertyOp2
 70
     1
102
RTVSPropertyOp3
 70
     1
102
RTVSPropertyOp4
 70
     1
102
RTVSPropertyOp5
 70
     1
102
RTVSPropertyOp6
 70
     1
102
RTVSPropertyOp7
 70
     1
102
RTVSPropertyOp8
 70
     1
102
RTVSPropertyOp9
 70
     1
102
RTVSPropertyOp10
 70
     1
102
RTVSPropertyOp11
 70
     1
102
RTVSPropertyOp12
 70
     1
102
RTVSPropertyOp13
 70
     1
102
RTVSPropertyOp14
 70
     1
102
RTVSPropertyOp15
 70
     1
102
RTVSPropertyOp16
 70
     1
102
RTVSPropertyOp17
 70
     1
102
RTVSPropertyOp18
 70
     1
102
RTVSPropertyOp19
 70
     1
102
RTVSPropertyOp20
 70
     1
102
RTVSPropertyOp21
 70
     1
102
RTVSPropertyOp22
 70
     1
102
RTVSPropertyOp23
 70
     1
102
RTVSPropertyOp24
 70
     1
102
RTVSPropertyOp25
 70
     1
102
RTVSPropertyOp26
 70
     1
102
RTVSPropertyOp27
 70
     1
102
RTVSPropertyOp28
 70
     1
102
RTVSPropertyOp29
 70
     1
102
RTVSPropertyOp30
 70
     1
102
RTVSPropertyOp31
 70
     1
102
RTVSPropertyOp32
 70
     1
  0
XRECORD
  5
2D3
102
{ACAD_REACTORS
330
2D2
102
}
330
2D2
100
AcDbXrecord
280
     1
102
RTVSPropertyOp0
 70
     1
102
RTVSPropertyOp1
 70
     1
102
RTVSPropertyOp2
 70
     1
102
RTVSPropertyOp3
 70
     1
102
RTVSPropertyOp4
 70
     1
102
RTVSPropertyOp5
 70
     1
102
RTVSPropertyOp6
 70
     1
102
RTVSPropertyOp7
 70
     1
102
RTVSPropertyOp8
 70
     1
102
RTVSPropertyOp9
 70
     1
102
RTVSPropertyOp10
 70
     1
102
RTVSPropertyOp11
 70
     1
102
RTVSPropertyOp12
 70
     1
102
RTVSPropertyOp13
 70
     1
102
RTVSPropertyOp14
 70
     1
102
RTVSPropertyOp15
 70
     1
102
RTVSPropertyOp16
 70
     1
102
RTVSPropertyOp17
 70
     1
102
RTVSPropertyOp18
 70
     1
102
RTVSPropertyOp19
 70
     1
102
RTVSPropertyOp20
 70
     1
102
RTVSPropertyOp21
 70
     1
102
RTVSPropertyOp22
 70
     1
102
RTVSPropertyOp23
 70
     1
102
RTVSPropertyOp24
 70
     1
102
RTVSPropertyOp25
 70
     1
102
RTVSPropertyOp26
 70
     1
102
RTVSPropertyOp27
 70
     1
102
RTVSPropertyOp28
 70
     1
102
RTVSPropertyOp29
 70
     1
102
RTVSPropertyOp30
 70
     1
102
RTVSPropertyOp31
 70
     1
102
RTVSPropertyOp32
 70
     1
  0
XRECORD
  5
2DB
102
{ACAD_REACTORS
330
2DA
102
}
330
2DA
100
AcDbXrecord
280
     1
102
RTVSPropertyOp0
 70
     1
102
RTVSPropertyOp1
 70
     1
102
RTVSPropertyOp2
 70
     1
102
RTVSPropertyOp3
 70
     1
102
RTVSPropertyOp4
 70
     1
102
RTVSPropertyOp5
 70
     1
102
RTVSPropertyOp6
 70
     1
102
RTVSPropertyOp7
 70
     1
102
RTVSPropertyOp8
 70
     1
102
RTVSPropertyOp9
 70
     1
102
RTVSPropertyOp10
 70
     1
102
RTVSPropertyOp11
 70
     1
102
RTVSPropertyOp12
 70
     1
102
RTVSPropertyOp13
 70
     1
102
RTVSPropertyOp14
 70
     1
102
RTVSPropertyOp15
 70
     1
102
RTVSPropertyOp16
 70
     1
102
RTVSPropertyOp17
 70
     1
102
RTVSPropertyOp18
 70
     1
102
RTVSPropertyOp19
 70
     1
102
RTVSPropertyOp20
 70
     1
102
RTVSPropertyOp21
 70
     1
102
RTVSPropertyOp22
 70
     1
102
RTVSPropertyOp23
 70
     1
102
RTVSPropertyOp24
 70
     1
102
RTVSPropertyOp25
 70
     1
102
RTVSPropertyOp26
 70
     1
102
RTVSPropertyOp27
 70
     1
102
RTVSPropertyOp28
 70
     1
102
RTVSPropertyOp29
 70
     1
102
RTVSPropertyOp30
 70
     1
102
RTVSPropertyOp31
 70
     1
102
RTVSPropertyOp32
 70
     1
  0
XRECORD
  5
2CF
102
{ACAD_REACTORS
330
2CE
102
}
330
2CE
100
AcDbXrecord
280
     1
102
RTVSPropertyOp0
 70
     1
102
RTVSPropertyOp1
 70
     1
102
RTVSPropertyOp2
 70
     1
102
RTVSPropertyOp3
 70
     1
102
RTVSPropertyOp4
 70
     1
102
RTVSPropertyOp5
 70
     1
102
RTVSPropertyOp6
 70
     1
102
RTVSPropertyOp7
 70
     1
102
RTVSPropertyOp8
 70
     1
102
RTVSPropertyOp9
 70
     1
102
RTVSPropertyOp10
 70
     1
102
RTVSPropertyOp11
 70
     1
102
RTVSPropertyOp12
 70
     1
102
RTVSPropertyOp13
 70
     1
102
RTVSPropertyOp14
 70
     1
102
RTVSPropertyOp15
 70
     1
102
RTVSPropertyOp16
 70
     1
102
RTVSPropertyOp17
 70
     1
102
RTVSPropertyOp18
 70
     1
102
RTVSPropertyOp19
 70
     1
102
RTVSPropertyOp20
 70
     1
102
RTVSPropertyOp21
 70
     1
102
RTVSPropertyOp22
 70
     1
102
RTVSPropertyOp23
 70
     1
102
RTVSPropertyOp24
 70
     1
102
RTVSPropertyOp25
 70
     1
102
RTVSPropertyOp26
 70
     1
102
RTVSPropertyOp27
 70
     1
102
RTVSPropertyOp28
 70
     1
102
RTVSPropertyOp29
 70
     1
102
RTVSPropertyOp30
 70
     1
102
RTVSPropertyOp31
 70
     1
102
RTVSPropertyOp32
 70
     1
  0
XRECORD
  5
2D1
102
{ACAD_REACTORS
330
2D0
102
}
330
2D0
100
AcDbXrecord
280
     1
102
RTVSPropertyOp0
 70
     1
102
RTVSPropertyOp1
 70
     1
102
RTVSPropertyOp2
 70
     1
102
RTVSPropertyOp3
 70
     1
102
RTVSPropertyOp4
 70
     1
102
RTVSPropertyOp5
 70
     1
102
RTVSPropertyOp6
 70
     1
102
RTVSPropertyOp7
 70
     1
102
RTVSPropertyOp8
 70
     1
102
RTVSPropertyOp9
 70
     1
102
RTVSPropertyOp10
 70
     1
102
RTVSPropertyOp11
 70
     1
102
RTVSPropertyOp12
 70
     1
102
RTVSPropertyOp13
 70
     1
102
RTVSPropertyOp14
 70
     1
102
RTVSPropertyOp15
 70
     1
102
RTVSPropertyOp16
 70
     1
102
RTVSPropertyOp17
 70
     1
102
RTVSPropertyOp18
 70
     1
102
RTVSPropertyOp19
 70
     1
102
RTVSPropertyOp20
 70
     1
102
RTVSPropertyOp21
 70
     1
102
RTVSPropertyOp22
 70
     1
102
RTVSPropertyOp23
 70
     1
102
RTVSPropertyOp24
 70
     1
102
RTVSPropertyOp25
 70
     1
102
RTVSPropertyOp26
 70
     1
102
RTVSPropertyOp27
 70
     1
102
RTVSPropertyOp28
 70
     1
102
RTVSPropertyOp29
 70
     1
102
RTVSPropertyOp30
 70
     1
102
RTVSPropertyOp31
 70
     1
102
RTVSPropertyOp32
 70
     1
  0
XRECORD
  5
2D9
102
{ACAD_REACTORS
330
2D8
102
}
330
2D8
100
AcDbXrecord
280
     1
102
RTVSPropertyOp0
 70
     1
102
RTVSPropertyOp1
 70
     1
102
RTVSPropertyOp2
 70
     1
102
RTVSPropertyOp3
 70
     1
102
RTVSPropertyOp4
 70
     1
102
RTVSPropertyOp5
 70
     1
102
RTVSPropertyOp6
 70
     1
102
RTVSPropertyOp7
 70
     1
102
RTVSPropertyOp8
 70
     1
102
RTVSPropertyOp9
 70
     1
102
RTVSPropertyOp10
 70
     1
102
RTVSPropertyOp11
 70
     1
102
RTVSPropertyOp12
 70
     1
102
RTVSPropertyOp13
 70
     1
102
RTVSPropertyOp14
 70
     1
102
RTVSPropertyOp15
 70
     1
102
RTVSPropertyOp16
 70
     1
102
RTVSPropertyOp17
 70
     1
102
RTVSPropertyOp18
 70
     1
102
RTVSPropertyOp19
 70
     1
102
RTVSPropertyOp20
 70
     1
102
RTVSPropertyOp21
 70
     1
102
RTVSPropertyOp22
 70
     1
102
RTVSPropertyOp23
 70
     1
102
RTVSPropertyOp24
 70
     1
102
RTVSPropertyOp25
 70
     1
102
RTVSPropertyOp26
 70
     1
102
RTVSPropertyOp27
 70
     1
102
RTVSPropertyOp28
 70
     1
102
RTVSPropertyOp29
 70
     1
102
RTVSPropertyOp30
 70
     1
102
RTVSPropertyOp31
 70
     1
102
RTVSPropertyOp32
 70
     1
  0
XRECORD
  5
2BD
102
{ACAD_REACTORS
330
2BC
102
}
330
2BC
100
AcDbXrecord
280
     1
102
RTVSPropertyOp0
 70
     1
102
RTVSPropertyOp1
 70
     1
102
RTVSPropertyOp2
 70
     1
102
RTVSPropertyOp3
 70
     1
102
RTVSPropertyOp4
 70
     1
102
RTVSPropertyOp5
 70
     1
102
RTVSPropertyOp6
 70
     1
102
RTVSPropertyOp7
 70
     1
102
RTVSPropertyOp8
 70
     1
102
RTVSPropertyOp9
 70
     1
102
RTVSPropertyOp10
 70
     1
102
RTVSPropertyOp11
 70
     1
102
RTVSPropertyOp12
 70
     1
102
RTVSPropertyOp13
 70
     1
102
RTVSPropertyOp14
 70
     1
102
RTVSPropertyOp15
 70
     1
102
RTVSPropertyOp16
 70
     1
102
RTVSPropertyOp17
 70
     1
102
RTVSPropertyOp18
 70
     1
102
RTVSPropertyOp19
 70
     1
102
RTVSPropertyOp20
 70
     1
102
RTVSPropertyOp21
 70
     1
102
RTVSPropertyOp22
 70
     1
102
RTVSPropertyOp23
 70
     1
102
RTVSPropertyOp24
 70
     1
102
RTVSPropertyOp25
 70
     1
102
RTVSPropertyOp26
 70
     1
102
RTVSPropertyOp27
 70
     1
102
RTVSPropertyOp28
 70
     1
102
RTVSPropertyOp29
 70
     1
102
RTVSPropertyOp30
 70
     1
102
RTVSPropertyOp31
 70
     1
102
RTVSPropertyOp32
 70
     1
  0
XRECORD
  5
2BF
102
{ACAD_REACTORS
330
2BE
102
}
330
2BE
100
AcDbXrecord
280
     1
102
RTVSPropertyOp0
 70
     1
102
RTVSPropertyOp1
 70
     1
102
RTVSPropertyOp2
 70
     1
102
RTVSPropertyOp3
 70
     1
102
RTVSPropertyOp4
 70
     1
102
RTVSPropertyOp5
 70
     1
102
RTVSPropertyOp6
 70
     1
102
RTVSPropertyOp7
 70
     1
102
RTVSPropertyOp8
 70
     1
102
RTVSPropertyOp9
 70
     1
102
RTVSPropertyOp10
 70
     1
102
RTVSPropertyOp11
 70
     1
102
RTVSPropertyOp12
 70
     1
102
RTVSPropertyOp13
 70
     1
102
RTVSPropertyOp14
 70
     1
102
RTVSPropertyOp15
 70
     1
102
RTVSPropertyOp16
 70
     1
102
RTVSPropertyOp17
 70
     1
102
RTVSPropertyOp18
 70
     1
102
RTVSPropertyOp19
 70
     1
102
RTVSPropertyOp20
 70
     1
102
RTVSPropertyOp21
 70
     1
102
RTVSPropertyOp22
 70
     1
102
RTVSPropertyOp23
 70
     1
102
RTVSPropertyOp24
 70
     1
102
RTVSPropertyOp25
 70
     1
102
RTVSPropertyOp26
 70
     1
102
RTVSPropertyOp27
 70
     1
102
RTVSPropertyOp28
 70
     1
102
RTVSPropertyOp29
 70
     1
102
RTVSPropertyOp30
 70
     1
102
RTVSPropertyOp31
 70
     1
102
RTVSPropertyOp32
 70
     1
  0
XRECORD
  5
2C1
102
{ACAD_REACTORS
330
2C0
102
}
330
2C0
100
AcDbXrecord
280
     1
102
RTVSPropertyOp0
 70
     1
102
RTVSPropertyOp1
 70
     1
102
RTVSPropertyOp2
 70
     1
102
RTVSPropertyOp3
 70
     1
102
RTVSPropertyOp4
 70
     1
102
RTVSPropertyOp5
 70
     1
102
RTVSPropertyOp6
 70
     1
102
RTVSPropertyOp7
 70
     1
102
RTVSPropertyOp8
 70
     1
102
RTVSPropertyOp9
 70
     1
102
RTVSPropertyOp10
 70
     1
102
RTVSPropertyOp11
 70
     1
102
RTVSPropertyOp12
 70
     1
102
RTVSPropertyOp13
 70
     1
102
RTVSPropertyOp14
 70
     1
102
RTVSPropertyOp15
 70
     1
102
RTVSPropertyOp16
 70
     1
102
RTVSPropertyOp17
 70
     1
102
RTVSPropertyOp18
 70
     1
102
RTVSPropertyOp19
 70
     1
102
RTVSPropertyOp20
 70
     1
102
RTVSPropertyOp21
 70
     1
102
RTVSPropertyOp22
 70
     1
102
RTVSPropertyOp23
 70
     1
102
RTVSPropertyOp24
 70
     1
102
RTVSPropertyOp25
 70
     1
102
RTVSPropertyOp26
 70
     1
102
RTVSPropertyOp27
 70
     1
102
RTVSPropertyOp28
 70
     1
102
RTVSPropertyOp29
 70
     1
102
RTVSPropertyOp30
 70
     1
102
RTVSPropertyOp31
 70
     1
102
RTVSPropertyOp32
 70
     1
  0
XRECORD
  5
2C3
102
{ACAD_REACTORS
330
2C2
102
}
330
2C2
100
AcDbXrecord
280
     1
102
RTVSPropertyOp0
 70
     1
102
RTVSPropertyOp1
 70
     1
102
RTVSPropertyOp2
 70
     1
102
RTVSPropertyOp3
 70
     1
102
RTVSPropertyOp4
 70
     1
102
RTVSPropertyOp5
 70
     1
102
RTVSPropertyOp6
 70
     1
102
RTVSPropertyOp7
 70
     1
102
RTVSPropertyOp8
 70
     1
102
RTVSPropertyOp9
 70
     1
102
RTVSPropertyOp10
 70
     1
102
RTVSPropertyOp11
 70
     1
102
RTVSPropertyOp12
 70
     1
102
RTVSPropertyOp13
 70
     1
102
RTVSPropertyOp14
 70
     1
102
RTVSPropertyOp15
 70
     1
102
RTVSPropertyOp16
 70
     1
102
RTVSPropertyOp17
 70
     1
102
RTVSPropertyOp18
 70
     1
102
RTVSPropertyOp19
 70
     1
102
RTVSPropertyOp20
 70
     1
102
RTVSPropertyOp21
 70
     1
102
RTVSPropertyOp22
 70
     1
102
RTVSPropertyOp23
 70
     1
102
RTVSPropertyOp24
 70
     1
102
RTVSPropertyOp25
 70
     1
102
RTVSPropertyOp26
 70
     1
102
RTVSPropertyOp27
 70
     1
102
RTVSPropertyOp28
 70
     1
102
RTVSPropertyOp29
 70
     1
102
RTVSPropertyOp30
 70
     1
102
RTVSPropertyOp31
 70
     1
102
RTVSPropertyOp32
 70
     1
  0
XRECORD
  5
2D7
102
{ACAD_REACTORS
330
2D6
102
}
330
2D6
100
AcDbXrecord
280
     1
102
RTVSPropertyOp0
 70
     1
102
RTVSPropertyOp1
 70
     1
102
RTVSPropertyOp2
 70
     1
102
RTVSPropertyOp3
 70
     1
102
RTVSPropertyOp4
 70
     1
102
RTVSPropertyOp5
 70
     1
102
RTVSPropertyOp6
 70
     1
102
RTVSPropertyOp7
 70
     1
102
RTVSPropertyOp8
 70
     1
102
RTVSPropertyOp9
 70
     1
102
RTVSPropertyOp10
 70
     1
102
RTVSPropertyOp11
 70
     1
102
RTVSPropertyOp12
 70
     1
102
RTVSPropertyOp13
 70
     1
102
RTVSPropertyOp14
 70
     1
102
RTVSPropertyOp15
 70
     1
102
RTVSPropertyOp16
 70
     1
102
RTVSPropertyOp17
 70
     1
102
RTVSPropertyOp18
 70
     1
102
RTVSPropertyOp19
 70
     1
102
RTVSPropertyOp20
 70
     1
102
RTVSPropertyOp21
 70
     1
102
RTVSPropertyOp22
 70
     1
102
RTVSPropertyOp23
 70
     1
102
RTVSPropertyOp24
 70
     1
102
RTVSPropertyOp25
 70
     1
102
RTVSPropertyOp26
 70
     1
102
RTVSPropertyOp27
 70
     1
102
RTVSPropertyOp28
 70
     1
102
RTVSPropertyOp29
 70
     1
102
RTVSPropertyOp30
 70
     1
102
RTVSPropertyOp31
 70
     1
102
RTVSPropertyOp32
 70
     1
  0
XRECORD
  5
2CD
102
{ACAD_REACTORS
330
2CC
102
}
330
2CC
100
AcDbXrecord
280
     1
102
RTVSPropertyOp0
 70
     1
102
RTVSPropertyOp1
 70
     1
102
RTVSPropertyOp2
 70
     1
102
RTVSPropertyOp3
 70
     1
102
RTVSPropertyOp4
 70
     1
102
RTVSPropertyOp5
 70
     1
102
RTVSPropertyOp6
 70
     1
102
RTVSPropertyOp7
 70
     1
102
RTVSPropertyOp8
 70
     1
102
RTVSPropertyOp9
 70
     1
102
RTVSPropertyOp10
 70
     1
102
RTVSPropertyOp11
 70
     1
102
RTVSPropertyOp12
 70
     1
102
RTVSPropertyOp13
 70
     1
102
RTVSPropertyOp14
 70
     1
102
RTVSPropertyOp15
 70
     1
102
RTVSPropertyOp16
 70
     1
102
RTVSPropertyOp17
 70
     1
102
RTVSPropertyOp18
 70
     1
102
RTVSPropertyOp19
 70
     1
102
RTVSPropertyOp20
 70
     1
102
RTVSPropertyOp21
 70
     1
102
RTVSPropertyOp22
 70
     1
102
RTVSPropertyOp23
 70
     1
102
RTVSPropertyOp24
 70
     1
102
RTVSPropertyOp25
 70
     1
102
RTVSPropertyOp26
 70
     1
102
RTVSPropertyOp27
 70
     1
102
RTVSPropertyOp28
 70
     1
102
RTVSPropertyOp29
 70
     1
102
RTVSPropertyOp30
 70
     1
102
RTVSPropertyOp31
 70
     1
102
RTVSPropertyOp32
 70
     1
  0
XRECORD
  5
2D5
102
{ACAD_REACTORS
330
2D4
102
}
330
2D4
100
AcDbXrecord
280
     1
102
RTVSPropertyOp0
 70
     1
102
RTVSPropertyOp1
 70
     1
102
RTVSPropertyOp2
 70
     1
102
RTVSPropertyOp3
 70
     1
102
RTVSPropertyOp4
 70
     1
102
RTVSPropertyOp5
 70
     1
102
RTVSPropertyOp6
 70
     1
102
RTVSPropertyOp7
 70
     1
102
RTVSPropertyOp8
 70
     1
102
RTVSPropertyOp9
 70
     1
102
RTVSPropertyOp10
 70
     1
102
RTVSPropertyOp11
 70
     1
102
RTVSPropertyOp12
 70
     1
102
RTVSPropertyOp13
 70
     1
102
RTVSPropertyOp14
 70
     1
102
RTVSPropertyOp15
 70
     1
102
RTVSPropertyOp16
 70
     1
102
RTVSPropertyOp17
 70
     1
102
RTVSPropertyOp18
 70
     1
102
RTVSPropertyOp19
 70
     1
102
RTVSPropertyOp20
 70
     1
102
RTVSPropertyOp21
 70
     1
102
RTVSPropertyOp22
 70
     1
102
RTVSPropertyOp23
 70
     1
102
RTVSPropertyOp24
 70
     1
102
RTVSPropertyOp25
 70
     1
102
RTVSPropertyOp26
 70
     1
102
RTVSPropertyOp27
 70
     1
102
RTVSPropertyOp28
 70
     1
102
RTVSPropertyOp29
 70
     1
102
RTVSPropertyOp30
 70
     1
102
RTVSPropertyOp31
 70
     1
102
RTVSPropertyOp32
 70
     1
  0
ENDSEC
  0
EOF
