  0
SECTION
  2
HEADER
  9
$ACADVER
  1
AC1015
  9
$ACADMAINTVER
 70
     6
  9
$DWGCODEPAGE
  3
ANSI_949
  9
$INSBASE
 10
0.0
 20
0.0
 30
0.0
  9
$EXTMIN
 10
1.000000000000000E+20
 20
1.000000000000000E+20
 30
1.000000000000000E+20
  9
$EXTMAX
 10
-1.000000000000000E+20
 20
-1.000000000000000E+20
 30
-1.000000000000000E+20
  9
$LIMMIN
 10
0.0
 20
0.0
  9
$LIMMAX
 10
12.0
 20
9.0
  9
$ORTHOMODE
 70
     0
  9
$REGENMODE
 70
     1
  9
$FILLMODE
 70
     1
  9
$QTEXTMODE
 70
     0
  9
$MIRRTEXT
 70
     1
  9
$LTSCALE
 40
1.0
  9
$ATTMODE
 70
     1
  9
$TEXTSIZE
 40
0.2
  9
$TRACEWID
 40
0.05
  9
$TEXTSTYLE
  7
Standard
  9
$CLAYER
  8
0
  9
$CELTYPE
  6
ByLayer
  9
$CECOLOR
 62
   256
  9
$CELTSCALE
 40
1.0
  9
$DISPSILH
 70
     0
  9
$DIMSCALE
 40
1.0
  9
$DIMASZ
 40
0.18
  9
$DIMEXO
 40
0.0625
  9
$DIMDLI
 40
0.38
  9
$DIMRND
 40
0.0
  9
$DIMDLE
 40
0.0
  9
$DIMEXE
 40
0.18
  9
$DIMTP
 40
0.0
  9
$DIMTM
 40
0.0
  9
$DIMTXT
 40
0.18
  9
$DIMCEN
 40
0.09
  9
$DIMTSZ
 40
0.0
  9
$DIMTOL
 70
     0
  9
$DIMLIM
 70
     0
  9
$DIMTIH
 70
     1
  9
$DIMTOH
 70
     1
  9
$DIMSE1
 70
     0
  9
$DIMSE2
 70
     0
  9
$DIMTAD
 70
     0
  9
$DIMZIN
 70
     0
  9
$DIMBLK
  1

  9
$DIMASO
 70
     1
  9
$DIMSHO
 70
     1
  9
$DIMPOST
  1

  9
$DIMAPOST
  1

  9
$DIMALT
 70
     0
  9
$DIMALTD
 70
     2
  9
$DIMALTF
 40
25.4
  9
$DIMLFAC
 40
1.0
  9
$DIMTOFL
 70
     0
  9
$DIMTVP
 40
0.0
  9
$DIMTIX
 70
     0
  9
$DIMSOXD
 70
     0
  9
$DIMSAH
 70
     0
  9
$DIMBLK1
  1

  9
$DIMBLK2
  1

  9
$DIMSTYLE
  2
Standard
  9
$DIMCLRD
 70
     0
  9
$DIMCLRE
 70
     0
  9
$DIMCLRT
 70
     0
  9
$DIMTFAC
 40
1.0
  9
$DIMGAP
 40
0.09
  9
$DIMJUST
 70
     0
  9
$DIMSD1
 70
     0
  9
$DIMSD2
 70
     0
  9
$DIMTOLJ
 70
     1
  9
$DIMTZIN
 70
     0
  9
$DIMALTZ
 70
     0
  9
$DIMALTTZ
 70
     0
  9
$DIMUPT
 70
     0
  9
$DIMDEC
 70
     4
  9
$DIMTDEC
 70
     4
  9
$DIMALTU
 70
     2
  9
$DIMALTTD
 70
     2
  9
$DIMTXSTY
  7
Standard
  9
$DIMAUNIT
 70
     0
  9
$DIMADEC
 70
     0
  9
$DIMALTRND
 40
0.0
  9
$DIMAZIN
 70
     0
  9
$DIMDSEP
 70
    46
  9
$DIMATFIT
 70
     3
  9
$DIMFRAC
 70
     0
  9
$DIMLDRBLK
  1

  9
$DIMLUNIT
 70
     2
  9
$DIMLWD
 70
    -2
  9
$DIMLWE
 70
    -2
  9
$DIMTMOVE
 70
     0
  9
$LUNITS
 70
     2
  9
$LUPREC
 70
     4
  9
$SKETCHINC
 40
0.1
  9
$FILLETRAD
 40
0.5
  9
$AUNITS
 70
     0
  9
$AUPREC
 70
     0
  9
$MENU
  1
.
  9
$ELEVATION
 40
0.0
  9
$PELEVATION
 40
0.0
  9
$THICKNESS
 40
0.0
  9
$LIMCHECK
 70
     0
  9
$CHAMFERA
 40
0.5
  9
$CHAMFERB
 40
0.5
  9
$CHAMFERC
 40
1.0
  9
$CHAMFERD
 40
0.0
  9
$SKPOLY
 70
     0
  9
$TDCREATE
 40
2456522.534895475
  9
$TDUCREATE
 40
2456522.034895475
  9
$TDUPDATE
 40
2456522.534928947
  9
$TDUUPDATE
 40
2456522.034928947
  9
$TDINDWG
 40
0.0000000116
  9
$TDUSRTIMER
 40
0.0000000116
  9
$USRTIMER
 70
     1
  9
$ANGBASE
 50
0.0
  9
$ANGDIR
 70
     0
  9
$PDMODE
 70
     0
  9
$PDSIZE
 40
0.0
  9
$PLINEWID
 40
0.0
  9
$SPLFRAME
 70
     0
  9
$SPLINETYPE
 70
     6
  9
$SPLINESEGS
 70
     8
  9
$HANDSEED
  5
51F
  9
$SURFTAB1
 70
     6
  9
$SURFTAB2
 70
     6
  9
$SURFTYPE
 70
     6
  9
$SURFU
 70
     6
  9
$SURFV
 70
     6
  9
$UCSBASE
  2

  9
$UCSNAME
  2

  9
$UCSORG
 10
0.0
 20
0.0
 30
0.0
  9
$UCSXDIR
 10
1.0
 20
0.0
 30
0.0
  9
$UCSYDIR
 10
0.0
 20
1.0
 30
0.0
  9
$UCSORTHOREF
  2

  9
$UCSORTHOVIEW
 70
     0
  9
$UCSORGTOP
 10
0.0
 20
0.0
 30
0.0
  9
$UCSORGBOTTOM
 10
0.0
 20
0.0
 30
0.0
  9
$UCSORGLEFT
 10
0.0
 20
0.0
 30
0.0
  9
$UCSORGRIGHT
 10
0.0
 20
0.0
 30
0.0
  9
$UCSORGFRONT
 10
0.0
 20
0.0
 30
0.0
  9
$UCSORGBACK
 10
0.0
 20
0.0
 30
0.0
  9
$PUCSBASE
  2

  9
$PUCSNAME
  2

  9
$PUCSORG
 10
0.0
 20
0.0
 30
0.0
  9
$PUCSXDIR
 10
1.0
 20
0.0
 30
0.0
  9
$PUCSYDIR
 10
0.0
 20
1.0
 30
0.0
  9
$PUCSORTHOREF
  2

  9
$PUCSORTHOVIEW
 70
     0
  9
$PUCSORGTOP
 10
0.0
 20
0.0
 30
0.0
  9
$PUCSORGBOTTOM
 10
0.0
 20
0.0
 30
0.0
  9
$PUCSORGLEFT
 10
0.0
 20
0.0
 30
0.0
  9
$PUCSORGRIGHT
 10
0.0
 20
0.0
 30
0.0
  9
$PUCSORGFRONT
 10
0.0
 20
0.0
 30
0.0
  9
$PUCSORGBACK
 10
0.0
 20
0.0
 30
0.0
  9
$USERI1
 70
     0
  9
$USERI2
 70
     0
  9
$USERI3
 70
     0
  9
$USERI4
 70
     0
  9
$USERI5
 70
     0
  9
$USERR1
 40
0.0
  9
$USERR2
 40
0.0
  9
$USERR3
 40
0.0
  9
$USERR4
 40
0.0
  9
$USERR5
 40
0.0
  9
$WORLDVIEW
 70
     1
  9
$SHADEDGE
 70
     3
  9
$SHADEDIF
 70
    70
  9
$TILEMODE
 70
     1
  9
$MAXACTVP
 70
    64
  9
$PINSBASE
 10
0.0
 20
0.0
 30
0.0
  9
$PLIMCHECK
 70
     0
  9
$PEXTMIN
 10
1.000000000000000E+20
 20
1.000000000000000E+20
 30
1.000000000000000E+20
  9
$PEXTMAX
 10
-1.000000000000000E+20
 20
-1.000000000000000E+20
 30
-1.000000000000000E+20
  9
$PLIMMIN
 10
0.0
 20
0.0
  9
$PLIMMAX
 10
12.0
 20
9.0
  9
$UNITMODE
 70
     0
  9
$VISRETAIN
 70
     1
  9
$PLINEGEN
 70
     0
  9
$PSLTSCALE
 70
     1
  9
$TREEDEPTH
 70
  3020
  9
$CMLSTYLE
  2
Standard
  9
$CMLJUST
 70
     0
  9
$CMLSCALE
 40
1.0
  9
$PROXYGRAPHICS
 70
     1
  9
$MEASUREMENT
 70
     0
  9
$CELWEIGHT
370
    -1
  9
$ENDCAPS
280
     0
  9
$JOINSTYLE
280
     0
  9
$LWDISPLAY
290
     1
  9
$INSUNITS
 70
     4
  9
$HYPERLINKBASE
  1

  9
$STYLESHEET
  1

  9
$XEDIT
290
     1
  9
$CEPSNTYPE
380
     0
  9
$PSTYLEMODE
290
     1
  9
$FINGERPRINTGUID
  2
{3F634452-8C25-487B-AE56-C1BBEEDB4AB1}
  9
$VERSIONGUID
  2
{FAEB1C32-E019-11D5-929B-00C0DF256EC4}
  9
$EXTNAMES
290
     1
  9
$PSVPSCALE
 40
0.0
  9
$OLESTARTUP
290
     0
  0
ENDSEC
  0
SECTION
  2
CLASSES
  0
CLASS
  1
ACDBDICTIONARYWDFLT
  2
AcDbDictionaryWithDefault
  3
ObjectDBX Classes
 90
        0
280
     0
281
     0
  0
CLASS
  1
VISUALSTYLE
  2
AcDbVisualStyle
  3
ObjectDBX Classes
 90
     4095
280
     0
281
     0
  0
CLASS
  1
MATERIAL
  2
AcDbMaterial
  3
ObjectDBX Classes
 90
     1153
280
     0
281
     0
  0
CLASS
  1
SPATIAL_FILTER
  2
AcDbSpatialFilter
  3
ObjectDBX Classes
 90
        0
280
     0
281
     0
  0
CLASS
  1
SCALE
  2
AcDbScale
  3
ObjectDBX Classes
 90
     1153
280
     0
281
     0
  0
CLASS
  1
DICTIONARYVAR
  2
AcDbDictionaryVar
  3
ObjectDBX Classes
 90
        0
280
     0
281
     0
  0
CLASS
  1
ACDBPLACEHOLDER
  2
AcDbPlaceHolder
  3
ObjectDBX Classes
 90
        0
280
     0
281
     0
  0
CLASS
  1
LAYOUT
  2
AcDbLayout
  3
ObjectDBX Classes
 90
        0
280
     0
281
     0
  0
ENDSEC
  0
SECTION
  2
TABLES
  0
TABLE
  2
VPORT
  5
8
330
0
100
AcDbSymbolTable
 70
     1
  0
VPORT
  5
29
330
8
100
AcDbSymbolTableRecord
100
AcDbViewportTableRecord
  2
*Active
 70
     0
 10
0.0
 20
0.0
 11
1.0
 21
1.0
 12
148.6203422501967
 22
97.01054600287482
 13
0.0
 23
0.0
 14
0.5
 24
0.5
 15
0.5
 25
0.5
 16
0.0
 26
0.0
 36
1.0
 17
0.0
 27
0.0
 37
0.0
 40
193.7666017324761
 41
1.490997388632183
 42
50.0
 43
0.0
 44
0.0
 50
0.0
 51
0.0
 71
     0
 72
   100
 73
     1
 74
     3
 75
     0
 76
     0
 77
     0
 78
     0
281
     0
 65
     1
110
0.0
120
0.0
130
0.0
111
1.0
121
0.0
131
0.0
112
0.0
122
1.0
132
0.0
 79
     0
146
0.0
  0
ENDTAB
  0
TABLE
  2
LTYPE
  5
5
330
0
100
AcDbSymbolTable
 70
     2
  0
LTYPE
  5
14
330
5
100
AcDbSymbolTableRecord
100
AcDbLinetypeTableRecord
  2
ByBlock
 70
     0
  3

 72
    65
 73
     0
 40
0.0
  0
LTYPE
  5
15
330
5
100
AcDbSymbolTableRecord
100
AcDbLinetypeTableRecord
  2
ByLayer
 70
     0
  3

 72
    65
 73
     0
 40
0.0
  0
LTYPE
  5
16
330
5
100
AcDbSymbolTableRecord
100
AcDbLinetypeTableRecord
  2
Continuous
 70
     0
  3
Solid line
 72
    65
 73
     0
 40
0.0
  0
LTYPE
  5
11E
330
5
100
AcDbSymbolTableRecord
100
AcDbLinetypeTableRecord
  2
Dashed
 70
     0
  3
- - - - - 
 72
    65
 73
     2
 40
5.644444465637207
 49
2.822222232818604
 74
     0
 49
-2.822222232818603
 74
     0
  0
ENDTAB
  0
TABLE
  2
LAYER
  5
2
330
0
100
AcDbSymbolTable
 70
     3
  0
LAYER
  5
10
330
2
100
AcDbSymbolTableRecord
100
AcDbLayerTableRecord
  2
0
 70
     0
 62
     7
  6
Continuous
370
    -3
390
F
  0
LAYER
  5
40
330
2
100
AcDbSymbolTableRecord
100
AcDbLayerTableRecord
  2
Doc_ Finishes
 70
     0
 62
     7
  6
Continuous
370
    -3
390
F
  0
LAYER
  5
DB
330
2
100
AcDbSymbolTableRecord
100
AcDbLayerTableRecord
  2
Doc_ Floor
 70
     0
 62
     7
  6
Continuous
370
    -3
390
F
  0
ENDTAB
  0
TABLE
  2
STYLE
  5
3
330
0
100
AcDbSymbolTable
 70
     4
  0
STYLE
  5
11
330
3
100
AcDbSymbolTableRecord
100
AcDbTextStyleTableRecord
  2
Standard
 70
     0
 40
0.0
 41
1.0
 50
0.0
 71
     0
 42
0.2
  3
txt
  4

  0
STYLE
  5
D6
330
3
100
AcDbSymbolTableRecord
100
AcDbTextStyleTableRecord
  2
GENERATED_STYLE_1
 70
     0
 40
0.0
 41
1.0
 50
0.0
 71
     0
 42
0.2
  3

  4

1001
ACAD
1000
Century Gothic
1071
       34
  0
STYLE
  5
D9
330
3
100
AcDbSymbolTableRecord
100
AcDbTextStyleTableRecord
  2
GENERATED_STYLE_2
 70
     0
 40
0.0
 41
1.0
 50
0.0
 71
     0
 42
0.2
  3

  4

1001
ACAD
1000
DilleniaUPC
1071
 33554450
  0
STYLE
  5
142
330
3
100
AcDbSymbolTableRecord
100
AcDbTextStyleTableRecord
  2
GENERATED_STYLE_3
 70
     0
 40
0.0
 41
1.0
 50
0.0
 71
     0
 42
0.2
  3

  4

1001
ACAD
1000
Arial
1071
       34
  0
ENDTAB
  0
TABLE
  2
VIEW
  5
6
330
0
100
AcDbSymbolTable
 70
     0
  0
ENDTAB
  0
TABLE
  2
UCS
  5
7
330
0
100
AcDbSymbolTable
 70
     0
  0
ENDTAB
  0
TABLE
  2
APPID
  5
9
330
0
100
AcDbSymbolTable
 70
     1
  0
APPID
  5
12
330
9
100
AcDbSymbolTableRecord
100
AcDbRegAppTableRecord
  2
ACAD
 70
     0
  0
ENDTAB
  0
TABLE
  2
DIMSTYLE
  5
A
330
0
100
AcDbSymbolTable
 70
     1
100
AcDbDimStyleTable
  0
DIMSTYLE
105
27
330
A
100
AcDbSymbolTableRecord
100
AcDbDimStyleTableRecord
  2
Standard
 70
     0
178
     0
340
11
  0
ENDTAB
  0
TABLE
  2
BLOCK_RECORD
  5
1
330
0
100
AcDbSymbolTable
 70
     3
  0
BLOCK_RECORD
  5
1F
330
1
100
AcDbSymbolTableRecord
100
AcDbBlockTableRecord
  2
*Model_Space
340
22
  0
BLOCK_RECORD
  5
1B
330
1
100
AcDbSymbolTableRecord
100
AcDbBlockTableRecord
  2
*Paper_Space
340
1E
  0
BLOCK_RECORD
  5
E3
330
1
100
AcDbSymbolTableRecord
100
AcDbBlockTableRecord
  2
Drawing_1_2
340
0
102
{BLKREFS
331
4C5
102
}
  0
BLOCK_RECORD
  5
4C9
330
1
100
AcDbSymbolTableRecord
100
AcDbBlockTableRecord
  2
R-TRSC-06 BARGE DETAIL - HEAD_STORY_MARKER
340
0
  0
ENDTAB
  0
ENDSEC
  0
SECTION
  2
BLOCKS
  0
BLOCK
  5
20
330
1F
100
AcDbEntity
  8
0
100
AcDbBlockBegin
  2
*Model_Space
 70
     0
 10
0.0
 20
0.0
 30
0.0
  3
*Model_Space
  1

  0
ENDBLK
  5
21
330
1F
100
AcDbEntity
  8
0
100
AcDbBlockEnd
  0
BLOCK
  5
1C
330
1B
100
AcDbEntity
 67
     1
  8
0
100
AcDbBlockBegin
  2
*Paper_Space
 70
     0
 10
0.0
 20
0.0
 30
0.0
  3
*Paper_Space
  1

  0
ENDBLK
  5
1D
330
1B
100
AcDbEntity
 67
     1
  8
0
100
AcDbBlockEnd
  0
BLOCK
  5
E4
330
E3
100
AcDbEntity
  8
0
100
AcDbBlockBegin
  2
Drawing_1_2
 70
     0
 10
107.2260115974659
 20
-35.16744529250214
 30
0.0
  3
Drawing_1_2
  1

  0
HATCH
  5
E6
330
E3
100
AcDbEntity
  8
0
  6
Continuous
 62
   255
370
     0
100
AcDbHatch
 10
0.0
 20
0.0
 30
0.0
210
0.0
220
0.0
230
1.0
  2
SOLID
 70
     1
 71
     0
 91
        1
 92
        3
 72
     0
 73
     1
 93
        4
 10
139.5725703313196
 20
32.4027868319835
 10
268.2951204155992
 20
32.4027868319835
 10
268.2951204155992
 20
105.2866077618993
 10
139.5725703313196
 20
127.9838673464639
 97
        0
 75
     0
 76
     1
 98
        0
  0
HATCH
  5
E7
330
E3
100
AcDbEntity
  8
0
  6
Continuous
 62
   255
370
     0
100
AcDbHatch
 10
0.0
 20
0.0
 30
0.0
210
0.0
220
0.0
230
1.0
  2
SOLID
 70
     1
 71
     0
 91
        1
 92
        3
 72
     0
 73
     1
 93
        4
 10
139.5725642695223
 20
127.9838682952208
 10
268.2951251912679
 20
105.2866110479837
 10
268.2951251912679
 20
123.564288958505
 10
139.5725642695223
 20
146.2615462057422
 97
        0
 75
     0
 76
     1
 98
        0
  0
LINE
  5
E8
330
E3
100
AcDbEntity
  8
0
  6
Continuous
100
AcDbLine
 10
139.5725642695223
 20
146.2615473091642
 30
0.0
 11
268.2951251912679
 21
123.5642900619271
 31
0.0
  0
LINE
  5
E9
330
E3
100
AcDbEntity
  8
0
  6
Continuous
100
AcDbLine
 10
139.572569603554
 20
127.9838711399741
 30
0.0
 11
139.572569603554
 21
146.2615502536416
 31
0.0
  0
LINE
  5
EA
330
E3
100
AcDbEntity
  8
0
  6
Continuous
100
AcDbLine
 10
268.2951204155992
 20
105.2866077618993
 30
0.0
 11
139.5725703313196
 21
127.9838673464639
 31
0.0
  0
HATCH
  5
EB
330
E3
100
AcDbEntity
  8
0
  6
Continuous
 62
   255
370
     0
100
AcDbHatch
 10
0.0
 20
0.0
 30
0.0
210
0.0
220
0.0
230
1.0
  2
SOLID
 70
     1
 71
     0
 91
        1
 92
        3
 72
     0
 73
     1
 93
        4
 10
268.2951204155992
 20
40.18768148619853
 10
139.5725703313196
 20
40.18768148619853
 10
139.5725703313196
 20
32.4027868319835
 10
268.2951204155992
 20
32.4027868319835
 97
        0
 75
     0
 76
     1
 98
        0
  0
LINE
  5
EC
330
E3
100
AcDbEntity
  8
0
  6
Continuous
100
AcDbLine
 10
139.5725662413803
 20
40.18768275541628
 30
0.0
 11
268.2951239349237
 21
40.18768275541628
 31
0.0
  0
LINE
  5
ED
330
E3
100
AcDbEntity
  8
0
  6
Continuous
100
AcDbLine
 10
139.572569603554
 20
32.40279198529486
 30
0.0
 11
139.572569603554
 21
40.18768229263806
 31
0.0
  0
HATCH
  5
EE
330
E3
100
AcDbEntity
  8
0
  6
Continuous
 62
   255
370
     0
100
AcDbHatch
 10
0.0
 20
0.0
 30
0.0
210
0.0
220
0.0
230
1.0
  2
SOLID
 70
     1
 71
     0
 91
        1
 92
        3
 72
     0
 73
     1
 93
        4
 10
149.572568411742
 20
40.18768281630238
 10
149.572568411742
 20
126.2206014342968
 10
139.572568411742
 20
127.9838712413814
 10
139.572568411742
 20
40.18768281630238
 97
        0
 75
     0
 76
     1
 98
        0
  0
LINE
  5
EF
330
E3
100
AcDbEntity
  8
0
  6
Continuous
100
AcDbLine
 10
149.5725681187243
 20
126.2205998912586
 30
0.0
 11
149.5725681187243
 21
40.18768165454389
 31
0.0
  0
LINE
  5
F0
330
E3
100
AcDbEntity
  8
0
  6
Continuous
100
AcDbLine
 10
139.572569603554
 20
127.9838711399741
 30
0.0
 11
149.5725681187243
 21
126.2205998912586
 31
0.0
  0
LINE
  5
F1
330
E3
100
AcDbEntity
  8
0
  6
Continuous
100
AcDbLine
 10
139.572569603554
 20
40.18768165454389
 30
0.0
 11
139.572569603554
 21
127.9838711399741
 31
0.0
  0
LINE
  5
F2
330
E3
100
AcDbEntity
  8
0
  6
Continuous
100
AcDbLine
 10
149.5725681187243
 20
40.18768165454389
 30
0.0
 11
139.572569603554
 21
40.18768165454389
 31
0.0
  0
HATCH
  5
F3
330
E3
100
AcDbEntity
  8
0
  6
Continuous
 62
   255
370
     0
100
AcDbHatch
 10
0.0
 20
0.0
 30
0.0
210
0.0
220
0.0
230
1.0
  2
SOLID
 70
     1
 71
     0
 91
        1
 92
        3
 72
     0
 73
     1
 93
        5
 10
149.5725673034869
 20
40.1876810653721
 10
163.416589144229
 20
40.1876810653721
 10
268.2951211393186
 20
80.80814944083514
 10
268.2951211393186
 20
91.53199399575237
 10
149.5725673034869
 20
45.54960538638562
 97
        0
 75
     0
 76
     1
 98
        0
  0
LINE
  5
F4
330
E3
100
AcDbEntity
  8
0
  6
Continuous
100
AcDbLine
 10
268.2951211393186
 20
80.80814944083514
 30
0.0
 11
163.416589144229
 21
40.1876810653721
 31
0.0
  0
LINE
  5
F5
330
E3
100
AcDbEntity
  8
0
  6
Continuous
100
AcDbLine
 10
149.5725684897948
 20
45.54960536250537
 30
0.0
 11
268.2951213141043
 21
91.53200008395777
 31
0.0
  0
LINE
  5
F6
330
E3
100
AcDbEntity
  8
0
  6
Continuous
100
AcDbLine
 10
149.5725681187243
 20
40.18768165454389
 30
0.0
 11
149.5725681187243
 21
45.54960607359671
 31
0.0
  0
LINE
  5
F7
330
E3
100
AcDbEntity
  8
0
  6
Continuous
100
AcDbLine
 10
163.4165887883929
 20
40.18768165454389
 30
0.0
 11
149.5725681187243
 21
40.18768165454389
 31
0.0
  0
HATCH
  5
F8
330
E3
100
AcDbEntity
  8
0
  6
Continuous
 62
   253
370
    25
100
AcDbHatch
 10
0.0
 20
0.0
 30
0.0
210
0.0
220
0.0
230
1.0
  2
SOLID
 70
     1
 71
     0
 91
        1
 92
        3
 72
     0
 73
     1
 93
        4
 10
132.7797202068282
 20
158.6985152161107
 10
237.7892622935412
 20
140.182499714382
 10
238.4143957331422
 20
143.727807625226
 10
133.4048536464291
 20
162.2438231269546
 97
        0
 75
     0
 76
     1
 98
        0
  0
LINE
  5
F9
330
E3
100
AcDbEntity
  8
0
  6
Continuous
100
AcDbLine
 10
132.7797212928099
 20
158.6985155819714
 30
0.0
 11
237.7892617183556
 21
140.182498391157
 31
0.0
  0
LINE
  5
FA
330
E3
100
AcDbEntity
  8
0
  6
Continuous
100
AcDbLine
 10
237.7892617183556
 20
140.182498391157
 30
0.0
 11
238.4143963875896
 21
143.7278090764403
 31
0.0
  0
LINE
  5
FB
330
E3
100
AcDbEntity
  8
0
  6
Continuous
100
AcDbLine
 10
238.4143963875896
 20
143.7278090764403
 30
0.0
 11
133.4048523803287
 21
162.2438226855394
 31
0.0
  0
LINE
  5
FC
330
E3
100
AcDbEntity
  8
0
  6
Continuous
100
AcDbLine
 10
133.4048523803287
 20
162.2438226855394
 30
0.0
 11
132.7797212928099
 21
158.6985155819714
 31
0.0
  0
HATCH
  5
FD
330
E3
100
AcDbEntity
  8
0
  6
Continuous
 62
   255
370
     0
100
AcDbHatch
 10
0.0
 20
0.0
 30
0.0
210
0.0
220
0.0
230
1.0
  2
SOLID
 70
     1
 71
     0
 91
        1
 92
        3
 72
     0
 73
     1
 93
        4
 10
142.7663338758
 20
154.8372427409282
 10
141.2035002767976
 20
145.9739729638183
 10
154.9908088189685
 20
143.5428984764813
 10
156.5536424179709
 20
152.4061682535911
 97
        0
 75
     0
 76
     1
 98
        0
  0
LINE
  5
FE
330
E3
100
AcDbEntity
  8
0
  6
Continuous
100
AcDbLine
 10
141.2035000559048
 20
145.9739743371046
 30
0.0
 11
156.5536427287069
 21
152.4061689952908
 31
0.0
  0
LINE
  5
FF
330
E3
100
AcDbEntity
  8
0
  6
Continuous
100
AcDbLine
 10
142.7663349381322
 20
154.8372438868822
 30
0.0
 11
154.9908078464794
 21
143.5428994455131
 31
0.0
  0
LINE
  5
100
330
E3
100
AcDbEntity
  8
0
  6
Continuous
100
AcDbLine
 10
142.7663349381322
 20
154.8372438868822
 30
0.0
 11
141.2035000559048
 21
145.9739743371046
 31
0.0
  0
LINE
  5
101
330
E3
100
AcDbEntity
  8
0
  6
Continuous
100
AcDbLine
 10
141.2035000559048
 20
145.9739743371046
 30
0.0
 11
154.9908078464794
 21
143.5428994455131
 31
0.0
  0
LINE
  5
102
330
E3
100
AcDbEntity
  8
0
  6
Continuous
100
AcDbLine
 10
154.9908078464794
 20
143.5428994455131
 30
0.0
 11
156.5536427287069
 21
152.4061689952908
 31
0.0
  0
LINE
  5
103
330
E3
100
AcDbEntity
  8
0
  6
Continuous
100
AcDbLine
 10
156.5536427287069
 20
152.4061689952908
 30
0.0
 11
142.7663349381322
 21
154.8372438868822
 31
0.0
  0
HATCH
  5
104
330
E3
100
AcDbEntity
  8
0
  6
Continuous
 62
   255
370
     0
100
AcDbHatch
 10
0.0
 20
0.0
 30
0.0
210
0.0
220
0.0
230
1.0
  2
SOLID
 70
     1
 71
     0
 91
        1
 92
        3
 72
     0
 73
     1
 93
       12
 10
131.3943280739767
 20
132.5773569609295
 10
131.3943280739767
 20
134.5773569609295
 10
129.7943280739767
 20
134.5773569609295
 10
129.7943280739767
 20
135.5773569609295
 10
131.3943280739767
 20
135.5773569609295
 10
131.3943280739767
 20
159.5773569609296
 10
129.7943280739767
 20
159.5773569609296
 10
129.7943280739767
 20
160.5773569609296
 10
131.3943280739767
 20
160.5773569609296
 10
131.3943280739767
 20
162.5773569609296
 10
127.3943280739767
 20
162.5773569609296
 10
127.3943280739767
 20
132.5773569609295
 97
        0
 75
     0
 76
     1
 98
        0
  0
HATCH
  5
105
330
E3
100
AcDbEntity
  8
0
  6
Continuous
100
AcDbHatch
 10
0.0
 20
0.0
 30
0.0
210
0.0
220
0.0
230
1.0
  2
Wood_0002
 70
     0
 71
     0
 91
        1
 92
        3
 72
     0
 73
     1
 93
       12
 10
131.3943280739767
 20
132.5773569609295
 10
131.3943280739767
 20
134.5773569609295
 10
129.7943280739767
 20
134.5773569609295
 10
129.7943280739767
 20
135.5773569609295
 10
131.3943280739767
 20
135.5773569609295
 10
131.3943280739767
 20
159.5773569609296
 10
129.7943280739767
 20
159.5773569609296
 10
129.7943280739767
 20
160.5773569609296
 10
131.3943280739767
 20
160.5773569609296
 10
131.3943280739767
 20
162.5773569609296
 10
127.3943280739767
 20
162.5773569609296
 10
127.3943280739767
 20
132.5773569609295
 97
        0
 75
     0
 76
     2
 52
0.0
 41
1.0
 77
     0
 78
     1
 53
9.999999999999996
 43
107.2260115974659
 44
-35.16744529250214
 45
-0.1562833557601421
 46
0.8863269542313407
 79
     0
 98
        0
  0
LINE
  5
106
330
E3
100
AcDbEntity
  8
0
  6
Continuous
100
AcDbLine
 10
131.3943281652364
 20
132.5773564630817
 30
0.0
 11
131.3943281652364
 21
134.5773575988018
 31
0.0
  0
LINE
  5
107
330
E3
100
AcDbEntity
  8
0
  6
Continuous
100
AcDbLine
 10
131.3943281652364
 20
134.5773575988018
 30
0.0
 11
129.7943294056894
 21
134.5773575988018
 31
0.0
  0
LINE
  5
108
330
E3
100
AcDbEntity
  8
0
  6
Continuous
100
AcDbLine
 10
129.7943294056894
 20
134.5773575988018
 30
0.0
 11
129.7943294056894
 21
135.5773581666619
 31
0.0
  0
LINE
  5
109
330
E3
100
AcDbEntity
  8
0
  6
Continuous
100
AcDbLine
 10
129.7943294056894
 20
135.5773581666619
 30
0.0
 11
131.3943281652364
 21
135.5773581666619
 31
0.0
  0
LINE
  5
10A
330
E3
100
AcDbEntity
  8
0
  6
Continuous
100
AcDbLine
 10
131.3943281652364
 20
135.5773581666619
 30
0.0
 11
131.3943281652364
 21
159.5773574684428
 31
0.0
  0
LINE
  5
10B
330
E3
100
AcDbEntity
  8
0
  6
Continuous
100
AcDbLine
 10
131.3943281652364
 20
159.5773574684428
 30
0.0
 11
129.7943294056894
 21
159.5773574684428
 31
0.0
  0
LINE
  5
10C
330
E3
100
AcDbEntity
  8
0
  6
Continuous
100
AcDbLine
 10
129.7943294056894
 20
159.5773574684428
 30
0.0
 11
129.7943294056894
 21
160.5773580363029
 31
0.0
  0
LINE
  5
10D
330
E3
100
AcDbEntity
  8
0
  6
Continuous
100
AcDbLine
 10
129.7943294056894
 20
160.5773580363029
 30
0.0
 11
131.3943281652364
 21
160.5773580363029
 31
0.0
  0
LINE
  5
10E
330
E3
100
AcDbEntity
  8
0
  6
Continuous
100
AcDbLine
 10
131.3943281652364
 20
160.5773580363029
 30
0.0
 11
131.3943281652364
 21
162.5773555903078
 31
0.0
  0
LINE
  5
10F
330
E3
100
AcDbEntity
  8
0
  6
Continuous
100
AcDbLine
 10
131.3943281652364
 20
162.5773555903078
 30
0.0
 11
127.3943294755114
 21
162.5773555903078
 31
0.0
  0
LINE
  5
110
330
E3
100
AcDbEntity
  8
0
  6
Continuous
100
AcDbLine
 10
127.3943294755114
 20
162.5773555903078
 30
0.0
 11
127.3943294755114
 21
132.5773564630817
 31
0.0
  0
LINE
  5
111
330
E3
100
AcDbEntity
  8
0
  6
Continuous
100
AcDbLine
 10
127.3943294755114
 20
132.5773564630817
 30
0.0
 11
131.3943281652364
 21
132.5773564630817
 31
0.0
  0
HATCH
  5
112
330
E3
100
AcDbEntity
  8
0
  6
Continuous
 62
   255
370
     0
100
AcDbHatch
 10
0.0
 20
0.0
 30
0.0
210
0.0
220
0.0
230
1.0
  2
SOLID
 70
     1
 71
     0
 91
        1
 92
        3
 72
     0
 73
     1
 93
        4
 10
134.2636554386134
 20
132.5087844611539
 10
138.2636554386133
 20
132.5087844611539
 10
138.2636554386133
 20
141.5087844611539
 10
134.2636554386133
 20
141.5087844611539
 97
        0
 75
     0
 76
     1
 98
        0
  0
LINE
  5
113
330
E3
100
AcDbEntity
  8
0
  6
Continuous
100
AcDbLine
 10
134.263654570038
 20
132.5087845248316
 30
0.0
 11
138.2636568414783
 21
141.508786053857
 31
0.0
  0
LINE
  5
114
330
E3
100
AcDbEntity
  8
0
  6
Continuous
100
AcDbLine
 10
134.263654570038
 20
132.5087845248316
 30
0.0
 11
138.2636568414783
 21
132.5087845248316
 31
0.0
  0
LINE
  5
115
330
E3
100
AcDbEntity
  8
0
  6
Continuous
100
AcDbLine
 10
138.2636568414783
 20
132.5087845248316
 30
0.0
 11
138.2636568414783
 21
141.508786053857
 31
0.0
  0
LINE
  5
116
330
E3
100
AcDbEntity
  8
0
  6
Continuous
100
AcDbLine
 10
138.2636568414783
 20
141.508786053857
 30
0.0
 11
134.263654570038
 21
141.508786053857
 31
0.0
  0
LINE
  5
117
330
E3
100
AcDbEntity
  8
0
  6
Continuous
100
AcDbLine
 10
134.263654570038
 20
141.508786053857
 30
0.0
 11
134.263654570038
 21
132.5087845248316
 31
0.0
  0
HATCH
  5
118
330
E3
100
AcDbEntity
  8
0
  6
Continuous
 62
   255
370
     0
100
AcDbHatch
 10
0.0
 20
0.0
 30
0.0
210
0.0
220
0.0
230
1.0
  2
SOLID
 70
     1
 71
     0
 91
        1
 92
        3
 72
     0
 73
     1
 93
        4
 10
132.4636554386134
 20
156.9195308765072
 10
132.4636554386134
 20
60.04973053735953
 10
134.2636554386134
 20
60.04973053735953
 10
134.2636554386134
 20
156.9195308765072
 97
        0
 75
     0
 76
     1
 98
        0
  0
HATCH
  5
119
330
E3
100
AcDbEntity
  8
0
  6
Continuous
100
AcDbHatch
 10
0.0
 20
0.0
 30
0.0
210
0.0
220
0.0
230
1.0
  2
Plaster_0002
 70
     0
 71
     0
 91
        1
 92
        3
 72
     0
 73
     1
 93
        4
 10
132.4636554386134
 20
156.9195308765072
 10
132.4636554386134
 20
60.04973053735953
 10
134.2636554386134
 20
60.04973053735953
 10
134.2636554386134
 20
156.9195308765072
 97
        0
 75
     0
 76
     2
 52
0.0
 41
1.0
 77
     0
 78
     2
 53
0.0
 43
107.2260115974659
 44
-35.16744529250214
 45
0.0
 46
1.732050807568877
 79
     2
 49
0.0
 49
-1.0
 53
0.0
 43
107.7260115974659
 44
-34.30141990426132
 45
0.0
 46
1.732050807568877
 79
     2
 49
0.0
 49
-1.0
 98
        0
  0
LINE
  5
11A
330
E3
100
AcDbEntity
  8
0
  6
Continuous
100
AcDbLine
 10
132.463656413262
 20
156.9195313485025
 30
0.0
 11
132.463656413262
 21
60.04972892245548
 31
0.0
  0
LINE
  5
11B
330
E3
100
AcDbEntity
  8
0
  6
Continuous
100
AcDbLine
 10
132.463656413262
 20
60.04972892245548
 30
0.0
 11
134.263654570038
 21
60.04972892245548
 31
0.0
  0
LINE
  5
11C
330
E3
100
AcDbEntity
  8
0
  6
Continuous
100
AcDbLine
 10
134.263654570038
 20
60.04972892245548
 30
0.0
 11
134.263654570038
 21
156.9195313485025
 31
0.0
  0
LINE
  5
11D
330
E3
100
AcDbEntity
  8
0
  6
Continuous
100
AcDbLine
 10
134.263654570038
 20
156.9195313485025
 30
0.0
 11
132.463656413262
 21
156.9195313485025
 31
0.0
  0
LINE
  5
11F
330
E3
100
AcDbEntity
  8
0
  6
Dashed
100
AcDbLine
 10
138.3875841887468
 20
156.9366877644972
 30
0.0
 11
235.76737272081
 21
139.7660057980236
 31
0.0
  0
LINE
  5
120
330
E3
100
AcDbEntity
  8
0
  6
Dashed
100
AcDbLine
 10
148.6006553617682
 20
160.6046399612781
 30
0.0
 11
151.2673283183488
 21
160.1344359664211
 31
0.0
  0
LINE
  5
121
330
E3
100
AcDbEntity
  8
0
  6
Dashed
100
AcDbLine
 10
139.1104853571437
 20
155.8703072681133
 30
0.0
 11
139.1104853571437
 21
49.31458693620137
 31
0.0
  0
LINE
  5
122
330
E3
100
AcDbEntity
  8
0
  6
Continuous
 62
     9
370
    18
100
AcDbLine
 10
133.4048523803287
 20
162.2438226855394
 30
0.0
 11
134.7114549360753
 21
158.3578980444604
 31
0.0
  0
LINE
  5
123
330
E3
100
AcDbEntity
  8
0
  6
Dashed
100
AcDbLine
 10
138.3875841887468
 20
142.7041548611421
 30
0.0
 11
138.3875841887468
 21
156.9366877644972
 31
0.0
  0
LWPOLYLINE
  5
124
330
E3
100
AcDbEntity
  8
0
  6
Continuous
100
AcDbPolyline
 90
        8
 70
   128
 43
0.0
 10
155.6552481308751
 20
157.942694963039
 10
158.0156608206646
 20
157.6040220449548
 10
158.4377945200602
 20
158.0261557443503
 10
158.1846005069315
 20
158.548172847573
 10
126.6377320917205
 20
164.1107369066436
 10
126.6377320917205
 20
146.7224333964631
 10
124.6369367122487
 20
145.4115674581885
 10
126.6032356196606
 20
143.4452685507765
  0
LWPOLYLINE
  5
125
330
E3
100
AcDbEntity
  8
0
  6
Continuous
100
AcDbPolyline
 90
        7
 70
   128
 43
0.0
 10
157.8670001201997
 20
158.1177003849947
 10
155.2098564202443
 20
158.5336011380311
 10
155.2098564202443
 20
157.3975759329775
 10
158.6756960288818
 20
156.8584453271895
 10
159.0607893187303
 20
155.5298734772119
 10
160.0235225433519
 20
154.3553389431735
 10
161.0440197614507
 20
153.9317363243401
  0
HATCH
  5
126
330
E3
100
AcDbEntity
  8
0
  6
Continuous
 62
   255
370
     0
100
AcDbHatch
 10
0.0
 20
0.0
 30
0.0
210
0.0
220
0.0
230
1.0
  2
SOLID
 70
     1
 71
     0
 91
        1
 92
        3
 72
     0
 73
     1
 93
        8
 10
202.2660422139567
 20
130.3929326260704
 10
196.0345127398982
 20
129.0798542986855
 10
207.8029801946164
 20
127.7667798986749
 10
201.5714507205579
 20
126.45370157129
 10
196.776813976436
 20
99.26197176422622
 10
268.2951210143314
 20
99.26197176422622
 10
268.2951210143314
 20
157.5846624331342
 10
207.0606789580786
 20
157.5846624331342
 97
        0
 75
     0
 76
     1
 98
        0
  0
LINE
  5
127
330
E3
100
AcDbEntity
  8
0
  6
Continuous
100
AcDbLine
 10
207.0606772406483
 20
157.5846594500949
 30
0.0
 11
202.26604278972
 21
130.3929328097068
 31
0.0
  0
LINE
  5
128
330
E3
100
AcDbEntity
  8
0
  6
Continuous
100
AcDbLine
 10
201.5714514985719
 20
126.4537015007262
 30
0.0
 11
196.7768134659285
 21
99.26197127862282
 31
0.0
  0
LINE
  5
129
330
E3
100
AcDbEntity
  8
0
  6
Continuous
100
AcDbLine
 10
201.5714514985719
 20
126.4537015007262
 30
0.0
 11
207.8029805604947
 21
127.7667797976248
 31
0.0
  0
LINE
  5
12A
330
E3
100
AcDbEntity
  8
0
  6
Continuous
100
AcDbLine
 10
207.8029805604947
 20
127.7667797976248
 30
0.0
 11
196.0345101460819
 21
129.0798545128082
 31
0.0
  0
LINE
  5
12B
330
E3
100
AcDbEntity
  8
0
  6
Continuous
100
AcDbLine
 10
196.0345101460819
 20
129.0798545128082
 30
0.0
 11
202.26604278972
 21
130.3929328097068
 31
0.0
  0
HATCH
  5
12C
330
E3
100
AcDbEntity
  8
0
  6
Continuous
 62
   255
370
     0
100
AcDbHatch
 10
0.0
 20
0.0
 30
0.0
210
0.0
220
0.0
230
1.0
  2
SOLID
 70
     1
 71
     0
 91
        1
 92
        3
 72
     0
 73
     1
 93
        8
 10
141.7463269089472
 20
99.19453332372244
 10
114.5545966868439
 20
103.9891677746506
 10
114.5545966868439
 20
32.40278992681966
 10
172.8772848583159
 20
32.40278992681966
 10
172.8772848583159
 20
93.70530399993083
 10
145.6855582179279
 20
98.49993845085902
 10
144.3724799210292
 20
104.7314710944971
 10
143.0594052058458
 20
92.96300068008432
 97
        0
 75
     0
 76
     1
 98
        0
  0
LINE
  5
12D
330
E3
100
AcDbEntity
  8
0
  6
Continuous
100
AcDbLine
 10
172.8772848583159
 20
93.70530542031189
 30
0.0
 11
145.6855582179279
 21
98.49993987124006
 31
0.0
  0
LINE
  5
12E
330
E3
100
AcDbEntity
  8
0
  6
Continuous
100
AcDbLine
 10
141.7463269089472
 20
99.19453116238824
 30
0.0
 11
114.5545966868439
 21
103.9891691950317
 31
0.0
  0
LINE
  5
12F
330
E3
100
AcDbEntity
  8
0
  6
Continuous
100
AcDbLine
 10
141.7463269089472
 20
99.19453116238824
 30
0.0
 11
143.0594052058458
 21
92.96300210046537
 31
0.0
  0
LINE
  5
130
330
E3
100
AcDbEntity
  8
0
  6
Continuous
100
AcDbLine
 10
143.0594052058458
 20
92.96300210046537
 30
0.0
 11
144.3724799210292
 21
104.7314689331629
 31
0.0
  0
LINE
  5
131
330
E3
100
AcDbEntity
  8
0
  6
Continuous
100
AcDbLine
 10
144.3724799210292
 20
104.7314689331629
 30
0.0
 11
145.6855582179279
 21
98.49993987124006
 31
0.0
  0
LINE
  5
132
330
E3
100
AcDbEntity
  8
Doc_ Floor
  6
Continuous
100
AcDbLine
 10
119.9680942236226
 20
145.7444329525845
 30
0.0
 11
119.9680942236226
 21
146.7224346254468
 31
0.0
  0
LINE
  5
133
330
E3
100
AcDbEntity
  8
Doc_ Floor
  6
Continuous
100
AcDbLine
 10
119.9680942236226
 20
146.7224346254468
 30
0.0
 11
119.9680942236226
 21
162.5773555903078
 31
0.0
  0
LINE
  5
134
330
E3
100
AcDbEntity
  8
Doc_ Floor
  6
Continuous
100
AcDbLine
 10
118.9680936557626
 20
147.2997820499625
 30
0.0
 11
120.9680912097675
 21
146.145083619216
 31
0.0
  0
LINE
  5
135
330
E3
100
AcDbEntity
  8
Doc_ Floor
  6
Continuous
100
AcDbLine
 10
120.9680912097675
 20
162.0000081657922
 30
0.0
 11
118.9680936557626
 21
163.1547065965387
 31
0.0
  0
LINE
  5
136
330
E3
100
AcDbEntity
  8
Doc_ Floor
  6
Continuous
100
AcDbLine
 10
119.9680942236226
 20
162.5773555903078
 30
0.0
 11
119.9680942236226
 21
163.5553572631701
 31
0.0
  0
LINE
  5
137
330
E3
100
AcDbEntity
  8
Doc_ Floor
  6
Continuous
100
AcDbLine
 10
121.4680914936975
 20
146.7224346254468
 30
0.0
 11
118.4680933718325
 21
146.7224346254468
 31
0.0
  0
LINE
  5
138
330
E3
100
AcDbEntity
  8
Doc_ Floor
  6
Continuous
100
AcDbLine
 10
121.4680914936975
 20
162.5773555903078
 30
0.0
 11
118.4680933718325
 21
162.5773555903078
 31
0.0
  0
MTEXT
  5
139
330
E3
100
AcDbEntity
  8
Doc_ Floor
  6
Continuous
100
AcDbMText
 10
119.4680925578211
 20
153.3204826811163
 30
0.0
 40
2.5
 41
0.0
 71
     7
 72
     1
  1
{A}
  7
GENERATED_STYLE_1
 11
6.123233995736766E-17
 21
1.0
 31
0.0
 73
     1
 44
1.0
  0
LINE
  5
13A
330
E3
100
AcDbEntity
  8
Doc_ Floor
  6
Continuous
100
AcDbLine
 10
161.5661027736084
 20
172.0935467561434
 30
0.0
 11
160.6029616372726
 21
172.2633773659146
 31
0.0
  0
LINE
  5
13B
330
E3
100
AcDbEntity
  8
Doc_ Floor
  6
Continuous
100
AcDbLine
 10
160.6029616372726
 20
172.2633773659146
 30
0.0
 11
135.9384216351985
 21
176.6123998788165
 31
0.0
  0
LINE
  5
13C
330
E3
100
AcDbEntity
  8
Doc_ Floor
  6
Continuous
100
AcDbLine
 10
159.8607335334461
 20
171.378822643637
 30
0.0
 11
161.3451861593839
 21
173.1479285064768
 31
0.0
  0
LINE
  5
13D
330
E3
100
AcDbEntity
  8
Doc_ Floor
  6
Continuous
100
AcDbLine
 10
136.680649739025
 20
177.4969510193788
 30
0.0
 11
135.196193531372
 21
175.7278487382542
 31
0.0
  0
LINE
  5
13E
330
E3
100
AcDbEntity
  8
Doc_ Floor
  6
Continuous
100
AcDbLine
 10
135.9384216351985
 20
176.6123998788165
 30
0.0
 11
134.9752804988627
 21
176.7822269068724
 31
0.0
  0
LINE
  5
13F
330
E3
100
AcDbEntity
  8
Doc_ Floor
  6
Continuous
100
AcDbLine
 10
160.8634347145964
 20
173.7405877636391
 30
0.0
 11
160.3424885599488
 21
170.7861633864748
 31
0.0
  0
LINE
  5
140
330
E3
100
AcDbEntity
  8
Doc_ Floor
  6
Continuous
100
AcDbLine
 10
136.1988947125223
 20
178.089610276541
 30
0.0
 11
135.6779485578747
 21
175.135189481092
 31
0.0
  0
MTEXT
  5
141
330
E3
100
AcDbEntity
  8
Doc_ Floor
  6
Continuous
100
AcDbMText
 10
147.3611211906142
 20
175.1059828827126
 30
0.0
 40
2.5
 41
0.0
 71
     7
 72
     1
  1
{B}
  7
GENERATED_STYLE_1
 11
0.9848077530089556
 21
-0.1736481776853757
 31
0.0
 73
     1
 44
1.0
  0
MTEXT
  5
143
330
E3
100
AcDbEntity
  8
Doc_ Floor
  6
Continuous
100
AcDbMText
 10
203.6109579524559
 20
166.829138787489
 30
0.0
 40
2.5
 41
56.68353220040037
 71
     4
 72
     1
  1
\A1;{\fCentury Gothic|b0|i0|c0|p34;TRS CORRUGATE\PMIN. ROOF PITCH 8\fArial|b0|i0|c0|p34;\H1.029412x;\U+00B0}
  7
GENERATED_STYLE_1
 73
     1
 44
1.056356172275314
  0
LINE
  5
144
330
E3
100
AcDbEntity
  8
Doc_ Floor
  6
Continuous
100
AcDbLine
 10
183.9713147115151
 20
153.3275903125231
 30
0.0
 11
185.4882391678093
 21
156.8810601451207
 31
0.0
  0
LINE
  5
145
330
E3
100
AcDbEntity
  8
Doc_ Floor
  6
Continuous
100
AcDbLine
 10
183.9713147115151
 20
153.3275903125231
 30
0.0
 11
187.0617439797336
 21
155.6465252816975
 31
0.0
  0
LINE
  5
146
330
E3
100
AcDbEntity
  8
Doc_ Floor
  6
Continuous
100
AcDbLine
 10
185.4882391678093
 20
156.8810601451207
 30
0.0
 11
187.0617439797336
 21
155.6465252816975
 31
0.0
  0
LWPOLYLINE
  5
147
330
E3
100
AcDbEntity
  8
Doc_ Floor
  6
Continuous
100
AcDbPolyline
 90
        9
 70
   128
 43
0.0
 10
186.2749909729182
 20
156.2637926341547
 10
188.5825121512632
 20
158.9775022171747
 10
190.7354867830677
 20
161.2367995181697
 10
192.7732559550443
 20
163.0702208055849
 10
194.7351607539059
 20
164.5063023478656
 10
196.660542266365
 20
165.573580413457
 10
198.5887415791346
 20
166.3005912708043
 10
200.5590997789273
 20
166.7158711883528
 10
202.6109579524559
 20
166.8479564345479
  0
MTEXT
  5
148
330
E3
100
AcDbEntity
  8
Doc_ Floor
  6
Continuous
100
AcDbMText
 10
217.7652934107131
 20
135.8151137183091
 30
0.0
 40
2.5
 41
0.0
 71
     4
 72
     1
  1
{UNDERLAY}
  7
GENERATED_STYLE_1
 73
     1
 44
1.0
  0
LINE
  5
149
330
E3
100
AcDbEntity
  8
Doc_ Floor
  6
Continuous
100
AcDbLine
 10
190.3055351310545
 20
147.7821531314863
 30
0.0
 11
193.3591407849012
 21
145.414943804321
 31
0.0
  0
LINE
  5
14A
330
E3
100
AcDbEntity
  8
Doc_ Floor
  6
Continuous
100
AcDbLine
 10
190.3055351310545
 20
147.7821531314863
 30
0.0
 11
191.7664308158655
 21
144.2052839532325
 31
0.0
  0
LINE
  5
14B
330
E3
100
AcDbEntity
  8
Doc_ Floor
  6
Continuous
100
AcDbLine
 10
193.3591407849012
 20
145.414943804321
 30
0.0
 11
191.7664308158655
 21
144.2052839532325
 31
0.0
  0
LWPOLYLINE
  5
14C
330
E3
100
AcDbEntity
  8
Doc_ Floor
  6
Continuous
100
AcDbPolyline
 90
       11
 70
   128
 43
0.0
 10
192.5627848521073
 20
144.8101141336437
 10
194.7186386754931
 20
142.5196592464375
 10
197.0173643686526
 20
140.6117085419212
 10
198.2367956039972
 20
139.79374512012
 10
199.5117345319048
 20
139.0624951783292
 10
200.8487777274152
 20
138.4149878613279
 10
202.2545217655684
 20
137.8482523138954
 10
205.2984986699622
 20
136.9452131068541
 10
208.6964378454051
 20
136.3296107154394
 10
212.5011118922158
 20
135.9776782978856
 10
216.7652934107131
 20
135.8656490124267
  0
MTEXT
  5
14D
330
E3
100
AcDbEntity
  8
Doc_ Floor
  6
Continuous
100
AcDbMText
 10
108.0339098253378
 20
181.72615262139
 30
0.0
 40
2.5
 41
0.0
 71
     6
 72
     1
  1
{ROOF FIXING}
  7
GENERATED_STYLE_1
 73
     1
 44
1.0
  0
LINE
  5
14E
330
E3
100
AcDbEntity
  8
Doc_ Floor
  6
Continuous
100
AcDbLine
 10
150.1773980442686
 20
161.0495785368394
 30
0.0
 11
146.4795313618118
 21
162.1693982245889
 31
0.0
  0
LINE
  5
14F
330
E3
100
AcDbEntity
  8
Doc_ Floor
  6
Continuous
100
AcDbLine
 10
150.1773980442686
 20
161.0495785368394
 30
0.0
 11
147.5348622666835
 21
163.8683024687448
 31
0.0
  0
LINE
  5
150
330
E3
100
AcDbEntity
  8
Doc_ Floor
  6
Continuous
100
AcDbLine
 10
146.4795313618118
 20
162.1693982245889
 30
0.0
 11
147.5348622666835
 21
163.8683024687448
 31
0.0
  0
LWPOLYLINE
  5
151
330
E3
100
AcDbEntity
  8
Doc_ Floor
  6
Continuous
100
AcDbPolyline
 90
       10
 70
   128
 43
0.0
 10
147.0071984601469
 20
163.0188510412687
 10
139.1166753265282
 20
167.841016330452
 10
132.3353313594427
 20
171.8481082879897
 10
126.5577001262335
 20
175.0931769699704
 10
121.6783151942436
 20
177.6292724324828
 10
117.591710130816
 20
179.5094447316158
 10
114.1924185032938
 20
180.786743923458
 10
111.3749738790201
 20
181.5142200640983
 10
110.1514859328961
 20
181.6883526327454
 10
109.0339098253378
 20
181.7449232096253
  0
MTEXT
  5
152
330
E3
100
AcDbEntity
  8
Doc_ Floor
  6
Continuous
100
AcDbMText
 10
184.2722525206281
 20
185.6231137471378
 30
0.0
 40
2.499999999999999
 41
0.0
 71
     4
 72
     1
  1
{PURLIN}
  7
GENERATED_STYLE_1
 73
     1
 44
1.0
  0
LINE
  5
153
330
E3
100
AcDbEntity
  8
Doc_ Floor
  6
Continuous
100
AcDbLine
 10
150.1026297386551
 20
148.0195527992406
 30
0.0
 11
150.8663732059221
 21
151.8070196701156
 31
0.0
  0
LINE
  5
154
330
E3
100
AcDbEntity
  8
Doc_ Floor
  6
Continuous
100
AcDbLine
 10
150.1026297386551
 20
148.0195527992406
 30
0.0
 11
152.6577824095549
 21
150.9177227568616
 31
0.0
  0
LINE
  5
155
330
E3
100
AcDbEntity
  8
Doc_ Floor
  6
Continuous
100
AcDbLine
 10
150.8663732059221
 20
151.8070196701156
 30
0.0
 11
152.6577824095549
 21
150.9177227568616
 31
0.0
  0
LWPOLYLINE
  5
156
330
E3
100
AcDbEntity
  8
Doc_ Floor
  6
Continuous
100
AcDbPolyline
 90
       16
 70
   128
 43
0.0
 10
151.7620787597316
 20
151.3623704483588
 10
156.3810990477304
 20
160.1997816402708
 10
158.5479890836734
 20
164.0519832488697
 10
160.6341039363841
 20
167.5427544156599
 10
162.6501722724664
 20
170.6842743029633
 10
164.6069227585243
 20
173.4887220731019
 10
166.5150840611617
 20
175.9682768883976
 10
168.3853848469825
 20
178.1351179111724
 10
170.2285537825908
 20
180.0014243037484
 10
172.0553195345904
 20
181.5793752284474
 10
173.8764107695854
 20
182.8811498475914
 10
175.7025561541796
 20
183.9189273235024
 10
177.544484354977
 20
184.7048868185023
 10
179.4129240385816
 20
185.2512074949132
 10
181.3186038715973
 20
185.5700685150569
 10
183.2722525206281
 20
185.6736490412555
  0
MTEXT
  5
157
330
E3
100
AcDbEntity
  8
Doc_ Floor
  6
Continuous
100
AcDbMText
 10
108.0339098253378
 20
109.9747713303125
 30
0.0
 40
2.5
 41
39.1484652691462
 71
     6
 72
     1
  1
{CLADDING ON CAVITY BATTENS WITH BUILDING WRAP }
  7
GENERATED_STYLE_1
 73
     1
 44
1.081394112015884
  0
LINE
  5
158
330
E3
100
AcDbEntity
  8
Doc_ Floor
  6
Continuous
100
AcDbLine
 10
132.5155339767833
 20
106.8748389664687
 30
0.0
 11
128.6545774726351
 21
106.7292458237197
 31
0.0
  0
LINE
  5
159
330
E3
100
AcDbEntity
  8
Doc_ Floor
  6
Continuous
100
AcDbLine
 10
132.5155339767833
 20
106.8748389664687
 30
0.0
 11
129.0990504252154
 21
108.6792318878428
 31
0.0
  0
LINE
  5
15A
330
E3
100
AcDbEntity
  8
Doc_ Floor
  6
Continuous
100
AcDbLine
 10
128.6545774726351
 20
106.7292458237197
 30
0.0
 11
129.0990504252154
 21
108.6792318878428
 31
0.0
  0
LWPOLYLINE
  5
15B
330
E3
100
AcDbEntity
  8
Doc_ Floor
  6
Continuous
100
AcDbPolyline
 90
        5
 70
   128
 43
0.0
 10
128.8768139823939
 20
107.7042399712023
 10
123.4362372838358
 20
108.778239716983
 10
118.5579467362369
 20
109.485596657588
 10
113.8783637724525
 20
109.8745992712483
 10
109.0339098253379
 20
109.9935360361949
  0
MTEXT
  5
15C
330
E3
100
AcDbEntity
  8
Doc_ Floor
  6
Continuous
100
AcDbMText
 10
108.0339098253378
 20
124.960361232442
 30
0.0
 40
2.5
 41
0.0
 71
     6
 72
     1
  1
{FASCIA}
  7
GENERATED_STYLE_1
 73
     1
 44
1.0
  0
LINE
  5
15D
330
E3
100
AcDbEntity
  8
Doc_ Floor
  6
Continuous
100
AcDbLine
 10
127.9988871906975
 20
135.8141238708189
 30
0.0
 11
126.353332595026
 21
132.3183626341516
 31
0.0
  0
LINE
  5
15E
330
E3
100
AcDbEntity
  8
Doc_ Floor
  6
Continuous
100
AcDbLine
 10
127.9988871906975
 20
135.8141238708189
 30
0.0
 11
124.8259137130815
 21
133.6094850166353
 31
0.0
  0
LINE
  5
15F
330
E3
100
AcDbEntity
  8
Doc_ Floor
  6
Continuous
100
AcDbLine
 10
126.353332595026
 20
132.3183626341516
 30
0.0
 11
124.8259137130815
 21
133.6094850166353
 31
0.0
  0
LWPOLYLINE
  5
160
330
E3
100
AcDbEntity
  8
Doc_ Floor
  6
Continuous
100
AcDbPolyline
 90
        9
 70
   128
 43
0.0
 10
125.5896244402762
 20
132.9639245708123
 10
123.6204634313926
 20
130.9203200424862
 10
121.6964454848545
 20
129.2175951226089
 10
119.780670024063
 20
127.8346679261786
 10
117.8362364724189
 20
126.7504565681938
 10
115.8262442533234
 20
125.9438791636529
 10
113.7137927901774
 20
125.3938538275543
 10
111.4619815063819
 20
125.0792986748963
 10
109.0339098253379
 20
124.9791318206773
  0
MTEXT
  5
161
330
E3
100
AcDbEntity
  8
Doc_ Floor
  6
Continuous
100
AcDbMText
 10
164.9235787333881
 20
105.17706211541
 30
0.0
 40
2.5
 41
0.0
 71
     4
 72
     1
  1
{ROOF FRAME}
  7
GENERATED_STYLE_1
 73
     1
 44
1.0
  0
LINE
  5
162
330
E3
100
AcDbEntity
  8
Doc_ Floor
  6
Continuous
100
AcDbLine
 10
152.6041533872818
 20
131.267619906501
 30
0.0
 11
153.88207714911
 21
127.6213729040683
 31
0.0
  0
LINE
  5
163
330
E3
100
AcDbEntity
  8
Doc_ Floor
  6
Continuous
100
AcDbLine
 10
152.6041533872818
 20
131.267619906501
 30
0.0
 11
151.8877422868978
 21
127.47091937374
 31
0.0
  0
LINE
  5
164
330
E3
100
AcDbEntity
  8
Doc_ Floor
  6
Continuous
100
AcDbLine
 10
153.88207714911
 20
127.6213729040683
 30
0.0
 11
151.8877422868978
 21
127.47091937374
 31
0.0
  0
LWPOLYLINE
  5
165
330
E3
100
AcDbEntity
  8
Doc_ Floor
  6
Continuous
100
AcDbPolyline
 90
       15
 70
   128
 43
0.0
 10
152.8849095788885
 20
127.5461462691856
 10
153.4915914543278
 20
121.8000985571859
 10
154.2651929717568
 20
117.0218862506804
 10
154.7230231061241
 20
114.9762913475718
 10
155.2327045628767
 20
113.1493428635373
 10
155.7976111459775
 20
111.5332699878105
 10
156.421116659389
 20
110.1203019096248
 10
157.1065949070739
 20
108.9026678182138
 10
157.8574196929949
 20
107.8725969028111
 10
158.6769648211147
 20
107.0223183526501
 10
159.5686040953959
 20
106.3440613569645
 10
160.5357113198011
 20
105.8300551049876
 10
161.5816602982931
 20
105.4725287859531
 10
162.7098248348345
 20
105.2637115890945
 10
163.9235787333881
 20
105.1958327036453
  0
MTEXT
  5
166
330
E3
100
AcDbEntity
  8
Doc_ Floor
  6
Continuous
100
AcDbMText
 10
108.0339098253378
 20
167.0421997300251
 30
0.0
 40
2.5
 41
0.0
 71
     6
 72
     1
  1
{METAL FLASHING}
  7
GENERATED_STYLE_1
 73
     1
 44
1.0
  0
LINE
  5
167
330
E3
100
AcDbEntity
  8
Doc_ Floor
  6
Continuous
100
AcDbLine
 10
126.6377315301461
 20
160.8400517770748
 30
0.0
 11
123.0718403090997
 21
162.3275416975352
 31
0.0
  0
LINE
  5
168
330
E3
100
AcDbEntity
  8
Doc_ Floor
  6
Continuous
100
AcDbLine
 10
126.6377315301461
 20
160.8400517770748
 30
0.0
 11
124.2933234021921
 21
163.911200672162
 31
0.0
  0
LINE
  5
169
330
E3
100
AcDbEntity
  8
Doc_ Floor
  6
Continuous
100
AcDbLine
 10
123.0718403090997
 20
162.3275416975352
 30
0.0
 11
124.2933234021921
 21
163.911200672162
 31
0.0
  0
LWPOLYLINE
  5
16A
330
E3
100
AcDbEntity
  8
Doc_ Floor
  6
Continuous
100
AcDbPolyline
 90
        9
 70
   128
 43
0.0
 10
123.6825828105559
 20
163.1193701917353
 10
122.0880847713312
 20
164.123773623539
 10
120.4818407728519
 20
164.962239531881
 10
118.8359257827555
 20
165.6446361904938
 10
117.1224147686798
 20
166.18083187311
 10
115.3133826982625
 20
166.5806948534622
 10
113.3809045391413
 20
166.8540934052829
 10
111.2970552589538
 20
167.0108958023048
 10
109.0339098253379
 20
167.0609703182604
  0
MTEXT
  5
16B
330
E3
100
AcDbEntity
  8
Doc_ Floor
  6
Continuous
100
AcDbMText
 10
108.0339098253378
 20
139.2806289391384
 30
0.0
 40
2.5
 41
39.1484652691462
 71
     6
 72
     1
  1
{BIRD'S BEAK AT BOTTOM EDGE}
  7
GENERATED_STYLE_1
 73
     1
 44
1.070162922071087
  0
LINE
  5
16C
330
E3
100
AcDbEntity
  8
Doc_ Floor
  6
Continuous
100
AcDbLine
 10
125.0436246921672
 20
145.0048803900416
 30
0.0
 11
122.8617476383273
 21
141.8162118362485
 31
0.0
  0
LINE
  5
16D
330
E3
100
AcDbEntity
  8
Doc_ Floor
  6
Continuous
100
AcDbLine
 10
125.0436246921672
 20
145.0048803900416
 30
0.0
 11
121.5597296780866
 21
143.3343504940087
 31
0.0
  0
LINE
  5
16E
330
E3
100
AcDbEntity
  8
Doc_ Floor
  6
Continuous
100
AcDbLine
 10
122.8617476383273
 20
141.8162118362485
 30
0.0
 11
121.5597296780866
 21
143.3343504940087
 31
0.0
  0
LWPOLYLINE
  5
16F
330
E3
100
AcDbEntity
  8
Doc_ Floor
  6
Continuous
100
AcDbPolyline
 90
        8
 70
   128
 43
0.0
 10
122.2107386989913
 20
142.5752796850201
 10
120.9177043003348
 20
141.742845784936
 10
119.5679416574175
 20
141.0470913315622
 10
118.139233576577
 20
140.4800987105053
 10
116.6093628641507
 20
140.0339503073715
 10
114.9561123264761
 20
139.7007285077674
 10
113.1572647698908
 20
139.4725156972993
 10
109.0339098253378
 20
139.2994465861972
  0
MTEXT
  5
170
330
E3
100
AcDbEntity
  8
Doc_ Floor
  6
Continuous
100
AcDbMText
 10
188.6636468236601
 20
176.5690328110576
 30
0.0
 40
2.5
 41
0.0
 71
     4
 72
     1
  1
{SOFT EDGE DRESSED OVER CORRUGATE}
  7
GENERATED_STYLE_1
 73
     1
 44
1.0
  0
LINE
  5
171
330
E3
100
AcDbEntity
  8
Doc_ Floor
  6
Continuous
100
AcDbLine
 10
159.3349448997954
 20
155.490312353265
 30
0.0
 11
161.1895892859724
 21
158.8797826085006
 31
0.0
  0
LINE
  5
172
330
E3
100
AcDbEntity
  8
Doc_ Floor
  6
Continuous
100
AcDbLine
 10
159.3349448997954
 20
155.490312353265
 30
0.0
 11
162.635850082317
 21
157.4983580214119
 31
0.0
  0
LINE
  5
173
330
E3
100
AcDbEntity
  8
Doc_ Floor
  6
Continuous
100
AcDbLine
 10
161.1895892859724
 20
158.8797826085006
 30
0.0
 11
162.635850082317
 21
157.4983580214119
 31
0.0
  0
LWPOLYLINE
  5
174
330
E3
100
AcDbEntity
  8
Doc_ Floor
  6
Continuous
100
AcDbPolyline
 90
       12
 70
   128
 43
0.0
 10
161.9127187963382
 20
158.1890695806833
 10
166.5788330704896
 20
162.9216507703858
 10
170.6932119084452
 20
166.8562138399892
 10
174.3249732753406
 20
170.044233640632
 10
177.5432351363114
 20
172.5371850234531
 10
180.4171154564932
 20
174.386542839591
 10
181.746511902893
 20
175.0859600511347
 10
183.0157322010215
 20
175.6437819401845
 10
184.2334160965204
 20
176.066442863133
 10
185.4082033350319
 20
176.3603771763723
 10
186.5487336621978
 20
176.5320192362948
 10
187.6636468236601
 20
176.5878033992929
  0
MTEXT
  5
175
330
E3
100
AcDbEntity
  8
Doc_ Floor
  6
Continuous
100
AcDbMText
 10
108.0339098253378
 20
174.9367703809074
 30
0.0
 40
2.500000000000001
 41
0.0
 71
     6
 72
     1
  1
{STOPEND}
  7
GENERATED_STYLE_1
 73
     1
 44
1.0
  0
LINE
  5
176
330
E3
100
AcDbEntity
  8
Doc_ Floor
  6
Continuous
100
AcDbLine
 10
133.6674744867958
 20
160.0543452319624
 30
0.0
 11
130.2064272342246
 21
161.7717132181753
 31
0.0
  0
LINE
  5
177
330
E3
100
AcDbEntity
  8
Doc_ Floor
  6
Continuous
100
AcDbLine
 10
133.6674744867958
 20
160.0543452319624
 30
0.0
 11
131.5288036638837
 21
163.2721546209398
 31
0.0
  0
LINE
  5
178
330
E3
100
AcDbEntity
  8
Doc_ Floor
  6
Continuous
100
AcDbLine
 10
130.2064272342246
 20
161.7717132181753
 30
0.0
 11
131.5288036638837
 21
163.2721546209398
 31
0.0
  0
LWPOLYLINE
  5
179
330
E3
100
AcDbEntity
  8
Doc_ Floor
  6
Continuous
100
AcDbPolyline
 90
        9
 70
   128
 43
0.0
 10
130.8676151700328
 20
162.5219346490566
 10
127.0919861873974
 20
165.715898837504
 10
123.7286247139161
 20
168.3728275144363
 10
120.7208849685188
 20
170.5269865215487
 10
118.0121211701354
 20
172.2126417005363
 10
115.5456875376957
 20
173.4640588930943
 10
113.2649382901296
 20
174.315503940918
 10
111.113227646367
 20
174.8012426857024
 10
109.0339098253378
 20
174.9555409691427
  0
HATCH
  5
17A
330
E3
100
AcDbEntity
  8
Doc_ Finishes
  6
Continuous
 62
   255
370
    18
100
AcDbHatch
 10
0.0
 20
0.0
 30
0.0
210
0.0
220
0.0
230
1.0
  2
SOLID
 70
     1
 71
     0
 91
        1
 92
        3
 72
     0
 73
     1
 93
        5
 10
160.5563082766261
 20
56.29457709202391
 10
160.5563082766261
 20
32.40279176343062
 10
268.2951197319069
 20
32.40279176343062
 10
268.2951197319069
 20
123.5642900369606
 10
220.3623675821381
 20
103.2850467728525
 97
        0
 75
     0
 76
     1
 98
        0
  0
LINE
  5
17B
330
E3
100
AcDbEntity
  8
Doc_ Finishes
  6
Continuous
 62
   255
370
    18
100
AcDbLine
 10
220.3623653339774
 20
103.2850505413478
 30
0.0
 11
160.556309796285
 21
56.29457628646654
 31
0.0
  0
LINE
  5
17C
330
E3
100
AcDbEntity
  8
Doc_ Finishes
  6
Continuous
 62
   255
370
    18
100
AcDbLine
 10
160.556309796285
 20
56.29457690591958
 30
0.0
 11
160.556309796285
 21
32.40279196665374
 31
0.0
  0
LINE
  5
17D
330
E3
100
AcDbEntity
  8
Doc_ Finishes
  6
Continuous
 62
   255
370
    18
100
AcDbLine
 10
268.2951203660438
 20
123.5642935969986
 30
0.0
 11
220.3623675193274
 21
103.2850486173552
 31
0.0
  0
LINE
  5
17E
330
E3
100
AcDbEntity
  8
0
  6
Continuous
100
AcDbLine
 10
94.7059307070651
 20
67.13021045718048
 30
0.0
 11
219.0690330331912
 21
67.13021045718048
 31
0.0
  0
LINE
  5
17F
330
E3
100
AcDbEntity
  8
0
  6
Continuous
100
AcDbLine
 10
195.0990162696757
 20
75.21657731790322
 30
0.0
 11
195.0990162696757
 21
34.84842949295378
 31
0.0
  0
LINE
  5
180
330
E3
100
AcDbEntity
  8
0
  6
Continuous
100
AcDbLine
 10
94.7059307070651
 20
34.84842949295378
 30
0.0
 11
94.7059307070651
 21
67.13021045718048
 31
0.0
  0
LINE
  5
181
330
E3
100
AcDbEntity
  8
0
  6
Continuous
100
AcDbLine
 10
171.1289995061602
 20
75.21657731790322
 30
0.0
 11
171.1289995061602
 21
34.84842949295378
 31
0.0
  0
LINE
  5
182
330
E3
100
AcDbEntity
  8
0
  6
Continuous
100
AcDbLine
 10
94.7059307070651
 20
56.36961680243825
 30
0.0
 11
219.0690330331912
 21
56.36961680243825
 31
0.0
  0
LINE
  5
183
330
E3
100
AcDbEntity
  8
0
  6
Continuous
100
AcDbLine
 10
94.7059307070651
 20
45.60902314769601
 30
0.0
 11
219.0690330331912
 21
45.60902314769601
 31
0.0
  0
LINE
  5
184
330
E3
100
AcDbEntity
  8
0
  6
Continuous
100
AcDbLine
 10
171.1289995061602
 20
75.21657731790322
 30
0.0
 11
195.0990162696757
 21
75.21657731790322
 31
0.0
  0
LINE
  5
185
330
E3
100
AcDbEntity
  8
0
  6
Continuous
100
AcDbLine
 10
94.7059307070651
 20
34.84842949295378
 30
0.0
 11
219.0690330331912
 21
34.84842949295378
 31
0.0
  0
LINE
  5
186
330
E3
100
AcDbEntity
  8
0
  6
Continuous
100
AcDbLine
 10
219.0690330331912
 20
75.21657731790322
 30
0.0
 11
219.0690330331912
 21
34.84842949295378
 31
0.0
  0
LINE
  5
187
330
E3
100
AcDbEntity
  8
0
  6
Continuous
100
AcDbLine
 10
195.0990162696757
 20
75.21657731790322
 30
0.0
 11
219.0690330331912
 21
75.21657731790322
 31
0.0
  0
MTEXT
  5
188
330
E3
100
AcDbEntity
  8
0
  6
Continuous
100
AcDbMText
 10
98.261856873839
 20
58.28656778696154
 30
0.0
 40
2.499999999999999
 41
69.01187578516154
 71
     7
 72
     1
  1
\A1;{\fCentury Gothic|b0|i0|c0|p34;LOW, MEDIUM OR HIGH WIND ZONE.\P ROOF PITCH \fArial|b0|i0|c0|p34;\H1.029412x;\U+2265\fCentury Gothic|b0|i0|c0|p34;\H0.971429x; 10\fArial|b0|i0|c0|p34;\H1.029412x;\U+00B0}
  7
GENERATED_STYLE_1
 73
     1
 44
1.056355725756043
  0
MTEXT
  5
189
330
E3
100
AcDbEntity
  8
0
  6
Continuous
100
AcDbMText
 10
98.261856873839
 20
47.86372317897222
 30
0.0
 40
2.5
 41
69.01187578516154
 71
     7
 72
     1
  1
\A1;{\fCentury Gothic|b0|i0|c0|p34;VERY HIGH WIND ZONE.\P ROOF PITCH \fArial|b0|i0|c0|p34;\H1.029412x;<\fCentury Gothic|b0|i0|c0|p34;\H0.971429x; 10\fArial|b0|i0|c0|p34;\H1.029412x;\U+00B0}
  7
GENERATED_STYLE_1
 73
     1
 44
1.056355725756043
  0
MTEXT
  5
18A
330
E3
100
AcDbEntity
  8
0
  6
Continuous
100
AcDbMText
 10
182.7611909304271
 20
60.32639526062167
 30
0.0
 40
2.499999999999999
 41
0.0
 71
     8
 72
     1
  1
{50MM}
  7
GENERATED_STYLE_1
 73
     1
 44
1.0
  0
MTEXT
  5
18B
330
E3
100
AcDbEntity
  8
0
  6
Continuous
100
AcDbMText
 10
182.7611909304271
 20
49.08761573916392
 30
0.0
 40
2.499999999999999
 41
0.0
 71
     8
 72
     1
  1
{75MM}
  7
GENERATED_STYLE_1
 73
     1
 44
1.0
  0
MTEXT
  5
18C
330
E3
100
AcDbEntity
  8
0
  6
Continuous
100
AcDbMText
 10
182.7611909304271
 20
70.20845958382333
 30
0.0
 40
2.499999999999999
 41
0.0
 71
     8
 72
     1
  1
{A}
  7
GENERATED_STYLE_1
 73
     1
 44
1.0
  0
MTEXT
  5
18D
330
E3
100
AcDbEntity
  8
0
  6
Continuous
100
AcDbMText
 10
98.261856873839
 20
39.3921518697125
 30
0.0
 40
2.5
 41
0.0
 71
     7
 72
     1
  1
{EXTRA WIND ZONE.}
  7
GENERATED_STYLE_1
 73
     1
 44
1.0
  0
MTEXT
  5
18E
330
E3
100
AcDbEntity
  8
0
  6
Continuous
100
AcDbMText
 10
182.7611909304271
 20
38.32702237368838
 30
0.0
 40
2.499999999999999
 41
0.0
 71
     8
 72
     1
  1
{90MM}
  7
GENERATED_STYLE_1
 73
     1
 44
1.0
  0
MTEXT
  5
18F
330
E3
100
AcDbEntity
  8
0
  6
Continuous
100
AcDbMText
 10
206.7312077672151
 20
60.32640241381011
 30
0.0
 40
2.499999999999999
 41
0.0
 71
     8
 72
     1
  1
{150MM}
  7
GENERATED_STYLE_1
 73
     1
 44
1.0
  0
MTEXT
  5
190
330
E3
100
AcDbEntity
  8
0
  6
Continuous
100
AcDbMText
 10
206.7312077672151
 20
49.08762289235236
 30
0.0
 40
2.499999999999999
 41
0.0
 71
     8
 72
     1
  1
{200MM}
  7
GENERATED_STYLE_1
 73
     1
 44
1.0
  0
MTEXT
  5
191
330
E3
100
AcDbEntity
  8
0
  6
Continuous
100
AcDbMText
 10
206.7312077672151
 20
70.20846009875902
 30
0.0
 40
2.499999999999999
 41
0.0
 71
     8
 72
     1
  1
{B}
  7
GENERATED_STYLE_1
 73
     1
 44
1.0
  0
MTEXT
  5
192
330
E3
100
AcDbEntity
  8
0
  6
Continuous
100
AcDbMText
 10
206.7312077672151
 20
38.32702038669159
 30
0.0
 40
2.499999999999999
 41
0.0
 71
     8
 72
     1
  1
{200MM}
  7
GENERATED_STYLE_1
 73
     1
 44
1.0
  0
HATCH
  5
193
330
E3
100
AcDbEntity
  8
0
  6
Continuous
 62
   255
370
     0
100
AcDbHatch
 10
0.0
 20
0.0
 30
0.0
210
0.0
220
0.0
230
1.0
  2
SOLID
 70
     1
 71
     0
 91
        1
 92
        3
 72
     0
 73
     1
 93
        4
 10
150.8350627275377
 20
161.0536885079802
 10
149.3578510980194
 20
161.3141607744806
 10
149.2710270091859
 20
160.8217568979745
 10
150.7482386387042
 20
160.5612846314741
 97
        0
 75
     0
 76
     1
 98
        0
  0
HATCH
  5
194
330
E3
100
AcDbEntity
  8
0
  6
Continuous
 62
   255
370
     0
100
AcDbHatch
 10
0.0
 20
0.0
 30
0.0
210
0.0
220
0.0
230
1.0
  2
SOLID
 70
     1
 71
     0
 91
        1
 92
        3
 72
     1
 73
     1
 93
        4
 10
150.5743901078124
 20
161.0150332396459
 42
0.1666666666666667
 10
149.5895823548002
 20
161.1886814173128
 42
0.0
 10
149.5316996289112
 20
160.8604121663087
 42
0.1666666666666667
 10
150.5165073819234
 20
160.6867639886418
 42
0.0
 97
        0
 75
     0
 76
     1
 98
        0
  0
ARC
  5
195
330
E3
100
AcDbEntity
  8
0
  6
Continuous
100
AcDbCircle
 10
149.8287493055421
 20
159.6656793553366
 30
0.0
 40
1.541666666666623
100
AcDbArc
 50
61.07535558395009
 51
98.92464441605254
  0
LINE
  5
196
330
E3
100
AcDbEntity
  8
0
  6
Continuous
100
AcDbLine
 10
149.5895812661094
 20
161.1886816115754
 30
0.0
 11
149.5317007478476
 21
160.8604138282084
 31
0.0
  0
ARC
  5
197
330
E3
100
AcDbEntity
  8
0
  6
Continuous
100
AcDbCircle
 10
150.2773404311815
 20
162.2097660506181
 30
0.0
 40
1.541666666666623
100
AcDbArc
 50
241.0753555839501
 51
278.9246444160535
  0
LINE
  5
198
330
E3
100
AcDbEntity
  8
0
  6
Continuous
100
AcDbLine
 10
150.516507679664
 20
160.6867651099925
 30
0.0
 11
150.574391779641
 21
161.0150328933595
 31
0.0
  0
HATCH
  5
199
330
E3
100
AcDbEntity
  8
0
  6
Continuous
 62
   255
370
     0
100
AcDbHatch
 10
0.0
 20
0.0
 30
0.0
210
0.0
220
0.0
230
1.0
  2
SOLID
 70
     1
 71
     0
 91
        1
 92
        3
 72
     1
 73
     1
 93
        4
 10
151.0667939843185
 20
160.9282091508124
 42
0.3333333333333333
 10
150.5743901078124
 20
161.0150332396459
 42
0.0
 10
150.5165073819234
 20
160.6867639886418
 42
0.3333333333333333
 10
151.0089112584295
 20
160.5999398998084
 42
0.0
 97
        0
 75
     0
 76
     1
 98
        0
  0
ARC
  5
19A
330
E3
100
AcDbEntity
  8
0
  6
Continuous
100
AcDbCircle
 10
150.7627093201764
 20
160.6433519442251
 30
0.0
 40
0.4166666666666826
100
AcDbArc
 50
43.13010235415265
 51
116.8698976458419
  0
LINE
  5
19B
330
E3
100
AcDbEntity
  8
0
  6
Continuous
100
AcDbLine
 10
150.574391779641
 20
161.0150328933595
 30
0.0
 11
150.516507679664
 21
160.6867651099925
 31
0.0
  0
ARC
  5
19C
330
E3
100
AcDbEntity
  8
0
  6
Continuous
100
AcDbCircle
 10
150.8205920460655
 20
160.9716211952292
 30
0.0
 40
0.4166666666666826
100
AcDbArc
 50
223.1301023541527
 51
296.8698976458419
  0
LINE
  5
19D
330
E3
100
AcDbEntity
  8
0
  6
Continuous
100
AcDbLine
 10
151.0089111455722
 20
160.5999407508846
 30
0.0
 11
151.0667952455492
 21
160.9282085342516
 31
0.0
  0
HATCH
  5
19E
330
E3
100
AcDbEntity
  8
0
  6
Continuous
 62
   255
370
     0
100
AcDbHatch
 10
0.0
 20
0.0
 30
0.0
210
0.0
220
0.0
230
1.0
  2
SOLID
 70
     1
 71
     0
 91
        1
 92
        3
 72
     1
 73
     1
 93
        4
 10
149.0971784782941
 20
161.2755055061463
 42
0.0
 10
149.0392957524051
 20
160.9472362551422
 42
0.3333333333333333
 10
149.5316996289112
 20
160.8604121663087
 42
0.0
 10
149.5895823548002
 20
161.1886814173128
 42
0.3333333333333333
 97
        0
 75
     0
 76
     1
 98
        0
  0
LINE
  5
19F
330
E3
100
AcDbEntity
  8
0
  6
Continuous
100
AcDbLine
 10
149.0392972819395
 20
160.947234605601
 30
0.0
 11
149.0971778002013
 21
161.2755059706833
 31
0.0
  0
ARC
  5
1A0
330
E3
100
AcDbEntity
  8
0
  6
Continuous
100
AcDbCircle
 10
149.3433804165471
 20
161.2320934617295
 30
0.0
 40
0.4166666666666231
100
AcDbArc
 50
223.1301023541551
 51
296.8698976458471
  0
LINE
  5
1A1
330
E3
100
AcDbEntity
  8
0
  6
Continuous
100
AcDbLine
 10
149.5895812661094
 20
161.1886816115754
 30
0.0
 11
149.5317007478476
 21
160.8604138282084
 31
0.0
  0
ARC
  5
1A2
330
E3
100
AcDbEntity
  8
0
  6
Continuous
100
AcDbCircle
 10
149.2854976906581
 20
160.9038242107255
 30
0.0
 40
0.4166666666666826
100
AcDbArc
 50
43.13010235415265
 51
116.8698976458419
  0
HATCH
  5
1A3
330
E3
100
AcDbEntity
  8
0
  6
Continuous
 62
   255
370
     0
100
AcDbHatch
 10
0.0
 20
0.0
 30
0.0
210
0.0
220
0.0
230
1.0
  2
SOLID
 70
     1
 71
     0
 91
        1
 92
        3
 72
     0
 73
     1
 93
        4
 10
149.6813639012102
 20
160.7494034327305
 10
149.4035268169431
 20
159.173711027911
 10
150.0600646624128
 20
159.0579456918985
 10
150.3379017466799
 20
160.633638096718
 97
        0
 75
     0
 76
     1
 98
        0
  0
LINE
  5
1A4
330
E3
100
AcDbEntity
  8
0
  6
Continuous
100
AcDbLine
 10
149.6813627191081
 20
160.7494021460917
 30
0.0
 11
149.4035254863058
 21
159.1737124878716
 31
0.0
  0
LINE
  5
1A5
330
E3
100
AcDbEntity
  8
0
  6
Continuous
100
AcDbLine
 10
149.4035254863058
 20
159.1737124878716
 30
0.0
 11
150.0600646347551
 21
159.0579442879175
 31
0.0
  0
LINE
  5
1A6
330
E3
100
AcDbEntity
  8
0
  6
Continuous
100
AcDbLine
 10
150.0600646347551
 20
159.0579442879175
 30
0.0
 11
150.3379018675574
 21
160.6336375278528
 31
0.0
  0
LINE
  5
1A7
330
E3
100
AcDbEntity
  8
0
  6
Continuous
100
AcDbLine
 10
150.3379018675574
 20
160.6336375278528
 30
0.0
 11
149.6813627191081
 21
160.7494021460917
 31
0.0
  0
HATCH
  5
1A8
330
E3
100
AcDbEntity
  8
0
  6
Continuous
 62
   255
370
     0
100
AcDbHatch
 10
0.0
 20
0.0
 30
0.0
210
0.0
220
0.0
230
1.0
  2
SOLID
 70
     1
 71
     0
 91
        1
 92
        3
 72
     0
 73
     1
 93
        5
 10
149.4363534137743
 20
159.1679228132048
 10
147.9777087213721
 20
150.8955376879022
 10
148.1689621406756
 20
150.2525585827948
 10
148.5685933731794
 20
150.7913487813021
 10
150.0272380655816
 20
159.0637339066047
 97
        0
 75
     0
 76
     1
 98
        0
  0
LINE
  5
1A9
330
E3
100
AcDbEntity
  8
0
  6
Continuous
100
AcDbLine
 10
149.436351906471
 20
159.1679244360454
 30
0.0
 11
147.9777091205453
 21
150.8955376126714
 31
0.0
  0
LINE
  5
1AA
330
E3
100
AcDbEntity
  8
0
  6
Continuous
100
AcDbLine
 10
147.9777091205453
 20
150.8955376126714
 30
0.0
 11
148.1689619691606
 21
150.2525588381169
 31
0.0
  0
LINE
  5
1AB
330
E3
100
AcDbEntity
  8
0
  6
Continuous
100
AcDbLine
 10
148.1689619691606
 20
150.2525588381169
 30
0.0
 11
148.568591846949
 21
150.791349098085
 31
0.0
  0
LINE
  5
1AC
330
E3
100
AcDbEntity
  8
0
  6
Continuous
100
AcDbLine
 10
148.568591846949
 20
150.791349098085
 30
0.0
 11
150.0272382145899
 21
159.0637323397437
 31
0.0
  0
LINE
  5
1AD
330
E3
100
AcDbEntity
  8
0
  6
Continuous
100
AcDbLine
 10
150.0272382145899
 20
159.0637323397437
 30
0.0
 11
149.436351906471
 21
159.1679244360454
 31
0.0
  0
LINE
  5
1AE
330
E3
100
AcDbEntity
  8
0
  6
Continuous
100
AcDbLine
 10
150.835061851303
 20
161.0536867642186
 30
0.0
 11
149.3578514535784
 21
161.3141598415423
 31
0.0
  0
LINE
  5
1AF
330
E3
100
AcDbEntity
  8
0
  6
Continuous
100
AcDbLine
 10
149.2710270944705
 20
160.8217563756342
 30
0.0
 11
150.748237492195
 21
160.5612832983104
 31
0.0
  0
LINE
  5
1B0
330
E3
100
AcDbEntity
  8
0
  6
Continuous
100
AcDbLine
 10
150.2241996161841
 20
159.0290042710712
 30
0.0
 11
150.2213821306771
 21
159.0239824468932
 31
0.0
  0
LINE
  5
1B1
330
E3
100
AcDbEntity
  8
0
  6
Continuous
100
AcDbLine
 10
150.2213821306771
 20
159.0239824468932
 30
0.0
 11
150.2148314146824
 21
159.0196188919754
 31
0.0
  0
LINE
  5
1B2
330
E3
100
AcDbEntity
  8
0
  6
Continuous
100
AcDbLine
 10
150.2148314146824
 20
159.0196188919754
 30
0.0
 11
150.2045904263629
 21
159.0159056961577
 31
0.0
  0
LINE
  5
1B3
330
E3
100
AcDbEntity
  8
0
  6
Continuous
100
AcDbLine
 10
150.2045904263629
 20
159.0159056961577
 30
0.0
 11
150.190729188388
 21
159.0128325844827
 31
0.0
  0
LINE
  5
1B4
330
E3
100
AcDbEntity
  8
0
  6
Continuous
100
AcDbLine
 10
150.190729188388
 20
159.0128325844827
 30
0.0
 11
150.1733471243333
 21
159.010379109544
 31
0.0
  0
LINE
  5
1B5
330
E3
100
AcDbEntity
  8
0
  6
Continuous
100
AcDbLine
 10
150.1733471243333
 20
159.010379109544
 30
0.0
 11
150.1525660125168
 21
159.0085237810502
 31
0.0
  0
LINE
  5
1B6
330
E3
100
AcDbEntity
  8
0
  6
Continuous
100
AcDbLine
 10
150.1525660125168
 20
159.0085237810502
 30
0.0
 11
150.128543448409
 21
159.0072415269946
 31
0.0
  0
LINE
  5
1B7
330
E3
100
AcDbEntity
  8
0
  6
Continuous
100
AcDbLine
 10
150.128543448409
 20
159.0072415269946
 30
0.0
 11
150.1014477726262
 21
159.0065001119402
 31
0.0
  0
LINE
  5
1B8
330
E3
100
AcDbEntity
  8
0
  6
Continuous
100
AcDbLine
 10
150.1014477726262
 20
159.0065001119402
 30
0.0
 11
150.071483142937
 21
159.0062637187344
 31
0.0
  0
LINE
  5
1B9
330
E3
100
AcDbEntity
  8
0
  6
Continuous
100
AcDbLine
 10
150.071483142937
 20
159.0062637187344
 30
0.0
 11
150.0388680439709
 21
159.006496530225
 31
0.0
  0
LINE
  5
1BA
330
E3
100
AcDbEntity
  8
0
  6
Continuous
100
AcDbLine
 10
150.0388680439709
 20
159.006496530225
 30
0.0
 11
150.0038460323642
 21
159.0071519841137
 31
0.0
  0
LINE
  5
1BB
330
E3
100
AcDbEntity
  8
0
  6
Continuous
100
AcDbLine
 10
150.0038460323642
 20
159.0071519841137
 30
0.0
 11
149.9666714098989
 21
159.008190681533
 31
0.0
  0
LINE
  5
1BC
330
E3
100
AcDbEntity
  8
0
  6
Continuous
100
AcDbLine
 10
149.9666714098989
 20
159.008190681533
 30
0.0
 11
149.9276271320789
 21
159.009555315039
 31
0.0
  0
LINE
  5
1BD
330
E3
100
AcDbEntity
  8
0
  6
Continuous
100
AcDbLine
 10
149.9276271320789
 20
159.009555315039
 30
0.0
 11
149.886996154408
 21
159.0112029040489
 31
0.0
  0
LINE
  5
1BE
330
E3
100
AcDbEntity
  8
0
  6
Continuous
100
AcDbLine
 10
149.886996154408
 20
159.0112029040489
 30
0.0
 11
149.8450829226815
 21
159.0130725594037
 31
0.0
  0
LINE
  5
1BF
330
E3
100
AcDbEntity
  8
0
  6
Continuous
100
AcDbLine
 10
149.8450829226815
 20
159.0130725594037
 30
0.0
 11
149.8022026278406
 21
159.0151177188051
 31
0.0
  0
LINE
  5
1C0
330
E3
100
AcDbEntity
  8
0
  6
Continuous
100
AcDbLine
 10
149.8022026278406
 20
159.0151177188051
 30
0.0
 11
149.7586668791108
 21
159.017273911379
 31
0.0
  0
LINE
  5
1C1
330
E3
100
AcDbEntity
  8
0
  6
Continuous
100
AcDbLine
 10
149.7586668791108
 20
159.017273911379
 30
0.0
 11
149.7148087760096
 21
159.0194874113967
 31
0.0
  0
LINE
  5
1C2
330
E3
100
AcDbEntity
  8
0
  6
Continuous
100
AcDbLine
 10
149.7148087760096
 20
159.0194874113967
 30
0.0
 11
149.6709470911932
 21
159.0217044931296
 31
0.0
  0
LINE
  5
1C3
330
E3
100
AcDbEntity
  8
0
  6
Continuous
100
AcDbLine
 10
149.6709470911932
 20
159.0217044931296
 30
0.0
 11
149.6274149241787
 21
159.0238606857035
 31
0.0
  0
LINE
  5
1C4
330
E3
100
AcDbEntity
  8
0
  6
Continuous
100
AcDbLine
 10
149.6274149241787
 20
159.0238606857035
 30
0.0
 11
149.5845346293377
 21
159.0259022633897
 31
0.0
  0
LINE
  5
1C5
330
E3
100
AcDbEntity
  8
0
  6
Continuous
100
AcDbLine
 10
149.5845346293377
 20
159.0259022633897
 30
0.0
 11
149.5426213976113
 21
159.0277755004597
 31
0.0
  0
LINE
  5
1C6
330
E3
100
AcDbEntity
  8
0
  6
Continuous
100
AcDbLine
 10
149.5426213976113
 20
159.0277755004597
 30
0.0
 11
149.5019904199403
 21
159.0294195077544
 31
0.0
  0
LINE
  5
1C7
330
E3
100
AcDbEntity
  8
0
  6
Continuous
100
AcDbLine
 10
149.5019904199403
 20
159.0294195077544
 30
0.0
 11
149.4629425604051
 21
159.0307877229756
 31
0.0
  0
LINE
  5
1C8
330
E3
100
AcDbEntity
  8
0
  6
Continuous
100
AcDbLine
 10
149.4629425604051
 20
159.0307877229756
 30
0.0
 11
149.425771519655
 21
159.0318228386797
 31
0.0
  0
LINE
  5
1C9
330
E3
100
AcDbEntity
  8
0
  6
Continuous
100
AcDbLine
 10
149.425771519655
 20
159.0318228386797
 30
0.0
 11
149.3907459263332
 21
159.0324818742837
 31
0.0
  0
LINE
  5
1CA
330
E3
100
AcDbEntity
  8
0
  6
Continuous
100
AcDbLine
 10
149.3907459263332
 20
159.0324818742837
 30
0.0
 11
149.3581344090823
 21
159.032711104059
 31
0.0
  0
LINE
  5
1CB
330
E3
100
AcDbEntity
  8
0
  6
Continuous
100
AcDbLine
 10
149.3581344090823
 20
159.032711104059
 30
0.0
 11
149.3281661976778
 21
159.0324782925684
 31
0.0
  0
LINE
  5
1CC
330
E3
100
AcDbEntity
  8
0
  6
Continuous
100
AcDbLine
 10
149.3281661976778
 20
159.0324782925684
 30
0.0
 11
149.3010741036102
 21
159.031736877514
 31
0.0
  0
LINE
  5
1CD
330
E3
100
AcDbEntity
  8
0
  6
Continuous
100
AcDbLine
 10
149.3010741036102
 20
159.031736877514
 30
0.0
 11
149.2770479577872
 21
159.0304546234584
 31
0.0
  0
LINE
  5
1CE
330
E3
100
AcDbEntity
  8
0
  6
Continuous
100
AcDbLine
 10
149.2770479577872
 20
159.0304546234584
 30
0.0
 11
149.2562704276859
 21
159.0285992949646
 31
0.0
  0
LINE
  5
1CF
330
E3
100
AcDbEntity
  8
0
  6
Continuous
100
AcDbLine
 10
149.2562704276859
 20
159.0285992949646
 30
0.0
 11
149.2388883636312
 21
159.0261458200259
 31
0.0
  0
LINE
  5
1D0
330
E3
100
AcDbEntity
  8
0
  6
Continuous
100
AcDbLine
 10
149.2388883636312
 20
159.0261458200259
 30
0.0
 11
149.2250271256564
 21
159.0230691266356
 31
0.0
  0
LINE
  5
1D1
330
E3
100
AcDbEntity
  8
0
  6
Continuous
100
AcDbLine
 10
149.2250271256564
 20
159.0230691266356
 30
0.0
 11
149.2147870017882
 21
159.0193584696481
 31
0.0
  0
LINE
  5
1D2
330
E3
100
AcDbEntity
  8
0
  6
Continuous
100
AcDbLine
 10
149.2147870017882
 20
159.0193584696481
 30
0.0
 11
149.2082347052222
 21
159.014994495153
 31
0.0
  0
LINE
  5
1D3
330
E3
100
AcDbEntity
  8
0
  6
Continuous
100
AcDbLine
 10
149.2082347052222
 20
159.014994495153
 30
0.0
 11
149.2054172197153
 21
159.0099726709749
 31
0.0
  0
LINE
  5
1D4
330
E3
100
AcDbEntity
  8
0
  6
Continuous
100
AcDbLine
 10
150.1562503292709
 20
158.6436447155448
 30
0.0
 11
150.153432843764
 21
158.6386228913667
 31
0.0
  0
LINE
  5
1D5
330
E3
100
AcDbEntity
  8
0
  6
Continuous
100
AcDbLine
 10
150.153432843764
 20
158.6386228913667
 30
0.0
 11
150.1468821277693
 21
158.6342593364489
 31
0.0
  0
LINE
  5
1D6
330
E3
100
AcDbEntity
  8
0
  6
Continuous
100
AcDbLine
 10
150.1468821277693
 20
158.6342593364489
 30
0.0
 11
150.1366417065643
 21
158.6305453718815
 31
0.0
  0
LINE
  5
1D7
330
E3
100
AcDbEntity
  8
0
  6
Continuous
100
AcDbLine
 10
150.1366417065643
 20
158.6305453718815
 30
0.0
 11
150.1227804685895
 21
158.6274722602064
 31
0.0
  0
LINE
  5
1D8
330
E3
100
AcDbEntity
  8
0
  6
Continuous
100
AcDbLine
 10
150.1227804685895
 20
158.6274722602064
 30
0.0
 11
150.1053984045348
 21
158.6250187852677
 31
0.0
  0
LINE
  5
1D9
330
E3
100
AcDbEntity
  8
0
  6
Continuous
100
AcDbLine
 10
150.1053984045348
 20
158.6250187852677
 30
0.0
 11
150.0846172927182
 21
158.6231634567739
 31
0.0
  0
LINE
  5
1DA
330
E3
100
AcDbEntity
  8
0
  6
Continuous
100
AcDbLine
 10
150.0846172927182
 20
158.6231634567739
 30
0.0
 11
150.0605947286105
 21
158.6218812027184
 31
0.0
  0
LINE
  5
1DB
330
E3
100
AcDbEntity
  8
0
  6
Continuous
100
AcDbLine
 10
150.0605947286105
 20
158.6218812027184
 30
0.0
 11
150.0334990528276
 21
158.6211397876639
 31
0.0
  0
LINE
  5
1DC
330
E3
100
AcDbEntity
  8
0
  6
Continuous
100
AcDbLine
 10
150.0334990528276
 20
158.6211397876639
 30
0.0
 11
150.0035344231384
 21
158.6209033944581
 31
0.0
  0
LINE
  5
1DD
330
E3
100
AcDbEntity
  8
0
  6
Continuous
100
AcDbLine
 10
150.0035344231384
 20
158.6209033944581
 30
0.0
 11
149.9709193241723
 21
158.6211362059487
 31
0.0
  0
LINE
  5
1DE
330
E3
100
AcDbEntity
  8
0
  6
Continuous
100
AcDbLine
 10
149.9709193241723
 20
158.6211362059487
 30
0.0
 11
149.9358973125656
 21
158.6217952415527
 31
0.0
  0
LINE
  5
1DF
330
E3
100
AcDbEntity
  8
0
  6
Continuous
100
AcDbLine
 10
149.9358973125656
 20
158.6217952415527
 30
0.0
 11
149.8987226901004
 21
158.6228303572567
 31
0.0
  0
LINE
  5
1E0
330
E3
100
AcDbEntity
  8
0
  6
Continuous
100
AcDbLine
 10
149.8987226901004
 20
158.6228303572567
 30
0.0
 11
149.8596784122803
 21
158.6241949907628
 31
0.0
  0
LINE
  5
1E1
330
E3
100
AcDbEntity
  8
0
  6
Continuous
100
AcDbLine
 10
149.8596784122803
 20
158.6241949907628
 30
0.0
 11
149.8190474346094
 21
158.6258425797727
 31
0.0
  0
LINE
  5
1E2
330
E3
100
AcDbEntity
  8
0
  6
Continuous
100
AcDbLine
 10
149.8190474346094
 20
158.6258425797727
 30
0.0
 11
149.777134202883
 21
158.6277122351274
 31
0.0
  0
LINE
  5
1E3
330
E3
100
AcDbEntity
  8
0
  6
Continuous
100
AcDbLine
 10
149.777134202883
 20
158.6277122351274
 30
0.0
 11
149.7342503263268
 21
158.6297573945289
 31
0.0
  0
LINE
  5
1E4
330
E3
100
AcDbEntity
  8
0
  6
Continuous
100
AcDbLine
 10
149.7342503263268
 20
158.6297573945289
 30
0.0
 11
149.6907181593123
 21
158.6319135871027
 31
0.0
  0
LINE
  5
1E5
330
E3
100
AcDbEntity
  8
0
  6
Continuous
100
AcDbLine
 10
149.6907181593123
 20
158.6319135871027
 30
0.0
 11
149.6468600562111
 21
158.6341306688357
 31
0.0
  0
LINE
  5
1E6
330
E3
100
AcDbEntity
  8
0
  6
Continuous
100
AcDbLine
 10
149.6468600562111
 20
158.6341306688357
 30
0.0
 11
149.6029983713946
 21
158.6363441688533
 31
0.0
  0
LINE
  5
1E7
330
E3
100
AcDbEntity
  8
0
  6
Continuous
100
AcDbLine
 10
149.6029983713946
 20
158.6363441688533
 30
0.0
 11
149.5594662043802
 21
158.6385003614272
 31
0.0
  0
LINE
  5
1E8
330
E3
100
AcDbEntity
  8
0
  6
Continuous
100
AcDbLine
 10
149.5594662043802
 20
158.6385003614272
 30
0.0
 11
149.5165859095392
 21
158.6405455208287
 31
0.0
  0
LINE
  5
1E9
330
E3
100
AcDbEntity
  8
0
  6
Continuous
100
AcDbLine
 10
149.5165859095392
 20
158.6405455208287
 30
0.0
 11
149.4746726778127
 21
158.6424151761834
 31
0.0
  0
LINE
  5
1EA
330
E3
100
AcDbEntity
  8
0
  6
Continuous
100
AcDbLine
 10
149.4746726778127
 20
158.6424151761834
 30
0.0
 11
149.4340417001418
 21
158.6440627651933
 31
0.0
  0
LINE
  5
1EB
330
E3
100
AcDbEntity
  8
0
  6
Continuous
100
AcDbLine
 10
149.4340417001418
 20
158.6440627651933
 30
0.0
 11
149.3949938406066
 21
158.6454273986994
 31
0.0
  0
LINE
  5
1EC
330
E3
100
AcDbEntity
  8
0
  6
Continuous
100
AcDbLine
 10
149.3949938406066
 20
158.6454273986994
 30
0.0
 11
149.3578227998565
 21
158.6464625144035
 31
0.0
  0
LINE
  5
1ED
330
E3
100
AcDbEntity
  8
0
  6
Continuous
100
AcDbLine
 10
149.3578227998565
 20
158.6464625144035
 30
0.0
 11
149.3227972065346
 21
158.6471215500074
 31
0.0
  0
LINE
  5
1EE
330
E3
100
AcDbEntity
  8
0
  6
Continuous
100
AcDbLine
 10
149.3227972065346
 20
158.6471215500074
 30
0.0
 11
149.2901821075685
 21
158.647354361498
 31
0.0
  0
LINE
  5
1EF
330
E3
100
AcDbEntity
  8
0
  6
Continuous
100
AcDbLine
 10
149.2901821075685
 20
158.647354361498
 30
0.0
 11
149.2602174778793
 21
158.6471179682922
 31
0.0
  0
LINE
  5
1F0
330
E3
100
AcDbEntity
  8
0
  6
Continuous
100
AcDbLine
 10
149.2602174778793
 20
158.6471179682922
 30
0.0
 11
149.2331253838117
 21
158.6463765532377
 31
0.0
  0
LINE
  5
1F1
330
E3
100
AcDbEntity
  8
0
  6
Continuous
100
AcDbLine
 10
149.2331253838117
 20
158.6463765532377
 30
0.0
 11
149.2090992379887
 21
158.6450942991822
 31
0.0
  0
LINE
  5
1F2
330
E3
100
AcDbEntity
  8
0
  6
Continuous
100
AcDbLine
 10
149.2090992379887
 20
158.6450942991822
 30
0.0
 11
149.1883217078874
 21
158.6432389706883
 31
0.0
  0
LINE
  5
1F3
330
E3
100
AcDbEntity
  8
0
  6
Continuous
100
AcDbLine
 10
149.1883217078874
 20
158.6432389706883
 30
0.0
 11
149.1709396438327
 21
158.6407854957497
 31
0.0
  0
LINE
  5
1F4
330
E3
100
AcDbEntity
  8
0
  6
Continuous
100
AcDbLine
 10
149.1709396438327
 20
158.6407854957497
 30
0.0
 11
149.1570784058578
 21
158.6377123840746
 31
0.0
  0
LINE
  5
1F5
330
E3
100
AcDbEntity
  8
0
  6
Continuous
100
AcDbLine
 10
149.1570784058578
 20
158.6377123840746
 30
0.0
 11
149.1468347002744
 21
158.6339981453718
 31
0.0
  0
LINE
  5
1F6
330
E3
100
AcDbEntity
  8
0
  6
Continuous
100
AcDbLine
 10
149.1468347002744
 20
158.6339981453718
 30
0.0
 11
149.1402854183091
 21
158.6296349396265
 31
0.0
  0
LINE
  5
1F7
330
E3
100
AcDbEntity
  8
0
  6
Continuous
100
AcDbLine
 10
149.1402854183091
 20
158.6296349396265
 30
0.0
 11
149.1374679328021
 21
158.6246131154485
 31
0.0
  0
LINE
  5
1F8
330
E3
100
AcDbEntity
  8
0
  6
Continuous
100
AcDbLine
 10
150.0883010423578
 20
158.2582851600183
 30
0.0
 11
150.0854835568509
 21
158.2532633358402
 31
0.0
  0
LINE
  5
1F9
330
E3
100
AcDbEntity
  8
0
  6
Continuous
100
AcDbLine
 10
150.0854835568509
 20
158.2532633358402
 30
0.0
 11
150.0789328408561
 21
158.2488997809223
 31
0.0
  0
LINE
  5
1FA
330
E3
100
AcDbEntity
  8
0
  6
Continuous
100
AcDbLine
 10
150.0789328408561
 20
158.2488997809223
 30
0.0
 11
150.0686929867658
 21
158.2451886293204
 31
0.0
  0
LINE
  5
1FB
330
E3
100
AcDbEntity
  8
0
  6
Continuous
100
AcDbLine
 10
150.0686929867658
 20
158.2451886293204
 30
0.0
 11
150.054831748791
 21
158.2421119359302
 31
0.0
  0
LINE
  5
1FC
330
E3
100
AcDbEntity
  8
0
  6
Continuous
100
AcDbLine
 10
150.054831748791
 20
158.2421119359302
 30
0.0
 11
150.0374496847363
 21
158.2396584609915
 31
0.0
  0
LINE
  5
1FD
330
E3
100
AcDbEntity
  8
0
  6
Continuous
100
AcDbLine
 10
150.0374496847363
 20
158.2396584609915
 30
0.0
 11
150.0166685729197
 21
158.2378031324977
 31
0.0
  0
LINE
  5
1FE
330
E3
100
AcDbEntity
  8
0
  6
Continuous
100
AcDbLine
 10
150.0166685729197
 20
158.2378031324977
 30
0.0
 11
149.9926460088119
 21
158.2365208784421
 31
0.0
  0
LINE
  5
1FF
330
E3
100
AcDbEntity
  8
0
  6
Continuous
100
AcDbLine
 10
149.9926460088119
 20
158.2365208784421
 30
0.0
 11
149.9655503330291
 21
158.2357794633876
 31
0.0
  0
LINE
  5
200
330
E3
100
AcDbEntity
  8
0
  6
Continuous
100
AcDbLine
 10
149.9655503330291
 20
158.2357794633876
 30
0.0
 11
149.9355857033399
 21
158.2355466518971
 31
0.0
  0
LINE
  5
201
330
E3
100
AcDbEntity
  8
0
  6
Continuous
100
AcDbLine
 10
149.9355857033399
 20
158.2355466518971
 30
0.0
 11
149.9029706043738
 21
158.2357758816724
 31
0.0
  0
LINE
  5
202
330
E3
100
AcDbEntity
  8
0
  6
Continuous
100
AcDbLine
 10
149.9029706043738
 20
158.2357758816724
 30
0.0
 11
149.8679485927671
 21
158.2364349172764
 31
0.0
  0
LINE
  5
203
330
E3
100
AcDbEntity
  8
0
  6
Continuous
100
AcDbLine
 10
149.8679485927671
 20
158.2364349172764
 30
0.0
 11
149.8307739703018
 21
158.2374700329805
 31
0.0
  0
LINE
  5
204
330
E3
100
AcDbEntity
  8
0
  6
Continuous
100
AcDbLine
 10
149.8307739703018
 20
158.2374700329805
 30
0.0
 11
149.7917261107665
 21
158.2388382482017
 31
0.0
  0
LINE
  5
205
330
E3
100
AcDbEntity
  8
0
  6
Continuous
100
AcDbLine
 10
149.7917261107665
 20
158.2388382482017
 30
0.0
 11
149.7510951330956
 21
158.2404822554964
 31
0.0
  0
LINE
  5
206
330
E3
100
AcDbEntity
  8
0
  6
Continuous
100
AcDbLine
 10
149.7510951330956
 20
158.2404822554964
 30
0.0
 11
149.7091854830844
 21
158.2423554925664
 31
0.0
  0
LINE
  5
207
330
E3
100
AcDbEntity
  8
0
  6
Continuous
100
AcDbLine
 10
149.7091854830844
 20
158.2423554925664
 30
0.0
 11
149.6663016065282
 21
158.2443970702526
 31
0.0
  0
LINE
  5
208
330
E3
100
AcDbEntity
  8
0
  6
Continuous
100
AcDbLine
 10
149.6663016065282
 20
158.2443970702526
 30
0.0
 11
149.6227694395137
 21
158.2465532628265
 31
0.0
  0
LINE
  5
209
330
E3
100
AcDbEntity
  8
0
  6
Continuous
100
AcDbLine
 10
149.6227694395137
 20
158.2465532628265
 30
0.0
 11
149.5789113364125
 21
158.2487703445594
 31
0.0
  0
LINE
  5
20A
330
E3
100
AcDbEntity
  8
0
  6
Continuous
100
AcDbLine
 10
149.5789113364125
 20
158.2487703445594
 30
0.0
 11
149.5350496515961
 21
158.2509838445771
 31
0.0
  0
LINE
  5
20B
330
E3
100
AcDbEntity
  8
0
  6
Continuous
100
AcDbLine
 10
149.5350496515961
 20
158.2509838445771
 30
0.0
 11
149.4915174845816
 21
158.2531400371509
 31
0.0
  0
LINE
  5
20C
330
E3
100
AcDbEntity
  8
0
  6
Continuous
100
AcDbLine
 10
149.4915174845816
 20
158.2531400371509
 30
0.0
 11
149.4486336080254
 21
158.2551851965524
 31
0.0
  0
LINE
  5
20D
330
E3
100
AcDbEntity
  8
0
  6
Continuous
100
AcDbLine
 10
149.4486336080254
 20
158.2551851965524
 30
0.0
 11
149.4067239580142
 21
158.2570548519071
 31
0.0
  0
LINE
  5
20E
330
E3
100
AcDbEntity
  8
0
  6
Continuous
100
AcDbLine
 10
149.4067239580142
 20
158.2570548519071
 30
0.0
 11
149.3660929803433
 21
158.2587024409171
 31
0.0
  0
LINE
  5
20F
330
E3
100
AcDbEntity
  8
0
  6
Continuous
100
AcDbLine
 10
149.3660929803433
 20
158.2587024409171
 30
0.0
 11
149.327045120808
 21
158.2600670744231
 31
0.0
  0
LINE
  5
210
330
E3
100
AcDbEntity
  8
0
  6
Continuous
100
AcDbLine
 10
149.327045120808
 20
158.2600670744231
 30
0.0
 11
149.289874080058
 21
158.2611057718424
 31
0.0
  0
LINE
  5
211
330
E3
100
AcDbEntity
  8
0
  6
Continuous
100
AcDbLine
 10
149.289874080058
 20
158.2611057718424
 30
0.0
 11
149.254848486736
 21
158.2617612257312
 31
0.0
  0
LINE
  5
212
330
E3
100
AcDbEntity
  8
0
  6
Continuous
100
AcDbLine
 10
149.254848486736
 20
158.2617612257312
 30
0.0
 11
149.22223338777
 21
158.2619940372217
 31
0.0
  0
LINE
  5
213
330
E3
100
AcDbEntity
  8
0
  6
Continuous
100
AcDbLine
 10
149.22223338777
 20
158.2619940372217
 30
0.0
 11
149.1922687580807
 21
158.2617576440159
 31
0.0
  0
LINE
  5
214
330
E3
100
AcDbEntity
  8
0
  6
Continuous
100
AcDbLine
 10
149.1922687580807
 20
158.2617576440159
 30
0.0
 11
149.1651766640131
 21
158.2610162289614
 31
0.0
  0
LINE
  5
215
330
E3
100
AcDbEntity
  8
0
  6
Continuous
100
AcDbLine
 10
149.1651766640131
 20
158.2610162289614
 30
0.0
 11
149.1411505181901
 21
158.2597339749059
 31
0.0
  0
LINE
  5
216
330
E3
100
AcDbEntity
  8
0
  6
Continuous
100
AcDbLine
 10
149.1411505181901
 20
158.2597339749059
 30
0.0
 11
149.1203729880888
 21
158.2578786464121
 31
0.0
  0
LINE
  5
217
330
E3
100
AcDbEntity
  8
0
  6
Continuous
100
AcDbLine
 10
149.1203729880888
 20
158.2578786464121
 30
0.0
 11
149.1029909240341
 21
158.2554251714734
 31
0.0
  0
LINE
  5
218
330
E3
100
AcDbEntity
  8
0
  6
Continuous
100
AcDbLine
 10
149.1029909240341
 20
158.2554251714734
 30
0.0
 11
149.0891296860593
 21
158.2523520597984
 31
0.0
  0
LINE
  5
219
330
E3
100
AcDbEntity
  8
0
  6
Continuous
100
AcDbLine
 10
149.0891296860593
 20
158.2523520597984
 30
0.0
 11
149.0788859804758
 21
158.2486378210955
 31
0.0
  0
LINE
  5
21A
330
E3
100
AcDbEntity
  8
0
  6
Continuous
100
AcDbLine
 10
149.0788859804758
 20
158.2486378210955
 30
0.0
 11
149.0723361313959
 21
158.2442753841
 31
0.0
  0
LINE
  5
21B
330
E3
100
AcDbEntity
  8
0
  6
Continuous
100
AcDbLine
 10
149.0723361313959
 20
158.2442753841
 30
0.0
 11
149.069518645889
 21
158.2392535599219
 31
0.0
  0
LINE
  5
21C
330
E3
100
AcDbEntity
  8
0
  6
Continuous
100
AcDbLine
 10
150.0203517554446
 20
157.8729256044917
 30
0.0
 11
150.0175342699377
 21
157.8679037803137
 31
0.0
  0
LINE
  5
21D
330
E3
100
AcDbEntity
  8
0
  6
Continuous
100
AcDbLine
 10
150.0175342699377
 20
157.8679037803137
 30
0.0
 11
150.010983553943
 21
157.8635402253958
 31
0.0
  0
LINE
  5
21E
330
E3
100
AcDbEntity
  8
0
  6
Continuous
100
AcDbLine
 10
150.010983553943
 20
157.8635402253958
 30
0.0
 11
150.000740685252
 21
157.8598283050442
 31
0.0
  0
LINE
  5
21F
330
E3
100
AcDbEntity
  8
0
  6
Continuous
100
AcDbLine
 10
150.000740685252
 20
157.8598283050442
 30
0.0
 11
149.9868794472772
 21
157.8567516116539
 31
0.0
  0
LINE
  5
220
330
E3
100
AcDbEntity
  8
0
  6
Continuous
100
AcDbLine
 10
149.9868794472772
 20
157.8567516116539
 30
0.0
 11
149.9694973832224
 21
157.8542981367152
 31
0.0
  0
LINE
  5
221
330
E3
100
AcDbEntity
  8
0
  6
Continuous
100
AcDbLine
 10
149.9694973832224
 20
157.8542981367152
 30
0.0
 11
149.9487198531212
 21
157.8524428082214
 31
0.0
  0
LINE
  5
222
330
E3
100
AcDbEntity
  8
0
  6
Continuous
100
AcDbLine
 10
149.9487198531212
 20
157.8524428082214
 30
0.0
 11
149.9246937072982
 21
157.8511605541658
 31
0.0
  0
LINE
  5
223
330
E3
100
AcDbEntity
  8
0
  6
Continuous
100
AcDbLine
 10
149.9246937072982
 20
157.8511605541658
 30
0.0
 11
149.8976016132306
 21
157.8504191391114
 31
0.0
  0
LINE
  5
224
330
E3
100
AcDbEntity
  8
0
  6
Continuous
100
AcDbLine
 10
149.8976016132306
 20
157.8504191391114
 30
0.0
 11
149.8676369835413
 21
157.8501863276209
 31
0.0
  0
LINE
  5
225
330
E3
100
AcDbEntity
  8
0
  6
Continuous
100
AcDbLine
 10
149.8676369835413
 20
157.8501863276209
 30
0.0
 11
149.8350218845753
 21
157.8504191391114
 31
0.0
  0
LINE
  5
226
330
E3
100
AcDbEntity
  8
0
  6
Continuous
100
AcDbLine
 10
149.8350218845753
 20
157.8504191391114
 30
0.0
 11
149.7999962912533
 21
157.8510745930001
 31
0.0
  0
LINE
  5
227
330
E3
100
AcDbEntity
  8
0
  6
Continuous
100
AcDbLine
 10
149.7999962912533
 20
157.8510745930001
 30
0.0
 11
149.7628252505033
 21
157.8521097087042
 31
0.0
  0
LINE
  5
228
330
E3
100
AcDbEntity
  8
0
  6
Continuous
100
AcDbLine
 10
149.7628252505033
 20
157.8521097087042
 30
0.0
 11
149.723777390968
 21
157.8534779239255
 31
0.0
  0
LINE
  5
229
330
E3
100
AcDbEntity
  8
0
  6
Continuous
100
AcDbLine
 10
149.723777390968
 20
157.8534779239255
 30
0.0
 11
149.6831464132971
 21
157.8551219312202
 31
0.0
  0
LINE
  5
22A
330
E3
100
AcDbEntity
  8
0
  6
Continuous
100
AcDbLine
 10
149.6831464132971
 20
157.8551219312202
 30
0.0
 11
149.6412367632859
 21
157.8569951682902
 31
0.0
  0
LINE
  5
22B
330
E3
100
AcDbEntity
  8
0
  6
Continuous
100
AcDbLine
 10
149.6412367632859
 20
157.8569951682902
 30
0.0
 11
149.5983528867297
 21
157.8590367459764
 31
0.0
  0
LINE
  5
22C
330
E3
100
AcDbEntity
  8
0
  6
Continuous
100
AcDbLine
 10
149.5983528867297
 20
157.8590367459764
 30
0.0
 11
149.5548207197152
 21
157.8611965202655
 31
0.0
  0
LINE
  5
22D
330
E3
100
AcDbEntity
  8
0
  6
Continuous
100
AcDbLine
 10
149.5548207197152
 20
157.8611965202655
 30
0.0
 11
149.5109590348987
 21
157.8634100202831
 31
0.0
  0
LINE
  5
22E
330
E3
100
AcDbEntity
  8
0
  6
Continuous
100
AcDbLine
 10
149.5109590348987
 20
157.8634100202831
 30
0.0
 11
149.4671009317975
 21
157.8656235203008
 31
0.0
  0
LINE
  5
22F
330
E3
100
AcDbEntity
  8
0
  6
Continuous
100
AcDbLine
 10
149.4671009317975
 20
157.8656235203008
 30
0.0
 11
149.4235687647831
 21
157.8677832945899
 31
0.0
  0
LINE
  5
230
330
E3
100
AcDbEntity
  8
0
  6
Continuous
100
AcDbLine
 10
149.4235687647831
 20
157.8677832945899
 30
0.0
 11
149.3806848882269
 21
157.8698248722762
 31
0.0
  0
LINE
  5
231
330
E3
100
AcDbEntity
  8
0
  6
Continuous
100
AcDbLine
 10
149.3806848882269
 20
157.8698248722762
 30
0.0
 11
149.3387752382156
 21
157.8716981093461
 31
0.0
  0
LINE
  5
232
330
E3
100
AcDbEntity
  8
0
  6
Continuous
100
AcDbLine
 10
149.3387752382156
 20
157.8716981093461
 30
0.0
 11
149.2981442605447
 21
157.8733421166408
 31
0.0
  0
LINE
  5
233
330
E3
100
AcDbEntity
  8
0
  6
Continuous
100
AcDbLine
 10
149.2981442605447
 20
157.8733421166408
 30
0.0
 11
149.2590964010095
 21
157.8747103318621
 31
0.0
  0
LINE
  5
234
330
E3
100
AcDbEntity
  8
0
  6
Continuous
100
AcDbLine
 10
149.2590964010095
 20
157.8747103318621
 30
0.0
 11
149.2219217785442
 21
157.8757454475662
 31
0.0
  0
LINE
  5
235
330
E3
100
AcDbEntity
  8
0
  6
Continuous
100
AcDbLine
 10
149.2219217785442
 20
157.8757454475662
 30
0.0
 11
149.1868997669375
 21
157.8764009014549
 31
0.0
  0
LINE
  5
236
330
E3
100
AcDbEntity
  8
0
  6
Continuous
100
AcDbLine
 10
149.1868997669375
 20
157.8764009014549
 30
0.0
 11
149.1542846679714
 21
157.8766337129454
 31
0.0
  0
LINE
  5
237
330
E3
100
AcDbEntity
  8
0
  6
Continuous
100
AcDbLine
 10
149.1542846679714
 20
157.8766337129454
 30
0.0
 11
149.1243200382822
 21
157.8763973197397
 31
0.0
  0
LINE
  5
238
330
E3
100
AcDbEntity
  8
0
  6
Continuous
100
AcDbLine
 10
149.1243200382822
 20
157.8763973197397
 30
0.0
 11
149.0972243624994
 21
157.8756559046852
 31
0.0
  0
LINE
  5
239
330
E3
100
AcDbEntity
  8
0
  6
Continuous
100
AcDbLine
 10
149.0972243624994
 20
157.8756559046852
 30
0.0
 11
149.0732017983916
 21
157.8743736506297
 31
0.0
  0
LINE
  5
23A
330
E3
100
AcDbEntity
  8
0
  6
Continuous
100
AcDbLine
 10
149.0732017983916
 20
157.8743736506297
 30
0.0
 11
149.052420686575
 21
157.8725219038511
 31
0.0
  0
LINE
  5
23B
330
E3
100
AcDbEntity
  8
0
  6
Continuous
100
AcDbLine
 10
149.052420686575
 20
157.8725219038511
 30
0.0
 11
149.0350386225203
 21
157.8700684289124
 31
0.0
  0
LINE
  5
23C
330
E3
100
AcDbEntity
  8
0
  6
Continuous
100
AcDbLine
 10
149.0350386225203
 20
157.8700684289124
 30
0.0
 11
149.0211773845455
 21
157.8669917355221
 31
0.0
  0
LINE
  5
23D
330
E3
100
AcDbEntity
  8
0
  6
Continuous
100
AcDbLine
 10
149.0211773845455
 20
157.8669917355221
 30
0.0
 11
149.0109372606773
 21
157.8632810785346
 31
0.0
  0
LINE
  5
23E
330
E3
100
AcDbEntity
  8
0
  6
Continuous
100
AcDbLine
 10
149.0109372606773
 20
157.8632810785346
 30
0.0
 11
149.0043868444828
 21
157.8589158285735
 31
0.0
  0
LINE
  5
23F
330
E3
100
AcDbEntity
  8
0
  6
Continuous
100
AcDbLine
 10
149.0043868444828
 20
157.8589158285735
 30
0.0
 11
149.0015693589758
 21
157.8538940043954
 31
0.0
  0
LINE
  5
240
330
E3
100
AcDbEntity
  8
0
  6
Continuous
100
AcDbLine
 10
149.9524024685315
 20
157.4875660489652
 30
0.0
 11
149.9495849830246
 21
157.4825442247871
 31
0.0
  0
LINE
  5
241
330
E3
100
AcDbEntity
  8
0
  6
Continuous
100
AcDbLine
 10
149.9495849830246
 20
157.4825442247871
 30
0.0
 11
149.9430342670298
 21
157.4781806698693
 31
0.0
  0
LINE
  5
242
330
E3
100
AcDbEntity
  8
0
  6
Continuous
100
AcDbLine
 10
149.9430342670298
 20
157.4781806698693
 30
0.0
 11
149.9327919654534
 21
157.4744679807679
 31
0.0
  0
LINE
  5
243
330
E3
100
AcDbEntity
  8
0
  6
Continuous
100
AcDbLine
 10
149.9327919654534
 20
157.4744679807679
 30
0.0
 11
149.9189307274787
 21
157.4713948690929
 31
0.0
  0
LINE
  5
244
330
E3
100
AcDbEntity
  8
0
  6
Continuous
100
AcDbLine
 10
149.9189307274787
 20
157.4713948690929
 30
0.0
 11
149.9015486634239
 21
157.4689413941542
 31
0.0
  0
LINE
  5
245
330
E3
100
AcDbEntity
  8
0
  6
Continuous
100
AcDbLine
 10
149.9015486634239
 20
157.4689413941542
 30
0.0
 11
149.8807711333226
 21
157.4670860656604
 31
0.0
  0
LINE
  5
246
330
E3
100
AcDbEntity
  8
0
  6
Continuous
100
AcDbLine
 10
149.8807711333226
 20
157.4670860656604
 30
0.0
 11
149.8567449874996
 21
157.4658038116048
 31
0.0
  0
LINE
  5
247
330
E3
100
AcDbEntity
  8
0
  6
Continuous
100
AcDbLine
 10
149.8567449874996
 20
157.4658038116048
 30
0.0
 11
149.829652893432
 21
157.4650623965504
 31
0.0
  0
LINE
  5
248
330
E3
100
AcDbEntity
  8
0
  6
Continuous
100
AcDbLine
 10
149.829652893432
 20
157.4650623965504
 30
0.0
 11
149.7996882637428
 21
157.4648260033446
 31
0.0
  0
LINE
  5
249
330
E3
100
AcDbEntity
  8
0
  6
Continuous
100
AcDbLine
 10
149.7996882637428
 20
157.4648260033446
 30
0.0
 11
149.7670731647767
 21
157.4650588148351
 31
0.0
  0
LINE
  5
24A
330
E3
100
AcDbEntity
  8
0
  6
Continuous
100
AcDbLine
 10
149.7670731647767
 20
157.4650588148351
 30
0.0
 11
149.7320475714548
 21
157.4657142687238
 31
0.0
  0
LINE
  5
24B
330
E3
100
AcDbEntity
  8
0
  6
Continuous
100
AcDbLine
 10
149.7320475714548
 20
157.4657142687238
 30
0.0
 11
149.6948765307047
 21
157.4667529661432
 31
0.0
  0
LINE
  5
24C
330
E3
100
AcDbEntity
  8
0
  6
Continuous
100
AcDbLine
 10
149.6948765307047
 20
157.4667529661432
 30
0.0
 11
149.6558286711695
 21
157.4681175996492
 31
0.0
  0
LINE
  5
24D
330
E3
100
AcDbEntity
  8
0
  6
Continuous
100
AcDbLine
 10
149.6558286711695
 20
157.4681175996492
 30
0.0
 11
149.6151976934986
 21
157.4697651886591
 31
0.0
  0
LINE
  5
24E
330
E3
100
AcDbEntity
  8
0
  6
Continuous
100
AcDbLine
 10
149.6151976934986
 20
157.4697651886591
 30
0.0
 11
149.5732844617721
 21
157.4716348440139
 31
0.0
  0
LINE
  5
24F
330
E3
100
AcDbEntity
  8
0
  6
Continuous
100
AcDbLine
 10
149.5732844617721
 20
157.4716348440139
 30
0.0
 11
149.5304041669311
 21
157.4736764217001
 31
0.0
  0
LINE
  5
250
330
E3
100
AcDbEntity
  8
0
  6
Continuous
100
AcDbLine
 10
149.5304041669311
 20
157.4736764217001
 30
0.0
 11
149.4868719999167
 21
157.4758361959892
 31
0.0
  0
LINE
  5
251
330
E3
100
AcDbEntity
  8
0
  6
Continuous
100
AcDbLine
 10
149.4868719999167
 20
157.4758361959892
 30
0.0
 11
149.4430103151002
 21
157.4780496960069
 31
0.0
  0
LINE
  5
252
330
E3
100
AcDbEntity
  8
0
  6
Continuous
100
AcDbLine
 10
149.4430103151002
 20
157.4780496960069
 30
0.0
 11
149.399152211999
 21
157.4802667777398
 31
0.0
  0
LINE
  5
253
330
E3
100
AcDbEntity
  8
0
  6
Continuous
100
AcDbLine
 10
149.399152211999
 20
157.4802667777398
 30
0.0
 11
149.3556200449845
 21
157.4824229703137
 31
0.0
  0
LINE
  5
254
330
E3
100
AcDbEntity
  8
0
  6
Continuous
100
AcDbLine
 10
149.3556200449845
 20
157.4824229703137
 30
0.0
 11
149.3127361684283
 21
157.4844645479999
 31
0.0
  0
LINE
  5
255
330
E3
100
AcDbEntity
  8
0
  6
Continuous
100
AcDbLine
 10
149.3127361684283
 20
157.4844645479999
 30
0.0
 11
149.2708229367018
 21
157.4863377850699
 31
0.0
  0
LINE
  5
256
330
E3
100
AcDbEntity
  8
0
  6
Continuous
100
AcDbLine
 10
149.2708229367018
 20
157.4863377850699
 30
0.0
 11
149.230191959031
 21
157.4879817923646
 31
0.0
  0
LINE
  5
257
330
E3
100
AcDbEntity
  8
0
  6
Continuous
100
AcDbLine
 10
149.230191959031
 20
157.4879817923646
 30
0.0
 11
149.1911476812109
 21
157.4893500075858
 31
0.0
  0
LINE
  5
258
330
E3
100
AcDbEntity
  8
0
  6
Continuous
100
AcDbLine
 10
149.1911476812109
 20
157.4893500075858
 30
0.0
 11
149.1539730587456
 21
157.4903851232899
 31
0.0
  0
LINE
  5
259
330
E3
100
AcDbEntity
  8
0
  6
Continuous
100
AcDbLine
 10
149.1539730587456
 20
157.4903851232899
 30
0.0
 11
149.1189510471389
 21
157.4910405771786
 31
0.0
  0
LINE
  5
25A
330
E3
100
AcDbEntity
  8
0
  6
Continuous
100
AcDbLine
 10
149.1189510471389
 20
157.4910405771786
 30
0.0
 11
149.0863359481729
 21
157.4912733886692
 31
0.0
  0
LINE
  5
25B
330
E3
100
AcDbEntity
  8
0
  6
Continuous
100
AcDbLine
 10
149.0863359481729
 20
157.4912733886692
 30
0.0
 11
149.0563713184837
 21
157.4910405771786
 31
0.0
  0
LINE
  5
25C
330
E3
100
AcDbEntity
  8
0
  6
Continuous
100
AcDbLine
 10
149.0563713184837
 20
157.4910405771786
 30
0.0
 11
149.0292756427008
 21
157.4902991621242
 31
0.0
  0
LINE
  5
25D
330
E3
100
AcDbEntity
  8
0
  6
Continuous
100
AcDbLine
 10
149.0292756427008
 20
157.4902991621242
 30
0.0
 11
149.005253078593
 21
157.4890169080686
 31
0.0
  0
LINE
  5
25E
330
E3
100
AcDbEntity
  8
0
  6
Continuous
100
AcDbLine
 10
149.005253078593
 20
157.4890169080686
 30
0.0
 11
148.9844719667765
 21
157.4871615795749
 31
0.0
  0
LINE
  5
25F
330
E3
100
AcDbEntity
  8
0
  6
Continuous
100
AcDbLine
 10
148.9844719667765
 20
157.4871615795749
 30
0.0
 11
148.9670899027218
 21
157.4847081046361
 31
0.0
  0
LINE
  5
260
330
E3
100
AcDbEntity
  8
0
  6
Continuous
100
AcDbLine
 10
148.9670899027218
 20
157.4847081046361
 30
0.0
 11
148.953228664747
 21
157.4816314112459
 31
0.0
  0
LINE
  5
261
330
E3
100
AcDbEntity
  8
0
  6
Continuous
100
AcDbLine
 10
148.953228664747
 20
157.4816314112459
 30
0.0
 11
148.9429885408787
 21
157.4779207542583
 31
0.0
  0
LINE
  5
262
330
E3
100
AcDbEntity
  8
0
  6
Continuous
100
AcDbLine
 10
148.9429885408787
 20
157.4779207542583
 30
0.0
 11
148.9364375575696
 21
157.4735562730469
 31
0.0
  0
LINE
  5
263
330
E3
100
AcDbEntity
  8
0
  6
Continuous
100
AcDbLine
 10
148.9364375575696
 20
157.4735562730469
 30
0.0
 11
148.9336200720627
 21
157.4685344488689
 31
0.0
  0
LINE
  5
264
330
E3
100
AcDbEntity
  8
0
  6
Continuous
100
AcDbLine
 10
149.8844531816183
 20
157.1022064934387
 30
0.0
 11
149.8816356961114
 21
157.0971846692607
 31
0.0
  0
LINE
  5
265
330
E3
100
AcDbEntity
  8
0
  6
Continuous
100
AcDbLine
 10
149.8816356961114
 20
157.0971846692607
 30
0.0
 11
149.8750849801167
 21
157.0928211143428
 31
0.0
  0
LINE
  5
266
330
E3
100
AcDbEntity
  8
0
  6
Continuous
100
AcDbLine
 10
149.8750849801167
 20
157.0928211143428
 30
0.0
 11
149.8648432456549
 21
157.0891076564917
 31
0.0
  0
LINE
  5
267
330
E3
100
AcDbEntity
  8
0
  6
Continuous
100
AcDbLine
 10
149.8648432456549
 20
157.0891076564917
 30
0.0
 11
149.8509820076801
 21
157.0860345448166
 31
0.0
  0
LINE
  5
268
330
E3
100
AcDbEntity
  8
0
  6
Continuous
100
AcDbLine
 10
149.8509820076801
 20
157.0860345448166
 30
0.0
 11
149.8335999436254
 21
157.0835810698779
 31
0.0
  0
LINE
  5
269
330
E3
100
AcDbEntity
  8
0
  6
Continuous
100
AcDbLine
 10
149.8335999436254
 20
157.0835810698779
 30
0.0
 11
149.8128224135241
 21
157.0817257413842
 31
0.0
  0
LINE
  5
26A
330
E3
100
AcDbEntity
  8
0
  6
Continuous
100
AcDbLine
 10
149.8128224135241
 20
157.0817257413842
 30
0.0
 11
149.7887962677011
 21
157.0804434873286
 31
0.0
  0
LINE
  5
26B
330
E3
100
AcDbEntity
  8
0
  6
Continuous
100
AcDbLine
 10
149.7887962677011
 20
157.0804434873286
 30
0.0
 11
149.7617041736335
 21
157.0797020722741
 31
0.0
  0
LINE
  5
26C
330
E3
100
AcDbEntity
  8
0
  6
Continuous
100
AcDbLine
 10
149.7617041736335
 20
157.0797020722741
 30
0.0
 11
149.7317395439442
 21
157.0794656790684
 31
0.0
  0
LINE
  5
26D
330
E3
100
AcDbEntity
  8
0
  6
Continuous
100
AcDbLine
 10
149.7317395439442
 20
157.0794656790684
 30
0.0
 11
149.6991244449782
 21
157.0796984905589
 31
0.0
  0
LINE
  5
26E
330
E3
100
AcDbEntity
  8
0
  6
Continuous
100
AcDbLine
 10
149.6991244449782
 20
157.0796984905589
 30
0.0
 11
149.6640988516562
 21
157.0803575261629
 31
0.0
  0
LINE
  5
26F
330
E3
100
AcDbEntity
  8
0
  6
Continuous
100
AcDbLine
 10
149.6640988516562
 20
157.0803575261629
 30
0.0
 11
149.6269278109062
 21
157.0813926418669
 31
0.0
  0
LINE
  5
270
330
E3
100
AcDbEntity
  8
0
  6
Continuous
100
AcDbLine
 10
149.6269278109062
 20
157.0813926418669
 30
0.0
 11
149.5878799513709
 21
157.082757275373
 31
0.0
  0
LINE
  5
271
330
E3
100
AcDbEntity
  8
0
  6
Continuous
100
AcDbLine
 10
149.5878799513709
 20
157.082757275373
 30
0.0
 11
149.5472489737
 21
157.0844048643829
 31
0.0
  0
LINE
  5
272
330
E3
100
AcDbEntity
  8
0
  6
Continuous
100
AcDbLine
 10
149.5472489737
 20
157.0844048643829
 30
0.0
 11
149.5053357419736
 21
157.0862745197376
 31
0.0
  0
LINE
  5
273
330
E3
100
AcDbEntity
  8
0
  6
Continuous
100
AcDbLine
 10
149.5053357419736
 20
157.0862745197376
 30
0.0
 11
149.4624554471326
 21
157.0883196791391
 31
0.0
  0
LINE
  5
274
330
E3
100
AcDbEntity
  8
0
  6
Continuous
100
AcDbLine
 10
149.4624554471326
 20
157.0883196791391
 30
0.0
 11
149.4189232801181
 21
157.090475871713
 31
0.0
  0
LINE
  5
275
330
E3
100
AcDbEntity
  8
0
  6
Continuous
100
AcDbLine
 10
149.4189232801181
 20
157.090475871713
 30
0.0
 11
149.3750615953017
 21
157.0926893717306
 31
0.0
  0
LINE
  5
276
330
E3
100
AcDbEntity
  8
0
  6
Continuous
100
AcDbLine
 10
149.3750615953017
 20
157.0926893717306
 30
0.0
 11
149.3312034922005
 21
157.0949064534636
 31
0.0
  0
LINE
  5
277
330
E3
100
AcDbEntity
  8
0
  6
Continuous
100
AcDbLine
 10
149.3312034922005
 20
157.0949064534636
 30
0.0
 11
149.2876677434707
 21
157.0970626460374
 31
0.0
  0
LINE
  5
278
330
E3
100
AcDbEntity
  8
0
  6
Continuous
100
AcDbLine
 10
149.2876677434707
 20
157.0970626460374
 30
0.0
 11
149.2447874486298
 21
157.0991042237236
 31
0.0
  0
LINE
  5
279
330
E3
100
AcDbEntity
  8
0
  6
Continuous
100
AcDbLine
 10
149.2447874486298
 20
157.0991042237236
 30
0.0
 11
149.2028742169033
 21
157.1009774607936
 31
0.0
  0
LINE
  5
27A
330
E3
100
AcDbEntity
  8
0
  6
Continuous
100
AcDbLine
 10
149.2028742169033
 20
157.1009774607936
 30
0.0
 11
149.1622432392325
 21
157.1026214680883
 31
0.0
  0
LINE
  5
27B
330
E3
100
AcDbEntity
  8
0
  6
Continuous
100
AcDbLine
 10
149.1622432392325
 20
157.1026214680883
 30
0.0
 11
149.1231989614124
 21
157.1039896833096
 31
0.0
  0
LINE
  5
27C
330
E3
100
AcDbEntity
  8
0
  6
Continuous
100
AcDbLine
 10
149.1231989614124
 20
157.1039896833096
 30
0.0
 11
149.0860243389471
 21
157.1050247990137
 31
0.0
  0
LINE
  5
27D
330
E3
100
AcDbEntity
  8
0
  6
Continuous
100
AcDbLine
 10
149.0860243389471
 20
157.1050247990137
 30
0.0
 11
149.0510023273404
 21
157.1056838346176
 31
0.0
  0
LINE
  5
27E
330
E3
100
AcDbEntity
  8
0
  6
Continuous
100
AcDbLine
 10
149.0510023273404
 20
157.1056838346176
 30
0.0
 11
149.0183872283743
 21
157.1059130643929
 31
0.0
  0
LINE
  5
27F
330
E3
100
AcDbEntity
  8
0
  6
Continuous
100
AcDbLine
 10
149.0183872283743
 20
157.1059130643929
 30
0.0
 11
148.9884225986851
 21
157.1056802529024
 31
0.0
  0
LINE
  5
280
330
E3
100
AcDbEntity
  8
0
  6
Continuous
100
AcDbLine
 10
148.9884225986851
 20
157.1056802529024
 30
0.0
 11
148.9613269229023
 21
157.1049388378479
 31
0.0
  0
LINE
  5
281
330
E3
100
AcDbEntity
  8
0
  6
Continuous
100
AcDbLine
 10
148.9613269229023
 20
157.1049388378479
 30
0.0
 11
148.9373043587945
 21
157.1036565837924
 31
0.0
  0
LINE
  5
282
330
E3
100
AcDbEntity
  8
0
  6
Continuous
100
AcDbLine
 10
148.9373043587945
 20
157.1036565837924
 30
0.0
 11
148.916523246978
 21
157.1018012552986
 31
0.0
  0
LINE
  5
283
330
E3
100
AcDbEntity
  8
0
  6
Continuous
100
AcDbLine
 10
148.916523246978
 20
157.1018012552986
 30
0.0
 11
148.8991411829232
 21
157.0993477803599
 31
0.0
  0
LINE
  5
284
330
E3
100
AcDbEntity
  8
0
  6
Continuous
100
AcDbLine
 10
148.8991411829232
 20
157.0993477803599
 30
0.0
 11
148.8852799449484
 21
157.0962746686849
 31
0.0
  0
LINE
  5
285
330
E3
100
AcDbEntity
  8
0
  6
Continuous
100
AcDbLine
 10
148.8852799449484
 20
157.0962746686849
 30
0.0
 11
148.8750398210802
 21
157.092560429982
 31
0.0
  0
LINE
  5
286
330
E3
100
AcDbEntity
  8
0
  6
Continuous
100
AcDbLine
 10
148.8750398210802
 20
157.092560429982
 30
0.0
 11
148.8684882706565
 21
157.0881967175204
 31
0.0
  0
LINE
  5
287
330
E3
100
AcDbEntity
  8
0
  6
Continuous
100
AcDbLine
 10
148.8684882706565
 20
157.0881967175204
 30
0.0
 11
148.8656707851496
 21
157.0831748933424
 31
0.0
  0
LINE
  5
288
330
E3
100
AcDbEntity
  8
0
  6
Continuous
100
AcDbLine
 10
149.8165038947052
 20
156.7168469379122
 30
0.0
 11
149.8136864091983
 21
156.7118251137341
 31
0.0
  0
LINE
  5
289
330
E3
100
AcDbEntity
  8
0
  6
Continuous
100
AcDbLine
 10
149.8136864091983
 20
156.7118251137341
 30
0.0
 11
149.8071356932035
 21
156.7074615588163
 31
0.0
  0
LINE
  5
28A
330
E3
100
AcDbEntity
  8
0
  6
Continuous
100
AcDbLine
 10
149.8071356932035
 20
156.7074615588163
 30
0.0
 11
149.7968945258564
 21
156.7037473322154
 31
0.0
  0
LINE
  5
28B
330
E3
100
AcDbEntity
  8
0
  6
Continuous
100
AcDbLine
 10
149.7968945258564
 20
156.7037473322154
 30
0.0
 11
149.7830332878816
 21
156.7006742205404
 31
0.0
  0
LINE
  5
28C
330
E3
100
AcDbEntity
  8
0
  6
Continuous
100
AcDbLine
 10
149.7830332878816
 20
156.7006742205404
 30
0.0
 11
149.7656512238268
 21
156.6982207456017
 31
0.0
  0
LINE
  5
28D
330
E3
100
AcDbEntity
  8
0
  6
Continuous
100
AcDbLine
 10
149.7656512238268
 20
156.6982207456017
 30
0.0
 11
149.7448701120103
 21
156.6963654171079
 31
0.0
  0
LINE
  5
28E
330
E3
100
AcDbEntity
  8
0
  6
Continuous
100
AcDbLine
 10
149.7448701120103
 20
156.6963654171079
 30
0.0
 11
149.7208475479025
 21
156.6950831630523
 31
0.0
  0
LINE
  5
28F
330
E3
100
AcDbEntity
  8
0
  6
Continuous
100
AcDbLine
 10
149.7208475479025
 20
156.6950831630523
 30
0.0
 11
149.6937518721197
 21
156.6943417479979
 31
0.0
  0
LINE
  5
290
330
E3
100
AcDbEntity
  8
0
  6
Continuous
100
AcDbLine
 10
149.6937518721197
 20
156.6943417479979
 30
0.0
 11
149.6637872424305
 21
156.6941089365073
 31
0.0
  0
LINE
  5
291
330
E3
100
AcDbEntity
  8
0
  6
Continuous
100
AcDbLine
 10
149.6637872424305
 20
156.6941089365073
 30
0.0
 11
149.6311721434644
 21
156.6943381662826
 31
0.0
  0
LINE
  5
292
330
E3
100
AcDbEntity
  8
0
  6
Continuous
100
AcDbLine
 10
149.6311721434644
 20
156.6943381662826
 30
0.0
 11
149.5961501318577
 21
156.6949972018866
 31
0.0
  0
LINE
  5
293
330
E3
100
AcDbEntity
  8
0
  6
Continuous
100
AcDbLine
 10
149.5961501318577
 20
156.6949972018866
 30
0.0
 11
149.5589755093924
 21
156.6960323175907
 31
0.0
  0
LINE
  5
294
330
E3
100
AcDbEntity
  8
0
  6
Continuous
100
AcDbLine
 10
149.5589755093924
 20
156.6960323175907
 30
0.0
 11
149.5199312315724
 21
156.6974005328119
 31
0.0
  0
LINE
  5
295
330
E3
100
AcDbEntity
  8
0
  6
Continuous
100
AcDbLine
 10
149.5199312315724
 20
156.6974005328119
 30
0.0
 11
149.4793002539015
 21
156.6990445401066
 31
0.0
  0
LINE
  5
296
330
E3
100
AcDbEntity
  8
0
  6
Continuous
100
AcDbLine
 10
149.4793002539015
 20
156.6990445401066
 30
0.0
 11
149.437387022175
 21
156.7009177771766
 31
0.0
  0
LINE
  5
297
330
E3
100
AcDbEntity
  8
0
  6
Continuous
100
AcDbLine
 10
149.437387022175
 20
156.7009177771766
 30
0.0
 11
149.3945067273341
 21
156.7029593548628
 31
0.0
  0
LINE
  5
298
330
E3
100
AcDbEntity
  8
0
  6
Continuous
100
AcDbLine
 10
149.3945067273341
 20
156.7029593548628
 30
0.0
 11
149.3509709786043
 21
156.7051155474367
 31
0.0
  0
LINE
  5
299
330
E3
100
AcDbEntity
  8
0
  6
Continuous
100
AcDbLine
 10
149.3509709786043
 20
156.7051155474367
 30
0.0
 11
149.3071128755031
 21
156.7073326291696
 31
0.0
  0
LINE
  5
29A
330
E3
100
AcDbEntity
  8
0
  6
Continuous
100
AcDbLine
 10
149.3071128755031
 20
156.7073326291696
 30
0.0
 11
149.2632547724019
 21
156.7095461291873
 31
0.0
  0
LINE
  5
29B
330
E3
100
AcDbEntity
  8
0
  6
Continuous
100
AcDbLine
 10
149.2632547724019
 20
156.7095461291873
 30
0.0
 11
149.2197190236722
 21
156.7117023217612
 31
0.0
  0
LINE
  5
29C
330
E3
100
AcDbEntity
  8
0
  6
Continuous
100
AcDbLine
 10
149.2197190236722
 20
156.7117023217612
 30
0.0
 11
149.1768387288312
 21
156.7137474811626
 31
0.0
  0
LINE
  5
29D
330
E3
100
AcDbEntity
  8
0
  6
Continuous
100
AcDbLine
 10
149.1768387288312
 20
156.7137474811626
 30
0.0
 11
149.1349254971048
 21
156.7156171365174
 31
0.0
  0
LINE
  5
29E
330
E3
100
AcDbEntity
  8
0
  6
Continuous
100
AcDbLine
 10
149.1349254971048
 20
156.7156171365174
 30
0.0
 11
149.0942945194338
 21
156.7172647255273
 31
0.0
  0
LINE
  5
29F
330
E3
100
AcDbEntity
  8
0
  6
Continuous
100
AcDbLine
 10
149.0942945194338
 20
156.7172647255273
 30
0.0
 11
149.0552466598986
 21
156.7186293590333
 31
0.0
  0
LINE
  5
2A0
330
E3
100
AcDbEntity
  8
0
  6
Continuous
100
AcDbLine
 10
149.0552466598986
 20
156.7186293590333
 30
0.0
 11
149.0180756191485
 21
156.7196644747374
 31
0.0
  0
LINE
  5
2A1
330
E3
100
AcDbEntity
  8
0
  6
Continuous
100
AcDbLine
 10
149.0180756191485
 20
156.7196644747374
 30
0.0
 11
148.9830500258267
 21
156.7203235103414
 31
0.0
  0
LINE
  5
2A2
330
E3
100
AcDbEntity
  8
0
  6
Continuous
100
AcDbLine
 10
148.9830500258267
 20
156.7203235103414
 30
0.0
 11
148.9504385085758
 21
156.7205563218319
 31
0.0
  0
LINE
  5
2A3
330
E3
100
AcDbEntity
  8
0
  6
Continuous
100
AcDbLine
 10
148.9504385085758
 20
156.7205563218319
 30
0.0
 11
148.9204702971713
 21
156.7203199286261
 31
0.0
  0
LINE
  5
2A4
330
E3
100
AcDbEntity
  8
0
  6
Continuous
100
AcDbLine
 10
148.9204702971713
 20
156.7203199286261
 30
0.0
 11
148.8933782031037
 21
156.7195785135717
 31
0.0
  0
LINE
  5
2A5
330
E3
100
AcDbEntity
  8
0
  6
Continuous
100
AcDbLine
 10
148.8933782031037
 20
156.7195785135717
 30
0.0
 11
148.8693520572807
 21
156.7182962595161
 31
0.0
  0
LINE
  5
2A6
330
E3
100
AcDbEntity
  8
0
  6
Continuous
100
AcDbLine
 10
148.8693520572807
 20
156.7182962595161
 30
0.0
 11
148.8485745271794
 21
156.7164409310223
 31
0.0
  0
LINE
  5
2A7
330
E3
100
AcDbEntity
  8
0
  6
Continuous
100
AcDbLine
 10
148.8485745271794
 20
156.7164409310223
 30
0.0
 11
148.8311924631247
 21
156.7139874560836
 31
0.0
  0
LINE
  5
2A8
330
E3
100
AcDbEntity
  8
0
  6
Continuous
100
AcDbLine
 10
148.8311924631247
 20
156.7139874560836
 30
0.0
 11
148.8173312251499
 21
156.7109143444086
 31
0.0
  0
LINE
  5
2A9
330
E3
100
AcDbEntity
  8
0
  6
Continuous
100
AcDbLine
 10
148.8173312251499
 20
156.7109143444086
 30
0.0
 11
148.8070911012817
 21
156.7072001057058
 31
0.0
  0
LINE
  5
2AA
330
E3
100
AcDbEntity
  8
0
  6
Continuous
100
AcDbLine
 10
148.8070911012817
 20
156.7072001057058
 30
0.0
 11
148.8005389837433
 21
156.7028371619939
 31
0.0
  0
LINE
  5
2AB
330
E3
100
AcDbEntity
  8
0
  6
Continuous
100
AcDbLine
 10
148.8005389837433
 20
156.7028371619939
 30
0.0
 11
148.7977214982364
 21
156.6978153378159
 31
0.0
  0
LINE
  5
2AC
330
E3
100
AcDbEntity
  8
0
  6
Continuous
100
AcDbLine
 10
149.748554607792
 20
156.3314873823857
 30
0.0
 11
149.7457371222851
 21
156.3264655582076
 31
0.0
  0
LINE
  5
2AD
330
E3
100
AcDbEntity
  8
0
  6
Continuous
100
AcDbLine
 10
149.7457371222851
 20
156.3264655582076
 30
0.0
 11
149.7391864062904
 21
156.3221020032898
 31
0.0
  0
LINE
  5
2AE
330
E3
100
AcDbEntity
  8
0
  6
Continuous
100
AcDbLine
 10
149.7391864062904
 20
156.3221020032898
 30
0.0
 11
149.7289458060578
 21
156.3183905896544
 31
0.0
  0
LINE
  5
2AF
330
E3
100
AcDbEntity
  8
0
  6
Continuous
100
AcDbLine
 10
149.7289458060578
 20
156.3183905896544
 30
0.0
 11
149.715084568083
 21
156.3153138962641
 31
0.0
  0
LINE
  5
2B0
330
E3
100
AcDbEntity
  8
0
  6
Continuous
100
AcDbLine
 10
149.715084568083
 20
156.3153138962641
 30
0.0
 11
149.6977025040283
 21
156.3128604213254
 31
0.0
  0
LINE
  5
2B1
330
E3
100
AcDbEntity
  8
0
  6
Continuous
100
AcDbLine
 10
149.6977025040283
 20
156.3128604213254
 30
0.0
 11
149.6769213922118
 21
156.3110050928316
 31
0.0
  0
LINE
  5
2B2
330
E3
100
AcDbEntity
  8
0
  6
Continuous
100
AcDbLine
 10
149.6769213922118
 20
156.3110050928316
 30
0.0
 11
149.652898828104
 21
156.3097228387761
 31
0.0
  0
LINE
  5
2B3
330
E3
100
AcDbEntity
  8
0
  6
Continuous
100
AcDbLine
 10
149.652898828104
 20
156.3097228387761
 30
0.0
 11
149.6258031523212
 21
156.3089814237216
 31
0.0
  0
LINE
  5
2B4
330
E3
100
AcDbEntity
  8
0
  6
Continuous
100
AcDbLine
 10
149.6258031523212
 20
156.3089814237216
 30
0.0
 11
149.5958385226319
 21
156.3087486122311
 31
0.0
  0
LINE
  5
2B5
330
E3
100
AcDbEntity
  8
0
  6
Continuous
100
AcDbLine
 10
149.5958385226319
 20
156.3087486122311
 30
0.0
 11
149.5632234236658
 21
156.3089814237216
 31
0.0
  0
LINE
  5
2B6
330
E3
100
AcDbEntity
  8
0
  6
Continuous
100
AcDbLine
 10
149.5632234236658
 20
156.3089814237216
 30
0.0
 11
149.5282014120591
 21
156.3096368776104
 31
0.0
  0
LINE
  5
2B7
330
E3
100
AcDbEntity
  8
0
  6
Continuous
100
AcDbLine
 10
149.5282014120591
 20
156.3096368776104
 30
0.0
 11
149.4910267895939
 21
156.3106719933144
 31
0.0
  0
LINE
  5
2B8
330
E3
100
AcDbEntity
  8
0
  6
Continuous
100
AcDbLine
 10
149.4910267895939
 20
156.3106719933144
 30
0.0
 11
149.4519825117738
 21
156.3120402085357
 31
0.0
  0
LINE
  5
2B9
330
E3
100
AcDbEntity
  8
0
  6
Continuous
100
AcDbLine
 10
149.4519825117738
 20
156.3120402085357
 30
0.0
 11
149.4113515341029
 21
156.3136842158304
 31
0.0
  0
LINE
  5
2BA
330
E3
100
AcDbEntity
  8
0
  6
Continuous
100
AcDbLine
 10
149.4113515341029
 20
156.3136842158304
 30
0.0
 11
149.3694383023765
 21
156.3155574529004
 31
0.0
  0
LINE
  5
2BB
330
E3
100
AcDbEntity
  8
0
  6
Continuous
100
AcDbLine
 10
149.3694383023765
 20
156.3155574529004
 30
0.0
 11
149.3265544258203
 21
156.3175990305866
 31
0.0
  0
LINE
  5
2BC
330
E3
100
AcDbEntity
  8
0
  6
Continuous
100
AcDbLine
 10
149.3265544258203
 20
156.3175990305866
 30
0.0
 11
149.2830222588058
 21
156.3197552231604
 31
0.0
  0
LINE
  5
2BD
330
E3
100
AcDbEntity
  8
0
  6
Continuous
100
AcDbLine
 10
149.2830222588058
 20
156.3197552231604
 30
0.0
 11
149.2391641557046
 21
156.3219723048934
 31
0.0
  0
LINE
  5
2BE
330
E3
100
AcDbEntity
  8
0
  6
Continuous
100
AcDbLine
 10
149.2391641557046
 20
156.3219723048934
 30
0.0
 11
149.1953024708881
 21
156.324185804911
 31
0.0
  0
LINE
  5
2BF
330
E3
100
AcDbEntity
  8
0
  6
Continuous
100
AcDbLine
 10
149.1953024708881
 20
156.324185804911
 30
0.0
 11
149.1517703038737
 21
156.3263455792002
 31
0.0
  0
LINE
  5
2C0
330
E3
100
AcDbEntity
  8
0
  6
Continuous
100
AcDbLine
 10
149.1517703038737
 20
156.3263455792002
 30
0.0
 11
149.1088900090327
 21
156.3283871568864
 31
0.0
  0
LINE
  5
2C1
330
E3
100
AcDbEntity
  8
0
  6
Continuous
100
AcDbLine
 10
149.1088900090327
 20
156.3283871568864
 30
0.0
 11
149.0669767773062
 21
156.3302568122411
 31
0.0
  0
LINE
  5
2C2
330
E3
100
AcDbEntity
  8
0
  6
Continuous
100
AcDbLine
 10
149.0669767773062
 20
156.3302568122411
 30
0.0
 11
149.0263457996353
 21
156.3319044012511
 31
0.0
  0
LINE
  5
2C3
330
E3
100
AcDbEntity
  8
0
  6
Continuous
100
AcDbLine
 10
149.0263457996353
 20
156.3319044012511
 30
0.0
 11
148.9872979401001
 21
156.3332690347571
 31
0.0
  0
LINE
  5
2C4
330
E3
100
AcDbEntity
  8
0
  6
Continuous
100
AcDbLine
 10
148.9872979401001
 20
156.3332690347571
 30
0.0
 11
148.95012689935
 21
156.3343077321764
 31
0.0
  0
LINE
  5
2C5
330
E3
100
AcDbEntity
  8
0
  6
Continuous
100
AcDbLine
 10
148.95012689935
 20
156.3343077321764
 30
0.0
 11
148.9151013060281
 21
156.3349631860651
 31
0.0
  0
LINE
  5
2C6
330
E3
100
AcDbEntity
  8
0
  6
Continuous
100
AcDbLine
 10
148.9151013060281
 20
156.3349631860651
 30
0.0
 11
148.882486207062
 21
156.3351959975557
 31
0.0
  0
LINE
  5
2C7
330
E3
100
AcDbEntity
  8
0
  6
Continuous
100
AcDbLine
 10
148.882486207062
 20
156.3351959975557
 30
0.0
 11
148.8525215773728
 21
156.3349596043499
 31
0.0
  0
LINE
  5
2C8
330
E3
100
AcDbEntity
  8
0
  6
Continuous
100
AcDbLine
 10
148.8525215773728
 20
156.3349596043499
 30
0.0
 11
148.8254294833052
 21
156.3342181892954
 31
0.0
  0
LINE
  5
2C9
330
E3
100
AcDbEntity
  8
0
  6
Continuous
100
AcDbLine
 10
148.8254294833052
 20
156.3342181892954
 30
0.0
 11
148.8014033374822
 21
156.3329359352399
 31
0.0
  0
LINE
  5
2CA
330
E3
100
AcDbEntity
  8
0
  6
Continuous
100
AcDbLine
 10
148.8014033374822
 20
156.3329359352399
 30
0.0
 11
148.7806258073809
 21
156.3310806067461
 31
0.0
  0
LINE
  5
2CB
330
E3
100
AcDbEntity
  8
0
  6
Continuous
100
AcDbLine
 10
148.7806258073809
 20
156.3310806067461
 30
0.0
 11
148.7632437433262
 21
156.3286271318074
 31
0.0
  0
LINE
  5
2CC
330
E3
100
AcDbEntity
  8
0
  6
Continuous
100
AcDbLine
 10
148.7632437433262
 20
156.3286271318074
 30
0.0
 11
148.7493825053513
 21
156.3255540201323
 31
0.0
  0
LINE
  5
2CD
330
E3
100
AcDbEntity
  8
0
  6
Continuous
100
AcDbLine
 10
148.7493825053513
 20
156.3255540201323
 30
0.0
 11
148.7391387997679
 21
156.3218397814295
 31
0.0
  0
LINE
  5
2CE
330
E3
100
AcDbEntity
  8
0
  6
Continuous
100
AcDbLine
 10
148.7391387997679
 20
156.3218397814295
 30
0.0
 11
148.7325896968302
 21
156.3174776064674
 31
0.0
  0
LINE
  5
2CF
330
E3
100
AcDbEntity
  8
0
  6
Continuous
100
AcDbLine
 10
148.7325896968302
 20
156.3174776064674
 30
0.0
 11
148.7297722113233
 21
156.3124557822894
 31
0.0
  0
LINE
  5
2D0
330
E3
100
AcDbEntity
  8
0
  6
Continuous
100
AcDbLine
 10
149.6806053208789
 20
155.9461278268591
 30
0.0
 11
149.677787835372
 21
155.9411060026811
 31
0.0
  0
LINE
  5
2D1
330
E3
100
AcDbEntity
  8
0
  6
Continuous
100
AcDbLine
 10
149.677787835372
 20
155.9411060026811
 30
0.0
 11
149.6712371193773
 21
155.9367424477632
 31
0.0
  0
LINE
  5
2D2
330
E3
100
AcDbEntity
  8
0
  6
Continuous
100
AcDbLine
 10
149.6712371193773
 20
155.9367424477632
 30
0.0
 11
149.6609970862593
 21
155.9330302653781
 31
0.0
  0
LINE
  5
2D3
330
E3
100
AcDbEntity
  8
0
  6
Continuous
100
AcDbLine
 10
149.6609970862593
 20
155.9330302653781
 30
0.0
 11
149.6471358482845
 21
155.9299535719879
 31
0.0
  0
LINE
  5
2D4
330
E3
100
AcDbEntity
  8
0
  6
Continuous
100
AcDbLine
 10
149.6471358482845
 20
155.9299535719879
 30
0.0
 11
149.6297537842298
 21
155.9275000970492
 31
0.0
  0
LINE
  5
2D5
330
E3
100
AcDbEntity
  8
0
  6
Continuous
100
AcDbLine
 10
149.6297537842298
 20
155.9275000970492
 30
0.0
 11
149.6089726724132
 21
155.9256483502706
 31
0.0
  0
LINE
  5
2D6
330
E3
100
AcDbEntity
  8
0
  6
Continuous
100
AcDbLine
 10
149.6089726724132
 20
155.9256483502706
 30
0.0
 11
149.5849501083054
 21
155.9243625144998
 31
0.0
  0
LINE
  5
2D7
330
E3
100
AcDbEntity
  8
0
  6
Continuous
100
AcDbLine
 10
149.5849501083054
 20
155.9243625144998
 30
0.0
 11
149.5578544325226
 21
155.9236246811606
 31
0.0
  0
LINE
  5
2D8
330
E3
100
AcDbEntity
  8
0
  6
Continuous
100
AcDbLine
 10
149.5578544325226
 20
155.9236246811606
 30
0.0
 11
149.5278898028334
 21
155.9233882879548
 31
0.0
  0
LINE
  5
2D9
330
E3
100
AcDbEntity
  8
0
  6
Continuous
100
AcDbLine
 10
149.5278898028334
 20
155.9233882879548
 30
0.0
 11
149.4952747038673
 21
155.9236210994454
 31
0.0
  0
LINE
  5
2DA
330
E3
100
AcDbEntity
  8
0
  6
Continuous
100
AcDbLine
 10
149.4952747038673
 20
155.9236210994454
 30
0.0
 11
149.4602526922606
 21
155.9242765533341
 31
0.0
  0
LINE
  5
2DB
330
E3
100
AcDbEntity
  8
0
  6
Continuous
100
AcDbLine
 10
149.4602526922606
 20
155.9242765533341
 30
0.0
 11
149.4230780697953
 21
155.9253116690382
 31
0.0
  0
LINE
  5
2DC
330
E3
100
AcDbEntity
  8
0
  6
Continuous
100
AcDbLine
 10
149.4230780697953
 20
155.9253116690382
 30
0.0
 11
149.38403021026
 21
155.9266798842594
 31
0.0
  0
LINE
  5
2DD
330
E3
100
AcDbEntity
  8
0
  6
Continuous
100
AcDbLine
 10
149.38403021026
 20
155.9266798842594
 30
0.0
 11
149.3434028143044
 21
155.9283238915542
 31
0.0
  0
LINE
  5
2DE
330
E3
100
AcDbEntity
  8
0
  6
Continuous
100
AcDbLine
 10
149.3434028143044
 20
155.9283238915542
 30
0.0
 11
149.3014895825779
 21
155.9301971286241
 31
0.0
  0
LINE
  5
2DF
330
E3
100
AcDbEntity
  8
0
  6
Continuous
100
AcDbLine
 10
149.3014895825779
 20
155.9301971286241
 30
0.0
 11
149.2586057060217
 21
155.9322387063103
 31
0.0
  0
LINE
  5
2E0
330
E3
100
AcDbEntity
  8
0
  6
Continuous
100
AcDbLine
 10
149.2586057060217
 20
155.9322387063103
 30
0.0
 11
149.2150735390072
 21
155.9343984805994
 31
0.0
  0
LINE
  5
2E1
330
E3
100
AcDbEntity
  8
0
  6
Continuous
100
AcDbLine
 10
149.2150735390072
 20
155.9343984805994
 30
0.0
 11
149.171215435906
 21
155.9366119806171
 31
0.0
  0
LINE
  5
2E2
330
E3
100
AcDbEntity
  8
0
  6
Continuous
100
AcDbLine
 10
149.171215435906
 20
155.9366119806171
 30
0.0
 11
149.1273537510896
 21
155.9388254806348
 31
0.0
  0
LINE
  5
2E3
330
E3
100
AcDbEntity
  8
0
  6
Continuous
100
AcDbLine
 10
149.1273537510896
 20
155.9388254806348
 30
0.0
 11
149.0838215840751
 21
155.9409852549239
 31
0.0
  0
LINE
  5
2E4
330
E3
100
AcDbEntity
  8
0
  6
Continuous
100
AcDbLine
 10
149.0838215840751
 20
155.9409852549239
 30
0.0
 11
149.0409377075189
 21
155.9430268326101
 31
0.0
  0
LINE
  5
2E5
330
E3
100
AcDbEntity
  8
0
  6
Continuous
100
AcDbLine
 10
149.0409377075189
 20
155.9430268326101
 30
0.0
 11
148.9990280575077
 21
155.9449000696801
 31
0.0
  0
LINE
  5
2E6
330
E3
100
AcDbEntity
  8
0
  6
Continuous
100
AcDbLine
 10
148.9990280575077
 20
155.9449000696801
 30
0.0
 11
148.9583970798368
 21
155.9465440769748
 31
0.0
  0
LINE
  5
2E7
330
E3
100
AcDbEntity
  8
0
  6
Continuous
100
AcDbLine
 10
148.9583970798368
 20
155.9465440769748
 30
0.0
 11
148.9193492203015
 21
155.9479122921961
 31
0.0
  0
LINE
  5
2E8
330
E3
100
AcDbEntity
  8
0
  6
Continuous
100
AcDbLine
 10
148.9193492203015
 20
155.9479122921961
 30
0.0
 11
148.8821781795515
 21
155.9489474079001
 31
0.0
  0
LINE
  5
2E9
330
E3
100
AcDbEntity
  8
0
  6
Continuous
100
AcDbLine
 10
148.8821781795515
 20
155.9489474079001
 30
0.0
 11
148.8471525862296
 21
155.9496028617889
 31
0.0
  0
LINE
  5
2EA
330
E3
100
AcDbEntity
  8
0
  6
Continuous
100
AcDbLine
 10
148.8471525862296
 20
155.9496028617889
 30
0.0
 11
148.8145374872635
 21
155.9498356732794
 31
0.0
  0
LINE
  5
2EB
330
E3
100
AcDbEntity
  8
0
  6
Continuous
100
AcDbLine
 10
148.8145374872635
 20
155.9498356732794
 30
0.0
 11
148.7845728575742
 21
155.9495992800736
 31
0.0
  0
LINE
  5
2EC
330
E3
100
AcDbEntity
  8
0
  6
Continuous
100
AcDbLine
 10
148.7845728575742
 20
155.9495992800736
 30
0.0
 11
148.7574807635066
 21
155.9488614467344
 31
0.0
  0
LINE
  5
2ED
330
E3
100
AcDbEntity
  8
0
  6
Continuous
100
AcDbLine
 10
148.7574807635066
 20
155.9488614467344
 30
0.0
 11
148.7334546176836
 21
155.9475756109636
 31
0.0
  0
LINE
  5
2EE
330
E3
100
AcDbEntity
  8
0
  6
Continuous
100
AcDbLine
 10
148.7334546176836
 20
155.9475756109636
 30
0.0
 11
148.7126770875823
 21
155.9457238641851
 31
0.0
  0
LINE
  5
2EF
330
E3
100
AcDbEntity
  8
0
  6
Continuous
100
AcDbLine
 10
148.7126770875823
 20
155.9457238641851
 30
0.0
 11
148.6952950235276
 21
155.9432703892464
 31
0.0
  0
LINE
  5
2F0
330
E3
100
AcDbEntity
  8
0
  6
Continuous
100
AcDbLine
 10
148.6952950235276
 20
155.9432703892464
 30
0.0
 11
148.6814337855528
 21
155.9401936958561
 31
0.0
  0
LINE
  5
2F1
330
E3
100
AcDbEntity
  8
0
  6
Continuous
100
AcDbLine
 10
148.6814337855528
 20
155.9401936958561
 30
0.0
 11
148.6711900799693
 21
155.9364830388685
 31
0.0
  0
LINE
  5
2F2
330
E3
100
AcDbEntity
  8
0
  6
Continuous
100
AcDbLine
 10
148.6711900799693
 20
155.9364830388685
 30
0.0
 11
148.664640409917
 21
155.9321180509409
 31
0.0
  0
LINE
  5
2F3
330
E3
100
AcDbEntity
  8
0
  6
Continuous
100
AcDbLine
 10
148.664640409917
 20
155.9321180509409
 30
0.0
 11
148.6618229244101
 21
155.9270962267628
 31
0.0
  0
LINE
  5
2F4
330
E3
100
AcDbEntity
  8
0
  6
Continuous
100
AcDbLine
 10
149.6126560339657
 20
155.5607682713326
 30
0.0
 11
149.6098385484588
 21
155.5557464471546
 31
0.0
  0
LINE
  5
2F5
330
E3
100
AcDbEntity
  8
0
  6
Continuous
100
AcDbLine
 10
149.6098385484588
 20
155.5557464471546
 30
0.0
 11
149.6032878324641
 21
155.5513828922367
 31
0.0
  0
LINE
  5
2F6
330
E3
100
AcDbEntity
  8
0
  6
Continuous
100
AcDbLine
 10
149.6032878324641
 20
155.5513828922367
 30
0.0
 11
149.5930447847455
 21
155.5476699411019
 31
0.0
  0
LINE
  5
2F7
330
E3
100
AcDbEntity
  8
0
  6
Continuous
100
AcDbLine
 10
149.5930447847455
 20
155.5476699411019
 30
0.0
 11
149.579187128486
 21
155.5445968294268
 31
0.0
  0
LINE
  5
2F8
330
E3
100
AcDbEntity
  8
0
  6
Continuous
100
AcDbLine
 10
149.579187128486
 20
155.5445968294268
 30
0.0
 11
149.5618014827159
 21
155.5421433544882
 31
0.0
  0
LINE
  5
2F9
330
E3
100
AcDbEntity
  8
0
  6
Continuous
100
AcDbLine
 10
149.5618014827159
 20
155.5421433544882
 30
0.0
 11
149.5410239526147
 21
155.5402880259944
 31
0.0
  0
LINE
  5
2FA
330
E3
100
AcDbEntity
  8
0
  6
Continuous
100
AcDbLine
 10
149.5410239526147
 20
155.5402880259944
 30
0.0
 11
149.5170013885069
 21
155.5390057719388
 31
0.0
  0
LINE
  5
2FB
330
E3
100
AcDbEntity
  8
0
  6
Continuous
100
AcDbLine
 10
149.5170013885069
 20
155.5390057719388
 30
0.0
 11
149.4899057127241
 21
155.5382643568844
 31
0.0
  0
LINE
  5
2FC
330
E3
100
AcDbEntity
  8
0
  6
Continuous
100
AcDbLine
 10
149.4899057127241
 20
155.5382643568844
 30
0.0
 11
149.4599410830348
 21
155.5380279636786
 31
0.0
  0
LINE
  5
2FD
330
E3
100
AcDbEntity
  8
0
  6
Continuous
100
AcDbLine
 10
149.4599410830348
 20
155.5380279636786
 30
0.0
 11
149.4273259840688
 21
155.5382607751691
 31
0.0
  0
LINE
  5
2FE
330
E3
100
AcDbEntity
  8
0
  6
Continuous
100
AcDbLine
 10
149.4273259840688
 20
155.5382607751691
 30
0.0
 11
149.3923039724621
 21
155.5389162290579
 31
0.0
  0
LINE
  5
2FF
330
E3
100
AcDbEntity
  8
0
  6
Continuous
100
AcDbLine
 10
149.3923039724621
 20
155.5389162290579
 30
0.0
 11
149.3551293499968
 21
155.5399549264772
 31
0.0
  0
LINE
  5
300
330
E3
100
AcDbEntity
  8
0
  6
Continuous
100
AcDbLine
 10
149.3551293499968
 20
155.5399549264772
 30
0.0
 11
149.3160814904615
 21
155.5413195599832
 31
0.0
  0
LINE
  5
301
330
E3
100
AcDbEntity
  8
0
  6
Continuous
100
AcDbLine
 10
149.3160814904615
 20
155.5413195599832
 30
0.0
 11
149.2754505127906
 21
155.5429671489931
 31
0.0
  0
LINE
  5
302
330
E3
100
AcDbEntity
  8
0
  6
Continuous
100
AcDbLine
 10
149.2754505127906
 20
155.5429671489931
 30
0.0
 11
149.2335408627794
 21
155.5448368043479
 31
0.0
  0
LINE
  5
303
330
E3
100
AcDbEntity
  8
0
  6
Continuous
100
AcDbLine
 10
149.2335408627794
 20
155.5448368043479
 30
0.0
 11
149.1906569862232
 21
155.5468783820341
 31
0.0
  0
LINE
  5
304
330
E3
100
AcDbEntity
  8
0
  6
Continuous
100
AcDbLine
 10
149.1906569862232
 20
155.5468783820341
 30
0.0
 11
149.1471248192087
 21
155.5490381563232
 31
0.0
  0
LINE
  5
305
330
E3
100
AcDbEntity
  8
0
  6
Continuous
100
AcDbLine
 10
149.1471248192087
 20
155.5490381563232
 30
0.0
 11
149.1032631343923
 21
155.5512516563408
 31
0.0
  0
LINE
  5
306
330
E3
100
AcDbEntity
  8
0
  6
Continuous
100
AcDbLine
 10
149.1032631343923
 20
155.5512516563408
 30
0.0
 11
149.059405031291
 21
155.5534687380738
 31
0.0
  0
LINE
  5
307
330
E3
100
AcDbEntity
  8
0
  6
Continuous
100
AcDbLine
 10
149.059405031291
 20
155.5534687380738
 30
0.0
 11
149.0158728642766
 21
155.5556249306476
 31
0.0
  0
LINE
  5
308
330
E3
100
AcDbEntity
  8
0
  6
Continuous
100
AcDbLine
 10
149.0158728642766
 20
155.5556249306476
 30
0.0
 11
148.9729889877204
 21
155.5576665083339
 31
0.0
  0
LINE
  5
309
330
E3
100
AcDbEntity
  8
0
  6
Continuous
100
AcDbLine
 10
148.9729889877204
 20
155.5576665083339
 30
0.0
 11
148.9310793377091
 21
155.5595397454038
 31
0.0
  0
LINE
  5
30A
330
E3
100
AcDbEntity
  8
0
  6
Continuous
100
AcDbLine
 10
148.9310793377091
 20
155.5595397454038
 30
0.0
 11
148.8904483600383
 21
155.5611837526985
 31
0.0
  0
LINE
  5
30B
330
E3
100
AcDbEntity
  8
0
  6
Continuous
100
AcDbLine
 10
148.8904483600383
 20
155.5611837526985
 30
0.0
 11
148.851400500503
 21
155.5625519679198
 31
0.0
  0
LINE
  5
30C
330
E3
100
AcDbEntity
  8
0
  6
Continuous
100
AcDbLine
 10
148.851400500503
 20
155.5625519679198
 30
0.0
 11
148.8142258780377
 21
155.5635870836239
 31
0.0
  0
LINE
  5
30D
330
E3
100
AcDbEntity
  8
0
  6
Continuous
100
AcDbLine
 10
148.8142258780377
 20
155.5635870836239
 30
0.0
 11
148.779203866431
 21
155.5642425375126
 31
0.0
  0
LINE
  5
30E
330
E3
100
AcDbEntity
  8
0
  6
Continuous
100
AcDbLine
 10
148.779203866431
 20
155.5642425375126
 30
0.0
 11
148.7465887674649
 21
155.5644753490032
 31
0.0
  0
LINE
  5
30F
330
E3
100
AcDbEntity
  8
0
  6
Continuous
100
AcDbLine
 10
148.7465887674649
 20
155.5644753490032
 30
0.0
 11
148.7166241377757
 21
155.5642425375126
 31
0.0
  0
LINE
  5
310
330
E3
100
AcDbEntity
  8
0
  6
Continuous
100
AcDbLine
 10
148.7166241377757
 20
155.5642425375126
 30
0.0
 11
148.6895284619929
 21
155.5635011224581
 31
0.0
  0
LINE
  5
311
330
E3
100
AcDbEntity
  8
0
  6
Continuous
100
AcDbLine
 10
148.6895284619929
 20
155.5635011224581
 30
0.0
 11
148.6655058978851
 21
155.5622188684026
 31
0.0
  0
LINE
  5
312
330
E3
100
AcDbEntity
  8
0
  6
Continuous
100
AcDbLine
 10
148.6655058978851
 20
155.5622188684026
 30
0.0
 11
148.6447283677838
 21
155.5603635399088
 31
0.0
  0
LINE
  5
313
330
E3
100
AcDbEntity
  8
0
  6
Continuous
100
AcDbLine
 10
148.6447283677838
 20
155.5603635399088
 30
0.0
 11
148.6273427220138
 21
155.5579100649701
 31
0.0
  0
LINE
  5
314
330
E3
100
AcDbEntity
  8
0
  6
Continuous
100
AcDbLine
 10
148.6273427220138
 20
155.5579100649701
 30
0.0
 11
148.613481484039
 21
155.5548333715798
 31
0.0
  0
LINE
  5
315
330
E3
100
AcDbEntity
  8
0
  6
Continuous
100
AcDbLine
 10
148.613481484039
 20
155.5548333715798
 30
0.0
 11
148.6032413601708
 21
155.5511227145923
 31
0.0
  0
LINE
  5
316
330
E3
100
AcDbEntity
  8
0
  6
Continuous
100
AcDbLine
 10
148.6032413601708
 20
155.5511227145923
 30
0.0
 11
148.5966911230039
 21
155.5467584954144
 31
0.0
  0
LINE
  5
317
330
E3
100
AcDbEntity
  8
0
  6
Continuous
100
AcDbLine
 10
148.5966911230039
 20
155.5467584954144
 30
0.0
 11
148.593873637497
 21
155.5417366712363
 31
0.0
  0
LINE
  5
318
330
E3
100
AcDbEntity
  8
0
  6
Continuous
100
AcDbLine
 10
149.5447067470526
 20
155.1754087158061
 30
0.0
 11
149.5418892615457
 21
155.1703868916281
 31
0.0
  0
LINE
  5
319
330
E3
100
AcDbEntity
  8
0
  6
Continuous
100
AcDbLine
 10
149.5418892615457
 20
155.1703868916281
 30
0.0
 11
149.5353385455509
 21
155.1660233367102
 31
0.0
  0
LINE
  5
31A
330
E3
100
AcDbEntity
  8
0
  6
Continuous
100
AcDbLine
 10
149.5353385455509
 20
155.1660233367102
 30
0.0
 11
149.525096064947
 21
155.1623096168256
 31
0.0
  0
LINE
  5
31B
330
E3
100
AcDbEntity
  8
0
  6
Continuous
100
AcDbLine
 10
149.525096064947
 20
155.1623096168256
 30
0.0
 11
149.5112348269722
 21
155.1592365051506
 31
0.0
  0
LINE
  5
31C
330
E3
100
AcDbEntity
  8
0
  6
Continuous
100
AcDbLine
 10
149.5112348269722
 20
155.1592365051506
 30
0.0
 11
149.4938527629174
 21
155.1567830302119
 31
0.0
  0
LINE
  5
31D
330
E3
100
AcDbEntity
  8
0
  6
Continuous
100
AcDbLine
 10
149.4938527629174
 20
155.1567830302119
 30
0.0
 11
149.4730752328161
 21
155.1549277017181
 31
0.0
  0
LINE
  5
31E
330
E3
100
AcDbEntity
  8
0
  6
Continuous
100
AcDbLine
 10
149.4730752328161
 20
155.1549277017181
 30
0.0
 11
149.4490490869931
 21
155.1536454476626
 31
0.0
  0
LINE
  5
31F
330
E3
100
AcDbEntity
  8
0
  6
Continuous
100
AcDbLine
 10
149.4490490869931
 20
155.1536454476626
 30
0.0
 11
149.4219569929255
 21
155.1529040326081
 31
0.0
  0
LINE
  5
320
330
E3
100
AcDbEntity
  8
0
  6
Continuous
100
AcDbLine
 10
149.4219569929255
 20
155.1529040326081
 30
0.0
 11
149.3919923632363
 21
155.1526676394023
 31
0.0
  0
LINE
  5
321
330
E3
100
AcDbEntity
  8
0
  6
Continuous
100
AcDbLine
 10
149.3919923632363
 20
155.1526676394023
 30
0.0
 11
149.3593772642702
 21
155.1529004508929
 31
0.0
  0
LINE
  5
322
330
E3
100
AcDbEntity
  8
0
  6
Continuous
100
AcDbLine
 10
149.3593772642702
 20
155.1529004508929
 30
0.0
 11
149.3243516709483
 21
155.1535594864968
 31
0.0
  0
LINE
  5
323
330
E3
100
AcDbEntity
  8
0
  6
Continuous
100
AcDbLine
 10
149.3243516709483
 20
155.1535594864968
 30
0.0
 11
149.2871806301982
 21
155.1545946022009
 31
0.0
  0
LINE
  5
324
330
E3
100
AcDbEntity
  8
0
  6
Continuous
100
AcDbLine
 10
149.2871806301982
 20
155.1545946022009
 30
0.0
 11
149.248132770663
 21
155.1559592357069
 31
0.0
  0
LINE
  5
325
330
E3
100
AcDbEntity
  8
0
  6
Continuous
100
AcDbLine
 10
149.248132770663
 20
155.1559592357069
 30
0.0
 11
149.2075017929921
 21
155.1576068247169
 31
0.0
  0
LINE
  5
326
330
E3
100
AcDbEntity
  8
0
  6
Continuous
100
AcDbLine
 10
149.2075017929921
 20
155.1576068247169
 30
0.0
 11
149.1655885612656
 21
155.1594764800716
 31
0.0
  0
LINE
  5
327
330
E3
100
AcDbEntity
  8
0
  6
Continuous
100
AcDbLine
 10
149.1655885612656
 20
155.1594764800716
 30
0.0
 11
149.1227082664246
 21
155.1615216394731
 31
0.0
  0
LINE
  5
328
330
E3
100
AcDbEntity
  8
0
  6
Continuous
100
AcDbLine
 10
149.1227082664246
 20
155.1615216394731
 30
0.0
 11
149.0791760994102
 21
155.1636778320469
 31
0.0
  0
LINE
  5
329
330
E3
100
AcDbEntity
  8
0
  6
Continuous
100
AcDbLine
 10
149.0791760994102
 20
155.1636778320469
 30
0.0
 11
149.0353144145937
 21
155.1658913320646
 31
0.0
  0
LINE
  5
32A
330
E3
100
AcDbEntity
  8
0
  6
Continuous
100
AcDbLine
 10
149.0353144145937
 20
155.1658913320646
 30
0.0
 11
148.9914563114925
 21
155.1681084137975
 31
0.0
  0
LINE
  5
32B
330
E3
100
AcDbEntity
  8
0
  6
Continuous
100
AcDbLine
 10
148.9914563114925
 20
155.1681084137975
 30
0.0
 11
148.947924144478
 21
155.1702646063714
 31
0.0
  0
LINE
  5
32C
330
E3
100
AcDbEntity
  8
0
  6
Continuous
100
AcDbLine
 10
148.947924144478
 20
155.1702646063714
 30
0.0
 11
148.9050402679218
 21
155.1723097657728
 31
0.0
  0
LINE
  5
32D
330
E3
100
AcDbEntity
  8
0
  6
Continuous
100
AcDbLine
 10
148.9050402679218
 20
155.1723097657728
 30
0.0
 11
148.8631270361954
 21
155.1741794211276
 31
0.0
  0
LINE
  5
32E
330
E3
100
AcDbEntity
  8
0
  6
Continuous
100
AcDbLine
 10
148.8631270361954
 20
155.1741794211276
 30
0.0
 11
148.8224996402397
 21
155.1758270101375
 31
0.0
  0
LINE
  5
32F
330
E3
100
AcDbEntity
  8
0
  6
Continuous
100
AcDbLine
 10
148.8224996402397
 20
155.1758270101375
 30
0.0
 11
148.7834517807045
 21
155.1771916436435
 31
0.0
  0
LINE
  5
330
330
E3
100
AcDbEntity
  8
0
  6
Continuous
100
AcDbLine
 10
148.7834517807045
 20
155.1771916436435
 30
0.0
 11
148.7462771582392
 21
155.1782267593476
 31
0.0
  0
LINE
  5
331
330
E3
100
AcDbEntity
  8
0
  6
Continuous
100
AcDbLine
 10
148.7462771582392
 20
155.1782267593476
 30
0.0
 11
148.7112551466325
 21
155.1788857949516
 31
0.0
  0
LINE
  5
332
330
E3
100
AcDbEntity
  8
0
  6
Continuous
100
AcDbLine
 10
148.7112551466325
 20
155.1788857949516
 30
0.0
 11
148.6786400476664
 21
155.1791186064421
 31
0.0
  0
LINE
  5
333
330
E3
100
AcDbEntity
  8
0
  6
Continuous
100
AcDbLine
 10
148.6786400476664
 20
155.1791186064421
 30
0.0
 11
148.6486754179772
 21
155.1788822132363
 31
0.0
  0
LINE
  5
334
330
E3
100
AcDbEntity
  8
0
  6
Continuous
100
AcDbLine
 10
148.6486754179772
 20
155.1788822132363
 30
0.0
 11
148.6215797421943
 21
155.1781407981819
 31
0.0
  0
LINE
  5
335
330
E3
100
AcDbEntity
  8
0
  6
Continuous
100
AcDbLine
 10
148.6215797421943
 20
155.1781407981819
 30
0.0
 11
148.5975571780865
 21
155.1768585441263
 31
0.0
  0
LINE
  5
336
330
E3
100
AcDbEntity
  8
0
  6
Continuous
100
AcDbLine
 10
148.5975571780865
 20
155.1768585441263
 30
0.0
 11
148.57677606627
 21
155.1750032156326
 31
0.0
  0
LINE
  5
337
330
E3
100
AcDbEntity
  8
0
  6
Continuous
100
AcDbLine
 10
148.57677606627
 20
155.1750032156326
 30
0.0
 11
148.5593940022153
 21
155.1725497406939
 31
0.0
  0
LINE
  5
338
330
E3
100
AcDbEntity
  8
0
  6
Continuous
100
AcDbLine
 10
148.5593940022153
 20
155.1725497406939
 30
0.0
 11
148.5455327642405
 21
155.1694766290188
 31
0.0
  0
LINE
  5
339
330
E3
100
AcDbEntity
  8
0
  6
Continuous
100
AcDbLine
 10
148.5455327642405
 20
155.1694766290188
 30
0.0
 11
148.5352926403722
 21
155.165762390316
 31
0.0
  0
LINE
  5
33A
330
E3
100
AcDbEntity
  8
0
  6
Continuous
100
AcDbLine
 10
148.5352926403722
 20
155.165762390316
 30
0.0
 11
148.5287418360907
 21
155.1613989398878
 31
0.0
  0
LINE
  5
33B
330
E3
100
AcDbEntity
  8
0
  6
Continuous
100
AcDbLine
 10
148.5287418360907
 20
155.1613989398878
 30
0.0
 11
148.5259243505838
 21
155.1563771157098
 31
0.0
  0
LINE
  5
33C
330
E3
100
AcDbEntity
  8
0
  6
Continuous
100
AcDbLine
 10
149.4767574601395
 20
154.7900491602796
 30
0.0
 11
149.4739399746325
 21
154.7850273361016
 31
0.0
  0
LINE
  5
33D
330
E3
100
AcDbEntity
  8
0
  6
Continuous
100
AcDbLine
 10
149.4739399746325
 20
154.7850273361016
 30
0.0
 11
149.4673892586378
 21
154.7806637811837
 31
0.0
  0
LINE
  5
33E
330
E3
100
AcDbEntity
  8
0
  6
Continuous
100
AcDbLine
 10
149.4673892586378
 20
154.7806637811837
 30
0.0
 11
149.4571473451484
 21
154.7769492925494
 31
0.0
  0
LINE
  5
33F
330
E3
100
AcDbEntity
  8
0
  6
Continuous
100
AcDbLine
 10
149.4571473451484
 20
154.7769492925494
 30
0.0
 11
149.4432861071736
 21
154.7738761808743
 31
0.0
  0
LINE
  5
340
330
E3
100
AcDbEntity
  8
0
  6
Continuous
100
AcDbLine
 10
149.4432861071736
 20
154.7738761808743
 30
0.0
 11
149.4259040431189
 21
154.7714227059357
 31
0.0
  0
LINE
  5
341
330
E3
100
AcDbEntity
  8
0
  6
Continuous
100
AcDbLine
 10
149.4259040431189
 20
154.7714227059357
 30
0.0
 11
149.4051265130176
 21
154.7695673774419
 31
0.0
  0
LINE
  5
342
330
E3
100
AcDbEntity
  8
0
  6
Continuous
100
AcDbLine
 10
149.4051265130176
 20
154.7695673774419
 30
0.0
 11
149.3811003671946
 21
154.7682851233863
 31
0.0
  0
LINE
  5
343
330
E3
100
AcDbEntity
  8
0
  6
Continuous
100
AcDbLine
 10
149.3811003671946
 20
154.7682851233863
 30
0.0
 11
149.354008273127
 21
154.7675437083318
 31
0.0
  0
LINE
  5
344
330
E3
100
AcDbEntity
  8
0
  6
Continuous
100
AcDbLine
 10
149.354008273127
 20
154.7675437083318
 30
0.0
 11
149.3240436434377
 21
154.7673108968413
 31
0.0
  0
LINE
  5
345
330
E3
100
AcDbEntity
  8
0
  6
Continuous
100
AcDbLine
 10
149.3240436434377
 20
154.7673108968413
 30
0.0
 11
149.2914285444717
 21
154.7675401266166
 31
0.0
  0
LINE
  5
346
330
E3
100
AcDbEntity
  8
0
  6
Continuous
100
AcDbLine
 10
149.2914285444717
 20
154.7675401266166
 30
0.0
 11
149.2564029511498
 21
154.7681991622206
 31
0.0
  0
LINE
  5
347
330
E3
100
AcDbEntity
  8
0
  6
Continuous
100
AcDbLine
 10
149.2564029511498
 20
154.7681991622206
 30
0.0
 11
149.2192319103997
 21
154.7692342779246
 31
0.0
  0
LINE
  5
348
330
E3
100
AcDbEntity
  8
0
  6
Continuous
100
AcDbLine
 10
149.2192319103997
 20
154.7692342779246
 30
0.0
 11
149.1801840508644
 21
154.7706024931459
 31
0.0
  0
LINE
  5
349
330
E3
100
AcDbEntity
  8
0
  6
Continuous
100
AcDbLine
 10
149.1801840508644
 20
154.7706024931459
 30
0.0
 11
149.1395530731936
 21
154.7722465004406
 31
0.0
  0
LINE
  5
34A
330
E3
100
AcDbEntity
  8
0
  6
Continuous
100
AcDbLine
 10
149.1395530731936
 20
154.7722465004406
 30
0.0
 11
149.0976398414671
 21
154.7741197375106
 31
0.0
  0
LINE
  5
34B
330
E3
100
AcDbEntity
  8
0
  6
Continuous
100
AcDbLine
 10
149.0976398414671
 20
154.7741197375106
 30
0.0
 11
149.0547595466261
 21
154.7761613151968
 31
0.0
  0
LINE
  5
34C
330
E3
100
AcDbEntity
  8
0
  6
Continuous
100
AcDbLine
 10
149.0547595466261
 20
154.7761613151968
 30
0.0
 11
149.0112273796117
 21
154.7783175077707
 31
0.0
  0
LINE
  5
34D
330
E3
100
AcDbEntity
  8
0
  6
Continuous
100
AcDbLine
 10
149.0112273796117
 20
154.7783175077707
 30
0.0
 11
148.9673656947952
 21
154.7805345895036
 31
0.0
  0
LINE
  5
34E
330
E3
100
AcDbEntity
  8
0
  6
Continuous
100
AcDbLine
 10
148.9673656947952
 20
154.7805345895036
 30
0.0
 11
148.923507591694
 21
154.7827480895213
 31
0.0
  0
LINE
  5
34F
330
E3
100
AcDbEntity
  8
0
  6
Continuous
100
AcDbLine
 10
148.923507591694
 20
154.7827480895213
 30
0.0
 11
148.8799754246795
 21
154.7849042820951
 31
0.0
  0
LINE
  5
350
330
E3
100
AcDbEntity
  8
0
  6
Continuous
100
AcDbLine
 10
148.8799754246795
 20
154.7849042820951
 30
0.0
 11
148.8370915481233
 21
154.7869494414966
 31
0.0
  0
LINE
  5
351
330
E3
100
AcDbEntity
  8
0
  6
Continuous
100
AcDbLine
 10
148.8370915481233
 20
154.7869494414966
 30
0.0
 11
148.7951783163968
 21
154.7888190968513
 31
0.0
  0
LINE
  5
352
330
E3
100
AcDbEntity
  8
0
  6
Continuous
100
AcDbLine
 10
148.7951783163968
 20
154.7888190968513
 30
0.0
 11
148.754547338726
 21
154.7904666858612
 31
0.0
  0
LINE
  5
353
330
E3
100
AcDbEntity
  8
0
  6
Continuous
100
AcDbLine
 10
148.754547338726
 20
154.7904666858612
 30
0.0
 11
148.7155030609059
 21
154.7918313193673
 31
0.0
  0
LINE
  5
354
330
E3
100
AcDbEntity
  8
0
  6
Continuous
100
AcDbLine
 10
148.7155030609059
 20
154.7918313193673
 30
0.0
 11
148.6783284384406
 21
154.7928664350714
 31
0.0
  0
LINE
  5
355
330
E3
100
AcDbEntity
  8
0
  6
Continuous
100
AcDbLine
 10
148.6783284384406
 20
154.7928664350714
 30
0.0
 11
148.6433064268339
 21
154.7935254706753
 31
0.0
  0
LINE
  5
356
330
E3
100
AcDbEntity
  8
0
  6
Continuous
100
AcDbLine
 10
148.6433064268339
 20
154.7935254706753
 30
0.0
 11
148.6106913278679
 21
154.7937582821659
 31
0.0
  0
LINE
  5
357
330
E3
100
AcDbEntity
  8
0
  6
Continuous
100
AcDbLine
 10
148.6106913278679
 20
154.7937582821659
 30
0.0
 11
148.5807266981786
 21
154.7935218889601
 31
0.0
  0
LINE
  5
358
330
E3
100
AcDbEntity
  8
0
  6
Continuous
100
AcDbLine
 10
148.5807266981786
 20
154.7935218889601
 30
0.0
 11
148.5536310223958
 21
154.7927804739056
 31
0.0
  0
LINE
  5
359
330
E3
100
AcDbEntity
  8
0
  6
Continuous
100
AcDbLine
 10
148.5536310223958
 20
154.7927804739056
 30
0.0
 11
148.529608458288
 21
154.7914982198501
 31
0.0
  0
LINE
  5
35A
330
E3
100
AcDbEntity
  8
0
  6
Continuous
100
AcDbLine
 10
148.529608458288
 20
154.7914982198501
 30
0.0
 11
148.5088273464715
 21
154.7896428913563
 31
0.0
  0
LINE
  5
35B
330
E3
100
AcDbEntity
  8
0
  6
Continuous
100
AcDbLine
 10
148.5088273464715
 20
154.7896428913563
 30
0.0
 11
148.4914452824167
 21
154.7871894164176
 31
0.0
  0
LINE
  5
35C
330
E3
100
AcDbEntity
  8
0
  6
Continuous
100
AcDbLine
 10
148.4914452824167
 20
154.7871894164176
 30
0.0
 11
148.4775840444419
 21
154.7841163047426
 31
0.0
  0
LINE
  5
35D
330
E3
100
AcDbEntity
  8
0
  6
Continuous
100
AcDbLine
 10
148.4775840444419
 20
154.7841163047426
 30
0.0
 11
148.4673439205737
 21
154.7804020660397
 31
0.0
  0
LINE
  5
35E
330
E3
100
AcDbEntity
  8
0
  6
Continuous
100
AcDbLine
 10
148.4673439205737
 20
154.7804020660397
 30
0.0
 11
148.4607925491776
 21
154.7760393843614
 31
0.0
  0
LINE
  5
35F
330
E3
100
AcDbEntity
  8
0
  6
Continuous
100
AcDbLine
 10
148.4607925491776
 20
154.7760393843614
 30
0.0
 11
148.4579750636707
 21
154.7710175601833
 31
0.0
  0
LINE
  5
360
330
E3
100
AcDbEntity
  8
0
  6
Continuous
100
AcDbLine
 10
149.4088081732263
 20
154.4046896047531
 30
0.0
 11
149.4059906877194
 21
154.399667780575
 31
0.0
  0
LINE
  5
361
330
E3
100
AcDbEntity
  8
0
  6
Continuous
100
AcDbLine
 10
149.4059906877194
 20
154.399667780575
 30
0.0
 11
149.3994399717246
 21
154.3953042256572
 31
0.0
  0
LINE
  5
362
330
E3
100
AcDbEntity
  8
0
  6
Continuous
100
AcDbLine
 10
149.3994399717246
 20
154.3953042256572
 30
0.0
 11
149.3891986253499
 21
154.3915925499884
 31
0.0
  0
LINE
  5
363
330
E3
100
AcDbEntity
  8
0
  6
Continuous
100
AcDbLine
 10
149.3891986253499
 20
154.3915925499884
 30
0.0
 11
149.3753373873751
 21
154.3885158565981
 31
0.0
  0
LINE
  5
364
330
E3
100
AcDbEntity
  8
0
  6
Continuous
100
AcDbLine
 10
149.3753373873751
 20
154.3885158565981
 30
0.0
 11
149.3579553233203
 21
154.3860623816594
 31
0.0
  0
LINE
  5
365
330
E3
100
AcDbEntity
  8
0
  6
Continuous
100
AcDbLine
 10
149.3579553233203
 20
154.3860623816594
 30
0.0
 11
149.3371777932191
 21
154.3842070531656
 31
0.0
  0
LINE
  5
366
330
E3
100
AcDbEntity
  8
0
  6
Continuous
100
AcDbLine
 10
149.3371777932191
 20
154.3842070531656
 30
0.0
 11
149.313151647396
 21
154.38292479911
 31
0.0
  0
LINE
  5
367
330
E3
100
AcDbEntity
  8
0
  6
Continuous
100
AcDbLine
 10
149.313151647396
 20
154.38292479911
 30
0.0
 11
149.2860559716132
 21
154.3821833840556
 31
0.0
  0
LINE
  5
368
330
E3
100
AcDbEntity
  8
0
  6
Continuous
100
AcDbLine
 10
149.2860559716132
 20
154.3821833840556
 30
0.0
 11
149.256091341924
 21
154.381950572565
 31
0.0
  0
LINE
  5
369
330
E3
100
AcDbEntity
  8
0
  6
Continuous
100
AcDbLine
 10
149.256091341924
 20
154.381950572565
 30
0.0
 11
149.2234762429579
 21
154.3821833840556
 31
0.0
  0
LINE
  5
36A
330
E3
100
AcDbEntity
  8
0
  6
Continuous
100
AcDbLine
 10
149.2234762429579
 20
154.3821833840556
 30
0.0
 11
149.1884542313512
 21
154.3828388379443
 31
0.0
  0
LINE
  5
36B
330
E3
100
AcDbEntity
  8
0
  6
Continuous
100
AcDbLine
 10
149.1884542313512
 20
154.3828388379443
 30
0.0
 11
149.1512796088859
 21
154.3838739536484
 31
0.0
  0
LINE
  5
36C
330
E3
100
AcDbEntity
  8
0
  6
Continuous
100
AcDbLine
 10
149.1512796088859
 20
154.3838739536484
 30
0.0
 11
149.1122353310659
 21
154.3852421688696
 31
0.0
  0
LINE
  5
36D
330
E3
100
AcDbEntity
  8
0
  6
Continuous
100
AcDbLine
 10
149.1122353310659
 20
154.3852421688696
 30
0.0
 11
149.071604353395
 21
154.3868861761643
 31
0.0
  0
LINE
  5
36E
330
E3
100
AcDbEntity
  8
0
  6
Continuous
100
AcDbLine
 10
149.071604353395
 20
154.3868861761643
 30
0.0
 11
149.0296911216685
 21
154.3887594132343
 31
0.0
  0
LINE
  5
36F
330
E3
100
AcDbEntity
  8
0
  6
Continuous
100
AcDbLine
 10
149.0296911216685
 20
154.3887594132343
 30
0.0
 11
148.9868108268276
 21
154.3908009909206
 31
0.0
  0
LINE
  5
370
330
E3
100
AcDbEntity
  8
0
  6
Continuous
100
AcDbLine
 10
148.9868108268276
 20
154.3908009909206
 30
0.0
 11
148.9432750780979
 21
154.3929571834944
 31
0.0
  0
LINE
  5
371
330
E3
100
AcDbEntity
  8
0
  6
Continuous
100
AcDbLine
 10
148.9432750780979
 20
154.3929571834944
 30
0.0
 11
148.8994169749967
 21
154.3951742652273
 31
0.0
  0
LINE
  5
372
330
E3
100
AcDbEntity
  8
0
  6
Continuous
100
AcDbLine
 10
148.8994169749967
 20
154.3951742652273
 30
0.0
 11
148.8555588718954
 21
154.397387765245
 31
0.0
  0
LINE
  5
373
330
E3
100
AcDbEntity
  8
0
  6
Continuous
100
AcDbLine
 10
148.8555588718954
 20
154.397387765245
 30
0.0
 11
148.8120231231657
 21
154.3995475395341
 31
0.0
  0
LINE
  5
374
330
E3
100
AcDbEntity
  8
0
  6
Continuous
100
AcDbLine
 10
148.8120231231657
 20
154.3995475395341
 30
0.0
 11
148.7691428283247
 21
154.4015891172203
 31
0.0
  0
LINE
  5
375
330
E3
100
AcDbEntity
  8
0
  6
Continuous
100
AcDbLine
 10
148.7691428283247
 20
154.4015891172203
 30
0.0
 11
148.7272295965983
 21
154.4034587725751
 31
0.0
  0
LINE
  5
376
330
E3
100
AcDbEntity
  8
0
  6
Continuous
100
AcDbLine
 10
148.7272295965983
 20
154.4034587725751
 30
0.0
 11
148.6865986189274
 21
154.405106361585
 31
0.0
  0
LINE
  5
377
330
E3
100
AcDbEntity
  8
0
  6
Continuous
100
AcDbLine
 10
148.6865986189274
 20
154.405106361585
 30
0.0
 11
148.6475543411074
 21
154.406470995091
 31
0.0
  0
LINE
  5
378
330
E3
100
AcDbEntity
  8
0
  6
Continuous
100
AcDbLine
 10
148.6475543411074
 20
154.406470995091
 30
0.0
 11
148.610379718642
 21
154.4075096925104
 31
0.0
  0
LINE
  5
379
330
E3
100
AcDbEntity
  8
0
  6
Continuous
100
AcDbLine
 10
148.610379718642
 20
154.4075096925104
 30
0.0
 11
148.5753577070354
 21
154.4081651463991
 31
0.0
  0
LINE
  5
37A
330
E3
100
AcDbEntity
  8
0
  6
Continuous
100
AcDbLine
 10
148.5753577070354
 20
154.4081651463991
 30
0.0
 11
148.5427426080693
 21
154.4083979578896
 31
0.0
  0
LINE
  5
37B
330
E3
100
AcDbEntity
  8
0
  6
Continuous
100
AcDbLine
 10
148.5427426080693
 20
154.4083979578896
 30
0.0
 11
148.5127779783801
 21
154.4081615646838
 31
0.0
  0
LINE
  5
37C
330
E3
100
AcDbEntity
  8
0
  6
Continuous
100
AcDbLine
 10
148.5127779783801
 20
154.4081615646838
 30
0.0
 11
148.4856823025972
 21
154.4074201496294
 31
0.0
  0
LINE
  5
37D
330
E3
100
AcDbEntity
  8
0
  6
Continuous
100
AcDbLine
 10
148.4856823025972
 20
154.4074201496294
 30
0.0
 11
148.4616561567742
 21
154.4061378955738
 31
0.0
  0
LINE
  5
37E
330
E3
100
AcDbEntity
  8
0
  6
Continuous
100
AcDbLine
 10
148.4616561567742
 20
154.4061378955738
 30
0.0
 11
148.4408786266729
 21
154.40428256708
 31
0.0
  0
LINE
  5
37F
330
E3
100
AcDbEntity
  8
0
  6
Continuous
100
AcDbLine
 10
148.4408786266729
 20
154.40428256708
 30
0.0
 11
148.4234965626182
 21
154.4018290921413
 31
0.0
  0
LINE
  5
380
330
E3
100
AcDbEntity
  8
0
  6
Continuous
100
AcDbLine
 10
148.4234965626182
 20
154.4018290921413
 30
0.0
 11
148.4096353246434
 21
154.3987559804663
 31
0.0
  0
LINE
  5
381
330
E3
100
AcDbEntity
  8
0
  6
Continuous
100
AcDbLine
 10
148.4096353246434
 20
154.3987559804663
 30
0.0
 11
148.3993952007752
 21
154.3950417417635
 31
0.0
  0
LINE
  5
382
330
E3
100
AcDbEntity
  8
0
  6
Continuous
100
AcDbLine
 10
148.3993952007752
 20
154.3950417417635
 30
0.0
 11
148.3928432622644
 21
154.3906798288348
 31
0.0
  0
LINE
  5
383
330
E3
100
AcDbEntity
  8
0
  6
Continuous
100
AcDbLine
 10
148.3928432622644
 20
154.3906798288348
 30
0.0
 11
148.3900257767575
 21
154.3856580046568
 31
0.0
  0
LINE
  5
384
330
E3
100
AcDbEntity
  8
0
  6
Continuous
100
AcDbLine
 10
149.3408588863132
 20
154.0193300492266
 30
0.0
 11
149.3380414008062
 21
154.0143082250485
 31
0.0
  0
LINE
  5
385
330
E3
100
AcDbEntity
  8
0
  6
Continuous
100
AcDbLine
 10
149.3380414008062
 20
154.0143082250485
 30
0.0
 11
149.3314906848115
 21
154.0099446701306
 31
0.0
  0
LINE
  5
386
330
E3
100
AcDbEntity
  8
0
  6
Continuous
100
AcDbLine
 10
149.3314906848115
 20
154.0099446701306
 30
0.0
 11
149.3212499055514
 21
154.0062322257121
 31
0.0
  0
LINE
  5
387
330
E3
100
AcDbEntity
  8
0
  6
Continuous
100
AcDbLine
 10
149.3212499055514
 20
154.0062322257121
 30
0.0
 11
149.3073886675765
 21
154.0031555323218
 31
0.0
  0
LINE
  5
388
330
E3
100
AcDbEntity
  8
0
  6
Continuous
100
AcDbLine
 10
149.3073886675765
 20
154.0031555323218
 30
0.0
 11
149.2900066035218
 21
154.0007020573831
 31
0.0
  0
LINE
  5
389
330
E3
100
AcDbEntity
  8
0
  6
Continuous
100
AcDbLine
 10
149.2900066035218
 20
154.0007020573831
 30
0.0
 11
149.2692254917053
 21
153.9988503106046
 31
0.0
  0
LINE
  5
38A
330
E3
100
AcDbEntity
  8
0
  6
Continuous
100
AcDbLine
 10
149.2692254917053
 20
153.9988503106046
 30
0.0
 11
149.2452029275975
 21
153.997568056549
 31
0.0
  0
LINE
  5
38B
330
E3
100
AcDbEntity
  8
0
  6
Continuous
100
AcDbLine
 10
149.2452029275975
 20
153.997568056549
 30
0.0
 11
149.2181072518147
 21
153.9968266414946
 31
0.0
  0
LINE
  5
38C
330
E3
100
AcDbEntity
  8
0
  6
Continuous
100
AcDbLine
 10
149.2181072518147
 20
153.9968266414946
 30
0.0
 11
149.1881426221254
 21
153.9965902482888
 31
0.0
  0
LINE
  5
38D
330
E3
100
AcDbEntity
  8
0
  6
Continuous
100
AcDbLine
 10
149.1881426221254
 20
153.9965902482888
 30
0.0
 11
149.1555275231593
 21
153.9968230597793
 31
0.0
  0
LINE
  5
38E
330
E3
100
AcDbEntity
  8
0
  6
Continuous
100
AcDbLine
 10
149.1555275231593
 20
153.9968230597793
 30
0.0
 11
149.1205055115526
 21
153.9974785136681
 31
0.0
  0
LINE
  5
38F
330
E3
100
AcDbEntity
  8
0
  6
Continuous
100
AcDbLine
 10
149.1205055115526
 20
153.9974785136681
 30
0.0
 11
149.0833308890874
 21
153.9985172110873
 31
0.0
  0
LINE
  5
390
330
E3
100
AcDbEntity
  8
0
  6
Continuous
100
AcDbLine
 10
149.0833308890874
 20
153.9985172110873
 30
0.0
 11
149.0442866112674
 21
153.9998818445934
 31
0.0
  0
LINE
  5
391
330
E3
100
AcDbEntity
  8
0
  6
Continuous
100
AcDbLine
 10
149.0442866112674
 20
153.9998818445934
 30
0.0
 11
149.0036556335965
 21
154.0015258518881
 31
0.0
  0
LINE
  5
392
330
E3
100
AcDbEntity
  8
0
  6
Continuous
100
AcDbLine
 10
149.0036556335965
 20
154.0015258518881
 30
0.0
 11
148.96174240187
 21
154.0033990889581
 31
0.0
  0
LINE
  5
393
330
E3
100
AcDbEntity
  8
0
  6
Continuous
100
AcDbLine
 10
148.96174240187
 20
154.0033990889581
 30
0.0
 11
148.9188585253138
 21
154.0054406666443
 31
0.0
  0
LINE
  5
394
330
E3
100
AcDbEntity
  8
0
  6
Continuous
100
AcDbLine
 10
148.9188585253138
 20
154.0054406666443
 30
0.0
 11
148.8753263582993
 21
154.0076004409334
 31
0.0
  0
LINE
  5
395
330
E3
100
AcDbEntity
  8
0
  6
Continuous
100
AcDbLine
 10
148.8753263582993
 20
154.0076004409334
 30
0.0
 11
148.8314682551981
 21
154.0098139409511
 31
0.0
  0
LINE
  5
396
330
E3
100
AcDbEntity
  8
0
  6
Continuous
100
AcDbLine
 10
148.8314682551981
 20
154.0098139409511
 30
0.0
 11
148.7876065703817
 21
154.012031022684
 31
0.0
  0
LINE
  5
397
330
E3
100
AcDbEntity
  8
0
  6
Continuous
100
AcDbLine
 10
148.7876065703817
 20
154.012031022684
 30
0.0
 11
148.7440744033672
 21
154.0141872152579
 31
0.0
  0
LINE
  5
398
330
E3
100
AcDbEntity
  8
0
  6
Continuous
100
AcDbLine
 10
148.7440744033672
 20
154.0141872152579
 30
0.0
 11
148.7011941085262
 21
154.0162287929441
 31
0.0
  0
LINE
  5
399
330
E3
100
AcDbEntity
  8
0
  6
Continuous
100
AcDbLine
 10
148.7011941085262
 20
154.0162287929441
 30
0.0
 11
148.6592808767998
 21
154.0181020300141
 31
0.0
  0
LINE
  5
39A
330
E3
100
AcDbEntity
  8
0
  6
Continuous
100
AcDbLine
 10
148.6592808767998
 20
154.0181020300141
 30
0.0
 11
148.6186498991289
 21
154.0197460373087
 31
0.0
  0
LINE
  5
39B
330
E3
100
AcDbEntity
  8
0
  6
Continuous
100
AcDbLine
 10
148.6186498991289
 20
154.0197460373087
 30
0.0
 11
148.5796020395936
 21
154.02111425253
 31
0.0
  0
LINE
  5
39C
330
E3
100
AcDbEntity
  8
0
  6
Continuous
100
AcDbLine
 10
148.5796020395936
 20
154.02111425253
 30
0.0
 11
148.5424309988435
 21
154.0221493682341
 31
0.0
  0
LINE
  5
39D
330
E3
100
AcDbEntity
  8
0
  6
Continuous
100
AcDbLine
 10
148.5424309988435
 20
154.0221493682341
 30
0.0
 11
148.5074054055216
 21
154.0228048221228
 31
0.0
  0
LINE
  5
39E
330
E3
100
AcDbEntity
  8
0
  6
Continuous
100
AcDbLine
 10
148.5074054055216
 20
154.0228048221228
 30
0.0
 11
148.4747903065555
 21
154.0230376336134
 31
0.0
  0
LINE
  5
39F
330
E3
100
AcDbEntity
  8
0
  6
Continuous
100
AcDbLine
 10
148.4747903065555
 20
154.0230376336134
 30
0.0
 11
148.4448256768663
 21
154.0228048221228
 31
0.0
  0
LINE
  5
3A0
330
E3
100
AcDbEntity
  8
0
  6
Continuous
100
AcDbLine
 10
148.4448256768663
 20
154.0228048221228
 30
0.0
 11
148.4177335827987
 21
154.0220634070684
 31
0.0
  0
LINE
  5
3A1
330
E3
100
AcDbEntity
  8
0
  6
Continuous
100
AcDbLine
 10
148.4177335827987
 20
154.0220634070684
 30
0.0
 11
148.3937074369757
 21
154.0207811530128
 31
0.0
  0
LINE
  5
3A2
330
E3
100
AcDbEntity
  8
0
  6
Continuous
100
AcDbLine
 10
148.3937074369757
 20
154.0207811530128
 30
0.0
 11
148.3729299068744
 21
154.018925824519
 31
0.0
  0
LINE
  5
3A3
330
E3
100
AcDbEntity
  8
0
  6
Continuous
100
AcDbLine
 10
148.3729299068744
 20
154.018925824519
 30
0.0
 11
148.3555478428197
 21
154.0164723495803
 31
0.0
  0
LINE
  5
3A4
330
E3
100
AcDbEntity
  8
0
  6
Continuous
100
AcDbLine
 10
148.3555478428197
 20
154.0164723495803
 30
0.0
 11
148.3416866048449
 21
154.0133956561901
 31
0.0
  0
LINE
  5
3A5
330
E3
100
AcDbEntity
  8
0
  6
Continuous
100
AcDbLine
 10
148.3416866048449
 20
154.0133956561901
 30
0.0
 11
148.3314464809766
 21
154.0096849992025
 31
0.0
  0
LINE
  5
3A6
330
E3
100
AcDbEntity
  8
0
  6
Continuous
100
AcDbLine
 10
148.3314464809766
 20
154.0096849992025
 30
0.0
 11
148.3248939753513
 21
154.0053202733083
 31
0.0
  0
LINE
  5
3A7
330
E3
100
AcDbEntity
  8
0
  6
Continuous
100
AcDbLine
 10
148.3248939753513
 20
154.0053202733083
 30
0.0
 11
148.3220764898444
 21
154.0002984491302
 31
0.0
  0
LINE
  5
3A8
330
E3
100
AcDbEntity
  8
0
  6
Continuous
100
AcDbLine
 10
149.2729095994
 20
153.6339704937
 30
0.0
 11
149.2700921138931
 21
153.628948669522
 31
0.0
  0
LINE
  5
3A9
330
E3
100
AcDbEntity
  8
0
  6
Continuous
100
AcDbLine
 10
149.2700921138931
 20
153.628948669522
 30
0.0
 11
149.2635413978983
 21
153.6245851146041
 31
0.0
  0
LINE
  5
3AA
330
E3
100
AcDbEntity
  8
0
  6
Continuous
100
AcDbLine
 10
149.2635413978983
 20
153.6245851146041
 30
0.0
 11
149.2533011857528
 21
153.6208719014358
 31
0.0
  0
LINE
  5
3AB
330
E3
100
AcDbEntity
  8
0
  6
Continuous
100
AcDbLine
 10
149.2533011857528
 20
153.6208719014358
 30
0.0
 11
149.239439947778
 21
153.6177987897608
 31
0.0
  0
LINE
  5
3AC
330
E3
100
AcDbEntity
  8
0
  6
Continuous
100
AcDbLine
 10
149.239439947778
 20
153.6177987897608
 30
0.0
 11
149.2220578837233
 21
153.6153453148221
 31
0.0
  0
LINE
  5
3AD
330
E3
100
AcDbEntity
  8
0
  6
Continuous
100
AcDbLine
 10
149.2220578837233
 20
153.6153453148221
 30
0.0
 11
149.2012767719067
 21
153.6134899863283
 31
0.0
  0
LINE
  5
3AE
330
E3
100
AcDbEntity
  8
0
  6
Continuous
100
AcDbLine
 10
149.2012767719067
 20
153.6134899863283
 30
0.0
 11
149.1772542077989
 21
153.6122077322728
 31
0.0
  0
LINE
  5
3AF
330
E3
100
AcDbEntity
  8
0
  6
Continuous
100
AcDbLine
 10
149.1772542077989
 20
153.6122077322728
 30
0.0
 11
149.1501585320161
 21
153.6114663172183
 31
0.0
  0
LINE
  5
3B0
330
E3
100
AcDbEntity
  8
0
  6
Continuous
100
AcDbLine
 10
149.1501585320161
 20
153.6114663172183
 30
0.0
 11
149.1201939023269
 21
153.6112299240125
 31
0.0
  0
LINE
  5
3B1
330
E3
100
AcDbEntity
  8
0
  6
Continuous
100
AcDbLine
 10
149.1201939023269
 20
153.6112299240125
 30
0.0
 11
149.0875788033608
 21
153.6114627355031
 31
0.0
  0
LINE
  5
3B2
330
E3
100
AcDbEntity
  8
0
  6
Continuous
100
AcDbLine
 10
149.0875788033608
 20
153.6114627355031
 30
0.0
 11
149.0525567917541
 21
153.6121181893918
 31
0.0
  0
LINE
  5
3B3
330
E3
100
AcDbEntity
  8
0
  6
Continuous
100
AcDbLine
 10
149.0525567917541
 20
153.6121181893918
 30
0.0
 11
149.0153821692888
 21
153.6131568868111
 31
0.0
  0
LINE
  5
3B4
330
E3
100
AcDbEntity
  8
0
  6
Continuous
100
AcDbLine
 10
149.0153821692888
 20
153.6131568868111
 30
0.0
 11
148.9763343097536
 21
153.6145215203171
 31
0.0
  0
LINE
  5
3B5
330
E3
100
AcDbEntity
  8
0
  6
Continuous
100
AcDbLine
 10
148.9763343097536
 20
153.6145215203171
 30
0.0
 11
148.9357069137979
 21
153.6161691093271
 31
0.0
  0
LINE
  5
3B6
330
E3
100
AcDbEntity
  8
0
  6
Continuous
100
AcDbLine
 10
148.9357069137979
 20
153.6161691093271
 30
0.0
 11
148.8937936820714
 21
153.6180387646818
 31
0.0
  0
LINE
  5
3B7
330
E3
100
AcDbEntity
  8
0
  6
Continuous
100
AcDbLine
 10
148.8937936820714
 20
153.6180387646818
 30
0.0
 11
148.8509098055152
 21
153.6200839240833
 31
0.0
  0
LINE
  5
3B8
330
E3
100
AcDbEntity
  8
0
  6
Continuous
100
AcDbLine
 10
148.8509098055152
 20
153.6200839240833
 30
0.0
 11
148.8073776385008
 21
153.6222401166571
 31
0.0
  0
LINE
  5
3B9
330
E3
100
AcDbEntity
  8
0
  6
Continuous
100
AcDbLine
 10
148.8073776385008
 20
153.6222401166571
 30
0.0
 11
148.7635195353996
 21
153.6244536166748
 31
0.0
  0
LINE
  5
3BA
330
E3
100
AcDbEntity
  8
0
  6
Continuous
100
AcDbLine
 10
148.7635195353996
 20
153.6244536166748
 30
0.0
 11
148.7196578505831
 21
153.6266706984077
 31
0.0
  0
LINE
  5
3BB
330
E3
100
AcDbEntity
  8
0
  6
Continuous
100
AcDbLine
 10
148.7196578505831
 20
153.6266706984077
 30
0.0
 11
148.6761256835686
 21
153.6288268909816
 31
0.0
  0
LINE
  5
3BC
330
E3
100
AcDbEntity
  8
0
  6
Continuous
100
AcDbLine
 10
148.6761256835686
 20
153.6288268909816
 30
0.0
 11
148.6332453887277
 21
153.6308684686678
 31
0.0
  0
LINE
  5
3BD
330
E3
100
AcDbEntity
  8
0
  6
Continuous
100
AcDbLine
 10
148.6332453887277
 20
153.6308684686678
 30
0.0
 11
148.5913321570012
 21
153.6327417057378
 31
0.0
  0
LINE
  5
3BE
330
E3
100
AcDbEntity
  8
0
  6
Continuous
100
AcDbLine
 10
148.5913321570012
 20
153.6327417057378
 30
0.0
 11
148.5507011793303
 21
153.6343857130325
 31
0.0
  0
LINE
  5
3BF
330
E3
100
AcDbEntity
  8
0
  6
Continuous
100
AcDbLine
 10
148.5507011793303
 20
153.6343857130325
 30
0.0
 11
148.511653319795
 21
153.6357539282538
 31
0.0
  0
LINE
  5
3C0
330
E3
100
AcDbEntity
  8
0
  6
Continuous
100
AcDbLine
 10
148.511653319795
 20
153.6357539282538
 30
0.0
 11
148.474482279045
 21
153.6367890439578
 31
0.0
  0
LINE
  5
3C1
330
E3
100
AcDbEntity
  8
0
  6
Continuous
100
AcDbLine
 10
148.474482279045
 20
153.6367890439578
 30
0.0
 11
148.4394566857231
 21
153.6374480795618
 31
0.0
  0
LINE
  5
3C2
330
E3
100
AcDbEntity
  8
0
  6
Continuous
100
AcDbLine
 10
148.4394566857231
 20
153.6374480795618
 30
0.0
 11
148.406841586757
 21
153.6376773093371
 31
0.0
  0
LINE
  5
3C3
330
E3
100
AcDbEntity
  8
0
  6
Continuous
100
AcDbLine
 10
148.406841586757
 20
153.6376773093371
 30
0.0
 11
148.3768769570677
 21
153.6374444978466
 31
0.0
  0
LINE
  5
3C4
330
E3
100
AcDbEntity
  8
0
  6
Continuous
100
AcDbLine
 10
148.3768769570677
 20
153.6374444978466
 30
0.0
 11
148.3497848630002
 21
153.6367030827921
 31
0.0
  0
LINE
  5
3C5
330
E3
100
AcDbEntity
  8
0
  6
Continuous
100
AcDbLine
 10
148.3497848630002
 20
153.6367030827921
 30
0.0
 11
148.3257587171771
 21
153.6354208287366
 31
0.0
  0
LINE
  5
3C6
330
E3
100
AcDbEntity
  8
0
  6
Continuous
100
AcDbLine
 10
148.3257587171771
 20
153.6354208287366
 30
0.0
 11
148.3049811870759
 21
153.6335655002428
 31
0.0
  0
LINE
  5
3C7
330
E3
100
AcDbEntity
  8
0
  6
Continuous
100
AcDbLine
 10
148.3049811870759
 20
153.6335655002428
 30
0.0
 11
148.2875991230212
 21
153.6311120253041
 31
0.0
  0
LINE
  5
3C8
330
E3
100
AcDbEntity
  8
0
  6
Continuous
100
AcDbLine
 10
148.2875991230212
 20
153.6311120253041
 30
0.0
 11
148.2737378850463
 21
153.6280353319138
 31
0.0
  0
LINE
  5
3C9
330
E3
100
AcDbEntity
  8
0
  6
Continuous
100
AcDbLine
 10
148.2737378850463
 20
153.6280353319138
 30
0.0
 11
148.2634941794628
 21
153.6243246749262
 31
0.0
  0
LINE
  5
3CA
330
E3
100
AcDbEntity
  8
0
  6
Continuous
100
AcDbLine
 10
148.2634941794628
 20
153.6243246749262
 30
0.0
 11
148.2569446884382
 21
153.6199607177818
 31
0.0
  0
LINE
  5
3CB
330
E3
100
AcDbEntity
  8
0
  6
Continuous
100
AcDbLine
 10
148.2569446884382
 20
153.6199607177818
 30
0.0
 11
148.2541272029312
 21
153.6149388936037
 31
0.0
  0
LINE
  5
3CC
330
E3
100
AcDbEntity
  8
0
  6
Continuous
100
AcDbLine
 10
149.2049603124869
 20
153.2486109381736
 30
0.0
 11
149.20214282698
 21
153.2435891139955
 31
0.0
  0
LINE
  5
3CD
330
E3
100
AcDbEntity
  8
0
  6
Continuous
100
AcDbLine
 10
149.20214282698
 20
153.2435891139955
 30
0.0
 11
149.1955921109852
 21
153.2392255590777
 31
0.0
  0
LINE
  5
3CE
330
E3
100
AcDbEntity
  8
0
  6
Continuous
100
AcDbLine
 10
149.1955921109852
 20
153.2392255590777
 30
0.0
 11
149.1853524659543
 21
153.2355115771596
 31
0.0
  0
LINE
  5
3CF
330
E3
100
AcDbEntity
  8
0
  6
Continuous
100
AcDbLine
 10
149.1853524659543
 20
153.2355115771596
 30
0.0
 11
149.1714912279795
 21
153.2324384654845
 31
0.0
  0
LINE
  5
3D0
330
E3
100
AcDbEntity
  8
0
  6
Continuous
100
AcDbLine
 10
149.1714912279795
 20
153.2324384654845
 30
0.0
 11
149.1541055822095
 21
153.2299849905459
 31
0.0
  0
LINE
  5
3D1
330
E3
100
AcDbEntity
  8
0
  6
Continuous
100
AcDbLine
 10
149.1541055822095
 20
153.2299849905459
 30
0.0
 11
149.1333280521082
 21
153.2281296620521
 31
0.0
  0
LINE
  5
3D2
330
E3
100
AcDbEntity
  8
0
  6
Continuous
100
AcDbLine
 10
149.1333280521082
 20
153.2281296620521
 30
0.0
 11
149.1093054880004
 21
153.2268474079965
 31
0.0
  0
LINE
  5
3D3
330
E3
100
AcDbEntity
  8
0
  6
Continuous
100
AcDbLine
 10
149.1093054880004
 20
153.2268474079965
 30
0.0
 11
149.0822098122176
 21
153.2261059929421
 31
0.0
  0
LINE
  5
3D4
330
E3
100
AcDbEntity
  8
0
  6
Continuous
100
AcDbLine
 10
149.0822098122176
 20
153.2261059929421
 30
0.0
 11
149.0522451825284
 21
153.2258695997363
 31
0.0
  0
LINE
  5
3D5
330
E3
100
AcDbEntity
  8
0
  6
Continuous
100
AcDbLine
 10
149.0522451825284
 20
153.2258695997363
 30
0.0
 11
149.0196300835623
 21
153.2261024112268
 31
0.0
  0
LINE
  5
3D6
330
E3
100
AcDbEntity
  8
0
  6
Continuous
100
AcDbLine
 10
149.0196300835623
 20
153.2261024112268
 30
0.0
 11
148.9846080719556
 21
153.2267614468308
 31
0.0
  0
LINE
  5
3D7
330
E3
100
AcDbEntity
  8
0
  6
Continuous
100
AcDbLine
 10
148.9846080719556
 20
153.2267614468308
 30
0.0
 11
148.9474334494903
 21
153.2277965625348
 31
0.0
  0
LINE
  5
3D8
330
E3
100
AcDbEntity
  8
0
  6
Continuous
100
AcDbLine
 10
148.9474334494903
 20
153.2277965625348
 30
0.0
 11
148.908385589955
 21
153.2291611960409
 31
0.0
  0
LINE
  5
3D9
330
E3
100
AcDbEntity
  8
0
  6
Continuous
100
AcDbLine
 10
148.908385589955
 20
153.2291611960409
 30
0.0
 11
148.8677546122841
 21
153.2308087850508
 31
0.0
  0
LINE
  5
3DA
330
E3
100
AcDbEntity
  8
0
  6
Continuous
100
AcDbLine
 10
148.8677546122841
 20
153.2308087850508
 30
0.0
 11
148.8258449622729
 21
153.2326784404056
 31
0.0
  0
LINE
  5
3DB
330
E3
100
AcDbEntity
  8
0
  6
Continuous
100
AcDbLine
 10
148.8258449622729
 20
153.2326784404056
 30
0.0
 11
148.7829610857167
 21
153.234723599807
 31
0.0
  0
LINE
  5
3DC
330
E3
100
AcDbEntity
  8
0
  6
Continuous
100
AcDbLine
 10
148.7829610857167
 20
153.234723599807
 30
0.0
 11
148.7394289187022
 21
153.2368797923809
 31
0.0
  0
LINE
  5
3DD
330
E3
100
AcDbEntity
  8
0
  6
Continuous
100
AcDbLine
 10
148.7394289187022
 20
153.2368797923809
 30
0.0
 11
148.695570815601
 21
153.2390968741138
 31
0.0
  0
LINE
  5
3DE
330
E3
100
AcDbEntity
  8
0
  6
Continuous
100
AcDbLine
 10
148.695570815601
 20
153.2390968741138
 30
0.0
 11
148.6517091307846
 21
153.2413103741315
 31
0.0
  0
LINE
  5
3DF
330
E3
100
AcDbEntity
  8
0
  6
Continuous
100
AcDbLine
 10
148.6517091307846
 20
153.2413103741315
 30
0.0
 11
148.6081769637701
 21
153.2434665667053
 31
0.0
  0
LINE
  5
3E0
330
E3
100
AcDbEntity
  8
0
  6
Continuous
100
AcDbLine
 10
148.6081769637701
 20
153.2434665667053
 30
0.0
 11
148.5652930872139
 21
153.2455117261068
 31
0.0
  0
LINE
  5
3E1
330
E3
100
AcDbEntity
  8
0
  6
Continuous
100
AcDbLine
 10
148.5652930872139
 20
153.2455117261068
 30
0.0
 11
148.5233834372027
 21
153.2473813814615
 31
0.0
  0
LINE
  5
3E2
330
E3
100
AcDbEntity
  8
0
  6
Continuous
100
AcDbLine
 10
148.5233834372027
 20
153.2473813814615
 30
0.0
 11
148.4827524595318
 21
153.2490289704715
 31
0.0
  0
LINE
  5
3E3
330
E3
100
AcDbEntity
  8
0
  6
Continuous
100
AcDbLine
 10
148.4827524595318
 20
153.2490289704715
 30
0.0
 11
148.4437045999965
 21
153.2503936039775
 31
0.0
  0
LINE
  5
3E4
330
E3
100
AcDbEntity
  8
0
  6
Continuous
100
AcDbLine
 10
148.4437045999965
 20
153.2503936039775
 30
0.0
 11
148.4065299775312
 21
153.2514287196816
 31
0.0
  0
LINE
  5
3E5
330
E3
100
AcDbEntity
  8
0
  6
Continuous
100
AcDbLine
 10
148.4065299775312
 20
153.2514287196816
 30
0.0
 11
148.3715079659245
 21
153.2520877552856
 31
0.0
  0
LINE
  5
3E6
330
E3
100
AcDbEntity
  8
0
  6
Continuous
100
AcDbLine
 10
148.3715079659245
 20
153.2520877552856
 30
0.0
 11
148.3388928669584
 21
153.2523205667761
 31
0.0
  0
LINE
  5
3E7
330
E3
100
AcDbEntity
  8
0
  6
Continuous
100
AcDbLine
 10
148.3388928669584
 20
153.2523205667761
 30
0.0
 11
148.3089282372692
 21
153.2520841735703
 31
0.0
  0
LINE
  5
3E8
330
E3
100
AcDbEntity
  8
0
  6
Continuous
100
AcDbLine
 10
148.3089282372692
 20
153.2520841735703
 30
0.0
 11
148.2818325614864
 21
153.2513427585158
 31
0.0
  0
LINE
  5
3E9
330
E3
100
AcDbEntity
  8
0
  6
Continuous
100
AcDbLine
 10
148.2818325614864
 20
153.2513427585158
 30
0.0
 11
148.2578099973786
 21
153.2500605044603
 31
0.0
  0
LINE
  5
3EA
330
E3
100
AcDbEntity
  8
0
  6
Continuous
100
AcDbLine
 10
148.2578099973786
 20
153.2500605044603
 30
0.0
 11
148.2370324672773
 21
153.2482051759665
 31
0.0
  0
LINE
  5
3EB
330
E3
100
AcDbEntity
  8
0
  6
Continuous
100
AcDbLine
 10
148.2370324672773
 20
153.2482051759665
 30
0.0
 11
148.2196468215074
 21
153.2457517010278
 31
0.0
  0
LINE
  5
3EC
330
E3
100
AcDbEntity
  8
0
  6
Continuous
100
AcDbLine
 10
148.2196468215074
 20
153.2457517010278
 30
0.0
 11
148.2057891652478
 21
153.2426785893527
 31
0.0
  0
LINE
  5
3ED
330
E3
100
AcDbEntity
  8
0
  6
Continuous
100
AcDbLine
 10
148.2057891652478
 20
153.2426785893527
 30
0.0
 11
148.1955454596643
 21
153.23896435065
 31
0.0
  0
LINE
  5
3EE
330
E3
100
AcDbEntity
  8
0
  6
Continuous
100
AcDbLine
 10
148.1955454596643
 20
153.23896435065
 30
0.0
 11
148.188995401525
 21
153.2346011622553
 31
0.0
  0
LINE
  5
3EF
330
E3
100
AcDbEntity
  8
0
  6
Continuous
100
AcDbLine
 10
148.188995401525
 20
153.2346011622553
 30
0.0
 11
148.1861779160181
 21
153.2295793380772
 31
0.0
  0
LINE
  5
3F0
330
E3
100
AcDbEntity
  8
0
  6
Continuous
100
AcDbLine
 10
149.1370110255737
 20
152.863251382647
 30
0.0
 11
149.1341935400668
 21
152.858229558469
 31
0.0
  0
LINE
  5
3F1
330
E3
100
AcDbEntity
  8
0
  6
Continuous
100
AcDbLine
 10
149.1341935400668
 20
152.858229558469
 30
0.0
 11
149.127642824072
 21
152.8538660035511
 31
0.0
  0
LINE
  5
3F2
330
E3
100
AcDbEntity
  8
0
  6
Continuous
100
AcDbLine
 10
149.127642824072
 20
152.8538660035511
 30
0.0
 11
149.1174001644405
 21
152.8501548345986
 31
0.0
  0
LINE
  5
3F3
330
E3
100
AcDbEntity
  8
0
  6
Continuous
100
AcDbLine
 10
149.1174001644405
 20
152.8501548345986
 30
0.0
 11
149.1035389264657
 21
152.8470781412083
 31
0.0
  0
LINE
  5
3F4
330
E3
100
AcDbEntity
  8
0
  6
Continuous
100
AcDbLine
 10
149.1035389264657
 20
152.8470781412083
 30
0.0
 11
149.0861568624109
 21
152.8446246662696
 31
0.0
  0
LINE
  5
3F5
330
E3
100
AcDbEntity
  8
0
  6
Continuous
100
AcDbLine
 10
149.0861568624109
 20
152.8446246662696
 30
0.0
 11
149.0653793323096
 21
152.8427693377758
 31
0.0
  0
LINE
  5
3F6
330
E3
100
AcDbEntity
  8
0
  6
Continuous
100
AcDbLine
 10
149.0653793323096
 20
152.8427693377758
 30
0.0
 11
149.0413531864866
 21
152.8414870837203
 31
0.0
  0
LINE
  5
3F7
330
E3
100
AcDbEntity
  8
0
  6
Continuous
100
AcDbLine
 10
149.0413531864866
 20
152.8414870837203
 30
0.0
 11
149.014261092419
 21
152.8407456686658
 31
0.0
  0
LINE
  5
3F8
330
E3
100
AcDbEntity
  8
0
  6
Continuous
100
AcDbLine
 10
149.014261092419
 20
152.8407456686658
 30
0.0
 11
148.9842964627298
 21
152.8405128571753
 31
0.0
  0
LINE
  5
3F9
330
E3
100
AcDbEntity
  8
0
  6
Continuous
100
AcDbLine
 10
148.9842964627298
 20
152.8405128571753
 30
0.0
 11
148.9516813637638
 21
152.8407420869506
 31
0.0
  0
LINE
  5
3FA
330
E3
100
AcDbEntity
  8
0
  6
Continuous
100
AcDbLine
 10
148.9516813637638
 20
152.8407420869506
 30
0.0
 11
148.9166557704418
 21
152.8414011225545
 31
0.0
  0
LINE
  5
3FB
330
E3
100
AcDbEntity
  8
0
  6
Continuous
100
AcDbLine
 10
148.9166557704418
 20
152.8414011225545
 30
0.0
 11
148.8794847296918
 21
152.8424362382586
 31
0.0
  0
LINE
  5
3FC
330
E3
100
AcDbEntity
  8
0
  6
Continuous
100
AcDbLine
 10
148.8794847296918
 20
152.8424362382586
 30
0.0
 11
148.8404368701565
 21
152.8438044534799
 31
0.0
  0
LINE
  5
3FD
330
E3
100
AcDbEntity
  8
0
  6
Continuous
100
AcDbLine
 10
148.8404368701565
 20
152.8438044534799
 30
0.0
 11
148.7998058924856
 21
152.8454484607745
 31
0.0
  0
LINE
  5
3FE
330
E3
100
AcDbEntity
  8
0
  6
Continuous
100
AcDbLine
 10
148.7998058924856
 20
152.8454484607745
 30
0.0
 11
148.7578962424744
 21
152.8473216978445
 31
0.0
  0
LINE
  5
3FF
330
E3
100
AcDbEntity
  8
0
  6
Continuous
100
AcDbLine
 10
148.7578962424744
 20
152.8473216978445
 30
0.0
 11
148.7150123659182
 21
152.8493632755307
 31
0.0
  0
LINE
  5
400
330
E3
100
AcDbEntity
  8
0
  6
Continuous
100
AcDbLine
 10
148.7150123659182
 20
152.8493632755307
 30
0.0
 11
148.6714801989037
 21
152.8515194681046
 31
0.0
  0
LINE
  5
401
330
E3
100
AcDbEntity
  8
0
  6
Continuous
100
AcDbLine
 10
148.6714801989037
 20
152.8515194681046
 30
0.0
 11
148.6276185140872
 21
152.8537365498375
 31
0.0
  0
LINE
  5
402
330
E3
100
AcDbEntity
  8
0
  6
Continuous
100
AcDbLine
 10
148.6276185140872
 20
152.8537365498375
 30
0.0
 11
148.583760410986
 21
152.8559500498552
 31
0.0
  0
LINE
  5
403
330
E3
100
AcDbEntity
  8
0
  6
Continuous
100
AcDbLine
 10
148.583760410986
 20
152.8559500498552
 30
0.0
 11
148.5402282439716
 21
152.8581062424291
 31
0.0
  0
LINE
  5
404
330
E3
100
AcDbEntity
  8
0
  6
Continuous
100
AcDbLine
 10
148.5402282439716
 20
152.8581062424291
 30
0.0
 11
148.4973443674153
 21
152.8601514018305
 31
0.0
  0
LINE
  5
405
330
E3
100
AcDbEntity
  8
0
  6
Continuous
100
AcDbLine
 10
148.4973443674153
 20
152.8601514018305
 30
0.0
 11
148.4554311356889
 21
152.8620210571853
 31
0.0
  0
LINE
  5
406
330
E3
100
AcDbEntity
  8
0
  6
Continuous
100
AcDbLine
 10
148.4554311356889
 20
152.8620210571853
 30
0.0
 11
148.4148037397332
 21
152.8636686461952
 31
0.0
  0
LINE
  5
407
330
E3
100
AcDbEntity
  8
0
  6
Continuous
100
AcDbLine
 10
148.4148037397332
 20
152.8636686461952
 30
0.0
 11
148.375755880198
 21
152.8650332797013
 31
0.0
  0
LINE
  5
408
330
E3
100
AcDbEntity
  8
0
  6
Continuous
100
AcDbLine
 10
148.375755880198
 20
152.8650332797013
 30
0.0
 11
148.3385812577327
 21
152.8660719771206
 31
0.0
  0
LINE
  5
409
330
E3
100
AcDbEntity
  8
0
  6
Continuous
100
AcDbLine
 10
148.3385812577327
 20
152.8660719771206
 30
0.0
 11
148.303559246126
 21
152.8667274310093
 31
0.0
  0
LINE
  5
40A
330
E3
100
AcDbEntity
  8
0
  6
Continuous
100
AcDbLine
 10
148.303559246126
 20
152.8667274310093
 30
0.0
 11
148.2709441471599
 21
152.8669602424999
 31
0.0
  0
LINE
  5
40B
330
E3
100
AcDbEntity
  8
0
  6
Continuous
100
AcDbLine
 10
148.2709441471599
 20
152.8669602424999
 30
0.0
 11
148.2409795174707
 21
152.8667238492941
 31
0.0
  0
LINE
  5
40C
330
E3
100
AcDbEntity
  8
0
  6
Continuous
100
AcDbLine
 10
148.2409795174707
 20
152.8667238492941
 30
0.0
 11
148.2138838416878
 21
152.8659824342396
 31
0.0
  0
LINE
  5
40D
330
E3
100
AcDbEntity
  8
0
  6
Continuous
100
AcDbLine
 10
148.2138838416878
 20
152.8659824342396
 30
0.0
 11
148.18986127758
 21
152.8647001801841
 31
0.0
  0
LINE
  5
40E
330
E3
100
AcDbEntity
  8
0
  6
Continuous
100
AcDbLine
 10
148.18986127758
 20
152.8647001801841
 30
0.0
 11
148.1690801657635
 21
152.8628448516903
 31
0.0
  0
LINE
  5
40F
330
E3
100
AcDbEntity
  8
0
  6
Continuous
100
AcDbLine
 10
148.1690801657635
 20
152.8628448516903
 30
0.0
 11
148.1516981017088
 21
152.8603913767515
 31
0.0
  0
LINE
  5
410
330
E3
100
AcDbEntity
  8
0
  6
Continuous
100
AcDbLine
 10
148.1516981017088
 20
152.8603913767515
 30
0.0
 11
148.137836863734
 21
152.8573182650765
 31
0.0
  0
LINE
  5
411
330
E3
100
AcDbEntity
  8
0
  6
Continuous
100
AcDbLine
 10
148.137836863734
 20
152.8573182650765
 30
0.0
 11
148.1275967398658
 21
152.8536040263737
 31
0.0
  0
LINE
  5
412
330
E3
100
AcDbEntity
  8
0
  6
Continuous
100
AcDbLine
 10
148.1275967398658
 20
152.8536040263737
 30
0.0
 11
148.1210461146119
 21
152.8492416067288
 31
0.0
  0
LINE
  5
413
330
E3
100
AcDbEntity
  8
0
  6
Continuous
100
AcDbLine
 10
148.1210461146119
 20
152.8492416067288
 30
0.0
 11
148.1182286291049
 21
152.8442197825507
 31
0.0
  0
LINE
  5
414
330
E3
100
AcDbEntity
  8
0
  6
Continuous
100
AcDbLine
 10
149.0690617386606
 20
152.4778918271205
 30
0.0
 11
149.0662442531536
 21
152.4728700029425
 31
0.0
  0
LINE
  5
415
330
E3
100
AcDbEntity
  8
0
  6
Continuous
100
AcDbLine
 10
149.0662442531536
 20
152.4728700029425
 30
0.0
 11
149.0596935371589
 21
152.4685064480246
 31
0.0
  0
LINE
  5
416
330
E3
100
AcDbEntity
  8
0
  6
Continuous
100
AcDbLine
 10
149.0596935371589
 20
152.4685064480246
 30
0.0
 11
149.0494514446419
 21
152.4647945103223
 31
0.0
  0
LINE
  5
417
330
E3
100
AcDbEntity
  8
0
  6
Continuous
100
AcDbLine
 10
149.0494514446419
 20
152.4647945103223
 30
0.0
 11
149.0355902066671
 21
152.461717816932
 31
0.0
  0
LINE
  5
418
330
E3
100
AcDbEntity
  8
0
  6
Continuous
100
AcDbLine
 10
149.0355902066671
 20
152.461717816932
 30
0.0
 11
149.0182081426124
 21
152.4592643419933
 31
0.0
  0
LINE
  5
419
330
E3
100
AcDbEntity
  8
0
  6
Continuous
100
AcDbLine
 10
149.0182081426124
 20
152.4592643419933
 30
0.0
 11
148.9974306125111
 21
152.4574090134996
 31
0.0
  0
LINE
  5
41A
330
E3
100
AcDbEntity
  8
0
  6
Continuous
100
AcDbLine
 10
148.9974306125111
 20
152.4574090134996
 30
0.0
 11
148.9734044666881
 21
152.456126759444
 31
0.0
  0
LINE
  5
41B
330
E3
100
AcDbEntity
  8
0
  6
Continuous
100
AcDbLine
 10
148.9734044666881
 20
152.456126759444
 30
0.0
 11
148.9463123726205
 21
152.4553853443896
 31
0.0
  0
LINE
  5
41C
330
E3
100
AcDbEntity
  8
0
  6
Continuous
100
AcDbLine
 10
148.9463123726205
 20
152.4553853443896
 30
0.0
 11
148.9163477429312
 21
152.455152532899
 31
0.0
  0
LINE
  5
41D
330
E3
100
AcDbEntity
  8
0
  6
Continuous
100
AcDbLine
 10
148.9163477429312
 20
152.455152532899
 30
0.0
 11
148.8837326439652
 21
152.4553853443896
 31
0.0
  0
LINE
  5
41E
330
E3
100
AcDbEntity
  8
0
  6
Continuous
100
AcDbLine
 10
148.8837326439652
 20
152.4553853443896
 30
0.0
 11
148.8487070506433
 21
152.4560407982783
 31
0.0
  0
LINE
  5
41F
330
E3
100
AcDbEntity
  8
0
  6
Continuous
100
AcDbLine
 10
148.8487070506433
 20
152.4560407982783
 30
0.0
 11
148.8115360098932
 21
152.4570759139823
 31
0.0
  0
LINE
  5
420
330
E3
100
AcDbEntity
  8
0
  6
Continuous
100
AcDbLine
 10
148.8115360098932
 20
152.4570759139823
 30
0.0
 11
148.7724881503579
 21
152.4584441292036
 31
0.0
  0
LINE
  5
421
330
E3
100
AcDbEntity
  8
0
  6
Continuous
100
AcDbLine
 10
148.7724881503579
 20
152.4584441292036
 30
0.0
 11
148.7318571726871
 21
152.4600881364983
 31
0.0
  0
LINE
  5
422
330
E3
100
AcDbEntity
  8
0
  6
Continuous
100
AcDbLine
 10
148.7318571726871
 20
152.4600881364983
 30
0.0
 11
148.6899439409606
 21
152.4619613735683
 31
0.0
  0
LINE
  5
423
330
E3
100
AcDbEntity
  8
0
  6
Continuous
100
AcDbLine
 10
148.6899439409606
 20
152.4619613735683
 30
0.0
 11
148.6470636461196
 21
152.4640029512545
 31
0.0
  0
LINE
  5
424
330
E3
100
AcDbEntity
  8
0
  6
Continuous
100
AcDbLine
 10
148.6470636461196
 20
152.4640029512545
 30
0.0
 11
148.6035314791052
 21
152.4661627255436
 31
0.0
  0
LINE
  5
425
330
E3
100
AcDbEntity
  8
0
  6
Continuous
100
AcDbLine
 10
148.6035314791052
 20
152.4661627255436
 30
0.0
 11
148.5596697942887
 21
152.4683762255613
 31
0.0
  0
LINE
  5
426
330
E3
100
AcDbEntity
  8
0
  6
Continuous
100
AcDbLine
 10
148.5596697942887
 20
152.4683762255613
 30
0.0
 11
148.5158116911875
 21
152.470589725579
 31
0.0
  0
LINE
  5
427
330
E3
100
AcDbEntity
  8
0
  6
Continuous
100
AcDbLine
 10
148.5158116911875
 20
152.470589725579
 30
0.0
 11
148.472279524173
 21
152.4727494998681
 31
0.0
  0
LINE
  5
428
330
E3
100
AcDbEntity
  8
0
  6
Continuous
100
AcDbLine
 10
148.472279524173
 20
152.4727494998681
 30
0.0
 11
148.4293956476168
 21
152.4747910775543
 31
0.0
  0
LINE
  5
429
330
E3
100
AcDbEntity
  8
0
  6
Continuous
100
AcDbLine
 10
148.4293956476168
 20
152.4747910775543
 30
0.0
 11
148.3874824158903
 21
152.4766643146243
 31
0.0
  0
LINE
  5
42A
330
E3
100
AcDbEntity
  8
0
  6
Continuous
100
AcDbLine
 10
148.3874824158903
 20
152.4766643146243
 30
0.0
 11
148.3468514382195
 21
152.478308321919
 31
0.0
  0
LINE
  5
42B
330
E3
100
AcDbEntity
  8
0
  6
Continuous
100
AcDbLine
 10
148.3468514382195
 20
152.478308321919
 30
0.0
 11
148.3078071603994
 21
152.4796765371403
 31
0.0
  0
LINE
  5
42C
330
E3
100
AcDbEntity
  8
0
  6
Continuous
100
AcDbLine
 10
148.3078071603994
 20
152.4796765371403
 30
0.0
 11
148.2706325379341
 21
152.4807116528443
 31
0.0
  0
LINE
  5
42D
330
E3
100
AcDbEntity
  8
0
  6
Continuous
100
AcDbLine
 10
148.2706325379341
 20
152.4807116528443
 30
0.0
 11
148.2356105263274
 21
152.481367106733
 31
0.0
  0
LINE
  5
42E
330
E3
100
AcDbEntity
  8
0
  6
Continuous
100
AcDbLine
 10
148.2356105263274
 20
152.481367106733
 30
0.0
 11
148.2029954273614
 21
152.4815999182236
 31
0.0
  0
LINE
  5
42F
330
E3
100
AcDbEntity
  8
0
  6
Continuous
100
AcDbLine
 10
148.2029954273614
 20
152.4815999182236
 30
0.0
 11
148.1730307976721
 21
152.4813635250178
 31
0.0
  0
LINE
  5
430
330
E3
100
AcDbEntity
  8
0
  6
Continuous
100
AcDbLine
 10
148.1730307976721
 20
152.4813635250178
 30
0.0
 11
148.1459351218893
 21
152.4806221099633
 31
0.0
  0
LINE
  5
431
330
E3
100
AcDbEntity
  8
0
  6
Continuous
100
AcDbLine
 10
148.1459351218893
 20
152.4806221099633
 30
0.0
 11
148.1219125577815
 21
152.4793398559078
 31
0.0
  0
LINE
  5
432
330
E3
100
AcDbEntity
  8
0
  6
Continuous
100
AcDbLine
 10
148.1219125577815
 20
152.4793398559078
 30
0.0
 11
148.101131445965
 21
152.4774881091292
 31
0.0
  0
LINE
  5
433
330
E3
100
AcDbEntity
  8
0
  6
Continuous
100
AcDbLine
 10
148.101131445965
 20
152.4774881091292
 30
0.0
 11
148.0837493819103
 21
152.4750346341905
 31
0.0
  0
LINE
  5
434
330
E3
100
AcDbEntity
  8
0
  6
Continuous
100
AcDbLine
 10
148.0837493819103
 20
152.4750346341905
 30
0.0
 11
148.0698881439355
 21
152.4719579408003
 31
0.0
  0
LINE
  5
435
330
E3
100
AcDbEntity
  8
0
  6
Continuous
100
AcDbLine
 10
148.0698881439355
 20
152.4719579408003
 30
0.0
 11
148.0596480200672
 21
152.4682472838127
 31
0.0
  0
LINE
  5
436
330
E3
100
AcDbEntity
  8
0
  6
Continuous
100
AcDbLine
 10
148.0596480200672
 20
152.4682472838127
 30
0.0
 11
148.0530968276987
 21
152.4638820512023
 31
0.0
  0
LINE
  5
437
330
E3
100
AcDbEntity
  8
0
  6
Continuous
100
AcDbLine
 10
148.0530968276987
 20
152.4638820512023
 30
0.0
 11
148.0502793421918
 21
152.4588602270242
 31
0.0
  0
LINE
  5
438
330
E3
100
AcDbEntity
  8
0
  6
Continuous
100
AcDbLine
 10
149.0011124517474
 20
152.092532271594
 30
0.0
 11
148.9982949662405
 21
152.0875104474159
 31
0.0
  0
LINE
  5
439
330
E3
100
AcDbEntity
  8
0
  6
Continuous
100
AcDbLine
 10
148.9982949662405
 20
152.0875104474159
 30
0.0
 11
148.9917442502457
 21
152.0831468924981
 31
0.0
  0
LINE
  5
43A
330
E3
100
AcDbEntity
  8
0
  6
Continuous
100
AcDbLine
 10
148.9917442502457
 20
152.0831468924981
 30
0.0
 11
148.9815027248434
 21
152.0794341860461
 31
0.0
  0
LINE
  5
43B
330
E3
100
AcDbEntity
  8
0
  6
Continuous
100
AcDbLine
 10
148.9815027248434
 20
152.0794341860461
 30
0.0
 11
148.9676414868686
 21
152.076361074371
 31
0.0
  0
LINE
  5
43C
330
E3
100
AcDbEntity
  8
0
  6
Continuous
100
AcDbLine
 10
148.9676414868686
 20
152.076361074371
 30
0.0
 11
148.9502594228139
 21
152.0739075994323
 31
0.0
  0
LINE
  5
43D
330
E3
100
AcDbEntity
  8
0
  6
Continuous
100
AcDbLine
 10
148.9502594228139
 20
152.0739075994323
 30
0.0
 11
148.9294818927126
 21
152.0720522709385
 31
0.0
  0
LINE
  5
43E
330
E3
100
AcDbEntity
  8
0
  6
Continuous
100
AcDbLine
 10
148.9294818927126
 20
152.0720522709385
 30
0.0
 11
148.9054557468895
 21
152.070770016883
 31
0.0
  0
LINE
  5
43F
330
E3
100
AcDbEntity
  8
0
  6
Continuous
100
AcDbLine
 10
148.9054557468895
 20
152.070770016883
 30
0.0
 11
148.878363652822
 21
152.0700286018285
 31
0.0
  0
LINE
  5
440
330
E3
100
AcDbEntity
  8
0
  6
Continuous
100
AcDbLine
 10
148.878363652822
 20
152.0700286018285
 30
0.0
 11
148.8483954414175
 21
152.0697922086227
 31
0.0
  0
LINE
  5
441
330
E3
100
AcDbEntity
  8
0
  6
Continuous
100
AcDbLine
 10
148.8483954414175
 20
152.0697922086227
 30
0.0
 11
148.8157839241667
 21
152.0700250201133
 31
0.0
  0
LINE
  5
442
330
E3
100
AcDbEntity
  8
0
  6
Continuous
100
AcDbLine
 10
148.8157839241667
 20
152.0700250201133
 30
0.0
 11
148.7807583308447
 21
152.070680474002
 31
0.0
  0
LINE
  5
443
330
E3
100
AcDbEntity
  8
0
  6
Continuous
100
AcDbLine
 10
148.7807583308447
 20
152.070680474002
 30
0.0
 11
148.7435872900947
 21
152.0717191714213
 31
0.0
  0
LINE
  5
444
330
E3
100
AcDbEntity
  8
0
  6
Continuous
100
AcDbLine
 10
148.7435872900947
 20
152.0717191714213
 30
0.0
 11
148.7045394305594
 21
152.0730838049274
 31
0.0
  0
LINE
  5
445
330
E3
100
AcDbEntity
  8
0
  6
Continuous
100
AcDbLine
 10
148.7045394305594
 20
152.0730838049274
 30
0.0
 11
148.6639084528885
 21
152.0747313939373
 31
0.0
  0
LINE
  5
446
330
E3
100
AcDbEntity
  8
0
  6
Continuous
100
AcDbLine
 10
148.6639084528885
 20
152.0747313939373
 30
0.0
 11
148.6219952211621
 21
152.076601049292
 31
0.0
  0
LINE
  5
447
330
E3
100
AcDbEntity
  8
0
  6
Continuous
100
AcDbLine
 10
148.6219952211621
 20
152.076601049292
 30
0.0
 11
148.5791149263211
 21
152.0786426269782
 31
0.0
  0
LINE
  5
448
330
E3
100
AcDbEntity
  8
0
  6
Continuous
100
AcDbLine
 10
148.5791149263211
 20
152.0786426269782
 30
0.0
 11
148.5355791775914
 21
152.0808024012673
 31
0.0
  0
LINE
  5
449
330
E3
100
AcDbEntity
  8
0
  6
Continuous
100
AcDbLine
 10
148.5355791775914
 20
152.0808024012673
 30
0.0
 11
148.4917210744902
 21
152.083015901285
 31
0.0
  0
LINE
  5
44A
330
E3
100
AcDbEntity
  8
0
  6
Continuous
100
AcDbLine
 10
148.4917210744902
 20
152.083015901285
 30
0.0
 11
148.4478629713889
 21
152.085232983018
 31
0.0
  0
LINE
  5
44B
330
E3
100
AcDbEntity
  8
0
  6
Continuous
100
AcDbLine
 10
148.4478629713889
 20
152.085232983018
 30
0.0
 11
148.4043272226592
 21
152.0873891755918
 31
0.0
  0
LINE
  5
44C
330
E3
100
AcDbEntity
  8
0
  6
Continuous
100
AcDbLine
 10
148.4043272226592
 20
152.0873891755918
 30
0.0
 11
148.3614469278182
 21
152.089430753278
 31
0.0
  0
LINE
  5
44D
330
E3
100
AcDbEntity
  8
0
  6
Continuous
100
AcDbLine
 10
148.3614469278182
 20
152.089430753278
 30
0.0
 11
148.3195336960918
 21
152.091303990348
 31
0.0
  0
LINE
  5
44E
330
E3
100
AcDbEntity
  8
0
  6
Continuous
100
AcDbLine
 10
148.3195336960918
 20
152.091303990348
 30
0.0
 11
148.2789027184209
 21
152.0929479976427
 31
0.0
  0
LINE
  5
44F
330
E3
100
AcDbEntity
  8
0
  6
Continuous
100
AcDbLine
 10
148.2789027184209
 20
152.0929479976427
 30
0.0
 11
148.2398584406009
 21
152.094316212864
 31
0.0
  0
LINE
  5
450
330
E3
100
AcDbEntity
  8
0
  6
Continuous
100
AcDbLine
 10
148.2398584406009
 20
152.094316212864
 30
0.0
 11
148.2026838181356
 21
152.0953513285681
 31
0.0
  0
LINE
  5
451
330
E3
100
AcDbEntity
  8
0
  6
Continuous
100
AcDbLine
 10
148.2026838181356
 20
152.0953513285681
 30
0.0
 11
148.1676618065289
 21
152.0960067824568
 31
0.0
  0
LINE
  5
452
330
E3
100
AcDbEntity
  8
0
  6
Continuous
100
AcDbLine
 10
148.1676618065289
 20
152.0960067824568
 30
0.0
 11
148.1350467075628
 21
152.0962395939473
 31
0.0
  0
LINE
  5
453
330
E3
100
AcDbEntity
  8
0
  6
Continuous
100
AcDbLine
 10
148.1350467075628
 20
152.0962395939473
 30
0.0
 11
148.1050820778736
 21
152.0960067824568
 31
0.0
  0
LINE
  5
454
330
E3
100
AcDbEntity
  8
0
  6
Continuous
100
AcDbLine
 10
148.1050820778736
 20
152.0960067824568
 30
0.0
 11
148.0779864020907
 21
152.0952653674023
 31
0.0
  0
LINE
  5
455
330
E3
100
AcDbEntity
  8
0
  6
Continuous
100
AcDbLine
 10
148.0779864020907
 20
152.0952653674023
 30
0.0
 11
148.053963837983
 21
152.0939831133468
 31
0.0
  0
LINE
  5
456
330
E3
100
AcDbEntity
  8
0
  6
Continuous
100
AcDbLine
 10
148.053963837983
 20
152.0939831133468
 30
0.0
 11
148.0331827261664
 21
152.092127784853
 31
0.0
  0
LINE
  5
457
330
E3
100
AcDbEntity
  8
0
  6
Continuous
100
AcDbLine
 10
148.0331827261664
 20
152.092127784853
 30
0.0
 11
148.0158006621117
 21
152.0896743099143
 31
0.0
  0
LINE
  5
458
330
E3
100
AcDbEntity
  8
0
  6
Continuous
100
AcDbLine
 10
148.0158006621117
 20
152.0896743099143
 30
0.0
 11
148.0019394241369
 21
152.086597616524
 31
0.0
  0
LINE
  5
459
330
E3
100
AcDbEntity
  8
0
  6
Continuous
100
AcDbLine
 10
148.0019394241369
 20
152.086597616524
 30
0.0
 11
147.9916993002687
 21
152.0828869595364
 31
0.0
  0
LINE
  5
45A
330
E3
100
AcDbEntity
  8
0
  6
Continuous
100
AcDbLine
 10
147.9916993002687
 20
152.0828869595364
 30
0.0
 11
147.9851475407855
 21
152.0785224956757
 31
0.0
  0
LINE
  5
45B
330
E3
100
AcDbEntity
  8
0
  6
Continuous
100
AcDbLine
 10
147.9851475407855
 20
152.0785224956757
 30
0.0
 11
147.9823300552786
 21
152.0735006714977
 31
0.0
  0
LINE
  5
45C
330
E3
100
AcDbEntity
  8
0
  6
Continuous
100
AcDbLine
 10
148.9331631648343
 20
151.7071727160675
 30
0.0
 11
148.9303456793273
 21
151.7021508918894
 31
0.0
  0
LINE
  5
45D
330
E3
100
AcDbEntity
  8
0
  6
Continuous
100
AcDbLine
 10
148.9303456793273
 20
151.7021508918894
 30
0.0
 11
148.9237949633326
 21
151.6977873369716
 31
0.0
  0
LINE
  5
45E
330
E3
100
AcDbEntity
  8
0
  6
Continuous
100
AcDbLine
 10
148.9237949633326
 20
151.6977873369716
 30
0.0
 11
148.9135540050449
 21
151.6940738617698
 31
0.0
  0
LINE
  5
45F
330
E3
100
AcDbEntity
  8
0
  6
Continuous
100
AcDbLine
 10
148.9135540050449
 20
151.6940738617698
 30
0.0
 11
148.89969276707
 21
151.6910007500948
 31
0.0
  0
LINE
  5
460
330
E3
100
AcDbEntity
  8
0
  6
Continuous
100
AcDbLine
 10
148.89969276707
 20
151.6910007500948
 30
0.0
 11
148.8823107030153
 21
151.6885472751561
 31
0.0
  0
LINE
  5
461
330
E3
100
AcDbEntity
  8
0
  6
Continuous
100
AcDbLine
 10
148.8823107030153
 20
151.6885472751561
 30
0.0
 11
148.8615295911988
 21
151.6866919466623
 31
0.0
  0
LINE
  5
462
330
E3
100
AcDbEntity
  8
0
  6
Continuous
100
AcDbLine
 10
148.8615295911988
 20
151.6866919466623
 30
0.0
 11
148.837507027091
 21
151.6854096926068
 31
0.0
  0
LINE
  5
463
330
E3
100
AcDbEntity
  8
0
  6
Continuous
100
AcDbLine
 10
148.837507027091
 20
151.6854096926068
 30
0.0
 11
148.8104113513082
 21
151.6846682775523
 31
0.0
  0
LINE
  5
464
330
E3
100
AcDbEntity
  8
0
  6
Continuous
100
AcDbLine
 10
148.8104113513082
 20
151.6846682775523
 30
0.0
 11
148.7804467216189
 21
151.6844318843465
 31
0.0
  0
LINE
  5
465
330
E3
100
AcDbEntity
  8
0
  6
Continuous
100
AcDbLine
 10
148.7804467216189
 20
151.6844318843465
 30
0.0
 11
148.7478316226529
 21
151.684664695837
 31
0.0
  0
LINE
  5
466
330
E3
100
AcDbEntity
  8
0
  6
Continuous
100
AcDbLine
 10
148.7478316226529
 20
151.684664695837
 30
0.0
 11
148.7128096110462
 21
151.685323731441
 31
0.0
  0
LINE
  5
467
330
E3
100
AcDbEntity
  8
0
  6
Continuous
100
AcDbLine
 10
148.7128096110462
 20
151.685323731441
 30
0.0
 11
148.6756349885809
 21
151.6863588471451
 31
0.0
  0
LINE
  5
468
330
E3
100
AcDbEntity
  8
0
  6
Continuous
100
AcDbLine
 10
148.6756349885809
 20
151.6863588471451
 30
0.0
 11
148.6365907107609
 21
151.6877234806511
 31
0.0
  0
LINE
  5
469
330
E3
100
AcDbEntity
  8
0
  6
Continuous
100
AcDbLine
 10
148.6365907107609
 20
151.6877234806511
 30
0.0
 11
148.59595973309
 21
151.689371069661
 31
0.0
  0
LINE
  5
46A
330
E3
100
AcDbEntity
  8
0
  6
Continuous
100
AcDbLine
 10
148.59595973309
 20
151.689371069661
 30
0.0
 11
148.5540465013635
 21
151.6912407250158
 31
0.0
  0
LINE
  5
46B
330
E3
100
AcDbEntity
  8
0
  6
Continuous
100
AcDbLine
 10
148.5540465013635
 20
151.6912407250158
 30
0.0
 11
148.5111662065225
 21
151.6932858844172
 31
0.0
  0
LINE
  5
46C
330
E3
100
AcDbEntity
  8
0
  6
Continuous
100
AcDbLine
 10
148.5111662065225
 20
151.6932858844172
 30
0.0
 11
148.4676304577928
 21
151.6954420769911
 31
0.0
  0
LINE
  5
46D
330
E3
100
AcDbEntity
  8
0
  6
Continuous
100
AcDbLine
 10
148.4676304577928
 20
151.6954420769911
 30
0.0
 11
148.4237723546916
 21
151.6976555770088
 31
0.0
  0
LINE
  5
46E
330
E3
100
AcDbEntity
  8
0
  6
Continuous
100
AcDbLine
 10
148.4237723546916
 20
151.6976555770088
 30
0.0
 11
148.3799106698752
 21
151.6998726587417
 31
0.0
  0
LINE
  5
46F
330
E3
100
AcDbEntity
  8
0
  6
Continuous
100
AcDbLine
 10
148.3799106698752
 20
151.6998726587417
 30
0.0
 11
148.3363785028607
 21
151.7020288513156
 31
0.0
  0
LINE
  5
470
330
E3
100
AcDbEntity
  8
0
  6
Continuous
100
AcDbLine
 10
148.3363785028607
 20
151.7020288513156
 30
0.0
 11
148.2934982080197
 21
151.7040704290018
 31
0.0
  0
LINE
  5
471
330
E3
100
AcDbEntity
  8
0
  6
Continuous
100
AcDbLine
 10
148.2934982080197
 20
151.7040704290018
 30
0.0
 11
148.2515849762933
 21
151.7059436660718
 31
0.0
  0
LINE
  5
472
330
E3
100
AcDbEntity
  8
0
  6
Continuous
100
AcDbLine
 10
148.2515849762933
 20
151.7059436660718
 30
0.0
 11
148.2109539986224
 21
151.7075876733664
 31
0.0
  0
LINE
  5
473
330
E3
100
AcDbEntity
  8
0
  6
Continuous
100
AcDbLine
 10
148.2109539986224
 20
151.7075876733664
 30
0.0
 11
148.1719061390871
 21
151.7089558885877
 31
0.0
  0
LINE
  5
474
330
E3
100
AcDbEntity
  8
0
  6
Continuous
100
AcDbLine
 10
148.1719061390871
 20
151.7089558885877
 30
0.0
 11
148.134735098337
 21
151.7099910042918
 31
0.0
  0
LINE
  5
475
330
E3
100
AcDbEntity
  8
0
  6
Continuous
100
AcDbLine
 10
148.134735098337
 20
151.7099910042918
 30
0.0
 11
148.0997095050151
 21
151.7106500398958
 31
0.0
  0
LINE
  5
476
330
E3
100
AcDbEntity
  8
0
  6
Continuous
100
AcDbLine
 10
148.0997095050151
 20
151.7106500398958
 30
0.0
 11
148.0670944060491
 21
151.7108792696711
 31
0.0
  0
LINE
  5
477
330
E3
100
AcDbEntity
  8
0
  6
Continuous
100
AcDbLine
 10
148.0670944060491
 20
151.7108792696711
 30
0.0
 11
148.0371297763598
 21
151.7106464581805
 31
0.0
  0
LINE
  5
478
330
E3
100
AcDbEntity
  8
0
  6
Continuous
100
AcDbLine
 10
148.0371297763598
 20
151.7106464581805
 30
0.0
 11
148.0100376822922
 21
151.7099050431261
 31
0.0
  0
LINE
  5
479
330
E3
100
AcDbEntity
  8
0
  6
Continuous
100
AcDbLine
 10
148.0100376822922
 20
151.7099050431261
 30
0.0
 11
147.9860115364692
 21
151.7086227890705
 31
0.0
  0
LINE
  5
47A
330
E3
100
AcDbEntity
  8
0
  6
Continuous
100
AcDbLine
 10
147.9860115364692
 20
151.7086227890705
 30
0.0
 11
147.9652340063679
 21
151.7067674605767
 31
0.0
  0
LINE
  5
47B
330
E3
100
AcDbEntity
  8
0
  6
Continuous
100
AcDbLine
 10
147.9652340063679
 20
151.7067674605767
 30
0.0
 11
147.9478519423132
 21
151.704313985638
 31
0.0
  0
LINE
  5
47C
330
E3
100
AcDbEntity
  8
0
  6
Continuous
100
AcDbLine
 10
147.9478519423132
 20
151.704313985638
 30
0.0
 11
147.9339907043384
 21
151.701240873963
 31
0.0
  0
LINE
  5
47D
330
E3
100
AcDbEntity
  8
0
  6
Continuous
100
AcDbLine
 10
147.9339907043384
 20
151.701240873963
 30
0.0
 11
147.9237505804701
 21
151.6975266352602
 31
0.0
  0
LINE
  5
47E
330
E3
100
AcDbEntity
  8
0
  6
Continuous
100
AcDbLine
 10
147.9237505804701
 20
151.6975266352602
 30
0.0
 11
147.9171982538724
 21
151.6931629401492
 31
0.0
  0
LINE
  5
47F
330
E3
100
AcDbEntity
  8
0
  6
Continuous
100
AcDbLine
 10
147.9171982538724
 20
151.6931629401492
 30
0.0
 11
147.9143807683655
 21
151.6881411159712
 31
0.0
  0
LINE
  5
480
330
E3
100
AcDbEntity
  8
0
  6
Continuous
100
AcDbLine
 10
148.8652138779211
 20
151.321813160541
 30
0.0
 11
148.8623963924142
 21
151.3167913363629
 31
0.0
  0
LINE
  5
481
330
E3
100
AcDbEntity
  8
0
  6
Continuous
100
AcDbLine
 10
148.8623963924142
 20
151.3167913363629
 30
0.0
 11
148.8558456764194
 21
151.3124277814451
 31
0.0
  0
LINE
  5
482
330
E3
100
AcDbEntity
  8
0
  6
Continuous
100
AcDbLine
 10
148.8558456764194
 20
151.3124277814451
 30
0.0
 11
148.8456052852463
 21
151.3087135374936
 31
0.0
  0
LINE
  5
483
330
E3
100
AcDbEntity
  8
0
  6
Continuous
100
AcDbLine
 10
148.8456052852463
 20
151.3087135374936
 30
0.0
 11
148.8317440472715
 21
151.3056404258185
 31
0.0
  0
LINE
  5
484
330
E3
100
AcDbEntity
  8
0
  6
Continuous
100
AcDbLine
 10
148.8317440472715
 20
151.3056404258185
 30
0.0
 11
148.8143619832168
 21
151.3031869508798
 31
0.0
  0
LINE
  5
485
330
E3
100
AcDbEntity
  8
0
  6
Continuous
100
AcDbLine
 10
148.8143619832168
 20
151.3031869508798
 30
0.0
 11
148.7935808714003
 21
151.301331622386
 31
0.0
  0
LINE
  5
486
330
E3
100
AcDbEntity
  8
0
  6
Continuous
100
AcDbLine
 10
148.7935808714003
 20
151.301331622386
 30
0.0
 11
148.7695583072924
 21
151.3000493683305
 31
0.0
  0
LINE
  5
487
330
E3
100
AcDbEntity
  8
0
  6
Continuous
100
AcDbLine
 10
148.7695583072924
 20
151.3000493683305
 30
0.0
 11
148.7424626315097
 21
151.299307953276
 31
0.0
  0
LINE
  5
488
330
E3
100
AcDbEntity
  8
0
  6
Continuous
100
AcDbLine
 10
148.7424626315097
 20
151.299307953276
 30
0.0
 11
148.7124980018204
 21
151.2990751417855
 31
0.0
  0
LINE
  5
489
330
E3
100
AcDbEntity
  8
0
  6
Continuous
100
AcDbLine
 10
148.7124980018204
 20
151.2990751417855
 30
0.0
 11
148.6798829028543
 21
151.2993043715607
 31
0.0
  0
LINE
  5
48A
330
E3
100
AcDbEntity
  8
0
  6
Continuous
100
AcDbLine
 10
148.6798829028543
 20
151.2993043715607
 30
0.0
 11
148.6448608912476
 21
151.2999634071647
 31
0.0
  0
LINE
  5
48B
330
E3
100
AcDbEntity
  8
0
  6
Continuous
100
AcDbLine
 10
148.6448608912476
 20
151.2999634071647
 30
0.0
 11
148.6076862687823
 21
151.3009985228688
 31
0.0
  0
LINE
  5
48C
330
E3
100
AcDbEntity
  8
0
  6
Continuous
100
AcDbLine
 10
148.6076862687823
 20
151.3009985228688
 30
0.0
 11
148.5686419909623
 21
151.3023667380901
 31
0.0
  0
LINE
  5
48D
330
E3
100
AcDbEntity
  8
0
  6
Continuous
100
AcDbLine
 10
148.5686419909623
 20
151.3023667380901
 30
0.0
 11
148.5280110132914
 21
151.3040107453848
 31
0.0
  0
LINE
  5
48E
330
E3
100
AcDbEntity
  8
0
  6
Continuous
100
AcDbLine
 10
148.5280110132914
 20
151.3040107453848
 30
0.0
 11
148.486097781565
 21
151.3058839824548
 31
0.0
  0
LINE
  5
48F
330
E3
100
AcDbEntity
  8
0
  6
Continuous
100
AcDbLine
 10
148.486097781565
 20
151.3058839824548
 30
0.0
 11
148.4432139050087
 21
151.307925560141
 31
0.0
  0
LINE
  5
490
330
E3
100
AcDbEntity
  8
0
  6
Continuous
100
AcDbLine
 10
148.4432139050087
 20
151.307925560141
 30
0.0
 11
148.3996817379943
 21
151.3100817527148
 31
0.0
  0
LINE
  5
491
330
E3
100
AcDbEntity
  8
0
  6
Continuous
100
AcDbLine
 10
148.3996817379943
 20
151.3100817527148
 30
0.0
 11
148.3558236348931
 21
151.3122988344477
 31
0.0
  0
LINE
  5
492
330
E3
100
AcDbEntity
  8
0
  6
Continuous
100
AcDbLine
 10
148.3558236348931
 20
151.3122988344477
 30
0.0
 11
148.3119619500766
 21
151.3145123344654
 31
0.0
  0
LINE
  5
493
330
E3
100
AcDbEntity
  8
0
  6
Continuous
100
AcDbLine
 10
148.3119619500766
 20
151.3145123344654
 30
0.0
 11
148.2684297830621
 21
151.3166685270393
 31
0.0
  0
LINE
  5
494
330
E3
100
AcDbEntity
  8
0
  6
Continuous
100
AcDbLine
 10
148.2684297830621
 20
151.3166685270393
 30
0.0
 11
148.2255494882212
 21
151.3187136864408
 31
0.0
  0
LINE
  5
495
330
E3
100
AcDbEntity
  8
0
  6
Continuous
100
AcDbLine
 10
148.2255494882212
 20
151.3187136864408
 30
0.0
 11
148.1836362564947
 21
151.3205833417955
 31
0.0
  0
LINE
  5
496
330
E3
100
AcDbEntity
  8
0
  6
Continuous
100
AcDbLine
 10
148.1836362564947
 20
151.3205833417955
 30
0.0
 11
148.1430052788238
 21
151.3222309308054
 31
0.0
  0
LINE
  5
497
330
E3
100
AcDbEntity
  8
0
  6
Continuous
100
AcDbLine
 10
148.1430052788238
 20
151.3222309308054
 30
0.0
 11
148.1039574192885
 21
151.3235955643115
 31
0.0
  0
LINE
  5
498
330
E3
100
AcDbEntity
  8
0
  6
Continuous
100
AcDbLine
 10
148.1039574192885
 20
151.3235955643115
 30
0.0
 11
148.0667863785385
 21
151.3246306800155
 31
0.0
  0
LINE
  5
499
330
E3
100
AcDbEntity
  8
0
  6
Continuous
100
AcDbLine
 10
148.0667863785385
 20
151.3246306800155
 30
0.0
 11
148.0317607852166
 21
151.3252897156195
 31
0.0
  0
LINE
  5
49A
330
E3
100
AcDbEntity
  8
0
  6
Continuous
100
AcDbLine
 10
148.0317607852166
 20
151.3252897156195
 30
0.0
 11
147.9991456862505
 21
151.3255225271101
 31
0.0
  0
LINE
  5
49B
330
E3
100
AcDbEntity
  8
0
  6
Continuous
100
AcDbLine
 10
147.9991456862505
 20
151.3255225271101
 30
0.0
 11
147.9691810565613
 21
151.3252861339043
 31
0.0
  0
LINE
  5
49C
330
E3
100
AcDbEntity
  8
0
  6
Continuous
100
AcDbLine
 10
147.9691810565613
 20
151.3252861339043
 30
0.0
 11
147.9420889624937
 21
151.3245447188498
 31
0.0
  0
LINE
  5
49D
330
E3
100
AcDbEntity
  8
0
  6
Continuous
100
AcDbLine
 10
147.9420889624937
 20
151.3245447188498
 30
0.0
 11
147.9180628166706
 21
151.3232624647943
 31
0.0
  0
LINE
  5
49E
330
E3
100
AcDbEntity
  8
0
  6
Continuous
100
AcDbLine
 10
147.9180628166706
 20
151.3232624647943
 30
0.0
 11
147.8972852865694
 21
151.3214071363005
 31
0.0
  0
LINE
  5
49F
330
E3
100
AcDbEntity
  8
0
  6
Continuous
100
AcDbLine
 10
147.8972852865694
 20
151.3214071363005
 30
0.0
 11
147.8799032225147
 21
151.3189536613618
 31
0.0
  0
LINE
  5
4A0
330
E3
100
AcDbEntity
  8
0
  6
Continuous
100
AcDbLine
 10
147.8799032225147
 20
151.3189536613618
 30
0.0
 11
147.8660419845398
 21
151.3158805496867
 31
0.0
  0
LINE
  5
4A1
330
E3
100
AcDbEntity
  8
0
  6
Continuous
100
AcDbLine
 10
147.8660419845398
 20
151.3158805496867
 30
0.0
 11
147.8557982789563
 21
151.3121663109839
 31
0.0
  0
LINE
  5
4A2
330
E3
100
AcDbEntity
  8
0
  6
Continuous
100
AcDbLine
 10
147.8557982789563
 20
151.3121663109839
 30
0.0
 11
147.8492489669592
 21
151.3078033846227
 31
0.0
  0
LINE
  5
4A3
330
E3
100
AcDbEntity
  8
0
  6
Continuous
100
AcDbLine
 10
147.8492489669592
 20
151.3078033846227
 30
0.0
 11
147.8464314814523
 21
151.3027815604446
 31
0.0
  0
LINE
  5
4A4
330
E3
100
AcDbEntity
  8
0
  6
Continuous
100
AcDbLine
 10
148.7972645910079
 20
150.9364536050145
 30
0.0
 11
148.794447105501
 21
150.9314317808364
 31
0.0
  0
LINE
  5
4A5
330
E3
100
AcDbEntity
  8
0
  6
Continuous
100
AcDbLine
 10
148.794447105501
 20
150.9314317808364
 30
0.0
 11
148.7878963895063
 21
150.9270682259185
 31
0.0
  0
LINE
  5
4A6
330
E3
100
AcDbEntity
  8
0
  6
Continuous
100
AcDbLine
 10
148.7878963895063
 20
150.9270682259185
 30
0.0
 11
148.7776565654478
 21
150.9233567949325
 31
0.0
  0
LINE
  5
4A7
330
E3
100
AcDbEntity
  8
0
  6
Continuous
100
AcDbLine
 10
148.7776565654478
 20
150.9233567949325
 30
0.0
 11
148.763795327473
 21
150.9202801015423
 31
0.0
  0
LINE
  5
4A8
330
E3
100
AcDbEntity
  8
0
  6
Continuous
100
AcDbLine
 10
148.763795327473
 20
150.9202801015423
 30
0.0
 11
148.7464132634182
 21
150.9178266266036
 31
0.0
  0
LINE
  5
4A9
330
E3
100
AcDbEntity
  8
0
  6
Continuous
100
AcDbLine
 10
148.7464132634182
 20
150.9178266266036
 30
0.0
 11
148.7256321516017
 21
150.9159712981098
 31
0.0
  0
LINE
  5
4AA
330
E3
100
AcDbEntity
  8
0
  6
Continuous
100
AcDbLine
 10
148.7256321516017
 20
150.9159712981098
 30
0.0
 11
148.7016095874939
 21
150.9146890440542
 31
0.0
  0
LINE
  5
4AB
330
E3
100
AcDbEntity
  8
0
  6
Continuous
100
AcDbLine
 10
148.7016095874939
 20
150.9146890440542
 30
0.0
 11
148.6745139117111
 21
150.9139476289998
 31
0.0
  0
LINE
  5
4AC
330
E3
100
AcDbEntity
  8
0
  6
Continuous
100
AcDbLine
 10
148.6745139117111
 20
150.9139476289998
 30
0.0
 11
148.6445492820219
 21
150.9137148175092
 31
0.0
  0
LINE
  5
4AD
330
E3
100
AcDbEntity
  8
0
  6
Continuous
100
AcDbLine
 10
148.6445492820219
 20
150.9137148175092
 30
0.0
 11
148.6119341830558
 21
150.9139476289998
 31
0.0
  0
LINE
  5
4AE
330
E3
100
AcDbEntity
  8
0
  6
Continuous
100
AcDbLine
 10
148.6119341830558
 20
150.9139476289998
 30
0.0
 11
148.5769121714491
 21
150.9146030828885
 31
0.0
  0
LINE
  5
4AF
330
E3
100
AcDbEntity
  8
0
  6
Continuous
100
AcDbLine
 10
148.5769121714491
 20
150.9146030828885
 30
0.0
 11
148.5397375489838
 21
150.9156381985925
 31
0.0
  0
LINE
  5
4B0
330
E3
100
AcDbEntity
  8
0
  6
Continuous
100
AcDbLine
 10
148.5397375489838
 20
150.9156381985925
 30
0.0
 11
148.5006896894485
 21
150.9170064138138
 31
0.0
  0
LINE
  5
4B1
330
E3
100
AcDbEntity
  8
0
  6
Continuous
100
AcDbLine
 10
148.5006896894485
 20
150.9170064138138
 30
0.0
 11
148.4600587117776
 21
150.9186504211085
 31
0.0
  0
LINE
  5
4B2
330
E3
100
AcDbEntity
  8
0
  6
Continuous
100
AcDbLine
 10
148.4600587117776
 20
150.9186504211085
 30
0.0
 11
148.4181490617664
 21
150.9205236581785
 31
0.0
  0
LINE
  5
4B3
330
E3
100
AcDbEntity
  8
0
  6
Continuous
100
AcDbLine
 10
148.4181490617664
 20
150.9205236581785
 30
0.0
 11
148.3752651852102
 21
150.9225652358647
 31
0.0
  0
LINE
  5
4B4
330
E3
100
AcDbEntity
  8
0
  6
Continuous
100
AcDbLine
 10
148.3752651852102
 20
150.9225652358647
 30
0.0
 11
148.3317330181957
 21
150.9247214284386
 31
0.0
  0
LINE
  5
4B5
330
E3
100
AcDbEntity
  8
0
  6
Continuous
100
AcDbLine
 10
148.3317330181957
 20
150.9247214284386
 30
0.0
 11
148.2878749150945
 21
150.9269385101715
 31
0.0
  0
LINE
  5
4B6
330
E3
100
AcDbEntity
  8
0
  6
Continuous
100
AcDbLine
 10
148.2878749150945
 20
150.9269385101715
 30
0.0
 11
148.2440132302781
 21
150.9291520101892
 31
0.0
  0
LINE
  5
4B7
330
E3
100
AcDbEntity
  8
0
  6
Continuous
100
AcDbLine
 10
148.2440132302781
 20
150.9291520101892
 30
0.0
 11
148.2004810632636
 21
150.9313117844783
 31
0.0
  0
LINE
  5
4B8
330
E3
100
AcDbEntity
  8
0
  6
Continuous
100
AcDbLine
 10
148.2004810632636
 20
150.9313117844783
 30
0.0
 11
148.1575971867074
 21
150.9333533621645
 31
0.0
  0
LINE
  5
4B9
330
E3
100
AcDbEntity
  8
0
  6
Continuous
100
AcDbLine
 10
148.1575971867074
 20
150.9333533621645
 30
0.0
 11
148.1156875366962
 21
150.9352230175192
 31
0.0
  0
LINE
  5
4BA
330
E3
100
AcDbEntity
  8
0
  6
Continuous
100
AcDbLine
 10
148.1156875366962
 20
150.9352230175192
 30
0.0
 11
148.0750565590253
 21
150.9368706065292
 31
0.0
  0
LINE
  5
4BB
330
E3
100
AcDbEntity
  8
0
  6
Continuous
100
AcDbLine
 10
148.0750565590253
 20
150.9368706065292
 30
0.0
 11
148.03600869949
 21
150.9382352400352
 31
0.0
  0
LINE
  5
4BC
330
E3
100
AcDbEntity
  8
0
  6
Continuous
100
AcDbLine
 10
148.03600869949
 20
150.9382352400352
 30
0.0
 11
147.9988376587399
 21
150.9392739374545
 31
0.0
  0
LINE
  5
4BD
330
E3
100
AcDbEntity
  8
0
  6
Continuous
100
AcDbLine
 10
147.9988376587399
 20
150.9392739374545
 30
0.0
 11
147.963812065418
 21
150.9399293913433
 31
0.0
  0
LINE
  5
4BE
330
E3
100
AcDbEntity
  8
0
  6
Continuous
100
AcDbLine
 10
147.963812065418
 20
150.9399293913433
 30
0.0
 11
147.9311969664519
 21
150.9401622028338
 31
0.0
  0
LINE
  5
4BF
330
E3
100
AcDbEntity
  8
0
  6
Continuous
100
AcDbLine
 10
147.9311969664519
 20
150.9401622028338
 30
0.0
 11
147.9012323367627
 21
150.939925809628
 31
0.0
  0
LINE
  5
4C0
330
E3
100
AcDbEntity
  8
0
  6
Continuous
100
AcDbLine
 10
147.9012323367627
 20
150.939925809628
 30
0.0
 11
147.8741402426951
 21
150.9391843945735
 31
0.0
  0
LINE
  5
4C1
330
E3
100
AcDbEntity
  8
0
  6
Continuous
100
AcDbLine
 10
147.8741402426951
 20
150.9391843945735
 30
0.0
 11
147.8501140968721
 21
150.937902140518
 31
0.0
  0
LINE
  5
4C2
330
E3
100
AcDbEntity
  8
0
  6
Continuous
100
AcDbLine
 10
147.8501140968721
 20
150.937902140518
 30
0.0
 11
147.8293365667708
 21
150.9360468120242
 31
0.0
  0
LINE
  5
4C3
330
E3
100
AcDbEntity
  8
0
  6
Continuous
100
AcDbLine
 10
147.8293365667708
 20
150.9360468120242
 30
0.0
 11
147.8119545027161
 21
150.9335933370855
 31
0.0
  0
LINE
  5
4C4
330
E3
100
AcDbEntity
  8
0
  6
Continuous
100
AcDbLine
 10
147.8119545027161
 20
150.9335933370855
 30
0.0
 11
147.7980932647413
 21
150.9305202254105
 31
0.0
  0
ENDBLK
  5
E5
330
E3
100
AcDbEntity
  8
0
100
AcDbBlockEnd
  0
BLOCK
  5
4CA
330
4C9
100
AcDbEntity
  8
0
100
AcDbBlockBegin
  2
R-TRSC-06 BARGE DETAIL - HEAD_STORY_MARKER
 70
     0
 10
0.0
 20
0.0
 30
0.0
  3
R-TRSC-06 BARGE DETAIL - HEAD_STORY_MARKER
  1

  0
ENDBLK
  5
4CB
330
4C9
100
AcDbEntity
  8
0
100
AcDbBlockEnd
  0
ENDSEC
  0
SECTION
  2
ENTITIES
  0
HATCH
  5
3F
330
1F
100
AcDbEntity
  8
Doc_ Finishes
  6
Continuous
100
AcDbHatch
 10
0.0
 20
0.0
 30
0.0
210
0.0
220
0.0
230
1.0
  2
SOLID
 70
     1
 71
     0
 91
        1
 92
        3
 72
     0
 73
     1
 93
       54
 10
27.4117749414874
 20
16.87044408857867
 10
26.89356552397386
 20
16.5825499677378
 10
26.5480925789648
 20
16.29465584689693
 10
26.12584786839819
 20
16.02595466744544
 10
25.76118198199976
 20
15.60370995687884
 10
25.39651609560134
 20
15.33500877742737
 10
25.07023609198168
 20
14.89357112547136
 10
24.49444785029994
 20
14.45213347351537
 10
23.93785255000758
 20
14.02988876294876
 10
23.43883607388344
 20
13.81876640766546
 10
22.74789018386533
 20
13.39652169709885
 10
22.09533017662603
 20
12.99346992792163
 10
21.63469958328064
 20
12.55203227596564
 10
20.90536781048376
 20
12.12978756539902
 10
20.59828074825351
 20
11.7459287376112
 10
20.04168544796116
 20
11.28529814426581
 10
19.36993249933246
 20
10.8630534336992
 10
18.73656543348255
 20
10.42161578174319
 10
18.04561954346447
 20
10.15291460229172
 10
17.1051654153843
 20
9.692284008946325
 10
16.39502658397681
 20
9.020531060317637
 10
15.83843128368446
 20
8.598286349751023
 10
15.12829245227699
 20
8.137655756405634
 10
14.84039833143612
 20
7.98411222529051
 10
14.37976773809073
 20
7.81137575278599
 10
14.07268067586046
 20
7.523481631945121
 10
14.0151018516923
 20
7.216394569714853
 10
14.14945244141803
 20
6.890114566095209
 10
14.4373465622589
 20
6.563834562475543
 10
14.8787842142149
 20
6.659799269422514
 10
15.51215128006482
 20
7.06285103859973
 10
16.01116775618899
 20
7.389131042219374
 10
16.33744775980864
 20
7.696218104449641
 10
16.51018423231316
 20
7.907340459732938
 10
17.01303929671522
 20
8.421711288968723
 10
17.33548071205699
 20
8.652026585641417
 10
17.75004824606785
 20
8.99749953065046
 10
18.14158425041142
 20
9.204783297655894
 10
19.24709767444037
 20
9.75754000967037
 10
20.23745345013295
 20
10.47151742935572
 10
21.4120614631637
 20
11.1624633193738
 10
21.84966052684182
 20
11.64612544238645
 10
22.49454335752537
 20
12.06069297639732
 10
23.78430901889248
 20
12.9819541630881
 10
24.3600972605742
 20
13.25833251909534
 10
25.6498629219413
 20
14.24868829478776
 10
25.85714668894673
 20
14.64022429913134
 10
26.68628175696843
 20
15.23904407048036
 10
27.28510152831745
 20
15.72270619349301
 10
27.81482671066464
 20
16.1142421978366
 10
28.27545730401003
 20
16.52880973184745
 10
28.22939424467549
 20
16.7821565581874
 10
28.09120506667188
 20
16.89731420652375
 10
27.56147988432467
 20
16.89731420652375
 97
        0
 75
     0
 76
     1
 98
        0
  0
LINE
  5
41
330
1F
100
AcDbEntity
  8
Doc_ Finishes
  6
Continuous
100
AcDbLine
 10
27.41177566876475
 20
16.87044600708104
 30
0.0
 11
26.89356756490952
 21
16.58254868214004
 31
0.0
  0
LINE
  5
42
330
1F
100
AcDbEntity
  8
Doc_ Finishes
  6
Continuous
100
AcDbLine
 10
26.89356756490952
 20
16.58254868214004
 30
0.0
 11
26.54809254523997
 21
16.29465578284815
 31
0.0
  0
LINE
  5
43
330
1F
100
AcDbEntity
  8
Doc_ Finishes
  6
Continuous
100
AcDbLine
 10
26.54809254523997
 20
16.29465578284815
 30
0.0
 11
26.12584579071597
 21
16.02595249803305
 31
0.0
  0
LINE
  5
44
330
1F
100
AcDbEntity
  8
Doc_ Finishes
  6
Continuous
100
AcDbLine
 10
26.12584579071597
 20
16.02595249803305
 30
0.0
 11
25.76118115656963
 21
15.60371016915814
 31
0.0
  0
LINE
  5
45
330
1F
100
AcDbEntity
  8
Doc_ Finishes
  6
Continuous
100
AcDbLine
 10
25.76118115656963
 20
15.60371016915814
 30
0.0
 11
25.39651652242329
 21
15.33500688434304
 31
0.0
  0
LINE
  5
46
330
1F
100
AcDbEntity
  8
Doc_ Finishes
  6
Continuous
100
AcDbLine
 10
25.39651652242329
 20
15.33500688434304
 30
0.0
 11
25.07023554287962
 21
14.89357051534225
 31
0.0
  0
LINE
  5
47
330
1F
100
AcDbEntity
  8
Doc_ Finishes
  6
Continuous
100
AcDbLine
 10
25.07023554287962
 20
14.89357051534225
 30
0.0
 11
24.49444974429583
 21
14.45213414634146
 31
0.0
  0
LINE
  5
48
330
1F
100
AcDbEntity
  8
Doc_ Finishes
  6
Continuous
100
AcDbLine
 10
24.49444974429583
 20
14.45213414634146
 30
0.0
 11
23.93785356018882
 21
14.02988739181747
 31
0.0
  0
LINE
  5
49
330
1F
100
AcDbEntity
  8
Doc_ Finishes
  6
Continuous
100
AcDbLine
 10
23.93785356018882
 20
14.02988739181747
 30
0.0
 11
23.43883507081038
 21
13.81876622738001
 31
0.0
  0
LINE
  5
4A
330
1F
100
AcDbEntity
  8
Doc_ Finishes
  6
Continuous
100
AcDbLine
 10
23.43883507081038
 20
13.81876622738001
 30
0.0
 11
22.74788945712038
 21
13.39652389850511
 31
0.0
  0
LINE
  5
4B
330
1F
100
AcDbEntity
  8
Doc_ Finishes
  6
Continuous
100
AcDbLine
 10
22.74788945712038
 20
13.39652389850511
 30
0.0
 11
22.09533192368214
 21
12.993471184107
 31
0.0
  0
LINE
  5
4C
330
1F
100
AcDbEntity
  8
Doc_ Finishes
  6
Continuous
100
AcDbLine
 10
22.09533192368214
 20
12.993471184107
 30
0.0
 11
21.63470151455547
 21
12.55203038945712
 31
0.0
  0
LINE
  5
4D
330
1F
100
AcDbEntity
  8
Doc_ Finishes
  6
Continuous
100
AcDbLine
 10
21.63470151455547
 20
12.55203038945712
 30
0.0
 11
20.90536782061369
 21
12.12978806058222
 31
0.0
  0
LINE
  5
4E
330
1F
100
AcDbEntity
  8
Doc_ Finishes
  6
Continuous
100
AcDbLine
 10
20.90536782061369
 20
12.12978806058222
 30
0.0
 11
20.59828088119591
 21
11.74592938630999
 31
0.0
  0
LINE
  5
4F
330
1F
100
AcDbEntity
  8
Doc_ Finishes
  6
Continuous
100
AcDbLine
 10
20.59828088119591
 20
11.74592938630999
 30
0.0
 11
20.0416846970889
 21
11.28529897718332
 31
0.0
  0
LINE
  5
50
330
1F
100
AcDbEntity
  8
Doc_ Finishes
  6
Continuous
100
AcDbLine
 10
20.0416846970889
 20
11.28529897718332
 30
0.0
 11
19.36993312352478
 21
10.86305222265932
 31
0.0
  0
LINE
  5
51
330
1F
100
AcDbEntity
  8
Doc_ Finishes
  6
Continuous
100
AcDbLine
 10
19.36993312352478
 20
10.86305222265932
 30
0.0
 11
18.73656520456333
 21
10.42161585365854
 31
0.0
  0
LINE
  5
52
330
1F
100
AcDbEntity
  8
Doc_ Finishes
  6
Continuous
100
AcDbLine
 10
18.73656520456333
 20
10.42161585365854
 30
0.0
 11
18.04561959087333
 21
10.15291256884343
 31
0.0
  0
LINE
  5
53
330
1F
100
AcDbEntity
  8
Doc_ Finishes
  6
Continuous
100
AcDbLine
 10
18.04561959087333
 20
10.15291256884343
 30
0.0
 11
17.1051647324941
 21
9.692282159716758
 31
0.0
  0
LINE
  5
54
330
1F
100
AcDbEntity
  8
Doc_ Finishes
  6
Continuous
100
AcDbLine
 10
17.1051647324941
 20
9.692282159716758
 30
0.0
 11
16.3950250786782
 21
9.020530586152635
 31
0.0
  0
LINE
  5
55
330
1F
100
AcDbEntity
  8
Doc_ Finishes
  6
Continuous
100
AcDbLine
 10
16.3950250786782
 20
9.020530586152635
 30
0.0
 11
15.8384333202203
 21
8.598288257277733
 31
0.0
  0
LINE
  5
56
330
1F
100
AcDbEntity
  8
Doc_ Finishes
  6
Continuous
100
AcDbLine
 10
15.8384333202203
 20
8.598288257277733
 30
0.0
 11
15.1282936664044
 21
8.137657848151063
 31
0.0
  0
LINE
  5
57
330
1F
100
AcDbEntity
  8
Doc_ Finishes
  6
Continuous
100
AcDbLine
 10
15.1282936664044
 20
8.137657848151063
 30
0.0
 11
14.84039634146341
 21
7.984114378442171
 31
0.0
  0
LINE
  5
58
330
1F
100
AcDbEntity
  8
Doc_ Finishes
  6
Continuous
100
AcDbLine
 10
14.84039634146341
 20
7.984114378442171
 30
0.0
 11
14.37976593233674
 21
7.811376868607396
 31
0.0
  0
LINE
  5
59
330
1F
100
AcDbEntity
  8
Doc_ Finishes
  6
Continuous
100
AcDbLine
 10
14.37976593233674
 20
7.811376868607396
 30
0.0
 11
14.07267899291896
 21
7.523479543666405
 31
0.0
  0
LINE
  5
5A
330
1F
100
AcDbEntity
  8
Doc_ Finishes
  6
Continuous
100
AcDbLine
 10
14.07267899291896
 20
7.523479543666405
 30
0.0
 11
14.0151012981904
 21
7.216392604248622
 31
0.0
  0
LINE
  5
5B
330
1F
100
AcDbEntity
  8
Doc_ Finishes
  6
Continuous
100
AcDbLine
 10
14.0151012981904
 20
7.216392604248622
 30
0.0
 11
14.14945072777341
 21
6.890116050354051
 31
0.0
  0
LINE
  5
5C
330
1F
100
AcDbEntity
  8
Doc_ Finishes
  6
Continuous
100
AcDbLine
 10
14.14945072777341
 20
6.890116050354051
 30
0.0
 11
14.4373480527144
 21
6.563835070810386
 31
0.0
  0
LINE
  5
5D
330
1F
100
AcDbEntity
  8
Doc_ Finishes
  6
Continuous
100
AcDbLine
 10
14.4373480527144
 20
6.563835070810386
 30
0.0
 11
14.87878442171519
 21
6.659800845790715
 31
0.0
  0
LINE
  5
5E
330
1F
100
AcDbEntity
  8
Doc_ Finishes
  6
Continuous
100
AcDbLine
 10
14.87878442171519
 20
6.659800845790715
 30
0.0
 11
15.51215234067663
 21
7.062849134539732
 31
0.0
  0
LINE
  5
5F
330
1F
100
AcDbEntity
  8
Doc_ Finishes
  6
Continuous
100
AcDbLine
 10
15.51215234067663
 20
7.062849134539732
 30
0.0
 11
16.01116640440598
 21
7.389130114083398
 31
0.0
  0
LINE
  5
60
330
1F
100
AcDbEntity
  8
Doc_ Finishes
  6
Continuous
100
AcDbLine
 10
16.01116640440598
 20
7.389130114083398
 30
0.0
 11
16.33744738394964
 21
7.69621705350118
 31
0.0
  0
LINE
  5
61
330
1F
100
AcDbEntity
  8
Doc_ Finishes
  6
Continuous
100
AcDbLine
 10
16.33744738394964
 20
7.69621705350118
 30
0.0
 11
16.51018489378442
 21
7.907342643587726
 31
0.0
  0
LINE
  5
62
330
1F
100
AcDbEntity
  8
Doc_ Finishes
  6
Continuous
100
AcDbLine
 10
16.51018489378442
 20
7.907342643587726
 30
0.0
 11
17.0130404209284
 21
8.421709284028323
 31
0.0
  0
LINE
  5
63
330
1F
100
AcDbEntity
  8
Doc_ Finishes
  6
Continuous
100
AcDbLine
 10
17.0130404209284
 20
8.421709284028323
 30
0.0
 11
17.33547993705743
 21
8.65202448859166
 31
0.0
  0
LINE
  5
64
330
1F
100
AcDbEntity
  8
Doc_ Finishes
  6
Continuous
100
AcDbLine
 10
17.33547993705743
 20
8.65202448859166
 30
0.0
 11
17.75004819040126
 21
8.997499508261212
 31
0.0
  0
LINE
  5
65
330
1F
100
AcDbEntity
  8
Doc_ Finishes
  6
Continuous
100
AcDbLine
 10
17.75004819040126
 20
8.997499508261212
 30
0.0
 11
18.14158536585366
 21
9.204783634933122
 31
0.0
  0
LINE
  5
66
330
1F
100
AcDbEntity
  8
Doc_ Finishes
  6
Continuous
100
AcDbLine
 10
18.14158536585366
 20
9.204783634933122
 30
0.0
 11
19.24709923288749
 21
9.75753835562549
 31
0.0
  0
LINE
  5
67
330
1F
100
AcDbEntity
  8
Doc_ Finishes
  6
Continuous
100
AcDbLine
 10
19.24709923288749
 20
9.75753835562549
 30
0.0
 11
20.23745328481511
 21
10.47151947285602
 31
0.0
  0
LINE
  5
68
330
1F
100
AcDbEntity
  8
Doc_ Finishes
  6
Continuous
100
AcDbLine
 10
20.23745328481511
 20
10.47151947285602
 30
0.0
 11
21.41206038552321
 21
11.16246508654602
 31
0.0
  0
LINE
  5
69
330
1F
100
AcDbEntity
  8
Doc_ Finishes
  6
Continuous
100
AcDbLine
 10
21.41206038552321
 20
11.16246508654602
 30
0.0
 11
21.84965971675846
 21
11.64612657356412
 31
0.0
  0
LINE
  5
6A
330
1F
100
AcDbEntity
  8
Doc_ Finishes
  6
Continuous
100
AcDbLine
 10
21.84965971675846
 20
11.64612657356412
 30
0.0
 11
22.49454317466562
 21
12.06069482690795
 31
0.0
  0
LINE
  5
6B
330
1F
100
AcDbEntity
  8
Doc_ Finishes
  6
Continuous
100
AcDbLine
 10
22.49454317466562
 20
12.06069482690795
 30
0.0
 11
23.78431009047993
 21
12.98195564516129
 31
0.0
  0
LINE
  5
6C
330
1F
100
AcDbEntity
  8
Doc_ Finishes
  6
Continuous
100
AcDbLine
 10
23.78431009047993
 20
12.98195564516129
 30
0.0
 11
24.36009588906373
 21
13.25833300550747
 31
0.0
  0
LINE
  5
6D
330
1F
100
AcDbEntity
  8
Doc_ Finishes
  6
Continuous
100
AcDbLine
 10
24.36009588906373
 20
13.25833300550747
 30
0.0
 11
25.64986280487805
 21
14.24868705743509
 31
0.0
  0
LINE
  5
6E
330
1F
100
AcDbEntity
  8
Doc_ Finishes
  6
Continuous
100
AcDbLine
 10
25.64986280487805
 20
14.24868705743509
 30
0.0
 11
25.85714693154996
 21
14.64022423288749
 31
0.0
  0
LINE
  5
6F
330
1F
100
AcDbEntity
  8
Doc_ Finishes
  6
Continuous
100
AcDbLine
 10
25.85714693154996
 20
14.64022423288749
 30
0.0
 11
26.68628343823761
 21
15.2390455350118
 31
0.0
  0
LINE
  5
70
330
1F
100
AcDbEntity
  8
Doc_ Finishes
  6
Continuous
100
AcDbLine
 10
26.68628343823761
 20
15.2390455350118
 30
0.0
 11
27.28510031471282
 21
15.7227070220299
 31
0.0
  0
LINE
  5
71
330
1F
100
AcDbEntity
  8
Doc_ Finishes
  6
Continuous
100
AcDbLine
 10
27.28510031471282
 20
15.7227070220299
 30
0.0
 11
27.81482838316287
 21
16.1142441974823
 31
0.0
  0
LINE
  5
72
330
1F
100
AcDbEntity
  8
Doc_ Finishes
  6
Continuous
100
AcDbLine
 10
27.81482838316287
 20
16.1142441974823
 30
0.0
 11
28.27545879228953
 21
16.52880802517702
 31
0.0
  0
LINE
  5
73
330
1F
100
AcDbEntity
  8
Doc_ Finishes
  6
Continuous
100
AcDbLine
 10
28.27545879228953
 20
16.52880802517702
 30
0.0
 11
28.22939221085759
 21
16.78215873328088
 31
0.0
  0
LINE
  5
74
330
1F
100
AcDbEntity
  8
Doc_ Finishes
  6
Continuous
100
AcDbLine
 10
28.22939221085759
 20
16.78215873328088
 30
0.0
 11
28.09120574350905
 21
16.897314122738
 31
0.0
  0
LINE
  5
75
330
1F
100
AcDbEntity
  8
Doc_ Finishes
  6
Continuous
100
AcDbLine
 10
28.09120574350905
 20
16.897314122738
 30
0.0
 11
27.56147767505901
 21
16.897314122738
 31
0.0
  0
LINE
  5
76
330
1F
100
AcDbEntity
  8
Doc_ Finishes
  6
Continuous
100
AcDbLine
 10
27.56147767505901
 20
16.897314122738
 30
0.0
 11
27.41177566876475
 21
16.87044600708104
 31
0.0
  0
HATCH
  5
77
330
1F
100
AcDbEntity
  8
Doc_ Finishes
  6
Continuous
100
AcDbHatch
 10
0.0
 20
0.0
 30
0.0
210
0.0
220
0.0
230
1.0
  2
SOLID
 70
     1
 71
     0
 91
        1
 92
        3
 72
     0
 73
     1
 93
       39
 10
27.65360600299377
 20
13.12014334109181
 10
27.21600693931564
 20
12.77467039608275
 10
26.54809257896482
 20
12.24494521373555
 10
25.92624127794851
 20
11.85340920939199
 10
25.32742150659951
 20
11.32368402704478
 10
24.72860173525052
 20
11.04730567103754
 10
24.08371890456698
 20
10.56364354802488
 10
23.62308831122158
 20
10.33332825135219
 10
23.231552306878
 20
10.03391836567767
 10
22.81698477286715
 20
9.619350831666825
 10
22.40241723885631
 20
9.38903553499415
 10
21.91875511584363
 20
9.043562589985086
 10
21.66540828950367
 20
8.859310352646935
 10
21.25084075549282
 20
8.582931996639696
 10
20.09926427212933
 20
7.753796928618002
 10
19.75379132712029
 20
7.477418572610764
 10
19.2931607337749
 20
7.316197864939873
 10
19.22406614477309
 20
6.993756449598113
 10
19.3622553227767
 20
6.717378093590874
 10
19.63863367878394
 20
6.602220445254527
 10
20.00713815346026
 20
6.8325357419272
 10
20.26048497980021
 20
7.131945627601722
 10
20.55989486547472
 20
7.362260924274415
 10
21.31993534449462
 20
7.707733869283458
 10
21.84966052684182
 20
8.122301403294307
 10
22.88607936186895
 20
8.882341882314256
 10
23.20852077721072
 20
9.342972475659646
 10
24.01462431556515
 20
9.734508480003234
 10
24.5673810275796
 20
10.05694989534501
 10
25.46561068460312
 20
10.60970660735953
 10
25.88017821861399
 20
11.07033720070492
 10
26.31777728229212
 20
11.34671555671216
 10
26.70931328663569
 20
11.30065249737762
 10
27.21600693931562
 20
11.55399932371759
 10
28.0681735370046
 20
12.17585062473387
 10
28.41364648201364
 20
12.49829204007566
 10
28.39061495234636
 20
12.77467039608289
 10
28.22939424467547
 20
13.00498569275559
 10
28.04514200733732
 20
13.05104875209013
 97
        0
 75
     0
 76
     1
 98
        0
  0
LINE
  5
78
330
1F
100
AcDbEntity
  8
Doc_ Finishes
  6
Continuous
100
AcDbLine
 10
27.6536064122738
 20
13.12014211250983
 30
0.0
 11
27.21600708103855
 21
12.77467151848938
 31
0.0
  0
LINE
  5
79
330
1F
100
AcDbEntity
  8
Doc_ Finishes
  6
Continuous
100
AcDbLine
 10
27.21600708103855
 20
12.77467151848938
 30
0.0
 11
26.54809254523997
 21
12.24494345003934
 31
0.0
  0
LINE
  5
7A
330
1F
100
AcDbEntity
  8
Doc_ Finishes
  6
Continuous
100
AcDbLine
 10
26.54809254523997
 20
12.24494345003934
 30
0.0
 11
25.92624016522423
 21
11.85341070023603
 31
0.0
  0
LINE
  5
7B
330
1F
100
AcDbEntity
  8
Doc_ Finishes
  6
Continuous
100
AcDbLine
 10
25.92624016522423
 20
11.85341070023603
 30
0.0
 11
25.32742328874902
 21
11.32368263178599
 31
0.0
  0
LINE
  5
7C
330
1F
100
AcDbEntity
  8
Doc_ Finishes
  6
Continuous
100
AcDbLine
 10
25.32742328874902
 20
11.32368263178599
 30
0.0
 11
24.72860198662471
 21
11.04730527143981
 31
0.0
  0
LINE
  5
7D
330
1F
100
AcDbEntity
  8
Doc_ Finishes
  6
Continuous
100
AcDbLine
 10
24.72860198662471
 20
11.04730527143981
 30
0.0
 11
24.08371852871754
 21
10.56364378442171
 31
0.0
  0
LINE
  5
7E
330
1F
100
AcDbEntity
  8
Doc_ Finishes
  6
Continuous
100
AcDbLine
 10
24.08371852871754
 20
10.56364378442171
 30
0.0
 11
23.62308811959087
 21
10.33332857985838
 31
0.0
  0
LINE
  5
7F
330
1F
100
AcDbEntity
  8
Doc_ Finishes
  6
Continuous
100
AcDbLine
 10
23.62308811959087
 20
10.33332857985838
 30
0.0
 11
23.23155094413847
 21
10.03392014162077
 31
0.0
  0
LINE
  5
80
330
1F
100
AcDbEntity
  8
Doc_ Finishes
  6
Continuous
100
AcDbLine
 10
23.23155094413847
 20
10.03392014162077
 30
0.0
 11
22.81698269079465
 21
9.619351888276947
 31
0.0
  0
LINE
  5
81
330
1F
100
AcDbEntity
  8
Doc_ Finishes
  6
Continuous
100
AcDbLine
 10
22.81698269079465
 20
9.619351888276947
 30
0.0
 11
22.40241886309992
 21
9.389036683713611
 31
0.0
  0
LINE
  5
82
330
1F
100
AcDbEntity
  8
Doc_ Finishes
  6
Continuous
100
AcDbLine
 10
22.40241886309992
 20
9.389036683713611
 30
0.0
 11
21.91875295043273
 21
9.04356166404406
 31
0.0
  0
LINE
  5
83
330
1F
100
AcDbEntity
  8
Doc_ Finishes
  6
Continuous
100
AcDbLine
 10
21.91875295043273
 20
9.04356166404406
 30
0.0
 11
21.66540666797797
 21
8.859308615263572
 31
0.0
  0
LINE
  5
84
330
1F
100
AcDbEntity
  8
Doc_ Finishes
  6
Continuous
100
AcDbLine
 10
21.66540666797797
 20
8.859308615263572
 30
0.0
 11
21.25084284028324
 21
8.582931254917387
 31
0.0
  0
LINE
  5
85
330
1F
100
AcDbEntity
  8
Doc_ Finishes
  6
Continuous
100
AcDbLine
 10
21.25084284028324
 20
8.582931254917387
 30
0.0
 11
20.09926239181747
 21
7.75379474822974
 31
0.0
  0
LINE
  5
86
330
1F
100
AcDbEntity
  8
Doc_ Finishes
  6
Continuous
100
AcDbLine
 10
20.09926239181747
 20
7.75379474822974
 30
0.0
 11
19.75379179779701
 21
7.477417387883556
 31
0.0
  0
LINE
  5
87
330
1F
100
AcDbEntity
  8
Doc_ Finishes
  6
Continuous
100
AcDbLine
 10
19.75379179779701
 20
7.477417387883556
 30
0.0
 11
19.29316138867033
 21
7.316199842643588
 31
0.0
  0
LINE
  5
88
330
1F
100
AcDbEntity
  8
Doc_ Finishes
  6
Continuous
100
AcDbLine
 10
19.29316138867033
 20
7.316199842643588
 30
0.0
 11
19.22406815499606
 21
6.993755900865461
 31
0.0
  0
LINE
  5
89
330
1F
100
AcDbEntity
  8
Doc_ Finishes
  6
Continuous
100
AcDbLine
 10
19.22406815499606
 20
6.993755900865461
 30
0.0
 11
19.36225462234461
 21
6.717378540519276
 31
0.0
  0
LINE
  5
8A
330
1F
100
AcDbEntity
  8
Doc_ Finishes
  6
Continuous
100
AcDbLine
 10
19.36225462234461
 20
6.717378540519276
 30
0.0
 11
19.63863198269079
 21
6.602218725413059
 31
0.0
  0
LINE
  5
8B
330
1F
100
AcDbEntity
  8
Doc_ Finishes
  6
Continuous
100
AcDbLine
 10
19.63863198269079
 20
6.602218725413059
 30
0.0
 11
20.00713808025177
 21
6.832533929976396
 31
0.0
  0
LINE
  5
8C
330
1F
100
AcDbEntity
  8
Doc_ Finishes
  6
Continuous
100
AcDbLine
 10
20.00713808025177
 20
6.832533929976396
 30
0.0
 11
20.26048436270653
 21
7.1319467938631
 31
0.0
  0
LINE
  5
8D
330
1F
100
AcDbEntity
  8
Doc_ Finishes
  6
Continuous
100
AcDbLine
 10
20.26048436270653
 20
7.1319467938631
 30
0.0
 11
20.55989280094414
 21
7.362261998426435
 31
0.0
  0
LINE
  5
8E
330
1F
100
AcDbEntity
  8
Doc_ Finishes
  6
Continuous
100
AcDbLine
 10
20.55989280094414
 20
7.362261998426435
 30
0.0
 11
21.31993607395751
 21
7.707732592446892
 31
0.0
  0
LINE
  5
8F
330
1F
100
AcDbEntity
  8
Doc_ Finishes
  6
Continuous
100
AcDbLine
 10
21.31993607395751
 20
7.707732592446892
 30
0.0
 11
21.84965971675846
 21
8.122300845790717
 31
0.0
  0
LINE
  5
90
330
1F
100
AcDbEntity
  8
Doc_ Finishes
  6
Continuous
100
AcDbLine
 10
21.84965971675846
 20
8.122300845790717
 30
0.0
 11
22.88608035011802
 21
8.882339693154996
 31
0.0
  0
LINE
  5
91
330
1F
100
AcDbEntity
  8
Doc_ Finishes
  6
Continuous
100
AcDbLine
 10
22.88608035011802
 20
8.882339693154996
 30
0.0
 11
23.20851986624705
 21
9.342974527930762
 31
0.0
  0
LINE
  5
92
330
1F
100
AcDbEntity
  8
Doc_ Finishes
  6
Continuous
100
AcDbLine
 10
23.20851986624705
 20
9.342974527930762
 30
0.0
 11
24.01462529504327
 21
9.734507277734066
 31
0.0
  0
LINE
  5
93
330
1F
100
AcDbEntity
  8
Doc_ Finishes
  6
Continuous
100
AcDbLine
 10
24.01462529504327
 20
9.734507277734066
 30
0.0
 11
24.56738001573564
 21
10.05695121951219
 31
0.0
  0
LINE
  5
94
330
1F
100
AcDbEntity
  8
Doc_ Finishes
  6
Continuous
100
AcDbLine
 10
24.56738001573564
 20
10.05695121951219
 30
0.0
 11
25.46560975609756
 21
10.60970594020456
 31
0.0
  0
LINE
  5
95
330
1F
100
AcDbEntity
  8
Doc_ Finishes
  6
Continuous
100
AcDbLine
 10
25.46560975609756
 20
10.60970594020456
 30
0.0
 11
25.88017800944139
 21
11.07033634933124
 31
0.0
  0
LINE
  5
96
330
1F
100
AcDbEntity
  8
Doc_ Finishes
  6
Continuous
100
AcDbLine
 10
25.88017800944139
 20
11.07033634933124
 30
0.0
 11
26.31777734067663
 21
11.34671370967742
 31
0.0
  0
LINE
  5
97
330
1F
100
AcDbEntity
  8
Doc_ Finishes
  6
Continuous
100
AcDbLine
 10
26.31777734067663
 20
11.34671370967742
 30
0.0
 11
26.70931451612903
 21
11.30065155389457
 31
0.0
  0
LINE
  5
98
330
1F
100
AcDbEntity
  8
Doc_ Finishes
  6
Continuous
100
AcDbLine
 10
26.70931451612903
 20
11.30065155389457
 30
0.0
 11
27.21600708103855
 21
11.55399783634933
 31
0.0
  0
LINE
  5
99
330
1F
100
AcDbEntity
  8
Doc_ Finishes
  6
Continuous
100
AcDbLine
 10
27.21600708103855
 20
11.55399783634933
 30
0.0
 11
28.06817466561763
 21
12.17585021636507
 31
0.0
  0
LINE
  5
9A
330
1F
100
AcDbEntity
  8
Doc_ Finishes
  6
Continuous
100
AcDbLine
 10
28.06817466561763
 20
12.17585021636507
 30
0.0
 11
28.41364525963808
 21
12.49829415814319
 31
0.0
  0
LINE
  5
9B
330
1F
100
AcDbEntity
  8
Doc_ Finishes
  6
Continuous
100
AcDbLine
 10
28.41364525963808
 20
12.49829415814319
 30
0.0
 11
28.39061418174666
 21
12.77467151848938
 31
0.0
  0
LINE
  5
9C
330
1F
100
AcDbEntity
  8
Doc_ Finishes
  6
Continuous
100
AcDbLine
 10
28.39061418174666
 20
12.77467151848938
 30
0.0
 11
28.22939221085759
 21
13.00498672305271
 31
0.0
  0
LINE
  5
9D
330
1F
100
AcDbEntity
  8
Doc_ Finishes
  6
Continuous
100
AcDbLine
 10
28.22939221085759
 20
13.00498672305271
 30
0.0
 11
28.04514358772619
 21
13.05104887883556
 31
0.0
  0
LINE
  5
9E
330
1F
100
AcDbEntity
  8
Doc_ Finishes
  6
Continuous
100
AcDbLine
 10
28.04514358772619
 20
13.05104887883556
 30
0.0
 11
27.6536064122738
 21
13.12014211250983
 31
0.0
  0
HATCH
  5
9F
330
1F
100
AcDbEntity
  8
Doc_ Finishes
  6
Continuous
100
AcDbHatch
 10
0.0
 20
0.0
 30
0.0
210
0.0
220
0.0
230
1.0
  2
SOLID
 70
     1
 71
     0
 91
        1
 92
        3
 72
     0
 73
     1
 93
       47
 10
28.06817353700456
 20
15.74573772316067
 10
28.30309513961077
 20
15.62136746295728
 10
28.4412843176144
 20
15.4002647781515
 10
28.93876535842742
 20
15.17916209334572
 10
29.82317609765057
 20
14.40530269652538
 10
30.92868952167951
 20
13.74199464210799
 10
31.59199757609689
 20
13.3827027792986
 10
32.20002995931279
 20
13.07868658769064
 10
33.55428390374828
 20
12.08372450606458
 10
34.07940278016201
 20
11.69679480765445
 10
34.88090001258301
 20
11.08876242443854
 10
35.59948373820179
 20
10.50836787682334
 10
36.5668079842271
 20
9.817421986805197
 10
37.06428902504012
 20
9.458130123995785
 10
37.81051058625966
 20
8.933011247582023
 10
38.61200781868061
 20
8.407892371168286
 10
38.77783483228498
 20
8.186789686362482
 10
39.38586721550092
 20
7.744584316750918
 10
40.18736444792187
 20
6.915449248729224
 10
40.7953968311378
 20
6.44560604351692
 10
41.56925622795804
 20
6.169227687509681
 10
42.23256428237543
 20
6.086314180707507
 10
42.48130480278193
 20
6.30741686551329
 10
42.14965077557326
 20
6.611433057121246
 10
41.48634272115586
 20
6.998362755531397
 10
40.76775899553709
 20
7.357654618340788
 10
40.18736444792187
 20
8.048600508358874
 10
38.99893751709079
 20
8.822459905179112
 10
38.47381864067705
 20
9.319940945992132
 10
38.22507812027052
 20
9.734508480003
 10
37.17484036744301
 20
10.31490302761817
 10
36.73263499783144
 20
10.78474623283046
 10
36.2351539570184
 20
11.17167593124059
 10
35.48893239579888
 20
11.61388130085215
 10
34.85326217698223
 20
12.16663801286669
 10
34.35578113616919
 20
12.58120554687754
 10
33.69247308175183
 20
12.99577308088841
 10
33.22262987653953
 20
13.32742710809708
 10
32.7251488357265
 20
13.5761676285036
 10
31.93747052110588
 20
14.06443605744977
 10
31.43077686842594
 20
14.38687747279155
 10
30.92408321574601
 20
14.70931888813342
 10
30.62467333007151
 20
15.100854892477
 10
29.95675896972068
 20
15.67664313415887
 10
29.47309684670803
 20
15.9530214901661
 10
28.82821401602447
 20
16.36758902417695
 10
28.50577260068269
 20
16.22939984617334
 97
        0
 75
     0
 76
     1
 98
        0
  0
LINE
  5
A0
330
1F
100
AcDbEntity
  8
Doc_ Finishes
  6
Continuous
100
AcDbLine
 10
28.30309697088906
 20
15.62136850904799
 30
0.0
 11
28.06817466561763
 21
15.74573809992132
 31
0.0
  0
LINE
  5
A1
330
1F
100
AcDbEntity
  8
Doc_ Finishes
  6
Continuous
100
AcDbLine
 10
28.44128343823761
 20
15.40026308025177
 30
0.0
 11
28.30309697088906
 21
15.62136850904799
 31
0.0
  0
LINE
  5
A2
330
1F
100
AcDbEntity
  8
Doc_ Finishes
  6
Continuous
100
AcDbLine
 10
28.93876622738001
 20
15.17916207710464
 30
0.0
 11
28.44128343823761
 21
15.40026308025177
 31
0.0
  0
LINE
  5
A3
330
1F
100
AcDbEntity
  8
Doc_ Finishes
  6
Continuous
100
AcDbLine
 10
29.82317466561762
 20
14.40530192761605
 30
0.0
 11
28.93876622738001
 21
15.17916207710464
 31
0.0
  0
LINE
  5
A4
330
1F
100
AcDbEntity
  8
Doc_ Finishes
  6
Continuous
100
AcDbLine
 10
30.92868853265146
 20
13.74199449252557
 30
0.0
 11
29.82317466561762
 21
14.40530192761605
 31
0.0
  0
LINE
  5
A5
330
1F
100
AcDbEntity
  8
Doc_ Finishes
  6
Continuous
100
AcDbLine
 10
31.59199596774193
 20
13.3827025963808
 30
0.0
 11
30.92868853265146
 21
13.74199449252557
 31
0.0
  0
LINE
  5
A6
330
1F
100
AcDbEntity
  8
Doc_ Finishes
  6
Continuous
100
AcDbLine
 10
32.20003147128246
 20
13.07868705743509
 30
0.0
 11
31.59199596774193
 21
13.3827025963808
 31
0.0
  0
LINE
  5
A7
330
1F
100
AcDbEntity
  8
Doc_ Finishes
  6
Continuous
100
AcDbLine
 10
33.55428452006294
 20
12.08372590479937
 30
0.0
 11
32.20003147128246
 21
13.07868705743509
 31
0.0
  0
LINE
  5
A8
330
1F
100
AcDbEntity
  8
Doc_ Finishes
  6
Continuous
100
AcDbLine
 10
34.07940106215578
 20
11.69679583005508
 30
0.0
 11
33.55428452006294
 21
12.08372590479937
 31
0.0
  0
LINE
  5
A9
330
1F
100
AcDbEntity
  8
Doc_ Finishes
  6
Continuous
100
AcDbLine
 10
34.8808993902439
 20
11.08876032651456
 30
0.0
 11
34.07940106215578
 21
11.69679583005508
 31
0.0
  0
LINE
  5
AA
330
1F
100
AcDbEntity
  8
Doc_ Finishes
  6
Continuous
100
AcDbLine
 10
35.59948318253343
 20
10.50836742722266
 30
0.0
 11
34.8808993902439
 21
11.08876032651456
 31
0.0
  0
LINE
  5
AB
330
1F
100
AcDbEntity
  8
Doc_ Finishes
  6
Continuous
100
AcDbLine
 10
36.56680615656963
 20
9.817421813532652
 30
0.0
 11
35.59948318253343
 21
10.50836742722266
 31
0.0
  0
LINE
  5
AC
330
1F
100
AcDbEntity
  8
Doc_ Finishes
  6
Continuous
100
AcDbLine
 10
37.06428894571204
 20
9.458129917387884
 30
0.0
 11
36.56680615656963
 21
9.817421813532652
 31
0.0
  0
LINE
  5
AD
330
1F
100
AcDbEntity
  8
Doc_ Finishes
  6
Continuous
100
AcDbLine
 10
37.8105109166011
 20
8.933013375295044
 30
0.0
 11
37.06428894571204
 21
9.458129917387884
 31
0.0
  0
LINE
  5
AE
330
1F
100
AcDbEntity
  8
Doc_ Finishes
  6
Continuous
100
AcDbLine
 10
38.61200924468922
 20
8.407892407553108
 30
0.0
 11
37.8105109166011
 21
8.933013375295044
 31
0.0
  0
LINE
  5
AF
330
1F
100
AcDbEntity
  8
Doc_ Finishes
  6
Continuous
100
AcDbLine
 10
38.77783389063729
 20
8.18679140440598
 30
0.0
 11
38.61200924468922
 21
8.407892407553108
 31
0.0
  0
LINE
  5
B0
330
1F
100
AcDbEntity
  8
Doc_ Finishes
  6
Continuous
100
AcDbLine
 10
39.3858693941778
 20
7.744584972462627
 30
0.0
 11
38.77783389063729
 21
8.18679140440598
 31
0.0
  0
LINE
  5
B1
330
1F
100
AcDbEntity
  8
Doc_ Finishes
  6
Continuous
100
AcDbLine
 10
40.18736329661684
 20
6.915448465774981
 30
0.0
 11
39.3858693941778
 21
7.744584972462627
 31
0.0
  0
LINE
  5
B2
330
1F
100
AcDbEntity
  8
Doc_ Finishes
  6
Continuous
100
AcDbLine
 10
40.79539880015735
 20
6.4456038552321
 30
0.0
 11
40.18736329661684
 21
6.915448465774981
 31
0.0
  0
LINE
  5
B3
330
1F
100
AcDbEntity
  8
Doc_ Finishes
  6
Continuous
100
AcDbLine
 10
41.56925452399685
 20
6.169226494885916
 30
0.0
 11
40.79539880015735
 21
6.4456038552321
 31
0.0
  0
LINE
  5
B4
330
1F
100
AcDbEntity
  8
Doc_ Finishes
  6
Continuous
100
AcDbLine
 10
42.23256638473643
 20
6.086316384736428
 30
0.0
 11
41.56925452399685
 21
6.169226494885916
 31
0.0
  0
LINE
  5
B5
330
1F
100
AcDbEntity
  8
Doc_ Finishes
  6
Continuous
100
AcDbLine
 10
42.48130556648308
 20
6.307417387883556
 30
0.0
 11
42.23256638473643
 21
6.086316384736428
 31
0.0
  0
LINE
  5
B6
330
1F
100
AcDbEntity
  8
Doc_ Finishes
  6
Continuous
100
AcDbLine
 10
42.14965184893784
 20
6.611432926829268
 30
0.0
 11
42.48130556648308
 21
6.307417387883556
 31
0.0
  0
LINE
  5
B7
330
1F
100
AcDbEntity
  8
Doc_ Finishes
  6
Continuous
100
AcDbLine
 10
41.48634441384736
 20
6.998363001573564
 30
0.0
 11
42.14965184893784
 21
6.611432926829268
 31
0.0
  0
LINE
  5
B8
330
1F
100
AcDbEntity
  8
Doc_ Finishes
  6
Continuous
100
AcDbLine
 10
40.76776062155783
 20
7.357654897718332
 30
0.0
 11
41.48634441384736
 21
6.998363001573564
 31
0.0
  0
LINE
  5
B9
330
1F
100
AcDbEntity
  8
Doc_ Finishes
  6
Continuous
100
AcDbLine
 10
40.18736329661684
 20
8.048600511408338
 30
0.0
 11
40.76776062155783
 21
7.357654897718332
 31
0.0
  0
LINE
  5
BA
330
1F
100
AcDbEntity
  8
Doc_ Finishes
  6
Continuous
100
AcDbLine
 10
38.99893931943352
 20
8.822460660896931
 30
0.0
 11
40.18736329661684
 21
8.048600511408338
 31
0.0
  0
LINE
  5
BB
330
1F
100
AcDbEntity
  8
Doc_ Finishes
  6
Continuous
100
AcDbLine
 10
38.47381835169158
 20
9.319939024390242
 30
0.0
 11
38.99893931943352
 21
8.822460660896931
 31
0.0
  0
LINE
  5
BC
330
1F
100
AcDbEntity
  8
Doc_ Finishes
  6
Continuous
100
AcDbLine
 10
38.22507916994492
 20
9.734507277734066
 30
0.0
 11
38.47381835169158
 21
9.319939024390242
 31
0.0
  0
LINE
  5
BD
330
1F
100
AcDbEntity
  8
Doc_ Finishes
  6
Continuous
100
AcDbLine
 10
37.17484166011014
 20
10.31490460267506
 30
0.0
 11
38.22507916994492
 21
9.734507277734066
 31
0.0
  0
LINE
  5
BE
330
1F
100
AcDbEntity
  8
Doc_ Finishes
  6
Continuous
100
AcDbLine
 10
36.7326352281668
 20
10.78474478756884
 30
0.0
 11
37.17484166011014
 21
10.31490460267506
 31
0.0
  0
LINE
  5
BF
330
1F
100
AcDbEntity
  8
Doc_ Finishes
  6
Continuous
100
AcDbLine
 10
36.23515243902439
 20
11.17167486231314
 30
0.0
 11
36.7326352281668
 21
10.78474478756884
 31
0.0
  0
LINE
  5
C0
330
1F
100
AcDbEntity
  8
Doc_ Finishes
  6
Continuous
100
AcDbLine
 10
35.48893046813532
 20
11.61388129425649
 30
0.0
 11
36.23515243902439
 21
11.17167486231314
 31
0.0
  0
LINE
  5
C1
330
1F
100
AcDbEntity
  8
Doc_ Finishes
  6
Continuous
100
AcDbLine
 10
34.85326121164437
 20
12.16663601494886
 30
0.0
 11
35.48893046813532
 21
11.61388129425649
 31
0.0
  0
LINE
  5
C2
330
1F
100
AcDbEntity
  8
Doc_ Finishes
  6
Continuous
100
AcDbLine
 10
34.35578284815106
 20
12.58120426829268
 30
0.0
 11
34.85326121164437
 21
12.16663601494886
 31
0.0
  0
LINE
  5
C3
330
1F
100
AcDbEntity
  8
Doc_ Finishes
  6
Continuous
100
AcDbLine
 10
33.69247098741149
 20
12.99577252163651
 30
0.0
 11
34.35578284815106
 21
12.58120426829268
 31
0.0
  0
LINE
  5
C4
330
1F
100
AcDbEntity
  8
Doc_ Finishes
  6
Continuous
100
AcDbLine
 10
33.2226308025177
 20
13.32742623918175
 30
0.0
 11
33.69247098741149
 21
12.99577252163651
 31
0.0
  0
LINE
  5
C5
330
1F
100
AcDbEntity
  8
Doc_ Finishes
  6
Continuous
100
AcDbLine
 10
32.7251480133753
 20
13.5761654209284
 30
0.0
 11
33.2226308025177
 21
13.32742623918175
 31
0.0
  0
LINE
  5
C6
330
1F
100
AcDbEntity
  8
Doc_ Finishes
  6
Continuous
100
AcDbLine
 10
31.93747098741148
 20
14.0644340086546
 30
0.0
 11
32.7251480133753
 21
13.5761654209284
 31
0.0
  0
LINE
  5
C7
330
1F
100
AcDbEntity
  8
Doc_ Finishes
  6
Continuous
100
AcDbLine
 10
31.43077842250197
 20
14.38687795043273
 30
0.0
 11
31.93747098741148
 21
14.0644340086546
 31
0.0
  0
LINE
  5
C8
330
1F
100
AcDbEntity
  8
Doc_ Finishes
  6
Continuous
100
AcDbLine
 10
30.92408143194335
 20
14.70931746656176
 30
0.0
 11
31.43077842250197
 21
14.38687795043273
 31
0.0
  0
LINE
  5
C9
330
1F
100
AcDbEntity
  8
Doc_ Finishes
  6
Continuous
100
AcDbLine
 10
30.62467299370574
 20
15.10085464201416
 30
0.0
 11
30.92408143194335
 21
14.70931746656176
 31
0.0
  0
LINE
  5
CA
330
1F
100
AcDbEntity
  8
Doc_ Finishes
  6
Continuous
100
AcDbLine
 10
29.95675845790716
 20
15.67664486624705
 30
0.0
 11
30.62467299370574
 21
15.10085464201416
 31
0.0
  0
LINE
  5
CB
330
1F
100
AcDbEntity
  8
Doc_ Finishes
  6
Continuous
100
AcDbLine
 10
29.47309697088906
 20
15.95302222659323
 30
0.0
 11
29.95675845790716
 21
15.67664486624705
 31
0.0
  0
LINE
  5
CC
330
1F
100
AcDbEntity
  8
Doc_ Finishes
  6
Continuous
100
AcDbLine
 10
28.8282135129819
 20
16.36759047993706
 30
0.0
 11
29.47309697088906
 21
15.95302222659323
 31
0.0
  0
LINE
  5
CD
330
1F
100
AcDbEntity
  8
Doc_ Finishes
  6
Continuous
100
AcDbLine
 10
28.50577399685287
 20
16.22939958693942
 30
0.0
 11
28.8282135129819
 21
16.36759047993706
 31
0.0
  0
LINE
  5
CE
330
1F
100
AcDbEntity
  8
Doc_ Finishes
  6
Continuous
100
AcDbLine
 10
28.06817466561763
 20
15.74573809992132
 30
0.0
 11
28.50577399685287
 21
16.22939958693942
 31
0.0
  0
LINE
  5
CF
330
1F
100
AcDbEntity
  8
Doc_ Finishes
  6
Continuous
 62
   254
370
    18
100
AcDbLine
 10
97.43333792289535
 20
5.093360051140834
 30
0.0
 11
97.43333792289535
 21
20.69901750590086
 31
0.0
  0
LINE
  5
D0
330
1F
100
AcDbEntity
  8
Doc_ Finishes
  6
Continuous
 62
   254
370
    18
100
AcDbLine
 10
7.000000491738787
 20
20.69901750590086
 30
0.0
 11
290.2406840086546
 21
20.69901750590086
 31
0.0
  0
LINE
  5
D1
330
1F
100
AcDbEntity
  8
Doc_ Finishes
  6
Continuous
 62
   254
370
    18
100
AcDbLine
 10
290.2406840086546
 20
20.69901750590086
 30
0.0
 11
290.2406840086546
 21
5.000000983477577
 31
0.0
  0
LINE
  5
D2
330
1F
100
AcDbEntity
  8
Doc_ Finishes
  6
Continuous
 62
   254
370
    18
100
AcDbLine
 10
290.2406840086546
 20
5.000000983477577
 30
0.0
 11
7.000000491738787
 21
5.000000983477577
 31
0.0
  0
LINE
  5
D3
330
1F
100
AcDbEntity
  8
Doc_ Finishes
  6
Continuous
 62
   254
370
    18
100
AcDbLine
 10
7.000000491738787
 20
20.69901750590086
 30
0.0
 11
7.000000491738787
 21
5.000000983477577
 31
0.0
  0
LINE
  5
D4
330
1F
100
AcDbEntity
  8
Doc_ Finishes
  6
Continuous
 62
   254
370
    18
100
AcDbLine
 10
190.2919443351691
 20
5.093360051140834
 30
0.0
 11
190.2919443351691
 21
20.69901750590086
 31
0.0
  0
LINE
  5
D5
330
1F
100
AcDbEntity
  8
Doc_ Finishes
  6
Continuous
 62
   254
370
    18
100
AcDbLine
 10
190.2919443351691
 20
12.8961909913454
 30
0.0
 11
290.2406840086546
 21
12.8961909913454
 31
0.0
  0
MTEXT
  5
D7
330
1F
100
AcDbEntity
  8
0
  6
Continuous
100
AcDbMText
 10
210.3494767103412
 20
15.00230533707754
 30
0.0
 40
2.25
 41
0.0
 71
     7
 72
     1
  1
{R-TRSC-06}
  7
GENERATED_STYLE_1
 73
     1
 44
1.0
  0
MTEXT
  5
D8
330
1F
100
AcDbEntity
  8
0
  6
Continuous
100
AcDbMText
 10
210.3494767103412
 20
11.03300550383743
 30
0.0
 40
3.0
 41
0.0
 71
     1
 72
     1
  1
{BARGE DETAIL - HEAD}
  7
GENERATED_STYLE_1
 73
     1
 44
1.0
  0
MTEXT
  5
DA
330
1F
100
AcDbEntity
  8
Doc_ Floor
  6
Continuous
100
AcDbMText
 10
29.78353726544612
 20
13.33283672870609
 30
0.0
 40
5.603347280334726
 41
0.0
 71
     1
 72
     1
  1
{The Roofing Store}
  7
GENERATED_STYLE_2
 73
     1
 44
1.0
  0
MTEXT
  5
DC
102
{ACAD_XDICTIONARY
360
4F7
102
}
330
1F
100
AcDbEntity
  8
0
  6
Continuous
100
AcDbMText
 10
102.7389238446655
 20
6.378784417288157
 30
0.0
 40
1.5
 41
0.0
 71
     7
 72
     1
  1
{P: HEAD OFFICE              09 277 2717\P    ALBANY             09 972 0060\P    KATIKAIT            07 549 5190\P    WELLINGTON              04 974 5792\P    CHRISTCHURCH          03 348 6528}
  7
GENERATED_STYLE_1
 73
     1
 44
1.062946161486498
  0
MTEXT
  5
DD
330
1F
100
AcDbEntity
  8
0
  6
Continuous
100
AcDbMText
 10
149.4184566143587
 20
9.199084231526156
 30
0.0
 40
1.5
 41
0.0
 71
     7
 72
     1
  1
{WEB: www.theroofingstore.co.nz}
  7
GENERATED_STYLE_1
 73
     1
 44
1.0
  0
MTEXT
  5
DE
330
1F
100
AcDbEntity
  8
0
  6
Continuous
100
AcDbMText
 10
149.4184566143587
 20
6.620946023411263
 30
0.0
 40
1.5
 41
0.0
 71
     7
 72
     1
  1
{Copyright \U+00A9 The Roofing Store 2013}
  7
GENERATED_STYLE_1
 73
     1
 44
1.0
  0
MTEXT
  5
DF
330
1F
100
AcDbEntity
  8
0
  6
Continuous
100
AcDbMText
 10
273.9546684065315
 20
15.01597367092287
 30
0.0
 40
2.25
 41
0.0
 71
     7
 72
     1
  1
{1:5}
  7
GENERATED_STYLE_1
 73
     1
 44
1.0
  0
MTEXT
  5
E0
330
1F
100
AcDbEntity
  8
0
  6
Continuous
100
AcDbMText
 10
264.8396605309016
 20
15.51746459162148
 30
0.0
 40
1.5
 41
0.0
 71
     7
 72
     1
  1
{SCALE:}
  7
GENERATED_STYLE_1
 73
     1
 44
1.0
  0
MTEXT
  5
E1
330
1F
100
AcDbEntity
  8
0
  6
Continuous
100
AcDbMText
 10
191.5066235617487
 20
15.48695559872207
 30
0.0
 40
1.5
 41
0.0
 71
     7
 72
     1
  1
{DETAIL NUMBER:}
  7
GENERATED_STYLE_1
 73
     1
 44
1.0
  0
MTEXT
  5
E2
330
1F
100
AcDbEntity
  8
0
  6
Continuous
100
AcDbMText
 10
191.5066235617487
 20
9.005462392315325
 30
0.0
 40
1.5
 41
0.0
 71
     7
 72
     1
  1
{TITLE:}
  7
GENERATED_STYLE_1
 73
     1
 44
1.0
  0
INSERT
  5
4C5
102
{ACAD_XDICTIONARY
360
4C6
102
}
330
1F
100
AcDbEntity
  8
0
  6
Continuous
100
AcDbBlockReference
  2
Drawing_1_2
 10
107.2260115974659
 20
-35.16744529250214
 30
0.0
  0
ENDSEC
  0
SECTION
  2
OBJECTS
  0
DICTIONARY
  5
C
330
0
100
AcDbDictionary
281
     1
  3
ACAD_GROUP
350
D
  3
ACAD_LAYOUT
350
1A
  3
ACAD_MATERIAL
350
3B
  3
ACAD_MLEADERSTYLE
350
4F2
  3
ACAD_MLINESTYLE
350
17
  3
ACAD_PLOTSETTINGS
350
19
  3
ACAD_PLOTSTYLENAME
350
E
  3
ACAD_SCALELIST
350
4CC
  3
ACAD_VISUALSTYLE
350
2A
  3
AcDbVariableDictionary
350
4F0
  3
WATERMARKS
350
4EE
  0
DICTIONARY
  5
4F7
330
DC
100
AcDbDictionary
280
     1
281
     1
  3
ACAD_MTEXT_RT
360
4F8
  0
DICTIONARY
  5
4C6
330
4C5
100
AcDbDictionary
280
     1
281
     1
  3
ACAD_FILTER
360
4C7
  0
DICTIONARY
  5
D
102
{ACAD_REACTORS
330
C
102
}
330
C
100
AcDbDictionary
281
     1
  0
DICTIONARY
  5
1A
102
{ACAD_REACTORS
330
C
102
}
330
C
100
AcDbDictionary
281
     1
  3
Layout1
350
1E
  3
Model
350
22
  0
DICTIONARY
  5
3B
102
{ACAD_REACTORS
330
C
102
}
330
C
100
AcDbDictionary
281
     1
  3
ByBlock
350
3D
  3
ByLayer
350
3C
  3
Global
350
3E
  0
DICTIONARY
  5
4F2
102
{ACAD_REACTORS
330
C
102
}
330
C
100
AcDbDictionary
281
     1
  0
DICTIONARY
  5
17
102
{ACAD_REACTORS
330
C
102
}
330
C
100
AcDbDictionary
281
     1
  3
Standard
350
18
  0
DICTIONARY
  5
19
102
{ACAD_REACTORS
330
C
102
}
330
C
100
AcDbDictionary
281
     1
  0
ACDBDICTIONARYWDFLT
  5
E
102
{ACAD_REACTORS
330
C
102
}
330
C
100
AcDbDictionary
281
     1
  3
Normal
350
F
100
AcDbDictionaryWithDefault
340
F
  0
DICTIONARY
  5
4CC
102
{ACAD_REACTORS
330
C
102
}
330
C
100
AcDbDictionary
281
     1
  3
A0
350
4CD
  3
A1
350
4CE
  3
A2
350
4CF
  3
A3
350
4D0
  3
A4
350
4D1
  3
A5
350
4D2
  3
A6
350
4D3
  3
A7
350
4D4
  3
A8
350
4D5
  3
A9
350
4D6
  3
B0
350
4D7
  3
B1
350
4D8
  3
B2
350
4D9
  3
B3
350
4DA
  3
B4
350
4DB
  3
B5
350
4DC
  3
B6
350
4DD
  3
B7
350
4DE
  3
B8
350
4DF
  3
B9
350
4E0
  3
C0
350
4E1
  3
C1
350
4E2
  3
C2
350
4E3
  3
C3
350
4E4
  3
C4
350
4E5
  3
C5
350
4E6
  3
C6
350
4E7
  3
C7
350
4E8
  3
C8
350
4E9
  3
C9
350
4EA
  3
D0
350
4EB
  3
D1
350
4EC
  3
D2
350
4ED
  0
DICTIONARY
  5
2A
102
{ACAD_REACTORS
330
C
102
}
330
C
100
AcDbDictionary
281
     1
  3
2dWireframe
350
2F
  3
3D Hidden
350
31
  3
3dWireframe
350
30
  3
Basic
350
32
  3
Brighten
350
36
  3
ColorChange
350
3A
  3
Conceptual
350
34
  3
Dim
350
35
  3
Facepattern
350
39
  3
Flat
350
2B
  3
FlatWithEdges
350
2C
  3
Gouraud
350
2D
  3
GouraudWithEdges
350
2E
  3
Linepattern
350
38
  3
Realistic
350
33
  3
Thicken
350
37
  0
DICTIONARY
  5
4F0
102
{ACAD_REACTORS
330
C
102
}
330
C
100
AcDbDictionary
281
     1
  3
CANNOSCALE
350
4F4
  3
DIMASSOC
350
4F5
  3
HIDETEXT
350
4F6
  3
XCLIPFRAME
350
4F3
  0
DICTIONARY
  5
4EE
102
{ACAD_REACTORS
330
C
102
}
330
C
100
AcDbDictionary
281
     1
  3
AC_WATERMARK
350
4EF
  0
XRECORD
  5
4F8
102
{ACAD_REACTORS
330
4F7
102
}
330
4F7
100
AcDbXrecord
280
     1
 40
956118.0
  1
{P: HEAD OFFICE ^I^I09 277 2717\P    ALBANY ^I^I09 972 0060\P    KATIKAIT^I^I07 549 5190\P    WELLINGTON^I^I04 974 5792\P    CHRISTCHURCH^I^I03 348 6528}
  0
DICTIONARY
  5
4C7
102
{ACAD_REACTORS
330
4C6
102
}
330
4C6
100
AcDbDictionary
280
     1
281
     1
  3
SPATIAL
360
4C8
  0
LAYOUT
  5
1E
102
{ACAD_REACTORS
330
1A
102
}
330
1A
100
AcDbPlotSettings
  1

  2
none_device
  4

  6

 40
0.0
 41
0.0
 42
0.0
 43
0.0
 44
0.0
 45
0.0
 46
0.0
 47
0.0
 48
0.0
 49
0.0
140
0.0
141
0.0
142
1.0
143
1.0
 70
   688
 72
     0
 73
     0
 74
     5
  7

 75
    16
147
1.0
148
0.0
149
0.0
100
AcDbLayout
  1
Layout1
 70
     1
 71
     1
 10
0.0
 20
0.0
 11
12.0
 21
9.0
 12
0.0
 22
0.0
 32
0.0
 14
1.000000000000000E+20
 24
1.000000000000000E+20
 34
1.000000000000000E+20
 15
-1.000000000000000E+20
 25
-1.000000000000000E+20
 35
-1.000000000000000E+20
146
0.0
 13
0.0
 23
0.0
 33
0.0
 16
1.0
 26
0.0
 36
0.0
 17
0.0
 27
1.0
 37
0.0
 76
     0
330
1B
  0
LAYOUT
  5
22
102
{ACAD_REACTORS
330
1A
102
}
330
1A
100
AcDbPlotSettings
  1

  2
none_device
  4

  6

 40
0.0
 41
0.0
 42
0.0
 43
0.0
 44
0.0
 45
0.0
 46
0.0
 47
0.0
 48
0.0
 49
0.0
140
0.0
141
0.0
142
1.0
143
1.0
 70
  1712
 72
     0
 73
     0
 74
     0
  7

 75
     0
147
1.0
148
0.0
149
0.0
100
AcDbLayout
  1
Model
 70
     1
 71
     0
 10
0.0
 20
0.0
 11
12.0
 21
9.0
 12
0.0
 22
0.0
 32
0.0
 14
1.000000000000000E+20
 24
1.000000000000000E+20
 34
1.000000000000000E+20
 15
-1.000000000000000E+20
 25
-1.000000000000000E+20
 35
-1.000000000000000E+20
146
0.0
 13
0.0
 23
0.0
 33
0.0
 16
1.0
 26
0.0
 36
0.0
 17
0.0
 27
1.0
 37
0.0
 76
     0
330
1F
331
29
  0
MATERIAL
  5
3D
102
{ACAD_REACTORS
330
3B
102
}
102
{ACAD_XDICTIONARY
360
51B
102
}
330
3B
100
AcDbMaterial
  1
ByBlock
  0
MATERIAL
  5
3C
102
{ACAD_REACTORS
330
3B
102
}
102
{ACAD_XDICTIONARY
360
519
102
}
330
3B
100
AcDbMaterial
  1
ByLayer
  0
MATERIAL
  5
3E
102
{ACAD_REACTORS
330
3B
102
}
102
{ACAD_XDICTIONARY
360
51D
102
}
330
3B
100
AcDbMaterial
  1
Global
  0
MLINESTYLE
  5
18
102
{ACAD_REACTORS
330
17
102
}
330
17
100
AcDbMlineStyle
  2
Standard
 70
     0
  3

 62
   256
 51
90.0
 52
90.0
 71
     2
 49
0.5
 62
   256
  6
BYLAYER
 49
-0.5
 62
   256
  6
BYLAYER
  0
ACDBPLACEHOLDER
  5
F
102
{ACAD_REACTORS
330
E
102
}
330
E
  0
SCALE
  5
4CD
102
{ACAD_REACTORS
330
4CC
102
}
330
4CC
100
AcDbScale
 70
     0
300
1:1
140
1.0
141
1.0
290
     1
  0
SCALE
  5
4CE
102
{ACAD_REACTORS
330
4CC
102
}
330
4CC
100
AcDbScale
 70
     0
300
1:2
140
1.0
141
2.0
290
     0
  0
SCALE
  5
4CF
102
{ACAD_REACTORS
330
4CC
102
}
330
4CC
100
AcDbScale
 70
     0
300
1:4
140
1.0
141
4.0
290
     0
  0
SCALE
  5
4D0
102
{ACAD_REACTORS
330
4CC
102
}
330
4CC
100
AcDbScale
 70
     0
300
1:5
140
1.0
141
5.0
290
     0
  0
SCALE
  5
4D1
102
{ACAD_REACTORS
330
4CC
102
}
330
4CC
100
AcDbScale
 70
     0
300
1:8
140
1.0
141
8.0
290
     0
  0
SCALE
  5
4D2
102
{ACAD_REACTORS
330
4CC
102
}
330
4CC
100
AcDbScale
 70
     0
300
1:10
140
1.0
141
10.0
290
     0
  0
SCALE
  5
4D3
102
{ACAD_REACTORS
330
4CC
102
}
330
4CC
100
AcDbScale
 70
     0
300
1:16
140
1.0
141
16.0
290
     0
  0
SCALE
  5
4D4
102
{ACAD_REACTORS
330
4CC
102
}
330
4CC
100
AcDbScale
 70
     0
300
1:20
140
1.0
141
20.0
290
     0
  0
SCALE
  5
4D5
102
{ACAD_REACTORS
330
4CC
102
}
330
4CC
100
AcDbScale
 70
     0
300
1:30
140
1.0
141
30.0
290
     0
  0
SCALE
  5
4D6
102
{ACAD_REACTORS
330
4CC
102
}
330
4CC
100
AcDbScale
 70
     0
300
1:40
140
1.0
141
40.0
290
     0
  0
SCALE
  5
4D7
102
{ACAD_REACTORS
330
4CC
102
}
330
4CC
100
AcDbScale
 70
     0
300
1:50
140
1.0
141
50.0
290
     0
  0
SCALE
  5
4D8
102
{ACAD_REACTORS
330
4CC
102
}
330
4CC
100
AcDbScale
 70
     0
300
1:100
140
1.0
141
100.0
290
     0
  0
SCALE
  5
4D9
102
{ACAD_REACTORS
330
4CC
102
}
330
4CC
100
AcDbScale
 70
     0
300
2:1
140
2.0
141
1.0
290
     0
  0
SCALE
  5
4DA
102
{ACAD_REACTORS
330
4CC
102
}
330
4CC
100
AcDbScale
 70
     0
300
4:1
140
4.0
141
1.0
290
     0
  0
SCALE
  5
4DB
102
{ACAD_REACTORS
330
4CC
102
}
330
4CC
100
AcDbScale
 70
     0
300
8:1
140
8.0
141
1.0
290
     0
  0
SCALE
  5
4DC
102
{ACAD_REACTORS
330
4CC
102
}
330
4CC
100
AcDbScale
 70
     0
300
10:1
140
10.0
141
1.0
290
     0
  0
SCALE
  5
4DD
102
{ACAD_REACTORS
330
4CC
102
}
330
4CC
100
AcDbScale
 70
     0
300
100:1
140
100.0
141
1.0
290
     0
  0
SCALE
  5
4DE
102
{ACAD_REACTORS
330
4CC
102
}
330
4CC
100
AcDbScale
 70
     0
300
1/128" = 1'-0"
140
0.0078125
141
12.0
290
     0
  0
SCALE
  5
4DF
102
{ACAD_REACTORS
330
4CC
102
}
330
4CC
100
AcDbScale
 70
     0
300
1/64" = 1'-0"
140
0.015625
141
12.0
290
     0
  0
SCALE
  5
4E0
102
{ACAD_REACTORS
330
4CC
102
}
330
4CC
100
AcDbScale
 70
     0
300
1/32" = 1'-0"
140
0.03125
141
12.0
290
     0
  0
SCALE
  5
4E1
102
{ACAD_REACTORS
330
4CC
102
}
330
4CC
100
AcDbScale
 70
     0
300
1/16" = 1'-0"
140
0.0625
141
12.0
290
     0
  0
SCALE
  5
4E2
102
{ACAD_REACTORS
330
4CC
102
}
330
4CC
100
AcDbScale
 70
     0
300
3/32" = 1'-0"
140
0.09375
141
12.0
290
     0
  0
SCALE
  5
4E3
102
{ACAD_REACTORS
330
4CC
102
}
330
4CC
100
AcDbScale
 70
     0
300
1/8" = 1'-0"
140
0.125
141
12.0
290
     0
  0
SCALE
  5
4E4
102
{ACAD_REACTORS
330
4CC
102
}
330
4CC
100
AcDbScale
 70
     0
300
3/16" = 1'-0"
140
0.1875
141
12.0
290
     0
  0
SCALE
  5
4E5
102
{ACAD_REACTORS
330
4CC
102
}
330
4CC
100
AcDbScale
 70
     0
300
1/4" = 1'-0"
140
0.25
141
12.0
290
     0
  0
SCALE
  5
4E6
102
{ACAD_REACTORS
330
4CC
102
}
330
4CC
100
AcDbScale
 70
     0
300
3/8" = 1'-0"
140
0.375
141
12.0
290
     0
  0
SCALE
  5
4E7
102
{ACAD_REACTORS
330
4CC
102
}
330
4CC
100
AcDbScale
 70
     0
300
1/2" = 1'-0"
140
0.5
141
12.0
290
     0
  0
SCALE
  5
4E8
102
{ACAD_REACTORS
330
4CC
102
}
330
4CC
100
AcDbScale
 70
     0
300
3/4" = 1'-0"
140
0.75
141
12.0
290
     0
  0
SCALE
  5
4E9
102
{ACAD_REACTORS
330
4CC
102
}
330
4CC
100
AcDbScale
 70
     0
300
1" = 1'-0"
140
1.0
141
12.0
290
     0
  0
SCALE
  5
4EA
102
{ACAD_REACTORS
330
4CC
102
}
330
4CC
100
AcDbScale
 70
     0
300
1-1/2" = 1'-0"
140
1.5
141
12.0
290
     0
  0
SCALE
  5
4EB
102
{ACAD_REACTORS
330
4CC
102
}
330
4CC
100
AcDbScale
 70
     0
300
3" = 1'-0"
140
3.0
141
12.0
290
     0
  0
SCALE
  5
4EC
102
{ACAD_REACTORS
330
4CC
102
}
330
4CC
100
AcDbScale
 70
     0
300
6" = 1'-0"
140
6.0
141
12.0
290
     0
  0
SCALE
  5
4ED
102
{ACAD_REACTORS
330
4CC
102
}
330
4CC
100
AcDbScale
 70
     0
300
1'-0" = 1'-0"
140
12.0
141
12.0
290
     0
  0
VISUALSTYLE
  5
2F
102
{ACAD_REACTORS
330
2A
102
}
102
{ACAD_XDICTIONARY
360
501
102
}
330
2A
100
AcDbVisualStyle
  2
2dWireframe
 70
     4
 71
     0
 72
     2
 73
     0
 90
        0
 40
-0.6
 41
-30.0
 62
     5
 63
     7
 74
     1
 91
        4
 64
     7
 65
   257
 75
     1
175
     1
 42
1.0
 92
        0
 66
   257
 43
1.0
 76
     1
 77
     6
 78
     2
 67
     7
 79
     5
170
     0
171
     0
290
     0
174
     0
 93
        1
 44
0.0
173
     0
291
     0
 45
0.0
1001
ACAD
1000
AcDbSavedByObjectVersion
1070
     0
  0
VISUALSTYLE
  5
31
102
{ACAD_REACTORS
330
2A
102
}
102
{ACAD_XDICTIONARY
360
505
102
}
330
2A
100
AcDbVisualStyle
  2
3D Hidden
 70
     6
 71
     1
 72
     2
 73
     2
 90
        0
 40
-0.6
 41
-30.0
 62
     5
 63
     7
 74
     2
 91
        2
 64
     7
 65
   257
 75
     2
175
     1
 42
40.0
 92
        0
 66
   257
 43
1.0
 76
     1
 77
     6
 78
     2
 67
     7
 79
     3
170
     0
171
     0
290
     0
174
     0
 93
        1
 44
0.0
173
     0
291
     0
 45
0.0
1001
ACAD
1000
AcDbSavedByObjectVersion
1070
     0
  0
VISUALSTYLE
  5
30
102
{ACAD_REACTORS
330
2A
102
}
102
{ACAD_XDICTIONARY
360
503
102
}
330
2A
100
AcDbVisualStyle
  2
3dWireframe
 70
     5
 71
     0
 72
     2
 73
     0
 90
        0
 40
-0.6
 41
-30.0
 62
     5
 63
     7
 74
     1
 91
        4
 64
     7
 65
   257
 75
     1
175
     1
 42
1.0
 92
        0
 66
   257
 43
1.0
 76
     1
 77
     6
 78
     2
 67
     7
 79
     5
170
     0
171
     0
290
     0
174
     0
 93
        1
 44
0.0
173
     0
291
     0
 45
0.0
1001
ACAD
1000
AcDbSavedByObjectVersion
1070
     0
  0
VISUALSTYLE
  5
32
102
{ACAD_REACTORS
330
2A
102
}
102
{ACAD_XDICTIONARY
360
507
102
}
330
2A
100
AcDbVisualStyle
  2
Basic
 70
     7
 71
     1
 72
     0
 73
     1
 90
        0
 40
-0.6
 41
-30.0
 62
     5
 63
     7
 74
     0
 91
        4
 64
     7
 65
   257
 75
     1
175
     1
 42
1.0
 92
        8
 66
     7
 43
1.0
 76
     1
 77
     6
 78
     2
 67
     7
 79
     5
170
     0
171
     0
290
     0
174
     0
 93
        1
 44
0.0
173
     0
291
     1
 45
0.0
1001
ACAD
1000
AcDbSavedByObjectVersion
1070
     0
  0
VISUALSTYLE
  5
36
102
{ACAD_REACTORS
330
2A
102
}
102
{ACAD_XDICTIONARY
360
50F
102
}
330
2A
100
AcDbVisualStyle
  2
Brighten
 70
    12
 71
     2
 72
     2
 73
     0
 90
        0
 40
-0.6
 41
-30.0
 62
     5
 63
     7
 74
     1
 91
        4
 64
     7
 65
   257
 75
     1
175
     1
 42
1.0
 92
        8
 66
     7
 43
1.0
 76
     1
 77
     6
 78
     2
 67
     7
 79
     5
170
     0
171
     0
290
     0
174
     0
 93
        1
 44
50.0
173
     0
291
     1
 45
0.0
1001
ACAD
1000
AcDbSavedByObjectVersion
1070
     0
  0
VISUALSTYLE
  5
3A
102
{ACAD_REACTORS
330
2A
102
}
102
{ACAD_XDICTIONARY
360
517
102
}
330
2A
100
AcDbVisualStyle
  2
ColorChange
 70
    16
 71
     2
 72
     2
 73
     3
 90
        0
 40
-0.6
 41
-30.0
 62
     5
 63
     8
 74
     1
 91
        4
 64
     7
 65
   257
 75
     1
175
     1
 42
1.0
 92
        8
 66
     8
 43
1.0
 76
     1
 77
     6
 78
     2
 67
     7
 79
     5
170
     0
171
     0
290
     0
174
     0
 93
        1
 44
0.0
173
     0
291
     1
 45
0.0
1001
ACAD
1000
AcDbSavedByObjectVersion
1070
     0
  0
VISUALSTYLE
  5
34
102
{ACAD_REACTORS
330
2A
102
}
102
{ACAD_XDICTIONARY
360
50B
102
}
330
2A
100
AcDbVisualStyle
  2
Conceptual
 70
     9
 71
     3
 72
     2
 73
     0
 90
        0
 40
-0.6
 41
-30.0
 62
     5
 63
     7
 74
     2
 91
        2
 64
     7
 65
   257
 75
     1
175
     1
 42
40.0
 92
        8
 66
     7
 43
1.0
 76
     1
 77
     6
 78
     2
 67
     7
 79
     3
170
     0
171
     0
290
     0
174
     0
 93
        1
 44
0.0
173
     0
291
     0
 45
0.0
1001
ACAD
1000
AcDbSavedByObjectVersion
1070
     0
  0
VISUALSTYLE
  5
35
102
{ACAD_REACTORS
330
2A
102
}
102
{ACAD_XDICTIONARY
360
50D
102
}
330
2A
100
AcDbVisualStyle
  2
Dim
 70
    11
 71
     2
 72
     2
 73
     0
 90
        0
 40
-0.6
 41
-30.0
 62
     5
 63
     7
 74
     1
 91
        4
 64
     7
 65
   257
 75
     1
175
     1
 42
1.0
 92
        8
 66
     7
 43
1.0
 76
     1
 77
     6
 78
     2
 67
     7
 79
     5
170
     0
171
     0
290
     0
174
     0
 93
        1
 44
-50.0
173
     0
291
     1
 45
0.0
1001
ACAD
1000
AcDbSavedByObjectVersion
1070
     0
  0
VISUALSTYLE
  5
39
102
{ACAD_REACTORS
330
2A
102
}
102
{ACAD_XDICTIONARY
360
515
102
}
330
2A
100
AcDbVisualStyle
  2
Facepattern
 70
    15
 71
     2
 72
     2
 73
     0
 90
        0
 40
-0.6
 41
-30.0
 62
     5
 63
     7
 74
     1
 91
        4
 64
     7
 65
   257
 75
     1
175
     1
 42
1.0
 92
        8
 66
     7
 43
1.0
 76
     1
 77
     6
 78
     2
 67
     7
 79
     5
170
     0
171
     0
290
     0
174
     0
 93
        1
 44
0.0
173
     0
291
     1
 45
0.0
1001
ACAD
1000
AcDbSavedByObjectVersion
1070
     0
  0
VISUALSTYLE
  5
2B
102
{ACAD_REACTORS
330
2A
102
}
102
{ACAD_XDICTIONARY
360
4F9
102
}
330
2A
100
AcDbVisualStyle
  2
Flat
 70
     0
 71
     2
 72
     1
 73
     1
 90
        2
 40
-0.6
 41
30.0
 62
     5
 63
     7
 74
     0
 91
        4
 64
     7
 65
   257
 75
     1
175
     1
 42
1.0
 92
        8
 66
     7
 43
1.0
 76
     1
 77
     6
 78
     2
 67
     7
 79
     5
170
     0
171
     0
290
     0
174
     0
 93
       13
 44
0.0
173
     0
291
     1
 45
0.0
1001
ACAD
1000
AcDbSavedByObjectVersion
1070
     0
  0
VISUALSTYLE
  5
2C
102
{ACAD_REACTORS
330
2A
102
}
102
{ACAD_XDICTIONARY
360
4FB
102
}
330
2A
100
AcDbVisualStyle
  2
FlatWithEdges
 70
     1
 71
     2
 72
     1
 73
     1
 90
        2
 40
-0.6
 41
30.0
 62
     5
 63
     7
 74
     1
 91
        4
 64
     7
 65
   257
 75
     1
175
     1
 42
1.0
 92
        0
 66
   257
 43
1.0
 76
     1
 77
     6
 78
     2
 67
     7
 79
     5
170
     0
171
     0
290
     0
174
     0
 93
       13
 44
0.0
173
     0
291
     1
 45
0.0
1001
ACAD
1000
AcDbSavedByObjectVersion
1070
     0
  0
VISUALSTYLE
  5
2D
102
{ACAD_REACTORS
330
2A
102
}
102
{ACAD_XDICTIONARY
360
4FD
102
}
330
2A
100
AcDbVisualStyle
  2
Gouraud
 70
     2
 71
     2
 72
     2
 73
     1
 90
        2
 40
-0.6
 41
30.0
 62
     5
 63
     7
 74
     0
 91
        4
 64
     7
 65
   257
 75
     1
175
     1
 42
1.0
 92
        0
 66
     7
 43
1.0
 76
     1
 77
     6
 78
     2
 67
     7
 79
     5
170
     0
171
     0
290
     0
174
     0
 93
       13
 44
0.0
173
     0
291
     1
 45
0.0
1001
ACAD
1000
AcDbSavedByObjectVersion
1070
     0
  0
VISUALSTYLE
  5
2E
102
{ACAD_REACTORS
330
2A
102
}
102
{ACAD_XDICTIONARY
360
4FF
102
}
330
2A
100
AcDbVisualStyle
  2
GouraudWithEdges
 70
     3
 71
     2
 72
     2
 73
     1
 90
        2
 40
-0.6
 41
30.0
 62
     5
 63
     7
 74
     1
 91
        4
 64
     7
 65
   257
 75
     1
175
     1
 42
1.0
 92
        0
 66
   257
 43
1.0
 76
     1
 77
     6
 78
     2
 67
     7
 79
     5
170
     0
171
     0
290
     0
174
     0
 93
       13
 44
0.0
173
     0
291
     1
 45
0.0
1001
ACAD
1000
AcDbSavedByObjectVersion
1070
     0
  0
VISUALSTYLE
  5
38
102
{ACAD_REACTORS
330
2A
102
}
102
{ACAD_XDICTIONARY
360
513
102
}
330
2A
100
AcDbVisualStyle
  2
Linepattern
 70
    14
 71
     2
 72
     2
 73
     0
 90
        0
 40
-0.6
 41
-30.0
 62
     5
 63
     7
 74
     1
 91
        4
 64
     7
 65
   257
 75
     7
175
     7
 42
1.0
 92
        8
 66
     7
 43
1.0
 76
     1
 77
     6
 78
     2
 67
     7
 79
     5
170
     0
171
     0
290
     0
174
     0
 93
        1
 44
0.0
173
     0
291
     1
 45
0.0
1001
ACAD
1000
AcDbSavedByObjectVersion
1070
     0
  0
VISUALSTYLE
  5
33
102
{ACAD_REACTORS
330
2A
102
}
102
{ACAD_XDICTIONARY
360
509
102
}
330
2A
100
AcDbVisualStyle
  2
Realistic
 70
     8
 71
     2
 72
     2
 73
     0
 90
        0
 40
-0.6
 41
-30.0
 62
     5
 63
     7
 74
     1
 91
        0
 64
     7
 65
   257
 75
     1
175
     1
 42
1.0
 92
        8
 66
     8
 43
1.0
 76
     1
 77
     6
 78
     2
 67
     7
 79
     5
170
     0
171
     0
290
     0
174
     0
 93
       13
 44
0.0
173
     0
291
     0
 45
0.0
1001
ACAD
1000
AcDbSavedByObjectVersion
1070
     0
  0
VISUALSTYLE
  5
37
102
{ACAD_REACTORS
330
2A
102
}
102
{ACAD_XDICTIONARY
360
511
102
}
330
2A
100
AcDbVisualStyle
  2
Thicken
 70
    13
 71
     2
 72
     2
 73
     0
 90
        0
 40
-0.6
 41
-30.0
 62
     5
 63
     7
 74
     1
 91
        4
 64
     7
 65
   257
 75
     1
175
     1
 42
1.0
 92
       12
 66
     7
 43
1.0
 76
     1
 77
     6
 78
     2
 67
     7
 79
     5
170
     0
171
     0
290
     0
174
     0
 93
        1
 44
0.0
173
     0
291
     1
 45
0.0
1001
ACAD
1000
AcDbSavedByObjectVersion
1070
     0
  0
DICTIONARYVAR
  5
4F4
102
{ACAD_REACTORS
330
4F0
102
}
330
4F0
100
DictionaryVariables
280
     0
  1
1:1
  0
DICTIONARYVAR
  5
4F5
102
{ACAD_REACTORS
330
4F0
102
}
330
4F0
100
DictionaryVariables
280
     0
  1
2
  0
DICTIONARYVAR
  5
4F6
102
{ACAD_REACTORS
330
4F0
102
}
330
4F0
100
DictionaryVariables
280
     0
  1
1
  0
DICTIONARYVAR
  5
4F3
102
{ACAD_REACTORS
330
4F0
102
}
330
4F0
100
DictionaryVariables
280
     0
  1
0
  0
XRECORD
  5
4EF
102
{ACAD_REACTORS
330
4EE
102
}
330
4EE
100
AcDbXrecord
280
     1
1000
This DWG file was created in ArchiCAD(TM)®
  0
SPATIAL_FILTER
  5
4C8
102
{ACAD_REACTORS
330
4C7
102
}
330
4C7
100
AcDbFilter
100
AcDbSpatialFilter
 70
     4
 10
27.93050918650632
 20
32.4027913472007
 10
268.2951208156427
 20
32.4027913472007
 10
268.2951208156427
 20
191.9941743031082
 10
27.93050918650632
 20
191.9941743031082
210
0.0
220
0.0
230
1.0
 11
0.0
 21
0.0
 31
0.0
 71
     1
 72
     0
 73
     0
 40
1.0
 40
0.0
 40
0.0
 40
0.0
 40
0.0
 40
1.0
 40
0.0
 40
0.0
 40
0.0
 40
0.0
 40
1.0
 40
0.0
 40
1.0
 40
0.0
 40
0.0
 40
0.0
 40
0.0
 40
1.0
 40
0.0
 40
0.0
 40
0.0
 40
0.0
 40
1.0
 40
0.0
  0
DICTIONARY
  5
51B
330
3D
100
AcDbDictionary
280
     1
281
     1
  3
ACAD_XREC_ROUNDTRIP
360
51C
  0
DICTIONARY
  5
519
330
3C
100
AcDbDictionary
280
     1
281
     1
  3
ACAD_XREC_ROUNDTRIP
360
51A
  0
DICTIONARY
  5
51D
330
3E
100
AcDbDictionary
280
     1
281
     1
  3
ACAD_XREC_ROUNDTRIP
360
51E
  0
DICTIONARY
  5
501
330
2F
100
AcDbDictionary
280
     1
281
     1
  3
ACAD_XREC_ROUNDTRIP
360
502
  0
DICTIONARY
  5
505
330
31
100
AcDbDictionary
280
     1
281
     1
  3
ACAD_XREC_ROUNDTRIP
360
506
  0
DICTIONARY
  5
503
330
30
100
AcDbDictionary
280
     1
281
     1
  3
ACAD_XREC_ROUNDTRIP
360
504
  0
DICTIONARY
  5
507
330
32
100
AcDbDictionary
280
     1
281
     1
  3
ACAD_XREC_ROUNDTRIP
360
508
  0
DICTIONARY
  5
50F
330
36
100
AcDbDictionary
280
     1
281
     1
  3
ACAD_XREC_ROUNDTRIP
360
510
  0
DICTIONARY
  5
517
330
3A
100
AcDbDictionary
280
     1
281
     1
  3
ACAD_XREC_ROUNDTRIP
360
518
  0
DICTIONARY
  5
50B
330
34
100
AcDbDictionary
280
     1
281
     1
  3
ACAD_XREC_ROUNDTRIP
360
50C
  0
DICTIONARY
  5
50D
330
35
100
AcDbDictionary
280
     1
281
     1
  3
ACAD_XREC_ROUNDTRIP
360
50E
  0
DICTIONARY
  5
515
330
39
100
AcDbDictionary
280
     1
281
     1
  3
ACAD_XREC_ROUNDTRIP
360
516
  0
DICTIONARY
  5
4F9
330
2B
100
AcDbDictionary
280
     1
281
     1
  3
ACAD_XREC_ROUNDTRIP
360
4FA
  0
DICTIONARY
  5
4FB
330
2C
100
AcDbDictionary
280
     1
281
     1
  3
ACAD_XREC_ROUNDTRIP
360
4FC
  0
DICTIONARY
  5
4FD
330
2D
100
AcDbDictionary
280
     1
281
     1
  3
ACAD_XREC_ROUNDTRIP
360
4FE
  0
DICTIONARY
  5
4FF
330
2E
100
AcDbDictionary
280
     1
281
     1
  3
ACAD_XREC_ROUNDTRIP
360
500
  0
DICTIONARY
  5
513
330
38
100
AcDbDictionary
280
     1
281
     1
  3
ACAD_XREC_ROUNDTRIP
360
514
  0
DICTIONARY
  5
509
330
33
100
AcDbDictionary
280
     1
281
     1
  3
ACAD_XREC_ROUNDTRIP
360
50A
  0
DICTIONARY
  5
511
330
37
100
AcDbDictionary
280
     1
281
     1
  3
ACAD_XREC_ROUNDTRIP
360
512
  0
XRECORD
  5
51C
102
{ACAD_REACTORS
330
51B
102
}
330
51B
100
AcDbXrecord
280
     1
102
MATERIAL
148
0.0
149
0.0
149
0.0
 93
        0
 94
      127
282
     0
 72
     1
 77
     1
171
     1
175
     1
179
     1
273
     0
  0
XRECORD
  5
51A
102
{ACAD_REACTORS
330
519
102
}
330
519
100
AcDbXrecord
280
     1
102
MATERIAL
148
0.0
149
0.0
149
0.0
 93
        0
 94
      127
282
     0
 72
     1
 77
     1
171
     1
175
     1
179
     1
273
     0
  0
XRECORD
  5
51E
102
{ACAD_REACTORS
330
51D
102
}
330
51D
100
AcDbXrecord
280
     1
102
MATERIAL
148
0.0
149
0.0
149
0.0
 93
        0
 94
      127
282
     0
 72
     1
 77
     1
171
     1
175
     1
179
     1
273
     0
  0
XRECORD
  5
502
102
{ACAD_REACTORS
330
501
102
}
330
501
100
AcDbXrecord
280
     1
102
RTVSPropertyOp0
 70
     1
102
RTVSPropertyOp1
 70
     1
102
RTVSPropertyOp2
 70
     1
102
RTVSPropertyOp3
 70
     1
102
RTVSPropertyOp4
 70
     1
102
RTVSPropertyOp5
 70
     1
102
RTVSPropertyOp6
 70
     1
102
RTVSPropertyOp7
 70
     1
102
RTVSPropertyOp8
 70
     1
102
RTVSPropertyOp9
 70
     1
102
RTVSPropertyOp10
 70
     1
102
RTVSPropertyOp11
 70
     1
102
RTVSPropertyOp12
 70
     1
102
RTVSPropertyOp13
 70
     1
102
RTVSPropertyOp14
 70
     1
102
RTVSPropertyOp15
 70
     1
102
RTVSPropertyOp16
 70
     1
102
RTVSPropertyOp17
 70
     1
102
RTVSPropertyOp18
 70
     1
102
RTVSPropertyOp19
 70
     1
102
RTVSPropertyOp20
 70
     1
102
RTVSPropertyOp21
 70
     1
102
RTVSPropertyOp22
 70
     1
102
RTVSPropertyOp23
 70
     1
102
RTVSPropertyOp24
 70
     1
102
RTVSPropertyOp25
 70
     1
102
RTVSPropertyOp26
 70
     1
102
RTVSPropertyOp27
 70
     1
102
RTVSPropertyOp28
 70
     1
102
RTVSPropertyOp29
 70
     1
102
RTVSPropertyOp30
 70
     1
102
RTVSPropertyOp31
 70
     1
102
RTVSPropertyOp32
 70
     1
  0
XRECORD
  5
506
102
{ACAD_REACTORS
330
505
102
}
330
505
100
AcDbXrecord
280
     1
102
RTVSPropertyOp0
 70
     1
102
RTVSPropertyOp1
 70
     1
102
RTVSPropertyOp2
 70
     1
102
RTVSPropertyOp3
 70
     1
102
RTVSPropertyOp4
 70
     1
102
RTVSPropertyOp5
 70
     1
102
RTVSPropertyOp6
 70
     1
102
RTVSPropertyOp7
 70
     1
102
RTVSPropertyOp8
 70
     1
102
RTVSPropertyOp9
 70
     1
102
RTVSPropertyOp10
 70
     1
102
RTVSPropertyOp11
 70
     1
102
RTVSPropertyOp12
 70
     1
102
RTVSPropertyOp13
 70
     1
102
RTVSPropertyOp14
 70
     1
102
RTVSPropertyOp15
 70
     1
102
RTVSPropertyOp16
 70
     1
102
RTVSPropertyOp17
 70
     1
102
RTVSPropertyOp18
 70
     1
102
RTVSPropertyOp19
 70
     1
102
RTVSPropertyOp20
 70
     1
102
RTVSPropertyOp21
 70
     1
102
RTVSPropertyOp22
 70
     1
102
RTVSPropertyOp23
 70
     1
102
RTVSPropertyOp24
 70
     1
102
RTVSPropertyOp25
 70
     1
102
RTVSPropertyOp26
 70
     1
102
RTVSPropertyOp27
 70
     1
102
RTVSPropertyOp28
 70
     1
102
RTVSPropertyOp29
 70
     1
102
RTVSPropertyOp30
 70
     1
102
RTVSPropertyOp31
 70
     1
102
RTVSPropertyOp32
 70
     1
  0
XRECORD
  5
504
102
{ACAD_REACTORS
330
503
102
}
330
503
100
AcDbXrecord
280
     1
102
RTVSPropertyOp0
 70
     1
102
RTVSPropertyOp1
 70
     1
102
RTVSPropertyOp2
 70
     1
102
RTVSPropertyOp3
 70
     1
102
RTVSPropertyOp4
 70
     1
102
RTVSPropertyOp5
 70
     1
102
RTVSPropertyOp6
 70
     1
102
RTVSPropertyOp7
 70
     1
102
RTVSPropertyOp8
 70
     1
102
RTVSPropertyOp9
 70
     1
102
RTVSPropertyOp10
 70
     1
102
RTVSPropertyOp11
 70
     1
102
RTVSPropertyOp12
 70
     1
102
RTVSPropertyOp13
 70
     1
102
RTVSPropertyOp14
 70
     1
102
RTVSPropertyOp15
 70
     1
102
RTVSPropertyOp16
 70
     1
102
RTVSPropertyOp17
 70
     1
102
RTVSPropertyOp18
 70
     1
102
RTVSPropertyOp19
 70
     1
102
RTVSPropertyOp20
 70
     1
102
RTVSPropertyOp21
 70
     1
102
RTVSPropertyOp22
 70
     1
102
RTVSPropertyOp23
 70
     1
102
RTVSPropertyOp24
 70
     1
102
RTVSPropertyOp25
 70
     1
102
RTVSPropertyOp26
 70
     1
102
RTVSPropertyOp27
 70
     1
102
RTVSPropertyOp28
 70
     1
102
RTVSPropertyOp29
 70
     1
102
RTVSPropertyOp30
 70
     1
102
RTVSPropertyOp31
 70
     1
102
RTVSPropertyOp32
 70
     1
  0
XRECORD
  5
508
102
{ACAD_REACTORS
330
507
102
}
330
507
100
AcDbXrecord
280
     1
102
RTVSPropertyOp0
 70
     1
102
RTVSPropertyOp1
 70
     1
102
RTVSPropertyOp2
 70
     1
102
RTVSPropertyOp3
 70
     1
102
RTVSPropertyOp4
 70
     1
102
RTVSPropertyOp5
 70
     1
102
RTVSPropertyOp6
 70
     1
102
RTVSPropertyOp7
 70
     1
102
RTVSPropertyOp8
 70
     1
102
RTVSPropertyOp9
 70
     1
102
RTVSPropertyOp10
 70
     1
102
RTVSPropertyOp11
 70
     1
102
RTVSPropertyOp12
 70
     1
102
RTVSPropertyOp13
 70
     1
102
RTVSPropertyOp14
 70
     1
102
RTVSPropertyOp15
 70
     1
102
RTVSPropertyOp16
 70
     1
102
RTVSPropertyOp17
 70
     1
102
RTVSPropertyOp18
 70
     1
102
RTVSPropertyOp19
 70
     1
102
RTVSPropertyOp20
 70
     1
102
RTVSPropertyOp21
 70
     1
102
RTVSPropertyOp22
 70
     1
102
RTVSPropertyOp23
 70
     1
102
RTVSPropertyOp24
 70
     1
102
RTVSPropertyOp25
 70
     1
102
RTVSPropertyOp26
 70
     1
102
RTVSPropertyOp27
 70
     1
102
RTVSPropertyOp28
 70
     1
102
RTVSPropertyOp29
 70
     1
102
RTVSPropertyOp30
 70
     1
102
RTVSPropertyOp31
 70
     1
102
RTVSPropertyOp32
 70
     1
  0
XRECORD
  5
510
102
{ACAD_REACTORS
330
50F
102
}
330
50F
100
AcDbXrecord
280
     1
102
RTVSPropertyOp0
 70
     1
102
RTVSPropertyOp1
 70
     1
102
RTVSPropertyOp2
 70
     1
102
RTVSPropertyOp3
 70
     1
102
RTVSPropertyOp4
 70
     1
102
RTVSPropertyOp5
 70
     1
102
RTVSPropertyOp6
 70
     1
102
RTVSPropertyOp7
 70
     1
102
RTVSPropertyOp8
 70
     1
102
RTVSPropertyOp9
 70
     1
102
RTVSPropertyOp10
 70
     1
102
RTVSPropertyOp11
 70
     1
102
RTVSPropertyOp12
 70
     1
102
RTVSPropertyOp13
 70
     1
102
RTVSPropertyOp14
 70
     1
102
RTVSPropertyOp15
 70
     1
102
RTVSPropertyOp16
 70
     1
102
RTVSPropertyOp17
 70
     1
102
RTVSPropertyOp18
 70
     1
102
RTVSPropertyOp19
 70
     1
102
RTVSPropertyOp20
 70
     1
102
RTVSPropertyOp21
 70
     1
102
RTVSPropertyOp22
 70
     1
102
RTVSPropertyOp23
 70
     1
102
RTVSPropertyOp24
 70
     1
102
RTVSPropertyOp25
 70
     1
102
RTVSPropertyOp26
 70
     1
102
RTVSPropertyOp27
 70
     1
102
RTVSPropertyOp28
 70
     1
102
RTVSPropertyOp29
 70
     1
102
RTVSPropertyOp30
 70
     1
102
RTVSPropertyOp31
 70
     1
102
RTVSPropertyOp32
 70
     1
  0
XRECORD
  5
518
102
{ACAD_REACTORS
330
517
102
}
330
517
100
AcDbXrecord
280
     1
102
RTVSPropertyOp0
 70
     1
102
RTVSPropertyOp1
 70
     1
102
RTVSPropertyOp2
 70
     1
102
RTVSPropertyOp3
 70
     1
102
RTVSPropertyOp4
 70
     1
102
RTVSPropertyOp5
 70
     1
102
RTVSPropertyOp6
 70
     1
102
RTVSPropertyOp7
 70
     1
102
RTVSPropertyOp8
 70
     1
102
RTVSPropertyOp9
 70
     1
102
RTVSPropertyOp10
 70
     1
102
RTVSPropertyOp11
 70
     1
102
RTVSPropertyOp12
 70
     1
102
RTVSPropertyOp13
 70
     1
102
RTVSPropertyOp14
 70
     1
102
RTVSPropertyOp15
 70
     1
102
RTVSPropertyOp16
 70
     1
102
RTVSPropertyOp17
 70
     1
102
RTVSPropertyOp18
 70
     1
102
RTVSPropertyOp19
 70
     1
102
RTVSPropertyOp20
 70
     1
102
RTVSPropertyOp21
 70
     1
102
RTVSPropertyOp22
 70
     1
102
RTVSPropertyOp23
 70
     1
102
RTVSPropertyOp24
 70
     1
102
RTVSPropertyOp25
 70
     1
102
RTVSPropertyOp26
 70
     1
102
RTVSPropertyOp27
 70
     1
102
RTVSPropertyOp28
 70
     1
102
RTVSPropertyOp29
 70
     1
102
RTVSPropertyOp30
 70
     1
102
RTVSPropertyOp31
 70
     1
102
RTVSPropertyOp32
 70
     1
  0
XRECORD
  5
50C
102
{ACAD_REACTORS
330
50B
102
}
330
50B
100
AcDbXrecord
280
     1
102
RTVSPropertyOp0
 70
     1
102
RTVSPropertyOp1
 70
     1
102
RTVSPropertyOp2
 70
     1
102
RTVSPropertyOp3
 70
     1
102
RTVSPropertyOp4
 70
     1
102
RTVSPropertyOp5
 70
     1
102
RTVSPropertyOp6
 70
     1
102
RTVSPropertyOp7
 70
     1
102
RTVSPropertyOp8
 70
     1
102
RTVSPropertyOp9
 70
     1
102
RTVSPropertyOp10
 70
     1
102
RTVSPropertyOp11
 70
     1
102
RTVSPropertyOp12
 70
     1
102
RTVSPropertyOp13
 70
     1
102
RTVSPropertyOp14
 70
     1
102
RTVSPropertyOp15
 70
     1
102
RTVSPropertyOp16
 70
     1
102
RTVSPropertyOp17
 70
     1
102
RTVSPropertyOp18
 70
     1
102
RTVSPropertyOp19
 70
     1
102
RTVSPropertyOp20
 70
     1
102
RTVSPropertyOp21
 70
     1
102
RTVSPropertyOp22
 70
     1
102
RTVSPropertyOp23
 70
     1
102
RTVSPropertyOp24
 70
     1
102
RTVSPropertyOp25
 70
     1
102
RTVSPropertyOp26
 70
     1
102
RTVSPropertyOp27
 70
     1
102
RTVSPropertyOp28
 70
     1
102
RTVSPropertyOp29
 70
     1
102
RTVSPropertyOp30
 70
     1
102
RTVSPropertyOp31
 70
     1
102
RTVSPropertyOp32
 70
     1
  0
XRECORD
  5
50E
102
{ACAD_REACTORS
330
50D
102
}
330
50D
100
AcDbXrecord
280
     1
102
RTVSPropertyOp0
 70
     1
102
RTVSPropertyOp1
 70
     1
102
RTVSPropertyOp2
 70
     1
102
RTVSPropertyOp3
 70
     1
102
RTVSPropertyOp4
 70
     1
102
RTVSPropertyOp5
 70
     1
102
RTVSPropertyOp6
 70
     1
102
RTVSPropertyOp7
 70
     1
102
RTVSPropertyOp8
 70
     1
102
RTVSPropertyOp9
 70
     1
102
RTVSPropertyOp10
 70
     1
102
RTVSPropertyOp11
 70
     1
102
RTVSPropertyOp12
 70
     1
102
RTVSPropertyOp13
 70
     1
102
RTVSPropertyOp14
 70
     1
102
RTVSPropertyOp15
 70
     1
102
RTVSPropertyOp16
 70
     1
102
RTVSPropertyOp17
 70
     1
102
RTVSPropertyOp18
 70
     1
102
RTVSPropertyOp19
 70
     1
102
RTVSPropertyOp20
 70
     1
102
RTVSPropertyOp21
 70
     1
102
RTVSPropertyOp22
 70
     1
102
RTVSPropertyOp23
 70
     1
102
RTVSPropertyOp24
 70
     1
102
RTVSPropertyOp25
 70
     1
102
RTVSPropertyOp26
 70
     1
102
RTVSPropertyOp27
 70
     1
102
RTVSPropertyOp28
 70
     1
102
RTVSPropertyOp29
 70
     1
102
RTVSPropertyOp30
 70
     1
102
RTVSPropertyOp31
 70
     1
102
RTVSPropertyOp32
 70
     1
  0
XRECORD
  5
516
102
{ACAD_REACTORS
330
515
102
}
330
515
100
AcDbXrecord
280
     1
102
RTVSPropertyOp0
 70
     1
102
RTVSPropertyOp1
 70
     1
102
RTVSPropertyOp2
 70
     1
102
RTVSPropertyOp3
 70
     1
102
RTVSPropertyOp4
 70
     1
102
RTVSPropertyOp5
 70
     1
102
RTVSPropertyOp6
 70
     1
102
RTVSPropertyOp7
 70
     1
102
RTVSPropertyOp8
 70
     1
102
RTVSPropertyOp9
 70
     1
102
RTVSPropertyOp10
 70
     1
102
RTVSPropertyOp11
 70
     1
102
RTVSPropertyOp12
 70
     1
102
RTVSPropertyOp13
 70
     1
102
RTVSPropertyOp14
 70
     1
102
RTVSPropertyOp15
 70
     1
102
RTVSPropertyOp16
 70
     1
102
RTVSPropertyOp17
 70
     1
102
RTVSPropertyOp18
 70
     1
102
RTVSPropertyOp19
 70
     1
102
RTVSPropertyOp20
 70
     1
102
RTVSPropertyOp21
 70
     1
102
RTVSPropertyOp22
 70
     1
102
RTVSPropertyOp23
 70
     1
102
RTVSPropertyOp24
 70
     1
102
RTVSPropertyOp25
 70
     1
102
RTVSPropertyOp26
 70
     1
102
RTVSPropertyOp27
 70
     1
102
RTVSPropertyOp28
 70
     1
102
RTVSPropertyOp29
 70
     1
102
RTVSPropertyOp30
 70
     1
102
RTVSPropertyOp31
 70
     1
102
RTVSPropertyOp32
 70
     1
  0
XRECORD
  5
4FA
102
{ACAD_REACTORS
330
4F9
102
}
330
4F9
100
AcDbXrecord
280
     1
102
RTVSPropertyOp0
 70
     1
102
RTVSPropertyOp1
 70
     1
102
RTVSPropertyOp2
 70
     1
102
RTVSPropertyOp3
 70
     1
102
RTVSPropertyOp4
 70
     1
102
RTVSPropertyOp5
 70
     1
102
RTVSPropertyOp6
 70
     1
102
RTVSPropertyOp7
 70
     1
102
RTVSPropertyOp8
 70
     1
102
RTVSPropertyOp9
 70
     1
102
RTVSPropertyOp10
 70
     1
102
RTVSPropertyOp11
 70
     1
102
RTVSPropertyOp12
 70
     1
102
RTVSPropertyOp13
 70
     1
102
RTVSPropertyOp14
 70
     1
102
RTVSPropertyOp15
 70
     1
102
RTVSPropertyOp16
 70
     1
102
RTVSPropertyOp17
 70
     1
102
RTVSPropertyOp18
 70
     1
102
RTVSPropertyOp19
 70
     1
102
RTVSPropertyOp20
 70
     1
102
RTVSPropertyOp21
 70
     1
102
RTVSPropertyOp22
 70
     1
102
RTVSPropertyOp23
 70
     1
102
RTVSPropertyOp24
 70
     1
102
RTVSPropertyOp25
 70
     1
102
RTVSPropertyOp26
 70
     1
102
RTVSPropertyOp27
 70
     1
102
RTVSPropertyOp28
 70
     1
102
RTVSPropertyOp29
 70
     1
102
RTVSPropertyOp30
 70
     1
102
RTVSPropertyOp31
 70
     1
102
RTVSPropertyOp32
 70
     1
  0
XRECORD
  5
4FC
102
{ACAD_REACTORS
330
4FB
102
}
330
4FB
100
AcDbXrecord
280
     1
102
RTVSPropertyOp0
 70
     1
102
RTVSPropertyOp1
 70
     1
102
RTVSPropertyOp2
 70
     1
102
RTVSPropertyOp3
 70
     1
102
RTVSPropertyOp4
 70
     1
102
RTVSPropertyOp5
 70
     1
102
RTVSPropertyOp6
 70
     1
102
RTVSPropertyOp7
 70
     1
102
RTVSPropertyOp8
 70
     1
102
RTVSPropertyOp9
 70
     1
102
RTVSPropertyOp10
 70
     1
102
RTVSPropertyOp11
 70
     1
102
RTVSPropertyOp12
 70
     1
102
RTVSPropertyOp13
 70
     1
102
RTVSPropertyOp14
 70
     1
102
RTVSPropertyOp15
 70
     1
102
RTVSPropertyOp16
 70
     1
102
RTVSPropertyOp17
 70
     1
102
RTVSPropertyOp18
 70
     1
102
RTVSPropertyOp19
 70
     1
102
RTVSPropertyOp20
 70
     1
102
RTVSPropertyOp21
 70
     1
102
RTVSPropertyOp22
 70
     1
102
RTVSPropertyOp23
 70
     1
102
RTVSPropertyOp24
 70
     1
102
RTVSPropertyOp25
 70
     1
102
RTVSPropertyOp26
 70
     1
102
RTVSPropertyOp27
 70
     1
102
RTVSPropertyOp28
 70
     1
102
RTVSPropertyOp29
 70
     1
102
RTVSPropertyOp30
 70
     1
102
RTVSPropertyOp31
 70
     1
102
RTVSPropertyOp32
 70
     1
  0
XRECORD
  5
4FE
102
{ACAD_REACTORS
330
4FD
102
}
330
4FD
100
AcDbXrecord
280
     1
102
RTVSPropertyOp0
 70
     1
102
RTVSPropertyOp1
 70
     1
102
RTVSPropertyOp2
 70
     1
102
RTVSPropertyOp3
 70
     1
102
RTVSPropertyOp4
 70
     1
102
RTVSPropertyOp5
 70
     1
102
RTVSPropertyOp6
 70
     1
102
RTVSPropertyOp7
 70
     1
102
RTVSPropertyOp8
 70
     1
102
RTVSPropertyOp9
 70
     1
102
RTVSPropertyOp10
 70
     1
102
RTVSPropertyOp11
 70
     1
102
RTVSPropertyOp12
 70
     1
102
RTVSPropertyOp13
 70
     1
102
RTVSPropertyOp14
 70
     1
102
RTVSPropertyOp15
 70
     1
102
RTVSPropertyOp16
 70
     1
102
RTVSPropertyOp17
 70
     1
102
RTVSPropertyOp18
 70
     1
102
RTVSPropertyOp19
 70
     1
102
RTVSPropertyOp20
 70
     1
102
RTVSPropertyOp21
 70
     1
102
RTVSPropertyOp22
 70
     1
102
RTVSPropertyOp23
 70
     1
102
RTVSPropertyOp24
 70
     1
102
RTVSPropertyOp25
 70
     1
102
RTVSPropertyOp26
 70
     1
102
RTVSPropertyOp27
 70
     1
102
RTVSPropertyOp28
 70
     1
102
RTVSPropertyOp29
 70
     1
102
RTVSPropertyOp30
 70
     1
102
RTVSPropertyOp31
 70
     1
102
RTVSPropertyOp32
 70
     1
  0
XRECORD
  5
500
102
{ACAD_REACTORS
330
4FF
102
}
330
4FF
100
AcDbXrecord
280
     1
102
RTVSPropertyOp0
 70
     1
102
RTVSPropertyOp1
 70
     1
102
RTVSPropertyOp2
 70
     1
102
RTVSPropertyOp3
 70
     1
102
RTVSPropertyOp4
 70
     1
102
RTVSPropertyOp5
 70
     1
102
RTVSPropertyOp6
 70
     1
102
RTVSPropertyOp7
 70
     1
102
RTVSPropertyOp8
 70
     1
102
RTVSPropertyOp9
 70
     1
102
RTVSPropertyOp10
 70
     1
102
RTVSPropertyOp11
 70
     1
102
RTVSPropertyOp12
 70
     1
102
RTVSPropertyOp13
 70
     1
102
RTVSPropertyOp14
 70
     1
102
RTVSPropertyOp15
 70
     1
102
RTVSPropertyOp16
 70
     1
102
RTVSPropertyOp17
 70
     1
102
RTVSPropertyOp18
 70
     1
102
RTVSPropertyOp19
 70
     1
102
RTVSPropertyOp20
 70
     1
102
RTVSPropertyOp21
 70
     1
102
RTVSPropertyOp22
 70
     1
102
RTVSPropertyOp23
 70
     1
102
RTVSPropertyOp24
 70
     1
102
RTVSPropertyOp25
 70
     1
102
RTVSPropertyOp26
 70
     1
102
RTVSPropertyOp27
 70
     1
102
RTVSPropertyOp28
 70
     1
102
RTVSPropertyOp29
 70
     1
102
RTVSPropertyOp30
 70
     1
102
RTVSPropertyOp31
 70
     1
102
RTVSPropertyOp32
 70
     1
  0
XRECORD
  5
514
102
{ACAD_REACTORS
330
513
102
}
330
513
100
AcDbXrecord
280
     1
102
RTVSPropertyOp0
 70
     1
102
RTVSPropertyOp1
 70
     1
102
RTVSPropertyOp2
 70
     1
102
RTVSPropertyOp3
 70
     1
102
RTVSPropertyOp4
 70
     1
102
RTVSPropertyOp5
 70
     1
102
RTVSPropertyOp6
 70
     1
102
RTVSPropertyOp7
 70
     1
102
RTVSPropertyOp8
 70
     1
102
RTVSPropertyOp9
 70
     1
102
RTVSPropertyOp10
 70
     1
102
RTVSPropertyOp11
 70
     1
102
RTVSPropertyOp12
 70
     1
102
RTVSPropertyOp13
 70
     1
102
RTVSPropertyOp14
 70
     1
102
RTVSPropertyOp15
 70
     1
102
RTVSPropertyOp16
 70
     1
102
RTVSPropertyOp17
 70
     1
102
RTVSPropertyOp18
 70
     1
102
RTVSPropertyOp19
 70
     1
102
RTVSPropertyOp20
 70
     1
102
RTVSPropertyOp21
 70
     1
102
RTVSPropertyOp22
 70
     1
102
RTVSPropertyOp23
 70
     1
102
RTVSPropertyOp24
 70
     1
102
RTVSPropertyOp25
 70
     1
102
RTVSPropertyOp26
 70
     1
102
RTVSPropertyOp27
 70
     1
102
RTVSPropertyOp28
 70
     1
102
RTVSPropertyOp29
 70
     1
102
RTVSPropertyOp30
 70
     1
102
RTVSPropertyOp31
 70
     1
102
RTVSPropertyOp32
 70
     1
  0
XRECORD
  5
50A
102
{ACAD_REACTORS
330
509
102
}
330
509
100
AcDbXrecord
280
     1
102
RTVSPropertyOp0
 70
     1
102
RTVSPropertyOp1
 70
     1
102
RTVSPropertyOp2
 70
     1
102
RTVSPropertyOp3
 70
     1
102
RTVSPropertyOp4
 70
     1
102
RTVSPropertyOp5
 70
     1
102
RTVSPropertyOp6
 70
     1
102
RTVSPropertyOp7
 70
     1
102
RTVSPropertyOp8
 70
     1
102
RTVSPropertyOp9
 70
     1
102
RTVSPropertyOp10
 70
     1
102
RTVSPropertyOp11
 70
     1
102
RTVSPropertyOp12
 70
     1
102
RTVSPropertyOp13
 70
     1
102
RTVSPropertyOp14
 70
     1
102
RTVSPropertyOp15
 70
     1
102
RTVSPropertyOp16
 70
     1
102
RTVSPropertyOp17
 70
     1
102
RTVSPropertyOp18
 70
     1
102
RTVSPropertyOp19
 70
     1
102
RTVSPropertyOp20
 70
     1
102
RTVSPropertyOp21
 70
     1
102
RTVSPropertyOp22
 70
     1
102
RTVSPropertyOp23
 70
     1
102
RTVSPropertyOp24
 70
     1
102
RTVSPropertyOp25
 70
     1
102
RTVSPropertyOp26
 70
     1
102
RTVSPropertyOp27
 70
     1
102
RTVSPropertyOp28
 70
     1
102
RTVSPropertyOp29
 70
     1
102
RTVSPropertyOp30
 70
     1
102
RTVSPropertyOp31
 70
     1
102
RTVSPropertyOp32
 70
     1
  0
XRECORD
  5
512
102
{ACAD_REACTORS
330
511
102
}
330
511
100
AcDbXrecord
280
     1
102
RTVSPropertyOp0
 70
     1
102
RTVSPropertyOp1
 70
     1
102
RTVSPropertyOp2
 70
     1
102
RTVSPropertyOp3
 70
     1
102
RTVSPropertyOp4
 70
     1
102
RTVSPropertyOp5
 70
     1
102
RTVSPropertyOp6
 70
     1
102
RTVSPropertyOp7
 70
     1
102
RTVSPropertyOp8
 70
     1
102
RTVSPropertyOp9
 70
     1
102
RTVSPropertyOp10
 70
     1
102
RTVSPropertyOp11
 70
     1
102
RTVSPropertyOp12
 70
     1
102
RTVSPropertyOp13
 70
     1
102
RTVSPropertyOp14
 70
     1
102
RTVSPropertyOp15
 70
     1
102
RTVSPropertyOp16
 70
     1
102
RTVSPropertyOp17
 70
     1
102
RTVSPropertyOp18
 70
     1
102
RTVSPropertyOp19
 70
     1
102
RTVSPropertyOp20
 70
     1
102
RTVSPropertyOp21
 70
     1
102
RTVSPropertyOp22
 70
     1
102
RTVSPropertyOp23
 70
     1
102
RTVSPropertyOp24
 70
     1
102
RTVSPropertyOp25
 70
     1
102
RTVSPropertyOp26
 70
     1
102
RTVSPropertyOp27
 70
     1
102
RTVSPropertyOp28
 70
     1
102
RTVSPropertyOp29
 70
     1
102
RTVSPropertyOp30
 70
     1
102
RTVSPropertyOp31
 70
     1
102
RTVSPropertyOp32
 70
     1
  0
ENDSEC
  0
EOF
