  0
SECTION
  2
HEADER
  9
$ACADVER
  1
AC1015
  9
$ACADMAINTVER
 70
     6
  9
$DWGCODEPAGE
  3
ANSI_949
  9
$INSBASE
 10
0.0
 20
0.0
 30
0.0
  9
$EXTMIN
 10
1.000000000000000E+20
 20
1.000000000000000E+20
 30
1.000000000000000E+20
  9
$EXTMAX
 10
-1.000000000000000E+20
 20
-1.000000000000000E+20
 30
-1.000000000000000E+20
  9
$LIMMIN
 10
0.0
 20
0.0
  9
$LIMMAX
 10
12.0
 20
9.0
  9
$ORTHOMODE
 70
     0
  9
$REGENMODE
 70
     1
  9
$FILLMODE
 70
     1
  9
$QTEXTMODE
 70
     0
  9
$MIRRTEXT
 70
     1
  9
$LTSCALE
 40
1.0
  9
$ATTMODE
 70
     1
  9
$TEXTSIZE
 40
0.2
  9
$TRACEWID
 40
0.05
  9
$TEXTSTYLE
  7
Standard
  9
$CLAYER
  8
0
  9
$CELTYPE
  6
ByLayer
  9
$CECOLOR
 62
   256
  9
$CELTSCALE
 40
1.0
  9
$DISPSILH
 70
     0
  9
$DIMSCALE
 40
1.0
  9
$DIMASZ
 40
0.18
  9
$DIMEXO
 40
0.0625
  9
$DIMDLI
 40
0.38
  9
$DIMRND
 40
0.0
  9
$DIMDLE
 40
0.0
  9
$DIMEXE
 40
0.18
  9
$DIMTP
 40
0.0
  9
$DIMTM
 40
0.0
  9
$DIMTXT
 40
0.18
  9
$DIMCEN
 40
0.09
  9
$DIMTSZ
 40
0.0
  9
$DIMTOL
 70
     0
  9
$DIMLIM
 70
     0
  9
$DIMTIH
 70
     1
  9
$DIMTOH
 70
     1
  9
$DIMSE1
 70
     0
  9
$DIMSE2
 70
     0
  9
$DIMTAD
 70
     0
  9
$DIMZIN
 70
     0
  9
$DIMBLK
  1

  9
$DIMASO
 70
     1
  9
$DIMSHO
 70
     1
  9
$DIMPOST
  1

  9
$DIMAPOST
  1

  9
$DIMALT
 70
     0
  9
$DIMALTD
 70
     2
  9
$DIMALTF
 40
25.4
  9
$DIMLFAC
 40
1.0
  9
$DIMTOFL
 70
     0
  9
$DIMTVP
 40
0.0
  9
$DIMTIX
 70
     0
  9
$DIMSOXD
 70
     0
  9
$DIMSAH
 70
     0
  9
$DIMBLK1
  1

  9
$DIMBLK2
  1

  9
$DIMSTYLE
  2
Standard
  9
$DIMCLRD
 70
     0
  9
$DIMCLRE
 70
     0
  9
$DIMCLRT
 70
     0
  9
$DIMTFAC
 40
1.0
  9
$DIMGAP
 40
0.09
  9
$DIMJUST
 70
     0
  9
$DIMSD1
 70
     0
  9
$DIMSD2
 70
     0
  9
$DIMTOLJ
 70
     1
  9
$DIMTZIN
 70
     0
  9
$DIMALTZ
 70
     0
  9
$DIMALTTZ
 70
     0
  9
$DIMUPT
 70
     0
  9
$DIMDEC
 70
     4
  9
$DIMTDEC
 70
     4
  9
$DIMALTU
 70
     2
  9
$DIMALTTD
 70
     2
  9
$DIMTXSTY
  7
Standard
  9
$DIMAUNIT
 70
     0
  9
$DIMADEC
 70
     0
  9
$DIMALTRND
 40
0.0
  9
$DIMAZIN
 70
     0
  9
$DIMDSEP
 70
    46
  9
$DIMATFIT
 70
     3
  9
$DIMFRAC
 70
     0
  9
$DIMLDRBLK
  1

  9
$DIMLUNIT
 70
     2
  9
$DIMLWD
 70
    -2
  9
$DIMLWE
 70
    -2
  9
$DIMTMOVE
 70
     0
  9
$LUNITS
 70
     2
  9
$LUPREC
 70
     4
  9
$SKETCHINC
 40
0.1
  9
$FILLETRAD
 40
0.5
  9
$AUNITS
 70
     0
  9
$AUPREC
 70
     0
  9
$MENU
  1
.
  9
$ELEVATION
 40
0.0
  9
$PELEVATION
 40
0.0
  9
$THICKNESS
 40
0.0
  9
$LIMCHECK
 70
     0
  9
$CHAMFERA
 40
0.5
  9
$CHAMFERB
 40
0.5
  9
$CHAMFERC
 40
1.0
  9
$CHAMFERD
 40
0.0
  9
$SKPOLY
 70
     0
  9
$TDCREATE
 40
2456522.534932327
  9
$TDUCREATE
 40
2456522.034932327
  9
$TDUPDATE
 40
2456522.534965255
  9
$TDUUPDATE
 40
2456522.034965255
  9
$TDINDWG
 40
0.0000000116
  9
$TDUSRTIMER
 40
0.0000000116
  9
$USRTIMER
 70
     1
  9
$ANGBASE
 50
0.0
  9
$ANGDIR
 70
     0
  9
$PDMODE
 70
     0
  9
$PDSIZE
 40
0.0
  9
$PLINEWID
 40
0.0
  9
$SPLFRAME
 70
     0
  9
$SPLINETYPE
 70
     6
  9
$SPLINESEGS
 70
     8
  9
$HANDSEED
  5
500
  9
$SURFTAB1
 70
     6
  9
$SURFTAB2
 70
     6
  9
$SURFTYPE
 70
     6
  9
$SURFU
 70
     6
  9
$SURFV
 70
     6
  9
$UCSBASE
  2

  9
$UCSNAME
  2

  9
$UCSORG
 10
0.0
 20
0.0
 30
0.0
  9
$UCSXDIR
 10
1.0
 20
0.0
 30
0.0
  9
$UCSYDIR
 10
0.0
 20
1.0
 30
0.0
  9
$UCSORTHOREF
  2

  9
$UCSORTHOVIEW
 70
     0
  9
$UCSORGTOP
 10
0.0
 20
0.0
 30
0.0
  9
$UCSORGBOTTOM
 10
0.0
 20
0.0
 30
0.0
  9
$UCSORGLEFT
 10
0.0
 20
0.0
 30
0.0
  9
$UCSORGRIGHT
 10
0.0
 20
0.0
 30
0.0
  9
$UCSORGFRONT
 10
0.0
 20
0.0
 30
0.0
  9
$UCSORGBACK
 10
0.0
 20
0.0
 30
0.0
  9
$PUCSBASE
  2

  9
$PUCSNAME
  2

  9
$PUCSORG
 10
0.0
 20
0.0
 30
0.0
  9
$PUCSXDIR
 10
1.0
 20
0.0
 30
0.0
  9
$PUCSYDIR
 10
0.0
 20
1.0
 30
0.0
  9
$PUCSORTHOREF
  2

  9
$PUCSORTHOVIEW
 70
     0
  9
$PUCSORGTOP
 10
0.0
 20
0.0
 30
0.0
  9
$PUCSORGBOTTOM
 10
0.0
 20
0.0
 30
0.0
  9
$PUCSORGLEFT
 10
0.0
 20
0.0
 30
0.0
  9
$PUCSORGRIGHT
 10
0.0
 20
0.0
 30
0.0
  9
$PUCSORGFRONT
 10
0.0
 20
0.0
 30
0.0
  9
$PUCSORGBACK
 10
0.0
 20
0.0
 30
0.0
  9
$USERI1
 70
     0
  9
$USERI2
 70
     0
  9
$USERI3
 70
     0
  9
$USERI4
 70
     0
  9
$USERI5
 70
     0
  9
$USERR1
 40
0.0
  9
$USERR2
 40
0.0
  9
$USERR3
 40
0.0
  9
$USERR4
 40
0.0
  9
$USERR5
 40
0.0
  9
$WORLDVIEW
 70
     1
  9
$SHADEDGE
 70
     3
  9
$SHADEDIF
 70
    70
  9
$TILEMODE
 70
     1
  9
$MAXACTVP
 70
    64
  9
$PINSBASE
 10
0.0
 20
0.0
 30
0.0
  9
$PLIMCHECK
 70
     0
  9
$PEXTMIN
 10
1.000000000000000E+20
 20
1.000000000000000E+20
 30
1.000000000000000E+20
  9
$PEXTMAX
 10
-1.000000000000000E+20
 20
-1.000000000000000E+20
 30
-1.000000000000000E+20
  9
$PLIMMIN
 10
0.0
 20
0.0
  9
$PLIMMAX
 10
12.0
 20
9.0
  9
$UNITMODE
 70
     0
  9
$VISRETAIN
 70
     1
  9
$PLINEGEN
 70
     0
  9
$PSLTSCALE
 70
     1
  9
$TREEDEPTH
 70
  3020
  9
$CMLSTYLE
  2
Standard
  9
$CMLJUST
 70
     0
  9
$CMLSCALE
 40
1.0
  9
$PROXYGRAPHICS
 70
     1
  9
$MEASUREMENT
 70
     0
  9
$CELWEIGHT
370
    -1
  9
$ENDCAPS
280
     0
  9
$JOINSTYLE
280
     0
  9
$LWDISPLAY
290
     1
  9
$INSUNITS
 70
     4
  9
$HYPERLINKBASE
  1

  9
$STYLESHEET
  1

  9
$XEDIT
290
     1
  9
$CEPSNTYPE
380
     0
  9
$PSTYLEMODE
290
     1
  9
$FINGERPRINTGUID
  2
{4E6C31A5-341C-45D0-9256-60335085E584}
  9
$VERSIONGUID
  2
{FAEB1C32-E019-11D5-929B-00C0DF256EC4}
  9
$EXTNAMES
290
     1
  9
$PSVPSCALE
 40
0.0
  9
$OLESTARTUP
290
     0
  0
ENDSEC
  0
SECTION
  2
CLASSES
  0
CLASS
  1
ACDBDICTIONARYWDFLT
  2
AcDbDictionaryWithDefault
  3
ObjectDBX Classes
 90
        0
280
     0
281
     0
  0
CLASS
  1
VISUALSTYLE
  2
AcDbVisualStyle
  3
ObjectDBX Classes
 90
     4095
280
     0
281
     0
  0
CLASS
  1
MATERIAL
  2
AcDbMaterial
  3
ObjectDBX Classes
 90
     1153
280
     0
281
     0
  0
CLASS
  1
SPATIAL_FILTER
  2
AcDbSpatialFilter
  3
ObjectDBX Classes
 90
        0
280
     0
281
     0
  0
CLASS
  1
SCALE
  2
AcDbScale
  3
ObjectDBX Classes
 90
     1153
280
     0
281
     0
  0
CLASS
  1
DICTIONARYVAR
  2
AcDbDictionaryVar
  3
ObjectDBX Classes
 90
        0
280
     0
281
     0
  0
CLASS
  1
ACDBPLACEHOLDER
  2
AcDbPlaceHolder
  3
ObjectDBX Classes
 90
        0
280
     0
281
     0
  0
CLASS
  1
LAYOUT
  2
AcDbLayout
  3
ObjectDBX Classes
 90
        0
280
     0
281
     0
  0
ENDSEC
  0
SECTION
  2
TABLES
  0
TABLE
  2
VPORT
  5
8
330
0
100
AcDbSymbolTable
 70
     1
  0
VPORT
  5
29
330
8
100
AcDbSymbolTableRecord
100
AcDbViewportTableRecord
  2
*Active
 70
     0
 10
0.0
 20
0.0
 11
1.0
 21
1.0
 12
148.6203422501967
 22
91.4867473994008
 13
0.0
 23
0.0
 14
0.5
 24
0.5
 15
0.5
 25
0.5
 16
0.0
 26
0.0
 36
1.0
 17
0.0
 27
0.0
 37
0.0
 40
182.4980525813891
 41
1.583060712707662
 42
50.0
 43
0.0
 44
0.0
 50
0.0
 51
0.0
 71
     0
 72
   100
 73
     1
 74
     3
 75
     0
 76
     0
 77
     0
 78
     0
281
     0
 65
     1
110
0.0
120
0.0
130
0.0
111
1.0
121
0.0
131
0.0
112
0.0
122
1.0
132
0.0
 79
     0
146
0.0
  0
ENDTAB
  0
TABLE
  2
LTYPE
  5
5
330
0
100
AcDbSymbolTable
 70
     2
  0
LTYPE
  5
14
330
5
100
AcDbSymbolTableRecord
100
AcDbLinetypeTableRecord
  2
ByBlock
 70
     0
  3

 72
    65
 73
     0
 40
0.0
  0
LTYPE
  5
15
330
5
100
AcDbSymbolTableRecord
100
AcDbLinetypeTableRecord
  2
ByLayer
 70
     0
  3

 72
    65
 73
     0
 40
0.0
  0
LTYPE
  5
16
330
5
100
AcDbSymbolTableRecord
100
AcDbLinetypeTableRecord
  2
Continuous
 70
     0
  3
Solid line
 72
    65
 73
     0
 40
0.0
  0
LTYPE
  5
10B
330
5
100
AcDbSymbolTableRecord
100
AcDbLinetypeTableRecord
  2
Dashed
 70
     0
  3
- - - - - 
 72
    65
 73
     2
 40
5.644444465637207
 49
2.822222232818604
 74
     0
 49
-2.822222232818603
 74
     0
  0
ENDTAB
  0
TABLE
  2
LAYER
  5
2
330
0
100
AcDbSymbolTable
 70
     3
  0
LAYER
  5
10
330
2
100
AcDbSymbolTableRecord
100
AcDbLayerTableRecord
  2
0
 70
     0
 62
     7
  6
Continuous
370
    -3
390
F
  0
LAYER
  5
40
330
2
100
AcDbSymbolTableRecord
100
AcDbLayerTableRecord
  2
Doc_ Finishes
 70
     0
 62
     7
  6
Continuous
370
    -3
390
F
  0
LAYER
  5
DB
330
2
100
AcDbSymbolTableRecord
100
AcDbLayerTableRecord
  2
Doc_ Floor
 70
     0
 62
     7
  6
Continuous
370
    -3
390
F
  0
ENDTAB
  0
TABLE
  2
STYLE
  5
3
330
0
100
AcDbSymbolTable
 70
     4
  0
STYLE
  5
11
330
3
100
AcDbSymbolTableRecord
100
AcDbTextStyleTableRecord
  2
Standard
 70
     0
 40
0.0
 41
1.0
 50
0.0
 71
     0
 42
0.2
  3
txt
  4

  0
STYLE
  5
D6
330
3
100
AcDbSymbolTableRecord
100
AcDbTextStyleTableRecord
  2
GENERATED_STYLE_1
 70
     0
 40
0.0
 41
1.0
 50
0.0
 71
     0
 42
0.2
  3

  4

1001
ACAD
1000
Century Gothic
1071
       34
  0
STYLE
  5
D9
330
3
100
AcDbSymbolTableRecord
100
AcDbTextStyleTableRecord
  2
GENERATED_STYLE_2
 70
     0
 40
0.0
 41
1.0
 50
0.0
 71
     0
 42
0.2
  3

  4

1001
ACAD
1000
DilleniaUPC
1071
 33554450
  0
STYLE
  5
125
330
3
100
AcDbSymbolTableRecord
100
AcDbTextStyleTableRecord
  2
GENERATED_STYLE_3
 70
     0
 40
0.0
 41
1.0
 50
0.0
 71
     0
 42
0.2
  3

  4

1001
ACAD
1000
Arial
1071
       34
  0
ENDTAB
  0
TABLE
  2
VIEW
  5
6
330
0
100
AcDbSymbolTable
 70
     0
  0
ENDTAB
  0
TABLE
  2
UCS
  5
7
330
0
100
AcDbSymbolTable
 70
     0
  0
ENDTAB
  0
TABLE
  2
APPID
  5
9
330
0
100
AcDbSymbolTable
 70
     1
  0
APPID
  5
12
330
9
100
AcDbSymbolTableRecord
100
AcDbRegAppTableRecord
  2
ACAD
 70
     0
  0
ENDTAB
  0
TABLE
  2
DIMSTYLE
  5
A
330
0
100
AcDbSymbolTable
 70
     1
100
AcDbDimStyleTable
  0
DIMSTYLE
105
27
330
A
100
AcDbSymbolTableRecord
100
AcDbDimStyleTableRecord
  2
Standard
 70
     0
178
     0
340
11
  0
ENDTAB
  0
TABLE
  2
BLOCK_RECORD
  5
1
330
0
100
AcDbSymbolTable
 70
     3
  0
BLOCK_RECORD
  5
1F
330
1
100
AcDbSymbolTableRecord
100
AcDbBlockTableRecord
  2
*Model_Space
340
22
  0
BLOCK_RECORD
  5
1B
330
1
100
AcDbSymbolTableRecord
100
AcDbBlockTableRecord
  2
*Paper_Space
340
1E
  0
BLOCK_RECORD
  5
E3
330
1
100
AcDbSymbolTableRecord
100
AcDbBlockTableRecord
  2
Drawing_1_2
340
0
102
{BLKREFS
331
4A6
102
}
  0
BLOCK_RECORD
  5
4AA
330
1
100
AcDbSymbolTableRecord
100
AcDbBlockTableRecord
  2
R-TRSC-07 BARGE DETAIL - SIDE_STORY_MARKER
340
0
  0
ENDTAB
  0
ENDSEC
  0
SECTION
  2
BLOCKS
  0
BLOCK
  5
20
330
1F
100
AcDbEntity
  8
0
100
AcDbBlockBegin
  2
*Model_Space
 70
     0
 10
0.0
 20
0.0
 30
0.0
  3
*Model_Space
  1

  0
ENDBLK
  5
21
330
1F
100
AcDbEntity
  8
0
100
AcDbBlockEnd
  0
BLOCK
  5
1C
330
1B
100
AcDbEntity
 67
     1
  8
0
100
AcDbBlockBegin
  2
*Paper_Space
 70
     0
 10
0.0
 20
0.0
 30
0.0
  3
*Paper_Space
  1

  0
ENDBLK
  5
1D
330
1B
100
AcDbEntity
 67
     1
  8
0
100
AcDbBlockEnd
  0
BLOCK
  5
E4
330
E3
100
AcDbEntity
  8
0
100
AcDbBlockBegin
  2
Drawing_1_2
 70
     0
 10
156.5565397722182
 20
110.7696525037415
 30
0.0
  3
Drawing_1_2
  1

  0
HATCH
  5
E6
330
E3
100
AcDbEntity
  8
0
  6
Continuous
 62
   255
370
     0
100
AcDbHatch
 10
0.0
 20
0.0
 30
0.0
210
0.0
220
0.0
230
1.0
  2
SOLID
 70
     1
 71
     0
 91
        1
 92
        3
 72
     0
 73
     1
 93
        4
 10
115.7060012669633
 20
136.2233875856668
 10
204.3837607741832
 20
136.2233875856667
 10
204.3837607741832
 20
145.2233875856667
 10
115.7060012669633
 20
145.2233875856668
 97
        0
 75
     0
 76
     1
 98
        0
  0
LINE
  5
E7
330
E3
100
AcDbEntity
  8
0
  6
Continuous
100
AcDbLine
 10
115.7060005900903
 20
136.223387931112
 30
0.0
 11
204.383759873376
 21
136.223387931112
 31
0.0
  0
LINE
  5
E8
330
E3
100
AcDbEntity
  8
0
  6
Continuous
100
AcDbLine
 10
204.383759873376
 20
136.223387931112
 30
0.0
 11
204.383759873376
 21
145.2233879208638
 31
0.0
  0
LINE
  5
E9
330
E3
100
AcDbEntity
  8
0
  6
Continuous
100
AcDbLine
 10
204.383759873376
 20
145.2233879208638
 30
0.0
 11
115.7060005900903
 21
145.2233879208638
 31
0.0
  0
LINE
  5
EA
330
E3
100
AcDbEntity
  8
0
  6
Continuous
100
AcDbLine
 10
115.7060005900903
 20
145.2233879208638
 30
0.0
 11
115.7060005900903
 21
136.223387931112
 31
0.0
  0
HATCH
  5
EB
330
E3
100
AcDbEntity
  8
0
  6
Continuous
 62
   255
370
     0
100
AcDbHatch
 10
0.0
 20
0.0
 30
0.0
210
0.0
220
0.0
230
1.0
  2
SOLID
 70
     1
 71
     0
 91
        1
 92
        3
 72
     0
 73
     1
 93
        4
 10
115.7060012669633
 20
145.2233875856668
 10
115.7060012669633
 20
136.2233875856668
 10
129.7060012669633
 20
136.2233875856668
 10
129.7060012669633
 20
145.2233875856668
 97
        0
 75
     0
 76
     1
 98
        0
  0
LINE
  5
EC
330
E3
100
AcDbEntity
  8
0
  6
Continuous
100
AcDbLine
 10
115.7060005900903
 20
145.2233879208638
 30
0.0
 11
129.7060024200635
 21
136.223387931112
 31
0.0
  0
LINE
  5
ED
330
E3
100
AcDbEntity
  8
0
  6
Continuous
100
AcDbLine
 10
115.7060005900903
 20
145.2233879208638
 30
0.0
 11
115.7060005900903
 21
136.223387931112
 31
0.0
  0
LINE
  5
EE
330
E3
100
AcDbEntity
  8
0
  6
Continuous
100
AcDbLine
 10
115.7060005900903
 20
136.223387931112
 30
0.0
 11
129.7060024200635
 21
136.223387931112
 31
0.0
  0
LINE
  5
EF
330
E3
100
AcDbEntity
  8
0
  6
Continuous
100
AcDbLine
 10
129.7060024200635
 20
136.223387931112
 30
0.0
 11
129.7060024200635
 21
145.2233879208638
 31
0.0
  0
LINE
  5
F0
330
E3
100
AcDbEntity
  8
0
  6
Continuous
100
AcDbLine
 10
129.7060024200635
 20
145.2233879208638
 30
0.0
 11
115.7060005900903
 21
145.2233879208638
 31
0.0
  0
HATCH
  5
F1
330
E3
100
AcDbEntity
  8
0
  6
Continuous
 62
   255
370
     0
100
AcDbHatch
 10
0.0
 20
0.0
 30
0.0
210
0.0
220
0.0
230
1.0
  2
SOLID
 70
     1
 71
     0
 91
        1
 92
        3
 72
     0
 73
     1
 93
        4
 10
115.7060012669633
 20
118.2233875856668
 10
204.3837607741832
 20
118.2233875856667
 10
204.3837607741832
 20
136.2233875856667
 10
115.7060012669633
 20
136.2233875856668
 97
        0
 75
     0
 76
     1
 98
        0
  0
LINE
  5
F2
330
E3
100
AcDbEntity
  8
0
  6
Continuous
100
AcDbLine
 10
115.7060005900903
 20
118.2233879516084
 30
0.0
 11
204.383759873376
 21
118.2233879516084
 31
0.0
  0
LINE
  5
F3
330
E3
100
AcDbEntity
  8
0
  6
Continuous
100
AcDbLine
 10
204.383759873376
 20
118.2233879516084
 30
0.0
 11
204.383759873376
 21
136.223387931112
 31
0.0
  0
LINE
  5
F4
330
E3
100
AcDbEntity
  8
0
  6
Continuous
100
AcDbLine
 10
204.383759873376
 20
136.223387931112
 30
0.0
 11
115.7060005900903
 21
136.223387931112
 31
0.0
  0
LINE
  5
F5
330
E3
100
AcDbEntity
  8
0
  6
Continuous
100
AcDbLine
 10
115.7060005900903
 20
136.223387931112
 30
0.0
 11
115.7060005900903
 21
118.2233879516084
 31
0.0
  0
HATCH
  5
F6
330
E3
100
AcDbEntity
  8
0
  6
Continuous
 62
   255
370
     0
100
AcDbHatch
 10
0.0
 20
0.0
 30
0.0
210
0.0
220
0.0
230
1.0
  2
SOLID
 70
     1
 71
     0
 91
        1
 92
        3
 72
     0
 73
     1
 93
       12
 10
115.7060012669633
 20
114.7187869893975
 10
115.7060012669633
 20
116.7187869893975
 10
114.1060012669633
 20
116.7187869893975
 10
114.1060012669633
 20
117.7187869893975
 10
115.7060012669633
 20
117.7187869893975
 10
115.7060012669633
 20
147.7187869893975
 10
114.1060012669633
 20
147.7187869893975
 10
114.1060012669633
 20
148.7187869893975
 10
115.7060012669633
 20
148.7187869893975
 10
115.7060012669633
 20
150.7187869893975
 10
111.7060012669633
 20
150.7187869893975
 10
111.7060012669633
 20
114.7187869893975
 97
        0
 75
     0
 76
     1
 98
        0
  0
HATCH
  5
F7
330
E3
100
AcDbEntity
  8
0
  6
Continuous
100
AcDbHatch
 10
0.0
 20
0.0
 30
0.0
210
0.0
220
0.0
230
1.0
  2
Wood_0002
 70
     0
 71
     0
 91
        1
 92
        3
 72
     0
 73
     1
 93
       12
 10
115.7060012669633
 20
114.7187869893975
 10
115.7060012669633
 20
116.7187869893975
 10
114.1060012669633
 20
116.7187869893975
 10
114.1060012669633
 20
117.7187869893975
 10
115.7060012669633
 20
117.7187869893975
 10
115.7060012669633
 20
147.7187869893975
 10
114.1060012669633
 20
147.7187869893975
 10
114.1060012669633
 20
148.7187869893975
 10
115.7060012669633
 20
148.7187869893975
 10
115.7060012669633
 20
150.7187869893975
 10
111.7060012669633
 20
150.7187869893975
 10
111.7060012669633
 20
114.7187869893975
 97
        0
 75
     0
 76
     2
 52
0.0
 41
1.0
 77
     0
 78
     1
 53
9.999999999999996
 43
101.718627297332
 44
77.92816204534589
 45
-0.1562833557601421
 46
0.8863269542313407
 79
     0
 98
        0
  0
LINE
  5
F8
330
E3
100
AcDbEntity
  8
0
  6
Continuous
100
AcDbLine
 10
115.7060005900903
 20
114.7187864590789
 30
0.0
 11
115.7060005900903
 21
116.7187871951675
 31
0.0
  0
LINE
  5
F9
330
E3
100
AcDbEntity
  8
0
  6
Continuous
100
AcDbLine
 10
115.7060005900903
 20
116.7187871951675
 30
0.0
 11
114.1060000012194
 21
116.7187871951675
 31
0.0
  0
LINE
  5
FA
330
E3
100
AcDbEntity
  8
0
  6
Continuous
100
AcDbLine
 10
114.1060000012194
 20
116.7187871951675
 30
0.0
 11
114.1060000012194
 21
117.7187875632118
 31
0.0
  0
LINE
  5
FB
330
E3
100
AcDbEntity
  8
0
  6
Continuous
100
AcDbLine
 10
114.1060000012194
 20
117.7187875632118
 30
0.0
 11
115.7060005900903
 21
117.7187875632118
 31
0.0
  0
LINE
  5
FC
330
E3
100
AcDbEntity
  8
0
  6
Continuous
100
AcDbLine
 10
115.7060005900903
 20
117.7187875632118
 30
0.0
 11
115.7060005900903
 21
147.7187886366001
 31
0.0
  0
LINE
  5
FD
330
E3
100
AcDbEntity
  8
0
  6
Continuous
100
AcDbLine
 10
115.7060005900903
 20
147.7187886366001
 30
0.0
 11
114.1060000012194
 21
147.7187886366001
 31
0.0
  0
LINE
  5
FE
330
E3
100
AcDbEntity
  8
0
  6
Continuous
100
AcDbLine
 10
114.1060000012194
 20
147.7187886366001
 30
0.0
 11
114.1060000012194
 21
148.7187856819976
 31
0.0
  0
LINE
  5
FF
330
E3
100
AcDbEntity
  8
0
  6
Continuous
100
AcDbLine
 10
114.1060000012194
 20
148.7187856819976
 30
0.0
 11
115.7060005900903
 21
148.7187856819976
 31
0.0
  0
LINE
  5
100
330
E3
100
AcDbEntity
  8
0
  6
Continuous
100
AcDbLine
 10
115.7060005900903
 20
148.7187856819976
 30
0.0
 11
115.7060005900903
 21
150.7187864180862
 31
0.0
  0
LINE
  5
101
330
E3
100
AcDbEntity
  8
0
  6
Continuous
100
AcDbLine
 10
115.7060005900903
 20
150.7187864180862
 30
0.0
 11
111.7060024405598
 21
150.7187864180862
 31
0.0
  0
LINE
  5
102
330
E3
100
AcDbEntity
  8
0
  6
Continuous
100
AcDbLine
 10
111.7060024405598
 20
150.7187864180862
 30
0.0
 11
111.7060024405598
 21
114.7187864590789
 31
0.0
  0
LINE
  5
103
330
E3
100
AcDbEntity
  8
0
  6
Continuous
100
AcDbLine
 10
111.7060024405598
 20
114.7187864590789
 30
0.0
 11
115.7060005900903
 21
114.7187864590789
 31
0.0
  0
HATCH
  5
104
330
E3
100
AcDbEntity
  8
0
  6
Continuous
 62
   255
370
     0
100
AcDbHatch
 10
0.0
 20
0.0
 30
0.0
210
0.0
220
0.0
230
1.0
  2
SOLID
 70
     1
 71
     0
 91
        1
 92
        3
 72
     0
 73
     1
 93
        4
 10
124.7060012669633
 20
136.2233875856668
 10
115.7060012669633
 20
136.2233875856668
 10
115.7060012669633
 20
118.2233875856668
 10
124.7060012669633
 20
118.2233875856668
 97
        0
 75
     0
 76
     1
 98
        0
  0
LINE
  5
105
330
E3
100
AcDbEntity
  8
0
  6
Continuous
100
AcDbLine
 10
115.7060005900903
 20
136.223387931112
 30
0.0
 11
124.7060005798421
 21
118.2233879516084
 31
0.0
  0
LINE
  5
106
330
E3
100
AcDbEntity
  8
0
  6
Continuous
100
AcDbLine
 10
124.7060005798421
 20
136.223387931112
 30
0.0
 11
115.7060005900903
 21
118.2233879516084
 31
0.0
  0
LINE
  5
107
330
E3
100
AcDbEntity
  8
0
  6
Continuous
100
AcDbLine
 10
124.7060005798421
 20
136.223387931112
 30
0.0
 11
115.7060005900903
 21
136.223387931112
 31
0.0
  0
LINE
  5
108
330
E3
100
AcDbEntity
  8
0
  6
Continuous
100
AcDbLine
 10
115.7060005900903
 20
136.223387931112
 30
0.0
 11
115.7060005900903
 21
118.2233879516084
 31
0.0
  0
LINE
  5
109
330
E3
100
AcDbEntity
  8
0
  6
Continuous
100
AcDbLine
 10
115.7060005900903
 20
118.2233879516084
 30
0.0
 11
124.7060005798421
 21
118.2233879516084
 31
0.0
  0
LINE
  5
10A
330
E3
100
AcDbEntity
  8
0
  6
Continuous
100
AcDbLine
 10
124.7060005798421
 20
118.2233879516084
 30
0.0
 11
124.7060005798421
 21
136.223387931112
 31
0.0
  0
LINE
  5
10C
330
E3
100
AcDbEntity
  8
0
  6
Dashed
100
AcDbLine
 10
116.3541526070848
 20
146.1754292062495
 30
0.0
 11
205.0638092988174
 21
146.1754292062495
 31
0.0
  0
LINE
  5
10D
330
E3
100
AcDbEntity
  8
0
  6
Dashed
100
AcDbLine
 10
116.3541526070848
 20
146.1754292062495
 30
0.0
 11
116.3541526070848
 21
150.7187864180862
 31
0.0
  0
LINE
  5
10E
330
E3
100
AcDbEntity
  8
0
  6
Dashed
100
AcDbLine
 10
134.5228533281588
 20
152.0644948860542
 30
0.0
 11
137.2306642029777
 21
152.0644948860542
 31
0.0
  0
LWPOLYLINE
  5
10F
330
E3
100
AcDbEntity
  8
0
  6
Continuous
100
AcDbPolyline
 90
        6
 70
   128
 43
0.0
 10
140.5719126320387
 20
148.2697614875211
 10
137.9090206384036
 20
151.5619402202655
 10
110.9494052847071
 20
151.5619402202655
 10
110.9494052847071
 20
134.173636710085
 10
108.9486099052353
 20
132.8627707718103
 10
110.9149088126472
 20
130.8964718643984
  0
LWPOLYLINE
  5
110
330
E3
100
AcDbEntity
  8
0
  6
Continuous
100
AcDbPolyline
 90
        3
 70
   128
 43
0.0
 10
146.8331228490522
 20
148.7128320392932
 42
-0.5012060838038215
 10
139.1783470614179
 20
148.9351567102603
 42
0.4736328287552234
 10
131.8580459294777
 20
148.8300379651829
  0
LWPOLYLINE
  5
111
330
E3
100
AcDbEntity
  8
0
  6
Continuous
100
AcDbPolyline
 90
        3
 70
   128
 43
0.0
 10
131.8580459294777
 20
148.7128320392932
 42
-0.5012060838038215
 10
124.2032701418435
 20
148.9351567102603
 42
0.4736328287552234
 10
116.8829690099033
 20
148.8300379651829
  0
LWPOLYLINE
  5
112
330
E3
100
AcDbEntity
  8
0
  6
Continuous
100
AcDbPolyline
 90
        3
 70
   128
 43
0.0
 10
161.8081997686266
 20
148.7128320392932
 42
-0.5012060838038215
 10
154.1534239809924
 20
148.9351567102603
 42
0.4736328287552234
 10
146.8331228490522
 20
148.8300379651829
  0
LWPOLYLINE
  5
113
330
E3
100
AcDbEntity
  8
0
  6
Continuous
100
AcDbPolyline
 90
        3
 70
   128
 43
0.0
 10
176.7832766882011
 20
148.7128320392932
 42
-0.5012060838038215
 10
169.1285009005668
 20
148.9351567102603
 42
0.4736328287552234
 10
161.8081997686266
 20
148.8300379651829
  0
LWPOLYLINE
  5
114
330
E3
100
AcDbEntity
  8
0
  6
Continuous
100
AcDbPolyline
 90
        3
 70
   128
 43
0.0
 10
191.7583536077755
 20
148.7128320392932
 42
-0.5012060838038215
 10
184.1035778201413
 20
148.9351567102603
 42
0.4736328287552234
 10
176.7832766882011
 20
148.8300379651829
  0
LINE
  5
115
330
E3
100
AcDbEntity
  8
Doc_ Floor
  6
Continuous
100
AcDbLine
 10
115.904970643218
 20
159.1330968264053
 30
0.0
 11
116.8829684447274
 21
159.1330968264053
 31
0.0
  0
LINE
  5
116
330
E3
100
AcDbEntity
  8
Doc_ Floor
  6
Continuous
100
AcDbLine
 10
116.8829684447274
 20
159.1330968264053
 30
0.0
 11
137.9090190785955
 21
159.1330968264053
 31
0.0
  0
LINE
  5
117
330
E3
100
AcDbEntity
  8
Doc_ Floor
  6
Continuous
100
AcDbLine
 10
117.4603181829099
 20
160.1330971944496
 30
0.0
 11
116.3056187065448
 21
158.1330997810077
 31
0.0
  0
LINE
  5
118
330
E3
100
AcDbEntity
  8
Doc_ Floor
  6
Continuous
100
AcDbLine
 10
137.3316693404129
 20
158.1330997810077
 30
0.0
 11
138.4863721394248
 21
160.1330971944496
 31
0.0
  0
LINE
  5
119
330
E3
100
AcDbEntity
  8
Doc_ Floor
  6
Continuous
100
AcDbLine
 10
137.9090190785955
 20
159.1330968264053
 30
0.0
 11
138.8870202027515
 21
159.1330968264053
 31
0.0
  0
LINE
  5
11A
330
E3
100
AcDbEntity
  8
Doc_ Floor
  6
Continuous
100
AcDbLine
 10
116.8829684447274
 20
157.6330979356622
 30
0.0
 11
116.8829684447274
 21
160.6330990397951
 31
0.0
  0
LINE
  5
11B
330
E3
100
AcDbEntity
  8
Doc_ Floor
  6
Continuous
100
AcDbLine
 10
137.9090190785955
 20
157.6330979356622
 30
0.0
 11
137.9090190785955
 21
160.6330990397951
 31
0.0
  0
MTEXT
  5
11C
330
E3
100
AcDbEntity
  8
Doc_ Floor
  6
Continuous
100
AcDbMText
 10
126.3842298209491
 20
159.6330983374525
 30
0.0
 40
2.5
 41
0.0
 71
     7
 72
     1
  1
{B}
  7
GENERATED_STYLE_1
 73
     1
 44
1.0
  0
LINE
  5
11D
330
E3
100
AcDbEntity
  8
Doc_ Floor
  6
Continuous
100
AcDbLine
 10
103.8369915202276
 20
133.1956360816303
 30
0.0
 11
103.8369915202276
 21
134.1736372057864
 31
0.0
  0
LINE
  5
11E
330
E3
100
AcDbEntity
  8
Doc_ Floor
  6
Continuous
100
AcDbLine
 10
103.8369915202276
 20
134.1736372057864
 30
0.0
 11
103.8369915202276
 21
150.7187864180862
 31
0.0
  0
LINE
  5
11F
330
E3
100
AcDbEntity
  8
Doc_ Floor
  6
Continuous
100
AcDbLine
 10
102.8369911521833
 20
134.750986943969
 30
0.0
 11
104.8369918882719
 21
133.5962874676039
 31
0.0
  0
LINE
  5
120
330
E3
100
AcDbEntity
  8
Doc_ Floor
  6
Continuous
100
AcDbLine
 10
104.8369918882719
 20
150.1414366799036
 30
0.0
 11
102.8369911521833
 21
151.2961361562687
 31
0.0
  0
LINE
  5
121
330
E3
100
AcDbEntity
  8
Doc_ Floor
  6
Continuous
100
AcDbLine
 10
103.8369915202276
 20
150.7187864180862
 30
0.0
 11
103.8369915202276
 21
151.6967875422423
 31
0.0
  0
LINE
  5
122
330
E3
100
AcDbEntity
  8
Doc_ Floor
  6
Continuous
100
AcDbLine
 10
105.3369937336173
 20
134.1736372057864
 30
0.0
 11
102.3369926294845
 21
134.1736372057864
 31
0.0
  0
LINE
  5
123
330
E3
100
AcDbEntity
  8
Doc_ Floor
  6
Continuous
100
AcDbLine
 10
105.3369937336173
 20
150.7187864180862
 30
0.0
 11
102.3369926294845
 21
150.7187864180862
 31
0.0
  0
MTEXT
  5
124
330
E3
100
AcDbEntity
  8
Doc_ Floor
  6
Continuous
100
AcDbMText
 10
103.3369923140765
 20
141.1167993521611
 30
0.0
 40
2.5
 41
0.0
 71
     7
 72
     1
  1
{A}
  7
GENERATED_STYLE_1
 11
6.123233995736766E-17
 21
1.0
 31
0.0
 73
     1
 44
1.0
  0
MTEXT
  5
126
330
E3
100
AcDbEntity
  8
Doc_ Floor
  6
Continuous
100
AcDbMText
 10
134.1190370326334
 20
175.4424594491013
 30
0.0
 40
2.5
 41
56.6835322004004
 71
     6
 72
     1
  1
\A1;{\fCentury Gothic|b0|i0|c0|p34;TRS CORRUGATE\PMIN. ROOF PITCH 8\fArial|b0|i0|c0|p34;\H1.029412x;\U+00B0}
  7
GENERATED_STYLE_1
 73
     1
 44
1.056356172275314
  0
LINE
  5
127
330
E3
100
AcDbEntity
  8
Doc_ Floor
  6
Continuous
100
AcDbLine
 10
164.2522646985159
 20
150.446030349398
 30
0.0
 11
161.9265781315975
 21
153.5313769570066
 31
0.0
  0
LINE
  5
128
330
E3
100
AcDbEntity
  8
Doc_ Floor
  6
Continuous
100
AcDbLine
 10
164.2522646985159
 20
150.446030349398
 30
0.0
 11
163.780837614904
 21
154.280863053461
 31
0.0
  0
LINE
  5
129
330
E3
100
AcDbEntity
  8
Doc_ Floor
  6
Continuous
100
AcDbLine
 10
161.9265781315975
 20
153.5313769570066
 30
0.0
 11
163.780837614904
 21
154.280863053461
 31
0.0
  0
LWPOLYLINE
  5
12A
330
E3
100
AcDbEntity
  8
Doc_ Floor
  6
Continuous
100
AcDbPolyline
 90
       17
 70
   128
 43
0.0
 10
162.8537083431359
 20
153.9061206347783
 10
161.5689650250631
 20
156.7978463737303
 10
160.2652009418454
 20
159.4486000143833
 10
158.9336727249042
 20
161.8658890503696
 10
157.5656370056611
 20
164.0572209753214
 10
156.1523504155376
 20
166.0301032828708
 10
154.6850695859553
 20
167.7920434666501
 10
153.1550511483356
 20
169.3505490202913
 10
151.5535517341002
 20
170.7131274374267
 10
149.8718279746706
 20
171.8872862116884
 10
148.1011365014683
 20
172.8805328367087
 10
146.2327339459147
 20
173.7003748061196
 10
144.2578769394316
 20
174.3543196135533
 10
142.1678221134404
 20
174.8498747526421
 10
139.9538260993626
 20
175.194547717018
 10
137.6071455286198
 20
175.3958460003133
 10
135.1190370326334
 20
175.4612770961602
  0
MTEXT
  5
12B
330
E3
100
AcDbEntity
  8
Doc_ Floor
  6
Continuous
100
AcDbMText
 10
183.3735222090556
 20
160.2063622515945
 30
0.0
 40
2.5
 41
0.0
 71
     4
 72
     1
  1
{UNDERLAY}
  7
GENERATED_STYLE_1
 73
     1
 44
1.0
  0
LINE
  5
12C
330
E3
100
AcDbEntity
  8
Doc_ Floor
  6
Continuous
100
AcDbLine
 10
167.8204948756035
 20
146.1754292062495
 30
0.0
 11
168.3952529493497
 21
149.996143984428
 31
0.0
  0
LINE
  5
12D
330
E3
100
AcDbEntity
  8
Doc_ Floor
  6
Continuous
100
AcDbLine
 10
167.8204948756035
 20
146.1754292062495
 30
0.0
 11
170.2286063395367
 21
149.1968846402096
 31
0.0
  0
LINE
  5
12E
330
E3
100
AcDbEntity
  8
Doc_ Floor
  6
Continuous
100
AcDbLine
 10
168.3952529493497
 20
149.996143984428
 30
0.0
 11
170.2286063395367
 21
149.1968846402096
 31
0.0
  0
LWPOLYLINE
  5
12F
330
E3
100
AcDbEntity
  8
Doc_ Floor
  6
Continuous
100
AcDbPolyline
 90
        9
 70
   128
 43
0.0
 10
169.3119301855837
 20
149.5965145601677
 10
170.7006048253863
 20
152.3270618966845
 10
172.1002766490494
 20
154.601359572428
 10
173.5403076879473
 20
156.4478182087387
 10
175.0500599734541
 20
157.8948484269568
 10
176.6588955369441
 20
158.9708608484228
 10
178.3961764097916
 20
159.7042660944771
 10
180.2912646233706
 20
160.1234747864601
 10
182.3735222090556
 20
160.2568975457121
  0
MTEXT
  5
130
330
E3
100
AcDbEntity
  8
Doc_ Floor
  6
Continuous
100
AcDbMText
 10
85.2155881672925
 20
165.1470822058679
 30
0.0
 40
2.499999999999999
 41
0.0
 71
     6
 72
     1
  1
{PURLIN}
  7
GENERATED_STYLE_1
 73
     1
 44
1.0
  0
LINE
  5
131
330
E3
100
AcDbEntity
  8
Doc_ Floor
  6
Continuous
100
AcDbLine
 10
122.380669536122
 20
142.0556662559411
 30
0.0
 11
119.2642462138046
 21
144.339543959267
 31
0.0
  0
LINE
  5
132
330
E3
100
AcDbEntity
  8
Doc_ Floor
  6
Continuous
100
AcDbLine
 10
122.380669536122
 20
142.0556662559411
 30
0.0
 11
120.8237071901275
 21
145.591776407252
 31
0.0
  0
LINE
  5
133
330
E3
100
AcDbEntity
  8
Doc_ Floor
  6
Continuous
100
AcDbLine
 10
119.2642462138046
 20
144.339543959267
 30
0.0
 11
120.8237071901275
 21
145.591776407252
 31
0.0
  0
LWPOLYLINE
  5
134
330
E3
100
AcDbEntity
  8
Doc_ Floor
  6
Continuous
100
AcDbPolyline
 90
       16
 70
   128
 43
0.0
 10
120.0439768475798
 20
144.9656604748258
 10
115.5533189103887
 20
150.1701804850505
 10
113.4080056236444
 20
152.4397475966348
 10
111.3146140659339
 20
154.4969613863253
 10
109.2620776931067
 20
156.3489033094655
 10
107.2393299610124
 20
158.0026548213993
 10
105.2353043255006
 20
159.4652973774702
 10
103.2389342424209
 20
160.7439124330219
 10
101.239153167623
 20
161.8455814433981
 10
99.22489455695637
 20
162.7773858639425
 10
97.18509186627071
 20
163.5464071499987
 10
95.10867855141557
 20
164.1597267569104
 10
92.98458806824057
 20
164.6244261400213
 10
90.80175387259533
 20
164.947586754675
 10
88.54910942032943
 20
165.1362900562152
 10
86.2155881672925
 20
165.1976174999855
  0
MTEXT
  5
135
330
E3
100
AcDbEntity
  8
Doc_ Floor
  6
Continuous
100
AcDbMText
 10
67.94094580403967
 20
104.8149940864735
 30
0.0
 40
2.5
 41
0.0
 71
     4
 72
     1
  1
{FASCIA}
  7
GENERATED_STYLE_1
 73
     1
 44
1.0
  0
LINE
  5
136
330
E3
100
AcDbEntity
  8
Doc_ Floor
  6
Continuous
100
AcDbLine
 10
113.1731735817763
 20
123.1124133916082
 30
0.0
 11
111.631478797429
 21
119.569621397757
 31
0.0
  0
LINE
  5
137
330
E3
100
AcDbEntity
  8
Doc_ Floor
  6
Continuous
100
AcDbLine
 10
113.1731735817763
 20
123.1124133916082
 30
0.0
 11
110.066631810784
 21
120.8151121955609
 31
0.0
  0
LINE
  5
138
330
E3
100
AcDbEntity
  8
Doc_ Floor
  6
Continuous
100
AcDbLine
 10
111.631478797429
 20
119.569621397757
 30
0.0
 11
110.066631810784
 21
120.8151121955609
 31
0.0
  0
LWPOLYLINE
  5
139
330
E3
100
AcDbEntity
  8
Doc_ Floor
  6
Continuous
100
AcDbPolyline
 90
       13
 70
   128
 43
0.0
 10
110.8490557706401
 20
120.1923680432735
 10
107.468283391529
 20
116.2461998141194
 10
104.2988260737045
 20
112.9638427296374
 10
101.2781104191937
 20
110.3028687615033
 10
99.80397652881442
 20
109.1921416872155
 10
98.34356303002369
 20
108.2208498813931
 10
96.88904824807493
 20
107.3836898404956
 10
95.4326105082215
 20
106.6753580609826
 10
93.9664281357168
 20
106.0905510393135
 10
92.48267945581419
 20
105.6239652719478
 10
90.97354279376707
 20
105.270297255345
 10
89.43119647482884
 20
105.0242434859646
 10
86.2155881672925
 20
104.8337646747088
  0
MTEXT
  5
13A
330
E3
100
AcDbEntity
  8
Doc_ Floor
  6
Continuous
100
AcDbMText
 10
85.2155881672925
 20
155.2824747860974
 30
0.0
 40
2.5
 41
0.0
 71
     6
 72
     1
  1
{METAL FLASHING}
  7
GENERATED_STYLE_1
 73
     1
 44
1.0
  0
LINE
  5
13B
330
E3
100
AcDbEntity
  8
Doc_ Floor
  6
Continuous
100
AcDbLine
 10
110.9494058801392
 20
149.5997821353612
 30
0.0
 11
107.1067848921805
 21
150.0028391175551
 31
0.0
  0
LINE
  5
13C
330
E3
100
AcDbEntity
  8
Doc_ Floor
  6
Continuous
100
AcDbLine
 10
110.9494058801392
 20
149.5997821353612
 30
0.0
 11
107.8231242650237
 21
151.8701499571512
 31
0.0
  0
LINE
  5
13D
330
E3
100
AcDbEntity
  8
Doc_ Floor
  6
Continuous
100
AcDbLine
 10
107.1067848921805
 20
150.0028391175551
 30
0.0
 11
107.8231242650237
 21
151.8701499571512
 31
0.0
  0
LWPOLYLINE
  5
13E
330
E3
100
AcDbEntity
  8
Doc_ Floor
  6
Continuous
100
AcDbPolyline
 90
        8
 70
   128
 43
0.0
 10
107.4649545033488
 20
150.9364950908936
 10
101.4186251034622
 20
152.98620262118
 10
98.70560366009147
 20
153.7422327961995
 10
96.13179969304676
 20
154.3346171646123
 10
93.64655468128629
 20
154.7750331665252
 10
91.19921010376827
 20
155.075158242045
 10
88.73910743945093
 20
155.2466698312786
 10
86.2155881672925
 20
155.3012453743327
  0
MTEXT
  5
13F
330
E3
100
AcDbEntity
  8
Doc_ Floor
  6
Continuous
100
AcDbMText
 10
85.2155881672925
 20
126.0402024897168
 30
0.0
 40
2.5
 41
39.1484652691462
 71
     6
 72
     1
  1
{BIRD'S BEAK AT BOTTOM EDGE}
  7
GENERATED_STYLE_1
 73
     1
 44
1.070162922071087
  0
LINE
  5
140
330
E3
100
AcDbEntity
  8
Doc_ Floor
  6
Continuous
100
AcDbLine
 10
109.715946386084
 20
132.0954346566555
 30
0.0
 11
106.7063096064828
 21
129.6725639960221
 31
0.0
  0
LINE
  5
141
330
E3
100
AcDbEntity
  8
Doc_ Floor
  6
Continuous
100
AcDbLine
 10
109.715946386084
 20
132.0954346566555
 30
0.0
 11
105.8980890840788
 21
131.5019866951474
 31
0.0
  0
LINE
  5
142
330
E3
100
AcDbEntity
  8
Doc_ Floor
  6
Continuous
100
AcDbLine
 10
106.7063096064828
 20
129.6725639960221
 30
0.0
 11
105.8980890840788
 21
131.5019866951474
 31
0.0
  0
LWPOLYLINE
  5
143
330
E3
100
AcDbEntity
  8
Doc_ Floor
  6
Continuous
100
AcDbPolyline
 90
        9
 70
   128
 43
0.0
 10
106.3022006927344
 20
130.5872752668234
 10
103.4420987808929
 20
129.4277217743254
 10
100.7754565149003
 20
128.4618055629317
 10
98.2554405498551
 20
127.6774967922674
 10
95.83521754085596
 20
127.062765621958
 10
93.46795414300149
 20
126.6055822116287
 10
91.10681701139035
 20
126.293916720905
 10
88.70497280112114
 20
126.1157393094122
 10
86.2155881672925
 20
126.0590201367757
  0
LINE
  5
144
330
E3
100
AcDbEntity
  8
0
  6
Continuous
100
AcDbLine
 10
79.34654674170669
 20
72.87450677531444
 30
0.0
 11
203.709648017611
 21
72.87450677531444
 31
0.0
  0
LINE
  5
145
330
E3
100
AcDbEntity
  8
0
  6
Continuous
100
AcDbLine
 10
179.7396293937818
 20
80.96087527568542
 30
0.0
 11
179.7396293937818
 21
40.59272791132295
 31
0.0
  0
LINE
  5
146
330
E3
100
AcDbEntity
  8
0
  6
Continuous
100
AcDbLine
 10
79.34654674170669
 20
40.59272791132295
 30
0.0
 11
79.34654674170669
 21
72.87450677531444
 31
0.0
  0
LINE
  5
147
330
E3
100
AcDbEntity
  8
0
  6
Continuous
100
AcDbLine
 10
155.7696140925993
 20
80.96087527568542
 30
0.0
 11
155.7696140925993
 21
40.59272791132295
 31
0.0
  0
LINE
  5
148
330
E3
100
AcDbEntity
  8
0
  6
Continuous
100
AcDbLine
 10
79.34654674170669
 20
62.11391603574842
 30
0.0
 11
203.709648017611
 21
62.11391603574842
 31
0.0
  0
LINE
  5
149
330
E3
100
AcDbEntity
  8
0
  6
Continuous
100
AcDbLine
 10
79.34654674170669
 20
51.35332197353568
 30
0.0
 11
203.709648017611
 21
51.35332197353568
 31
0.0
  0
LINE
  5
14A
330
E3
100
AcDbEntity
  8
0
  6
Continuous
100
AcDbLine
 10
155.7696140925993
 20
80.96087527568542
 30
0.0
 11
179.7396293937818
 21
80.96087527568542
 31
0.0
  0
LINE
  5
14B
330
E3
100
AcDbEntity
  8
0
  6
Continuous
100
AcDbLine
 10
79.34654674170669
 20
40.59272791132295
 30
0.0
 11
203.709648017611
 21
40.59272791132295
 31
0.0
  0
LINE
  5
14C
330
E3
100
AcDbEntity
  8
0
  6
Continuous
100
AcDbLine
 10
203.709648017611
 20
80.96087527568542
 30
0.0
 11
203.709648017611
 21
40.59272791132295
 31
0.0
  0
LINE
  5
14D
330
E3
100
AcDbEntity
  8
0
  6
Continuous
100
AcDbLine
 10
179.7396293937818
 20
80.96087527568542
 30
0.0
 11
203.709648017611
 21
80.96087527568542
 31
0.0
  0
MTEXT
  5
14E
330
E3
100
AcDbEntity
  8
0
  6
Continuous
100
AcDbMText
 10
82.90247330043628
 20
64.03086577999714
 30
0.0
 40
2.499999999999999
 41
69.01187578516154
 71
     7
 72
     1
  1
\A1;{\fCentury Gothic|b0|i0|c0|p34;LOW, MEDIUM OR HIGH WIND ZONE.\P ROOF PITCH \fArial|b0|i0|c0|p34;\H1.029412x;\U+2265\fCentury Gothic|b0|i0|c0|p34;\H0.971429x; 10\fArial|b0|i0|c0|p34;\H1.029412x;\U+00B0}
  7
GENERATED_STYLE_1
 73
     1
 44
1.056355725756043
  0
MTEXT
  5
14F
330
E3
100
AcDbEntity
  8
0
  6
Continuous
100
AcDbMText
 10
82.90247330043628
 20
53.60802117200781
 30
0.0
 40
2.5
 41
69.01187578516154
 71
     7
 72
     1
  1
\A1;{\fCentury Gothic|b0|i0|c0|p34;VERY HIGH WIND ZONE.\P ROOF PITCH \fArial|b0|i0|c0|p34;\H1.029412x;<\fCentury Gothic|b0|i0|c0|p34;\H0.971429x; 10\fArial|b0|i0|c0|p34;\H1.029412x;\U+00B0}
  7
GENERATED_STYLE_1
 73
     1
 44
1.056355725756043
  0
MTEXT
  5
150
330
E3
100
AcDbEntity
  8
0
  6
Continuous
100
AcDbMText
 10
167.4018073570244
 20
66.07069325365727
 30
0.0
 40
2.499999999999999
 41
0.0
 71
     8
 72
     1
  1
{50MM}
  7
GENERATED_STYLE_1
 73
     1
 44
1.0
  0
MTEXT
  5
151
330
E3
100
AcDbEntity
  8
0
  6
Continuous
100
AcDbMText
 10
167.4018073570244
 20
54.83191373219951
 30
0.0
 40
2.499999999999999
 41
0.0
 71
     8
 72
     1
  1
{75MM}
  7
GENERATED_STYLE_1
 73
     1
 44
1.0
  0
MTEXT
  5
152
330
E3
100
AcDbEntity
  8
0
  6
Continuous
100
AcDbMText
 10
167.4018073570244
 20
75.95275757685893
 30
0.0
 40
2.499999999999999
 41
0.0
 71
     8
 72
     1
  1
{A}
  7
GENERATED_STYLE_1
 73
     1
 44
1.0
  0
MTEXT
  5
153
330
E3
100
AcDbEntity
  8
0
  6
Continuous
100
AcDbMText
 10
82.90247330043628
 20
45.13644986274809
 30
0.0
 40
2.5
 41
0.0
 71
     7
 72
     1
  1
{EXTRA WIND ZONE.}
  7
GENERATED_STYLE_1
 73
     1
 44
1.0
  0
MTEXT
  5
154
330
E3
100
AcDbEntity
  8
0
  6
Continuous
100
AcDbMText
 10
167.4018073570244
 20
44.07132036672397
 30
0.0
 40
2.499999999999999
 41
0.0
 71
     8
 72
     1
  1
{90MM}
  7
GENERATED_STYLE_1
 73
     1
 44
1.0
  0
MTEXT
  5
155
330
E3
100
AcDbEntity
  8
0
  6
Continuous
100
AcDbMText
 10
191.3718241938124
 20
66.07069065932116
 30
0.0
 40
2.499999999999999
 41
0.0
 71
     8
 72
     1
  1
{2 CRESTS}
  7
GENERATED_STYLE_1
 73
     1
 44
1.0
  0
MTEXT
  5
156
330
E3
100
AcDbEntity
  8
0
  6
Continuous
100
AcDbMText
 10
191.3718241938124
 20
54.83191113786339
 30
0.0
 40
2.499999999999999
 41
0.0
 71
     8
 72
     1
  1
{3 CRESTS}
  7
GENERATED_STYLE_1
 73
     1
 44
1.0
  0
MTEXT
  5
157
330
E3
100
AcDbEntity
  8
0
  6
Continuous
100
AcDbMText
 10
191.3718241938124
 20
75.9527580917946
 30
0.0
 40
2.499999999999999
 41
0.0
 71
     8
 72
     1
  1
{B}
  7
GENERATED_STYLE_1
 73
     1
 44
1.0
  0
MTEXT
  5
158
330
E3
100
AcDbEntity
  8
0
  6
Continuous
100
AcDbMText
 10
191.3718241938124
 20
44.07131777238786
 30
0.0
 40
2.499999999999999
 41
0.0
 71
     8
 72
     1
  1
{3 CRESTS}
  7
GENERATED_STYLE_1
 73
     1
 44
1.0
  0
HATCH
  5
159
330
E3
100
AcDbEntity
  8
0
  6
Continuous
 62
   255
370
     0
100
AcDbHatch
 10
0.0
 20
0.0
 30
0.0
210
0.0
220
0.0
230
1.0
  2
SOLID
 70
     1
 71
     0
 91
        1
 92
        3
 72
     0
 73
     1
 93
        4
 10
114.1060012669633
 20
116.7187869893975
 10
204.3837607741832
 20
116.7187869893975
 10
204.3837607741832
 20
117.6187869893975
 10
114.1060012669633
 20
117.6187869893975
 97
        0
 75
     0
 76
     1
 98
        0
  0
HATCH
  5
15A
330
E3
100
AcDbEntity
  8
0
  6
Continuous
100
AcDbHatch
 10
0.0
 20
0.0
 30
0.0
210
0.0
220
0.0
230
1.0
  2
Plaster_0002
 70
     0
 71
     0
 91
        1
 92
        3
 72
     0
 73
     1
 93
        4
 10
114.1060012669633
 20
116.7187869893975
 10
204.3837607741832
 20
116.7187869893975
 10
204.3837607741832
 20
117.6187869893975
 10
114.1060012669633
 20
117.6187869893975
 97
        0
 75
     0
 76
     2
 52
0.0
 41
1.0
 77
     0
 78
     2
 53
0.0
 43
101.718627297332
 44
77.92816204534589
 45
0.0
 46
1.732050807568877
 79
     2
 49
0.0
 49
-1.0
 53
0.0
 43
102.218627297332
 44
78.7941874335867
 45
0.0
 46
1.732050807568877
 79
     2
 49
0.0
 49
-1.0
 98
        0
  0
LINE
  5
15B
330
E3
100
AcDbEntity
  8
0
  6
Continuous
100
AcDbLine
 10
114.1060000012194
 20
116.7187871951675
 30
0.0
 11
204.383759873376
 21
116.7187871951675
 31
0.0
  0
LINE
  5
15C
330
E3
100
AcDbEntity
  8
0
  6
Continuous
100
AcDbLine
 10
204.383759873376
 20
116.7187871951675
 30
0.0
 11
204.383759873376
 21
117.618785865084
 31
0.0
  0
LINE
  5
15D
330
E3
100
AcDbEntity
  8
0
  6
Continuous
100
AcDbLine
 10
204.383759873376
 20
117.618785865084
 30
0.0
 11
114.1060000012194
 21
117.618785865084
 31
0.0
  0
LINE
  5
15E
330
E3
100
AcDbEntity
  8
0
  6
Continuous
100
AcDbLine
 10
114.1060000012194
 20
117.618785865084
 30
0.0
 11
114.1060000012194
 21
116.7187871951675
 31
0.0
  0
HATCH
  5
15F
330
E3
100
AcDbEntity
  8
0
  6
Continuous
 62
   255
370
     0
100
AcDbHatch
 10
0.0
 20
0.0
 30
0.0
210
0.0
220
0.0
230
1.0
  2
SOLID
 70
     1
 71
     0
 91
        1
 92
        3
 72
     0
 73
     1
 93
        8
 10
163.8156556298119
 20
132.63557075165
 10
169.5841225245136
 20
131.3224939970525
 10
166.0156232130422
 20
111.0845253238595
 10
260.2143653732421
 20
111.0845253238595
 10
268.0459566462901
 20
155.4996929340379
 10
173.8472178087369
 20
155.4996929340379
 10
170.2787151746188
 20
135.2617242608449
 10
176.0471853919672
 20
133.9486475062474
 97
        0
 75
     0
 76
     1
 98
        0
  0
LINE
  5
160
330
E3
100
AcDbEntity
  8
0
  6
Continuous
100
AcDbLine
 10
166.0156232130422
 20
111.0845253238595
 30
0.0
 11
169.5841225245136
 21
131.3224939970525
 31
0.0
  0
LINE
  5
161
330
E3
100
AcDbEntity
  8
0
  6
Continuous
100
AcDbLine
 10
170.2787151746188
 20
135.2617242608449
 30
0.0
 11
173.8472178087369
 21
155.4996929340379
 31
0.0
  0
LINE
  5
162
330
E3
100
AcDbEntity
  8
0
  6
Continuous
100
AcDbLine
 10
170.2787151746188
 20
135.2617242608449
 30
0.0
 11
176.0471853919672
 21
133.9486475062474
 31
0.0
  0
LINE
  5
163
330
E3
100
AcDbEntity
  8
0
  6
Continuous
100
AcDbLine
 10
176.0471853919672
 20
133.9486475062474
 30
0.0
 11
163.8156556298119
 21
132.63557075165
 31
0.0
  0
LINE
  5
164
330
E3
100
AcDbEntity
  8
0
  6
Continuous
100
AcDbLine
 10
163.8156556298119
 20
132.63557075165
 30
0.0
 11
169.5841225245136
 21
131.3224939970525
 31
0.0
  0
MTEXT
  5
165
330
E3
100
AcDbEntity
  8
Doc_ Floor
  6
Continuous
100
AcDbMText
 10
174.7617250435666
 20
102.7555189180127
 30
0.0
 40
2.499999999999999
 41
0.0
 71
     4
 72
     1
  1
{ROOF FRAME}
  7
GENERATED_STYLE_1
 73
     1
 44
1.0
  0
LINE
  5
166
330
E3
100
AcDbEntity
  8
Doc_ Floor
  6
Continuous
100
AcDbLine
 10
154.2045112621574
 20
128.3867861068205
 30
0.0
 11
156.4203610966768
 21
125.2216295251603
 31
0.0
  0
LINE
  5
167
330
E3
100
AcDbEntity
  8
Doc_ Floor
  6
Continuous
100
AcDbLine
 10
154.2045112621574
 20
128.3867861068205
 30
0.0
 11
154.5409126286373
 21
124.5377557333519
 31
0.0
  0
LINE
  5
168
330
E3
100
AcDbEntity
  8
Doc_ Floor
  6
Continuous
100
AcDbLine
 10
156.4203610966768
 20
125.2216295251603
 30
0.0
 11
154.5409126286373
 21
124.5377557333519
 31
0.0
  0
LWPOLYLINE
  5
169
330
E3
100
AcDbEntity
  8
Doc_ Floor
  6
Continuous
100
AcDbPolyline
 90
       15
 70
   128
 43
0.0
 10
155.4806369490709
 20
124.8796920078072
 10
157.7357172829187
 20
119.1954515383227
 10
159.9052706153845
 20
114.469055013598
 10
160.9726800214026
 20
112.4457898086515
 10
162.0363541154397
 20
110.6388754836518
 10
163.102175043617
 20
109.0406086698515
 10
164.1760249520561
 20
107.6432859985027
 10
165.2637859868784
 20
106.4392041008578
 10
166.3713402942053
 20
105.4206596081691
 10
167.5045700201584
 20
104.579949151689
 10
168.6693573108591
 20
103.9093693626698
 10
169.8715843124288
 20
103.4012168723637
 10
171.1171331709889
 20
103.0477883120232
 10
172.411886032661
 20
102.8413803129005
 10
173.7617250435666
 20
102.774289506248
  0
MTEXT
  5
16A
330
E3
100
AcDbEntity
  8
Doc_ Floor
  6
Continuous
100
AcDbMText
 10
156.8969864991714
 20
94.02565033232516
 30
0.0
 40
2.5
 41
0.0
 71
     4
 72
     1
  1
{SOFFIT BOARD}
  7
GENERATED_STYLE_1
 73
     1
 44
1.0
  0
LINE
  5
16B
330
E3
100
AcDbEntity
  8
Doc_ Floor
  6
Continuous
100
AcDbLine
 10
130.3224829685876
 20
116.7187871951675
 30
0.0
 11
133.1021593691669
 21
114.035208382828
 31
0.0
  0
LINE
  5
16C
330
E3
100
AcDbEntity
  8
Doc_ Floor
  6
Continuous
100
AcDbLine
 10
130.3224829685876
 20
116.7187871951675
 30
0.0
 11
131.3879627354093
 21
113.0049021541125
 31
0.0
  0
LINE
  5
16D
330
E3
100
AcDbEntity
  8
Doc_ Floor
  6
Continuous
100
AcDbLine
 10
133.1021593691669
 20
114.035208382828
 30
0.0
 11
131.3879627354093
 21
113.0049021541125
 31
0.0
  0
LWPOLYLINE
  5
16E
330
E3
100
AcDbEntity
  8
Doc_ Floor
  6
Continuous
100
AcDbPolyline
 90
       15
 70
   128
 43
0.0
 10
132.2450599574729
 20
113.5200545041735
 10
135.4749313330238
 20
108.5127659958592
 10
138.5044144069081
 20
104.348986120013
 10
139.9631165136714
 20
102.566472370012
 10
141.3946489645535
 20
100.9745083190241
 10
142.8066542327328
 20
99.56631814734773
 10
144.2067747913878
 20
98.33512603528165
 10
145.6026531136971
 20
97.27415616312449
 10
147.001931672839
 20
96.3766327111749
 10
148.4122529419921
 20
95.63577985973151
 10
149.8412593943348
 20
95.04482178909299
 10
151.2965935030456
 20
94.59698267955798
 10
152.785897741303
 20
94.28548671142511
 10
154.3168145822855
 20
94.10355806499305
 10
155.8969864991714
 20
94.04442092056046
  0
HATCH
  5
16F
330
E3
100
AcDbEntity
  8
0
  6
Continuous
 62
   255
370
     0
100
AcDbHatch
 10
0.0
 20
0.0
 30
0.0
210
0.0
220
0.0
230
1.0
  2
SOLID
 70
     1
 71
     0
 91
        1
 92
        3
 72
     0
 73
     1
 93
        4
 10
136.6453407473535
 20
152.8947201609098
 10
135.1453407473535
 20
152.8947201609098
 10
135.1453407473535
 20
152.3947201609098
 10
136.6453407473535
 20
152.3947201609098
 97
        0
 75
     0
 76
     1
 98
        0
  0
HATCH
  5
170
330
E3
100
AcDbEntity
  8
0
  6
Continuous
 62
   255
370
     0
100
AcDbHatch
 10
0.0
 20
0.0
 30
0.0
210
0.0
220
0.0
230
1.0
  2
SOLID
 70
     1
 71
     0
 91
        1
 92
        3
 72
     1
 73
     1
 93
        4
 10
136.3953407473535
 20
152.8113868275765
 42
0.1666666666666667
 10
135.3953407473535
 20
152.8113868275765
 42
0.0
 10
135.3953407473535
 20
152.4780534942431
 42
0.1666666666666667
 10
136.3953407473535
 20
152.4780534942431
 42
0.0
 97
        0
 75
     0
 76
     1
 98
        0
  0
ARC
  5
171
330
E3
100
AcDbEntity
  8
0
  6
Continuous
100
AcDbCircle
 10
135.8953407473535
 20
151.3530534942431
 30
0.0
 40
1.541666666666673
100
AcDbArc
 50
71.07535558394882
 51
108.9246444160512
  0
LINE
  5
172
330
E3
100
AcDbEntity
  8
0
  6
Continuous
100
AcDbLine
 10
135.3953404832898
 20
152.8113859954255
 30
0.0
 11
135.3953404832898
 21
152.4780547545086
 31
0.0
  0
ARC
  5
173
330
E3
100
AcDbEntity
  8
0
  6
Continuous
100
AcDbCircle
 10
135.8953407473535
 20
153.9363868275765
 30
0.0
 40
1.541666666666673
100
AcDbArc
 50
251.0753555839488
 51
288.9246444160512
  0
LINE
  5
174
330
E3
100
AcDbEntity
  8
0
  6
Continuous
100
AcDbLine
 10
136.3953408513341
 20
152.4780547545086
 30
0.0
 11
136.3953408513341
 21
152.8113859954255
 31
0.0
  0
HATCH
  5
175
330
E3
100
AcDbEntity
  8
0
  6
Continuous
 62
   255
370
     0
100
AcDbHatch
 10
0.0
 20
0.0
 30
0.0
210
0.0
220
0.0
230
1.0
  2
SOLID
 70
     1
 71
     0
 91
        1
 92
        3
 72
     1
 73
     1
 93
        4
 10
136.8953407473535
 20
152.8113868275765
 42
0.3333333333333333
 10
136.3953407473535
 20
152.8113868275765
 42
0.0
 10
136.3953407473535
 20
152.4780534942431
 42
0.3333333333333333
 10
136.8953407473535
 20
152.4780534942431
 42
0.0
 97
        0
 75
     0
 76
     1
 98
        0
  0
ARC
  5
176
330
E3
100
AcDbEntity
  8
0
  6
Continuous
100
AcDbCircle
 10
136.6453407473535
 20
152.4780534942431
 30
0.0
 40
0.4166666666666763
100
AcDbArc
 50
53.13010235415216
 51
126.8698976458394
  0
LINE
  5
177
330
E3
100
AcDbEntity
  8
0
  6
Continuous
100
AcDbLine
 10
136.3953408513341
 20
152.8113859954255
 30
0.0
 11
136.3953408513341
 21
152.4780547545086
 31
0.0
  0
ARC
  5
178
330
E3
100
AcDbEntity
  8
0
  6
Continuous
100
AcDbCircle
 10
136.6453407473535
 20
152.8113868275765
 30
0.0
 40
0.4166666666666596
100
AcDbArc
 50
233.1301023541552
 51
306.8698976458448
  0
LINE
  5
179
330
E3
100
AcDbEntity
  8
0
  6
Continuous
100
AcDbLine
 10
136.8953393740329
 20
152.4780547545086
 30
0.0
 11
136.8953393740329
 21
152.8113859954255
 31
0.0
  0
HATCH
  5
17A
330
E3
100
AcDbEntity
  8
0
  6
Continuous
 62
   255
370
     0
100
AcDbHatch
 10
0.0
 20
0.0
 30
0.0
210
0.0
220
0.0
230
1.0
  2
SOLID
 70
     1
 71
     0
 91
        1
 92
        3
 72
     1
 73
     1
 93
        4
 10
134.8953407473535
 20
152.8113868275765
 42
0.0
 10
134.8953407473535
 20
152.4780534942431
 42
0.3333333333333333
 10
135.3953407473535
 20
152.4780534942431
 42
0.0
 10
135.3953407473535
 20
152.8113868275765
 42
0.3333333333333333
 97
        0
 75
     0
 76
     1
 98
        0
  0
LINE
  5
17B
330
E3
100
AcDbEntity
  8
0
  6
Continuous
100
AcDbLine
 10
134.895341960591
 20
152.4780547545086
 30
0.0
 11
134.895341960591
 21
152.8113859954255
 31
0.0
  0
ARC
  5
17C
330
E3
100
AcDbEntity
  8
0
  6
Continuous
100
AcDbCircle
 10
135.1453407473535
 20
152.8113868275765
 30
0.0
 40
0.4166666666666596
100
AcDbArc
 50
233.1301023541552
 51
306.8698976458448
  0
LINE
  5
17D
330
E3
100
AcDbEntity
  8
0
  6
Continuous
100
AcDbLine
 10
135.3953404832898
 20
152.8113859954255
 30
0.0
 11
135.3953404832898
 21
152.4780547545086
 31
0.0
  0
ARC
  5
17E
330
E3
100
AcDbEntity
  8
0
  6
Continuous
100
AcDbCircle
 10
135.1453407473535
 20
152.4780534942432
 30
0.0
 40
0.4166666666666375
100
AcDbArc
 50
53.13010235415292
 51
126.8698976458448
  0
HATCH
  5
17F
330
E3
100
AcDbEntity
  8
0
  6
Continuous
 62
   255
370
     0
100
AcDbHatch
 10
0.0
 20
0.0
 30
0.0
210
0.0
220
0.0
230
1.0
  2
SOLID
 70
     1
 71
     0
 91
        1
 92
        3
 72
     0
 73
     1
 93
        4
 10
135.5620077473535
 20
152.3947201609098
 10
135.5620077473535
 20
150.7947201609098
 10
136.2286737473535
 20
150.7947201609098
 10
136.2286737473535
 20
152.3947201609098
 97
        0
 75
     0
 76
     1
 98
        0
  0
LINE
  5
180
330
E3
100
AcDbEntity
  8
0
  6
Continuous
100
AcDbLine
 10
135.5620077650717
 20
152.3947194522943
 30
0.0
 11
135.5620077650717
 21
150.7947188634234
 31
0.0
  0
LINE
  5
181
330
E3
100
AcDbEntity
  8
0
  6
Continuous
100
AcDbLine
 10
135.5620077650717
 20
150.7947188634234
 30
0.0
 11
136.2286735695523
 21
150.7947188634234
 31
0.0
  0
LINE
  5
182
330
E3
100
AcDbEntity
  8
0
  6
Continuous
100
AcDbLine
 10
136.2286735695523
 20
150.7947188634234
 30
0.0
 11
136.2286735695523
 21
152.3947194522943
 31
0.0
  0
LINE
  5
183
330
E3
100
AcDbEntity
  8
0
  6
Continuous
100
AcDbLine
 10
136.2286735695523
 20
152.3947194522943
 30
0.0
 11
135.5620077650717
 21
152.3947194522943
 31
0.0
  0
HATCH
  5
184
330
E3
100
AcDbEntity
  8
0
  6
Continuous
 62
   255
370
     0
100
AcDbHatch
 10
0.0
 20
0.0
 30
0.0
210
0.0
220
0.0
230
1.0
  2
SOLID
 70
     1
 71
     0
 91
        1
 92
        3
 72
     0
 73
     1
 93
        5
 10
135.5953407473535
 20
150.7947201609098
 10
135.5953407473534
 20
142.3947201609098
 10
135.8953407473534
 20
141.7947201609098
 10
136.1953407473534
 20
142.3947201609098
 10
136.1953407473534
 20
150.7947201609098
 97
        0
 75
     0
 76
     1
 98
        0
  0
LINE
  5
185
330
E3
100
AcDbEntity
  8
0
  6
Continuous
100
AcDbLine
 10
135.5953405568987
 20
150.7947188634234
 30
0.0
 11
135.5953405568987
 21
142.3947190944982
 31
0.0
  0
LINE
  5
186
330
E3
100
AcDbEntity
  8
0
  6
Continuous
100
AcDbLine
 10
135.5953405568987
 20
142.3947190944982
 30
0.0
 11
135.8953423286353
 21
141.7947188736716
 31
0.0
  0
LINE
  5
187
330
E3
100
AcDbEntity
  8
0
  6
Continuous
100
AcDbLine
 10
135.8953423286353
 20
141.7947188736716
 30
0.0
 11
136.1953407777252
 21
142.3947190944982
 31
0.0
  0
LINE
  5
188
330
E3
100
AcDbEntity
  8
0
  6
Continuous
100
AcDbLine
 10
136.1953407777252
 20
142.3947190944982
 30
0.0
 11
136.1953407777252
 21
150.7947188634234
 31
0.0
  0
LINE
  5
189
330
E3
100
AcDbEntity
  8
0
  6
Continuous
100
AcDbLine
 10
136.1953407777252
 20
150.7947188634234
 30
0.0
 11
135.5953405568987
 21
150.7947188634234
 31
0.0
  0
LINE
  5
18A
330
E3
100
AcDbEntity
  8
0
  6
Continuous
100
AcDbLine
 10
136.6453401126835
 20
152.8947212976398
 30
0.0
 11
135.1453412219404
 21
152.8947212976398
 31
0.0
  0
LINE
  5
18B
330
E3
100
AcDbEntity
  8
0
  6
Continuous
100
AcDbLine
 10
135.1453412219404
 20
152.3947194522943
 30
0.0
 11
136.6453401126835
 21
152.3947194522943
 31
0.0
  0
LINE
  5
18C
330
E3
100
AcDbEntity
  8
0
  6
Continuous
100
AcDbLine
 10
136.3953407473535
 20
150.7947201609098
 30
0.0
 11
136.3934380963993
 21
150.7892853783011
 31
0.0
  0
LINE
  5
18D
330
E3
100
AcDbEntity
  8
0
  6
Continuous
100
AcDbLine
 10
136.3934380963993
 20
150.7892853783011
 30
0.0
 11
136.3877446238596
 21
150.7838505956924
 31
0.0
  0
LINE
  5
18E
330
E3
100
AcDbEntity
  8
0
  6
Continuous
100
AcDbLine
 10
136.3877446238596
 20
150.7838505956924
 30
0.0
 11
136.3783023189887
 21
150.7784146360017
 31
0.0
  0
LINE
  5
18F
330
E3
100
AcDbEntity
  8
0
  6
Continuous
100
AcDbLine
 10
136.3783023189887
 20
150.7784146360017
 30
0.0
 11
136.3651878324116
 21
150.7729821086255
 31
0.0
  0
LINE
  5
190
330
E3
100
AcDbEntity
  8
0
  6
Continuous
100
AcDbLine
 10
136.3651878324116
 20
150.7729821086255
 30
0.0
 11
136.3484948553244
 21
150.7675462586027
 31
0.0
  0
LINE
  5
191
330
E3
100
AcDbEntity
  8
0
  6
Continuous
100
AcDbLine
 10
136.3484948553244
 20
150.7675462586027
 30
0.0
 11
136.3283529709489
 21
150.7621104085799
 31
0.0
  0
LINE
  5
192
330
E3
100
AcDbEntity
  8
0
  6
Continuous
100
AcDbLine
 10
136.3283529709489
 20
150.7621104085799
 30
0.0
 11
136.3049183436805
 21
150.7566778812038
 31
0.0
  0
LINE
  5
193
330
E3
100
AcDbEntity
  8
0
  6
Continuous
100
AcDbLine
 10
136.3049183436805
 20
150.7566778812038
 30
0.0
 11
136.2783637511485
 21
150.751242031181
 31
0.0
  0
LINE
  5
194
330
E3
100
AcDbEntity
  8
0
  6
Continuous
100
AcDbLine
 10
136.2783637511485
 20
150.751242031181
 30
0.0
 11
136.2488951974489
 21
150.7458061811581
 31
0.0
  0
LINE
  5
195
330
E3
100
AcDbEntity
  8
0
  6
Continuous
100
AcDbLine
 10
136.2488951974489
 20
150.7458061811581
 30
0.0
 11
136.2167352999116
 21
150.740373653782
 31
0.0
  0
LINE
  5
196
330
E3
100
AcDbEntity
  8
0
  6
Continuous
100
AcDbLine
 10
136.2167352999116
 20
150.740373653782
 30
0.0
 11
136.1821299343935
 21
150.7349378037592
 31
0.0
  0
LINE
  5
197
330
E3
100
AcDbEntity
  8
0
  6
Continuous
100
AcDbLine
 10
136.1821299343935
 20
150.7349378037592
 30
0.0
 11
136.1453415899847
 21
150.7295019537364
 31
0.0
  0
LINE
  5
198
330
E3
100
AcDbEntity
  8
0
  6
Continuous
100
AcDbLine
 10
136.1453415899847
 20
150.7295019537364
 30
0.0
 11
136.1066493690092
 21
150.7240694263602
 31
0.0
  0
LINE
  5
199
330
E3
100
AcDbEntity
  8
0
  6
Continuous
100
AcDbLine
 10
136.1066493690092
 20
150.7240694263602
 30
0.0
 11
136.0663523096713
 21
150.7186335763374
 31
0.0
  0
LINE
  5
19A
330
E3
100
AcDbEntity
  8
0
  6
Continuous
100
AcDbLine
 10
136.0663523096713
 20
150.7186335763374
 30
0.0
 11
136.0247494501751
 21
150.7131977263146
 31
0.0
  0
LINE
  5
19B
330
E3
100
AcDbEntity
  8
0
  6
Continuous
100
AcDbLine
 10
136.0247494501751
 20
150.7131977263146
 30
0.0
 11
135.9821664098985
 21
150.7077651989385
 31
0.0
  0
LINE
  5
19C
330
E3
100
AcDbEntity
  8
0
  6
Continuous
100
AcDbLine
 10
135.9821664098985
 20
150.7077651989385
 30
0.0
 11
135.9389188402792
 21
150.7023293489156
 31
0.0
  0
LINE
  5
19D
330
E3
100
AcDbEntity
  8
0
  6
Continuous
100
AcDbLine
 10
135.9389188402792
 20
150.7023293489156
 30
0.0
 11
135.8953423286353
 21
150.6968934988928
 31
0.0
  0
LINE
  5
19E
330
E3
100
AcDbEntity
  8
0
  6
Continuous
100
AcDbLine
 10
135.8953423286353
 20
150.6968934988928
 30
0.0
 11
135.8517624943447
 21
150.69145764887
 31
0.0
  0
LINE
  5
19F
330
E3
100
AcDbEntity
  8
0
  6
Continuous
100
AcDbLine
 10
135.8517624943447
 20
150.69145764887
 30
0.0
 11
135.8085182473722
 21
150.6860251214939
 31
0.0
  0
LINE
  5
1A0
330
E3
100
AcDbEntity
  8
0
  6
Continuous
100
AcDbLine
 10
135.8085182473722
 20
150.6860251214939
 30
0.0
 11
135.7659318844488
 21
150.680589271471
 31
0.0
  0
LINE
  5
1A1
330
E3
100
AcDbEntity
  8
0
  6
Continuous
100
AcDbLine
 10
135.7659318844488
 20
150.680589271471
 30
0.0
 11
135.7243290249526
 21
150.6751534214482
 31
0.0
  0
LINE
  5
1A2
330
E3
100
AcDbEntity
  8
0
  6
Continuous
100
AcDbLine
 10
135.7243290249526
 20
150.6751534214482
 30
0.0
 11
135.6840319656147
 21
150.6697208940721
 31
0.0
  0
LINE
  5
1A3
330
E3
100
AcDbEntity
  8
0
  6
Continuous
100
AcDbLine
 10
135.6840319656147
 20
150.6697208940721
 30
0.0
 11
135.6453397446392
 21
150.6642850440493
 31
0.0
  0
LINE
  5
1A4
330
E3
100
AcDbEntity
  8
0
  6
Continuous
100
AcDbLine
 10
135.6453397446392
 20
150.6642850440493
 30
0.0
 11
135.6085514002304
 21
150.6588491940265
 31
0.0
  0
LINE
  5
1A5
330
E3
100
AcDbEntity
  8
0
  6
Continuous
100
AcDbLine
 10
135.6085514002304
 20
150.6588491940265
 30
0.0
 11
135.5739460347122
 21
150.6534166666503
 31
0.0
  0
LINE
  5
1A6
330
E3
100
AcDbEntity
  8
0
  6
Continuous
100
AcDbLine
 10
135.5739460347122
 20
150.6534166666503
 30
0.0
 11
135.541786137175
 21
150.6479808166275
 31
0.0
  0
LINE
  5
1A7
330
E3
100
AcDbEntity
  8
0
  6
Continuous
100
AcDbLine
 10
135.541786137175
 20
150.6479808166275
 30
0.0
 11
135.5123175834754
 21
150.6425449666047
 31
0.0
  0
LINE
  5
1A8
330
E3
100
AcDbEntity
  8
0
  6
Continuous
100
AcDbLine
 10
135.5123175834754
 20
150.6425449666047
 30
0.0
 11
135.4857663135901
 21
150.6371124392286
 31
0.0
  0
LINE
  5
1A9
330
E3
100
AcDbEntity
  8
0
  6
Continuous
100
AcDbLine
 10
135.4857663135901
 20
150.6371124392286
 30
0.0
 11
135.4623283636751
 21
150.6316765892057
 31
0.0
  0
LINE
  5
1AA
330
E3
100
AcDbEntity
  8
0
  6
Continuous
100
AcDbLine
 10
135.4623283636751
 20
150.6316765892057
 30
0.0
 11
135.4421864792995
 21
150.6262407391829
 31
0.0
  0
LINE
  5
1AB
330
E3
100
AcDbEntity
  8
0
  6
Continuous
100
AcDbLine
 10
135.4421864792995
 20
150.6262407391829
 30
0.0
 11
135.4254935022123
 21
150.6208082118068
 31
0.0
  0
LINE
  5
1AC
330
E3
100
AcDbEntity
  8
0
  6
Continuous
100
AcDbLine
 10
135.4254935022123
 20
150.6208082118068
 30
0.0
 11
135.4123790156352
 21
150.615372361784
 31
0.0
  0
LINE
  5
1AD
330
E3
100
AcDbEntity
  8
0
  6
Continuous
100
AcDbLine
 10
135.4123790156352
 20
150.615372361784
 30
0.0
 11
135.4029360536762
 21
150.6099365117611
 31
0.0
  0
LINE
  5
1AE
330
E3
100
AcDbEntity
  8
0
  6
Continuous
100
AcDbLine
 10
135.4029360536762
 20
150.6099365117611
 30
0.0
 11
135.3972433983076
 21
150.6045027696055
 31
0.0
  0
LINE
  5
1AF
330
E3
100
AcDbEntity
  8
0
  6
Continuous
100
AcDbLine
 10
135.3972433983076
 20
150.6045027696055
 30
0.0
 11
135.3953407473535
 21
150.5990679869968
 31
0.0
  0
LINE
  5
1B0
330
E3
100
AcDbEntity
  8
0
  6
Continuous
100
AcDbLine
 10
136.3953407473535
 20
150.4034158130837
 30
0.0
 11
136.3934380963993
 21
150.397981030475
 31
0.0
  0
LINE
  5
1B1
330
E3
100
AcDbEntity
  8
0
  6
Continuous
100
AcDbLine
 10
136.3934380963993
 20
150.397981030475
 30
0.0
 11
136.3877446238596
 21
150.3925462478663
 31
0.0
  0
LINE
  5
1B2
330
E3
100
AcDbEntity
  8
0
  6
Continuous
100
AcDbLine
 10
136.3877446238596
 20
150.3925462478663
 30
0.0
 11
136.3783023189887
 21
150.3871098552325
 31
0.0
  0
LINE
  5
1B3
330
E3
100
AcDbEntity
  8
0
  6
Continuous
100
AcDbLine
 10
136.3783023189887
 20
150.3871098552325
 30
0.0
 11
136.3651878324116
 21
150.3816773278564
 31
0.0
  0
LINE
  5
1B4
330
E3
100
AcDbEntity
  8
0
  6
Continuous
100
AcDbLine
 10
136.3651878324116
 20
150.3816773278564
 30
0.0
 11
136.3484948553244
 21
150.3762414778335
 31
0.0
  0
LINE
  5
1B5
330
E3
100
AcDbEntity
  8
0
  6
Continuous
100
AcDbLine
 10
136.3484948553244
 20
150.3762414778335
 30
0.0
 11
136.3283529709489
 21
150.3708056278107
 31
0.0
  0
LINE
  5
1B6
330
E3
100
AcDbEntity
  8
0
  6
Continuous
100
AcDbLine
 10
136.3283529709489
 20
150.3708056278107
 30
0.0
 11
136.3049183436805
 21
150.3653731004346
 31
0.0
  0
LINE
  5
1B7
330
E3
100
AcDbEntity
  8
0
  6
Continuous
100
AcDbLine
 10
136.3049183436805
 20
150.3653731004346
 30
0.0
 11
136.2783637511485
 21
150.3599372504117
 31
0.0
  0
LINE
  5
1B8
330
E3
100
AcDbEntity
  8
0
  6
Continuous
100
AcDbLine
 10
136.2783637511485
 20
150.3599372504117
 30
0.0
 11
136.2488951974489
 21
150.3545014003889
 31
0.0
  0
LINE
  5
1B9
330
E3
100
AcDbEntity
  8
0
  6
Continuous
100
AcDbLine
 10
136.2488951974489
 20
150.3545014003889
 30
0.0
 11
136.2167352999116
 21
150.3490688730128
 31
0.0
  0
LINE
  5
1BA
330
E3
100
AcDbEntity
  8
0
  6
Continuous
100
AcDbLine
 10
136.2167352999116
 20
150.3490688730128
 30
0.0
 11
136.1821299343935
 21
150.34363302299
 31
0.0
  0
LINE
  5
1BB
330
E3
100
AcDbEntity
  8
0
  6
Continuous
100
AcDbLine
 10
136.1821299343935
 20
150.34363302299
 30
0.0
 11
136.1453415899847
 21
150.3381971729671
 31
0.0
  0
LINE
  5
1BC
330
E3
100
AcDbEntity
  8
0
  6
Continuous
100
AcDbLine
 10
136.1453415899847
 20
150.3381971729671
 30
0.0
 11
136.1066493690092
 21
150.332764645591
 31
0.0
  0
LINE
  5
1BD
330
E3
100
AcDbEntity
  8
0
  6
Continuous
100
AcDbLine
 10
136.1066493690092
 20
150.332764645591
 30
0.0
 11
136.0663523096713
 21
150.3273287955682
 31
0.0
  0
LINE
  5
1BE
330
E3
100
AcDbEntity
  8
0
  6
Continuous
100
AcDbLine
 10
136.0663523096713
 20
150.3273287955682
 30
0.0
 11
136.0247494501751
 21
150.3218929455454
 31
0.0
  0
LINE
  5
1BF
330
E3
100
AcDbEntity
  8
0
  6
Continuous
100
AcDbLine
 10
136.0247494501751
 20
150.3218929455454
 30
0.0
 11
135.9821664098985
 21
150.3164604181693
 31
0.0
  0
LINE
  5
1C0
330
E3
100
AcDbEntity
  8
0
  6
Continuous
100
AcDbLine
 10
135.9821664098985
 20
150.3164604181693
 30
0.0
 11
135.9389188402792
 21
150.3110245681464
 31
0.0
  0
LINE
  5
1C1
330
E3
100
AcDbEntity
  8
0
  6
Continuous
100
AcDbLine
 10
135.9389188402792
 20
150.3110245681464
 30
0.0
 11
135.8953423286353
 21
150.3055887181236
 31
0.0
  0
LINE
  5
1C2
330
E3
100
AcDbEntity
  8
0
  6
Continuous
100
AcDbLine
 10
135.8953423286353
 20
150.3055887181236
 30
0.0
 11
135.8517624943447
 21
150.3001561907475
 31
0.0
  0
LINE
  5
1C3
330
E3
100
AcDbEntity
  8
0
  6
Continuous
100
AcDbLine
 10
135.8517624943447
 20
150.3001561907475
 30
0.0
 11
135.8085182473722
 21
150.2947203407247
 31
0.0
  0
LINE
  5
1C4
330
E3
100
AcDbEntity
  8
0
  6
Continuous
100
AcDbLine
 10
135.8085182473722
 20
150.2947203407247
 30
0.0
 11
135.7659318844488
 21
150.2892844907018
 31
0.0
  0
LINE
  5
1C5
330
E3
100
AcDbEntity
  8
0
  6
Continuous
100
AcDbLine
 10
135.7659318844488
 20
150.2892844907018
 30
0.0
 11
135.7243290249526
 21
150.2838519633257
 31
0.0
  0
LINE
  5
1C6
330
E3
100
AcDbEntity
  8
0
  6
Continuous
100
AcDbLine
 10
135.7243290249526
 20
150.2838519633257
 30
0.0
 11
135.6840319656147
 21
150.2784161133029
 31
0.0
  0
LINE
  5
1C7
330
E3
100
AcDbEntity
  8
0
  6
Continuous
100
AcDbLine
 10
135.6840319656147
 20
150.2784161133029
 30
0.0
 11
135.6453397446392
 21
150.2729802632801
 31
0.0
  0
LINE
  5
1C8
330
E3
100
AcDbEntity
  8
0
  6
Continuous
100
AcDbLine
 10
135.6453397446392
 20
150.2729802632801
 30
0.0
 11
135.6085514002304
 21
150.2675477359039
 31
0.0
  0
LINE
  5
1C9
330
E3
100
AcDbEntity
  8
0
  6
Continuous
100
AcDbLine
 10
135.6085514002304
 20
150.2675477359039
 30
0.0
 11
135.5739460347122
 21
150.2621118858811
 31
0.0
  0
LINE
  5
1CA
330
E3
100
AcDbEntity
  8
0
  6
Continuous
100
AcDbLine
 10
135.5739460347122
 20
150.2621118858811
 30
0.0
 11
135.541786137175
 21
150.2566760358583
 31
0.0
  0
LINE
  5
1CB
330
E3
100
AcDbEntity
  8
0
  6
Continuous
100
AcDbLine
 10
135.541786137175
 20
150.2566760358583
 30
0.0
 11
135.5123175834754
 21
150.2512435084822
 31
0.0
  0
LINE
  5
1CC
330
E3
100
AcDbEntity
  8
0
  6
Continuous
100
AcDbLine
 10
135.5123175834754
 20
150.2512435084822
 30
0.0
 11
135.4857663135901
 21
150.2458076584593
 31
0.0
  0
LINE
  5
1CD
330
E3
100
AcDbEntity
  8
0
  6
Continuous
100
AcDbLine
 10
135.4857663135901
 20
150.2458076584593
 30
0.0
 11
135.4623283636751
 21
150.2403718084365
 31
0.0
  0
LINE
  5
1CE
330
E3
100
AcDbEntity
  8
0
  6
Continuous
100
AcDbLine
 10
135.4623283636751
 20
150.2403718084365
 30
0.0
 11
135.4421864792995
 21
150.2349359584137
 31
0.0
  0
LINE
  5
1CF
330
E3
100
AcDbEntity
  8
0
  6
Continuous
100
AcDbLine
 10
135.4421864792995
 20
150.2349359584137
 30
0.0
 11
135.4254935022123
 21
150.2295034310376
 31
0.0
  0
LINE
  5
1D0
330
E3
100
AcDbEntity
  8
0
  6
Continuous
100
AcDbLine
 10
135.4254935022123
 20
150.2295034310376
 30
0.0
 11
135.4123790156352
 21
150.2240675810148
 31
0.0
  0
LINE
  5
1D1
330
E3
100
AcDbEntity
  8
0
  6
Continuous
100
AcDbLine
 10
135.4123790156352
 20
150.2240675810148
 30
0.0
 11
135.4029360536762
 21
150.2186317309919
 31
0.0
  0
LINE
  5
1D2
330
E3
100
AcDbEntity
  8
0
  6
Continuous
100
AcDbLine
 10
135.4029360536762
 20
150.2186317309919
 30
0.0
 11
135.3972433983076
 21
150.2131984217794
 31
0.0
  0
LINE
  5
1D3
330
E3
100
AcDbEntity
  8
0
  6
Continuous
100
AcDbLine
 10
135.3972433983076
 20
150.2131984217794
 30
0.0
 11
135.3953407473535
 21
150.2077636391707
 31
0.0
  0
LINE
  5
1D4
330
E3
100
AcDbEntity
  8
0
  6
Continuous
100
AcDbLine
 10
136.3953407473535
 20
150.0121114652576
 30
0.0
 11
136.3934380963993
 21
150.0066766826489
 31
0.0
  0
LINE
  5
1D5
330
E3
100
AcDbEntity
  8
0
  6
Continuous
100
AcDbLine
 10
136.3934380963993
 20
150.0066766826489
 30
0.0
 11
136.3877446238596
 21
150.0012419000402
 31
0.0
  0
LINE
  5
1D6
330
E3
100
AcDbEntity
  8
0
  6
Continuous
100
AcDbLine
 10
136.3877446238596
 20
150.0012419000402
 30
0.0
 11
136.3783023189887
 21
149.99580839711
 31
0.0
  0
LINE
  5
1D7
330
E3
100
AcDbEntity
  8
0
  6
Continuous
100
AcDbLine
 10
136.3783023189887
 20
149.99580839711
 30
0.0
 11
136.3651878324116
 21
149.9903725470871
 31
0.0
  0
LINE
  5
1D8
330
E3
100
AcDbEntity
  8
0
  6
Continuous
100
AcDbLine
 10
136.3651878324116
 20
149.9903725470871
 30
0.0
 11
136.3484948553244
 21
149.9849366970643
 31
0.0
  0
LINE
  5
1D9
330
E3
100
AcDbEntity
  8
0
  6
Continuous
100
AcDbLine
 10
136.3484948553244
 20
149.9849366970643
 30
0.0
 11
136.3283529709489
 21
149.9795041696882
 31
0.0
  0
LINE
  5
1DA
330
E3
100
AcDbEntity
  8
0
  6
Continuous
100
AcDbLine
 10
136.3283529709489
 20
149.9795041696882
 30
0.0
 11
136.3049183436805
 21
149.9740683196654
 31
0.0
  0
LINE
  5
1DB
330
E3
100
AcDbEntity
  8
0
  6
Continuous
100
AcDbLine
 10
136.3049183436805
 20
149.9740683196654
 30
0.0
 11
136.2783637511485
 21
149.9686324696425
 31
0.0
  0
LINE
  5
1DC
330
E3
100
AcDbEntity
  8
0
  6
Continuous
100
AcDbLine
 10
136.2783637511485
 20
149.9686324696425
 30
0.0
 11
136.2488951974489
 21
149.9631999422664
 31
0.0
  0
LINE
  5
1DD
330
E3
100
AcDbEntity
  8
0
  6
Continuous
100
AcDbLine
 10
136.2488951974489
 20
149.9631999422664
 30
0.0
 11
136.2167352999116
 21
149.9577640922436
 31
0.0
  0
LINE
  5
1DE
330
E3
100
AcDbEntity
  8
0
  6
Continuous
100
AcDbLine
 10
136.2167352999116
 20
149.9577640922436
 30
0.0
 11
136.1821299343935
 21
149.9523282422208
 31
0.0
  0
LINE
  5
1DF
330
E3
100
AcDbEntity
  8
0
  6
Continuous
100
AcDbLine
 10
136.1821299343935
 20
149.9523282422208
 30
0.0
 11
136.1453415899847
 21
149.9468957148447
 31
0.0
  0
LINE
  5
1E0
330
E3
100
AcDbEntity
  8
0
  6
Continuous
100
AcDbLine
 10
136.1453415899847
 20
149.9468957148447
 30
0.0
 11
136.1066493690092
 21
149.9414598648218
 31
0.0
  0
LINE
  5
1E1
330
E3
100
AcDbEntity
  8
0
  6
Continuous
100
AcDbLine
 10
136.1066493690092
 20
149.9414598648218
 30
0.0
 11
136.0663523096713
 21
149.936024014799
 31
0.0
  0
LINE
  5
1E2
330
E3
100
AcDbEntity
  8
0
  6
Continuous
100
AcDbLine
 10
136.0663523096713
 20
149.936024014799
 30
0.0
 11
136.0247494501751
 21
149.9305881647762
 31
0.0
  0
LINE
  5
1E3
330
E3
100
AcDbEntity
  8
0
  6
Continuous
100
AcDbLine
 10
136.0247494501751
 20
149.9305881647762
 30
0.0
 11
135.9821664098985
 21
149.9251556374001
 31
0.0
  0
LINE
  5
1E4
330
E3
100
AcDbEntity
  8
0
  6
Continuous
100
AcDbLine
 10
135.9821664098985
 20
149.9251556374001
 30
0.0
 11
135.9389188402792
 21
149.9197197873772
 31
0.0
  0
LINE
  5
1E5
330
E3
100
AcDbEntity
  8
0
  6
Continuous
100
AcDbLine
 10
135.9389188402792
 20
149.9197197873772
 30
0.0
 11
135.8953423286353
 21
149.9142839373544
 31
0.0
  0
LINE
  5
1E6
330
E3
100
AcDbEntity
  8
0
  6
Continuous
100
AcDbLine
 10
135.8953423286353
 20
149.9142839373544
 30
0.0
 11
135.8517624943447
 21
149.9088514099783
 31
0.0
  0
LINE
  5
1E7
330
E3
100
AcDbEntity
  8
0
  6
Continuous
100
AcDbLine
 10
135.8517624943447
 20
149.9088514099783
 30
0.0
 11
135.8085182473722
 21
149.9034155599554
 31
0.0
  0
LINE
  5
1E8
330
E3
100
AcDbEntity
  8
0
  6
Continuous
100
AcDbLine
 10
135.8085182473722
 20
149.9034155599554
 30
0.0
 11
135.7659318844488
 21
149.8979797099326
 31
0.0
  0
LINE
  5
1E9
330
E3
100
AcDbEntity
  8
0
  6
Continuous
100
AcDbLine
 10
135.7659318844488
 20
149.8979797099326
 30
0.0
 11
135.7243290249526
 21
149.8925471825565
 31
0.0
  0
LINE
  5
1EA
330
E3
100
AcDbEntity
  8
0
  6
Continuous
100
AcDbLine
 10
135.7243290249526
 20
149.8925471825565
 30
0.0
 11
135.6840319656147
 21
149.8871113325337
 31
0.0
  0
LINE
  5
1EB
330
E3
100
AcDbEntity
  8
0
  6
Continuous
100
AcDbLine
 10
135.6840319656147
 20
149.8871113325337
 30
0.0
 11
135.6453397446392
 21
149.8816754825108
 31
0.0
  0
LINE
  5
1EC
330
E3
100
AcDbEntity
  8
0
  6
Continuous
100
AcDbLine
 10
135.6453397446392
 20
149.8816754825108
 30
0.0
 11
135.6085514002304
 21
149.8762429551347
 31
0.0
  0
LINE
  5
1ED
330
E3
100
AcDbEntity
  8
0
  6
Continuous
100
AcDbLine
 10
135.6085514002304
 20
149.8762429551347
 30
0.0
 11
135.5739460347122
 21
149.8708071051119
 31
0.0
  0
LINE
  5
1EE
330
E3
100
AcDbEntity
  8
0
  6
Continuous
100
AcDbLine
 10
135.5739460347122
 20
149.8708071051119
 30
0.0
 11
135.541786137175
 21
149.8653712550891
 31
0.0
  0
LINE
  5
1EF
330
E3
100
AcDbEntity
  8
0
  6
Continuous
100
AcDbLine
 10
135.541786137175
 20
149.8653712550891
 30
0.0
 11
135.5123175834754
 21
149.859938727713
 31
0.0
  0
LINE
  5
1F0
330
E3
100
AcDbEntity
  8
0
  6
Continuous
100
AcDbLine
 10
135.5123175834754
 20
149.859938727713
 30
0.0
 11
135.4857663135901
 21
149.8545028776901
 31
0.0
  0
LINE
  5
1F1
330
E3
100
AcDbEntity
  8
0
  6
Continuous
100
AcDbLine
 10
135.4857663135901
 20
149.8545028776901
 30
0.0
 11
135.4623283636751
 21
149.8490670276673
 31
0.0
  0
LINE
  5
1F2
330
E3
100
AcDbEntity
  8
0
  6
Continuous
100
AcDbLine
 10
135.4623283636751
 20
149.8490670276673
 30
0.0
 11
135.4421864792995
 21
149.8436345002912
 31
0.0
  0
LINE
  5
1F3
330
E3
100
AcDbEntity
  8
0
  6
Continuous
100
AcDbLine
 10
135.4421864792995
 20
149.8436345002912
 30
0.0
 11
135.4254935022123
 21
149.8381986502683
 31
0.0
  0
LINE
  5
1F4
330
E3
100
AcDbEntity
  8
0
  6
Continuous
100
AcDbLine
 10
135.4254935022123
 20
149.8381986502683
 30
0.0
 11
135.4123790156352
 21
149.8327628002455
 31
0.0
  0
LINE
  5
1F5
330
E3
100
AcDbEntity
  8
0
  6
Continuous
100
AcDbLine
 10
135.4123790156352
 20
149.8327628002455
 30
0.0
 11
135.4029360536762
 21
149.8273302728694
 31
0.0
  0
LINE
  5
1F6
330
E3
100
AcDbEntity
  8
0
  6
Continuous
100
AcDbLine
 10
135.4029360536762
 20
149.8273302728694
 30
0.0
 11
135.3972433983076
 21
149.8218940739533
 31
0.0
  0
LINE
  5
1F7
330
E3
100
AcDbEntity
  8
0
  6
Continuous
100
AcDbLine
 10
135.3972433983076
 20
149.8218940739533
 30
0.0
 11
135.3953407473535
 21
149.8164592913446
 31
0.0
  0
LINE
  5
1F8
330
E3
100
AcDbEntity
  8
0
  6
Continuous
100
AcDbLine
 10
136.3953407473535
 20
149.6208071174315
 30
0.0
 11
136.3934380963993
 21
149.6153723348229
 31
0.0
  0
LINE
  5
1F9
330
E3
100
AcDbEntity
  8
0
  6
Continuous
100
AcDbLine
 10
136.3934380963993
 20
149.6153723348229
 30
0.0
 11
136.3877446238596
 21
149.6099375522141
 31
0.0
  0
LINE
  5
1FA
330
E3
100
AcDbEntity
  8
0
  6
Continuous
100
AcDbLine
 10
136.3877446238596
 20
149.6099375522141
 30
0.0
 11
136.3783023189887
 21
149.6045036163407
 31
0.0
  0
LINE
  5
1FB
330
E3
100
AcDbEntity
  8
0
  6
Continuous
100
AcDbLine
 10
136.3783023189887
 20
149.6045036163407
 30
0.0
 11
136.3651878324116
 21
149.5990677663179
 31
0.0
  0
LINE
  5
1FC
330
E3
100
AcDbEntity
  8
0
  6
Continuous
100
AcDbLine
 10
136.3651878324116
 20
149.5990677663179
 30
0.0
 11
136.3484948553244
 21
149.5936319162951
 31
0.0
  0
LINE
  5
1FD
330
E3
100
AcDbEntity
  8
0
  6
Continuous
100
AcDbLine
 10
136.3484948553244
 20
149.5936319162951
 30
0.0
 11
136.3283529709489
 21
149.588199388919
 31
0.0
  0
LINE
  5
1FE
330
E3
100
AcDbEntity
  8
0
  6
Continuous
100
AcDbLine
 10
136.3283529709489
 20
149.588199388919
 30
0.0
 11
136.3049183436805
 21
149.5827635388961
 31
0.0
  0
LINE
  5
1FF
330
E3
100
AcDbEntity
  8
0
  6
Continuous
100
AcDbLine
 10
136.3049183436805
 20
149.5827635388961
 30
0.0
 11
136.2783637511485
 21
149.5773276888733
 31
0.0
  0
LINE
  5
200
330
E3
100
AcDbEntity
  8
0
  6
Continuous
100
AcDbLine
 10
136.2783637511485
 20
149.5773276888733
 30
0.0
 11
136.2488951974489
 21
149.5718951614972
 31
0.0
  0
LINE
  5
201
330
E3
100
AcDbEntity
  8
0
  6
Continuous
100
AcDbLine
 10
136.2488951974489
 20
149.5718951614972
 30
0.0
 11
136.2167352999116
 21
149.5664593114743
 31
0.0
  0
LINE
  5
202
330
E3
100
AcDbEntity
  8
0
  6
Continuous
100
AcDbLine
 10
136.2167352999116
 20
149.5664593114743
 30
0.0
 11
136.1821299343935
 21
149.5610234614515
 31
0.0
  0
LINE
  5
203
330
E3
100
AcDbEntity
  8
0
  6
Continuous
100
AcDbLine
 10
136.1821299343935
 20
149.5610234614515
 30
0.0
 11
136.1453415899847
 21
149.5555909340754
 31
0.0
  0
LINE
  5
204
330
E3
100
AcDbEntity
  8
0
  6
Continuous
100
AcDbLine
 10
136.1453415899847
 20
149.5555909340754
 30
0.0
 11
136.1066493690092
 21
149.5501550840526
 31
0.0
  0
LINE
  5
205
330
E3
100
AcDbEntity
  8
0
  6
Continuous
100
AcDbLine
 10
136.1066493690092
 20
149.5501550840526
 30
0.0
 11
136.0663523096713
 21
149.5447192340298
 31
0.0
  0
LINE
  5
206
330
E3
100
AcDbEntity
  8
0
  6
Continuous
100
AcDbLine
 10
136.0663523096713
 20
149.5447192340298
 30
0.0
 11
136.0247494501751
 21
149.5392867066537
 31
0.0
  0
LINE
  5
207
330
E3
100
AcDbEntity
  8
0
  6
Continuous
100
AcDbLine
 10
136.0247494501751
 20
149.5392867066537
 30
0.0
 11
135.9821664098985
 21
149.5338508566308
 31
0.0
  0
LINE
  5
208
330
E3
100
AcDbEntity
  8
0
  6
Continuous
100
AcDbLine
 10
135.9821664098985
 20
149.5338508566308
 30
0.0
 11
135.9389188402792
 21
149.528415006608
 31
0.0
  0
LINE
  5
209
330
E3
100
AcDbEntity
  8
0
  6
Continuous
100
AcDbLine
 10
135.9389188402792
 20
149.528415006608
 30
0.0
 11
135.8953423286353
 21
149.5229824792319
 31
0.0
  0
LINE
  5
20A
330
E3
100
AcDbEntity
  8
0
  6
Continuous
100
AcDbLine
 10
135.8953423286353
 20
149.5229824792319
 30
0.0
 11
135.8517624943447
 21
149.5175466292091
 31
0.0
  0
LINE
  5
20B
330
E3
100
AcDbEntity
  8
0
  6
Continuous
100
AcDbLine
 10
135.8517624943447
 20
149.5175466292091
 30
0.0
 11
135.8085182473722
 21
149.5121107791862
 31
0.0
  0
LINE
  5
20C
330
E3
100
AcDbEntity
  8
0
  6
Continuous
100
AcDbLine
 10
135.8085182473722
 20
149.5121107791862
 30
0.0
 11
135.7659318844488
 21
149.5066782518101
 31
0.0
  0
LINE
  5
20D
330
E3
100
AcDbEntity
  8
0
  6
Continuous
100
AcDbLine
 10
135.7659318844488
 20
149.5066782518101
 30
0.0
 11
135.7243290249526
 21
149.5012424017873
 31
0.0
  0
LINE
  5
20E
330
E3
100
AcDbEntity
  8
0
  6
Continuous
100
AcDbLine
 10
135.7243290249526
 20
149.5012424017873
 30
0.0
 11
135.6840319656147
 21
149.4958065517644
 31
0.0
  0
LINE
  5
20F
330
E3
100
AcDbEntity
  8
0
  6
Continuous
100
AcDbLine
 10
135.6840319656147
 20
149.4958065517644
 30
0.0
 11
135.6453397446392
 21
149.4903707017416
 31
0.0
  0
LINE
  5
210
330
E3
100
AcDbEntity
  8
0
  6
Continuous
100
AcDbLine
 10
135.6453397446392
 20
149.4903707017416
 30
0.0
 11
135.6085514002304
 21
149.4849381743655
 31
0.0
  0
LINE
  5
211
330
E3
100
AcDbEntity
  8
0
  6
Continuous
100
AcDbLine
 10
135.6085514002304
 20
149.4849381743655
 30
0.0
 11
135.5739460347122
 21
149.4795023243427
 31
0.0
  0
LINE
  5
212
330
E3
100
AcDbEntity
  8
0
  6
Continuous
100
AcDbLine
 10
135.5739460347122
 20
149.4795023243427
 30
0.0
 11
135.541786137175
 21
149.4740664743198
 31
0.0
  0
LINE
  5
213
330
E3
100
AcDbEntity
  8
0
  6
Continuous
100
AcDbLine
 10
135.541786137175
 20
149.4740664743198
 30
0.0
 11
135.5123175834754
 21
149.4686339469437
 31
0.0
  0
LINE
  5
214
330
E3
100
AcDbEntity
  8
0
  6
Continuous
100
AcDbLine
 10
135.5123175834754
 20
149.4686339469437
 30
0.0
 11
135.4857663135901
 21
149.4631980969209
 31
0.0
  0
LINE
  5
215
330
E3
100
AcDbEntity
  8
0
  6
Continuous
100
AcDbLine
 10
135.4857663135901
 20
149.4631980969209
 30
0.0
 11
135.4623283636751
 21
149.4577622468981
 31
0.0
  0
LINE
  5
216
330
E3
100
AcDbEntity
  8
0
  6
Continuous
100
AcDbLine
 10
135.4623283636751
 20
149.4577622468981
 30
0.0
 11
135.4421864792995
 21
149.452329719522
 31
0.0
  0
LINE
  5
217
330
E3
100
AcDbEntity
  8
0
  6
Continuous
100
AcDbLine
 10
135.4421864792995
 20
149.452329719522
 30
0.0
 11
135.4254935022123
 21
149.4468938694991
 31
0.0
  0
LINE
  5
218
330
E3
100
AcDbEntity
  8
0
  6
Continuous
100
AcDbLine
 10
135.4254935022123
 20
149.4468938694991
 30
0.0
 11
135.4123790156352
 21
149.4414580194763
 31
0.0
  0
LINE
  5
219
330
E3
100
AcDbEntity
  8
0
  6
Continuous
100
AcDbLine
 10
135.4123790156352
 20
149.4414580194763
 30
0.0
 11
135.4029360536762
 21
149.4360254921002
 31
0.0
  0
LINE
  5
21A
330
E3
100
AcDbEntity
  8
0
  6
Continuous
100
AcDbLine
 10
135.4029360536762
 20
149.4360254921002
 30
0.0
 11
135.3972433983076
 21
149.4305897261272
 31
0.0
  0
LINE
  5
21B
330
E3
100
AcDbEntity
  8
0
  6
Continuous
100
AcDbLine
 10
135.3972433983076
 20
149.4305897261272
 30
0.0
 11
135.3953407473535
 21
149.4251549435185
 31
0.0
  0
LINE
  5
21C
330
E3
100
AcDbEntity
  8
0
  6
Continuous
100
AcDbLine
 10
136.3953407473535
 20
149.2295027696055
 30
0.0
 11
136.3934380963993
 21
149.2240679869968
 31
0.0
  0
LINE
  5
21D
330
E3
100
AcDbEntity
  8
0
  6
Continuous
100
AcDbLine
 10
136.3934380963993
 20
149.2240679869968
 30
0.0
 11
136.3877446238596
 21
149.2186332043881
 31
0.0
  0
LINE
  5
21E
330
E3
100
AcDbEntity
  8
0
  6
Continuous
100
AcDbLine
 10
136.3877446238596
 20
149.2186332043881
 30
0.0
 11
136.3783023189887
 21
149.2131988355715
 31
0.0
  0
LINE
  5
21F
330
E3
100
AcDbEntity
  8
0
  6
Continuous
100
AcDbLine
 10
136.3783023189887
 20
149.2131988355715
 30
0.0
 11
136.3651878324116
 21
149.2077629855487
 31
0.0
  0
LINE
  5
220
330
E3
100
AcDbEntity
  8
0
  6
Continuous
100
AcDbLine
 10
136.3651878324116
 20
149.2077629855487
 30
0.0
 11
136.3484948553244
 21
149.2023304581726
 31
0.0
  0
LINE
  5
221
330
E3
100
AcDbEntity
  8
0
  6
Continuous
100
AcDbLine
 10
136.3484948553244
 20
149.2023304581726
 30
0.0
 11
136.3283529709489
 21
149.1968946081498
 31
0.0
  0
LINE
  5
222
330
E3
100
AcDbEntity
  8
0
  6
Continuous
100
AcDbLine
 10
136.3283529709489
 20
149.1968946081498
 30
0.0
 11
136.3049183436805
 21
149.1914587581269
 31
0.0
  0
LINE
  5
223
330
E3
100
AcDbEntity
  8
0
  6
Continuous
100
AcDbLine
 10
136.3049183436805
 20
149.1914587581269
 30
0.0
 11
136.2783637511485
 21
149.1860229081041
 31
0.0
  0
LINE
  5
224
330
E3
100
AcDbEntity
  8
0
  6
Continuous
100
AcDbLine
 10
136.2783637511485
 20
149.1860229081041
 30
0.0
 11
136.2488951974489
 21
149.180590380728
 31
0.0
  0
LINE
  5
225
330
E3
100
AcDbEntity
  8
0
  6
Continuous
100
AcDbLine
 10
136.2488951974489
 20
149.180590380728
 30
0.0
 11
136.2167352999116
 21
149.1751545307051
 31
0.0
  0
LINE
  5
226
330
E3
100
AcDbEntity
  8
0
  6
Continuous
100
AcDbLine
 10
136.2167352999116
 20
149.1751545307051
 30
0.0
 11
136.1821299343935
 21
149.1697186806823
 31
0.0
  0
LINE
  5
227
330
E3
100
AcDbEntity
  8
0
  6
Continuous
100
AcDbLine
 10
136.1821299343935
 20
149.1697186806823
 30
0.0
 11
136.1453415899847
 21
149.1642861533062
 31
0.0
  0
LINE
  5
228
330
E3
100
AcDbEntity
  8
0
  6
Continuous
100
AcDbLine
 10
136.1453415899847
 20
149.1642861533062
 30
0.0
 11
136.1066493690092
 21
149.1588503032833
 31
0.0
  0
LINE
  5
229
330
E3
100
AcDbEntity
  8
0
  6
Continuous
100
AcDbLine
 10
136.1066493690092
 20
149.1588503032833
 30
0.0
 11
136.0663523096713
 21
149.1534144532606
 31
0.0
  0
LINE
  5
22A
330
E3
100
AcDbEntity
  8
0
  6
Continuous
100
AcDbLine
 10
136.0663523096713
 20
149.1534144532606
 30
0.0
 11
136.0247494501751
 21
149.1479819258844
 31
0.0
  0
LINE
  5
22B
330
E3
100
AcDbEntity
  8
0
  6
Continuous
100
AcDbLine
 10
136.0247494501751
 20
149.1479819258844
 30
0.0
 11
135.9821664098985
 21
149.1425460758616
 31
0.0
  0
LINE
  5
22C
330
E3
100
AcDbEntity
  8
0
  6
Continuous
100
AcDbLine
 10
135.9821664098985
 20
149.1425460758616
 30
0.0
 11
135.9389188402792
 21
149.1371102258388
 31
0.0
  0
LINE
  5
22D
330
E3
100
AcDbEntity
  8
0
  6
Continuous
100
AcDbLine
 10
135.9389188402792
 20
149.1371102258388
 30
0.0
 11
135.8953423286353
 21
149.1316776984627
 31
0.0
  0
LINE
  5
22E
330
E3
100
AcDbEntity
  8
0
  6
Continuous
100
AcDbLine
 10
135.8953423286353
 20
149.1316776984627
 30
0.0
 11
135.8517624943447
 21
149.1262418484398
 31
0.0
  0
LINE
  5
22F
330
E3
100
AcDbEntity
  8
0
  6
Continuous
100
AcDbLine
 10
135.8517624943447
 20
149.1262418484398
 30
0.0
 11
135.8085182473722
 21
149.120805998417
 31
0.0
  0
LINE
  5
230
330
E3
100
AcDbEntity
  8
0
  6
Continuous
100
AcDbLine
 10
135.8085182473722
 20
149.120805998417
 30
0.0
 11
135.7659318844488
 21
149.1153734710409
 31
0.0
  0
LINE
  5
231
330
E3
100
AcDbEntity
  8
0
  6
Continuous
100
AcDbLine
 10
135.7659318844488
 20
149.1153734710409
 30
0.0
 11
135.7243290249526
 21
149.1099376210181
 31
0.0
  0
LINE
  5
232
330
E3
100
AcDbEntity
  8
0
  6
Continuous
100
AcDbLine
 10
135.7243290249526
 20
149.1099376210181
 30
0.0
 11
135.6840319656147
 21
149.1045017709952
 31
0.0
  0
LINE
  5
233
330
E3
100
AcDbEntity
  8
0
  6
Continuous
100
AcDbLine
 10
135.6840319656147
 20
149.1045017709952
 30
0.0
 11
135.6453397446392
 21
149.0990692436191
 31
0.0
  0
LINE
  5
234
330
E3
100
AcDbEntity
  8
0
  6
Continuous
100
AcDbLine
 10
135.6453397446392
 20
149.0990692436191
 30
0.0
 11
135.6085514002304
 21
149.0936333935963
 31
0.0
  0
LINE
  5
235
330
E3
100
AcDbEntity
  8
0
  6
Continuous
100
AcDbLine
 10
135.6085514002304
 20
149.0936333935963
 30
0.0
 11
135.5739460347122
 21
149.0881975435735
 31
0.0
  0
LINE
  5
236
330
E3
100
AcDbEntity
  8
0
  6
Continuous
100
AcDbLine
 10
135.5739460347122
 20
149.0881975435735
 30
0.0
 11
135.541786137175
 21
149.0827650161974
 31
0.0
  0
LINE
  5
237
330
E3
100
AcDbEntity
  8
0
  6
Continuous
100
AcDbLine
 10
135.541786137175
 20
149.0827650161974
 30
0.0
 11
135.5123175834754
 21
149.0773291661745
 31
0.0
  0
LINE
  5
238
330
E3
100
AcDbEntity
  8
0
  6
Continuous
100
AcDbLine
 10
135.5123175834754
 20
149.0773291661745
 30
0.0
 11
135.4857663135901
 21
149.0718933161517
 31
0.0
  0
LINE
  5
239
330
E3
100
AcDbEntity
  8
0
  6
Continuous
100
AcDbLine
 10
135.4857663135901
 20
149.0718933161517
 30
0.0
 11
135.4623283636751
 21
149.0664607887755
 31
0.0
  0
LINE
  5
23A
330
E3
100
AcDbEntity
  8
0
  6
Continuous
100
AcDbLine
 10
135.4623283636751
 20
149.0664607887755
 30
0.0
 11
135.4421864792995
 21
149.0610249387527
 31
0.0
  0
LINE
  5
23B
330
E3
100
AcDbEntity
  8
0
  6
Continuous
100
AcDbLine
 10
135.4421864792995
 20
149.0610249387527
 30
0.0
 11
135.4254935022123
 21
149.0555890887299
 31
0.0
  0
LINE
  5
23C
330
E3
100
AcDbEntity
  8
0
  6
Continuous
100
AcDbLine
 10
135.4254935022123
 20
149.0555890887299
 30
0.0
 11
135.4123790156352
 21
149.0501565613538
 31
0.0
  0
LINE
  5
23D
330
E3
100
AcDbEntity
  8
0
  6
Continuous
100
AcDbLine
 10
135.4123790156352
 20
149.0501565613538
 30
0.0
 11
135.4029360536762
 21
149.044720711331
 31
0.0
  0
LINE
  5
23E
330
E3
100
AcDbEntity
  8
0
  6
Continuous
100
AcDbLine
 10
135.4029360536762
 20
149.044720711331
 30
0.0
 11
135.3972433983076
 21
149.0392853783011
 31
0.0
  0
LINE
  5
23F
330
E3
100
AcDbEntity
  8
0
  6
Continuous
100
AcDbLine
 10
135.3972433983076
 20
149.0392853783011
 30
0.0
 11
135.3953407473535
 21
149.0338505956924
 31
0.0
  0
LINE
  5
240
330
E3
100
AcDbEntity
  8
0
  6
Continuous
100
AcDbLine
 10
136.3953407473535
 20
148.8381984217794
 30
0.0
 11
136.3934380963993
 21
148.8327636391707
 31
0.0
  0
LINE
  5
241
330
E3
100
AcDbEntity
  8
0
  6
Continuous
100
AcDbLine
 10
136.3934380963993
 20
148.8327636391707
 30
0.0
 11
136.3877446238596
 21
148.827328856562
 31
0.0
  0
LINE
  5
242
330
E3
100
AcDbEntity
  8
0
  6
Continuous
100
AcDbLine
 10
136.3877446238596
 20
148.827328856562
 30
0.0
 11
136.3783023189887
 21
148.8218940548023
 31
0.0
  0
LINE
  5
243
330
E3
100
AcDbEntity
  8
0
  6
Continuous
100
AcDbLine
 10
136.3783023189887
 20
148.8218940548023
 30
0.0
 11
136.3651878324116
 21
148.8164582047795
 31
0.0
  0
LINE
  5
244
330
E3
100
AcDbEntity
  8
0
  6
Continuous
100
AcDbLine
 10
136.3651878324116
 20
148.8164582047795
 30
0.0
 11
136.3484948553244
 21
148.8110256774033
 31
0.0
  0
LINE
  5
245
330
E3
100
AcDbEntity
  8
0
  6
Continuous
100
AcDbLine
 10
136.3484948553244
 20
148.8110256774033
 30
0.0
 11
136.3283529709489
 21
148.8055898273805
 31
0.0
  0
LINE
  5
246
330
E3
100
AcDbEntity
  8
0
  6
Continuous
100
AcDbLine
 10
136.3283529709489
 20
148.8055898273805
 30
0.0
 11
136.3049183436805
 21
148.8001539773577
 31
0.0
  0
LINE
  5
247
330
E3
100
AcDbEntity
  8
0
  6
Continuous
100
AcDbLine
 10
136.3049183436805
 20
148.8001539773577
 30
0.0
 11
136.2783637511485
 21
148.7947214499816
 31
0.0
  0
LINE
  5
248
330
E3
100
AcDbEntity
  8
0
  6
Continuous
100
AcDbLine
 10
136.2783637511485
 20
148.7947214499816
 30
0.0
 11
136.2488951974489
 21
148.7892855999587
 31
0.0
  0
LINE
  5
249
330
E3
100
AcDbEntity
  8
0
  6
Continuous
100
AcDbLine
 10
136.2488951974489
 20
148.7892855999587
 30
0.0
 11
136.2167352999116
 21
148.7838497499359
 31
0.0
  0
LINE
  5
24A
330
E3
100
AcDbEntity
  8
0
  6
Continuous
100
AcDbLine
 10
136.2167352999116
 20
148.7838497499359
 30
0.0
 11
136.1821299343935
 21
148.7784172225598
 31
0.0
  0
LINE
  5
24B
330
E3
100
AcDbEntity
  8
0
  6
Continuous
100
AcDbLine
 10
136.1821299343935
 20
148.7784172225598
 30
0.0
 11
136.1453415899847
 21
148.772981372537
 31
0.0
  0
LINE
  5
24C
330
E3
100
AcDbEntity
  8
0
  6
Continuous
100
AcDbLine
 10
136.1453415899847
 20
148.772981372537
 30
0.0
 11
136.1066493690092
 21
148.7675455225142
 31
0.0
  0
LINE
  5
24D
330
E3
100
AcDbEntity
  8
0
  6
Continuous
100
AcDbLine
 10
136.1066493690092
 20
148.7675455225142
 30
0.0
 11
136.0663523096713
 21
148.762112995138
 31
0.0
  0
LINE
  5
24E
330
E3
100
AcDbEntity
  8
0
  6
Continuous
100
AcDbLine
 10
136.0663523096713
 20
148.762112995138
 30
0.0
 11
136.0247494501751
 21
148.7566771451152
 31
0.0
  0
LINE
  5
24F
330
E3
100
AcDbEntity
  8
0
  6
Continuous
100
AcDbLine
 10
136.0247494501751
 20
148.7566771451152
 30
0.0
 11
135.9821664098985
 21
148.7512412950924
 31
0.0
  0
LINE
  5
250
330
E3
100
AcDbEntity
  8
0
  6
Continuous
100
AcDbLine
 10
135.9821664098985
 20
148.7512412950924
 30
0.0
 11
135.9389188402792
 21
148.7458087677163
 31
0.0
  0
LINE
  5
251
330
E3
100
AcDbEntity
  8
0
  6
Continuous
100
AcDbLine
 10
135.9389188402792
 20
148.7458087677163
 30
0.0
 11
135.8953423286353
 21
148.7403729176934
 31
0.0
  0
LINE
  5
252
330
E3
100
AcDbEntity
  8
0
  6
Continuous
100
AcDbLine
 10
135.8953423286353
 20
148.7403729176934
 30
0.0
 11
135.8517624943447
 21
148.7349370676706
 31
0.0
  0
LINE
  5
253
330
E3
100
AcDbEntity
  8
0
  6
Continuous
100
AcDbLine
 10
135.8517624943447
 20
148.7349370676706
 30
0.0
 11
135.8085182473722
 21
148.7295012176478
 31
0.0
  0
LINE
  5
254
330
E3
100
AcDbEntity
  8
0
  6
Continuous
100
AcDbLine
 10
135.8085182473722
 20
148.7295012176478
 30
0.0
 11
135.7659318844488
 21
148.7240686902717
 31
0.0
  0
LINE
  5
255
330
E3
100
AcDbEntity
  8
0
  6
Continuous
100
AcDbLine
 10
135.7659318844488
 20
148.7240686902717
 30
0.0
 11
135.7243290249526
 21
148.7186328402488
 31
0.0
  0
LINE
  5
256
330
E3
100
AcDbEntity
  8
0
  6
Continuous
100
AcDbLine
 10
135.7243290249526
 20
148.7186328402488
 30
0.0
 11
135.6840319656147
 21
148.713196990226
 31
0.0
  0
LINE
  5
257
330
E3
100
AcDbEntity
  8
0
  6
Continuous
100
AcDbLine
 10
135.6840319656147
 20
148.713196990226
 30
0.0
 11
135.6453397446392
 21
148.7077644628499
 31
0.0
  0
LINE
  5
258
330
E3
100
AcDbEntity
  8
0
  6
Continuous
100
AcDbLine
 10
135.6453397446392
 20
148.7077644628499
 30
0.0
 11
135.6085514002304
 21
148.7023286128271
 31
0.0
  0
LINE
  5
259
330
E3
100
AcDbEntity
  8
0
  6
Continuous
100
AcDbLine
 10
135.6085514002304
 20
148.7023286128271
 30
0.0
 11
135.5739460347122
 21
148.6968927628042
 31
0.0
  0
LINE
  5
25A
330
E3
100
AcDbEntity
  8
0
  6
Continuous
100
AcDbLine
 10
135.5739460347122
 20
148.6968927628042
 30
0.0
 11
135.541786137175
 21
148.6914602354281
 31
0.0
  0
LINE
  5
25B
330
E3
100
AcDbEntity
  8
0
  6
Continuous
100
AcDbLine
 10
135.541786137175
 20
148.6914602354281
 30
0.0
 11
135.5123175834754
 21
148.6860243854053
 31
0.0
  0
LINE
  5
25C
330
E3
100
AcDbEntity
  8
0
  6
Continuous
100
AcDbLine
 10
135.5123175834754
 20
148.6860243854053
 30
0.0
 11
135.4857663135901
 21
148.6805885353825
 31
0.0
  0
LINE
  5
25D
330
E3
100
AcDbEntity
  8
0
  6
Continuous
100
AcDbLine
 10
135.4857663135901
 20
148.6805885353825
 30
0.0
 11
135.4623283636751
 21
148.6751560080064
 31
0.0
  0
LINE
  5
25E
330
E3
100
AcDbEntity
  8
0
  6
Continuous
100
AcDbLine
 10
135.4623283636751
 20
148.6751560080064
 30
0.0
 11
135.4421864792995
 21
148.6697201579835
 31
0.0
  0
LINE
  5
25F
330
E3
100
AcDbEntity
  8
0
  6
Continuous
100
AcDbLine
 10
135.4421864792995
 20
148.6697201579835
 30
0.0
 11
135.4254935022123
 21
148.6642843079607
 31
0.0
  0
LINE
  5
260
330
E3
100
AcDbEntity
  8
0
  6
Continuous
100
AcDbLine
 10
135.4254935022123
 20
148.6642843079607
 30
0.0
 11
135.4123790156352
 21
148.6588517805846
 31
0.0
  0
LINE
  5
261
330
E3
100
AcDbEntity
  8
0
  6
Continuous
100
AcDbLine
 10
135.4123790156352
 20
148.6588517805846
 30
0.0
 11
135.4029360536762
 21
148.6534159305617
 31
0.0
  0
LINE
  5
262
330
E3
100
AcDbEntity
  8
0
  6
Continuous
100
AcDbLine
 10
135.4029360536762
 20
148.6534159305617
 30
0.0
 11
135.3972433983076
 21
148.647981030475
 31
0.0
  0
LINE
  5
263
330
E3
100
AcDbEntity
  8
0
  6
Continuous
100
AcDbLine
 10
135.3972433983076
 20
148.647981030475
 30
0.0
 11
135.3953407473535
 21
148.6425462478663
 31
0.0
  0
LINE
  5
264
330
E3
100
AcDbEntity
  8
0
  6
Continuous
100
AcDbLine
 10
136.3953407473534
 20
148.4468940739533
 30
0.0
 11
136.3934380963993
 21
148.4414592913446
 31
0.0
  0
LINE
  5
265
330
E3
100
AcDbEntity
  8
0
  6
Continuous
100
AcDbLine
 10
136.3934380963993
 20
148.4414592913446
 30
0.0
 11
136.3877446238596
 21
148.4360245087359
 31
0.0
  0
LINE
  5
266
330
E3
100
AcDbEntity
  8
0
  6
Continuous
100
AcDbLine
 10
136.3877446238596
 20
148.4360245087359
 30
0.0
 11
136.3783023189887
 21
148.4305892740331
 31
0.0
  0
LINE
  5
267
330
E3
100
AcDbEntity
  8
0
  6
Continuous
100
AcDbLine
 10
136.3783023189887
 20
148.4305892740331
 30
0.0
 11
136.3651878324116
 21
148.4251534240103
 31
0.0
  0
LINE
  5
268
330
E3
100
AcDbEntity
  8
0
  6
Continuous
100
AcDbLine
 10
136.3651878324116
 20
148.4251534240103
 30
0.0
 11
136.3484948553244
 21
148.4197208966341
 31
0.0
  0
LINE
  5
269
330
E3
100
AcDbEntity
  8
0
  6
Continuous
100
AcDbLine
 10
136.3484948553244
 20
148.4197208966341
 30
0.0
 11
136.3283529709489
 21
148.4142850466113
 31
0.0
  0
LINE
  5
26A
330
E3
100
AcDbEntity
  8
0
  6
Continuous
100
AcDbLine
 10
136.3283529709489
 20
148.4142850466113
 30
0.0
 11
136.3049183436805
 21
148.4088491965885
 31
0.0
  0
LINE
  5
26B
330
E3
100
AcDbEntity
  8
0
  6
Continuous
100
AcDbLine
 10
136.3049183436805
 20
148.4088491965885
 30
0.0
 11
136.2783637511485
 21
148.4034166692124
 31
0.0
  0
LINE
  5
26C
330
E3
100
AcDbEntity
  8
0
  6
Continuous
100
AcDbLine
 10
136.2783637511485
 20
148.4034166692124
 30
0.0
 11
136.2488951974489
 21
148.3979808191895
 31
0.0
  0
LINE
  5
26D
330
E3
100
AcDbEntity
  8
0
  6
Continuous
100
AcDbLine
 10
136.2488951974489
 20
148.3979808191895
 30
0.0
 11
136.2167352999116
 21
148.3925449691667
 31
0.0
  0
LINE
  5
26E
330
E3
100
AcDbEntity
  8
0
  6
Continuous
100
AcDbLine
 10
136.2167352999116
 20
148.3925449691667
 30
0.0
 11
136.1821299343935
 21
148.3871124417906
 31
0.0
  0
LINE
  5
26F
330
E3
100
AcDbEntity
  8
0
  6
Continuous
100
AcDbLine
 10
136.1821299343935
 20
148.3871124417906
 30
0.0
 11
136.1453415899847
 21
148.3816765917678
 31
0.0
  0
LINE
  5
270
330
E3
100
AcDbEntity
  8
0
  6
Continuous
100
AcDbLine
 10
136.1453415899847
 20
148.3816765917678
 30
0.0
 11
136.1066493690092
 21
148.3762407417449
 31
0.0
  0
LINE
  5
271
330
E3
100
AcDbEntity
  8
0
  6
Continuous
100
AcDbLine
 10
136.1066493690092
 20
148.3762407417449
 30
0.0
 11
136.0663523096713
 21
148.3708082143688
 31
0.0
  0
LINE
  5
272
330
E3
100
AcDbEntity
  8
0
  6
Continuous
100
AcDbLine
 10
136.0663523096713
 20
148.3708082143688
 30
0.0
 11
136.0247494501751
 21
148.365372364346
 31
0.0
  0
LINE
  5
273
330
E3
100
AcDbEntity
  8
0
  6
Continuous
100
AcDbLine
 10
136.0247494501751
 20
148.365372364346
 30
0.0
 11
135.9821664098985
 21
148.3599365143232
 31
0.0
  0
LINE
  5
274
330
E3
100
AcDbEntity
  8
0
  6
Continuous
100
AcDbLine
 10
135.9821664098985
 20
148.3599365143232
 30
0.0
 11
135.9389188402792
 21
148.354503986947
 31
0.0
  0
LINE
  5
275
330
E3
100
AcDbEntity
  8
0
  6
Continuous
100
AcDbLine
 10
135.9389188402792
 20
148.354503986947
 30
0.0
 11
135.8953423286353
 21
148.3490681369242
 31
0.0
  0
LINE
  5
276
330
E3
100
AcDbEntity
  8
0
  6
Continuous
100
AcDbLine
 10
135.8953423286353
 20
148.3490681369242
 30
0.0
 11
135.8517624943447
 21
148.3436322869014
 31
0.0
  0
LINE
  5
277
330
E3
100
AcDbEntity
  8
0
  6
Continuous
100
AcDbLine
 10
135.8517624943447
 20
148.3436322869014
 30
0.0
 11
135.8085182473722
 21
148.3381997595253
 31
0.0
  0
LINE
  5
278
330
E3
100
AcDbEntity
  8
0
  6
Continuous
100
AcDbLine
 10
135.8085182473722
 20
148.3381997595253
 30
0.0
 11
135.7659318844488
 21
148.3327639095025
 31
0.0
  0
LINE
  5
279
330
E3
100
AcDbEntity
  8
0
  6
Continuous
100
AcDbLine
 10
135.7659318844488
 20
148.3327639095025
 30
0.0
 11
135.7243290249526
 21
148.3273280594796
 31
0.0
  0
LINE
  5
27A
330
E3
100
AcDbEntity
  8
0
  6
Continuous
100
AcDbLine
 10
135.7243290249526
 20
148.3273280594796
 30
0.0
 11
135.6840319656147
 21
148.3218955321035
 31
0.0
  0
LINE
  5
27B
330
E3
100
AcDbEntity
  8
0
  6
Continuous
100
AcDbLine
 10
135.6840319656147
 20
148.3218955321035
 30
0.0
 11
135.6453397446392
 21
148.3164596820807
 31
0.0
  0
LINE
  5
27C
330
E3
100
AcDbEntity
  8
0
  6
Continuous
100
AcDbLine
 10
135.6453397446392
 20
148.3164596820807
 30
0.0
 11
135.6085514002304
 21
148.3110238320579
 31
0.0
  0
LINE
  5
27D
330
E3
100
AcDbEntity
  8
0
  6
Continuous
100
AcDbLine
 10
135.6085514002304
 20
148.3110238320579
 30
0.0
 11
135.5739460347122
 21
148.3055913046817
 31
0.0
  0
LINE
  5
27E
330
E3
100
AcDbEntity
  8
0
  6
Continuous
100
AcDbLine
 10
135.5739460347122
 20
148.3055913046817
 30
0.0
 11
135.541786137175
 21
148.3001554546589
 31
0.0
  0
LINE
  5
27F
330
E3
100
AcDbEntity
  8
0
  6
Continuous
100
AcDbLine
 10
135.541786137175
 20
148.3001554546589
 30
0.0
 11
135.5123175834754
 21
148.2947196046361
 31
0.0
  0
LINE
  5
280
330
E3
100
AcDbEntity
  8
0
  6
Continuous
100
AcDbLine
 10
135.5123175834754
 20
148.2947196046361
 30
0.0
 11
135.4857663135901
 21
148.2892837546133
 31
0.0
  0
LINE
  5
281
330
E3
100
AcDbEntity
  8
0
  6
Continuous
100
AcDbLine
 10
135.4857663135901
 20
148.2892837546133
 30
0.0
 11
135.4623283636751
 21
148.2838512272371
 31
0.0
  0
LINE
  5
282
330
E3
100
AcDbEntity
  8
0
  6
Continuous
100
AcDbLine
 10
135.4623283636751
 20
148.2838512272371
 30
0.0
 11
135.4421864792995
 21
148.2784153772143
 31
0.0
  0
LINE
  5
283
330
E3
100
AcDbEntity
  8
0
  6
Continuous
100
AcDbLine
 10
135.4421864792995
 20
148.2784153772143
 30
0.0
 11
135.4254935022123
 21
148.2729795271915
 31
0.0
  0
LINE
  5
284
330
E3
100
AcDbEntity
  8
0
  6
Continuous
100
AcDbLine
 10
135.4254935022123
 20
148.2729795271915
 30
0.0
 11
135.4123790156352
 21
148.2675469998154
 31
0.0
  0
LINE
  5
285
330
E3
100
AcDbEntity
  8
0
  6
Continuous
100
AcDbLine
 10
135.4123790156352
 20
148.2675469998154
 30
0.0
 11
135.4029360536762
 21
148.2621111497925
 31
0.0
  0
LINE
  5
286
330
E3
100
AcDbEntity
  8
0
  6
Continuous
100
AcDbLine
 10
135.4029360536762
 20
148.2621111497925
 30
0.0
 11
135.3972433983076
 21
148.2566766826489
 31
0.0
  0
LINE
  5
287
330
E3
100
AcDbEntity
  8
0
  6
Continuous
100
AcDbLine
 10
135.3972433983076
 20
148.2566766826489
 30
0.0
 11
135.3953407473534
 21
148.2512419000402
 31
0.0
  0
LINE
  5
288
330
E3
100
AcDbEntity
  8
0
  6
Continuous
100
AcDbLine
 10
136.3953407473534
 20
148.0555897261272
 30
0.0
 11
136.3934380963993
 21
148.0501549435185
 31
0.0
  0
LINE
  5
289
330
E3
100
AcDbEntity
  8
0
  6
Continuous
100
AcDbLine
 10
136.3934380963993
 20
148.0501549435185
 30
0.0
 11
136.3877446238596
 21
148.0447201609098
 31
0.0
  0
LINE
  5
28A
330
E3
100
AcDbEntity
  8
0
  6
Continuous
100
AcDbLine
 10
136.3877446238596
 20
148.0447201609098
 30
0.0
 11
136.3783023189887
 21
148.0392844932639
 31
0.0
  0
LINE
  5
28B
330
E3
100
AcDbEntity
  8
0
  6
Continuous
100
AcDbLine
 10
136.3783023189887
 20
148.0392844932639
 30
0.0
 11
136.3651878324116
 21
148.0338519658877
 31
0.0
  0
LINE
  5
28C
330
E3
100
AcDbEntity
  8
0
  6
Continuous
100
AcDbLine
 10
136.3651878324116
 20
148.0338519658877
 30
0.0
 11
136.3484948553244
 21
148.0284161158649
 31
0.0
  0
LINE
  5
28D
330
E3
100
AcDbEntity
  8
0
  6
Continuous
100
AcDbLine
 10
136.3484948553244
 20
148.0284161158649
 30
0.0
 11
136.3283529709489
 21
148.0229802658421
 31
0.0
  0
LINE
  5
28E
330
E3
100
AcDbEntity
  8
0
  6
Continuous
100
AcDbLine
 10
136.3283529709489
 20
148.0229802658421
 30
0.0
 11
136.3049183436805
 21
148.017547738466
 31
0.0
  0
LINE
  5
28F
330
E3
100
AcDbEntity
  8
0
  6
Continuous
100
AcDbLine
 10
136.3049183436805
 20
148.017547738466
 30
0.0
 11
136.2783637511485
 21
148.0121118884431
 31
0.0
  0
LINE
  5
290
330
E3
100
AcDbEntity
  8
0
  6
Continuous
100
AcDbLine
 10
136.2783637511485
 20
148.0121118884431
 30
0.0
 11
136.2488951974489
 21
148.0066760384203
 31
0.0
  0
LINE
  5
291
330
E3
100
AcDbEntity
  8
0
  6
Continuous
100
AcDbLine
 10
136.2488951974489
 20
148.0066760384203
 30
0.0
 11
136.2167352999116
 21
148.0012435110442
 31
0.0
  0
LINE
  5
292
330
E3
100
AcDbEntity
  8
0
  6
Continuous
100
AcDbLine
 10
136.2167352999116
 20
148.0012435110442
 30
0.0
 11
136.1821299343935
 21
147.9958076610214
 31
0.0
  0
LINE
  5
293
330
E3
100
AcDbEntity
  8
0
  6
Continuous
100
AcDbLine
 10
136.1821299343935
 20
147.9958076610214
 30
0.0
 11
136.1453415899847
 21
147.9903718109986
 31
0.0
  0
LINE
  5
294
330
E3
100
AcDbEntity
  8
0
  6
Continuous
100
AcDbLine
 10
136.1453415899847
 20
147.9903718109986
 30
0.0
 11
136.1066493690092
 21
147.9849359609757
 31
0.0
  0
LINE
  5
295
330
E3
100
AcDbEntity
  8
0
  6
Continuous
100
AcDbLine
 10
136.1066493690092
 20
147.9849359609757
 30
0.0
 11
136.0663523096713
 21
147.9795034335996
 31
0.0
  0
LINE
  5
296
330
E3
100
AcDbEntity
  8
0
  6
Continuous
100
AcDbLine
 10
136.0663523096713
 20
147.9795034335996
 30
0.0
 11
136.0247494501751
 21
147.9740675835768
 31
0.0
  0
LINE
  5
297
330
E3
100
AcDbEntity
  8
0
  6
Continuous
100
AcDbLine
 10
136.0247494501751
 20
147.9740675835768
 30
0.0
 11
135.9821664098985
 21
147.968631733554
 31
0.0
  0
LINE
  5
298
330
E3
100
AcDbEntity
  8
0
  6
Continuous
100
AcDbLine
 10
135.9821664098985
 20
147.968631733554
 30
0.0
 11
135.9389188402792
 21
147.9631992061778
 31
0.0
  0
LINE
  5
299
330
E3
100
AcDbEntity
  8
0
  6
Continuous
100
AcDbLine
 10
135.9389188402792
 20
147.9631992061778
 30
0.0
 11
135.8953423286353
 21
147.957763356155
 31
0.0
  0
LINE
  5
29A
330
E3
100
AcDbEntity
  8
0
  6
Continuous
100
AcDbLine
 10
135.8953423286353
 20
147.957763356155
 30
0.0
 11
135.8517624943447
 21
147.9523275061322
 31
0.0
  0
LINE
  5
29B
330
E3
100
AcDbEntity
  8
0
  6
Continuous
100
AcDbLine
 10
135.8517624943447
 20
147.9523275061322
 30
0.0
 11
135.8085182473722
 21
147.9468949787561
 31
0.0
  0
LINE
  5
29C
330
E3
100
AcDbEntity
  8
0
  6
Continuous
100
AcDbLine
 10
135.8085182473722
 20
147.9468949787561
 30
0.0
 11
135.7659318844488
 21
147.9414591287332
 31
0.0
  0
LINE
  5
29D
330
E3
100
AcDbEntity
  8
0
  6
Continuous
100
AcDbLine
 10
135.7659318844488
 20
147.9414591287332
 30
0.0
 11
135.7243290249526
 21
147.9360232787104
 31
0.0
  0
LINE
  5
29E
330
E3
100
AcDbEntity
  8
0
  6
Continuous
100
AcDbLine
 10
135.7243290249526
 20
147.9360232787104
 30
0.0
 11
135.6840319656147
 21
147.9305907513343
 31
0.0
  0
LINE
  5
29F
330
E3
100
AcDbEntity
  8
0
  6
Continuous
100
AcDbLine
 10
135.6840319656147
 20
147.9305907513343
 30
0.0
 11
135.6453397446392
 21
147.9251549013115
 31
0.0
  0
LINE
  5
2A0
330
E3
100
AcDbEntity
  8
0
  6
Continuous
100
AcDbLine
 10
135.6453397446392
 20
147.9251549013115
 30
0.0
 11
135.6085514002304
 21
147.9197190512886
 31
0.0
  0
LINE
  5
2A1
330
E3
100
AcDbEntity
  8
0
  6
Continuous
100
AcDbLine
 10
135.6085514002304
 20
147.9197190512886
 30
0.0
 11
135.5739460347122
 21
147.9142865239125
 31
0.0
  0
LINE
  5
2A2
330
E3
100
AcDbEntity
  8
0
  6
Continuous
100
AcDbLine
 10
135.5739460347122
 20
147.9142865239125
 30
0.0
 11
135.541786137175
 21
147.9088506738897
 31
0.0
  0
LINE
  5
2A3
330
E3
100
AcDbEntity
  8
0
  6
Continuous
100
AcDbLine
 10
135.541786137175
 20
147.9088506738897
 30
0.0
 11
135.5123175834754
 21
147.9034148238669
 31
0.0
  0
LINE
  5
2A4
330
E3
100
AcDbEntity
  8
0
  6
Continuous
100
AcDbLine
 10
135.5123175834754
 20
147.9034148238669
 30
0.0
 11
135.4857663135901
 21
147.8979822964908
 31
0.0
  0
LINE
  5
2A5
330
E3
100
AcDbEntity
  8
0
  6
Continuous
100
AcDbLine
 10
135.4857663135901
 20
147.8979822964908
 30
0.0
 11
135.4623283636751
 21
147.8925464464679
 31
0.0
  0
LINE
  5
2A6
330
E3
100
AcDbEntity
  8
0
  6
Continuous
100
AcDbLine
 10
135.4623283636751
 20
147.8925464464679
 30
0.0
 11
135.4421864792995
 21
147.8871105964451
 31
0.0
  0
LINE
  5
2A7
330
E3
100
AcDbEntity
  8
0
  6
Continuous
100
AcDbLine
 10
135.4421864792995
 20
147.8871105964451
 30
0.0
 11
135.4254935022123
 21
147.881678069069
 31
0.0
  0
LINE
  5
2A8
330
E3
100
AcDbEntity
  8
0
  6
Continuous
100
AcDbLine
 10
135.4254935022123
 20
147.881678069069
 30
0.0
 11
135.4123790156352
 21
147.8762422190462
 31
0.0
  0
LINE
  5
2A9
330
E3
100
AcDbEntity
  8
0
  6
Continuous
100
AcDbLine
 10
135.4123790156352
 20
147.8762422190462
 30
0.0
 11
135.4029360536762
 21
147.8708063690233
 31
0.0
  0
LINE
  5
2AA
330
E3
100
AcDbEntity
  8
0
  6
Continuous
100
AcDbLine
 10
135.4029360536762
 20
147.8708063690233
 30
0.0
 11
135.3972433983076
 21
147.8653723348229
 31
0.0
  0
LINE
  5
2AB
330
E3
100
AcDbEntity
  8
0
  6
Continuous
100
AcDbLine
 10
135.3972433983076
 20
147.8653723348229
 30
0.0
 11
135.3953407473534
 21
147.8599375522141
 31
0.0
  0
LINE
  5
2AC
330
E3
100
AcDbEntity
  8
0
  6
Continuous
100
AcDbLine
 10
136.3953407473534
 20
147.6642853783011
 30
0.0
 11
136.3934380963993
 21
147.6588505956924
 31
0.0
  0
LINE
  5
2AD
330
E3
100
AcDbEntity
  8
0
  6
Continuous
100
AcDbLine
 10
136.3934380963993
 20
147.6588505956924
 30
0.0
 11
136.3877446238596
 21
147.6534158130837
 31
0.0
  0
LINE
  5
2AE
330
E3
100
AcDbEntity
  8
0
  6
Continuous
100
AcDbLine
 10
136.3877446238596
 20
147.6534158130837
 30
0.0
 11
136.3783023189887
 21
147.6479797124946
 31
0.0
  0
LINE
  5
2AF
330
E3
100
AcDbEntity
  8
0
  6
Continuous
100
AcDbLine
 10
136.3783023189887
 20
147.6479797124946
 30
0.0
 11
136.3651878324116
 21
147.6425471851185
 31
0.0
  0
LINE
  5
2B0
330
E3
100
AcDbEntity
  8
0
  6
Continuous
100
AcDbLine
 10
136.3651878324116
 20
147.6425471851185
 30
0.0
 11
136.3484948553244
 21
147.6371113350957
 31
0.0
  0
LINE
  5
2B1
330
E3
100
AcDbEntity
  8
0
  6
Continuous
100
AcDbLine
 10
136.3484948553244
 20
147.6371113350957
 30
0.0
 11
136.3283529709489
 21
147.6316754850729
 31
0.0
  0
LINE
  5
2B2
330
E3
100
AcDbEntity
  8
0
  6
Continuous
100
AcDbLine
 10
136.3283529709489
 20
147.6316754850729
 30
0.0
 11
136.3049183436805
 21
147.6262429576968
 31
0.0
  0
LINE
  5
2B3
330
E3
100
AcDbEntity
  8
0
  6
Continuous
100
AcDbLine
 10
136.3049183436805
 20
147.6262429576968
 30
0.0
 11
136.2783637511485
 21
147.620807107674
 31
0.0
  0
LINE
  5
2B4
330
E3
100
AcDbEntity
  8
0
  6
Continuous
100
AcDbLine
 10
136.2783637511485
 20
147.620807107674
 30
0.0
 11
136.2488951974489
 21
147.6153712576511
 31
0.0
  0
LINE
  5
2B5
330
E3
100
AcDbEntity
  8
0
  6
Continuous
100
AcDbLine
 10
136.2488951974489
 20
147.6153712576511
 30
0.0
 11
136.2167352999116
 21
147.609938730275
 31
0.0
  0
LINE
  5
2B6
330
E3
100
AcDbEntity
  8
0
  6
Continuous
100
AcDbLine
 10
136.2167352999116
 20
147.609938730275
 30
0.0
 11
136.1821299343935
 21
147.6045028802522
 31
0.0
  0
LINE
  5
2B7
330
E3
100
AcDbEntity
  8
0
  6
Continuous
100
AcDbLine
 10
136.1821299343935
 20
147.6045028802522
 30
0.0
 11
136.1453415899847
 21
147.5990670302293
 31
0.0
  0
LINE
  5
2B8
330
E3
100
AcDbEntity
  8
0
  6
Continuous
100
AcDbLine
 10
136.1453415899847
 20
147.5990670302293
 30
0.0
 11
136.1066493690092
 21
147.5936345028532
 31
0.0
  0
LINE
  5
2B9
330
E3
100
AcDbEntity
  8
0
  6
Continuous
100
AcDbLine
 10
136.1066493690092
 20
147.5936345028532
 30
0.0
 11
136.0663523096713
 21
147.5881986528304
 31
0.0
  0
LINE
  5
2BA
330
E3
100
AcDbEntity
  8
0
  6
Continuous
100
AcDbLine
 10
136.0663523096713
 20
147.5881986528304
 30
0.0
 11
136.0247494501751
 21
147.5827628028076
 31
0.0
  0
LINE
  5
2BB
330
E3
100
AcDbEntity
  8
0
  6
Continuous
100
AcDbLine
 10
136.0247494501751
 20
147.5827628028076
 30
0.0
 11
135.9821664098985
 21
147.5773302754314
 31
0.0
  0
LINE
  5
2BC
330
E3
100
AcDbEntity
  8
0
  6
Continuous
100
AcDbLine
 10
135.9821664098985
 20
147.5773302754314
 30
0.0
 11
135.9389188402792
 21
147.5718944254086
 31
0.0
  0
LINE
  5
2BD
330
E3
100
AcDbEntity
  8
0
  6
Continuous
100
AcDbLine
 10
135.9389188402792
 20
147.5718944254086
 30
0.0
 11
135.8953423286353
 21
147.5664585753858
 31
0.0
  0
LINE
  5
2BE
330
E3
100
AcDbEntity
  8
0
  6
Continuous
100
AcDbLine
 10
135.8953423286353
 20
147.5664585753858
 30
0.0
 11
135.8517624943447
 21
147.5610260480097
 31
0.0
  0
LINE
  5
2BF
330
E3
100
AcDbEntity
  8
0
  6
Continuous
100
AcDbLine
 10
135.8517624943447
 20
147.5610260480097
 30
0.0
 11
135.8085182473722
 21
147.5555901979869
 31
0.0
  0
LINE
  5
2C0
330
E3
100
AcDbEntity
  8
0
  6
Continuous
100
AcDbLine
 10
135.8085182473722
 20
147.5555901979869
 30
0.0
 11
135.7659318844488
 21
147.550154347964
 31
0.0
  0
LINE
  5
2C1
330
E3
100
AcDbEntity
  8
0
  6
Continuous
100
AcDbLine
 10
135.7659318844488
 20
147.550154347964
 30
0.0
 11
135.7243290249526
 21
147.5447218205879
 31
0.0
  0
LINE
  5
2C2
330
E3
100
AcDbEntity
  8
0
  6
Continuous
100
AcDbLine
 10
135.7243290249526
 20
147.5447218205879
 30
0.0
 11
135.6840319656147
 21
147.5392859705651
 31
0.0
  0
LINE
  5
2C3
330
E3
100
AcDbEntity
  8
0
  6
Continuous
100
AcDbLine
 10
135.6840319656147
 20
147.5392859705651
 30
0.0
 11
135.6453397446392
 21
147.5338501205423
 31
0.0
  0
LINE
  5
2C4
330
E3
100
AcDbEntity
  8
0
  6
Continuous
100
AcDbLine
 10
135.6453397446392
 20
147.5338501205423
 30
0.0
 11
135.6085514002304
 21
147.5284142705194
 31
0.0
  0
LINE
  5
2C5
330
E3
100
AcDbEntity
  8
0
  6
Continuous
100
AcDbLine
 10
135.6085514002304
 20
147.5284142705194
 30
0.0
 11
135.5739460347122
 21
147.5229817431433
 31
0.0
  0
LINE
  5
2C6
330
E3
100
AcDbEntity
  8
0
  6
Continuous
100
AcDbLine
 10
135.5739460347122
 20
147.5229817431433
 30
0.0
 11
135.541786137175
 21
147.5175458931205
 31
0.0
  0
LINE
  5
2C7
330
E3
100
AcDbEntity
  8
0
  6
Continuous
100
AcDbLine
 10
135.541786137175
 20
147.5175458931205
 30
0.0
 11
135.5123175834754
 21
147.5121100430977
 31
0.0
  0
LINE
  5
2C8
330
E3
100
AcDbEntity
  8
0
  6
Continuous
100
AcDbLine
 10
135.5123175834754
 20
147.5121100430977
 30
0.0
 11
135.4857663135901
 21
147.5066775157215
 31
0.0
  0
LINE
  5
2C9
330
E3
100
AcDbEntity
  8
0
  6
Continuous
100
AcDbLine
 10
135.4857663135901
 20
147.5066775157215
 30
0.0
 11
135.4623283636751
 21
147.5012416656987
 31
0.0
  0
LINE
  5
2CA
330
E3
100
AcDbEntity
  8
0
  6
Continuous
100
AcDbLine
 10
135.4623283636751
 20
147.5012416656987
 30
0.0
 11
135.4421864792995
 21
147.4958058156759
 31
0.0
  0
LINE
  5
2CB
330
E3
100
AcDbEntity
  8
0
  6
Continuous
100
AcDbLine
 10
135.4421864792995
 20
147.4958058156759
 30
0.0
 11
135.4254935022123
 21
147.4903732882998
 31
0.0
  0
LINE
  5
2CC
330
E3
100
AcDbEntity
  8
0
  6
Continuous
100
AcDbLine
 10
135.4254935022123
 20
147.4903732882998
 30
0.0
 11
135.4123790156352
 21
147.4849374382769
 31
0.0
  0
LINE
  5
2CD
330
E3
100
AcDbEntity
  8
0
  6
Continuous
100
AcDbLine
 10
135.4123790156352
 20
147.4849374382769
 30
0.0
 11
135.4029360536762
 21
147.4795015882541
 31
0.0
  0
LINE
  5
2CE
330
E3
100
AcDbEntity
  8
0
  6
Continuous
100
AcDbLine
 10
135.4029360536762
 20
147.4795015882541
 30
0.0
 11
135.3972433983076
 21
147.4740679869967
 31
0.0
  0
LINE
  5
2CF
330
E3
100
AcDbEntity
  8
0
  6
Continuous
100
AcDbLine
 10
135.3972433983076
 20
147.4740679869967
 30
0.0
 11
135.3953407473534
 21
147.4686332043881
 31
0.0
  0
LINE
  5
2D0
330
E3
100
AcDbEntity
  8
0
  6
Continuous
100
AcDbLine
 10
136.3953407473534
 20
147.272981030475
 30
0.0
 11
136.3934380963993
 21
147.2675462478663
 31
0.0
  0
LINE
  5
2D1
330
E3
100
AcDbEntity
  8
0
  6
Continuous
100
AcDbLine
 10
136.3934380963993
 20
147.2675462478663
 30
0.0
 11
136.3877446238596
 21
147.2621114652576
 31
0.0
  0
LINE
  5
2D2
330
E3
100
AcDbEntity
  8
0
  6
Continuous
100
AcDbLine
 10
136.3877446238596
 20
147.2621114652576
 30
0.0
 11
136.3783023189887
 21
147.2566782543722
 31
0.0
  0
LINE
  5
2D3
330
E3
100
AcDbEntity
  8
0
  6
Continuous
100
AcDbLine
 10
136.3783023189887
 20
147.2566782543722
 30
0.0
 11
136.3651878324116
 21
147.2512424043493
 31
0.0
  0
LINE
  5
2D4
330
E3
100
AcDbEntity
  8
0
  6
Continuous
100
AcDbLine
 10
136.3651878324116
 20
147.2512424043493
 30
0.0
 11
136.3484948553244
 21
147.2458065543265
 31
0.0
  0
LINE
  5
2D5
330
E3
100
AcDbEntity
  8
0
  6
Continuous
100
AcDbLine
 10
136.3484948553244
 20
147.2458065543265
 30
0.0
 11
136.3283529709489
 21
147.2403707043037
 31
0.0
  0
LINE
  5
2D6
330
E3
100
AcDbEntity
  8
0
  6
Continuous
100
AcDbLine
 10
136.3283529709489
 20
147.2403707043037
 30
0.0
 11
136.3049183436805
 21
147.2349381769276
 31
0.0
  0
LINE
  5
2D7
330
E3
100
AcDbEntity
  8
0
  6
Continuous
100
AcDbLine
 10
136.3049183436805
 20
147.2349381769276
 30
0.0
 11
136.2783637511485
 21
147.2295023269047
 31
0.0
  0
LINE
  5
2D8
330
E3
100
AcDbEntity
  8
0
  6
Continuous
100
AcDbLine
 10
136.2783637511485
 20
147.2295023269047
 30
0.0
 11
136.2488951974489
 21
147.2240664768819
 31
0.0
  0
LINE
  5
2D9
330
E3
100
AcDbEntity
  8
0
  6
Continuous
100
AcDbLine
 10
136.2488951974489
 20
147.2240664768819
 30
0.0
 11
136.2167352999116
 21
147.2186339495058
 31
0.0
  0
LINE
  5
2DA
330
E3
100
AcDbEntity
  8
0
  6
Continuous
100
AcDbLine
 10
136.2167352999116
 20
147.2186339495058
 30
0.0
 11
136.1821299343935
 21
147.213198099483
 31
0.0
  0
LINE
  5
2DB
330
E3
100
AcDbEntity
  8
0
  6
Continuous
100
AcDbLine
 10
136.1821299343935
 20
147.213198099483
 30
0.0
 11
136.1453415899847
 21
147.2077622494601
 31
0.0
  0
LINE
  5
2DC
330
E3
100
AcDbEntity
  8
0
  6
Continuous
100
AcDbLine
 10
136.1453415899847
 20
147.2077622494601
 30
0.0
 11
136.1066493690092
 21
147.202329722084
 31
0.0
  0
LINE
  5
2DD
330
E3
100
AcDbEntity
  8
0
  6
Continuous
100
AcDbLine
 10
136.1066493690092
 20
147.202329722084
 30
0.0
 11
136.0663523096713
 21
147.1968938720612
 31
0.0
  0
LINE
  5
2DE
330
E3
100
AcDbEntity
  8
0
  6
Continuous
100
AcDbLine
 10
136.0663523096713
 20
147.1968938720612
 30
0.0
 11
136.0247494501751
 21
147.1914580220384
 31
0.0
  0
LINE
  5
2DF
330
E3
100
AcDbEntity
  8
0
  6
Continuous
100
AcDbLine
 10
136.0247494501751
 20
147.1914580220384
 30
0.0
 11
135.9821664098985
 21
147.1860254946623
 31
0.0
  0
LINE
  5
2E0
330
E3
100
AcDbEntity
  8
0
  6
Continuous
100
AcDbLine
 10
135.9821664098985
 20
147.1860254946623
 30
0.0
 11
135.9389188402792
 21
147.1805896446394
 31
0.0
  0
LINE
  5
2E1
330
E3
100
AcDbEntity
  8
0
  6
Continuous
100
AcDbLine
 10
135.9389188402792
 20
147.1805896446394
 30
0.0
 11
135.8953423286353
 21
147.1751537946166
 31
0.0
  0
LINE
  5
2E2
330
E3
100
AcDbEntity
  8
0
  6
Continuous
100
AcDbLine
 10
135.8953423286353
 20
147.1751537946166
 30
0.0
 11
135.8517624943447
 21
147.1697212672405
 31
0.0
  0
LINE
  5
2E3
330
E3
100
AcDbEntity
  8
0
  6
Continuous
100
AcDbLine
 10
135.8517624943447
 20
147.1697212672405
 30
0.0
 11
135.8085182473722
 21
147.1642854172177
 31
0.0
  0
LINE
  5
2E4
330
E3
100
AcDbEntity
  8
0
  6
Continuous
100
AcDbLine
 10
135.8085182473722
 20
147.1642854172177
 30
0.0
 11
135.7659318844488
 21
147.1588495671948
 31
0.0
  0
LINE
  5
2E5
330
E3
100
AcDbEntity
  8
0
  6
Continuous
100
AcDbLine
 10
135.7659318844488
 20
147.1588495671948
 30
0.0
 11
135.7243290249526
 21
147.1534170398187
 31
0.0
  0
LINE
  5
2E6
330
E3
100
AcDbEntity
  8
0
  6
Continuous
100
AcDbLine
 10
135.7243290249526
 20
147.1534170398187
 30
0.0
 11
135.6840319656147
 21
147.1479811897958
 31
0.0
  0
LINE
  5
2E7
330
E3
100
AcDbEntity
  8
0
  6
Continuous
100
AcDbLine
 10
135.6840319656147
 20
147.1479811897958
 30
0.0
 11
135.6453397446392
 21
147.1425453397731
 31
0.0
  0
LINE
  5
2E8
330
E3
100
AcDbEntity
  8
0
  6
Continuous
100
AcDbLine
 10
135.6453397446392
 20
147.1425453397731
 30
0.0
 11
135.6085514002304
 21
147.1371128123969
 31
0.0
  0
LINE
  5
2E9
330
E3
100
AcDbEntity
  8
0
  6
Continuous
100
AcDbLine
 10
135.6085514002304
 20
147.1371128123969
 30
0.0
 11
135.5739460347122
 21
147.1316769623741
 31
0.0
  0
LINE
  5
2EA
330
E3
100
AcDbEntity
  8
0
  6
Continuous
100
AcDbLine
 10
135.5739460347122
 20
147.1316769623741
 30
0.0
 11
135.541786137175
 21
147.1262411123513
 31
0.0
  0
LINE
  5
2EB
330
E3
100
AcDbEntity
  8
0
  6
Continuous
100
AcDbLine
 10
135.541786137175
 20
147.1262411123513
 30
0.0
 11
135.5123175834754
 21
147.1208085849752
 31
0.0
  0
LINE
  5
2EC
330
E3
100
AcDbEntity
  8
0
  6
Continuous
100
AcDbLine
 10
135.5123175834754
 20
147.1208085849752
 30
0.0
 11
135.4857663135901
 21
147.1153727349523
 31
0.0
  0
LINE
  5
2ED
330
E3
100
AcDbEntity
  8
0
  6
Continuous
100
AcDbLine
 10
135.4857663135901
 20
147.1153727349523
 30
0.0
 11
135.4623283636751
 21
147.1099368849295
 31
0.0
  0
LINE
  5
2EE
330
E3
100
AcDbEntity
  8
0
  6
Continuous
100
AcDbLine
 10
135.4623283636751
 20
147.1099368849295
 30
0.0
 11
135.4421864792995
 21
147.1045043575534
 31
0.0
  0
LINE
  5
2EF
330
E3
100
AcDbEntity
  8
0
  6
Continuous
100
AcDbLine
 10
135.4421864792995
 20
147.1045043575534
 30
0.0
 11
135.4254935022123
 21
147.0990685075306
 31
0.0
  0
LINE
  5
2F0
330
E3
100
AcDbEntity
  8
0
  6
Continuous
100
AcDbLine
 10
135.4254935022123
 20
147.0990685075306
 30
0.0
 11
135.4123790156352
 21
147.0936326575077
 31
0.0
  0
LINE
  5
2F1
330
E3
100
AcDbEntity
  8
0
  6
Continuous
100
AcDbLine
 10
135.4123790156352
 20
147.0936326575077
 30
0.0
 11
135.4029360536762
 21
147.0881968074849
 31
0.0
  0
LINE
  5
2F2
330
E3
100
AcDbEntity
  8
0
  6
Continuous
100
AcDbLine
 10
135.4029360536762
 20
147.0881968074849
 30
0.0
 11
135.3972433983076
 21
147.0827636391707
 31
0.0
  0
LINE
  5
2F3
330
E3
100
AcDbEntity
  8
0
  6
Continuous
100
AcDbLine
 10
135.3972433983076
 20
147.0827636391707
 30
0.0
 11
135.3953407473534
 21
147.077328856562
 31
0.0
  0
LINE
  5
2F4
330
E3
100
AcDbEntity
  8
0
  6
Continuous
100
AcDbLine
 10
136.3953407473534
 20
146.881676682649
 30
0.0
 11
136.3934380963993
 21
146.8762419000402
 31
0.0
  0
LINE
  5
2F5
330
E3
100
AcDbEntity
  8
0
  6
Continuous
100
AcDbLine
 10
136.3934380963993
 20
146.8762419000402
 30
0.0
 11
136.3877446238596
 21
146.8708071174316
 31
0.0
  0
LINE
  5
2F6
330
E3
100
AcDbEntity
  8
0
  6
Continuous
100
AcDbLine
 10
136.3877446238596
 20
146.8708071174316
 30
0.0
 11
136.3783023189887
 21
146.8653734736029
 31
0.0
  0
LINE
  5
2F7
330
E3
100
AcDbEntity
  8
0
  6
Continuous
100
AcDbLine
 10
136.3783023189887
 20
146.8653734736029
 30
0.0
 11
136.3651878324116
 21
146.8599376235801
 31
0.0
  0
LINE
  5
2F8
330
E3
100
AcDbEntity
  8
0
  6
Continuous
100
AcDbLine
 10
136.3651878324116
 20
146.8599376235801
 30
0.0
 11
136.3484948553244
 21
146.8545017735573
 31
0.0
  0
LINE
  5
2F9
330
E3
100
AcDbEntity
  8
0
  6
Continuous
100
AcDbLine
 10
136.3484948553244
 20
146.8545017735573
 30
0.0
 11
136.3283529709489
 21
146.8490692461812
 31
0.0
  0
LINE
  5
2FA
330
E3
100
AcDbEntity
  8
0
  6
Continuous
100
AcDbLine
 10
136.3283529709489
 20
146.8490692461812
 30
0.0
 11
136.3049183436805
 21
146.8436333961583
 31
0.0
  0
LINE
  5
2FB
330
E3
100
AcDbEntity
  8
0
  6
Continuous
100
AcDbLine
 10
136.3049183436805
 20
146.8436333961583
 30
0.0
 11
136.2783637511485
 21
146.8381975461355
 31
0.0
  0
LINE
  5
2FC
330
E3
100
AcDbEntity
  8
0
  6
Continuous
100
AcDbLine
 10
136.2783637511485
 20
146.8381975461355
 30
0.0
 11
136.2488951974489
 21
146.8327650187594
 31
0.0
  0
LINE
  5
2FD
330
E3
100
AcDbEntity
  8
0
  6
Continuous
100
AcDbLine
 10
136.2488951974489
 20
146.8327650187594
 30
0.0
 11
136.2167352999116
 21
146.8273291687366
 31
0.0
  0
LINE
  5
2FE
330
E3
100
AcDbEntity
  8
0
  6
Continuous
100
AcDbLine
 10
136.2167352999116
 20
146.8273291687366
 30
0.0
 11
136.1821299343935
 21
146.8218933187137
 31
0.0
  0
LINE
  5
2FF
330
E3
100
AcDbEntity
  8
0
  6
Continuous
100
AcDbLine
 10
136.1821299343935
 20
146.8218933187137
 30
0.0
 11
136.1453415899847
 21
146.8164607913376
 31
0.0
  0
LINE
  5
300
330
E3
100
AcDbEntity
  8
0
  6
Continuous
100
AcDbLine
 10
136.1453415899847
 20
146.8164607913376
 30
0.0
 11
136.1066493690092
 21
146.8110249413148
 31
0.0
  0
LINE
  5
301
330
E3
100
AcDbEntity
  8
0
  6
Continuous
100
AcDbLine
 10
136.1066493690092
 20
146.8110249413148
 30
0.0
 11
136.0663523096713
 21
146.8055890912919
 31
0.0
  0
LINE
  5
302
330
E3
100
AcDbEntity
  8
0
  6
Continuous
100
AcDbLine
 10
136.0663523096713
 20
146.8055890912919
 30
0.0
 11
136.0247494501751
 21
146.8001565639158
 31
0.0
  0
LINE
  5
303
330
E3
100
AcDbEntity
  8
0
  6
Continuous
100
AcDbLine
 10
136.0247494501751
 20
146.8001565639158
 30
0.0
 11
135.9821664098985
 21
146.794720713893
 31
0.0
  0
LINE
  5
304
330
E3
100
AcDbEntity
  8
0
  6
Continuous
100
AcDbLine
 10
135.9821664098985
 20
146.794720713893
 30
0.0
 11
135.9389188402792
 21
146.7892848638702
 31
0.0
  0
LINE
  5
305
330
E3
100
AcDbEntity
  8
0
  6
Continuous
100
AcDbLine
 10
135.9389188402792
 20
146.7892848638702
 30
0.0
 11
135.8953423286353
 21
146.7838490138474
 31
0.0
  0
LINE
  5
306
330
E3
100
AcDbEntity
  8
0
  6
Continuous
100
AcDbLine
 10
135.8953423286353
 20
146.7838490138474
 30
0.0
 11
135.8517624943447
 21
146.7784164864713
 31
0.0
  0
LINE
  5
307
330
E3
100
AcDbEntity
  8
0
  6
Continuous
100
AcDbLine
 10
135.8517624943447
 20
146.7784164864713
 30
0.0
 11
135.8085182473722
 21
146.7729806364484
 31
0.0
  0
LINE
  5
308
330
E3
100
AcDbEntity
  8
0
  6
Continuous
100
AcDbLine
 10
135.8085182473722
 20
146.7729806364484
 30
0.0
 11
135.7659318844488
 21
146.7675447864256
 31
0.0
  0
LINE
  5
309
330
E3
100
AcDbEntity
  8
0
  6
Continuous
100
AcDbLine
 10
135.7659318844488
 20
146.7675447864256
 30
0.0
 11
135.7243290249526
 21
146.7621122590495
 31
0.0
  0
LINE
  5
30A
330
E3
100
AcDbEntity
  8
0
  6
Continuous
100
AcDbLine
 10
135.7243290249526
 20
146.7621122590495
 30
0.0
 11
135.6840319656147
 21
146.7566764090267
 31
0.0
  0
LINE
  5
30B
330
E3
100
AcDbEntity
  8
0
  6
Continuous
100
AcDbLine
 10
135.6840319656147
 20
146.7566764090267
 30
0.0
 11
135.6453397446392
 21
146.7512405590038
 31
0.0
  0
LINE
  5
30C
330
E3
100
AcDbEntity
  8
0
  6
Continuous
100
AcDbLine
 10
135.6453397446392
 20
146.7512405590038
 30
0.0
 11
135.6085514002304
 21
146.7458080316277
 31
0.0
  0
LINE
  5
30D
330
E3
100
AcDbEntity
  8
0
  6
Continuous
100
AcDbLine
 10
135.6085514002304
 20
146.7458080316277
 30
0.0
 11
135.5739460347122
 21
146.7403721816049
 31
0.0
  0
LINE
  5
30E
330
E3
100
AcDbEntity
  8
0
  6
Continuous
100
AcDbLine
 10
135.5739460347122
 20
146.7403721816049
 30
0.0
 11
135.541786137175
 21
146.734936331582
 31
0.0
  0
LINE
  5
30F
330
E3
100
AcDbEntity
  8
0
  6
Continuous
100
AcDbLine
 10
135.541786137175
 20
146.734936331582
 30
0.0
 11
135.5123175834754
 21
146.729503804206
 31
0.0
  0
LINE
  5
310
330
E3
100
AcDbEntity
  8
0
  6
Continuous
100
AcDbLine
 10
135.5123175834754
 20
146.729503804206
 30
0.0
 11
135.4857663135901
 21
146.7240679541831
 31
0.0
  0
LINE
  5
311
330
E3
100
AcDbEntity
  8
0
  6
Continuous
100
AcDbLine
 10
135.4857663135901
 20
146.7240679541831
 30
0.0
 11
135.4623283636751
 21
146.7186321041603
 31
0.0
  0
LINE
  5
312
330
E3
100
AcDbEntity
  8
0
  6
Continuous
100
AcDbLine
 10
135.4623283636751
 20
146.7186321041603
 30
0.0
 11
135.4421864792995
 21
146.7131995767842
 31
0.0
  0
LINE
  5
313
330
E3
100
AcDbEntity
  8
0
  6
Continuous
100
AcDbLine
 10
135.4421864792995
 20
146.7131995767842
 30
0.0
 11
135.4254935022123
 21
146.7077637267613
 31
0.0
  0
LINE
  5
314
330
E3
100
AcDbEntity
  8
0
  6
Continuous
100
AcDbLine
 10
135.4254935022123
 20
146.7077637267613
 30
0.0
 11
135.4123790156352
 21
146.7023278767385
 31
0.0
  0
LINE
  5
315
330
E3
100
AcDbEntity
  8
0
  6
Continuous
100
AcDbLine
 10
135.4123790156352
 20
146.7023278767385
 30
0.0
 11
135.4029360536762
 21
146.6968953493624
 31
0.0
  0
LINE
  5
316
330
E3
100
AcDbEntity
  8
0
  6
Continuous
100
AcDbLine
 10
135.4029360536762
 20
146.6968953493624
 30
0.0
 11
135.3972433983076
 21
146.6914592913446
 31
0.0
  0
LINE
  5
317
330
E3
100
AcDbEntity
  8
0
  6
Continuous
100
AcDbLine
 10
135.3972433983076
 20
146.6914592913446
 30
0.0
 11
135.3953407473534
 21
146.6860245087359
 31
0.0
  0
LINE
  5
318
330
E3
100
AcDbEntity
  8
0
  6
Continuous
100
AcDbLine
 10
136.3953407473534
 20
146.4903723348228
 30
0.0
 11
136.3934380963993
 21
146.4849375522141
 31
0.0
  0
LINE
  5
319
330
E3
100
AcDbEntity
  8
0
  6
Continuous
100
AcDbLine
 10
136.3934380963993
 20
146.4849375522141
 30
0.0
 11
136.3877446238596
 21
146.4795027696055
 31
0.0
  0
LINE
  5
31A
330
E3
100
AcDbEntity
  8
0
  6
Continuous
100
AcDbLine
 10
136.3877446238596
 20
146.4795027696055
 30
0.0
 11
136.3783023189887
 21
146.4740686928337
 31
0.0
  0
LINE
  5
31B
330
E3
100
AcDbEntity
  8
0
  6
Continuous
100
AcDbLine
 10
136.3783023189887
 20
146.4740686928337
 30
0.0
 11
136.3651878324116
 21
146.4686328428109
 31
0.0
  0
LINE
  5
31C
330
E3
100
AcDbEntity
  8
0
  6
Continuous
100
AcDbLine
 10
136.3651878324116
 20
146.4686328428109
 30
0.0
 11
136.3484948553244
 21
146.4631969927881
 31
0.0
  0
LINE
  5
31D
330
E3
100
AcDbEntity
  8
0
  6
Continuous
100
AcDbLine
 10
136.3484948553244
 20
146.4631969927881
 30
0.0
 11
136.3283529709489
 21
146.4577644654119
 31
0.0
  0
LINE
  5
31E
330
E3
100
AcDbEntity
  8
0
  6
Continuous
100
AcDbLine
 10
136.3283529709489
 20
146.4577644654119
 30
0.0
 11
136.3049183436805
 21
146.4523286153891
 31
0.0
  0
LINE
  5
31F
330
E3
100
AcDbEntity
  8
0
  6
Continuous
100
AcDbLine
 10
136.3049183436805
 20
146.4523286153891
 30
0.0
 11
136.2783637511485
 21
146.4468927653663
 31
0.0
  0
LINE
  5
320
330
E3
100
AcDbEntity
  8
0
  6
Continuous
100
AcDbLine
 10
136.2783637511485
 20
146.4468927653663
 30
0.0
 11
136.2488951974489
 21
146.4414602379902
 31
0.0
  0
LINE
  5
321
330
E3
100
AcDbEntity
  8
0
  6
Continuous
100
AcDbLine
 10
136.2488951974489
 20
146.4414602379902
 30
0.0
 11
136.2167352999116
 21
146.4360243879674
 31
0.0
  0
LINE
  5
322
330
E3
100
AcDbEntity
  8
0
  6
Continuous
100
AcDbLine
 10
136.2167352999116
 20
146.4360243879674
 30
0.0
 11
136.1821299343935
 21
146.4305885379445
 31
0.0
  0
LINE
  5
323
330
E3
100
AcDbEntity
  8
0
  6
Continuous
100
AcDbLine
 10
136.1821299343935
 20
146.4305885379445
 30
0.0
 11
136.1453415899847
 21
146.4251560105684
 31
0.0
  0
LINE
  5
324
330
E3
100
AcDbEntity
  8
0
  6
Continuous
100
AcDbLine
 10
136.1453415899847
 20
146.4251560105684
 30
0.0
 11
136.1066493690092
 21
146.4197201605456
 31
0.0
  0
LINE
  5
325
330
E3
100
AcDbEntity
  8
0
  6
Continuous
100
AcDbLine
 10
136.1066493690092
 20
146.4197201605456
 30
0.0
 11
136.0663523096713
 21
146.4142843105228
 31
0.0
  0
LINE
  5
326
330
E3
100
AcDbEntity
  8
0
  6
Continuous
100
AcDbLine
 10
136.0663523096713
 20
146.4142843105228
 30
0.0
 11
136.0247494501751
 21
146.4088517831466
 31
0.0
  0
LINE
  5
327
330
E3
100
AcDbEntity
  8
0
  6
Continuous
100
AcDbLine
 10
136.0247494501751
 20
146.4088517831466
 30
0.0
 11
135.9821664098985
 21
146.4034159331238
 31
0.0
  0
LINE
  5
328
330
E3
100
AcDbEntity
  8
0
  6
Continuous
100
AcDbLine
 10
135.9821664098985
 20
146.4034159331238
 30
0.0
 11
135.9389188402792
 21
146.397980083101
 31
0.0
  0
LINE
  5
329
330
E3
100
AcDbEntity
  8
0
  6
Continuous
100
AcDbLine
 10
135.9389188402792
 20
146.397980083101
 30
0.0
 11
135.8953423286353
 21
146.3925475557249
 31
0.0
  0
LINE
  5
32A
330
E3
100
AcDbEntity
  8
0
  6
Continuous
100
AcDbLine
 10
135.8953423286353
 20
146.3925475557249
 30
0.0
 11
135.8517624943447
 21
146.387111705702
 31
0.0
  0
LINE
  5
32B
330
E3
100
AcDbEntity
  8
0
  6
Continuous
100
AcDbLine
 10
135.8517624943447
 20
146.387111705702
 30
0.0
 11
135.8085182473722
 21
146.3816758556792
 31
0.0
  0
LINE
  5
32C
330
E3
100
AcDbEntity
  8
0
  6
Continuous
100
AcDbLine
 10
135.8085182473722
 20
146.3816758556792
 30
0.0
 11
135.7659318844488
 21
146.3762433283031
 31
0.0
  0
LINE
  5
32D
330
E3
100
AcDbEntity
  8
0
  6
Continuous
100
AcDbLine
 10
135.7659318844488
 20
146.3762433283031
 30
0.0
 11
135.7243290249526
 21
146.3708074782803
 31
0.0
  0
LINE
  5
32E
330
E3
100
AcDbEntity
  8
0
  6
Continuous
100
AcDbLine
 10
135.7243290249526
 20
146.3708074782803
 30
0.0
 11
135.6840319656147
 21
146.3653716282574
 31
0.0
  0
LINE
  5
32F
330
E3
100
AcDbEntity
  8
0
  6
Continuous
100
AcDbLine
 10
135.6840319656147
 20
146.3653716282574
 30
0.0
 11
135.6453397446392
 21
146.3599391008813
 31
0.0
  0
LINE
  5
330
330
E3
100
AcDbEntity
  8
0
  6
Continuous
100
AcDbLine
 10
135.6453397446392
 20
146.3599391008813
 30
0.0
 11
135.6085514002304
 21
146.3545032508585
 31
0.0
  0
LINE
  5
331
330
E3
100
AcDbEntity
  8
0
  6
Continuous
100
AcDbLine
 10
135.6085514002304
 20
146.3545032508585
 30
0.0
 11
135.5739460347122
 21
146.3490674008357
 31
0.0
  0
LINE
  5
332
330
E3
100
AcDbEntity
  8
0
  6
Continuous
100
AcDbLine
 10
135.5739460347122
 20
146.3490674008357
 30
0.0
 11
135.541786137175
 21
146.3436315508128
 31
0.0
  0
LINE
  5
333
330
E3
100
AcDbEntity
  8
0
  6
Continuous
100
AcDbLine
 10
135.541786137175
 20
146.3436315508128
 30
0.0
 11
135.5123175834754
 21
146.3381990234367
 31
0.0
  0
LINE
  5
334
330
E3
100
AcDbEntity
  8
0
  6
Continuous
100
AcDbLine
 10
135.5123175834754
 20
146.3381990234367
 30
0.0
 11
135.4857663135901
 21
146.3327631734139
 31
0.0
  0
LINE
  5
335
330
E3
100
AcDbEntity
  8
0
  6
Continuous
100
AcDbLine
 10
135.4857663135901
 20
146.3327631734139
 30
0.0
 11
135.4623283636751
 21
146.3273273233911
 31
0.0
  0
LINE
  5
336
330
E3
100
AcDbEntity
  8
0
  6
Continuous
100
AcDbLine
 10
135.4623283636751
 20
146.3273273233911
 30
0.0
 11
135.4421864792995
 21
146.321894796015
 31
0.0
  0
LINE
  5
337
330
E3
100
AcDbEntity
  8
0
  6
Continuous
100
AcDbLine
 10
135.4421864792995
 20
146.321894796015
 30
0.0
 11
135.4254935022123
 21
146.3164589459921
 31
0.0
  0
LINE
  5
338
330
E3
100
AcDbEntity
  8
0
  6
Continuous
100
AcDbLine
 10
135.4254935022123
 20
146.3164589459921
 30
0.0
 11
135.4123790156352
 21
146.3110230959693
 31
0.0
  0
LINE
  5
339
330
E3
100
AcDbEntity
  8
0
  6
Continuous
100
AcDbLine
 10
135.4123790156352
 20
146.3110230959693
 30
0.0
 11
135.4029360536762
 21
146.3055905685932
 31
0.0
  0
LINE
  5
33A
330
E3
100
AcDbEntity
  8
0
  6
Continuous
100
AcDbLine
 10
135.4029360536762
 20
146.3055905685932
 30
0.0
 11
135.3972433983076
 21
146.3001549435185
 31
0.0
  0
LINE
  5
33B
330
E3
100
AcDbEntity
  8
0
  6
Continuous
100
AcDbLine
 10
135.3972433983076
 20
146.3001549435185
 30
0.0
 11
135.3953407473534
 21
146.2947201609098
 31
0.0
  0
LINE
  5
33C
330
E3
100
AcDbEntity
  8
0
  6
Continuous
100
AcDbLine
 10
136.3953407473534
 20
146.0990679869968
 30
0.0
 11
136.3934380963993
 21
146.0936332043881
 31
0.0
  0
LINE
  5
33D
330
E3
100
AcDbEntity
  8
0
  6
Continuous
100
AcDbLine
 10
136.3934380963993
 20
146.0936332043881
 30
0.0
 11
136.3877446238595
 21
146.0881984217794
 31
0.0
  0
LINE
  5
33E
330
E3
100
AcDbEntity
  8
0
  6
Continuous
100
AcDbLine
 10
136.3877446238595
 20
146.0881984217794
 30
0.0
 11
136.3783023189887
 21
146.0827639120645
 31
0.0
  0
LINE
  5
33F
330
E3
100
AcDbEntity
  8
0
  6
Continuous
100
AcDbLine
 10
136.3783023189887
 20
146.0827639120645
 30
0.0
 11
136.3651878324116
 21
146.0773280620417
 31
0.0
  0
LINE
  5
340
330
E3
100
AcDbEntity
  8
0
  6
Continuous
100
AcDbLine
 10
136.3651878324116
 20
146.0773280620417
 30
0.0
 11
136.3484948553244
 21
146.0718955346655
 31
0.0
  0
LINE
  5
341
330
E3
100
AcDbEntity
  8
0
  6
Continuous
100
AcDbLine
 10
136.3484948553244
 20
146.0718955346655
 30
0.0
 11
136.3283529709489
 21
146.0664596846427
 31
0.0
  0
LINE
  5
342
330
E3
100
AcDbEntity
  8
0
  6
Continuous
100
AcDbLine
 10
136.3283529709489
 20
146.0664596846427
 30
0.0
 11
136.3049183436805
 21
146.0610238346199
 31
0.0
  0
LINE
  5
343
330
E3
100
AcDbEntity
  8
0
  6
Continuous
100
AcDbLine
 10
136.3049183436805
 20
146.0610238346199
 30
0.0
 11
136.2783637511485
 21
146.0555913072438
 31
0.0
  0
LINE
  5
344
330
E3
100
AcDbEntity
  8
0
  6
Continuous
100
AcDbLine
 10
136.2783637511485
 20
146.0555913072438
 30
0.0
 11
136.2488951974489
 21
146.050155457221
 31
0.0
  0
LINE
  5
345
330
E3
100
AcDbEntity
  8
0
  6
Continuous
100
AcDbLine
 10
136.2488951974489
 20
146.050155457221
 30
0.0
 11
136.2167352999116
 21
146.0447196071981
 31
0.0
  0
LINE
  5
346
330
E3
100
AcDbEntity
  8
0
  6
Continuous
100
AcDbLine
 10
136.2167352999116
 20
146.0447196071981
 30
0.0
 11
136.1821299343935
 21
146.0392837571753
 31
0.0
  0
LINE
  5
347
330
E3
100
AcDbEntity
  8
0
  6
Continuous
100
AcDbLine
 10
136.1821299343935
 20
146.0392837571753
 30
0.0
 11
136.1453415899847
 21
146.0338512297992
 31
0.0
  0
LINE
  5
348
330
E3
100
AcDbEntity
  8
0
  6
Continuous
100
AcDbLine
 10
136.1453415899847
 20
146.0338512297992
 30
0.0
 11
136.1066493690092
 21
146.0284153797763
 31
0.0
  0
LINE
  5
349
330
E3
100
AcDbEntity
  8
0
  6
Continuous
100
AcDbLine
 10
136.1066493690092
 20
146.0284153797763
 30
0.0
 11
136.0663523096713
 21
146.0229795297535
 31
0.0
  0
LINE
  5
34A
330
E3
100
AcDbEntity
  8
0
  6
Continuous
100
AcDbLine
 10
136.0663523096713
 20
146.0229795297535
 30
0.0
 11
136.0247494501751
 21
146.0175470023774
 31
0.0
  0
LINE
  5
34B
330
E3
100
AcDbEntity
  8
0
  6
Continuous
100
AcDbLine
 10
136.0247494501751
 20
146.0175470023774
 30
0.0
 11
135.9821664098985
 21
146.0121111523546
 31
0.0
  0
LINE
  5
34C
330
E3
100
AcDbEntity
  8
0
  6
Continuous
100
AcDbLine
 10
135.9821664098985
 20
146.0121111523546
 30
0.0
 11
135.9389188402792
 21
146.0066753023318
 31
0.0
  0
LINE
  5
34D
330
E3
100
AcDbEntity
  8
0
  6
Continuous
100
AcDbLine
 10
135.9389188402792
 20
146.0066753023318
 30
0.0
 11
135.8953423286353
 21
146.0012427749556
 31
0.0
  0
LINE
  5
34E
330
E3
100
AcDbEntity
  8
0
  6
Continuous
100
AcDbLine
 10
135.8953423286353
 20
146.0012427749556
 30
0.0
 11
135.8517624943447
 21
145.9958069249328
 31
0.0
  0
LINE
  5
34F
330
E3
100
AcDbEntity
  8
0
  6
Continuous
100
AcDbLine
 10
135.8517624943447
 20
145.9958069249328
 30
0.0
 11
135.8085182473722
 21
145.99037107491
 31
0.0
  0
LINE
  5
350
330
E3
100
AcDbEntity
  8
0
  6
Continuous
100
AcDbLine
 10
135.8085182473722
 20
145.99037107491
 30
0.0
 11
135.7659318844488
 21
145.9849385475339
 31
0.0
  0
LINE
  5
351
330
E3
100
AcDbEntity
  8
0
  6
Continuous
100
AcDbLine
 10
135.7659318844488
 20
145.9849385475339
 30
0.0
 11
135.7243290249526
 21
145.9795026975111
 31
0.0
  0
LINE
  5
352
330
E3
100
AcDbEntity
  8
0
  6
Continuous
100
AcDbLine
 10
135.7243290249526
 20
145.9795026975111
 30
0.0
 11
135.6840319656147
 21
145.9740668474882
 31
0.0
  0
LINE
  5
353
330
E3
100
AcDbEntity
  8
0
  6
Continuous
100
AcDbLine
 10
135.6840319656147
 20
145.9740668474882
 30
0.0
 11
135.6453397446392
 21
145.9686343201121
 31
0.0
  0
LINE
  5
354
330
E3
100
AcDbEntity
  8
0
  6
Continuous
100
AcDbLine
 10
135.6453397446392
 20
145.9686343201121
 30
0.0
 11
135.6085514002304
 21
145.9631984700893
 31
0.0
  0
LINE
  5
355
330
E3
100
AcDbEntity
  8
0
  6
Continuous
100
AcDbLine
 10
135.6085514002304
 20
145.9631984700893
 30
0.0
 11
135.5739460347122
 21
145.9577626200664
 31
0.0
  0
LINE
  5
356
330
E3
100
AcDbEntity
  8
0
  6
Continuous
100
AcDbLine
 10
135.5739460347122
 20
145.9577626200664
 30
0.0
 11
135.541786137175
 21
145.9523300926903
 31
0.0
  0
LINE
  5
357
330
E3
100
AcDbEntity
  8
0
  6
Continuous
100
AcDbLine
 10
135.541786137175
 20
145.9523300926903
 30
0.0
 11
135.5123175834754
 21
145.9468942426675
 31
0.0
  0
LINE
  5
358
330
E3
100
AcDbEntity
  8
0
  6
Continuous
100
AcDbLine
 10
135.5123175834754
 20
145.9468942426675
 30
0.0
 11
135.4857663135901
 21
145.9414583926447
 31
0.0
  0
LINE
  5
359
330
E3
100
AcDbEntity
  8
0
  6
Continuous
100
AcDbLine
 10
135.4857663135901
 20
145.9414583926447
 30
0.0
 11
135.4623283636751
 21
145.9360258652686
 31
0.0
  0
LINE
  5
35A
330
E3
100
AcDbEntity
  8
0
  6
Continuous
100
AcDbLine
 10
135.4623283636751
 20
145.9360258652686
 30
0.0
 11
135.4421864792995
 21
145.9305900152457
 31
0.0
  0
LINE
  5
35B
330
E3
100
AcDbEntity
  8
0
  6
Continuous
100
AcDbLine
 10
135.4421864792995
 20
145.9305900152457
 30
0.0
 11
135.4254935022123
 21
145.9251541652229
 31
0.0
  0
LINE
  5
35C
330
E3
100
AcDbEntity
  8
0
  6
Continuous
100
AcDbLine
 10
135.4254935022123
 20
145.9251541652229
 30
0.0
 11
135.4123790156352
 21
145.9197216378468
 31
0.0
  0
LINE
  5
35D
330
E3
100
AcDbEntity
  8
0
  6
Continuous
100
AcDbLine
 10
135.4123790156352
 20
145.9197216378468
 30
0.0
 11
135.4029360536762
 21
145.914285787824
 31
0.0
  0
LINE
  5
35E
330
E3
100
AcDbEntity
  8
0
  6
Continuous
100
AcDbLine
 10
135.4029360536762
 20
145.914285787824
 30
0.0
 11
135.3972433983076
 21
145.9088505956924
 31
0.0
  0
LINE
  5
35F
330
E3
100
AcDbEntity
  8
0
  6
Continuous
100
AcDbLine
 10
135.3972433983076
 20
145.9088505956924
 30
0.0
 11
135.3953407473534
 21
145.9034158130837
 31
0.0
  0
LINE
  5
360
330
E3
100
AcDbEntity
  8
0
  6
Continuous
100
AcDbLine
 10
136.3953407473534
 20
145.7077636391707
 30
0.0
 11
136.3934380963993
 21
145.702328856562
 31
0.0
  0
LINE
  5
361
330
E3
100
AcDbEntity
  8
0
  6
Continuous
100
AcDbLine
 10
136.3934380963993
 20
145.702328856562
 30
0.0
 11
136.3877446238595
 21
145.6968940739533
 31
0.0
  0
LINE
  5
362
330
E3
100
AcDbEntity
  8
0
  6
Continuous
100
AcDbLine
 10
136.3877446238595
 20
145.6968940739533
 30
0.0
 11
136.3783023189887
 21
145.6914591312953
 31
0.0
  0
LINE
  5
363
330
E3
100
AcDbEntity
  8
0
  6
Continuous
100
AcDbLine
 10
136.3783023189887
 20
145.6914591312953
 30
0.0
 11
136.3651878324116
 21
145.6860232812724
 31
0.0
  0
LINE
  5
364
330
E3
100
AcDbEntity
  8
0
  6
Continuous
100
AcDbLine
 10
136.3651878324116
 20
145.6860232812724
 30
0.0
 11
136.3484948553244
 21
145.6805907538963
 31
0.0
  0
LINE
  5
365
330
E3
100
AcDbEntity
  8
0
  6
Continuous
100
AcDbLine
 10
136.3484948553244
 20
145.6805907538963
 30
0.0
 11
136.3283529709489
 21
145.6751549038735
 31
0.0
  0
LINE
  5
366
330
E3
100
AcDbEntity
  8
0
  6
Continuous
100
AcDbLine
 10
136.3283529709489
 20
145.6751549038735
 30
0.0
 11
136.3049183436805
 21
145.6697190538507
 31
0.0
  0
LINE
  5
367
330
E3
100
AcDbEntity
  8
0
  6
Continuous
100
AcDbLine
 10
136.3049183436805
 20
145.6697190538507
 30
0.0
 11
136.2783637511485
 21
145.6642865264746
 31
0.0
  0
LINE
  5
368
330
E3
100
AcDbEntity
  8
0
  6
Continuous
100
AcDbLine
 10
136.2783637511485
 20
145.6642865264746
 30
0.0
 11
136.2488951974489
 21
145.6588506764517
 31
0.0
  0
LINE
  5
369
330
E3
100
AcDbEntity
  8
0
  6
Continuous
100
AcDbLine
 10
136.2488951974489
 20
145.6588506764517
 30
0.0
 11
136.2167352999116
 21
145.6534148264289
 31
0.0
  0
LINE
  5
36A
330
E3
100
AcDbEntity
  8
0
  6
Continuous
100
AcDbLine
 10
136.2167352999116
 20
145.6534148264289
 30
0.0
 11
136.1821299343935
 21
145.6479822990528
 31
0.0
  0
LINE
  5
36B
330
E3
100
AcDbEntity
  8
0
  6
Continuous
100
AcDbLine
 10
136.1821299343935
 20
145.6479822990528
 30
0.0
 11
136.1453415899847
 21
145.64254644903
 31
0.0
  0
LINE
  5
36C
330
E3
100
AcDbEntity
  8
0
  6
Continuous
100
AcDbLine
 10
136.1453415899847
 20
145.64254644903
 30
0.0
 11
136.1066493690092
 21
145.6371105990071
 31
0.0
  0
LINE
  5
36D
330
E3
100
AcDbEntity
  8
0
  6
Continuous
100
AcDbLine
 10
136.1066493690092
 20
145.6371105990071
 30
0.0
 11
136.0663523096713
 21
145.631678071631
 31
0.0
  0
LINE
  5
36E
330
E3
100
AcDbEntity
  8
0
  6
Continuous
100
AcDbLine
 10
136.0663523096713
 20
145.631678071631
 30
0.0
 11
136.0247494501751
 21
145.6262422216082
 31
0.0
  0
LINE
  5
36F
330
E3
100
AcDbEntity
  8
0
  6
Continuous
100
AcDbLine
 10
136.0247494501751
 20
145.6262422216082
 30
0.0
 11
135.9821664098985
 21
145.6208063715854
 31
0.0
  0
LINE
  5
370
330
E3
100
AcDbEntity
  8
0
  6
Continuous
100
AcDbLine
 10
135.9821664098985
 20
145.6208063715854
 30
0.0
 11
135.9389188402792
 21
145.6153738442092
 31
0.0
  0
LINE
  5
371
330
E3
100
AcDbEntity
  8
0
  6
Continuous
100
AcDbLine
 10
135.9389188402792
 20
145.6153738442092
 30
0.0
 11
135.8953423286353
 21
145.6099379941864
 31
0.0
  0
LINE
  5
372
330
E3
100
AcDbEntity
  8
0
  6
Continuous
100
AcDbLine
 10
135.8953423286353
 20
145.6099379941864
 30
0.0
 11
135.8517624943447
 21
145.6045021441636
 31
0.0
  0
LINE
  5
373
330
E3
100
AcDbEntity
  8
0
  6
Continuous
100
AcDbLine
 10
135.8517624943447
 20
145.6045021441636
 30
0.0
 11
135.8085182473722
 21
145.5990696167875
 31
0.0
  0
LINE
  5
374
330
E3
100
AcDbEntity
  8
0
  6
Continuous
100
AcDbLine
 10
135.8085182473722
 20
145.5990696167875
 30
0.0
 11
135.7659318844488
 21
145.5936337667646
 31
0.0
  0
LINE
  5
375
330
E3
100
AcDbEntity
  8
0
  6
Continuous
100
AcDbLine
 10
135.7659318844488
 20
145.5936337667646
 30
0.0
 11
135.7243290249526
 21
145.5881979167418
 31
0.0
  0
LINE
  5
376
330
E3
100
AcDbEntity
  8
0
  6
Continuous
100
AcDbLine
 10
135.7243290249526
 20
145.5881979167418
 30
0.0
 11
135.6840319656147
 21
145.582762066719
 31
0.0
  0
LINE
  5
377
330
E3
100
AcDbEntity
  8
0
  6
Continuous
100
AcDbLine
 10
135.6840319656147
 20
145.582762066719
 30
0.0
 11
135.6453397446392
 21
145.5773295393429
 31
0.0
  0
LINE
  5
378
330
E3
100
AcDbEntity
  8
0
  6
Continuous
100
AcDbLine
 10
135.6453397446392
 20
145.5773295393429
 30
0.0
 11
135.6085514002304
 21
145.5718936893201
 31
0.0
  0
LINE
  5
379
330
E3
100
AcDbEntity
  8
0
  6
Continuous
100
AcDbLine
 10
135.6085514002304
 20
145.5718936893201
 30
0.0
 11
135.5739460347122
 21
145.5664578392972
 31
0.0
  0
LINE
  5
37A
330
E3
100
AcDbEntity
  8
0
  6
Continuous
100
AcDbLine
 10
135.5739460347122
 20
145.5664578392972
 30
0.0
 11
135.541786137175
 21
145.5610253119211
 31
0.0
  0
LINE
  5
37B
330
E3
100
AcDbEntity
  8
0
  6
Continuous
100
AcDbLine
 10
135.541786137175
 20
145.5610253119211
 30
0.0
 11
135.5123175834754
 21
145.5555894618983
 31
0.0
  0
LINE
  5
37C
330
E3
100
AcDbEntity
  8
0
  6
Continuous
100
AcDbLine
 10
135.5123175834754
 20
145.5555894618983
 30
0.0
 11
135.4857663135901
 21
145.5501536118755
 31
0.0
  0
LINE
  5
37D
330
E3
100
AcDbEntity
  8
0
  6
Continuous
100
AcDbLine
 10
135.4857663135901
 20
145.5501536118755
 30
0.0
 11
135.4623283636751
 21
145.5447210844993
 31
0.0
  0
LINE
  5
37E
330
E3
100
AcDbEntity
  8
0
  6
Continuous
100
AcDbLine
 10
135.4623283636751
 20
145.5447210844993
 30
0.0
 11
135.4421864792995
 21
145.5392852344765
 31
0.0
  0
LINE
  5
37F
330
E3
100
AcDbEntity
  8
0
  6
Continuous
100
AcDbLine
 10
135.4421864792995
 20
145.5392852344765
 30
0.0
 11
135.4254935022123
 21
145.5338493844537
 31
0.0
  0
LINE
  5
380
330
E3
100
AcDbEntity
  8
0
  6
Continuous
100
AcDbLine
 10
135.4254935022123
 20
145.5338493844537
 30
0.0
 11
135.4123790156352
 21
145.5284168570776
 31
0.0
  0
LINE
  5
381
330
E3
100
AcDbEntity
  8
0
  6
Continuous
100
AcDbLine
 10
135.4123790156352
 20
145.5284168570776
 30
0.0
 11
135.4029360536762
 21
145.5229810070547
 31
0.0
  0
LINE
  5
382
330
E3
100
AcDbEntity
  8
0
  6
Continuous
100
AcDbLine
 10
135.4029360536762
 20
145.5229810070547
 30
0.0
 11
135.3972433983076
 21
145.5175462478663
 31
0.0
  0
LINE
  5
383
330
E3
100
AcDbEntity
  8
0
  6
Continuous
100
AcDbLine
 10
135.3972433983076
 20
145.5175462478663
 30
0.0
 11
135.3953407473534
 21
145.5121114652576
 31
0.0
  0
LINE
  5
384
330
E3
100
AcDbEntity
  8
0
  6
Continuous
100
AcDbLine
 10
136.3953407473534
 20
145.3164592913446
 30
0.0
 11
136.3934380963993
 21
145.3110245087359
 31
0.0
  0
LINE
  5
385
330
E3
100
AcDbEntity
  8
0
  6
Continuous
100
AcDbLine
 10
136.3934380963993
 20
145.3110245087359
 30
0.0
 11
136.3877446238595
 21
145.3055897261272
 31
0.0
  0
LINE
  5
386
330
E3
100
AcDbEntity
  8
0
  6
Continuous
100
AcDbLine
 10
136.3877446238595
 20
145.3055897261272
 30
0.0
 11
136.3783023189887
 21
145.3001543505261
 31
0.0
  0
LINE
  5
387
330
E3
100
AcDbEntity
  8
0
  6
Continuous
100
AcDbLine
 10
136.3783023189887
 20
145.3001543505261
 30
0.0
 11
136.3651878324116
 21
145.2947185005033
 31
0.0
  0
LINE
  5
388
330
E3
100
AcDbEntity
  8
0
  6
Continuous
100
AcDbLine
 10
136.3651878324116
 20
145.2947185005033
 30
0.0
 11
136.3484948553244
 21
145.2892859731271
 31
0.0
  0
LINE
  5
389
330
E3
100
AcDbEntity
  8
0
  6
Continuous
100
AcDbLine
 10
136.3484948553244
 20
145.2892859731271
 30
0.0
 11
136.3283529709489
 21
145.2838501231043
 31
0.0
  0
LINE
  5
38A
330
E3
100
AcDbEntity
  8
0
  6
Continuous
100
AcDbLine
 10
136.3283529709489
 20
145.2838501231043
 30
0.0
 11
136.3049183436805
 21
145.2784142730815
 31
0.0
  0
LINE
  5
38B
330
E3
100
AcDbEntity
  8
0
  6
Continuous
100
AcDbLine
 10
136.3049183436805
 20
145.2784142730815
 30
0.0
 11
136.2783637511485
 21
145.2729817457054
 31
0.0
  0
LINE
  5
38C
330
E3
100
AcDbEntity
  8
0
  6
Continuous
100
AcDbLine
 10
136.2783637511485
 20
145.2729817457054
 30
0.0
 11
136.2488951974489
 21
145.2675458956825
 31
0.0
  0
LINE
  5
38D
330
E3
100
AcDbEntity
  8
0
  6
Continuous
100
AcDbLine
 10
136.2488951974489
 20
145.2675458956825
 30
0.0
 11
136.2167352999116
 21
145.2621100456597
 31
0.0
  0
LINE
  5
38E
330
E3
100
AcDbEntity
  8
0
  6
Continuous
100
AcDbLine
 10
136.2167352999116
 20
145.2621100456597
 30
0.0
 11
136.1821299343935
 21
145.2566775182836
 31
0.0
  0
LINE
  5
38F
330
E3
100
AcDbEntity
  8
0
  6
Continuous
100
AcDbLine
 10
136.1821299343935
 20
145.2566775182836
 30
0.0
 11
136.1453415899847
 21
145.2512416682607
 31
0.0
  0
LINE
  5
390
330
E3
100
AcDbEntity
  8
0
  6
Continuous
100
AcDbLine
 10
136.1453415899847
 20
145.2512416682607
 30
0.0
 11
136.1066493690092
 21
145.2458058182379
 31
0.0
  0
LINE
  5
391
330
E3
100
AcDbEntity
  8
0
  6
Continuous
100
AcDbLine
 10
136.1066493690092
 20
145.2458058182379
 30
0.0
 11
136.0663523096713
 21
145.2403732908618
 31
0.0
  0
LINE
  5
392
330
E3
100
AcDbEntity
  8
0
  6
Continuous
100
AcDbLine
 10
136.0663523096713
 20
145.2403732908618
 30
0.0
 11
136.0247494501751
 21
145.234937440839
 31
0.0
  0
LINE
  5
393
330
E3
100
AcDbEntity
  8
0
  6
Continuous
100
AcDbLine
 10
136.0247494501751
 20
145.234937440839
 30
0.0
 11
135.9821664098985
 21
145.2295015908162
 31
0.0
  0
LINE
  5
394
330
E3
100
AcDbEntity
  8
0
  6
Continuous
100
AcDbLine
 10
135.9821664098985
 20
145.2295015908162
 30
0.0
 11
135.9389188402792
 21
145.2240690634401
 31
0.0
  0
LINE
  5
395
330
E3
100
AcDbEntity
  8
0
  6
Continuous
100
AcDbLine
 10
135.9389188402792
 20
145.2240690634401
 30
0.0
 11
135.8953423286353
 21
145.2186332134172
 31
0.0
  0
LINE
  5
396
330
E3
100
AcDbEntity
  8
0
  6
Continuous
100
AcDbLine
 10
135.8953423286353
 20
145.2186332134172
 30
0.0
 11
135.8517624943447
 21
145.2131973633944
 31
0.0
  0
LINE
  5
397
330
E3
100
AcDbEntity
  8
0
  6
Continuous
100
AcDbLine
 10
135.8517624943447
 20
145.2131973633944
 30
0.0
 11
135.8085182473722
 21
145.2077648360183
 31
0.0
  0
LINE
  5
398
330
E3
100
AcDbEntity
  8
0
  6
Continuous
100
AcDbLine
 10
135.8085182473722
 20
145.2077648360183
 30
0.0
 11
135.7659318844488
 21
145.2023289859955
 31
0.0
  0
LINE
  5
399
330
E3
100
AcDbEntity
  8
0
  6
Continuous
100
AcDbLine
 10
135.7659318844488
 20
145.2023289859955
 30
0.0
 11
135.7243290249526
 21
145.1968931359726
 31
0.0
  0
LINE
  5
39A
330
E3
100
AcDbEntity
  8
0
  6
Continuous
100
AcDbLine
 10
135.7243290249526
 20
145.1968931359726
 30
0.0
 11
135.6840319656147
 21
145.1914606085965
 31
0.0
  0
LINE
  5
39B
330
E3
100
AcDbEntity
  8
0
  6
Continuous
100
AcDbLine
 10
135.6840319656147
 20
145.1914606085965
 30
0.0
 11
135.6453397446392
 21
145.1860247585737
 31
0.0
  0
LINE
  5
39C
330
E3
100
AcDbEntity
  8
0
  6
Continuous
100
AcDbLine
 10
135.6453397446392
 20
145.1860247585737
 30
0.0
 11
135.6085514002304
 21
145.1805889085508
 31
0.0
  0
LINE
  5
39D
330
E3
100
AcDbEntity
  8
0
  6
Continuous
100
AcDbLine
 10
135.6085514002304
 20
145.1805889085508
 30
0.0
 11
135.5739460347122
 21
145.1751563811747
 31
0.0
  0
LINE
  5
39E
330
E3
100
AcDbEntity
  8
0
  6
Continuous
100
AcDbLine
 10
135.5739460347122
 20
145.1751563811747
 30
0.0
 11
135.541786137175
 21
145.1697205311519
 31
0.0
  0
LINE
  5
39F
330
E3
100
AcDbEntity
  8
0
  6
Continuous
100
AcDbLine
 10
135.541786137175
 20
145.1697205311519
 30
0.0
 11
135.5123175834754
 21
145.1642846811291
 31
0.0
  0
LINE
  5
3A0
330
E3
100
AcDbEntity
  8
0
  6
Continuous
100
AcDbLine
 10
135.5123175834754
 20
145.1642846811291
 30
0.0
 11
135.4857663135901
 21
145.1588521537529
 31
0.0
  0
LINE
  5
3A1
330
E3
100
AcDbEntity
  8
0
  6
Continuous
100
AcDbLine
 10
135.4857663135901
 20
145.1588521537529
 30
0.0
 11
135.4623283636751
 21
145.1534163037301
 31
0.0
  0
LINE
  5
3A2
330
E3
100
AcDbEntity
  8
0
  6
Continuous
100
AcDbLine
 10
135.4623283636751
 20
145.1534163037301
 30
0.0
 11
135.4421864792995
 21
145.1479804537073
 31
0.0
  0
LINE
  5
3A3
330
E3
100
AcDbEntity
  8
0
  6
Continuous
100
AcDbLine
 10
135.4421864792995
 20
145.1479804537073
 30
0.0
 11
135.4254935022123
 21
145.1425446036845
 31
0.0
  0
LINE
  5
3A4
330
E3
100
AcDbEntity
  8
0
  6
Continuous
100
AcDbLine
 10
135.4254935022123
 20
145.1425446036845
 30
0.0
 11
135.4123790156352
 21
145.1371120763084
 31
0.0
  0
LINE
  5
3A5
330
E3
100
AcDbEntity
  8
0
  6
Continuous
100
AcDbLine
 10
135.4123790156352
 20
145.1371120763084
 30
0.0
 11
135.4029360536762
 21
145.1316762262855
 31
0.0
  0
LINE
  5
3A6
330
E3
100
AcDbEntity
  8
0
  6
Continuous
100
AcDbLine
 10
135.4029360536762
 20
145.1316762262855
 30
0.0
 11
135.3972433983076
 21
145.1262419000402
 31
0.0
  0
LINE
  5
3A7
330
E3
100
AcDbEntity
  8
0
  6
Continuous
100
AcDbLine
 10
135.3972433983076
 20
145.1262419000402
 30
0.0
 11
135.3953407473534
 21
145.1208071174316
 31
0.0
  0
LINE
  5
3A8
330
E3
100
AcDbEntity
  8
0
  6
Continuous
100
AcDbLine
 10
136.3953407473534
 20
144.9251549435185
 30
0.0
 11
136.3934380963993
 21
144.9197201609098
 31
0.0
  0
LINE
  5
3A9
330
E3
100
AcDbEntity
  8
0
  6
Continuous
100
AcDbLine
 10
136.3934380963993
 20
144.9197201609098
 30
0.0
 11
136.3877446238595
 21
144.9142853783011
 31
0.0
  0
LINE
  5
3AA
330
E3
100
AcDbEntity
  8
0
  6
Continuous
100
AcDbLine
 10
136.3877446238595
 20
144.9142853783011
 30
0.0
 11
136.3783023189887
 21
144.9088495697569
 31
0.0
  0
LINE
  5
3AB
330
E3
100
AcDbEntity
  8
0
  6
Continuous
100
AcDbLine
 10
136.3783023189887
 20
144.9088495697569
 30
0.0
 11
136.3651878324116
 21
144.9034170423807
 31
0.0
  0
LINE
  5
3AC
330
E3
100
AcDbEntity
  8
0
  6
Continuous
100
AcDbLine
 10
136.3651878324116
 20
144.9034170423807
 30
0.0
 11
136.3484948553244
 21
144.8979811923579
 31
0.0
  0
LINE
  5
3AD
330
E3
100
AcDbEntity
  8
0
  6
Continuous
100
AcDbLine
 10
136.3484948553244
 20
144.8979811923579
 30
0.0
 11
136.3283529709489
 21
144.8925453423351
 31
0.0
  0
LINE
  5
3AE
330
E3
100
AcDbEntity
  8
0
  6
Continuous
100
AcDbLine
 10
136.3283529709489
 20
144.8925453423351
 30
0.0
 11
136.3049183436805
 21
144.887112814959
 31
0.0
  0
LINE
  5
3AF
330
E3
100
AcDbEntity
  8
0
  6
Continuous
100
AcDbLine
 10
136.3049183436805
 20
144.887112814959
 30
0.0
 11
136.2783637511485
 21
144.8816769649361
 31
0.0
  0
LINE
  5
3B0
330
E3
100
AcDbEntity
  8
0
  6
Continuous
100
AcDbLine
 10
136.2783637511485
 20
144.8816769649361
 30
0.0
 11
136.2488951974489
 21
144.8762411149133
 31
0.0
  0
LINE
  5
3B1
330
E3
100
AcDbEntity
  8
0
  6
Continuous
100
AcDbLine
 10
136.2488951974489
 20
144.8762411149133
 30
0.0
 11
136.2167352999116
 21
144.8708085875372
 31
0.0
  0
LINE
  5
3B2
330
E3
100
AcDbEntity
  8
0
  6
Continuous
100
AcDbLine
 10
136.2167352999116
 20
144.8708085875372
 30
0.0
 11
136.1821299343935
 21
144.8653727375144
 31
0.0
  0
LINE
  5
3B3
330
E3
100
AcDbEntity
  8
0
  6
Continuous
100
AcDbLine
 10
136.1821299343935
 20
144.8653727375144
 30
0.0
 11
136.1453415899847
 21
144.8599368874916
 31
0.0
  0
LINE
  5
3B4
330
E3
100
AcDbEntity
  8
0
  6
Continuous
100
AcDbLine
 10
136.1453415899847
 20
144.8599368874916
 30
0.0
 11
136.1066493690092
 21
144.8545043601154
 31
0.0
  0
LINE
  5
3B5
330
E3
100
AcDbEntity
  8
0
  6
Continuous
100
AcDbLine
 10
136.1066493690092
 20
144.8545043601154
 30
0.0
 11
136.0663523096713
 21
144.8490685100926
 31
0.0
  0
LINE
  5
3B6
330
E3
100
AcDbEntity
  8
0
  6
Continuous
100
AcDbLine
 10
136.0663523096713
 20
144.8490685100926
 30
0.0
 11
136.0247494501751
 21
144.8436326600698
 31
0.0
  0
LINE
  5
3B7
330
E3
100
AcDbEntity
  8
0
  6
Continuous
100
AcDbLine
 10
136.0247494501751
 20
144.8436326600698
 30
0.0
 11
135.9821664098985
 21
144.838196810047
 31
0.0
  0
LINE
  5
3B8
330
E3
100
AcDbEntity
  8
0
  6
Continuous
100
AcDbLine
 10
135.9821664098985
 20
144.838196810047
 30
0.0
 11
135.9389188402792
 21
144.8327642826708
 31
0.0
  0
LINE
  5
3B9
330
E3
100
AcDbEntity
  8
0
  6
Continuous
100
AcDbLine
 10
135.9389188402792
 20
144.8327642826708
 30
0.0
 11
135.8953423286353
 21
144.827328432648
 31
0.0
  0
LINE
  5
3BA
330
E3
100
AcDbEntity
  8
0
  6
Continuous
100
AcDbLine
 10
135.8953423286353
 20
144.827328432648
 30
0.0
 11
135.8517624943447
 21
144.8218925826252
 31
0.0
  0
LINE
  5
3BB
330
E3
100
AcDbEntity
  8
0
  6
Continuous
100
AcDbLine
 10
135.8517624943447
 20
144.8218925826252
 30
0.0
 11
135.8085182473722
 21
144.8164600552491
 31
0.0
  0
LINE
  5
3BC
330
E3
100
AcDbEntity
  8
0
  6
Continuous
100
AcDbLine
 10
135.8085182473722
 20
144.8164600552491
 30
0.0
 11
135.7659318844488
 21
144.8110242052262
 31
0.0
  0
LINE
  5
3BD
330
E3
100
AcDbEntity
  8
0
  6
Continuous
100
AcDbLine
 10
135.7659318844488
 20
144.8110242052262
 30
0.0
 11
135.7243290249526
 21
144.8055883552034
 31
0.0
  0
LINE
  5
3BE
330
E3
100
AcDbEntity
  8
0
  6
Continuous
100
AcDbLine
 10
135.7243290249526
 20
144.8055883552034
 30
0.0
 11
135.6840319656147
 21
144.8001558278273
 31
0.0
  0
LINE
  5
3BF
330
E3
100
AcDbEntity
  8
0
  6
Continuous
100
AcDbLine
 10
135.6840319656147
 20
144.8001558278273
 30
0.0
 11
135.6453397446392
 21
144.7947199778045
 31
0.0
  0
LINE
  5
3C0
330
E3
100
AcDbEntity
  8
0
  6
Continuous
100
AcDbLine
 10
135.6453397446392
 20
144.7947199778045
 30
0.0
 11
135.6085514002304
 21
144.7892841277816
 31
0.0
  0
LINE
  5
3C1
330
E3
100
AcDbEntity
  8
0
  6
Continuous
100
AcDbLine
 10
135.6085514002304
 20
144.7892841277816
 30
0.0
 11
135.5739460347122
 21
144.7838516004055
 31
0.0
  0
LINE
  5
3C2
330
E3
100
AcDbEntity
  8
0
  6
Continuous
100
AcDbLine
 10
135.5739460347122
 20
144.7838516004055
 30
0.0
 11
135.541786137175
 21
144.7784157503827
 31
0.0
  0
LINE
  5
3C3
330
E3
100
AcDbEntity
  8
0
  6
Continuous
100
AcDbLine
 10
135.541786137175
 20
144.7784157503827
 30
0.0
 11
135.5123175834754
 21
144.7729799003599
 31
0.0
  0
LINE
  5
3C4
330
E3
100
AcDbEntity
  8
0
  6
Continuous
100
AcDbLine
 10
135.5123175834754
 20
144.7729799003599
 30
0.0
 11
135.4857663135901
 21
144.7675473729838
 31
0.0
  0
LINE
  5
3C5
330
E3
100
AcDbEntity
  8
0
  6
Continuous
100
AcDbLine
 10
135.4857663135901
 20
144.7675473729838
 30
0.0
 11
135.4623283636751
 21
144.7621115229609
 31
0.0
  0
LINE
  5
3C6
330
E3
100
AcDbEntity
  8
0
  6
Continuous
100
AcDbLine
 10
135.4623283636751
 20
144.7621115229609
 30
0.0
 11
135.4421864792995
 21
144.7566756729381
 31
0.0
  0
LINE
  5
3C7
330
E3
100
AcDbEntity
  8
0
  6
Continuous
100
AcDbLine
 10
135.4421864792995
 20
144.7566756729381
 30
0.0
 11
135.4254935022123
 21
144.751243145562
 31
0.0
  0
LINE
  5
3C8
330
E3
100
AcDbEntity
  8
0
  6
Continuous
100
AcDbLine
 10
135.4254935022123
 20
144.751243145562
 30
0.0
 11
135.4123790156352
 21
144.7458072955392
 31
0.0
  0
LINE
  5
3C9
330
E3
100
AcDbEntity
  8
0
  6
Continuous
100
AcDbLine
 10
135.4123790156352
 20
144.7458072955392
 30
0.0
 11
135.4029360536762
 21
144.7403714455163
 31
0.0
  0
LINE
  5
3CA
330
E3
100
AcDbEntity
  8
0
  6
Continuous
100
AcDbLine
 10
135.4029360536762
 20
144.7403714455163
 30
0.0
 11
135.3972433983076
 21
144.7349375522142
 31
0.0
  0
LINE
  5
3CB
330
E3
100
AcDbEntity
  8
0
  6
Continuous
100
AcDbLine
 10
135.3972433983076
 20
144.7349375522142
 30
0.0
 11
135.3953407473534
 21
144.7295027696054
 31
0.0
  0
LINE
  5
3CC
330
E3
100
AcDbEntity
  8
0
  6
Continuous
100
AcDbLine
 10
136.3953407473534
 20
144.5338505956924
 30
0.0
 11
136.3934380963993
 21
144.5284158130837
 31
0.0
  0
LINE
  5
3CD
330
E3
100
AcDbEntity
  8
0
  6
Continuous
100
AcDbLine
 10
136.3934380963993
 20
144.5284158130837
 30
0.0
 11
136.3877446238595
 21
144.522981030475
 31
0.0
  0
LINE
  5
3CE
330
E3
100
AcDbEntity
  8
0
  6
Continuous
100
AcDbLine
 10
136.3877446238595
 20
144.522981030475
 30
0.0
 11
136.3783023189887
 21
144.5175447889877
 31
0.0
  0
LINE
  5
3CF
330
E3
100
AcDbEntity
  8
0
  6
Continuous
100
AcDbLine
 10
136.3783023189887
 20
144.5175447889877
 30
0.0
 11
136.3651878324116
 21
144.5121122616115
 31
0.0
  0
LINE
  5
3D0
330
E3
100
AcDbEntity
  8
0
  6
Continuous
100
AcDbLine
 10
136.3651878324116
 20
144.5121122616115
 30
0.0
 11
136.3484948553244
 21
144.5066764115887
 31
0.0
  0
LINE
  5
3D1
330
E3
100
AcDbEntity
  8
0
  6
Continuous
100
AcDbLine
 10
136.3484948553244
 20
144.5066764115887
 30
0.0
 11
136.3283529709489
 21
144.5012405615659
 31
0.0
  0
LINE
  5
3D2
330
E3
100
AcDbEntity
  8
0
  6
Continuous
100
AcDbLine
 10
136.3283529709489
 20
144.5012405615659
 30
0.0
 11
136.3049183436805
 21
144.4958080341898
 31
0.0
  0
LINE
  5
3D3
330
E3
100
AcDbEntity
  8
0
  6
Continuous
100
AcDbLine
 10
136.3049183436805
 20
144.4958080341898
 30
0.0
 11
136.2783637511485
 21
144.4903721841669
 31
0.0
  0
LINE
  5
3D4
330
E3
100
AcDbEntity
  8
0
  6
Continuous
100
AcDbLine
 10
136.2783637511485
 20
144.4903721841669
 30
0.0
 11
136.2488951974489
 21
144.4849363341441
 31
0.0
  0
LINE
  5
3D5
330
E3
100
AcDbEntity
  8
0
  6
Continuous
100
AcDbLine
 10
136.2488951974489
 20
144.4849363341441
 30
0.0
 11
136.2167352999116
 21
144.479503806768
 31
0.0
  0
LINE
  5
3D6
330
E3
100
AcDbEntity
  8
0
  6
Continuous
100
AcDbLine
 10
136.2167352999116
 20
144.479503806768
 30
0.0
 11
136.1821299343935
 21
144.4740679567452
 31
0.0
  0
LINE
  5
3D7
330
E3
100
AcDbEntity
  8
0
  6
Continuous
100
AcDbLine
 10
136.1821299343935
 20
144.4740679567452
 30
0.0
 11
136.1453415899847
 21
144.4686321067223
 31
0.0
  0
LINE
  5
3D8
330
E3
100
AcDbEntity
  8
0
  6
Continuous
100
AcDbLine
 10
136.1453415899847
 20
144.4686321067223
 30
0.0
 11
136.1066493690092
 21
144.4631995793462
 31
0.0
  0
LINE
  5
3D9
330
E3
100
AcDbEntity
  8
0
  6
Continuous
100
AcDbLine
 10
136.1066493690092
 20
144.4631995793462
 30
0.0
 11
136.0663523096713
 21
144.4577637293234
 31
0.0
  0
LINE
  5
3DA
330
E3
100
AcDbEntity
  8
0
  6
Continuous
100
AcDbLine
 10
136.0663523096713
 20
144.4577637293234
 30
0.0
 11
136.0247494501751
 21
144.4523278793006
 31
0.0
  0
LINE
  5
3DB
330
E3
100
AcDbEntity
  8
0
  6
Continuous
100
AcDbLine
 10
136.0247494501751
 20
144.4523278793006
 30
0.0
 11
135.9821664098985
 21
144.4468953519245
 31
0.0
  0
LINE
  5
3DC
330
E3
100
AcDbEntity
  8
0
  6
Continuous
100
AcDbLine
 10
135.9821664098985
 20
144.4468953519245
 30
0.0
 11
135.9389188402792
 21
144.4414595019016
 31
0.0
  0
LINE
  5
3DD
330
E3
100
AcDbEntity
  8
0
  6
Continuous
100
AcDbLine
 10
135.9389188402792
 20
144.4414595019016
 30
0.0
 11
135.8953423286353
 21
144.4360236518788
 31
0.0
  0
LINE
  5
3DE
330
E3
100
AcDbEntity
  8
0
  6
Continuous
100
AcDbLine
 10
135.8953423286353
 20
144.4360236518788
 30
0.0
 11
135.8517624943447
 21
144.4305911245027
 31
0.0
  0
LINE
  5
3DF
330
E3
100
AcDbEntity
  8
0
  6
Continuous
100
AcDbLine
 10
135.8517624943447
 20
144.4305911245027
 30
0.0
 11
135.8085182473722
 21
144.4251552744799
 31
0.0
  0
LINE
  5
3E0
330
E3
100
AcDbEntity
  8
0
  6
Continuous
100
AcDbLine
 10
135.8085182473722
 20
144.4251552744799
 30
0.0
 11
135.7659318844488
 21
144.419719424457
 31
0.0
  0
LINE
  5
3E1
330
E3
100
AcDbEntity
  8
0
  6
Continuous
100
AcDbLine
 10
135.7659318844488
 20
144.419719424457
 30
0.0
 11
135.7243290249526
 21
144.4142868970809
 31
0.0
  0
LINE
  5
3E2
330
E3
100
AcDbEntity
  8
0
  6
Continuous
100
AcDbLine
 10
135.7243290249526
 20
144.4142868970809
 30
0.0
 11
135.6840319656147
 21
144.4088510470581
 31
0.0
  0
LINE
  5
3E3
330
E3
100
AcDbEntity
  8
0
  6
Continuous
100
AcDbLine
 10
135.6840319656147
 20
144.4088510470581
 30
0.0
 11
135.6453397446392
 21
144.4034151970353
 31
0.0
  0
LINE
  5
3E4
330
E3
100
AcDbEntity
  8
0
  6
Continuous
100
AcDbLine
 10
135.6453397446392
 20
144.4034151970353
 30
0.0
 11
135.6085514002304
 21
144.3979826696591
 31
0.0
  0
LINE
  5
3E5
330
E3
100
AcDbEntity
  8
0
  6
Continuous
100
AcDbLine
 10
135.6085514002304
 20
144.3979826696591
 30
0.0
 11
135.5739460347122
 21
144.3925468196363
 31
0.0
  0
LINE
  5
3E6
330
E3
100
AcDbEntity
  8
0
  6
Continuous
100
AcDbLine
 10
135.5739460347122
 20
144.3925468196363
 30
0.0
 11
135.541786137175
 21
144.3871109696135
 31
0.0
  0
LINE
  5
3E7
330
E3
100
AcDbEntity
  8
0
  6
Continuous
100
AcDbLine
 10
135.541786137175
 20
144.3871109696135
 30
0.0
 11
135.5123175834754
 21
144.3816751195907
 31
0.0
  0
LINE
  5
3E8
330
E3
100
AcDbEntity
  8
0
  6
Continuous
100
AcDbLine
 10
135.5123175834754
 20
144.3816751195907
 30
0.0
 11
135.4857663135901
 21
144.3762425922145
 31
0.0
  0
LINE
  5
3E9
330
E3
100
AcDbEntity
  8
0
  6
Continuous
100
AcDbLine
 10
135.4857663135901
 20
144.3762425922145
 30
0.0
 11
135.4623283636751
 21
144.3708067421917
 31
0.0
  0
LINE
  5
3EA
330
E3
100
AcDbEntity
  8
0
  6
Continuous
100
AcDbLine
 10
135.4623283636751
 20
144.3708067421917
 30
0.0
 11
135.4421864792995
 21
144.3653708921689
 31
0.0
  0
LINE
  5
3EB
330
E3
100
AcDbEntity
  8
0
  6
Continuous
100
AcDbLine
 10
135.4421864792995
 20
144.3653708921689
 30
0.0
 11
135.4254935022123
 21
144.3599383647928
 31
0.0
  0
LINE
  5
3EC
330
E3
100
AcDbEntity
  8
0
  6
Continuous
100
AcDbLine
 10
135.4254935022123
 20
144.3599383647928
 30
0.0
 11
135.4123790156352
 21
144.3545025147699
 31
0.0
  0
LINE
  5
3ED
330
E3
100
AcDbEntity
  8
0
  6
Continuous
100
AcDbLine
 10
135.4123790156352
 20
144.3545025147699
 30
0.0
 11
135.4029360536762
 21
144.3490666647471
 31
0.0
  0
LINE
  5
3EE
330
E3
100
AcDbEntity
  8
0
  6
Continuous
100
AcDbLine
 10
135.4029360536762
 20
144.3490666647471
 30
0.0
 11
135.3972433983076
 21
144.3436332043881
 31
0.0
  0
LINE
  5
3EF
330
E3
100
AcDbEntity
  8
0
  6
Continuous
100
AcDbLine
 10
135.3972433983076
 20
144.3436332043881
 30
0.0
 11
135.3953407473534
 21
144.3381984217794
 31
0.0
  0
LINE
  5
3F0
330
E3
100
AcDbEntity
  8
0
  6
Continuous
100
AcDbLine
 10
136.3953407473534
 20
144.1425462478663
 30
0.0
 11
136.3934380963993
 21
144.1371114652576
 31
0.0
  0
LINE
  5
3F1
330
E3
100
AcDbEntity
  8
0
  6
Continuous
100
AcDbLine
 10
136.3934380963993
 20
144.1371114652576
 30
0.0
 11
136.3877446238595
 21
144.1316766826489
 31
0.0
  0
LINE
  5
3F2
330
E3
100
AcDbEntity
  8
0
  6
Continuous
100
AcDbLine
 10
136.3877446238595
 20
144.1316766826489
 30
0.0
 11
136.3783023189887
 21
144.1262433308651
 31
0.0
  0
LINE
  5
3F3
330
E3
100
AcDbEntity
  8
0
  6
Continuous
100
AcDbLine
 10
136.3783023189887
 20
144.1262433308651
 30
0.0
 11
136.3651878324116
 21
144.1208074808423
 31
0.0
  0
LINE
  5
3F4
330
E3
100
AcDbEntity
  8
0
  6
Continuous
100
AcDbLine
 10
136.3651878324116
 20
144.1208074808423
 30
0.0
 11
136.3484948553244
 21
144.1153716308195
 31
0.0
  0
LINE
  5
3F5
330
E3
100
AcDbEntity
  8
0
  6
Continuous
100
AcDbLine
 10
136.3484948553244
 20
144.1153716308195
 30
0.0
 11
136.3283529709489
 21
144.1099391034434
 31
0.0
  0
LINE
  5
3F6
330
E3
100
AcDbEntity
  8
0
  6
Continuous
100
AcDbLine
 10
136.3283529709489
 20
144.1099391034434
 30
0.0
 11
136.3049183436805
 21
144.1045032534205
 31
0.0
  0
LINE
  5
3F7
330
E3
100
AcDbEntity
  8
0
  6
Continuous
100
AcDbLine
 10
136.3049183436805
 20
144.1045032534205
 30
0.0
 11
136.2783637511485
 21
144.0990674033977
 31
0.0
  0
LINE
  5
3F8
330
E3
100
AcDbEntity
  8
0
  6
Continuous
100
AcDbLine
 10
136.2783637511485
 20
144.0990674033977
 30
0.0
 11
136.2488951974489
 21
144.0936315533749
 31
0.0
  0
LINE
  5
3F9
330
E3
100
AcDbEntity
  8
0
  6
Continuous
100
AcDbLine
 10
136.2488951974489
 20
144.0936315533749
 30
0.0
 11
136.2167352999116
 21
144.0881990259988
 31
0.0
  0
LINE
  5
3FA
330
E3
100
AcDbEntity
  8
0
  6
Continuous
100
AcDbLine
 10
136.2167352999116
 20
144.0881990259988
 30
0.0
 11
136.1821299343935
 21
144.0827631759759
 31
0.0
  0
LINE
  5
3FB
330
E3
100
AcDbEntity
  8
0
  6
Continuous
100
AcDbLine
 10
136.1821299343935
 20
144.0827631759759
 30
0.0
 11
136.1453415899847
 21
144.0773273259531
 31
0.0
  0
LINE
  5
3FC
330
E3
100
AcDbEntity
  8
0
  6
Continuous
100
AcDbLine
 10
136.1453415899847
 20
144.0773273259531
 30
0.0
 11
136.1066493690092
 21
144.071894798577
 31
0.0
  0
LINE
  5
3FD
330
E3
100
AcDbEntity
  8
0
  6
Continuous
100
AcDbLine
 10
136.1066493690092
 20
144.071894798577
 30
0.0
 11
136.0663523096713
 21
144.0664589485542
 31
0.0
  0
LINE
  5
3FE
330
E3
100
AcDbEntity
  8
0
  6
Continuous
100
AcDbLine
 10
136.0663523096713
 20
144.0664589485542
 30
0.0
 11
136.0247494501751
 21
144.0610230985314
 31
0.0
  0
LINE
  5
3FF
330
E3
100
AcDbEntity
  8
0
  6
Continuous
100
AcDbLine
 10
136.0247494501751
 20
144.0610230985314
 30
0.0
 11
135.9821664098985
 21
144.0555905711552
 31
0.0
  0
LINE
  5
400
330
E3
100
AcDbEntity
  8
0
  6
Continuous
100
AcDbLine
 10
135.9821664098985
 20
144.0555905711552
 30
0.0
 11
135.9389188402792
 21
144.0501547211324
 31
0.0
  0
LINE
  5
401
330
E3
100
AcDbEntity
  8
0
  6
Continuous
100
AcDbLine
 10
135.9389188402792
 20
144.0501547211324
 30
0.0
 11
135.8953423286353
 21
144.0447188711096
 31
0.0
  0
LINE
  5
402
330
E3
100
AcDbEntity
  8
0
  6
Continuous
100
AcDbLine
 10
135.8953423286353
 20
144.0447188711096
 30
0.0
 11
135.8517624943447
 21
144.0392863437335
 31
0.0
  0
LINE
  5
403
330
E3
100
AcDbEntity
  8
0
  6
Continuous
100
AcDbLine
 10
135.8517624943447
 20
144.0392863437335
 30
0.0
 11
135.8085182473722
 21
144.0338504937106
 31
0.0
  0
LINE
  5
404
330
E3
100
AcDbEntity
  8
0
  6
Continuous
100
AcDbLine
 10
135.8085182473722
 20
144.0338504937106
 30
0.0
 11
135.7659318844488
 21
144.0284146436878
 31
0.0
  0
LINE
  5
405
330
E3
100
AcDbEntity
  8
0
  6
Continuous
100
AcDbLine
 10
135.7659318844488
 20
144.0284146436878
 30
0.0
 11
135.7243290249526
 21
144.0229821163117
 31
0.0
  0
LINE
  5
406
330
E3
100
AcDbEntity
  8
0
  6
Continuous
100
AcDbLine
 10
135.7243290249526
 20
144.0229821163117
 30
0.0
 11
135.6840319656147
 21
144.0175462662889
 31
0.0
  0
LINE
  5
407
330
E3
100
AcDbEntity
  8
0
  6
Continuous
100
AcDbLine
 10
135.6840319656147
 20
144.0175462662889
 30
0.0
 11
135.6453397446392
 21
144.012110416266
 31
0.0
  0
LINE
  5
408
330
E3
100
AcDbEntity
  8
0
  6
Continuous
100
AcDbLine
 10
135.6453397446392
 20
144.012110416266
 30
0.0
 11
135.6085514002304
 21
144.0066778888899
 31
0.0
  0
LINE
  5
409
330
E3
100
AcDbEntity
  8
0
  6
Continuous
100
AcDbLine
 10
135.6085514002304
 20
144.0066778888899
 30
0.0
 11
135.5739460347122
 21
144.0012420388671
 31
0.0
  0
LINE
  5
40A
330
E3
100
AcDbEntity
  8
0
  6
Continuous
100
AcDbLine
 10
135.5739460347122
 20
144.0012420388671
 30
0.0
 11
135.541786137175
 21
143.9958061888443
 31
0.0
  0
LINE
  5
40B
330
E3
100
AcDbEntity
  8
0
  6
Continuous
100
AcDbLine
 10
135.541786137175
 20
143.9958061888443
 30
0.0
 11
135.5123175834754
 21
143.9903736614681
 31
0.0
  0
LINE
  5
40C
330
E3
100
AcDbEntity
  8
0
  6
Continuous
100
AcDbLine
 10
135.5123175834754
 20
143.9903736614681
 30
0.0
 11
135.4857663135901
 21
143.9849378114453
 31
0.0
  0
LINE
  5
40D
330
E3
100
AcDbEntity
  8
0
  6
Continuous
100
AcDbLine
 10
135.4857663135901
 20
143.9849378114453
 30
0.0
 11
135.4623283636751
 21
143.9795019614225
 31
0.0
  0
LINE
  5
40E
330
E3
100
AcDbEntity
  8
0
  6
Continuous
100
AcDbLine
 10
135.4623283636751
 20
143.9795019614225
 30
0.0
 11
135.4421864792995
 21
143.9740694340464
 31
0.0
  0
LINE
  5
40F
330
E3
100
AcDbEntity
  8
0
  6
Continuous
100
AcDbLine
 10
135.4421864792995
 20
143.9740694340464
 30
0.0
 11
135.4254935022123
 21
143.9686335840236
 31
0.0
  0
LINE
  5
410
330
E3
100
AcDbEntity
  8
0
  6
Continuous
100
AcDbLine
 10
135.4254935022123
 20
143.9686335840236
 30
0.0
 11
135.4123790156352
 21
143.9631977340007
 31
0.0
  0
LINE
  5
411
330
E3
100
AcDbEntity
  8
0
  6
Continuous
100
AcDbLine
 10
135.4123790156352
 20
143.9631977340007
 30
0.0
 11
135.4029360536762
 21
143.9577652066246
 31
0.0
  0
LINE
  5
412
330
E3
100
AcDbEntity
  8
0
  6
Continuous
100
AcDbLine
 10
135.4029360536762
 20
143.9577652066246
 30
0.0
 11
135.3972433983076
 21
143.952328856562
 31
0.0
  0
LINE
  5
413
330
E3
100
AcDbEntity
  8
0
  6
Continuous
100
AcDbLine
 10
135.3972433983076
 20
143.952328856562
 30
0.0
 11
135.3953407473534
 21
143.9468940739533
 31
0.0
  0
LINE
  5
414
330
E3
100
AcDbEntity
  8
0
  6
Continuous
100
AcDbLine
 10
136.3953407473534
 20
143.7512419000402
 30
0.0
 11
136.3934380963993
 21
143.7458071174316
 31
0.0
  0
LINE
  5
415
330
E3
100
AcDbEntity
  8
0
  6
Continuous
100
AcDbLine
 10
136.3934380963993
 20
143.7458071174316
 30
0.0
 11
136.3877446238595
 21
143.7403723348228
 31
0.0
  0
LINE
  5
416
330
E3
100
AcDbEntity
  8
0
  6
Continuous
100
AcDbLine
 10
136.3877446238595
 20
143.7403723348228
 30
0.0
 11
136.3783023189887
 21
143.734938550096
 31
0.0
  0
LINE
  5
417
330
E3
100
AcDbEntity
  8
0
  6
Continuous
100
AcDbLine
 10
136.3783023189887
 20
143.734938550096
 30
0.0
 11
136.3651878324116
 21
143.7295027000731
 31
0.0
  0
LINE
  5
418
330
E3
100
AcDbEntity
  8
0
  6
Continuous
100
AcDbLine
 10
136.3651878324116
 20
143.7295027000731
 30
0.0
 11
136.3484948553244
 21
143.7240668500503
 31
0.0
  0
LINE
  5
419
330
E3
100
AcDbEntity
  8
0
  6
Continuous
100
AcDbLine
 10
136.3484948553244
 20
143.7240668500503
 30
0.0
 11
136.3283529709489
 21
143.7186343226741
 31
0.0
  0
LINE
  5
41A
330
E3
100
AcDbEntity
  8
0
  6
Continuous
100
AcDbLine
 10
136.3283529709489
 20
143.7186343226741
 30
0.0
 11
136.3049183436805
 21
143.7131984726513
 31
0.0
  0
LINE
  5
41B
330
E3
100
AcDbEntity
  8
0
  6
Continuous
100
AcDbLine
 10
136.3049183436805
 20
143.7131984726513
 30
0.0
 11
136.2783637511485
 21
143.7077626226285
 31
0.0
  0
LINE
  5
41C
330
E3
100
AcDbEntity
  8
0
  6
Continuous
100
AcDbLine
 10
136.2783637511485
 20
143.7077626226285
 30
0.0
 11
136.2488951974489
 21
143.7023300952524
 31
0.0
  0
LINE
  5
41D
330
E3
100
AcDbEntity
  8
0
  6
Continuous
100
AcDbLine
 10
136.2488951974489
 20
143.7023300952524
 30
0.0
 11
136.2167352999116
 21
143.6968942452295
 31
0.0
  0
LINE
  5
41E
330
E3
100
AcDbEntity
  8
0
  6
Continuous
100
AcDbLine
 10
136.2167352999116
 20
143.6968942452295
 30
0.0
 11
136.1821299343935
 21
143.6914583952067
 31
0.0
  0
LINE
  5
41F
330
E3
100
AcDbEntity
  8
0
  6
Continuous
100
AcDbLine
 10
136.1821299343935
 20
143.6914583952067
 30
0.0
 11
136.1453415899847
 21
143.6860258678306
 31
0.0
  0
LINE
  5
420
330
E3
100
AcDbEntity
  8
0
  6
Continuous
100
AcDbLine
 10
136.1453415899847
 20
143.6860258678306
 30
0.0
 11
136.1066493690092
 21
143.6805900178078
 31
0.0
  0
LINE
  5
421
330
E3
100
AcDbEntity
  8
0
  6
Continuous
100
AcDbLine
 10
136.1066493690092
 20
143.6805900178078
 30
0.0
 11
136.0663523096713
 21
143.6751541677849
 31
0.0
  0
LINE
  5
422
330
E3
100
AcDbEntity
  8
0
  6
Continuous
100
AcDbLine
 10
136.0663523096713
 20
143.6751541677849
 30
0.0
 11
136.0247494501751
 21
143.6697216404088
 31
0.0
  0
LINE
  5
423
330
E3
100
AcDbEntity
  8
0
  6
Continuous
100
AcDbLine
 10
136.0247494501751
 20
143.6697216404088
 30
0.0
 11
135.9821664098985
 21
143.664285790386
 31
0.0
  0
LINE
  5
424
330
E3
100
AcDbEntity
  8
0
  6
Continuous
100
AcDbLine
 10
135.9821664098985
 20
143.664285790386
 30
0.0
 11
135.9389188402792
 21
143.6588499403632
 31
0.0
  0
LINE
  5
425
330
E3
100
AcDbEntity
  8
0
  6
Continuous
100
AcDbLine
 10
135.9389188402792
 20
143.6588499403632
 30
0.0
 11
135.8953423286353
 21
143.6534174129871
 31
0.0
  0
LINE
  5
426
330
E3
100
AcDbEntity
  8
0
  6
Continuous
100
AcDbLine
 10
135.8953423286353
 20
143.6534174129871
 30
0.0
 11
135.8517624943447
 21
143.6479815629642
 31
0.0
  0
LINE
  5
427
330
E3
100
AcDbEntity
  8
0
  6
Continuous
100
AcDbLine
 10
135.8517624943447
 20
143.6479815629642
 30
0.0
 11
135.8085182473722
 21
143.6425457129414
 31
0.0
  0
LINE
  5
428
330
E3
100
AcDbEntity
  8
0
  6
Continuous
100
AcDbLine
 10
135.8085182473722
 20
143.6425457129414
 30
0.0
 11
135.7659318844488
 21
143.6371098629186
 31
0.0
  0
LINE
  5
429
330
E3
100
AcDbEntity
  8
0
  6
Continuous
100
AcDbLine
 10
135.7659318844488
 20
143.6371098629186
 30
0.0
 11
135.7243290249526
 21
143.6316773355425
 31
0.0
  0
LINE
  5
42A
330
E3
100
AcDbEntity
  8
0
  6
Continuous
100
AcDbLine
 10
135.7243290249526
 20
143.6316773355425
 30
0.0
 11
135.6840319656147
 21
143.6262414855196
 31
0.0
  0
LINE
  5
42B
330
E3
100
AcDbEntity
  8
0
  6
Continuous
100
AcDbLine
 10
135.6840319656147
 20
143.6262414855196
 30
0.0
 11
135.6453397446392
 21
143.6208056354968
 31
0.0
  0
LINE
  5
42C
330
E3
100
AcDbEntity
  8
0
  6
Continuous
100
AcDbLine
 10
135.6453397446392
 20
143.6208056354968
 30
0.0
 11
135.6085514002304
 21
143.6153731081207
 31
0.0
  0
LINE
  5
42D
330
E3
100
AcDbEntity
  8
0
  6
Continuous
100
AcDbLine
 10
135.6085514002304
 20
143.6153731081207
 30
0.0
 11
135.5739460347122
 21
143.6099372580979
 31
0.0
  0
LINE
  5
42E
330
E3
100
AcDbEntity
  8
0
  6
Continuous
100
AcDbLine
 10
135.5739460347122
 20
143.6099372580979
 30
0.0
 11
135.541786137175
 21
143.604501408075
 31
0.0
  0
LINE
  5
42F
330
E3
100
AcDbEntity
  8
0
  6
Continuous
100
AcDbLine
 10
135.541786137175
 20
143.604501408075
 30
0.0
 11
135.5123175834754
 21
143.5990688806989
 31
0.0
  0
LINE
  5
430
330
E3
100
AcDbEntity
  8
0
  6
Continuous
100
AcDbLine
 10
135.5123175834754
 20
143.5990688806989
 30
0.0
 11
135.4857663135901
 21
143.5936330306761
 31
0.0
  0
LINE
  5
431
330
E3
100
AcDbEntity
  8
0
  6
Continuous
100
AcDbLine
 10
135.4857663135901
 20
143.5936330306761
 30
0.0
 11
135.4623283636751
 21
143.5881971806533
 31
0.0
  0
LINE
  5
432
330
E3
100
AcDbEntity
  8
0
  6
Continuous
100
AcDbLine
 10
135.4623283636751
 20
143.5881971806533
 30
0.0
 11
135.4421864792995
 21
143.5827646532772
 31
0.0
  0
LINE
  5
433
330
E3
100
AcDbEntity
  8
0
  6
Continuous
100
AcDbLine
 10
135.4421864792995
 20
143.5827646532772
 30
0.0
 11
135.4254935022123
 21
143.5773288032543
 31
0.0
  0
LINE
  5
434
330
E3
100
AcDbEntity
  8
0
  6
Continuous
100
AcDbLine
 10
135.4254935022123
 20
143.5773288032543
 30
0.0
 11
135.4123790156352
 21
143.5718929532315
 31
0.0
  0
LINE
  5
435
330
E3
100
AcDbEntity
  8
0
  6
Continuous
100
AcDbLine
 10
135.4123790156352
 20
143.5718929532315
 30
0.0
 11
135.4029360536762
 21
143.5664604258554
 31
0.0
  0
LINE
  5
436
330
E3
100
AcDbEntity
  8
0
  6
Continuous
100
AcDbLine
 10
135.4029360536762
 20
143.5664604258554
 30
0.0
 11
135.3972433983075
 21
143.5610245087359
 31
0.0
  0
LINE
  5
437
330
E3
100
AcDbEntity
  8
0
  6
Continuous
100
AcDbLine
 10
135.3972433983075
 20
143.5610245087359
 30
0.0
 11
135.3953407473534
 21
143.5555897261272
 31
0.0
  0
LINE
  5
438
330
E3
100
AcDbEntity
  8
0
  6
Continuous
100
AcDbLine
 10
136.3953407473534
 20
143.3599375522141
 30
0.0
 11
136.3934380963993
 21
143.3545027696055
 31
0.0
  0
LINE
  5
439
330
E3
100
AcDbEntity
  8
0
  6
Continuous
100
AcDbLine
 10
136.3934380963993
 20
143.3545027696055
 30
0.0
 11
136.3877446238595
 21
143.3490679869968
 31
0.0
  0
LINE
  5
43A
330
E3
100
AcDbEntity
  8
0
  6
Continuous
100
AcDbLine
 10
136.3877446238595
 20
143.3490679869968
 30
0.0
 11
136.3783023189887
 21
143.3436337693267
 31
0.0
  0
LINE
  5
43B
330
E3
100
AcDbEntity
  8
0
  6
Continuous
100
AcDbLine
 10
136.3783023189887
 20
143.3436337693267
 30
0.0
 11
136.3651878324116
 21
143.3381979193039
 31
0.0
  0
LINE
  5
43C
330
E3
100
AcDbEntity
  8
0
  6
Continuous
100
AcDbLine
 10
136.3651878324116
 20
143.3381979193039
 30
0.0
 11
136.3484948553244
 21
143.332762069281
 31
0.0
  0
LINE
  5
43D
330
E3
100
AcDbEntity
  8
0
  6
Continuous
100
AcDbLine
 10
136.3484948553244
 20
143.332762069281
 30
0.0
 11
136.3283529709489
 21
143.3273295419049
 31
0.0
  0
LINE
  5
43E
330
E3
100
AcDbEntity
  8
0
  6
Continuous
100
AcDbLine
 10
136.3283529709489
 20
143.3273295419049
 30
0.0
 11
136.3049183436805
 21
143.3218936918821
 31
0.0
  0
LINE
  5
43F
330
E3
100
AcDbEntity
  8
0
  6
Continuous
100
AcDbLine
 10
136.3049183436805
 20
143.3218936918821
 30
0.0
 11
136.2783637511485
 21
143.3164578418593
 31
0.0
  0
LINE
  5
440
330
E3
100
AcDbEntity
  8
0
  6
Continuous
100
AcDbLine
 10
136.2783637511485
 20
143.3164578418593
 30
0.0
 11
136.2488951974489
 21
143.3110253144832
 31
0.0
  0
LINE
  5
441
330
E3
100
AcDbEntity
  8
0
  6
Continuous
100
AcDbLine
 10
136.2488951974489
 20
143.3110253144832
 30
0.0
 11
136.2167352999116
 21
143.3055894644604
 31
0.0
  0
LINE
  5
442
330
E3
100
AcDbEntity
  8
0
  6
Continuous
100
AcDbLine
 10
136.2167352999116
 20
143.3055894644604
 30
0.0
 11
136.1821299343935
 21
143.3001536144375
 31
0.0
  0
LINE
  5
443
330
E3
100
AcDbEntity
  8
0
  6
Continuous
100
AcDbLine
 10
136.1821299343935
 20
143.3001536144375
 30
0.0
 11
136.1453415899847
 21
143.2947210870614
 31
0.0
  0
LINE
  5
444
330
E3
100
AcDbEntity
  8
0
  6
Continuous
100
AcDbLine
 10
136.1453415899847
 20
143.2947210870614
 30
0.0
 11
136.1066493690092
 21
143.2892852370386
 31
0.0
  0
LINE
  5
445
330
E3
100
AcDbEntity
  8
0
  6
Continuous
100
AcDbLine
 10
136.1066493690092
 20
143.2892852370386
 30
0.0
 11
136.0663523096713
 21
143.2838493870157
 31
0.0
  0
LINE
  5
446
330
E3
100
AcDbEntity
  8
0
  6
Continuous
100
AcDbLine
 10
136.0663523096713
 20
143.2838493870157
 30
0.0
 11
136.0247494501751
 21
143.2784168596396
 31
0.0
  0
LINE
  5
447
330
E3
100
AcDbEntity
  8
0
  6
Continuous
100
AcDbLine
 10
136.0247494501751
 20
143.2784168596396
 30
0.0
 11
135.9821664098985
 21
143.2729810096168
 31
0.0
  0
LINE
  5
448
330
E3
100
AcDbEntity
  8
0
  6
Continuous
100
AcDbLine
 10
135.9821664098985
 20
143.2729810096168
 30
0.0
 11
135.9389188402792
 21
143.2675451595939
 31
0.0
  0
LINE
  5
449
330
E3
100
AcDbEntity
  8
0
  6
Continuous
100
AcDbLine
 10
135.9389188402792
 20
143.2675451595939
 30
0.0
 11
135.8953423286353
 21
143.2621126322178
 31
0.0
  0
LINE
  5
44A
330
E3
100
AcDbEntity
  8
0
  6
Continuous
100
AcDbLine
 10
135.8953423286353
 20
143.2621126322178
 30
0.0
 11
135.8517624943447
 21
143.256676782195
 31
0.0
  0
LINE
  5
44B
330
E3
100
AcDbEntity
  8
0
  6
Continuous
100
AcDbLine
 10
135.8517624943447
 20
143.256676782195
 30
0.0
 11
135.8085182473722
 21
143.2512409321722
 31
0.0
  0
LINE
  5
44C
330
E3
100
AcDbEntity
  8
0
  6
Continuous
100
AcDbLine
 10
135.8085182473722
 20
143.2512409321722
 30
0.0
 11
135.7659318844488
 21
143.2458084047961
 31
0.0
  0
LINE
  5
44D
330
E3
100
AcDbEntity
  8
0
  6
Continuous
100
AcDbLine
 10
135.7659318844488
 20
143.2458084047961
 30
0.0
 11
135.7243290249526
 21
143.2403725547732
 31
0.0
  0
LINE
  5
44E
330
E3
100
AcDbEntity
  8
0
  6
Continuous
100
AcDbLine
 10
135.7243290249526
 20
143.2403725547732
 30
0.0
 11
135.6840319656147
 21
143.2349367047504
 31
0.0
  0
LINE
  5
44F
330
E3
100
AcDbEntity
  8
0
  6
Continuous
100
AcDbLine
 10
135.6840319656147
 20
143.2349367047504
 30
0.0
 11
135.6453397446392
 21
143.2295041773743
 31
0.0
  0
LINE
  5
450
330
E3
100
AcDbEntity
  8
0
  6
Continuous
100
AcDbLine
 10
135.6453397446392
 20
143.2295041773743
 30
0.0
 11
135.6085514002304
 21
143.2240683273515
 31
0.0
  0
LINE
  5
451
330
E3
100
AcDbEntity
  8
0
  6
Continuous
100
AcDbLine
 10
135.6085514002304
 20
143.2240683273515
 30
0.0
 11
135.5739460347122
 21
143.2186324773287
 31
0.0
  0
LINE
  5
452
330
E3
100
AcDbEntity
  8
0
  6
Continuous
100
AcDbLine
 10
135.5739460347122
 20
143.2186324773287
 30
0.0
 11
135.541786137175
 21
143.2131999499525
 31
0.0
  0
LINE
  5
453
330
E3
100
AcDbEntity
  8
0
  6
Continuous
100
AcDbLine
 10
135.541786137175
 20
143.2131999499525
 30
0.0
 11
135.5123175834754
 21
143.2077640999297
 31
0.0
  0
LINE
  5
454
330
E3
100
AcDbEntity
  8
0
  6
Continuous
100
AcDbLine
 10
135.5123175834754
 20
143.2077640999297
 30
0.0
 11
135.4857663135901
 21
143.2023282499069
 31
0.0
  0
LINE
  5
455
330
E3
100
AcDbEntity
  8
0
  6
Continuous
100
AcDbLine
 10
135.4857663135901
 20
143.2023282499069
 30
0.0
 11
135.4623283636751
 21
143.1968957225307
 31
0.0
  0
LINE
  5
456
330
E3
100
AcDbEntity
  8
0
  6
Continuous
100
AcDbLine
 10
135.4623283636751
 20
143.1968957225307
 30
0.0
 11
135.4421864792995
 21
143.1914598725079
 31
0.0
  0
LINE
  5
457
330
E3
100
AcDbEntity
  8
0
  6
Continuous
100
AcDbLine
 10
135.4421864792995
 20
143.1914598725079
 30
0.0
 11
135.4254935022123
 21
143.1860240224851
 31
0.0
  0
LINE
  5
458
330
E3
100
AcDbEntity
  8
0
  6
Continuous
100
AcDbLine
 10
135.4254935022123
 20
143.1860240224851
 30
0.0
 11
135.4123790156352
 21
143.1805881724623
 31
0.0
  0
LINE
  5
459
330
E3
100
AcDbEntity
  8
0
  6
Continuous
100
AcDbLine
 10
135.4123790156352
 20
143.1805881724623
 30
0.0
 11
135.4029360536762
 21
143.1751556450862
 31
0.0
  0
LINE
  5
45A
330
E3
100
AcDbEntity
  8
0
  6
Continuous
100
AcDbLine
 10
135.4029360536762
 20
143.1751556450862
 30
0.0
 11
135.3972433983075
 21
143.1697201609098
 31
0.0
  0
LINE
  5
45B
330
E3
100
AcDbEntity
  8
0
  6
Continuous
100
AcDbLine
 10
135.3972433983075
 20
143.1697201609098
 30
0.0
 11
135.3953407473534
 21
143.1642853783011
 31
0.0
  0
LINE
  5
45C
330
E3
100
AcDbEntity
  8
0
  6
Continuous
100
AcDbLine
 10
136.3953407473534
 20
142.9686332043881
 30
0.0
 11
136.3934380963993
 21
142.9631984217793
 31
0.0
  0
LINE
  5
45D
330
E3
100
AcDbEntity
  8
0
  6
Continuous
100
AcDbLine
 10
136.3934380963993
 20
142.9631984217793
 30
0.0
 11
136.3877446238595
 21
142.9577636391707
 31
0.0
  0
LINE
  5
45E
330
E3
100
AcDbEntity
  8
0
  6
Continuous
100
AcDbLine
 10
136.3877446238595
 20
142.9577636391707
 30
0.0
 11
136.3783023189887
 21
142.9523289885575
 31
0.0
  0
LINE
  5
45F
330
E3
100
AcDbEntity
  8
0
  6
Continuous
100
AcDbLine
 10
136.3783023189887
 20
142.9523289885575
 30
0.0
 11
136.3651878324116
 21
142.9468931385346
 31
0.0
  0
LINE
  5
460
330
E3
100
AcDbEntity
  8
0
  6
Continuous
100
AcDbLine
 10
136.3651878324116
 20
142.9468931385346
 30
0.0
 11
136.3484948553244
 21
142.9414606111585
 31
0.0
  0
LINE
  5
461
330
E3
100
AcDbEntity
  8
0
  6
Continuous
100
AcDbLine
 10
136.3484948553244
 20
142.9414606111585
 30
0.0
 11
136.3283529709489
 21
142.9360247611357
 31
0.0
  0
LINE
  5
462
330
E3
100
AcDbEntity
  8
0
  6
Continuous
100
AcDbLine
 10
136.3283529709489
 20
142.9360247611357
 30
0.0
 11
136.3049183436805
 21
142.9305889111129
 31
0.0
  0
LINE
  5
463
330
E3
100
AcDbEntity
  8
0
  6
Continuous
100
AcDbLine
 10
136.3049183436805
 20
142.9305889111129
 30
0.0
 11
136.2783637511485
 21
142.9251563837367
 31
0.0
  0
LINE
  5
464
330
E3
100
AcDbEntity
  8
0
  6
Continuous
100
AcDbLine
 10
136.2783637511485
 20
142.9251563837367
 30
0.0
 11
136.2488951974489
 21
142.9197205337139
 31
0.0
  0
LINE
  5
465
330
E3
100
AcDbEntity
  8
0
  6
Continuous
100
AcDbLine
 10
136.2488951974489
 20
142.9197205337139
 30
0.0
 11
136.2167352999116
 21
142.9142846836911
 31
0.0
  0
LINE
  5
466
330
E3
100
AcDbEntity
  8
0
  6
Continuous
100
AcDbLine
 10
136.2167352999116
 20
142.9142846836911
 30
0.0
 11
136.1821299343935
 21
142.908852156315
 31
0.0
  0
LINE
  5
467
330
E3
100
AcDbEntity
  8
0
  6
Continuous
100
AcDbLine
 10
136.1821299343935
 20
142.908852156315
 30
0.0
 11
136.1453415899847
 21
142.9034163062922
 31
0.0
  0
LINE
  5
468
330
E3
100
AcDbEntity
  8
0
  6
Continuous
100
AcDbLine
 10
136.1453415899847
 20
142.9034163062922
 30
0.0
 11
136.1066493690092
 21
142.8979804562693
 31
0.0
  0
LINE
  5
469
330
E3
100
AcDbEntity
  8
0
  6
Continuous
100
AcDbLine
 10
136.1066493690092
 20
142.8979804562693
 30
0.0
 11
136.0663523096713
 21
142.8925446062465
 31
0.0
  0
LINE
  5
46A
330
E3
100
AcDbEntity
  8
0
  6
Continuous
100
AcDbLine
 10
136.0663523096713
 20
142.8925446062465
 30
0.0
 11
136.0247494501751
 21
142.8871120788704
 31
0.0
  0
LINE
  5
46B
330
E3
100
AcDbEntity
  8
0
  6
Continuous
100
AcDbLine
 10
136.0247494501751
 20
142.8871120788704
 30
0.0
 11
135.9821664098985
 21
142.8816762288476
 31
0.0
  0
LINE
  5
46C
330
E3
100
AcDbEntity
  8
0
  6
Continuous
100
AcDbLine
 10
135.9821664098985
 20
142.8816762288476
 30
0.0
 11
135.9389188402792
 21
142.8762403788247
 31
0.0
  0
LINE
  5
46D
330
E3
100
AcDbEntity
  8
0
  6
Continuous
100
AcDbLine
 10
135.9389188402792
 20
142.8762403788247
 30
0.0
 11
135.8953423286353
 21
142.8708078514486
 31
0.0
  0
LINE
  5
46E
330
E3
100
AcDbEntity
  8
0
  6
Continuous
100
AcDbLine
 10
135.8953423286353
 20
142.8708078514486
 30
0.0
 11
135.8517624943447
 21
142.8653720014258
 31
0.0
  0
LINE
  5
46F
330
E3
100
AcDbEntity
  8
0
  6
Continuous
100
AcDbLine
 10
135.8517624943447
 20
142.8653720014258
 30
0.0
 11
135.8085182473722
 21
142.859936151403
 31
0.0
  0
LINE
  5
470
330
E3
100
AcDbEntity
  8
0
  6
Continuous
100
AcDbLine
 10
135.8085182473722
 20
142.859936151403
 30
0.0
 11
135.7659318844488
 21
142.8545036240268
 31
0.0
  0
LINE
  5
471
330
E3
100
AcDbEntity
  8
0
  6
Continuous
100
AcDbLine
 10
135.7659318844488
 20
142.8545036240268
 30
0.0
 11
135.7243290249526
 21
142.849067774004
 31
0.0
  0
LINE
  5
472
330
E3
100
AcDbEntity
  8
0
  6
Continuous
100
AcDbLine
 10
135.7243290249526
 20
142.849067774004
 30
0.0
 11
135.6840319656147
 21
142.8436319239812
 31
0.0
  0
LINE
  5
473
330
E3
100
AcDbEntity
  8
0
  6
Continuous
100
AcDbLine
 10
135.6840319656147
 20
142.8436319239812
 30
0.0
 11
135.6453397446392
 21
142.8381993966051
 31
0.0
  0
LINE
  5
474
330
E3
100
AcDbEntity
  8
0
  6
Continuous
100
AcDbLine
 10
135.6453397446392
 20
142.8381993966051
 30
0.0
 11
135.6085514002304
 21
142.8327635465822
 31
0.0
  0
LINE
  5
475
330
E3
100
AcDbEntity
  8
0
  6
Continuous
100
AcDbLine
 10
135.6085514002304
 20
142.8327635465822
 30
0.0
 11
135.5739460347122
 21
142.8273276965594
 31
0.0
  0
LINE
  5
476
330
E3
100
AcDbEntity
  8
0
  6
Continuous
100
AcDbLine
 10
135.5739460347122
 20
142.8273276965594
 30
0.0
 11
135.541786137175
 21
142.8218951691833
 31
0.0
  0
LINE
  5
477
330
E3
100
AcDbEntity
  8
0
  6
Continuous
100
AcDbLine
 10
135.541786137175
 20
142.8218951691833
 30
0.0
 11
135.5123175834754
 21
142.8164593191605
 31
0.0
  0
LINE
  5
478
330
E3
100
AcDbEntity
  8
0
  6
Continuous
100
AcDbLine
 10
135.5123175834754
 20
142.8164593191605
 30
0.0
 11
135.4857663135901
 21
142.8110234691377
 31
0.0
  0
LINE
  5
479
330
E3
100
AcDbEntity
  8
0
  6
Continuous
100
AcDbLine
 10
135.4857663135901
 20
142.8110234691377
 30
0.0
 11
135.4623283636751
 21
142.8055909417616
 31
0.0
  0
LINE
  5
47A
330
E3
100
AcDbEntity
  8
0
  6
Continuous
100
AcDbLine
 10
135.4623283636751
 20
142.8055909417616
 30
0.0
 11
135.4421864792995
 21
142.8001550917387
 31
0.0
  0
LINE
  5
47B
330
E3
100
AcDbEntity
  8
0
  6
Continuous
100
AcDbLine
 10
135.4421864792995
 20
142.8001550917387
 30
0.0
 11
135.4254935022123
 21
142.7947192417159
 31
0.0
  0
LINE
  5
47C
330
E3
100
AcDbEntity
  8
0
  6
Continuous
100
AcDbLine
 10
135.4254935022123
 20
142.7947192417159
 30
0.0
 11
135.4123790156352
 21
142.7892867143398
 31
0.0
  0
LINE
  5
47D
330
E3
100
AcDbEntity
  8
0
  6
Continuous
100
AcDbLine
 10
135.4123790156352
 20
142.7892867143398
 30
0.0
 11
135.4029360536762
 21
142.7838508643169
 31
0.0
  0
LINE
  5
47E
330
E3
100
AcDbEntity
  8
0
  6
Continuous
100
AcDbLine
 10
135.4029360536762
 20
142.7838508643169
 30
0.0
 11
135.3972433983075
 21
142.7784158130837
 31
0.0
  0
LINE
  5
47F
330
E3
100
AcDbEntity
  8
0
  6
Continuous
100
AcDbLine
 10
135.3972433983075
 20
142.7784158130837
 30
0.0
 11
135.3953407473534
 21
142.772981030475
 31
0.0
  0
LINE
  5
480
330
E3
100
AcDbEntity
  8
0
  6
Continuous
100
AcDbLine
 10
136.3953407473534
 20
142.577328856562
 30
0.0
 11
136.3934380963993
 21
142.5718940739533
 31
0.0
  0
LINE
  5
481
330
E3
100
AcDbEntity
  8
0
  6
Continuous
100
AcDbLine
 10
136.3934380963993
 20
142.5718940739533
 30
0.0
 11
136.3877446238595
 21
142.5664592913446
 31
0.0
  0
LINE
  5
482
330
E3
100
AcDbEntity
  8
0
  6
Continuous
100
AcDbLine
 10
136.3877446238595
 20
142.5664592913446
 30
0.0
 11
136.3783023189887
 21
142.5610242077883
 31
0.0
  0
LINE
  5
483
330
E3
100
AcDbEntity
  8
0
  6
Continuous
100
AcDbLine
 10
136.3783023189887
 20
142.5610242077883
 30
0.0
 11
136.3651878324116
 21
142.5555883577654
 31
0.0
  0
LINE
  5
484
330
E3
100
AcDbEntity
  8
0
  6
Continuous
100
AcDbLine
 10
136.3651878324116
 20
142.5555883577654
 30
0.0
 11
136.3484948553244
 21
142.5501558303893
 31
0.0
  0
LINE
  5
485
330
E3
100
AcDbEntity
  8
0
  6
Continuous
100
AcDbLine
 10
136.3484948553244
 20
142.5501558303893
 30
0.0
 11
136.3283529709489
 21
142.5447199803665
 31
0.0
  0
LINE
  5
486
330
E3
100
AcDbEntity
  8
0
  6
Continuous
100
AcDbLine
 10
136.3283529709489
 20
142.5447199803665
 30
0.0
 11
136.3049183436805
 21
142.5392841303437
 31
0.0
  0
LINE
  5
487
330
E3
100
AcDbEntity
  8
0
  6
Continuous
100
AcDbLine
 10
136.3049183436805
 20
142.5392841303437
 30
0.0
 11
136.2783637511485
 21
142.5338516029676
 31
0.0
  0
LINE
  5
488
330
E3
100
AcDbEntity
  8
0
  6
Continuous
100
AcDbLine
 10
136.2783637511485
 20
142.5338516029676
 30
0.0
 11
136.2488951974489
 21
142.5284157529447
 31
0.0
  0
LINE
  5
489
330
E3
100
AcDbEntity
  8
0
  6
Continuous
100
AcDbLine
 10
136.2488951974489
 20
142.5284157529447
 30
0.0
 11
136.2167352999116
 21
142.5229799029219
 31
0.0
  0
LINE
  5
48A
330
E3
100
AcDbEntity
  8
0
  6
Continuous
100
AcDbLine
 10
136.2167352999116
 20
142.5229799029219
 30
0.0
 11
136.1821299343935
 21
142.5175473755458
 31
0.0
  0
LINE
  5
48B
330
E3
100
AcDbEntity
  8
0
  6
Continuous
100
AcDbLine
 10
136.1821299343935
 20
142.5175473755458
 30
0.0
 11
136.1453415899847
 21
142.512111525523
 31
0.0
  0
LINE
  5
48C
330
E3
100
AcDbEntity
  8
0
  6
Continuous
100
AcDbLine
 10
136.1453415899847
 20
142.512111525523
 30
0.0
 11
136.1066493690092
 21
142.5066756755001
 31
0.0
  0
LINE
  5
48D
330
E3
100
AcDbEntity
  8
0
  6
Continuous
100
AcDbLine
 10
136.1066493690092
 20
142.5066756755001
 30
0.0
 11
136.0663523096713
 21
142.501243148124
 31
0.0
  0
LINE
  5
48E
330
E3
100
AcDbEntity
  8
0
  6
Continuous
100
AcDbLine
 10
136.0663523096713
 20
142.501243148124
 30
0.0
 11
136.0247494501751
 21
142.4958072981012
 31
0.0
  0
LINE
  5
48F
330
E3
100
AcDbEntity
  8
0
  6
Continuous
100
AcDbLine
 10
136.0247494501751
 20
142.4958072981012
 30
0.0
 11
135.9821664098985
 21
142.4903714480783
 31
0.0
  0
LINE
  5
490
330
E3
100
AcDbEntity
  8
0
  6
Continuous
100
AcDbLine
 10
135.9821664098985
 20
142.4903714480783
 30
0.0
 11
135.9389188402792
 21
142.4849389207022
 31
0.0
  0
LINE
  5
491
330
E3
100
AcDbEntity
  8
0
  6
Continuous
100
AcDbLine
 10
135.9389188402792
 20
142.4849389207022
 30
0.0
 11
135.8953423286353
 21
142.4795030706794
 31
0.0
  0
LINE
  5
492
330
E3
100
AcDbEntity
  8
0
  6
Continuous
100
AcDbLine
 10
135.8953423286353
 20
142.4795030706794
 30
0.0
 11
135.8517624943447
 21
142.4740672206566
 31
0.0
  0
LINE
  5
493
330
E3
100
AcDbEntity
  8
0
  6
Continuous
100
AcDbLine
 10
135.8517624943447
 20
142.4740672206566
 30
0.0
 11
135.8085182473722
 21
142.4686346932805
 31
0.0
  0
LINE
  5
494
330
E3
100
AcDbEntity
  8
0
  6
Continuous
100
AcDbLine
 10
135.8085182473722
 20
142.4686346932805
 30
0.0
 11
135.7659318844488
 21
142.4631988432577
 31
0.0
  0
LINE
  5
495
330
E3
100
AcDbEntity
  8
0
  6
Continuous
100
AcDbLine
 10
135.7659318844488
 20
142.4631988432577
 30
0.0
 11
135.7243290249526
 21
142.4577629932348
 31
0.0
  0
LINE
  5
496
330
E3
100
AcDbEntity
  8
0
  6
Continuous
100
AcDbLine
 10
135.7243290249526
 20
142.4577629932348
 30
0.0
 11
135.6840319656147
 21
142.4523304658587
 31
0.0
  0
LINE
  5
497
330
E3
100
AcDbEntity
  8
0
  6
Continuous
100
AcDbLine
 10
135.6840319656147
 20
142.4523304658587
 30
0.0
 11
135.6453397446392
 21
142.4468946158359
 31
0.0
  0
LINE
  5
498
330
E3
100
AcDbEntity
  8
0
  6
Continuous
100
AcDbLine
 10
135.6453397446392
 20
142.4468946158359
 30
0.0
 11
135.6085514002304
 21
142.4414587658131
 31
0.0
  0
LINE
  5
499
330
E3
100
AcDbEntity
  8
0
  6
Continuous
100
AcDbLine
 10
135.6085514002304
 20
142.4414587658131
 30
0.0
 11
135.5739460347122
 21
142.4360229157902
 31
0.0
  0
LINE
  5
49A
330
E3
100
AcDbEntity
  8
0
  6
Continuous
100
AcDbLine
 10
135.5739460347122
 20
142.4360229157902
 30
0.0
 11
135.541786137175
 21
142.4305903884141
 31
0.0
  0
LINE
  5
49B
330
E3
100
AcDbEntity
  8
0
  6
Continuous
100
AcDbLine
 10
135.541786137175
 20
142.4305903884141
 30
0.0
 11
135.5123175834754
 21
142.4251545383913
 31
0.0
  0
LINE
  5
49C
330
E3
100
AcDbEntity
  8
0
  6
Continuous
100
AcDbLine
 10
135.5123175834754
 20
142.4251545383913
 30
0.0
 11
135.4857663135901
 21
142.4197186883684
 31
0.0
  0
LINE
  5
49D
330
E3
100
AcDbEntity
  8
0
  6
Continuous
100
AcDbLine
 10
135.4857663135901
 20
142.4197186883684
 30
0.0
 11
135.4623283636751
 21
142.4142861609923
 31
0.0
  0
LINE
  5
49E
330
E3
100
AcDbEntity
  8
0
  6
Continuous
100
AcDbLine
 10
135.4623283636751
 20
142.4142861609923
 30
0.0
 11
135.4421864792995
 21
142.4088503109695
 31
0.0
  0
LINE
  5
49F
330
E3
100
AcDbEntity
  8
0
  6
Continuous
100
AcDbLine
 10
135.4421864792995
 20
142.4088503109695
 30
0.0
 11
135.4254935022123
 21
142.4034144609467
 31
0.0
  0
LINE
  5
4A0
330
E3
100
AcDbEntity
  8
0
  6
Continuous
100
AcDbLine
 10
135.4254935022123
 20
142.4034144609467
 30
0.0
 11
135.4123790156352
 21
142.3979819335705
 31
0.0
  0
MTEXT
  5
4A1
330
E3
100
AcDbEntity
  8
Doc_ Floor
  6
Continuous
100
AcDbMText
 10
189.4883151267892
 20
137.4547558577829
 30
0.0
 40
2.5
 41
0.0
 71
     4
 72
     1
  1
{ROOF FIXING}
  7
GENERATED_STYLE_1
 73
     1
 44
1.0
  0
LINE
  5
4A2
330
E3
100
AcDbEntity
  8
Doc_ Floor
  6
Continuous
100
AcDbLine
 10
135.8953423286353
 20
143.4890494027308
 30
0.0
 11
139.7315506084376
 21
143.9491562289906
 31
0.0
  0
LINE
  5
4A3
330
E3
100
AcDbEntity
  8
Doc_ Floor
  6
Continuous
100
AcDbLine
 10
135.8953423286353
 20
143.4890494027308
 30
0.0
 11
139.4476503826731
 21
141.9694103472659
 31
0.0
  0
LINE
  5
4A4
330
E3
100
AcDbEntity
  8
Doc_ Floor
  6
Continuous
100
AcDbLine
 10
139.7315506084376
 20
143.9491562289906
 30
0.0
 11
139.4476503826731
 21
141.9694103472659
 31
0.0
  0
LWPOLYLINE
  5
4A5
330
E3
100
AcDbEntity
  8
Doc_ Floor
  6
Continuous
100
AcDbPolyline
 90
        6
 70
   128
 43
0.0
 10
139.5895992129405
 20
142.9592833956339
 10
158.2465111711083
 20
140.3722814877338
 10
171.8887027111849
 20
138.6787583568059
 10
181.6060214806016
 20
137.7540585078881
 10
185.3334309661346
 20
137.5410624720074
 10
188.4883151267892
 20
137.4735264460182
  0
ENDBLK
  5
E5
330
E3
100
AcDbEntity
  8
0
100
AcDbBlockEnd
  0
BLOCK
  5
4AB
330
4AA
100
AcDbEntity
  8
0
100
AcDbBlockBegin
  2
R-TRSC-07 BARGE DETAIL - SIDE_STORY_MARKER
 70
     0
 10
0.0
 20
0.0
 30
0.0
  3
R-TRSC-07 BARGE DETAIL - SIDE_STORY_MARKER
  1

  0
ENDBLK
  5
4AC
330
4AA
100
AcDbEntity
  8
0
100
AcDbBlockEnd
  0
ENDSEC
  0
SECTION
  2
ENTITIES
  0
HATCH
  5
3F
330
1F
100
AcDbEntity
  8
Doc_ Finishes
  6
Continuous
100
AcDbHatch
 10
0.0
 20
0.0
 30
0.0
210
0.0
220
0.0
230
1.0
  2
SOLID
 70
     1
 71
     0
 91
        1
 92
        3
 72
     0
 73
     1
 93
       54
 10
27.4117749414874
 20
16.87044408857867
 10
26.89356552397386
 20
16.5825499677378
 10
26.5480925789648
 20
16.29465584689693
 10
26.12584786839819
 20
16.02595466744544
 10
25.76118198199976
 20
15.60370995687884
 10
25.39651609560134
 20
15.33500877742737
 10
25.07023609198168
 20
14.89357112547136
 10
24.49444785029994
 20
14.45213347351537
 10
23.93785255000758
 20
14.02988876294876
 10
23.43883607388344
 20
13.81876640766546
 10
22.74789018386533
 20
13.39652169709885
 10
22.09533017662603
 20
12.99346992792163
 10
21.63469958328064
 20
12.55203227596564
 10
20.90536781048376
 20
12.12978756539902
 10
20.59828074825351
 20
11.7459287376112
 10
20.04168544796116
 20
11.28529814426581
 10
19.36993249933246
 20
10.8630534336992
 10
18.73656543348255
 20
10.42161578174319
 10
18.04561954346447
 20
10.15291460229172
 10
17.1051654153843
 20
9.692284008946325
 10
16.39502658397681
 20
9.020531060317637
 10
15.83843128368446
 20
8.598286349751023
 10
15.12829245227699
 20
8.137655756405634
 10
14.84039833143612
 20
7.98411222529051
 10
14.37976773809073
 20
7.81137575278599
 10
14.07268067586046
 20
7.523481631945121
 10
14.0151018516923
 20
7.216394569714853
 10
14.14945244141803
 20
6.890114566095209
 10
14.4373465622589
 20
6.563834562475543
 10
14.8787842142149
 20
6.659799269422514
 10
15.51215128006482
 20
7.06285103859973
 10
16.01116775618899
 20
7.389131042219374
 10
16.33744775980864
 20
7.696218104449641
 10
16.51018423231316
 20
7.907340459732938
 10
17.01303929671522
 20
8.421711288968723
 10
17.33548071205699
 20
8.652026585641417
 10
17.75004824606785
 20
8.99749953065046
 10
18.14158425041142
 20
9.204783297655894
 10
19.24709767444037
 20
9.75754000967037
 10
20.23745345013295
 20
10.47151742935572
 10
21.4120614631637
 20
11.1624633193738
 10
21.84966052684182
 20
11.64612544238645
 10
22.49454335752537
 20
12.06069297639732
 10
23.78430901889248
 20
12.9819541630881
 10
24.3600972605742
 20
13.25833251909534
 10
25.6498629219413
 20
14.24868829478776
 10
25.85714668894673
 20
14.64022429913134
 10
26.68628175696843
 20
15.23904407048036
 10
27.28510152831745
 20
15.72270619349301
 10
27.81482671066464
 20
16.1142421978366
 10
28.27545730401003
 20
16.52880973184745
 10
28.22939424467549
 20
16.7821565581874
 10
28.09120506667188
 20
16.89731420652375
 10
27.56147988432467
 20
16.89731420652375
 97
        0
 75
     0
 76
     1
 98
        0
  0
LINE
  5
41
330
1F
100
AcDbEntity
  8
Doc_ Finishes
  6
Continuous
100
AcDbLine
 10
27.41177566876475
 20
16.87044600708104
 30
0.0
 11
26.89356756490952
 21
16.58254868214004
 31
0.0
  0
LINE
  5
42
330
1F
100
AcDbEntity
  8
Doc_ Finishes
  6
Continuous
100
AcDbLine
 10
26.89356756490952
 20
16.58254868214004
 30
0.0
 11
26.54809254523997
 21
16.29465578284815
 31
0.0
  0
LINE
  5
43
330
1F
100
AcDbEntity
  8
Doc_ Finishes
  6
Continuous
100
AcDbLine
 10
26.54809254523997
 20
16.29465578284815
 30
0.0
 11
26.12584579071597
 21
16.02595249803305
 31
0.0
  0
LINE
  5
44
330
1F
100
AcDbEntity
  8
Doc_ Finishes
  6
Continuous
100
AcDbLine
 10
26.12584579071597
 20
16.02595249803305
 30
0.0
 11
25.76118115656963
 21
15.60371016915814
 31
0.0
  0
LINE
  5
45
330
1F
100
AcDbEntity
  8
Doc_ Finishes
  6
Continuous
100
AcDbLine
 10
25.76118115656963
 20
15.60371016915814
 30
0.0
 11
25.39651652242329
 21
15.33500688434304
 31
0.0
  0
LINE
  5
46
330
1F
100
AcDbEntity
  8
Doc_ Finishes
  6
Continuous
100
AcDbLine
 10
25.39651652242329
 20
15.33500688434304
 30
0.0
 11
25.07023554287962
 21
14.89357051534225
 31
0.0
  0
LINE
  5
47
330
1F
100
AcDbEntity
  8
Doc_ Finishes
  6
Continuous
100
AcDbLine
 10
25.07023554287962
 20
14.89357051534225
 30
0.0
 11
24.49444974429583
 21
14.45213414634146
 31
0.0
  0
LINE
  5
48
330
1F
100
AcDbEntity
  8
Doc_ Finishes
  6
Continuous
100
AcDbLine
 10
24.49444974429583
 20
14.45213414634146
 30
0.0
 11
23.93785356018882
 21
14.02988739181747
 31
0.0
  0
LINE
  5
49
330
1F
100
AcDbEntity
  8
Doc_ Finishes
  6
Continuous
100
AcDbLine
 10
23.93785356018882
 20
14.02988739181747
 30
0.0
 11
23.43883507081038
 21
13.81876622738001
 31
0.0
  0
LINE
  5
4A
330
1F
100
AcDbEntity
  8
Doc_ Finishes
  6
Continuous
100
AcDbLine
 10
23.43883507081038
 20
13.81876622738001
 30
0.0
 11
22.74788945712038
 21
13.39652389850511
 31
0.0
  0
LINE
  5
4B
330
1F
100
AcDbEntity
  8
Doc_ Finishes
  6
Continuous
100
AcDbLine
 10
22.74788945712038
 20
13.39652389850511
 30
0.0
 11
22.09533192368214
 21
12.993471184107
 31
0.0
  0
LINE
  5
4C
330
1F
100
AcDbEntity
  8
Doc_ Finishes
  6
Continuous
100
AcDbLine
 10
22.09533192368214
 20
12.993471184107
 30
0.0
 11
21.63470151455547
 21
12.55203038945712
 31
0.0
  0
LINE
  5
4D
330
1F
100
AcDbEntity
  8
Doc_ Finishes
  6
Continuous
100
AcDbLine
 10
21.63470151455547
 20
12.55203038945712
 30
0.0
 11
20.90536782061369
 21
12.12978806058222
 31
0.0
  0
LINE
  5
4E
330
1F
100
AcDbEntity
  8
Doc_ Finishes
  6
Continuous
100
AcDbLine
 10
20.90536782061369
 20
12.12978806058222
 30
0.0
 11
20.59828088119591
 21
11.74592938630999
 31
0.0
  0
LINE
  5
4F
330
1F
100
AcDbEntity
  8
Doc_ Finishes
  6
Continuous
100
AcDbLine
 10
20.59828088119591
 20
11.74592938630999
 30
0.0
 11
20.0416846970889
 21
11.28529897718332
 31
0.0
  0
LINE
  5
50
330
1F
100
AcDbEntity
  8
Doc_ Finishes
  6
Continuous
100
AcDbLine
 10
20.0416846970889
 20
11.28529897718332
 30
0.0
 11
19.36993312352478
 21
10.86305222265932
 31
0.0
  0
LINE
  5
51
330
1F
100
AcDbEntity
  8
Doc_ Finishes
  6
Continuous
100
AcDbLine
 10
19.36993312352478
 20
10.86305222265932
 30
0.0
 11
18.73656520456333
 21
10.42161585365854
 31
0.0
  0
LINE
  5
52
330
1F
100
AcDbEntity
  8
Doc_ Finishes
  6
Continuous
100
AcDbLine
 10
18.73656520456333
 20
10.42161585365854
 30
0.0
 11
18.04561959087333
 21
10.15291256884343
 31
0.0
  0
LINE
  5
53
330
1F
100
AcDbEntity
  8
Doc_ Finishes
  6
Continuous
100
AcDbLine
 10
18.04561959087333
 20
10.15291256884343
 30
0.0
 11
17.1051647324941
 21
9.692282159716758
 31
0.0
  0
LINE
  5
54
330
1F
100
AcDbEntity
  8
Doc_ Finishes
  6
Continuous
100
AcDbLine
 10
17.1051647324941
 20
9.692282159716758
 30
0.0
 11
16.3950250786782
 21
9.020530586152635
 31
0.0
  0
LINE
  5
55
330
1F
100
AcDbEntity
  8
Doc_ Finishes
  6
Continuous
100
AcDbLine
 10
16.3950250786782
 20
9.020530586152635
 30
0.0
 11
15.8384333202203
 21
8.598288257277733
 31
0.0
  0
LINE
  5
56
330
1F
100
AcDbEntity
  8
Doc_ Finishes
  6
Continuous
100
AcDbLine
 10
15.8384333202203
 20
8.598288257277733
 30
0.0
 11
15.1282936664044
 21
8.137657848151063
 31
0.0
  0
LINE
  5
57
330
1F
100
AcDbEntity
  8
Doc_ Finishes
  6
Continuous
100
AcDbLine
 10
15.1282936664044
 20
8.137657848151063
 30
0.0
 11
14.84039634146341
 21
7.984114378442171
 31
0.0
  0
LINE
  5
58
330
1F
100
AcDbEntity
  8
Doc_ Finishes
  6
Continuous
100
AcDbLine
 10
14.84039634146341
 20
7.984114378442171
 30
0.0
 11
14.37976593233674
 21
7.811376868607396
 31
0.0
  0
LINE
  5
59
330
1F
100
AcDbEntity
  8
Doc_ Finishes
  6
Continuous
100
AcDbLine
 10
14.37976593233674
 20
7.811376868607396
 30
0.0
 11
14.07267899291896
 21
7.523479543666405
 31
0.0
  0
LINE
  5
5A
330
1F
100
AcDbEntity
  8
Doc_ Finishes
  6
Continuous
100
AcDbLine
 10
14.07267899291896
 20
7.523479543666405
 30
0.0
 11
14.0151012981904
 21
7.216392604248622
 31
0.0
  0
LINE
  5
5B
330
1F
100
AcDbEntity
  8
Doc_ Finishes
  6
Continuous
100
AcDbLine
 10
14.0151012981904
 20
7.216392604248622
 30
0.0
 11
14.14945072777341
 21
6.890116050354051
 31
0.0
  0
LINE
  5
5C
330
1F
100
AcDbEntity
  8
Doc_ Finishes
  6
Continuous
100
AcDbLine
 10
14.14945072777341
 20
6.890116050354051
 30
0.0
 11
14.4373480527144
 21
6.563835070810386
 31
0.0
  0
LINE
  5
5D
330
1F
100
AcDbEntity
  8
Doc_ Finishes
  6
Continuous
100
AcDbLine
 10
14.4373480527144
 20
6.563835070810386
 30
0.0
 11
14.87878442171519
 21
6.659800845790715
 31
0.0
  0
LINE
  5
5E
330
1F
100
AcDbEntity
  8
Doc_ Finishes
  6
Continuous
100
AcDbLine
 10
14.87878442171519
 20
6.659800845790715
 30
0.0
 11
15.51215234067663
 21
7.062849134539732
 31
0.0
  0
LINE
  5
5F
330
1F
100
AcDbEntity
  8
Doc_ Finishes
  6
Continuous
100
AcDbLine
 10
15.51215234067663
 20
7.062849134539732
 30
0.0
 11
16.01116640440598
 21
7.389130114083398
 31
0.0
  0
LINE
  5
60
330
1F
100
AcDbEntity
  8
Doc_ Finishes
  6
Continuous
100
AcDbLine
 10
16.01116640440598
 20
7.389130114083398
 30
0.0
 11
16.33744738394964
 21
7.69621705350118
 31
0.0
  0
LINE
  5
61
330
1F
100
AcDbEntity
  8
Doc_ Finishes
  6
Continuous
100
AcDbLine
 10
16.33744738394964
 20
7.69621705350118
 30
0.0
 11
16.51018489378442
 21
7.907342643587726
 31
0.0
  0
LINE
  5
62
330
1F
100
AcDbEntity
  8
Doc_ Finishes
  6
Continuous
100
AcDbLine
 10
16.51018489378442
 20
7.907342643587726
 30
0.0
 11
17.0130404209284
 21
8.421709284028323
 31
0.0
  0
LINE
  5
63
330
1F
100
AcDbEntity
  8
Doc_ Finishes
  6
Continuous
100
AcDbLine
 10
17.0130404209284
 20
8.421709284028323
 30
0.0
 11
17.33547993705743
 21
8.65202448859166
 31
0.0
  0
LINE
  5
64
330
1F
100
AcDbEntity
  8
Doc_ Finishes
  6
Continuous
100
AcDbLine
 10
17.33547993705743
 20
8.65202448859166
 30
0.0
 11
17.75004819040126
 21
8.997499508261212
 31
0.0
  0
LINE
  5
65
330
1F
100
AcDbEntity
  8
Doc_ Finishes
  6
Continuous
100
AcDbLine
 10
17.75004819040126
 20
8.997499508261212
 30
0.0
 11
18.14158536585366
 21
9.204783634933122
 31
0.0
  0
LINE
  5
66
330
1F
100
AcDbEntity
  8
Doc_ Finishes
  6
Continuous
100
AcDbLine
 10
18.14158536585366
 20
9.204783634933122
 30
0.0
 11
19.24709923288749
 21
9.75753835562549
 31
0.0
  0
LINE
  5
67
330
1F
100
AcDbEntity
  8
Doc_ Finishes
  6
Continuous
100
AcDbLine
 10
19.24709923288749
 20
9.75753835562549
 30
0.0
 11
20.23745328481511
 21
10.47151947285602
 31
0.0
  0
LINE
  5
68
330
1F
100
AcDbEntity
  8
Doc_ Finishes
  6
Continuous
100
AcDbLine
 10
20.23745328481511
 20
10.47151947285602
 30
0.0
 11
21.41206038552321
 21
11.16246508654602
 31
0.0
  0
LINE
  5
69
330
1F
100
AcDbEntity
  8
Doc_ Finishes
  6
Continuous
100
AcDbLine
 10
21.41206038552321
 20
11.16246508654602
 30
0.0
 11
21.84965971675846
 21
11.64612657356412
 31
0.0
  0
LINE
  5
6A
330
1F
100
AcDbEntity
  8
Doc_ Finishes
  6
Continuous
100
AcDbLine
 10
21.84965971675846
 20
11.64612657356412
 30
0.0
 11
22.49454317466562
 21
12.06069482690795
 31
0.0
  0
LINE
  5
6B
330
1F
100
AcDbEntity
  8
Doc_ Finishes
  6
Continuous
100
AcDbLine
 10
22.49454317466562
 20
12.06069482690795
 30
0.0
 11
23.78431009047993
 21
12.98195564516129
 31
0.0
  0
LINE
  5
6C
330
1F
100
AcDbEntity
  8
Doc_ Finishes
  6
Continuous
100
AcDbLine
 10
23.78431009047993
 20
12.98195564516129
 30
0.0
 11
24.36009588906373
 21
13.25833300550747
 31
0.0
  0
LINE
  5
6D
330
1F
100
AcDbEntity
  8
Doc_ Finishes
  6
Continuous
100
AcDbLine
 10
24.36009588906373
 20
13.25833300550747
 30
0.0
 11
25.64986280487805
 21
14.24868705743509
 31
0.0
  0
LINE
  5
6E
330
1F
100
AcDbEntity
  8
Doc_ Finishes
  6
Continuous
100
AcDbLine
 10
25.64986280487805
 20
14.24868705743509
 30
0.0
 11
25.85714693154996
 21
14.64022423288749
 31
0.0
  0
LINE
  5
6F
330
1F
100
AcDbEntity
  8
Doc_ Finishes
  6
Continuous
100
AcDbLine
 10
25.85714693154996
 20
14.64022423288749
 30
0.0
 11
26.68628343823761
 21
15.2390455350118
 31
0.0
  0
LINE
  5
70
330
1F
100
AcDbEntity
  8
Doc_ Finishes
  6
Continuous
100
AcDbLine
 10
26.68628343823761
 20
15.2390455350118
 30
0.0
 11
27.28510031471282
 21
15.7227070220299
 31
0.0
  0
LINE
  5
71
330
1F
100
AcDbEntity
  8
Doc_ Finishes
  6
Continuous
100
AcDbLine
 10
27.28510031471282
 20
15.7227070220299
 30
0.0
 11
27.81482838316287
 21
16.1142441974823
 31
0.0
  0
LINE
  5
72
330
1F
100
AcDbEntity
  8
Doc_ Finishes
  6
Continuous
100
AcDbLine
 10
27.81482838316287
 20
16.1142441974823
 30
0.0
 11
28.27545879228953
 21
16.52880802517702
 31
0.0
  0
LINE
  5
73
330
1F
100
AcDbEntity
  8
Doc_ Finishes
  6
Continuous
100
AcDbLine
 10
28.27545879228953
 20
16.52880802517702
 30
0.0
 11
28.22939221085759
 21
16.78215873328088
 31
0.0
  0
LINE
  5
74
330
1F
100
AcDbEntity
  8
Doc_ Finishes
  6
Continuous
100
AcDbLine
 10
28.22939221085759
 20
16.78215873328088
 30
0.0
 11
28.09120574350905
 21
16.897314122738
 31
0.0
  0
LINE
  5
75
330
1F
100
AcDbEntity
  8
Doc_ Finishes
  6
Continuous
100
AcDbLine
 10
28.09120574350905
 20
16.897314122738
 30
0.0
 11
27.56147767505901
 21
16.897314122738
 31
0.0
  0
LINE
  5
76
330
1F
100
AcDbEntity
  8
Doc_ Finishes
  6
Continuous
100
AcDbLine
 10
27.56147767505901
 20
16.897314122738
 30
0.0
 11
27.41177566876475
 21
16.87044600708104
 31
0.0
  0
HATCH
  5
77
330
1F
100
AcDbEntity
  8
Doc_ Finishes
  6
Continuous
100
AcDbHatch
 10
0.0
 20
0.0
 30
0.0
210
0.0
220
0.0
230
1.0
  2
SOLID
 70
     1
 71
     0
 91
        1
 92
        3
 72
     0
 73
     1
 93
       39
 10
27.65360600299377
 20
13.12014334109181
 10
27.21600693931564
 20
12.77467039608275
 10
26.54809257896482
 20
12.24494521373555
 10
25.92624127794851
 20
11.85340920939199
 10
25.32742150659951
 20
11.32368402704478
 10
24.72860173525052
 20
11.04730567103754
 10
24.08371890456698
 20
10.56364354802488
 10
23.62308831122158
 20
10.33332825135219
 10
23.231552306878
 20
10.03391836567767
 10
22.81698477286715
 20
9.619350831666825
 10
22.40241723885631
 20
9.38903553499415
 10
21.91875511584363
 20
9.043562589985086
 10
21.66540828950367
 20
8.859310352646935
 10
21.25084075549282
 20
8.582931996639696
 10
20.09926427212933
 20
7.753796928618002
 10
19.75379132712029
 20
7.477418572610764
 10
19.2931607337749
 20
7.316197864939873
 10
19.22406614477309
 20
6.993756449598113
 10
19.3622553227767
 20
6.717378093590874
 10
19.63863367878394
 20
6.602220445254527
 10
20.00713815346026
 20
6.8325357419272
 10
20.26048497980021
 20
7.131945627601722
 10
20.55989486547472
 20
7.362260924274415
 10
21.31993534449462
 20
7.707733869283458
 10
21.84966052684182
 20
8.122301403294307
 10
22.88607936186895
 20
8.882341882314256
 10
23.20852077721072
 20
9.342972475659646
 10
24.01462431556515
 20
9.734508480003234
 10
24.5673810275796
 20
10.05694989534501
 10
25.46561068460312
 20
10.60970660735953
 10
25.88017821861399
 20
11.07033720070492
 10
26.31777728229212
 20
11.34671555671216
 10
26.70931328663569
 20
11.30065249737762
 10
27.21600693931562
 20
11.55399932371759
 10
28.0681735370046
 20
12.17585062473387
 10
28.41364648201364
 20
12.49829204007566
 10
28.39061495234636
 20
12.77467039608289
 10
28.22939424467547
 20
13.00498569275559
 10
28.04514200733732
 20
13.05104875209013
 97
        0
 75
     0
 76
     1
 98
        0
  0
LINE
  5
78
330
1F
100
AcDbEntity
  8
Doc_ Finishes
  6
Continuous
100
AcDbLine
 10
27.6536064122738
 20
13.12014211250983
 30
0.0
 11
27.21600708103855
 21
12.77467151848938
 31
0.0
  0
LINE
  5
79
330
1F
100
AcDbEntity
  8
Doc_ Finishes
  6
Continuous
100
AcDbLine
 10
27.21600708103855
 20
12.77467151848938
 30
0.0
 11
26.54809254523997
 21
12.24494345003934
 31
0.0
  0
LINE
  5
7A
330
1F
100
AcDbEntity
  8
Doc_ Finishes
  6
Continuous
100
AcDbLine
 10
26.54809254523997
 20
12.24494345003934
 30
0.0
 11
25.92624016522423
 21
11.85341070023603
 31
0.0
  0
LINE
  5
7B
330
1F
100
AcDbEntity
  8
Doc_ Finishes
  6
Continuous
100
AcDbLine
 10
25.92624016522423
 20
11.85341070023603
 30
0.0
 11
25.32742328874902
 21
11.32368263178599
 31
0.0
  0
LINE
  5
7C
330
1F
100
AcDbEntity
  8
Doc_ Finishes
  6
Continuous
100
AcDbLine
 10
25.32742328874902
 20
11.32368263178599
 30
0.0
 11
24.72860198662471
 21
11.04730527143981
 31
0.0
  0
LINE
  5
7D
330
1F
100
AcDbEntity
  8
Doc_ Finishes
  6
Continuous
100
AcDbLine
 10
24.72860198662471
 20
11.04730527143981
 30
0.0
 11
24.08371852871754
 21
10.56364378442171
 31
0.0
  0
LINE
  5
7E
330
1F
100
AcDbEntity
  8
Doc_ Finishes
  6
Continuous
100
AcDbLine
 10
24.08371852871754
 20
10.56364378442171
 30
0.0
 11
23.62308811959087
 21
10.33332857985838
 31
0.0
  0
LINE
  5
7F
330
1F
100
AcDbEntity
  8
Doc_ Finishes
  6
Continuous
100
AcDbLine
 10
23.62308811959087
 20
10.33332857985838
 30
0.0
 11
23.23155094413847
 21
10.03392014162077
 31
0.0
  0
LINE
  5
80
330
1F
100
AcDbEntity
  8
Doc_ Finishes
  6
Continuous
100
AcDbLine
 10
23.23155094413847
 20
10.03392014162077
 30
0.0
 11
22.81698269079465
 21
9.619351888276947
 31
0.0
  0
LINE
  5
81
330
1F
100
AcDbEntity
  8
Doc_ Finishes
  6
Continuous
100
AcDbLine
 10
22.81698269079465
 20
9.619351888276947
 30
0.0
 11
22.40241886309992
 21
9.389036683713611
 31
0.0
  0
LINE
  5
82
330
1F
100
AcDbEntity
  8
Doc_ Finishes
  6
Continuous
100
AcDbLine
 10
22.40241886309992
 20
9.389036683713611
 30
0.0
 11
21.91875295043273
 21
9.04356166404406
 31
0.0
  0
LINE
  5
83
330
1F
100
AcDbEntity
  8
Doc_ Finishes
  6
Continuous
100
AcDbLine
 10
21.91875295043273
 20
9.04356166404406
 30
0.0
 11
21.66540666797797
 21
8.859308615263572
 31
0.0
  0
LINE
  5
84
330
1F
100
AcDbEntity
  8
Doc_ Finishes
  6
Continuous
100
AcDbLine
 10
21.66540666797797
 20
8.859308615263572
 30
0.0
 11
21.25084284028324
 21
8.582931254917387
 31
0.0
  0
LINE
  5
85
330
1F
100
AcDbEntity
  8
Doc_ Finishes
  6
Continuous
100
AcDbLine
 10
21.25084284028324
 20
8.582931254917387
 30
0.0
 11
20.09926239181747
 21
7.75379474822974
 31
0.0
  0
LINE
  5
86
330
1F
100
AcDbEntity
  8
Doc_ Finishes
  6
Continuous
100
AcDbLine
 10
20.09926239181747
 20
7.75379474822974
 30
0.0
 11
19.75379179779701
 21
7.477417387883556
 31
0.0
  0
LINE
  5
87
330
1F
100
AcDbEntity
  8
Doc_ Finishes
  6
Continuous
100
AcDbLine
 10
19.75379179779701
 20
7.477417387883556
 30
0.0
 11
19.29316138867033
 21
7.316199842643588
 31
0.0
  0
LINE
  5
88
330
1F
100
AcDbEntity
  8
Doc_ Finishes
  6
Continuous
100
AcDbLine
 10
19.29316138867033
 20
7.316199842643588
 30
0.0
 11
19.22406815499606
 21
6.993755900865461
 31
0.0
  0
LINE
  5
89
330
1F
100
AcDbEntity
  8
Doc_ Finishes
  6
Continuous
100
AcDbLine
 10
19.22406815499606
 20
6.993755900865461
 30
0.0
 11
19.36225462234461
 21
6.717378540519276
 31
0.0
  0
LINE
  5
8A
330
1F
100
AcDbEntity
  8
Doc_ Finishes
  6
Continuous
100
AcDbLine
 10
19.36225462234461
 20
6.717378540519276
 30
0.0
 11
19.63863198269079
 21
6.602218725413059
 31
0.0
  0
LINE
  5
8B
330
1F
100
AcDbEntity
  8
Doc_ Finishes
  6
Continuous
100
AcDbLine
 10
19.63863198269079
 20
6.602218725413059
 30
0.0
 11
20.00713808025177
 21
6.832533929976396
 31
0.0
  0
LINE
  5
8C
330
1F
100
AcDbEntity
  8
Doc_ Finishes
  6
Continuous
100
AcDbLine
 10
20.00713808025177
 20
6.832533929976396
 30
0.0
 11
20.26048436270653
 21
7.1319467938631
 31
0.0
  0
LINE
  5
8D
330
1F
100
AcDbEntity
  8
Doc_ Finishes
  6
Continuous
100
AcDbLine
 10
20.26048436270653
 20
7.1319467938631
 30
0.0
 11
20.55989280094414
 21
7.362261998426435
 31
0.0
  0
LINE
  5
8E
330
1F
100
AcDbEntity
  8
Doc_ Finishes
  6
Continuous
100
AcDbLine
 10
20.55989280094414
 20
7.362261998426435
 30
0.0
 11
21.31993607395751
 21
7.707732592446892
 31
0.0
  0
LINE
  5
8F
330
1F
100
AcDbEntity
  8
Doc_ Finishes
  6
Continuous
100
AcDbLine
 10
21.31993607395751
 20
7.707732592446892
 30
0.0
 11
21.84965971675846
 21
8.122300845790717
 31
0.0
  0
LINE
  5
90
330
1F
100
AcDbEntity
  8
Doc_ Finishes
  6
Continuous
100
AcDbLine
 10
21.84965971675846
 20
8.122300845790717
 30
0.0
 11
22.88608035011802
 21
8.882339693154996
 31
0.0
  0
LINE
  5
91
330
1F
100
AcDbEntity
  8
Doc_ Finishes
  6
Continuous
100
AcDbLine
 10
22.88608035011802
 20
8.882339693154996
 30
0.0
 11
23.20851986624705
 21
9.342974527930762
 31
0.0
  0
LINE
  5
92
330
1F
100
AcDbEntity
  8
Doc_ Finishes
  6
Continuous
100
AcDbLine
 10
23.20851986624705
 20
9.342974527930762
 30
0.0
 11
24.01462529504327
 21
9.734507277734066
 31
0.0
  0
LINE
  5
93
330
1F
100
AcDbEntity
  8
Doc_ Finishes
  6
Continuous
100
AcDbLine
 10
24.01462529504327
 20
9.734507277734066
 30
0.0
 11
24.56738001573564
 21
10.05695121951219
 31
0.0
  0
LINE
  5
94
330
1F
100
AcDbEntity
  8
Doc_ Finishes
  6
Continuous
100
AcDbLine
 10
24.56738001573564
 20
10.05695121951219
 30
0.0
 11
25.46560975609756
 21
10.60970594020456
 31
0.0
  0
LINE
  5
95
330
1F
100
AcDbEntity
  8
Doc_ Finishes
  6
Continuous
100
AcDbLine
 10
25.46560975609756
 20
10.60970594020456
 30
0.0
 11
25.88017800944139
 21
11.07033634933124
 31
0.0
  0
LINE
  5
96
330
1F
100
AcDbEntity
  8
Doc_ Finishes
  6
Continuous
100
AcDbLine
 10
25.88017800944139
 20
11.07033634933124
 30
0.0
 11
26.31777734067663
 21
11.34671370967742
 31
0.0
  0
LINE
  5
97
330
1F
100
AcDbEntity
  8
Doc_ Finishes
  6
Continuous
100
AcDbLine
 10
26.31777734067663
 20
11.34671370967742
 30
0.0
 11
26.70931451612903
 21
11.30065155389457
 31
0.0
  0
LINE
  5
98
330
1F
100
AcDbEntity
  8
Doc_ Finishes
  6
Continuous
100
AcDbLine
 10
26.70931451612903
 20
11.30065155389457
 30
0.0
 11
27.21600708103855
 21
11.55399783634933
 31
0.0
  0
LINE
  5
99
330
1F
100
AcDbEntity
  8
Doc_ Finishes
  6
Continuous
100
AcDbLine
 10
27.21600708103855
 20
11.55399783634933
 30
0.0
 11
28.06817466561763
 21
12.17585021636507
 31
0.0
  0
LINE
  5
9A
330
1F
100
AcDbEntity
  8
Doc_ Finishes
  6
Continuous
100
AcDbLine
 10
28.06817466561763
 20
12.17585021636507
 30
0.0
 11
28.41364525963808
 21
12.49829415814319
 31
0.0
  0
LINE
  5
9B
330
1F
100
AcDbEntity
  8
Doc_ Finishes
  6
Continuous
100
AcDbLine
 10
28.41364525963808
 20
12.49829415814319
 30
0.0
 11
28.39061418174666
 21
12.77467151848938
 31
0.0
  0
LINE
  5
9C
330
1F
100
AcDbEntity
  8
Doc_ Finishes
  6
Continuous
100
AcDbLine
 10
28.39061418174666
 20
12.77467151848938
 30
0.0
 11
28.22939221085759
 21
13.00498672305271
 31
0.0
  0
LINE
  5
9D
330
1F
100
AcDbEntity
  8
Doc_ Finishes
  6
Continuous
100
AcDbLine
 10
28.22939221085759
 20
13.00498672305271
 30
0.0
 11
28.04514358772619
 21
13.05104887883556
 31
0.0
  0
LINE
  5
9E
330
1F
100
AcDbEntity
  8
Doc_ Finishes
  6
Continuous
100
AcDbLine
 10
28.04514358772619
 20
13.05104887883556
 30
0.0
 11
27.6536064122738
 21
13.12014211250983
 31
0.0
  0
HATCH
  5
9F
330
1F
100
AcDbEntity
  8
Doc_ Finishes
  6
Continuous
100
AcDbHatch
 10
0.0
 20
0.0
 30
0.0
210
0.0
220
0.0
230
1.0
  2
SOLID
 70
     1
 71
     0
 91
        1
 92
        3
 72
     0
 73
     1
 93
       47
 10
28.06817353700456
 20
15.74573772316067
 10
28.30309513961077
 20
15.62136746295728
 10
28.4412843176144
 20
15.4002647781515
 10
28.93876535842742
 20
15.17916209334572
 10
29.82317609765057
 20
14.40530269652538
 10
30.92868952167951
 20
13.74199464210799
 10
31.59199757609689
 20
13.3827027792986
 10
32.20002995931279
 20
13.07868658769064
 10
33.55428390374828
 20
12.08372450606458
 10
34.07940278016201
 20
11.69679480765445
 10
34.88090001258301
 20
11.08876242443854
 10
35.59948373820179
 20
10.50836787682334
 10
36.5668079842271
 20
9.817421986805197
 10
37.06428902504012
 20
9.458130123995785
 10
37.81051058625966
 20
8.933011247582023
 10
38.61200781868061
 20
8.407892371168286
 10
38.77783483228498
 20
8.186789686362482
 10
39.38586721550092
 20
7.744584316750918
 10
40.18736444792187
 20
6.915449248729224
 10
40.7953968311378
 20
6.44560604351692
 10
41.56925622795804
 20
6.169227687509681
 10
42.23256428237543
 20
6.086314180707507
 10
42.48130480278193
 20
6.30741686551329
 10
42.14965077557326
 20
6.611433057121246
 10
41.48634272115586
 20
6.998362755531397
 10
40.76775899553709
 20
7.357654618340788
 10
40.18736444792187
 20
8.048600508358874
 10
38.99893751709079
 20
8.822459905179112
 10
38.47381864067705
 20
9.319940945992132
 10
38.22507812027052
 20
9.734508480003
 10
37.17484036744301
 20
10.31490302761817
 10
36.73263499783144
 20
10.78474623283046
 10
36.2351539570184
 20
11.17167593124059
 10
35.48893239579888
 20
11.61388130085215
 10
34.85326217698223
 20
12.16663801286669
 10
34.35578113616919
 20
12.58120554687754
 10
33.69247308175183
 20
12.99577308088841
 10
33.22262987653953
 20
13.32742710809708
 10
32.7251488357265
 20
13.5761676285036
 10
31.93747052110588
 20
14.06443605744977
 10
31.43077686842594
 20
14.38687747279155
 10
30.92408321574601
 20
14.70931888813342
 10
30.62467333007151
 20
15.100854892477
 10
29.95675896972068
 20
15.67664313415887
 10
29.47309684670803
 20
15.9530214901661
 10
28.82821401602447
 20
16.36758902417695
 10
28.50577260068269
 20
16.22939984617334
 97
        0
 75
     0
 76
     1
 98
        0
  0
LINE
  5
A0
330
1F
100
AcDbEntity
  8
Doc_ Finishes
  6
Continuous
100
AcDbLine
 10
28.30309697088906
 20
15.62136850904799
 30
0.0
 11
28.06817466561763
 21
15.74573809992132
 31
0.0
  0
LINE
  5
A1
330
1F
100
AcDbEntity
  8
Doc_ Finishes
  6
Continuous
100
AcDbLine
 10
28.44128343823761
 20
15.40026308025177
 30
0.0
 11
28.30309697088906
 21
15.62136850904799
 31
0.0
  0
LINE
  5
A2
330
1F
100
AcDbEntity
  8
Doc_ Finishes
  6
Continuous
100
AcDbLine
 10
28.93876622738001
 20
15.17916207710464
 30
0.0
 11
28.44128343823761
 21
15.40026308025177
 31
0.0
  0
LINE
  5
A3
330
1F
100
AcDbEntity
  8
Doc_ Finishes
  6
Continuous
100
AcDbLine
 10
29.82317466561762
 20
14.40530192761605
 30
0.0
 11
28.93876622738001
 21
15.17916207710464
 31
0.0
  0
LINE
  5
A4
330
1F
100
AcDbEntity
  8
Doc_ Finishes
  6
Continuous
100
AcDbLine
 10
30.92868853265146
 20
13.74199449252557
 30
0.0
 11
29.82317466561762
 21
14.40530192761605
 31
0.0
  0
LINE
  5
A5
330
1F
100
AcDbEntity
  8
Doc_ Finishes
  6
Continuous
100
AcDbLine
 10
31.59199596774193
 20
13.3827025963808
 30
0.0
 11
30.92868853265146
 21
13.74199449252557
 31
0.0
  0
LINE
  5
A6
330
1F
100
AcDbEntity
  8
Doc_ Finishes
  6
Continuous
100
AcDbLine
 10
32.20003147128246
 20
13.07868705743509
 30
0.0
 11
31.59199596774193
 21
13.3827025963808
 31
0.0
  0
LINE
  5
A7
330
1F
100
AcDbEntity
  8
Doc_ Finishes
  6
Continuous
100
AcDbLine
 10
33.55428452006294
 20
12.08372590479937
 30
0.0
 11
32.20003147128246
 21
13.07868705743509
 31
0.0
  0
LINE
  5
A8
330
1F
100
AcDbEntity
  8
Doc_ Finishes
  6
Continuous
100
AcDbLine
 10
34.07940106215578
 20
11.69679583005508
 30
0.0
 11
33.55428452006294
 21
12.08372590479937
 31
0.0
  0
LINE
  5
A9
330
1F
100
AcDbEntity
  8
Doc_ Finishes
  6
Continuous
100
AcDbLine
 10
34.8808993902439
 20
11.08876032651456
 30
0.0
 11
34.07940106215578
 21
11.69679583005508
 31
0.0
  0
LINE
  5
AA
330
1F
100
AcDbEntity
  8
Doc_ Finishes
  6
Continuous
100
AcDbLine
 10
35.59948318253343
 20
10.50836742722266
 30
0.0
 11
34.8808993902439
 21
11.08876032651456
 31
0.0
  0
LINE
  5
AB
330
1F
100
AcDbEntity
  8
Doc_ Finishes
  6
Continuous
100
AcDbLine
 10
36.56680615656963
 20
9.817421813532652
 30
0.0
 11
35.59948318253343
 21
10.50836742722266
 31
0.0
  0
LINE
  5
AC
330
1F
100
AcDbEntity
  8
Doc_ Finishes
  6
Continuous
100
AcDbLine
 10
37.06428894571204
 20
9.458129917387884
 30
0.0
 11
36.56680615656963
 21
9.817421813532652
 31
0.0
  0
LINE
  5
AD
330
1F
100
AcDbEntity
  8
Doc_ Finishes
  6
Continuous
100
AcDbLine
 10
37.8105109166011
 20
8.933013375295044
 30
0.0
 11
37.06428894571204
 21
9.458129917387884
 31
0.0
  0
LINE
  5
AE
330
1F
100
AcDbEntity
  8
Doc_ Finishes
  6
Continuous
100
AcDbLine
 10
38.61200924468922
 20
8.407892407553108
 30
0.0
 11
37.8105109166011
 21
8.933013375295044
 31
0.0
  0
LINE
  5
AF
330
1F
100
AcDbEntity
  8
Doc_ Finishes
  6
Continuous
100
AcDbLine
 10
38.77783389063729
 20
8.18679140440598
 30
0.0
 11
38.61200924468922
 21
8.407892407553108
 31
0.0
  0
LINE
  5
B0
330
1F
100
AcDbEntity
  8
Doc_ Finishes
  6
Continuous
100
AcDbLine
 10
39.3858693941778
 20
7.744584972462627
 30
0.0
 11
38.77783389063729
 21
8.18679140440598
 31
0.0
  0
LINE
  5
B1
330
1F
100
AcDbEntity
  8
Doc_ Finishes
  6
Continuous
100
AcDbLine
 10
40.18736329661684
 20
6.915448465774981
 30
0.0
 11
39.3858693941778
 21
7.744584972462627
 31
0.0
  0
LINE
  5
B2
330
1F
100
AcDbEntity
  8
Doc_ Finishes
  6
Continuous
100
AcDbLine
 10
40.79539880015735
 20
6.4456038552321
 30
0.0
 11
40.18736329661684
 21
6.915448465774981
 31
0.0
  0
LINE
  5
B3
330
1F
100
AcDbEntity
  8
Doc_ Finishes
  6
Continuous
100
AcDbLine
 10
41.56925452399685
 20
6.169226494885916
 30
0.0
 11
40.79539880015735
 21
6.4456038552321
 31
0.0
  0
LINE
  5
B4
330
1F
100
AcDbEntity
  8
Doc_ Finishes
  6
Continuous
100
AcDbLine
 10
42.23256638473643
 20
6.086316384736428
 30
0.0
 11
41.56925452399685
 21
6.169226494885916
 31
0.0
  0
LINE
  5
B5
330
1F
100
AcDbEntity
  8
Doc_ Finishes
  6
Continuous
100
AcDbLine
 10
42.48130556648308
 20
6.307417387883556
 30
0.0
 11
42.23256638473643
 21
6.086316384736428
 31
0.0
  0
LINE
  5
B6
330
1F
100
AcDbEntity
  8
Doc_ Finishes
  6
Continuous
100
AcDbLine
 10
42.14965184893784
 20
6.611432926829268
 30
0.0
 11
42.48130556648308
 21
6.307417387883556
 31
0.0
  0
LINE
  5
B7
330
1F
100
AcDbEntity
  8
Doc_ Finishes
  6
Continuous
100
AcDbLine
 10
41.48634441384736
 20
6.998363001573564
 30
0.0
 11
42.14965184893784
 21
6.611432926829268
 31
0.0
  0
LINE
  5
B8
330
1F
100
AcDbEntity
  8
Doc_ Finishes
  6
Continuous
100
AcDbLine
 10
40.76776062155783
 20
7.357654897718332
 30
0.0
 11
41.48634441384736
 21
6.998363001573564
 31
0.0
  0
LINE
  5
B9
330
1F
100
AcDbEntity
  8
Doc_ Finishes
  6
Continuous
100
AcDbLine
 10
40.18736329661684
 20
8.048600511408338
 30
0.0
 11
40.76776062155783
 21
7.357654897718332
 31
0.0
  0
LINE
  5
BA
330
1F
100
AcDbEntity
  8
Doc_ Finishes
  6
Continuous
100
AcDbLine
 10
38.99893931943352
 20
8.822460660896931
 30
0.0
 11
40.18736329661684
 21
8.048600511408338
 31
0.0
  0
LINE
  5
BB
330
1F
100
AcDbEntity
  8
Doc_ Finishes
  6
Continuous
100
AcDbLine
 10
38.47381835169158
 20
9.319939024390242
 30
0.0
 11
38.99893931943352
 21
8.822460660896931
 31
0.0
  0
LINE
  5
BC
330
1F
100
AcDbEntity
  8
Doc_ Finishes
  6
Continuous
100
AcDbLine
 10
38.22507916994492
 20
9.734507277734066
 30
0.0
 11
38.47381835169158
 21
9.319939024390242
 31
0.0
  0
LINE
  5
BD
330
1F
100
AcDbEntity
  8
Doc_ Finishes
  6
Continuous
100
AcDbLine
 10
37.17484166011014
 20
10.31490460267506
 30
0.0
 11
38.22507916994492
 21
9.734507277734066
 31
0.0
  0
LINE
  5
BE
330
1F
100
AcDbEntity
  8
Doc_ Finishes
  6
Continuous
100
AcDbLine
 10
36.7326352281668
 20
10.78474478756884
 30
0.0
 11
37.17484166011014
 21
10.31490460267506
 31
0.0
  0
LINE
  5
BF
330
1F
100
AcDbEntity
  8
Doc_ Finishes
  6
Continuous
100
AcDbLine
 10
36.23515243902439
 20
11.17167486231314
 30
0.0
 11
36.7326352281668
 21
10.78474478756884
 31
0.0
  0
LINE
  5
C0
330
1F
100
AcDbEntity
  8
Doc_ Finishes
  6
Continuous
100
AcDbLine
 10
35.48893046813532
 20
11.61388129425649
 30
0.0
 11
36.23515243902439
 21
11.17167486231314
 31
0.0
  0
LINE
  5
C1
330
1F
100
AcDbEntity
  8
Doc_ Finishes
  6
Continuous
100
AcDbLine
 10
34.85326121164437
 20
12.16663601494886
 30
0.0
 11
35.48893046813532
 21
11.61388129425649
 31
0.0
  0
LINE
  5
C2
330
1F
100
AcDbEntity
  8
Doc_ Finishes
  6
Continuous
100
AcDbLine
 10
34.35578284815106
 20
12.58120426829268
 30
0.0
 11
34.85326121164437
 21
12.16663601494886
 31
0.0
  0
LINE
  5
C3
330
1F
100
AcDbEntity
  8
Doc_ Finishes
  6
Continuous
100
AcDbLine
 10
33.69247098741149
 20
12.99577252163651
 30
0.0
 11
34.35578284815106
 21
12.58120426829268
 31
0.0
  0
LINE
  5
C4
330
1F
100
AcDbEntity
  8
Doc_ Finishes
  6
Continuous
100
AcDbLine
 10
33.2226308025177
 20
13.32742623918175
 30
0.0
 11
33.69247098741149
 21
12.99577252163651
 31
0.0
  0
LINE
  5
C5
330
1F
100
AcDbEntity
  8
Doc_ Finishes
  6
Continuous
100
AcDbLine
 10
32.7251480133753
 20
13.5761654209284
 30
0.0
 11
33.2226308025177
 21
13.32742623918175
 31
0.0
  0
LINE
  5
C6
330
1F
100
AcDbEntity
  8
Doc_ Finishes
  6
Continuous
100
AcDbLine
 10
31.93747098741148
 20
14.0644340086546
 30
0.0
 11
32.7251480133753
 21
13.5761654209284
 31
0.0
  0
LINE
  5
C7
330
1F
100
AcDbEntity
  8
Doc_ Finishes
  6
Continuous
100
AcDbLine
 10
31.43077842250197
 20
14.38687795043273
 30
0.0
 11
31.93747098741148
 21
14.0644340086546
 31
0.0
  0
LINE
  5
C8
330
1F
100
AcDbEntity
  8
Doc_ Finishes
  6
Continuous
100
AcDbLine
 10
30.92408143194335
 20
14.70931746656176
 30
0.0
 11
31.43077842250197
 21
14.38687795043273
 31
0.0
  0
LINE
  5
C9
330
1F
100
AcDbEntity
  8
Doc_ Finishes
  6
Continuous
100
AcDbLine
 10
30.62467299370574
 20
15.10085464201416
 30
0.0
 11
30.92408143194335
 21
14.70931746656176
 31
0.0
  0
LINE
  5
CA
330
1F
100
AcDbEntity
  8
Doc_ Finishes
  6
Continuous
100
AcDbLine
 10
29.95675845790716
 20
15.67664486624705
 30
0.0
 11
30.62467299370574
 21
15.10085464201416
 31
0.0
  0
LINE
  5
CB
330
1F
100
AcDbEntity
  8
Doc_ Finishes
  6
Continuous
100
AcDbLine
 10
29.47309697088906
 20
15.95302222659323
 30
0.0
 11
29.95675845790716
 21
15.67664486624705
 31
0.0
  0
LINE
  5
CC
330
1F
100
AcDbEntity
  8
Doc_ Finishes
  6
Continuous
100
AcDbLine
 10
28.8282135129819
 20
16.36759047993706
 30
0.0
 11
29.47309697088906
 21
15.95302222659323
 31
0.0
  0
LINE
  5
CD
330
1F
100
AcDbEntity
  8
Doc_ Finishes
  6
Continuous
100
AcDbLine
 10
28.50577399685287
 20
16.22939958693942
 30
0.0
 11
28.8282135129819
 21
16.36759047993706
 31
0.0
  0
LINE
  5
CE
330
1F
100
AcDbEntity
  8
Doc_ Finishes
  6
Continuous
100
AcDbLine
 10
28.06817466561763
 20
15.74573809992132
 30
0.0
 11
28.50577399685287
 21
16.22939958693942
 31
0.0
  0
LINE
  5
CF
330
1F
100
AcDbEntity
  8
Doc_ Finishes
  6
Continuous
 62
   254
370
    18
100
AcDbLine
 10
97.43333792289535
 20
5.093360051140834
 30
0.0
 11
97.43333792289535
 21
20.69901750590086
 31
0.0
  0
LINE
  5
D0
330
1F
100
AcDbEntity
  8
Doc_ Finishes
  6
Continuous
 62
   254
370
    18
100
AcDbLine
 10
7.000000491738787
 20
20.69901750590086
 30
0.0
 11
290.2406840086546
 21
20.69901750590086
 31
0.0
  0
LINE
  5
D1
330
1F
100
AcDbEntity
  8
Doc_ Finishes
  6
Continuous
 62
   254
370
    18
100
AcDbLine
 10
290.2406840086546
 20
20.69901750590086
 30
0.0
 11
290.2406840086546
 21
5.000000983477577
 31
0.0
  0
LINE
  5
D2
330
1F
100
AcDbEntity
  8
Doc_ Finishes
  6
Continuous
 62
   254
370
    18
100
AcDbLine
 10
290.2406840086546
 20
5.000000983477577
 30
0.0
 11
7.000000491738787
 21
5.000000983477577
 31
0.0
  0
LINE
  5
D3
330
1F
100
AcDbEntity
  8
Doc_ Finishes
  6
Continuous
 62
   254
370
    18
100
AcDbLine
 10
7.000000491738787
 20
20.69901750590086
 30
0.0
 11
7.000000491738787
 21
5.000000983477577
 31
0.0
  0
LINE
  5
D4
330
1F
100
AcDbEntity
  8
Doc_ Finishes
  6
Continuous
 62
   254
370
    18
100
AcDbLine
 10
190.2919443351691
 20
5.093360051140834
 30
0.0
 11
190.2919443351691
 21
20.69901750590086
 31
0.0
  0
LINE
  5
D5
330
1F
100
AcDbEntity
  8
Doc_ Finishes
  6
Continuous
 62
   254
370
    18
100
AcDbLine
 10
190.2919443351691
 20
12.8961909913454
 30
0.0
 11
290.2406840086546
 21
12.8961909913454
 31
0.0
  0
MTEXT
  5
D7
330
1F
100
AcDbEntity
  8
0
  6
Continuous
100
AcDbMText
 10
210.3494767103412
 20
15.00230533707754
 30
0.0
 40
2.25
 41
0.0
 71
     7
 72
     1
  1
{R-TRSC-07}
  7
GENERATED_STYLE_1
 73
     1
 44
1.0
  0
MTEXT
  5
D8
330
1F
100
AcDbEntity
  8
0
  6
Continuous
100
AcDbMText
 10
210.3494767103412
 20
11.03300550383743
 30
0.0
 40
3.0
 41
0.0
 71
     1
 72
     1
  1
{BARGE DETAIL - SIDE}
  7
GENERATED_STYLE_1
 73
     1
 44
1.0
  0
MTEXT
  5
DA
330
1F
100
AcDbEntity
  8
Doc_ Floor
  6
Continuous
100
AcDbMText
 10
29.78353726544612
 20
13.33283672870609
 30
0.0
 40
5.603347280334726
 41
0.0
 71
     1
 72
     1
  1
{The Roofing Store}
  7
GENERATED_STYLE_2
 73
     1
 44
1.0
  0
MTEXT
  5
DC
102
{ACAD_XDICTIONARY
360
4D8
102
}
330
1F
100
AcDbEntity
  8
0
  6
Continuous
100
AcDbMText
 10
102.7389238446655
 20
6.378784417288157
 30
0.0
 40
1.5
 41
0.0
 71
     7
 72
     1
  1
{P: HEAD OFFICE              09 277 2717\P    ALBANY             09 972 0060\P    KATIKAIT            07 549 5190\P    WELLINGTON              04 974 5792\P    CHRISTCHURCH          03 348 6528}
  7
GENERATED_STYLE_1
 73
     1
 44
1.062946161486498
  0
MTEXT
  5
DD
330
1F
100
AcDbEntity
  8
0
  6
Continuous
100
AcDbMText
 10
149.4184566143587
 20
9.199084231526156
 30
0.0
 40
1.5
 41
0.0
 71
     7
 72
     1
  1
{WEB: www.theroofingstore.co.nz}
  7
GENERATED_STYLE_1
 73
     1
 44
1.0
  0
MTEXT
  5
DE
330
1F
100
AcDbEntity
  8
0
  6
Continuous
100
AcDbMText
 10
149.4184566143587
 20
6.620946023411263
 30
0.0
 40
1.5
 41
0.0
 71
     7
 72
     1
  1
{Copyright \U+00A9 The Roofing Store 2013}
  7
GENERATED_STYLE_1
 73
     1
 44
1.0
  0
MTEXT
  5
DF
330
1F
100
AcDbEntity
  8
0
  6
Continuous
100
AcDbMText
 10
273.9546684065315
 20
15.01597367092287
 30
0.0
 40
2.25
 41
0.0
 71
     7
 72
     1
  1
{1:5}
  7
GENERATED_STYLE_1
 73
     1
 44
1.0
  0
MTEXT
  5
E0
330
1F
100
AcDbEntity
  8
0
  6
Continuous
100
AcDbMText
 10
264.8396605309016
 20
15.51746459162148
 30
0.0
 40
1.5
 41
0.0
 71
     7
 72
     1
  1
{SCALE:}
  7
GENERATED_STYLE_1
 73
     1
 44
1.0
  0
MTEXT
  5
E1
330
1F
100
AcDbEntity
  8
0
  6
Continuous
100
AcDbMText
 10
191.5066235617487
 20
15.48695559872207
 30
0.0
 40
1.5
 41
0.0
 71
     7
 72
     1
  1
{DETAIL NUMBER:}
  7
GENERATED_STYLE_1
 73
     1
 44
1.0
  0
MTEXT
  5
E2
330
1F
100
AcDbEntity
  8
0
  6
Continuous
100
AcDbMText
 10
191.5066235617487
 20
9.005462392315325
 30
0.0
 40
1.5
 41
0.0
 71
     7
 72
     1
  1
{TITLE:}
  7
GENERATED_STYLE_1
 73
     1
 44
1.0
  0
INSERT
  5
4A6
102
{ACAD_XDICTIONARY
360
4A7
102
}
330
1F
100
AcDbEntity
  8
0
  6
Continuous
100
AcDbBlockReference
  2
Drawing_1_2
 10
156.5565397722182
 20
110.7696525037415
 30
0.0
  0
ENDSEC
  0
SECTION
  2
OBJECTS
  0
DICTIONARY
  5
C
330
0
100
AcDbDictionary
281
     1
  3
ACAD_GROUP
350
D
  3
ACAD_LAYOUT
350
1A
  3
ACAD_MATERIAL
350
3B
  3
ACAD_MLEADERSTYLE
350
4D3
  3
ACAD_MLINESTYLE
350
17
  3
ACAD_PLOTSETTINGS
350
19
  3
ACAD_PLOTSTYLENAME
350
E
  3
ACAD_SCALELIST
350
4AD
  3
ACAD_VISUALSTYLE
350
2A
  3
AcDbVariableDictionary
350
4D1
  3
WATERMARKS
350
4CF
  0
DICTIONARY
  5
4D8
330
DC
100
AcDbDictionary
280
     1
281
     1
  3
ACAD_MTEXT_RT
360
4D9
  0
DICTIONARY
  5
4A7
330
4A6
100
AcDbDictionary
280
     1
281
     1
  3
ACAD_FILTER
360
4A8
  0
DICTIONARY
  5
D
102
{ACAD_REACTORS
330
C
102
}
330
C
100
AcDbDictionary
281
     1
  0
DICTIONARY
  5
1A
102
{ACAD_REACTORS
330
C
102
}
330
C
100
AcDbDictionary
281
     1
  3
Layout1
350
1E
  3
Model
350
22
  0
DICTIONARY
  5
3B
102
{ACAD_REACTORS
330
C
102
}
330
C
100
AcDbDictionary
281
     1
  3
ByBlock
350
3D
  3
ByLayer
350
3C
  3
Global
350
3E
  0
DICTIONARY
  5
4D3
102
{ACAD_REACTORS
330
C
102
}
330
C
100
AcDbDictionary
281
     1
  0
DICTIONARY
  5
17
102
{ACAD_REACTORS
330
C
102
}
330
C
100
AcDbDictionary
281
     1
  3
Standard
350
18
  0
DICTIONARY
  5
19
102
{ACAD_REACTORS
330
C
102
}
330
C
100
AcDbDictionary
281
     1
  0
ACDBDICTIONARYWDFLT
  5
E
102
{ACAD_REACTORS
330
C
102
}
330
C
100
AcDbDictionary
281
     1
  3
Normal
350
F
100
AcDbDictionaryWithDefault
340
F
  0
DICTIONARY
  5
4AD
102
{ACAD_REACTORS
330
C
102
}
330
C
100
AcDbDictionary
281
     1
  3
A0
350
4AE
  3
A1
350
4AF
  3
A2
350
4B0
  3
A3
350
4B1
  3
A4
350
4B2
  3
A5
350
4B3
  3
A6
350
4B4
  3
A7
350
4B5
  3
A8
350
4B6
  3
A9
350
4B7
  3
B0
350
4B8
  3
B1
350
4B9
  3
B2
350
4BA
  3
B3
350
4BB
  3
B4
350
4BC
  3
B5
350
4BD
  3
B6
350
4BE
  3
B7
350
4BF
  3
B8
350
4C0
  3
B9
350
4C1
  3
C0
350
4C2
  3
C1
350
4C3
  3
C2
350
4C4
  3
C3
350
4C5
  3
C4
350
4C6
  3
C5
350
4C7
  3
C6
350
4C8
  3
C7
350
4C9
  3
C8
350
4CA
  3
C9
350
4CB
  3
D0
350
4CC
  3
D1
350
4CD
  3
D2
350
4CE
  0
DICTIONARY
  5
2A
102
{ACAD_REACTORS
330
C
102
}
330
C
100
AcDbDictionary
281
     1
  3
2dWireframe
350
2F
  3
3D Hidden
350
31
  3
3dWireframe
350
30
  3
Basic
350
32
  3
Brighten
350
36
  3
ColorChange
350
3A
  3
Conceptual
350
34
  3
Dim
350
35
  3
Facepattern
350
39
  3
Flat
350
2B
  3
FlatWithEdges
350
2C
  3
Gouraud
350
2D
  3
GouraudWithEdges
350
2E
  3
Linepattern
350
38
  3
Realistic
350
33
  3
Thicken
350
37
  0
DICTIONARY
  5
4D1
102
{ACAD_REACTORS
330
C
102
}
330
C
100
AcDbDictionary
281
     1
  3
CANNOSCALE
350
4D5
  3
DIMASSOC
350
4D6
  3
HIDETEXT
350
4D7
  3
XCLIPFRAME
350
4D4
  0
DICTIONARY
  5
4CF
102
{ACAD_REACTORS
330
C
102
}
330
C
100
AcDbDictionary
281
     1
  3
AC_WATERMARK
350
4D0
  0
XRECORD
  5
4D9
102
{ACAD_REACTORS
330
4D8
102
}
330
4D8
100
AcDbXrecord
280
     1
 40
956118.0
  1
{P: HEAD OFFICE ^I^I09 277 2717\P    ALBANY ^I^I09 972 0060\P    KATIKAIT^I^I07 549 5190\P    WELLINGTON^I^I04 974 5792\P    CHRISTCHURCH^I^I03 348 6528}
  0
DICTIONARY
  5
4A8
102
{ACAD_REACTORS
330
4A7
102
}
330
4A7
100
AcDbDictionary
280
     1
281
     1
  3
SPATIAL
360
4A9
  0
LAYOUT
  5
1E
102
{ACAD_REACTORS
330
1A
102
}
330
1A
100
AcDbPlotSettings
  1

  2
none_device
  4

  6

 40
0.0
 41
0.0
 42
0.0
 43
0.0
 44
0.0
 45
0.0
 46
0.0
 47
0.0
 48
0.0
 49
0.0
140
0.0
141
0.0
142
1.0
143
1.0
 70
   688
 72
     0
 73
     0
 74
     5
  7

 75
    16
147
1.0
148
0.0
149
0.0
100
AcDbLayout
  1
Layout1
 70
     1
 71
     1
 10
0.0
 20
0.0
 11
12.0
 21
9.0
 12
0.0
 22
0.0
 32
0.0
 14
1.000000000000000E+20
 24
1.000000000000000E+20
 34
1.000000000000000E+20
 15
-1.000000000000000E+20
 25
-1.000000000000000E+20
 35
-1.000000000000000E+20
146
0.0
 13
0.0
 23
0.0
 33
0.0
 16
1.0
 26
0.0
 36
0.0
 17
0.0
 27
1.0
 37
0.0
 76
     0
330
1B
  0
LAYOUT
  5
22
102
{ACAD_REACTORS
330
1A
102
}
330
1A
100
AcDbPlotSettings
  1

  2
none_device
  4

  6

 40
0.0
 41
0.0
 42
0.0
 43
0.0
 44
0.0
 45
0.0
 46
0.0
 47
0.0
 48
0.0
 49
0.0
140
0.0
141
0.0
142
1.0
143
1.0
 70
  1712
 72
     0
 73
     0
 74
     0
  7

 75
     0
147
1.0
148
0.0
149
0.0
100
AcDbLayout
  1
Model
 70
     1
 71
     0
 10
0.0
 20
0.0
 11
12.0
 21
9.0
 12
0.0
 22
0.0
 32
0.0
 14
1.000000000000000E+20
 24
1.000000000000000E+20
 34
1.000000000000000E+20
 15
-1.000000000000000E+20
 25
-1.000000000000000E+20
 35
-1.000000000000000E+20
146
0.0
 13
0.0
 23
0.0
 33
0.0
 16
1.0
 26
0.0
 36
0.0
 17
0.0
 27
1.0
 37
0.0
 76
     0
330
1F
331
29
  0
MATERIAL
  5
3D
102
{ACAD_REACTORS
330
3B
102
}
102
{ACAD_XDICTIONARY
360
4FC
102
}
330
3B
100
AcDbMaterial
  1
ByBlock
  0
MATERIAL
  5
3C
102
{ACAD_REACTORS
330
3B
102
}
102
{ACAD_XDICTIONARY
360
4FA
102
}
330
3B
100
AcDbMaterial
  1
ByLayer
  0
MATERIAL
  5
3E
102
{ACAD_REACTORS
330
3B
102
}
102
{ACAD_XDICTIONARY
360
4FE
102
}
330
3B
100
AcDbMaterial
  1
Global
  0
MLINESTYLE
  5
18
102
{ACAD_REACTORS
330
17
102
}
330
17
100
AcDbMlineStyle
  2
Standard
 70
     0
  3

 62
   256
 51
90.0
 52
90.0
 71
     2
 49
0.5
 62
   256
  6
BYLAYER
 49
-0.5
 62
   256
  6
BYLAYER
  0
ACDBPLACEHOLDER
  5
F
102
{ACAD_REACTORS
330
E
102
}
330
E
  0
SCALE
  5
4AE
102
{ACAD_REACTORS
330
4AD
102
}
330
4AD
100
AcDbScale
 70
     0
300
1:1
140
1.0
141
1.0
290
     1
  0
SCALE
  5
4AF
102
{ACAD_REACTORS
330
4AD
102
}
330
4AD
100
AcDbScale
 70
     0
300
1:2
140
1.0
141
2.0
290
     0
  0
SCALE
  5
4B0
102
{ACAD_REACTORS
330
4AD
102
}
330
4AD
100
AcDbScale
 70
     0
300
1:4
140
1.0
141
4.0
290
     0
  0
SCALE
  5
4B1
102
{ACAD_REACTORS
330
4AD
102
}
330
4AD
100
AcDbScale
 70
     0
300
1:5
140
1.0
141
5.0
290
     0
  0
SCALE
  5
4B2
102
{ACAD_REACTORS
330
4AD
102
}
330
4AD
100
AcDbScale
 70
     0
300
1:8
140
1.0
141
8.0
290
     0
  0
SCALE
  5
4B3
102
{ACAD_REACTORS
330
4AD
102
}
330
4AD
100
AcDbScale
 70
     0
300
1:10
140
1.0
141
10.0
290
     0
  0
SCALE
  5
4B4
102
{ACAD_REACTORS
330
4AD
102
}
330
4AD
100
AcDbScale
 70
     0
300
1:16
140
1.0
141
16.0
290
     0
  0
SCALE
  5
4B5
102
{ACAD_REACTORS
330
4AD
102
}
330
4AD
100
AcDbScale
 70
     0
300
1:20
140
1.0
141
20.0
290
     0
  0
SCALE
  5
4B6
102
{ACAD_REACTORS
330
4AD
102
}
330
4AD
100
AcDbScale
 70
     0
300
1:30
140
1.0
141
30.0
290
     0
  0
SCALE
  5
4B7
102
{ACAD_REACTORS
330
4AD
102
}
330
4AD
100
AcDbScale
 70
     0
300
1:40
140
1.0
141
40.0
290
     0
  0
SCALE
  5
4B8
102
{ACAD_REACTORS
330
4AD
102
}
330
4AD
100
AcDbScale
 70
     0
300
1:50
140
1.0
141
50.0
290
     0
  0
SCALE
  5
4B9
102
{ACAD_REACTORS
330
4AD
102
}
330
4AD
100
AcDbScale
 70
     0
300
1:100
140
1.0
141
100.0
290
     0
  0
SCALE
  5
4BA
102
{ACAD_REACTORS
330
4AD
102
}
330
4AD
100
AcDbScale
 70
     0
300
2:1
140
2.0
141
1.0
290
     0
  0
SCALE
  5
4BB
102
{ACAD_REACTORS
330
4AD
102
}
330
4AD
100
AcDbScale
 70
     0
300
4:1
140
4.0
141
1.0
290
     0
  0
SCALE
  5
4BC
102
{ACAD_REACTORS
330
4AD
102
}
330
4AD
100
AcDbScale
 70
     0
300
8:1
140
8.0
141
1.0
290
     0
  0
SCALE
  5
4BD
102
{ACAD_REACTORS
330
4AD
102
}
330
4AD
100
AcDbScale
 70
     0
300
10:1
140
10.0
141
1.0
290
     0
  0
SCALE
  5
4BE
102
{ACAD_REACTORS
330
4AD
102
}
330
4AD
100
AcDbScale
 70
     0
300
100:1
140
100.0
141
1.0
290
     0
  0
SCALE
  5
4BF
102
{ACAD_REACTORS
330
4AD
102
}
330
4AD
100
AcDbScale
 70
     0
300
1/128" = 1'-0"
140
0.0078125
141
12.0
290
     0
  0
SCALE
  5
4C0
102
{ACAD_REACTORS
330
4AD
102
}
330
4AD
100
AcDbScale
 70
     0
300
1/64" = 1'-0"
140
0.015625
141
12.0
290
     0
  0
SCALE
  5
4C1
102
{ACAD_REACTORS
330
4AD
102
}
330
4AD
100
AcDbScale
 70
     0
300
1/32" = 1'-0"
140
0.03125
141
12.0
290
     0
  0
SCALE
  5
4C2
102
{ACAD_REACTORS
330
4AD
102
}
330
4AD
100
AcDbScale
 70
     0
300
1/16" = 1'-0"
140
0.0625
141
12.0
290
     0
  0
SCALE
  5
4C3
102
{ACAD_REACTORS
330
4AD
102
}
330
4AD
100
AcDbScale
 70
     0
300
3/32" = 1'-0"
140
0.09375
141
12.0
290
     0
  0
SCALE
  5
4C4
102
{ACAD_REACTORS
330
4AD
102
}
330
4AD
100
AcDbScale
 70
     0
300
1/8" = 1'-0"
140
0.125
141
12.0
290
     0
  0
SCALE
  5
4C5
102
{ACAD_REACTORS
330
4AD
102
}
330
4AD
100
AcDbScale
 70
     0
300
3/16" = 1'-0"
140
0.1875
141
12.0
290
     0
  0
SCALE
  5
4C6
102
{ACAD_REACTORS
330
4AD
102
}
330
4AD
100
AcDbScale
 70
     0
300
1/4" = 1'-0"
140
0.25
141
12.0
290
     0
  0
SCALE
  5
4C7
102
{ACAD_REACTORS
330
4AD
102
}
330
4AD
100
AcDbScale
 70
     0
300
3/8" = 1'-0"
140
0.375
141
12.0
290
     0
  0
SCALE
  5
4C8
102
{ACAD_REACTORS
330
4AD
102
}
330
4AD
100
AcDbScale
 70
     0
300
1/2" = 1'-0"
140
0.5
141
12.0
290
     0
  0
SCALE
  5
4C9
102
{ACAD_REACTORS
330
4AD
102
}
330
4AD
100
AcDbScale
 70
     0
300
3/4" = 1'-0"
140
0.75
141
12.0
290
     0
  0
SCALE
  5
4CA
102
{ACAD_REACTORS
330
4AD
102
}
330
4AD
100
AcDbScale
 70
     0
300
1" = 1'-0"
140
1.0
141
12.0
290
     0
  0
SCALE
  5
4CB
102
{ACAD_REACTORS
330
4AD
102
}
330
4AD
100
AcDbScale
 70
     0
300
1-1/2" = 1'-0"
140
1.5
141
12.0
290
     0
  0
SCALE
  5
4CC
102
{ACAD_REACTORS
330
4AD
102
}
330
4AD
100
AcDbScale
 70
     0
300
3" = 1'-0"
140
3.0
141
12.0
290
     0
  0
SCALE
  5
4CD
102
{ACAD_REACTORS
330
4AD
102
}
330
4AD
100
AcDbScale
 70
     0
300
6" = 1'-0"
140
6.0
141
12.0
290
     0
  0
SCALE
  5
4CE
102
{ACAD_REACTORS
330
4AD
102
}
330
4AD
100
AcDbScale
 70
     0
300
1'-0" = 1'-0"
140
12.0
141
12.0
290
     0
  0
VISUALSTYLE
  5
2F
102
{ACAD_REACTORS
330
2A
102
}
102
{ACAD_XDICTIONARY
360
4E2
102
}
330
2A
100
AcDbVisualStyle
  2
2dWireframe
 70
     4
 71
     0
 72
     2
 73
     0
 90
        0
 40
-0.6
 41
-30.0
 62
     5
 63
     7
 74
     1
 91
        4
 64
     7
 65
   257
 75
     1
175
     1
 42
1.0
 92
        0
 66
   257
 43
1.0
 76
     1
 77
     6
 78
     2
 67
     7
 79
     5
170
     0
171
     0
290
     0
174
     0
 93
        1
 44
0.0
173
     0
291
     0
 45
0.0
1001
ACAD
1000
AcDbSavedByObjectVersion
1070
     0
  0
VISUALSTYLE
  5
31
102
{ACAD_REACTORS
330
2A
102
}
102
{ACAD_XDICTIONARY
360
4E6
102
}
330
2A
100
AcDbVisualStyle
  2
3D Hidden
 70
     6
 71
     1
 72
     2
 73
     2
 90
        0
 40
-0.6
 41
-30.0
 62
     5
 63
     7
 74
     2
 91
        2
 64
     7
 65
   257
 75
     2
175
     1
 42
40.0
 92
        0
 66
   257
 43
1.0
 76
     1
 77
     6
 78
     2
 67
     7
 79
     3
170
     0
171
     0
290
     0
174
     0
 93
        1
 44
0.0
173
     0
291
     0
 45
0.0
1001
ACAD
1000
AcDbSavedByObjectVersion
1070
     0
  0
VISUALSTYLE
  5
30
102
{ACAD_REACTORS
330
2A
102
}
102
{ACAD_XDICTIONARY
360
4E4
102
}
330
2A
100
AcDbVisualStyle
  2
3dWireframe
 70
     5
 71
     0
 72
     2
 73
     0
 90
        0
 40
-0.6
 41
-30.0
 62
     5
 63
     7
 74
     1
 91
        4
 64
     7
 65
   257
 75
     1
175
     1
 42
1.0
 92
        0
 66
   257
 43
1.0
 76
     1
 77
     6
 78
     2
 67
     7
 79
     5
170
     0
171
     0
290
     0
174
     0
 93
        1
 44
0.0
173
     0
291
     0
 45
0.0
1001
ACAD
1000
AcDbSavedByObjectVersion
1070
     0
  0
VISUALSTYLE
  5
32
102
{ACAD_REACTORS
330
2A
102
}
102
{ACAD_XDICTIONARY
360
4E8
102
}
330
2A
100
AcDbVisualStyle
  2
Basic
 70
     7
 71
     1
 72
     0
 73
     1
 90
        0
 40
-0.6
 41
-30.0
 62
     5
 63
     7
 74
     0
 91
        4
 64
     7
 65
   257
 75
     1
175
     1
 42
1.0
 92
        8
 66
     7
 43
1.0
 76
     1
 77
     6
 78
     2
 67
     7
 79
     5
170
     0
171
     0
290
     0
174
     0
 93
        1
 44
0.0
173
     0
291
     1
 45
0.0
1001
ACAD
1000
AcDbSavedByObjectVersion
1070
     0
  0
VISUALSTYLE
  5
36
102
{ACAD_REACTORS
330
2A
102
}
102
{ACAD_XDICTIONARY
360
4F0
102
}
330
2A
100
AcDbVisualStyle
  2
Brighten
 70
    12
 71
     2
 72
     2
 73
     0
 90
        0
 40
-0.6
 41
-30.0
 62
     5
 63
     7
 74
     1
 91
        4
 64
     7
 65
   257
 75
     1
175
     1
 42
1.0
 92
        8
 66
     7
 43
1.0
 76
     1
 77
     6
 78
     2
 67
     7
 79
     5
170
     0
171
     0
290
     0
174
     0
 93
        1
 44
50.0
173
     0
291
     1
 45
0.0
1001
ACAD
1000
AcDbSavedByObjectVersion
1070
     0
  0
VISUALSTYLE
  5
3A
102
{ACAD_REACTORS
330
2A
102
}
102
{ACAD_XDICTIONARY
360
4F8
102
}
330
2A
100
AcDbVisualStyle
  2
ColorChange
 70
    16
 71
     2
 72
     2
 73
     3
 90
        0
 40
-0.6
 41
-30.0
 62
     5
 63
     8
 74
     1
 91
        4
 64
     7
 65
   257
 75
     1
175
     1
 42
1.0
 92
        8
 66
     8
 43
1.0
 76
     1
 77
     6
 78
     2
 67
     7
 79
     5
170
     0
171
     0
290
     0
174
     0
 93
        1
 44
0.0
173
     0
291
     1
 45
0.0
1001
ACAD
1000
AcDbSavedByObjectVersion
1070
     0
  0
VISUALSTYLE
  5
34
102
{ACAD_REACTORS
330
2A
102
}
102
{ACAD_XDICTIONARY
360
4EC
102
}
330
2A
100
AcDbVisualStyle
  2
Conceptual
 70
     9
 71
     3
 72
     2
 73
     0
 90
        0
 40
-0.6
 41
-30.0
 62
     5
 63
     7
 74
     2
 91
        2
 64
     7
 65
   257
 75
     1
175
     1
 42
40.0
 92
        8
 66
     7
 43
1.0
 76
     1
 77
     6
 78
     2
 67
     7
 79
     3
170
     0
171
     0
290
     0
174
     0
 93
        1
 44
0.0
173
     0
291
     0
 45
0.0
1001
ACAD
1000
AcDbSavedByObjectVersion
1070
     0
  0
VISUALSTYLE
  5
35
102
{ACAD_REACTORS
330
2A
102
}
102
{ACAD_XDICTIONARY
360
4EE
102
}
330
2A
100
AcDbVisualStyle
  2
Dim
 70
    11
 71
     2
 72
     2
 73
     0
 90
        0
 40
-0.6
 41
-30.0
 62
     5
 63
     7
 74
     1
 91
        4
 64
     7
 65
   257
 75
     1
175
     1
 42
1.0
 92
        8
 66
     7
 43
1.0
 76
     1
 77
     6
 78
     2
 67
     7
 79
     5
170
     0
171
     0
290
     0
174
     0
 93
        1
 44
-50.0
173
     0
291
     1
 45
0.0
1001
ACAD
1000
AcDbSavedByObjectVersion
1070
     0
  0
VISUALSTYLE
  5
39
102
{ACAD_REACTORS
330
2A
102
}
102
{ACAD_XDICTIONARY
360
4F6
102
}
330
2A
100
AcDbVisualStyle
  2
Facepattern
 70
    15
 71
     2
 72
     2
 73
     0
 90
        0
 40
-0.6
 41
-30.0
 62
     5
 63
     7
 74
     1
 91
        4
 64
     7
 65
   257
 75
     1
175
     1
 42
1.0
 92
        8
 66
     7
 43
1.0
 76
     1
 77
     6
 78
     2
 67
     7
 79
     5
170
     0
171
     0
290
     0
174
     0
 93
        1
 44
0.0
173
     0
291
     1
 45
0.0
1001
ACAD
1000
AcDbSavedByObjectVersion
1070
     0
  0
VISUALSTYLE
  5
2B
102
{ACAD_REACTORS
330
2A
102
}
102
{ACAD_XDICTIONARY
360
4DA
102
}
330
2A
100
AcDbVisualStyle
  2
Flat
 70
     0
 71
     2
 72
     1
 73
     1
 90
        2
 40
-0.6
 41
30.0
 62
     5
 63
     7
 74
     0
 91
        4
 64
     7
 65
   257
 75
     1
175
     1
 42
1.0
 92
        8
 66
     7
 43
1.0
 76
     1
 77
     6
 78
     2
 67
     7
 79
     5
170
     0
171
     0
290
     0
174
     0
 93
       13
 44
0.0
173
     0
291
     1
 45
0.0
1001
ACAD
1000
AcDbSavedByObjectVersion
1070
     0
  0
VISUALSTYLE
  5
2C
102
{ACAD_REACTORS
330
2A
102
}
102
{ACAD_XDICTIONARY
360
4DC
102
}
330
2A
100
AcDbVisualStyle
  2
FlatWithEdges
 70
     1
 71
     2
 72
     1
 73
     1
 90
        2
 40
-0.6
 41
30.0
 62
     5
 63
     7
 74
     1
 91
        4
 64
     7
 65
   257
 75
     1
175
     1
 42
1.0
 92
        0
 66
   257
 43
1.0
 76
     1
 77
     6
 78
     2
 67
     7
 79
     5
170
     0
171
     0
290
     0
174
     0
 93
       13
 44
0.0
173
     0
291
     1
 45
0.0
1001
ACAD
1000
AcDbSavedByObjectVersion
1070
     0
  0
VISUALSTYLE
  5
2D
102
{ACAD_REACTORS
330
2A
102
}
102
{ACAD_XDICTIONARY
360
4DE
102
}
330
2A
100
AcDbVisualStyle
  2
Gouraud
 70
     2
 71
     2
 72
     2
 73
     1
 90
        2
 40
-0.6
 41
30.0
 62
     5
 63
     7
 74
     0
 91
        4
 64
     7
 65
   257
 75
     1
175
     1
 42
1.0
 92
        0
 66
     7
 43
1.0
 76
     1
 77
     6
 78
     2
 67
     7
 79
     5
170
     0
171
     0
290
     0
174
     0
 93
       13
 44
0.0
173
     0
291
     1
 45
0.0
1001
ACAD
1000
AcDbSavedByObjectVersion
1070
     0
  0
VISUALSTYLE
  5
2E
102
{ACAD_REACTORS
330
2A
102
}
102
{ACAD_XDICTIONARY
360
4E0
102
}
330
2A
100
AcDbVisualStyle
  2
GouraudWithEdges
 70
     3
 71
     2
 72
     2
 73
     1
 90
        2
 40
-0.6
 41
30.0
 62
     5
 63
     7
 74
     1
 91
        4
 64
     7
 65
   257
 75
     1
175
     1
 42
1.0
 92
        0
 66
   257
 43
1.0
 76
     1
 77
     6
 78
     2
 67
     7
 79
     5
170
     0
171
     0
290
     0
174
     0
 93
       13
 44
0.0
173
     0
291
     1
 45
0.0
1001
ACAD
1000
AcDbSavedByObjectVersion
1070
     0
  0
VISUALSTYLE
  5
38
102
{ACAD_REACTORS
330
2A
102
}
102
{ACAD_XDICTIONARY
360
4F4
102
}
330
2A
100
AcDbVisualStyle
  2
Linepattern
 70
    14
 71
     2
 72
     2
 73
     0
 90
        0
 40
-0.6
 41
-30.0
 62
     5
 63
     7
 74
     1
 91
        4
 64
     7
 65
   257
 75
     7
175
     7
 42
1.0
 92
        8
 66
     7
 43
1.0
 76
     1
 77
     6
 78
     2
 67
     7
 79
     5
170
     0
171
     0
290
     0
174
     0
 93
        1
 44
0.0
173
     0
291
     1
 45
0.0
1001
ACAD
1000
AcDbSavedByObjectVersion
1070
     0
  0
VISUALSTYLE
  5
33
102
{ACAD_REACTORS
330
2A
102
}
102
{ACAD_XDICTIONARY
360
4EA
102
}
330
2A
100
AcDbVisualStyle
  2
Realistic
 70
     8
 71
     2
 72
     2
 73
     0
 90
        0
 40
-0.6
 41
-30.0
 62
     5
 63
     7
 74
     1
 91
        0
 64
     7
 65
   257
 75
     1
175
     1
 42
1.0
 92
        8
 66
     8
 43
1.0
 76
     1
 77
     6
 78
     2
 67
     7
 79
     5
170
     0
171
     0
290
     0
174
     0
 93
       13
 44
0.0
173
     0
291
     0
 45
0.0
1001
ACAD
1000
AcDbSavedByObjectVersion
1070
     0
  0
VISUALSTYLE
  5
37
102
{ACAD_REACTORS
330
2A
102
}
102
{ACAD_XDICTIONARY
360
4F2
102
}
330
2A
100
AcDbVisualStyle
  2
Thicken
 70
    13
 71
     2
 72
     2
 73
     0
 90
        0
 40
-0.6
 41
-30.0
 62
     5
 63
     7
 74
     1
 91
        4
 64
     7
 65
   257
 75
     1
175
     1
 42
1.0
 92
       12
 66
     7
 43
1.0
 76
     1
 77
     6
 78
     2
 67
     7
 79
     5
170
     0
171
     0
290
     0
174
     0
 93
        1
 44
0.0
173
     0
291
     1
 45
0.0
1001
ACAD
1000
AcDbSavedByObjectVersion
1070
     0
  0
DICTIONARYVAR
  5
4D5
102
{ACAD_REACTORS
330
4D1
102
}
330
4D1
100
DictionaryVariables
280
     0
  1
1:1
  0
DICTIONARYVAR
  5
4D6
102
{ACAD_REACTORS
330
4D1
102
}
330
4D1
100
DictionaryVariables
280
     0
  1
2
  0
DICTIONARYVAR
  5
4D7
102
{ACAD_REACTORS
330
4D1
102
}
330
4D1
100
DictionaryVariables
280
     0
  1
1
  0
DICTIONARYVAR
  5
4D4
102
{ACAD_REACTORS
330
4D1
102
}
330
4D1
100
DictionaryVariables
280
     0
  1
0
  0
XRECORD
  5
4D0
102
{ACAD_REACTORS
330
4CF
102
}
330
4CF
100
AcDbXrecord
280
     1
1000
This DWG file was created in ArchiCAD(TM)®
  0
SPATIAL_FILTER
  5
4A9
102
{ACAD_REACTORS
330
4A8
102
}
330
4A8
100
AcDbFilter
100
AcDbSpatialFilter
 70
     4
 10
45.06712289814629
 20
40.59272791132295
 10
268.0459566462901
 20
40.59272791132295
 10
268.0459566462901
 20
180.9465770961602
 10
45.06712289814629
 20
180.9465770961602
210
0.0
220
0.0
230
1.0
 11
0.0
 21
0.0
 31
0.0
 71
     1
 72
     0
 73
     0
 40
1.0
 40
0.0
 40
0.0
 40
0.0
 40
0.0
 40
1.0
 40
0.0
 40
0.0
 40
0.0
 40
0.0
 40
1.0
 40
0.0
 40
1.0
 40
0.0
 40
0.0
 40
0.0
 40
0.0
 40
1.0
 40
0.0
 40
0.0
 40
0.0
 40
0.0
 40
1.0
 40
0.0
  0
DICTIONARY
  5
4FC
330
3D
100
AcDbDictionary
280
     1
281
     1
  3
ACAD_XREC_ROUNDTRIP
360
4FD
  0
DICTIONARY
  5
4FA
330
3C
100
AcDbDictionary
280
     1
281
     1
  3
ACAD_XREC_ROUNDTRIP
360
4FB
  0
DICTIONARY
  5
4FE
330
3E
100
AcDbDictionary
280
     1
281
     1
  3
ACAD_XREC_ROUNDTRIP
360
4FF
  0
DICTIONARY
  5
4E2
330
2F
100
AcDbDictionary
280
     1
281
     1
  3
ACAD_XREC_ROUNDTRIP
360
4E3
  0
DICTIONARY
  5
4E6
330
31
100
AcDbDictionary
280
     1
281
     1
  3
ACAD_XREC_ROUNDTRIP
360
4E7
  0
DICTIONARY
  5
4E4
330
30
100
AcDbDictionary
280
     1
281
     1
  3
ACAD_XREC_ROUNDTRIP
360
4E5
  0
DICTIONARY
  5
4E8
330
32
100
AcDbDictionary
280
     1
281
     1
  3
ACAD_XREC_ROUNDTRIP
360
4E9
  0
DICTIONARY
  5
4F0
330
36
100
AcDbDictionary
280
     1
281
     1
  3
ACAD_XREC_ROUNDTRIP
360
4F1
  0
DICTIONARY
  5
4F8
330
3A
100
AcDbDictionary
280
     1
281
     1
  3
ACAD_XREC_ROUNDTRIP
360
4F9
  0
DICTIONARY
  5
4EC
330
34
100
AcDbDictionary
280
     1
281
     1
  3
ACAD_XREC_ROUNDTRIP
360
4ED
  0
DICTIONARY
  5
4EE
330
35
100
AcDbDictionary
280
     1
281
     1
  3
ACAD_XREC_ROUNDTRIP
360
4EF
  0
DICTIONARY
  5
4F6
330
39
100
AcDbDictionary
280
     1
281
     1
  3
ACAD_XREC_ROUNDTRIP
360
4F7
  0
DICTIONARY
  5
4DA
330
2B
100
AcDbDictionary
280
     1
281
     1
  3
ACAD_XREC_ROUNDTRIP
360
4DB
  0
DICTIONARY
  5
4DC
330
2C
100
AcDbDictionary
280
     1
281
     1
  3
ACAD_XREC_ROUNDTRIP
360
4DD
  0
DICTIONARY
  5
4DE
330
2D
100
AcDbDictionary
280
     1
281
     1
  3
ACAD_XREC_ROUNDTRIP
360
4DF
  0
DICTIONARY
  5
4E0
330
2E
100
AcDbDictionary
280
     1
281
     1
  3
ACAD_XREC_ROUNDTRIP
360
4E1
  0
DICTIONARY
  5
4F4
330
38
100
AcDbDictionary
280
     1
281
     1
  3
ACAD_XREC_ROUNDTRIP
360
4F5
  0
DICTIONARY
  5
4EA
330
33
100
AcDbDictionary
280
     1
281
     1
  3
ACAD_XREC_ROUNDTRIP
360
4EB
  0
DICTIONARY
  5
4F2
330
37
100
AcDbDictionary
280
     1
281
     1
  3
ACAD_XREC_ROUNDTRIP
360
4F3
  0
XRECORD
  5
4FD
102
{ACAD_REACTORS
330
4FC
102
}
330
4FC
100
AcDbXrecord
280
     1
102
MATERIAL
148
0.0
149
0.0
149
0.0
 93
        0
 94
      127
282
     0
 72
     1
 77
     1
171
     1
175
     1
179
     1
273
     0
  0
XRECORD
  5
4FB
102
{ACAD_REACTORS
330
4FA
102
}
330
4FA
100
AcDbXrecord
280
     1
102
MATERIAL
148
0.0
149
0.0
149
0.0
 93
        0
 94
      127
282
     0
 72
     1
 77
     1
171
     1
175
     1
179
     1
273
     0
  0
XRECORD
  5
4FF
102
{ACAD_REACTORS
330
4FE
102
}
330
4FE
100
AcDbXrecord
280
     1
102
MATERIAL
148
0.0
149
0.0
149
0.0
 93
        0
 94
      127
282
     0
 72
     1
 77
     1
171
     1
175
     1
179
     1
273
     0
  0
XRECORD
  5
4E3
102
{ACAD_REACTORS
330
4E2
102
}
330
4E2
100
AcDbXrecord
280
     1
102
RTVSPropertyOp0
 70
     1
102
RTVSPropertyOp1
 70
     1
102
RTVSPropertyOp2
 70
     1
102
RTVSPropertyOp3
 70
     1
102
RTVSPropertyOp4
 70
     1
102
RTVSPropertyOp5
 70
     1
102
RTVSPropertyOp6
 70
     1
102
RTVSPropertyOp7
 70
     1
102
RTVSPropertyOp8
 70
     1
102
RTVSPropertyOp9
 70
     1
102
RTVSPropertyOp10
 70
     1
102
RTVSPropertyOp11
 70
     1
102
RTVSPropertyOp12
 70
     1
102
RTVSPropertyOp13
 70
     1
102
RTVSPropertyOp14
 70
     1
102
RTVSPropertyOp15
 70
     1
102
RTVSPropertyOp16
 70
     1
102
RTVSPropertyOp17
 70
     1
102
RTVSPropertyOp18
 70
     1
102
RTVSPropertyOp19
 70
     1
102
RTVSPropertyOp20
 70
     1
102
RTVSPropertyOp21
 70
     1
102
RTVSPropertyOp22
 70
     1
102
RTVSPropertyOp23
 70
     1
102
RTVSPropertyOp24
 70
     1
102
RTVSPropertyOp25
 70
     1
102
RTVSPropertyOp26
 70
     1
102
RTVSPropertyOp27
 70
     1
102
RTVSPropertyOp28
 70
     1
102
RTVSPropertyOp29
 70
     1
102
RTVSPropertyOp30
 70
     1
102
RTVSPropertyOp31
 70
     1
102
RTVSPropertyOp32
 70
     1
  0
XRECORD
  5
4E7
102
{ACAD_REACTORS
330
4E6
102
}
330
4E6
100
AcDbXrecord
280
     1
102
RTVSPropertyOp0
 70
     1
102
RTVSPropertyOp1
 70
     1
102
RTVSPropertyOp2
 70
     1
102
RTVSPropertyOp3
 70
     1
102
RTVSPropertyOp4
 70
     1
102
RTVSPropertyOp5
 70
     1
102
RTVSPropertyOp6
 70
     1
102
RTVSPropertyOp7
 70
     1
102
RTVSPropertyOp8
 70
     1
102
RTVSPropertyOp9
 70
     1
102
RTVSPropertyOp10
 70
     1
102
RTVSPropertyOp11
 70
     1
102
RTVSPropertyOp12
 70
     1
102
RTVSPropertyOp13
 70
     1
102
RTVSPropertyOp14
 70
     1
102
RTVSPropertyOp15
 70
     1
102
RTVSPropertyOp16
 70
     1
102
RTVSPropertyOp17
 70
     1
102
RTVSPropertyOp18
 70
     1
102
RTVSPropertyOp19
 70
     1
102
RTVSPropertyOp20
 70
     1
102
RTVSPropertyOp21
 70
     1
102
RTVSPropertyOp22
 70
     1
102
RTVSPropertyOp23
 70
     1
102
RTVSPropertyOp24
 70
     1
102
RTVSPropertyOp25
 70
     1
102
RTVSPropertyOp26
 70
     1
102
RTVSPropertyOp27
 70
     1
102
RTVSPropertyOp28
 70
     1
102
RTVSPropertyOp29
 70
     1
102
RTVSPropertyOp30
 70
     1
102
RTVSPropertyOp31
 70
     1
102
RTVSPropertyOp32
 70
     1
  0
XRECORD
  5
4E5
102
{ACAD_REACTORS
330
4E4
102
}
330
4E4
100
AcDbXrecord
280
     1
102
RTVSPropertyOp0
 70
     1
102
RTVSPropertyOp1
 70
     1
102
RTVSPropertyOp2
 70
     1
102
RTVSPropertyOp3
 70
     1
102
RTVSPropertyOp4
 70
     1
102
RTVSPropertyOp5
 70
     1
102
RTVSPropertyOp6
 70
     1
102
RTVSPropertyOp7
 70
     1
102
RTVSPropertyOp8
 70
     1
102
RTVSPropertyOp9
 70
     1
102
RTVSPropertyOp10
 70
     1
102
RTVSPropertyOp11
 70
     1
102
RTVSPropertyOp12
 70
     1
102
RTVSPropertyOp13
 70
     1
102
RTVSPropertyOp14
 70
     1
102
RTVSPropertyOp15
 70
     1
102
RTVSPropertyOp16
 70
     1
102
RTVSPropertyOp17
 70
     1
102
RTVSPropertyOp18
 70
     1
102
RTVSPropertyOp19
 70
     1
102
RTVSPropertyOp20
 70
     1
102
RTVSPropertyOp21
 70
     1
102
RTVSPropertyOp22
 70
     1
102
RTVSPropertyOp23
 70
     1
102
RTVSPropertyOp24
 70
     1
102
RTVSPropertyOp25
 70
     1
102
RTVSPropertyOp26
 70
     1
102
RTVSPropertyOp27
 70
     1
102
RTVSPropertyOp28
 70
     1
102
RTVSPropertyOp29
 70
     1
102
RTVSPropertyOp30
 70
     1
102
RTVSPropertyOp31
 70
     1
102
RTVSPropertyOp32
 70
     1
  0
XRECORD
  5
4E9
102
{ACAD_REACTORS
330
4E8
102
}
330
4E8
100
AcDbXrecord
280
     1
102
RTVSPropertyOp0
 70
     1
102
RTVSPropertyOp1
 70
     1
102
RTVSPropertyOp2
 70
     1
102
RTVSPropertyOp3
 70
     1
102
RTVSPropertyOp4
 70
     1
102
RTVSPropertyOp5
 70
     1
102
RTVSPropertyOp6
 70
     1
102
RTVSPropertyOp7
 70
     1
102
RTVSPropertyOp8
 70
     1
102
RTVSPropertyOp9
 70
     1
102
RTVSPropertyOp10
 70
     1
102
RTVSPropertyOp11
 70
     1
102
RTVSPropertyOp12
 70
     1
102
RTVSPropertyOp13
 70
     1
102
RTVSPropertyOp14
 70
     1
102
RTVSPropertyOp15
 70
     1
102
RTVSPropertyOp16
 70
     1
102
RTVSPropertyOp17
 70
     1
102
RTVSPropertyOp18
 70
     1
102
RTVSPropertyOp19
 70
     1
102
RTVSPropertyOp20
 70
     1
102
RTVSPropertyOp21
 70
     1
102
RTVSPropertyOp22
 70
     1
102
RTVSPropertyOp23
 70
     1
102
RTVSPropertyOp24
 70
     1
102
RTVSPropertyOp25
 70
     1
102
RTVSPropertyOp26
 70
     1
102
RTVSPropertyOp27
 70
     1
102
RTVSPropertyOp28
 70
     1
102
RTVSPropertyOp29
 70
     1
102
RTVSPropertyOp30
 70
     1
102
RTVSPropertyOp31
 70
     1
102
RTVSPropertyOp32
 70
     1
  0
XRECORD
  5
4F1
102
{ACAD_REACTORS
330
4F0
102
}
330
4F0
100
AcDbXrecord
280
     1
102
RTVSPropertyOp0
 70
     1
102
RTVSPropertyOp1
 70
     1
102
RTVSPropertyOp2
 70
     1
102
RTVSPropertyOp3
 70
     1
102
RTVSPropertyOp4
 70
     1
102
RTVSPropertyOp5
 70
     1
102
RTVSPropertyOp6
 70
     1
102
RTVSPropertyOp7
 70
     1
102
RTVSPropertyOp8
 70
     1
102
RTVSPropertyOp9
 70
     1
102
RTVSPropertyOp10
 70
     1
102
RTVSPropertyOp11
 70
     1
102
RTVSPropertyOp12
 70
     1
102
RTVSPropertyOp13
 70
     1
102
RTVSPropertyOp14
 70
     1
102
RTVSPropertyOp15
 70
     1
102
RTVSPropertyOp16
 70
     1
102
RTVSPropertyOp17
 70
     1
102
RTVSPropertyOp18
 70
     1
102
RTVSPropertyOp19
 70
     1
102
RTVSPropertyOp20
 70
     1
102
RTVSPropertyOp21
 70
     1
102
RTVSPropertyOp22
 70
     1
102
RTVSPropertyOp23
 70
     1
102
RTVSPropertyOp24
 70
     1
102
RTVSPropertyOp25
 70
     1
102
RTVSPropertyOp26
 70
     1
102
RTVSPropertyOp27
 70
     1
102
RTVSPropertyOp28
 70
     1
102
RTVSPropertyOp29
 70
     1
102
RTVSPropertyOp30
 70
     1
102
RTVSPropertyOp31
 70
     1
102
RTVSPropertyOp32
 70
     1
  0
XRECORD
  5
4F9
102
{ACAD_REACTORS
330
4F8
102
}
330
4F8
100
AcDbXrecord
280
     1
102
RTVSPropertyOp0
 70
     1
102
RTVSPropertyOp1
 70
     1
102
RTVSPropertyOp2
 70
     1
102
RTVSPropertyOp3
 70
     1
102
RTVSPropertyOp4
 70
     1
102
RTVSPropertyOp5
 70
     1
102
RTVSPropertyOp6
 70
     1
102
RTVSPropertyOp7
 70
     1
102
RTVSPropertyOp8
 70
     1
102
RTVSPropertyOp9
 70
     1
102
RTVSPropertyOp10
 70
     1
102
RTVSPropertyOp11
 70
     1
102
RTVSPropertyOp12
 70
     1
102
RTVSPropertyOp13
 70
     1
102
RTVSPropertyOp14
 70
     1
102
RTVSPropertyOp15
 70
     1
102
RTVSPropertyOp16
 70
     1
102
RTVSPropertyOp17
 70
     1
102
RTVSPropertyOp18
 70
     1
102
RTVSPropertyOp19
 70
     1
102
RTVSPropertyOp20
 70
     1
102
RTVSPropertyOp21
 70
     1
102
RTVSPropertyOp22
 70
     1
102
RTVSPropertyOp23
 70
     1
102
RTVSPropertyOp24
 70
     1
102
RTVSPropertyOp25
 70
     1
102
RTVSPropertyOp26
 70
     1
102
RTVSPropertyOp27
 70
     1
102
RTVSPropertyOp28
 70
     1
102
RTVSPropertyOp29
 70
     1
102
RTVSPropertyOp30
 70
     1
102
RTVSPropertyOp31
 70
     1
102
RTVSPropertyOp32
 70
     1
  0
XRECORD
  5
4ED
102
{ACAD_REACTORS
330
4EC
102
}
330
4EC
100
AcDbXrecord
280
     1
102
RTVSPropertyOp0
 70
     1
102
RTVSPropertyOp1
 70
     1
102
RTVSPropertyOp2
 70
     1
102
RTVSPropertyOp3
 70
     1
102
RTVSPropertyOp4
 70
     1
102
RTVSPropertyOp5
 70
     1
102
RTVSPropertyOp6
 70
     1
102
RTVSPropertyOp7
 70
     1
102
RTVSPropertyOp8
 70
     1
102
RTVSPropertyOp9
 70
     1
102
RTVSPropertyOp10
 70
     1
102
RTVSPropertyOp11
 70
     1
102
RTVSPropertyOp12
 70
     1
102
RTVSPropertyOp13
 70
     1
102
RTVSPropertyOp14
 70
     1
102
RTVSPropertyOp15
 70
     1
102
RTVSPropertyOp16
 70
     1
102
RTVSPropertyOp17
 70
     1
102
RTVSPropertyOp18
 70
     1
102
RTVSPropertyOp19
 70
     1
102
RTVSPropertyOp20
 70
     1
102
RTVSPropertyOp21
 70
     1
102
RTVSPropertyOp22
 70
     1
102
RTVSPropertyOp23
 70
     1
102
RTVSPropertyOp24
 70
     1
102
RTVSPropertyOp25
 70
     1
102
RTVSPropertyOp26
 70
     1
102
RTVSPropertyOp27
 70
     1
102
RTVSPropertyOp28
 70
     1
102
RTVSPropertyOp29
 70
     1
102
RTVSPropertyOp30
 70
     1
102
RTVSPropertyOp31
 70
     1
102
RTVSPropertyOp32
 70
     1
  0
XRECORD
  5
4EF
102
{ACAD_REACTORS
330
4EE
102
}
330
4EE
100
AcDbXrecord
280
     1
102
RTVSPropertyOp0
 70
     1
102
RTVSPropertyOp1
 70
     1
102
RTVSPropertyOp2
 70
     1
102
RTVSPropertyOp3
 70
     1
102
RTVSPropertyOp4
 70
     1
102
RTVSPropertyOp5
 70
     1
102
RTVSPropertyOp6
 70
     1
102
RTVSPropertyOp7
 70
     1
102
RTVSPropertyOp8
 70
     1
102
RTVSPropertyOp9
 70
     1
102
RTVSPropertyOp10
 70
     1
102
RTVSPropertyOp11
 70
     1
102
RTVSPropertyOp12
 70
     1
102
RTVSPropertyOp13
 70
     1
102
RTVSPropertyOp14
 70
     1
102
RTVSPropertyOp15
 70
     1
102
RTVSPropertyOp16
 70
     1
102
RTVSPropertyOp17
 70
     1
102
RTVSPropertyOp18
 70
     1
102
RTVSPropertyOp19
 70
     1
102
RTVSPropertyOp20
 70
     1
102
RTVSPropertyOp21
 70
     1
102
RTVSPropertyOp22
 70
     1
102
RTVSPropertyOp23
 70
     1
102
RTVSPropertyOp24
 70
     1
102
RTVSPropertyOp25
 70
     1
102
RTVSPropertyOp26
 70
     1
102
RTVSPropertyOp27
 70
     1
102
RTVSPropertyOp28
 70
     1
102
RTVSPropertyOp29
 70
     1
102
RTVSPropertyOp30
 70
     1
102
RTVSPropertyOp31
 70
     1
102
RTVSPropertyOp32
 70
     1
  0
XRECORD
  5
4F7
102
{ACAD_REACTORS
330
4F6
102
}
330
4F6
100
AcDbXrecord
280
     1
102
RTVSPropertyOp0
 70
     1
102
RTVSPropertyOp1
 70
     1
102
RTVSPropertyOp2
 70
     1
102
RTVSPropertyOp3
 70
     1
102
RTVSPropertyOp4
 70
     1
102
RTVSPropertyOp5
 70
     1
102
RTVSPropertyOp6
 70
     1
102
RTVSPropertyOp7
 70
     1
102
RTVSPropertyOp8
 70
     1
102
RTVSPropertyOp9
 70
     1
102
RTVSPropertyOp10
 70
     1
102
RTVSPropertyOp11
 70
     1
102
RTVSPropertyOp12
 70
     1
102
RTVSPropertyOp13
 70
     1
102
RTVSPropertyOp14
 70
     1
102
RTVSPropertyOp15
 70
     1
102
RTVSPropertyOp16
 70
     1
102
RTVSPropertyOp17
 70
     1
102
RTVSPropertyOp18
 70
     1
102
RTVSPropertyOp19
 70
     1
102
RTVSPropertyOp20
 70
     1
102
RTVSPropertyOp21
 70
     1
102
RTVSPropertyOp22
 70
     1
102
RTVSPropertyOp23
 70
     1
102
RTVSPropertyOp24
 70
     1
102
RTVSPropertyOp25
 70
     1
102
RTVSPropertyOp26
 70
     1
102
RTVSPropertyOp27
 70
     1
102
RTVSPropertyOp28
 70
     1
102
RTVSPropertyOp29
 70
     1
102
RTVSPropertyOp30
 70
     1
102
RTVSPropertyOp31
 70
     1
102
RTVSPropertyOp32
 70
     1
  0
XRECORD
  5
4DB
102
{ACAD_REACTORS
330
4DA
102
}
330
4DA
100
AcDbXrecord
280
     1
102
RTVSPropertyOp0
 70
     1
102
RTVSPropertyOp1
 70
     1
102
RTVSPropertyOp2
 70
     1
102
RTVSPropertyOp3
 70
     1
102
RTVSPropertyOp4
 70
     1
102
RTVSPropertyOp5
 70
     1
102
RTVSPropertyOp6
 70
     1
102
RTVSPropertyOp7
 70
     1
102
RTVSPropertyOp8
 70
     1
102
RTVSPropertyOp9
 70
     1
102
RTVSPropertyOp10
 70
     1
102
RTVSPropertyOp11
 70
     1
102
RTVSPropertyOp12
 70
     1
102
RTVSPropertyOp13
 70
     1
102
RTVSPropertyOp14
 70
     1
102
RTVSPropertyOp15
 70
     1
102
RTVSPropertyOp16
 70
     1
102
RTVSPropertyOp17
 70
     1
102
RTVSPropertyOp18
 70
     1
102
RTVSPropertyOp19
 70
     1
102
RTVSPropertyOp20
 70
     1
102
RTVSPropertyOp21
 70
     1
102
RTVSPropertyOp22
 70
     1
102
RTVSPropertyOp23
 70
     1
102
RTVSPropertyOp24
 70
     1
102
RTVSPropertyOp25
 70
     1
102
RTVSPropertyOp26
 70
     1
102
RTVSPropertyOp27
 70
     1
102
RTVSPropertyOp28
 70
     1
102
RTVSPropertyOp29
 70
     1
102
RTVSPropertyOp30
 70
     1
102
RTVSPropertyOp31
 70
     1
102
RTVSPropertyOp32
 70
     1
  0
XRECORD
  5
4DD
102
{ACAD_REACTORS
330
4DC
102
}
330
4DC
100
AcDbXrecord
280
     1
102
RTVSPropertyOp0
 70
     1
102
RTVSPropertyOp1
 70
     1
102
RTVSPropertyOp2
 70
     1
102
RTVSPropertyOp3
 70
     1
102
RTVSPropertyOp4
 70
     1
102
RTVSPropertyOp5
 70
     1
102
RTVSPropertyOp6
 70
     1
102
RTVSPropertyOp7
 70
     1
102
RTVSPropertyOp8
 70
     1
102
RTVSPropertyOp9
 70
     1
102
RTVSPropertyOp10
 70
     1
102
RTVSPropertyOp11
 70
     1
102
RTVSPropertyOp12
 70
     1
102
RTVSPropertyOp13
 70
     1
102
RTVSPropertyOp14
 70
     1
102
RTVSPropertyOp15
 70
     1
102
RTVSPropertyOp16
 70
     1
102
RTVSPropertyOp17
 70
     1
102
RTVSPropertyOp18
 70
     1
102
RTVSPropertyOp19
 70
     1
102
RTVSPropertyOp20
 70
     1
102
RTVSPropertyOp21
 70
     1
102
RTVSPropertyOp22
 70
     1
102
RTVSPropertyOp23
 70
     1
102
RTVSPropertyOp24
 70
     1
102
RTVSPropertyOp25
 70
     1
102
RTVSPropertyOp26
 70
     1
102
RTVSPropertyOp27
 70
     1
102
RTVSPropertyOp28
 70
     1
102
RTVSPropertyOp29
 70
     1
102
RTVSPropertyOp30
 70
     1
102
RTVSPropertyOp31
 70
     1
102
RTVSPropertyOp32
 70
     1
  0
XRECORD
  5
4DF
102
{ACAD_REACTORS
330
4DE
102
}
330
4DE
100
AcDbXrecord
280
     1
102
RTVSPropertyOp0
 70
     1
102
RTVSPropertyOp1
 70
     1
102
RTVSPropertyOp2
 70
     1
102
RTVSPropertyOp3
 70
     1
102
RTVSPropertyOp4
 70
     1
102
RTVSPropertyOp5
 70
     1
102
RTVSPropertyOp6
 70
     1
102
RTVSPropertyOp7
 70
     1
102
RTVSPropertyOp8
 70
     1
102
RTVSPropertyOp9
 70
     1
102
RTVSPropertyOp10
 70
     1
102
RTVSPropertyOp11
 70
     1
102
RTVSPropertyOp12
 70
     1
102
RTVSPropertyOp13
 70
     1
102
RTVSPropertyOp14
 70
     1
102
RTVSPropertyOp15
 70
     1
102
RTVSPropertyOp16
 70
     1
102
RTVSPropertyOp17
 70
     1
102
RTVSPropertyOp18
 70
     1
102
RTVSPropertyOp19
 70
     1
102
RTVSPropertyOp20
 70
     1
102
RTVSPropertyOp21
 70
     1
102
RTVSPropertyOp22
 70
     1
102
RTVSPropertyOp23
 70
     1
102
RTVSPropertyOp24
 70
     1
102
RTVSPropertyOp25
 70
     1
102
RTVSPropertyOp26
 70
     1
102
RTVSPropertyOp27
 70
     1
102
RTVSPropertyOp28
 70
     1
102
RTVSPropertyOp29
 70
     1
102
RTVSPropertyOp30
 70
     1
102
RTVSPropertyOp31
 70
     1
102
RTVSPropertyOp32
 70
     1
  0
XRECORD
  5
4E1
102
{ACAD_REACTORS
330
4E0
102
}
330
4E0
100
AcDbXrecord
280
     1
102
RTVSPropertyOp0
 70
     1
102
RTVSPropertyOp1
 70
     1
102
RTVSPropertyOp2
 70
     1
102
RTVSPropertyOp3
 70
     1
102
RTVSPropertyOp4
 70
     1
102
RTVSPropertyOp5
 70
     1
102
RTVSPropertyOp6
 70
     1
102
RTVSPropertyOp7
 70
     1
102
RTVSPropertyOp8
 70
     1
102
RTVSPropertyOp9
 70
     1
102
RTVSPropertyOp10
 70
     1
102
RTVSPropertyOp11
 70
     1
102
RTVSPropertyOp12
 70
     1
102
RTVSPropertyOp13
 70
     1
102
RTVSPropertyOp14
 70
     1
102
RTVSPropertyOp15
 70
     1
102
RTVSPropertyOp16
 70
     1
102
RTVSPropertyOp17
 70
     1
102
RTVSPropertyOp18
 70
     1
102
RTVSPropertyOp19
 70
     1
102
RTVSPropertyOp20
 70
     1
102
RTVSPropertyOp21
 70
     1
102
RTVSPropertyOp22
 70
     1
102
RTVSPropertyOp23
 70
     1
102
RTVSPropertyOp24
 70
     1
102
RTVSPropertyOp25
 70
     1
102
RTVSPropertyOp26
 70
     1
102
RTVSPropertyOp27
 70
     1
102
RTVSPropertyOp28
 70
     1
102
RTVSPropertyOp29
 70
     1
102
RTVSPropertyOp30
 70
     1
102
RTVSPropertyOp31
 70
     1
102
RTVSPropertyOp32
 70
     1
  0
XRECORD
  5
4F5
102
{ACAD_REACTORS
330
4F4
102
}
330
4F4
100
AcDbXrecord
280
     1
102
RTVSPropertyOp0
 70
     1
102
RTVSPropertyOp1
 70
     1
102
RTVSPropertyOp2
 70
     1
102
RTVSPropertyOp3
 70
     1
102
RTVSPropertyOp4
 70
     1
102
RTVSPropertyOp5
 70
     1
102
RTVSPropertyOp6
 70
     1
102
RTVSPropertyOp7
 70
     1
102
RTVSPropertyOp8
 70
     1
102
RTVSPropertyOp9
 70
     1
102
RTVSPropertyOp10
 70
     1
102
RTVSPropertyOp11
 70
     1
102
RTVSPropertyOp12
 70
     1
102
RTVSPropertyOp13
 70
     1
102
RTVSPropertyOp14
 70
     1
102
RTVSPropertyOp15
 70
     1
102
RTVSPropertyOp16
 70
     1
102
RTVSPropertyOp17
 70
     1
102
RTVSPropertyOp18
 70
     1
102
RTVSPropertyOp19
 70
     1
102
RTVSPropertyOp20
 70
     1
102
RTVSPropertyOp21
 70
     1
102
RTVSPropertyOp22
 70
     1
102
RTVSPropertyOp23
 70
     1
102
RTVSPropertyOp24
 70
     1
102
RTVSPropertyOp25
 70
     1
102
RTVSPropertyOp26
 70
     1
102
RTVSPropertyOp27
 70
     1
102
RTVSPropertyOp28
 70
     1
102
RTVSPropertyOp29
 70
     1
102
RTVSPropertyOp30
 70
     1
102
RTVSPropertyOp31
 70
     1
102
RTVSPropertyOp32
 70
     1
  0
XRECORD
  5
4EB
102
{ACAD_REACTORS
330
4EA
102
}
330
4EA
100
AcDbXrecord
280
     1
102
RTVSPropertyOp0
 70
     1
102
RTVSPropertyOp1
 70
     1
102
RTVSPropertyOp2
 70
     1
102
RTVSPropertyOp3
 70
     1
102
RTVSPropertyOp4
 70
     1
102
RTVSPropertyOp5
 70
     1
102
RTVSPropertyOp6
 70
     1
102
RTVSPropertyOp7
 70
     1
102
RTVSPropertyOp8
 70
     1
102
RTVSPropertyOp9
 70
     1
102
RTVSPropertyOp10
 70
     1
102
RTVSPropertyOp11
 70
     1
102
RTVSPropertyOp12
 70
     1
102
RTVSPropertyOp13
 70
     1
102
RTVSPropertyOp14
 70
     1
102
RTVSPropertyOp15
 70
     1
102
RTVSPropertyOp16
 70
     1
102
RTVSPropertyOp17
 70
     1
102
RTVSPropertyOp18
 70
     1
102
RTVSPropertyOp19
 70
     1
102
RTVSPropertyOp20
 70
     1
102
RTVSPropertyOp21
 70
     1
102
RTVSPropertyOp22
 70
     1
102
RTVSPropertyOp23
 70
     1
102
RTVSPropertyOp24
 70
     1
102
RTVSPropertyOp25
 70
     1
102
RTVSPropertyOp26
 70
     1
102
RTVSPropertyOp27
 70
     1
102
RTVSPropertyOp28
 70
     1
102
RTVSPropertyOp29
 70
     1
102
RTVSPropertyOp30
 70
     1
102
RTVSPropertyOp31
 70
     1
102
RTVSPropertyOp32
 70
     1
  0
XRECORD
  5
4F3
102
{ACAD_REACTORS
330
4F2
102
}
330
4F2
100
AcDbXrecord
280
     1
102
RTVSPropertyOp0
 70
     1
102
RTVSPropertyOp1
 70
     1
102
RTVSPropertyOp2
 70
     1
102
RTVSPropertyOp3
 70
     1
102
RTVSPropertyOp4
 70
     1
102
RTVSPropertyOp5
 70
     1
102
RTVSPropertyOp6
 70
     1
102
RTVSPropertyOp7
 70
     1
102
RTVSPropertyOp8
 70
     1
102
RTVSPropertyOp9
 70
     1
102
RTVSPropertyOp10
 70
     1
102
RTVSPropertyOp11
 70
     1
102
RTVSPropertyOp12
 70
     1
102
RTVSPropertyOp13
 70
     1
102
RTVSPropertyOp14
 70
     1
102
RTVSPropertyOp15
 70
     1
102
RTVSPropertyOp16
 70
     1
102
RTVSPropertyOp17
 70
     1
102
RTVSPropertyOp18
 70
     1
102
RTVSPropertyOp19
 70
     1
102
RTVSPropertyOp20
 70
     1
102
RTVSPropertyOp21
 70
     1
102
RTVSPropertyOp22
 70
     1
102
RTVSPropertyOp23
 70
     1
102
RTVSPropertyOp24
 70
     1
102
RTVSPropertyOp25
 70
     1
102
RTVSPropertyOp26
 70
     1
102
RTVSPropertyOp27
 70
     1
102
RTVSPropertyOp28
 70
     1
102
RTVSPropertyOp29
 70
     1
102
RTVSPropertyOp30
 70
     1
102
RTVSPropertyOp31
 70
     1
102
RTVSPropertyOp32
 70
     1
  0
ENDSEC
  0
EOF
