  0
SECTION
  2
HEADER
  9
$ACADVER
  1
AC1015
  9
$ACADMAINTVER
 70
     6
  9
$DWGCODEPAGE
  3
ANSI_949
  9
$INSBASE
 10
0.0
 20
0.0
 30
0.0
  9
$EXTMIN
 10
1.000000000000000E+20
 20
1.000000000000000E+20
 30
1.000000000000000E+20
  9
$EXTMAX
 10
-1.000000000000000E+20
 20
-1.000000000000000E+20
 30
-1.000000000000000E+20
  9
$LIMMIN
 10
0.0
 20
0.0
  9
$LIMMAX
 10
12.0
 20
9.0
  9
$ORTHOMODE
 70
     0
  9
$REGENMODE
 70
     1
  9
$FILLMODE
 70
     1
  9
$QTEXTMODE
 70
     0
  9
$MIRRTEXT
 70
     1
  9
$LTSCALE
 40
1.0
  9
$ATTMODE
 70
     1
  9
$TEXTSIZE
 40
0.2
  9
$TRACEWID
 40
0.05
  9
$TEXTSTYLE
  7
Standard
  9
$CLAYER
  8
0
  9
$CELTYPE
  6
ByLayer
  9
$CECOLOR
 62
   256
  9
$CELTSCALE
 40
1.0
  9
$DISPSILH
 70
     0
  9
$DIMSCALE
 40
1.0
  9
$DIMASZ
 40
0.18
  9
$DIMEXO
 40
0.0625
  9
$DIMDLI
 40
0.38
  9
$DIMRND
 40
0.0
  9
$DIMDLE
 40
0.0
  9
$DIMEXE
 40
0.18
  9
$DIMTP
 40
0.0
  9
$DIMTM
 40
0.0
  9
$DIMTXT
 40
0.18
  9
$DIMCEN
 40
0.09
  9
$DIMTSZ
 40
0.0
  9
$DIMTOL
 70
     0
  9
$DIMLIM
 70
     0
  9
$DIMTIH
 70
     1
  9
$DIMTOH
 70
     1
  9
$DIMSE1
 70
     0
  9
$DIMSE2
 70
     0
  9
$DIMTAD
 70
     0
  9
$DIMZIN
 70
     0
  9
$DIMBLK
  1

  9
$DIMASO
 70
     1
  9
$DIMSHO
 70
     1
  9
$DIMPOST
  1

  9
$DIMAPOST
  1

  9
$DIMALT
 70
     0
  9
$DIMALTD
 70
     2
  9
$DIMALTF
 40
25.4
  9
$DIMLFAC
 40
1.0
  9
$DIMTOFL
 70
     0
  9
$DIMTVP
 40
0.0
  9
$DIMTIX
 70
     0
  9
$DIMSOXD
 70
     0
  9
$DIMSAH
 70
     0
  9
$DIMBLK1
  1

  9
$DIMBLK2
  1

  9
$DIMSTYLE
  2
Standard
  9
$DIMCLRD
 70
     0
  9
$DIMCLRE
 70
     0
  9
$DIMCLRT
 70
     0
  9
$DIMTFAC
 40
1.0
  9
$DIMGAP
 40
0.09
  9
$DIMJUST
 70
     0
  9
$DIMSD1
 70
     0
  9
$DIMSD2
 70
     0
  9
$DIMTOLJ
 70
     1
  9
$DIMTZIN
 70
     0
  9
$DIMALTZ
 70
     0
  9
$DIMALTTZ
 70
     0
  9
$DIMUPT
 70
     0
  9
$DIMDEC
 70
     4
  9
$DIMTDEC
 70
     4
  9
$DIMALTU
 70
     2
  9
$DIMALTTD
 70
     2
  9
$DIMTXSTY
  7
Standard
  9
$DIMAUNIT
 70
     0
  9
$DIMADEC
 70
     0
  9
$DIMALTRND
 40
0.0
  9
$DIMAZIN
 70
     0
  9
$DIMDSEP
 70
    46
  9
$DIMATFIT
 70
     3
  9
$DIMFRAC
 70
     0
  9
$DIMLDRBLK
  1

  9
$DIMLUNIT
 70
     2
  9
$DIMLWD
 70
    -2
  9
$DIMLWE
 70
    -2
  9
$DIMTMOVE
 70
     0
  9
$LUNITS
 70
     2
  9
$LUPREC
 70
     4
  9
$SKETCHINC
 40
0.1
  9
$FILLETRAD
 40
0.5
  9
$AUNITS
 70
     0
  9
$AUPREC
 70
     0
  9
$MENU
  1
.
  9
$ELEVATION
 40
0.0
  9
$PELEVATION
 40
0.0
  9
$THICKNESS
 40
0.0
  9
$LIMCHECK
 70
     0
  9
$CHAMFERA
 40
0.5
  9
$CHAMFERB
 40
0.5
  9
$CHAMFERC
 40
1.0
  9
$CHAMFERD
 40
0.0
  9
$SKPOLY
 70
     0
  9
$TDCREATE
 40
2456522.534780868
  9
$TDUCREATE
 40
2456522.034780868
  9
$TDUPDATE
 40
2456522.534814549
  9
$TDUUPDATE
 40
2456522.034814549
  9
$TDINDWG
 40
0.0000000116
  9
$TDUSRTIMER
 40
0.0000000116
  9
$USRTIMER
 70
     1
  9
$ANGBASE
 50
0.0
  9
$ANGDIR
 70
     0
  9
$PDMODE
 70
     0
  9
$PDSIZE
 40
0.0
  9
$PLINEWID
 40
0.0
  9
$SPLFRAME
 70
     0
  9
$SPLINETYPE
 70
     6
  9
$SPLINESEGS
 70
     8
  9
$HANDSEED
  5
5A7
  9
$SURFTAB1
 70
     6
  9
$SURFTAB2
 70
     6
  9
$SURFTYPE
 70
     6
  9
$SURFU
 70
     6
  9
$SURFV
 70
     6
  9
$UCSBASE
  2

  9
$UCSNAME
  2

  9
$UCSORG
 10
0.0
 20
0.0
 30
0.0
  9
$UCSXDIR
 10
1.0
 20
0.0
 30
0.0
  9
$UCSYDIR
 10
0.0
 20
1.0
 30
0.0
  9
$UCSORTHOREF
  2

  9
$UCSORTHOVIEW
 70
     0
  9
$UCSORGTOP
 10
0.0
 20
0.0
 30
0.0
  9
$UCSORGBOTTOM
 10
0.0
 20
0.0
 30
0.0
  9
$UCSORGLEFT
 10
0.0
 20
0.0
 30
0.0
  9
$UCSORGRIGHT
 10
0.0
 20
0.0
 30
0.0
  9
$UCSORGFRONT
 10
0.0
 20
0.0
 30
0.0
  9
$UCSORGBACK
 10
0.0
 20
0.0
 30
0.0
  9
$PUCSBASE
  2

  9
$PUCSNAME
  2

  9
$PUCSORG
 10
0.0
 20
0.0
 30
0.0
  9
$PUCSXDIR
 10
1.0
 20
0.0
 30
0.0
  9
$PUCSYDIR
 10
0.0
 20
1.0
 30
0.0
  9
$PUCSORTHOREF
  2

  9
$PUCSORTHOVIEW
 70
     0
  9
$PUCSORGTOP
 10
0.0
 20
0.0
 30
0.0
  9
$PUCSORGBOTTOM
 10
0.0
 20
0.0
 30
0.0
  9
$PUCSORGLEFT
 10
0.0
 20
0.0
 30
0.0
  9
$PUCSORGRIGHT
 10
0.0
 20
0.0
 30
0.0
  9
$PUCSORGFRONT
 10
0.0
 20
0.0
 30
0.0
  9
$PUCSORGBACK
 10
0.0
 20
0.0
 30
0.0
  9
$USERI1
 70
     0
  9
$USERI2
 70
     0
  9
$USERI3
 70
     0
  9
$USERI4
 70
     0
  9
$USERI5
 70
     0
  9
$USERR1
 40
0.0
  9
$USERR2
 40
0.0
  9
$USERR3
 40
0.0
  9
$USERR4
 40
0.0
  9
$USERR5
 40
0.0
  9
$WORLDVIEW
 70
     1
  9
$SHADEDGE
 70
     3
  9
$SHADEDIF
 70
    70
  9
$TILEMODE
 70
     1
  9
$MAXACTVP
 70
    64
  9
$PINSBASE
 10
0.0
 20
0.0
 30
0.0
  9
$PLIMCHECK
 70
     0
  9
$PEXTMIN
 10
1.000000000000000E+20
 20
1.000000000000000E+20
 30
1.000000000000000E+20
  9
$PEXTMAX
 10
-1.000000000000000E+20
 20
-1.000000000000000E+20
 30
-1.000000000000000E+20
  9
$PLIMMIN
 10
0.0
 20
0.0
  9
$PLIMMAX
 10
12.0
 20
9.0
  9
$UNITMODE
 70
     0
  9
$VISRETAIN
 70
     1
  9
$PLINEGEN
 70
     0
  9
$PSLTSCALE
 70
     1
  9
$TREEDEPTH
 70
  3020
  9
$CMLSTYLE
  2
Standard
  9
$CMLJUST
 70
     0
  9
$CMLSCALE
 40
1.0
  9
$PROXYGRAPHICS
 70
     1
  9
$MEASUREMENT
 70
     0
  9
$CELWEIGHT
370
    -1
  9
$ENDCAPS
280
     0
  9
$JOINSTYLE
280
     0
  9
$LWDISPLAY
290
     1
  9
$INSUNITS
 70
     4
  9
$HYPERLINKBASE
  1

  9
$STYLESHEET
  1

  9
$XEDIT
290
     1
  9
$CEPSNTYPE
380
     0
  9
$PSTYLEMODE
290
     1
  9
$FINGERPRINTGUID
  2
{62C926CF-A9BA-410F-9731-D3B78BD94373}
  9
$VERSIONGUID
  2
{FAEB1C32-E019-11D5-929B-00C0DF256EC4}
  9
$EXTNAMES
290
     1
  9
$PSVPSCALE
 40
0.0
  9
$OLESTARTUP
290
     0
  0
ENDSEC
  0
SECTION
  2
CLASSES
  0
CLASS
  1
ACDBDICTIONARYWDFLT
  2
AcDbDictionaryWithDefault
  3
ObjectDBX Classes
 90
        0
280
     0
281
     0
  0
CLASS
  1
VISUALSTYLE
  2
AcDbVisualStyle
  3
ObjectDBX Classes
 90
     4095
280
     0
281
     0
  0
CLASS
  1
MATERIAL
  2
AcDbMaterial
  3
ObjectDBX Classes
 90
     1153
280
     0
281
     0
  0
CLASS
  1
WIPEOUT
  2
AcDbWipeout
  3
WipeOut|AutoCAD Express Tool|expresstools@autodesk.com
 90
      127
280
     0
281
     1
  0
CLASS
  1
SPATIAL_FILTER
  2
AcDbSpatialFilter
  3
ObjectDBX Classes
 90
        0
280
     0
281
     0
  0
CLASS
  1
SCALE
  2
AcDbScale
  3
ObjectDBX Classes
 90
     1153
280
     0
281
     0
  0
CLASS
  1
DICTIONARYVAR
  2
AcDbDictionaryVar
  3
ObjectDBX Classes
 90
        0
280
     0
281
     0
  0
CLASS
  1
ACDBPLACEHOLDER
  2
AcDbPlaceHolder
  3
ObjectDBX Classes
 90
        0
280
     0
281
     0
  0
CLASS
  1
LAYOUT
  2
AcDbLayout
  3
ObjectDBX Classes
 90
        0
280
     0
281
     0
  0
ENDSEC
  0
SECTION
  2
TABLES
  0
TABLE
  2
VPORT
  5
8
330
0
100
AcDbSymbolTable
 70
     1
  0
VPORT
  5
29
330
8
100
AcDbSymbolTableRecord
100
AcDbViewportTableRecord
  2
*Active
 70
     0
 10
0.0
 20
0.0
 11
1.0
 21
1.0
 12
148.6203422501967
 22
95.75072408187019
 13
0.0
 23
0.0
 14
0.5
 24
0.5
 15
0.5
 25
0.5
 16
0.0
 26
0.0
 36
1.0
 17
0.0
 27
0.0
 37
0.0
 40
191.1965650136266
 41
1.511039161015596
 42
50.0
 43
0.0
 44
0.0
 50
0.0
 51
0.0
 71
     0
 72
   100
 73
     1
 74
     3
 75
     0
 76
     0
 77
     0
 78
     0
281
     0
 65
     1
110
0.0
120
0.0
130
0.0
111
1.0
121
0.0
131
0.0
112
0.0
122
1.0
132
0.0
 79
     0
146
0.0
  0
ENDTAB
  0
TABLE
  2
LTYPE
  5
5
330
0
100
AcDbSymbolTable
 70
     3
  0
LTYPE
  5
14
330
5
100
AcDbSymbolTableRecord
100
AcDbLinetypeTableRecord
  2
ByBlock
 70
     0
  3

 72
    65
 73
     0
 40
0.0
  0
LTYPE
  5
15
330
5
100
AcDbSymbolTableRecord
100
AcDbLinetypeTableRecord
  2
ByLayer
 70
     0
  3

 72
    65
 73
     0
 40
0.0
  0
LTYPE
  5
16
330
5
100
AcDbSymbolTableRecord
100
AcDbLinetypeTableRecord
  2
Continuous
 70
     0
  3
Solid line
 72
    65
 73
     0
 40
0.0
  0
LTYPE
  5
1B9
330
5
100
AcDbSymbolTableRecord
100
AcDbLinetypeTableRecord
  2
Dashed
 70
     0
  3
- - - - - 
 72
    65
 73
     2
 40
5.644444465637207
 49
2.822222232818604
 74
     0
 49
-2.822222232818603
 74
     0
  0
LTYPE
  5
1D3
330
5
100
AcDbSymbolTableRecord
100
AcDbLinetypeTableRecord
  2
Wipeout_Contour
 70
     0
  3
- - - - - 
 72
    65
 73
     2
 40
1000.0
 49
0.0
 74
     0
 49
-1000.0
 74
     0
  0
ENDTAB
  0
TABLE
  2
LAYER
  5
2
330
0
100
AcDbSymbolTable
 70
     3
  0
LAYER
  5
10
330
2
100
AcDbSymbolTableRecord
100
AcDbLayerTableRecord
  2
0
 70
     0
 62
     7
  6
Continuous
370
    -3
390
F
  0
LAYER
  5
40
330
2
100
AcDbSymbolTableRecord
100
AcDbLayerTableRecord
  2
Doc_ Finishes
 70
     0
 62
     7
  6
Continuous
370
    -3
390
F
  0
LAYER
  5
DB
330
2
100
AcDbSymbolTableRecord
100
AcDbLayerTableRecord
  2
Doc_ Floor
 70
     0
 62
     7
  6
Continuous
370
    -3
390
F
  0
ENDTAB
  0
TABLE
  2
STYLE
  5
3
330
0
100
AcDbSymbolTable
 70
     4
  0
STYLE
  5
11
330
3
100
AcDbSymbolTableRecord
100
AcDbTextStyleTableRecord
  2
Standard
 70
     0
 40
0.0
 41
1.0
 50
0.0
 71
     0
 42
0.2
  3
txt
  4

  0
STYLE
  5
D6
330
3
100
AcDbSymbolTableRecord
100
AcDbTextStyleTableRecord
  2
GENERATED_STYLE_1
 70
     0
 40
0.0
 41
1.0
 50
0.0
 71
     0
 42
0.2
  3

  4

1001
ACAD
1000
Century Gothic
1071
       34
  0
STYLE
  5
D9
330
3
100
AcDbSymbolTableRecord
100
AcDbTextStyleTableRecord
  2
GENERATED_STYLE_2
 70
     0
 40
0.0
 41
1.0
 50
0.0
 71
     0
 42
0.2
  3

  4

1001
ACAD
1000
DilleniaUPC
1071
 33554450
  0
STYLE
  5
1E7
330
3
100
AcDbSymbolTableRecord
100
AcDbTextStyleTableRecord
  2
GENERATED_STYLE_3
 70
     0
 40
0.0
 41
1.0
 50
0.0
 71
     0
 42
0.2
  3

  4

1001
ACAD
1000
Arial
1071
       34
  0
ENDTAB
  0
TABLE
  2
VIEW
  5
6
330
0
100
AcDbSymbolTable
 70
     0
  0
ENDTAB
  0
TABLE
  2
UCS
  5
7
330
0
100
AcDbSymbolTable
 70
     0
  0
ENDTAB
  0
TABLE
  2
APPID
  5
9
330
0
100
AcDbSymbolTable
 70
     1
  0
APPID
  5
12
330
9
100
AcDbSymbolTableRecord
100
AcDbRegAppTableRecord
  2
ACAD
 70
     0
  0
ENDTAB
  0
TABLE
  2
DIMSTYLE
  5
A
330
0
100
AcDbSymbolTable
 70
     1
100
AcDbDimStyleTable
  0
DIMSTYLE
105
27
330
A
100
AcDbSymbolTableRecord
100
AcDbDimStyleTableRecord
  2
Standard
 70
     0
178
     0
340
11
  0
ENDTAB
  0
TABLE
  2
BLOCK_RECORD
  5
1
330
0
100
AcDbSymbolTable
 70
     3
  0
BLOCK_RECORD
  5
1F
330
1
100
AcDbSymbolTableRecord
100
AcDbBlockTableRecord
  2
*Model_Space
340
22
  0
BLOCK_RECORD
  5
1B
330
1
100
AcDbSymbolTableRecord
100
AcDbBlockTableRecord
  2
*Paper_Space
340
1E
  0
BLOCK_RECORD
  5
E3
330
1
100
AcDbSymbolTableRecord
100
AcDbBlockTableRecord
  2
Drawing_1_2
340
0
102
{BLKREFS
331
54D
102
}
  0
BLOCK_RECORD
  5
551
330
1
100
AcDbSymbolTableRecord
100
AcDbBlockTableRecord
  2
R-TRSC-03 GUTTER FLASHING DETAI_STORY_MARKER
340
0
  0
ENDTAB
  0
ENDSEC
  0
SECTION
  2
BLOCKS
  0
BLOCK
  5
20
330
1F
100
AcDbEntity
  8
0
100
AcDbBlockBegin
  2
*Model_Space
 70
     0
 10
0.0
 20
0.0
 30
0.0
  3
*Model_Space
  1

  0
ENDBLK
  5
21
330
1F
100
AcDbEntity
  8
0
100
AcDbBlockEnd
  0
BLOCK
  5
1C
330
1B
100
AcDbEntity
 67
     1
  8
0
100
AcDbBlockBegin
  2
*Paper_Space
 70
     0
 10
0.0
 20
0.0
 30
0.0
  3
*Paper_Space
  1

  0
ENDBLK
  5
1D
330
1B
100
AcDbEntity
 67
     1
  8
0
100
AcDbBlockEnd
  0
BLOCK
  5
E4
330
E3
100
AcDbEntity
  8
0
100
AcDbBlockBegin
  2
Drawing_1_2
 70
     0
 10
-142.7210172665502
 20
95.8254599850675
 30
0.0
  3
Drawing_1_2
  1

  0
HATCH
  5
E6
330
E3
100
AcDbEntity
  8
0
  6
Continuous
 62
   255
370
     0
100
AcDbHatch
 10
0.0
 20
0.0
 30
0.0
210
0.0
220
0.0
230
1.0
  2
SOLID
 70
     1
 71
     0
 91
        1
 92
        3
 72
     0
 73
     1
 93
        3
 10
188.2443726559384
 20
112.2492893327694
 10
256.5849532948498
 20
112.2492893327694
 10
256.5849532948498
 20
124.2995820541903
 97
        0
 75
     0
 76
     1
 98
        0
  0
HATCH
  5
E7
330
E3
100
AcDbEntity
  8
0
  6
Continuous
 62
   255
370
     0
100
AcDbHatch
 10
0.0
 20
0.0
 30
0.0
210
0.0
220
0.0
230
1.0
  2
SOLID
 70
     1
 71
     0
 91
        1
 92
        3
 72
     0
 73
     1
 93
        3
 10
188.2443704671367
 20
112.2492919549385
 10
98.24437046713678
 20
96.37986369117651
 10
188.2443704671368
 20
96.37986369117668
 97
        0
 75
     0
 76
     1
 98
        0
  0
HATCH
  5
E8
330
E3
100
AcDbEntity
  8
0
  6
Continuous
 62
   255
370
     0
100
AcDbHatch
 10
0.0
 20
0.0
 30
0.0
210
0.0
220
0.0
230
1.0
  2
SOLID
 70
     1
 71
     0
 91
        1
 92
        3
 72
     0
 73
     1
 93
        5
 10
256.5849529152575
 20
142.5772541865515
 10
98.24436805764381
 20
114.6575404297556
 10
98.24436805764381
 20
96.3798678413198
 10
188.2443664023779
 20
112.2492894549013
 10
256.5849529152575
 20
124.2995815981157
 97
        0
 75
     0
 76
     1
 98
        0
  0
LINE
  5
E9
330
E3
100
AcDbEntity
  8
0
  6
Continuous
100
AcDbLine
 10
98.24437055243968
 20
114.6575417321592
 30
0.0
 11
98.24437055243968
 21
96.37986303610504
 31
0.0
  0
LINE
  5
EA
330
E3
100
AcDbEntity
  8
0
  6
Continuous
100
AcDbLine
 10
98.24437055243968
 20
96.37986303610504
 30
0.0
 11
188.2443712849436
 21
112.2492930286359
 31
0.0
  0
LINE
  5
EB
330
E3
100
AcDbEntity
  8
0
  6
Continuous
100
AcDbLine
 10
188.2443664023779
 20
112.2492894549013
 30
0.0
 11
256.5849529152575
 21
124.2995815981157
 31
0.0
  0
LINE
  5
EC
330
E3
100
AcDbEntity
  8
0
  6
Continuous
100
AcDbLine
 10
256.5849529152575
 20
142.5772541865515
 30
0.0
 11
98.24436805764381
 21
114.6575404297556
 31
0.0
  0
HATCH
  5
ED
330
E3
100
AcDbEntity
  8
0
  6
Continuous
 62
   255
370
     0
100
AcDbHatch
 10
0.0
 20
0.0
 30
0.0
210
0.0
220
0.0
230
1.0
  2
SOLID
 70
     1
 71
     0
 91
        1
 92
        3
 72
     0
 73
     1
 93
        3
 10
256.5849532948498
 20
124.2995820541903
 10
188.2443726559384
 20
112.2492893327694
 10
256.5849532948498
 20
112.2492893327694
 97
        0
 75
     0
 76
     1
 98
        0
  0
LINE
  5
EE
330
E3
100
AcDbEntity
  8
0
  6
Continuous
100
AcDbLine
 10
256.5849493144199
 20
124.2995807624376
 30
0.0
 11
188.2443694049239
 21
112.24929234269
 31
0.0
  0
LINE
  5
EF
330
E3
100
AcDbEntity
  8
0
  6
Continuous
100
AcDbLine
 10
188.2443726559384
 20
112.2492893327694
 30
0.0
 11
256.5849532948498
 21
112.2492893327694
 31
0.0
  0
HATCH
  5
F0
330
E3
100
AcDbEntity
  8
0
  6
Continuous
 62
   253
370
    25
100
AcDbHatch
 10
0.0
 20
0.0
 30
0.0
210
0.0
220
0.0
230
1.0
  2
SOLID
 70
     1
 71
     0
 91
        1
 92
        3
 72
     0
 73
     1
 93
        4
 10
81.96541404385982
 20
123.6263260163213
 10
239.6863084031494
 20
151.4367751133335
 10
239.0611749635484
 20
154.9820830241774
 10
81.34028060425891
 20
127.1716339271652
 97
        0
 75
     0
 76
     1
 98
        0
  0
LINE
  5
F1
330
E3
100
AcDbEntity
  8
0
  6
Continuous
100
AcDbLine
 10
81.96541327069184
 20
123.6263251276795
 30
0.0
 11
239.6863088271837
 21
151.4367765829422
 31
0.0
  0
LINE
  5
F2
330
E3
100
AcDbEntity
  8
0
  6
Continuous
100
AcDbLine
 10
239.6863088271837
 20
151.4367765829422
 30
0.0
 11
239.0611756737729
 21
154.982082012227
 31
0.0
  0
LINE
  5
F3
330
E3
100
AcDbEntity
  8
0
  6
Continuous
100
AcDbLine
 10
239.0611756737729
 20
154.982082012227
 30
0.0
 11
81.34028011728101
 21
127.1716339595125
 31
0.0
  0
LINE
  5
F4
330
E3
100
AcDbEntity
  8
0
  6
Continuous
100
AcDbLine
 10
81.34028011728101
 20
127.1716339595125
 30
0.0
 11
81.96541327069184
 21
123.6263251276795
 31
0.0
  0
HATCH
  5
F5
330
E3
100
AcDbEntity
  8
0
  6
Continuous
 62
   255
370
     0
100
AcDbHatch
 10
0.0
 20
0.0
 30
0.0
210
0.0
220
0.0
230
1.0
  2
SOLID
 70
     1
 71
     0
 91
        1
 92
        3
 72
     0
 73
     1
 93
        4
 10
102.8715470540371
 20
124.6122782888647
 10
104.4343806530395
 20
115.7490085117549
 10
118.2216891952104
 20
118.1800829990919
 10
116.658855596208
 20
127.0433527762017
 97
        0
 75
     0
 76
     1
 98
        0
  0
LINE
  5
F6
330
E3
100
AcDbEntity
  8
0
  6
Continuous
100
AcDbLine
 10
104.4343813643232
 20
115.7490077156562
 30
0.0
 11
116.6588555007687
 21
127.0433510902791
 31
0.0
  0
LINE
  5
F7
330
E3
100
AcDbEntity
  8
0
  6
Continuous
100
AcDbLine
 10
102.8715467795221
 20
124.6122780939645
 30
0.0
 11
118.2216900855699
 21
118.1800841145189
 31
0.0
  0
LINE
  5
F8
330
E3
100
AcDbEntity
  8
0
  6
Continuous
100
AcDbLine
 10
102.8715467795221
 20
124.6122780939645
 30
0.0
 11
104.4343813643232
 21
115.7490077156562
 31
0.0
  0
LINE
  5
F9
330
E3
100
AcDbEntity
  8
0
  6
Continuous
100
AcDbLine
 10
104.4343813643232
 20
115.7490077156562
 30
0.0
 11
118.2216900855699
 21
118.1800841145189
 31
0.0
  0
LINE
  5
FA
330
E3
100
AcDbEntity
  8
0
  6
Continuous
100
AcDbLine
 10
118.2216900855699
 20
118.1800841145189
 30
0.0
 11
116.6588555007687
 21
127.0433510902791
 31
0.0
  0
LINE
  5
FB
330
E3
100
AcDbEntity
  8
0
  6
Continuous
100
AcDbLine
 10
116.6588555007687
 20
127.0433510902791
 30
0.0
 11
102.8715467795221
 21
124.6122780939645
 31
0.0
  0
HATCH
  5
FC
330
E3
100
AcDbEntity
  8
0
  6
Continuous
 62
   255
370
     0
100
AcDbHatch
 10
0.0
 20
0.0
 30
0.0
210
0.0
220
0.0
230
1.0
  2
SOLID
 70
     1
 71
     0
 91
        1
 92
        3
 72
     0
 73
     1
 93
       12
 10
98.24437046713675
 20
92.24933836574986
 10
98.24437046713675
 20
94.24933836574986
 10
96.64437046713672
 20
94.24933836574986
 10
96.64437046713672
 20
95.24933836574986
 10
98.24437046713675
 20
95.24933836574986
 10
98.24437046713675
 20
119.2493383657499
 10
96.64437046713672
 20
119.2493383657499
 10
96.64437046713672
 20
120.2493383657499
 10
98.24437046713675
 20
120.2493383657499
 10
98.24437046713675
 20
122.2493383657499
 10
94.24437046713675
 20
122.2493383657499
 10
94.24437046713675
 20
92.24933836574986
 97
        0
 75
     0
 76
     1
 98
        0
  0
HATCH
  5
FD
330
E3
100
AcDbEntity
  8
0
  6
Continuous
100
AcDbHatch
 10
0.0
 20
0.0
 30
0.0
210
0.0
220
0.0
230
1.0
  2
Wood_0002
 70
     0
 71
     0
 91
        1
 92
        3
 72
     0
 73
     1
 93
       12
 10
98.24437046713675
 20
92.24933836574986
 10
98.24437046713675
 20
94.24933836574986
 10
96.64437046713672
 20
94.24933836574986
 10
96.64437046713672
 20
95.24933836574986
 10
98.24437046713675
 20
95.24933836574986
 10
98.24437046713675
 20
119.2493383657499
 10
96.64437046713672
 20
119.2493383657499
 10
96.64437046713672
 20
120.2493383657499
 10
98.24437046713675
 20
120.2493383657499
 10
98.24437046713675
 20
122.2493383657499
 10
94.24437046713675
 20
122.2493383657499
 10
94.24437046713675
 20
92.24933836574986
 97
        0
 75
     0
 76
     2
 52
0.0
 41
1.0
 77
     0
 78
     1
 53
9.999999999999996
 43
-142.7210172665502
 44
95.8254599850675
 45
-0.1562833557601421
 46
0.8863269542313407
 79
     0
 98
        0
  0
LINE
  5
FE
330
E3
100
AcDbEntity
  8
0
  6
Continuous
100
AcDbLine
 10
98.24437055243968
 20
92.24933974540916
 30
0.0
 11
98.24437055243968
 21
94.2493371152607
 31
0.0
  0
LINE
  5
FF
330
E3
100
AcDbEntity
  8
0
  6
Continuous
100
AcDbLine
 10
98.24437055243968
 20
94.2493371152607
 30
0.0
 11
96.64436993451994
 21
94.2493371152607
 31
0.0
  0
LINE
  5
100
330
E3
100
AcDbEntity
  8
0
  6
Continuous
100
AcDbLine
 10
96.64436993451994
 20
94.2493371152607
 30
0.0
 11
96.64436993451994
 21
95.24933920273459
 31
0.0
  0
LINE
  5
101
330
E3
100
AcDbEntity
  8
0
  6
Continuous
100
AcDbLine
 10
96.64436993451994
 20
95.24933920273459
 30
0.0
 11
98.24437055243968
 21
95.24933920273459
 31
0.0
  0
LINE
  5
102
330
E3
100
AcDbEntity
  8
0
  6
Continuous
100
AcDbLine
 10
98.24437055243968
 20
95.24933920273459
 30
0.0
 11
98.24437055243968
 21
119.2493382638863
 31
0.0
  0
LINE
  5
103
330
E3
100
AcDbEntity
  8
0
  6
Continuous
100
AcDbLine
 10
98.24437055243968
 20
119.2493382638863
 30
0.0
 11
96.64436993451994
 21
119.2493382638863
 31
0.0
  0
LINE
  5
104
330
E3
100
AcDbEntity
  8
0
  6
Continuous
100
AcDbLine
 10
96.64436993451994
 20
119.2493382638863
 30
0.0
 11
96.64436993451994
 21
120.2493369488121
 31
0.0
  0
LINE
  5
105
330
E3
100
AcDbEntity
  8
0
  6
Continuous
100
AcDbLine
 10
96.64436993451994
 20
120.2493369488121
 30
0.0
 11
98.24437055243968
 21
120.2493369488121
 31
0.0
  0
LINE
  5
106
330
E3
100
AcDbEntity
  8
0
  6
Continuous
100
AcDbLine
 10
98.24437055243968
 20
120.2493369488121
 30
0.0
 11
98.24437055243968
 21
122.2493377212117
 31
0.0
  0
LINE
  5
107
330
E3
100
AcDbEntity
  8
0
  6
Continuous
100
AcDbLine
 10
98.24437055243968
 20
122.2493377212117
 30
0.0
 11
94.24436900764033
 21
122.2493377212117
 31
0.0
  0
LINE
  5
108
330
E3
100
AcDbEntity
  8
0
  6
Continuous
100
AcDbLine
 10
94.24436900764033
 20
122.2493377212117
 30
0.0
 11
94.24436900764033
 21
92.24933974540916
 31
0.0
  0
LINE
  5
109
330
E3
100
AcDbEntity
  8
0
  6
Continuous
100
AcDbLine
 10
94.24436900764033
 20
92.24933974540916
 30
0.0
 11
98.24437055243968
 21
92.24933974540916
 31
0.0
  0
LINE
  5
10A
330
E3
100
AcDbEntity
  8
0
  6
Continuous
 62
   251
370
    35
100
AcDbLine
 10
91.60654017479278
 20
119.5148118733321
 30
0.0
 11
93.60653754464435
 21
119.5148118733321
 31
0.0
  0
LINE
  5
10B
330
E3
100
AcDbEntity
  8
0
  6
Continuous
 62
   251
370
    35
100
AcDbLine
 10
93.60653754464435
 20
119.5148118733321
 30
0.0
 11
93.60653754464435
 21
103.5148124992309
 31
0.0
  0
LINE
  5
10C
330
E3
100
AcDbEntity
  8
0
  6
Continuous
 62
   251
370
    35
100
AcDbLine
 10
93.60653754464435
 20
103.5148124992309
 30
0.0
 11
79.60653894294289
 21
103.5148124992309
 31
0.0
  0
LINE
  5
10D
330
E3
100
AcDbEntity
  8
0
  6
Continuous
 62
   251
370
    35
100
AcDbLine
 10
75.00418770694655
 20
106.7374134596857
 30
0.0
 11
68.60653979856689
 21
124.3148137270912
 31
0.0
  0
ARC
  5
10E
330
E3
100
AcDbEntity
  8
0
  6
Continuous
 62
   251
370
    35
100
AcDbCircle
 10
79.60653863831004
 20
108.4125309946141
 30
0.0
 40
4.897718090883923
100
AcDbArc
 50
199.9999999999999
 51
270.0
  0
ARC
  5
10F
330
E3
100
AcDbEntity
  8
0
  6
Continuous
 62
   251
370
    35
100
AcDbCircle
 10
68.60653863831007
 20
125.5148129037302
 30
0.0
 40
1.199999999999998
100
AcDbArc
 50
45.00000000000038
 51
270.0
  0
HATCH
  5
110
330
E3
100
AcDbEntity
  8
0
  6
Continuous
 62
   255
370
     0
100
AcDbHatch
 10
0.0
 20
0.0
 30
0.0
210
0.0
220
0.0
230
1.0
  2
SOLID
 70
     1
 71
     0
 91
        1
 92
        3
 72
     0
 73
     1
 93
        4
 10
177.5949620356155
 20
95.24933836574986
 10
186.5949620356154
 20
95.24933836574988
 10
186.5949620356154
 20
109.2493383657499
 10
177.5949620356154
 20
109.2493383657499
 97
        0
 75
     0
 76
     1
 98
        0
  0
LINE
  5
111
330
E3
100
AcDbEntity
  8
0
  6
Continuous
100
AcDbLine
 10
177.5949604912438
 20
95.24933920273459
 30
0.0
 11
186.5949622657683
 21
109.2493378044361
 31
0.0
  0
LINE
  5
112
330
E3
100
AcDbEntity
  8
0
  6
Continuous
100
AcDbLine
 10
177.5949604912438
 20
95.24933920273459
 30
0.0
 11
186.5949622657683
 21
95.24933920273459
 31
0.0
  0
LINE
  5
113
330
E3
100
AcDbEntity
  8
0
  6
Continuous
100
AcDbLine
 10
186.5949622657683
 20
95.24933920273459
 30
0.0
 11
186.5949622657683
 21
109.2493378044361
 31
0.0
  0
LINE
  5
114
330
E3
100
AcDbEntity
  8
0
  6
Continuous
100
AcDbLine
 10
186.5949622657683
 20
109.2493378044361
 30
0.0
 11
177.5949604912438
 21
109.2493378044361
 31
0.0
  0
LINE
  5
115
330
E3
100
AcDbEntity
  8
0
  6
Continuous
100
AcDbLine
 10
177.5949604912438
 20
109.2493378044361
 30
0.0
 11
177.5949604912438
 21
95.24933920273459
 31
0.0
  0
HATCH
  5
116
330
E3
100
AcDbEntity
  8
0
  6
Continuous
 62
   255
370
     0
100
AcDbHatch
 10
0.0
 20
0.0
 30
0.0
210
0.0
220
0.0
230
1.0
  2
SOLID
 70
     1
 71
     0
 91
        1
 92
        3
 72
     0
 73
     1
 93
        4
 10
182.5949620356154
 20
76.33781372357645
 10
186.5949620356154
 20
76.33781372357645
 10
186.5949620356154
 20
85.33781372357645
 10
182.5949620356154
 20
85.33781372357643
 97
        0
 75
     0
 76
     1
 98
        0
  0
LINE
  5
117
330
E3
100
AcDbEntity
  8
0
  6
Continuous
100
AcDbLine
 10
182.5949607209689
 20
76.33781342753332
 30
0.0
 11
186.5949622657683
 21
85.33781520205777
 31
0.0
  0
LINE
  5
118
330
E3
100
AcDbEntity
  8
0
  6
Continuous
100
AcDbLine
 10
182.5949607209689
 20
76.33781342753332
 30
0.0
 11
186.5949622657683
 21
76.33781342753332
 31
0.0
  0
LINE
  5
119
330
E3
100
AcDbEntity
  8
0
  6
Continuous
100
AcDbLine
 10
186.5949622657683
 20
76.33781342753332
 30
0.0
 11
186.5949622657683
 21
85.33781520205777
 31
0.0
  0
LINE
  5
11A
330
E3
100
AcDbEntity
  8
0
  6
Continuous
100
AcDbLine
 10
186.5949622657683
 20
85.33781520205777
 30
0.0
 11
182.5949607209689
 21
85.33781520205777
 31
0.0
  0
LINE
  5
11B
330
E3
100
AcDbEntity
  8
0
  6
Continuous
100
AcDbLine
 10
182.5949607209689
 20
85.33781520205777
 30
0.0
 11
182.5949607209689
 21
76.33781342753332
 31
0.0
  0
HATCH
  5
11C
330
E3
100
AcDbEntity
  8
0
  6
Continuous
 62
   255
370
     0
100
AcDbHatch
 10
0.0
 20
0.0
 30
0.0
210
0.0
220
0.0
230
1.0
  2
SOLID
 70
     1
 71
     0
 91
        1
 92
        3
 72
     0
 73
     1
 93
        4
 10
182.5949612122831
 20
95.2493385347242
 10
180.7949626868521
 20
95.2493385347242
 10
180.7949626868521
 20
39.87183871657226
 10
182.5949612122831
 20
39.87183871657226
 97
        0
 75
     0
 76
     1
 98
        0
  0
HATCH
  5
11D
330
E3
100
AcDbEntity
  8
0
  6
Continuous
100
AcDbHatch
 10
0.0
 20
0.0
 30
0.0
210
0.0
220
0.0
230
1.0
  2
Plaster_0002
 70
     0
 71
     0
 91
        1
 92
        3
 72
     0
 73
     1
 93
        4
 10
182.5949612122831
 20
95.2493385347242
 10
180.7949626868521
 20
95.2493385347242
 10
180.7949626868521
 20
39.87183871657226
 10
182.5949612122831
 20
39.87183871657226
 97
        0
 75
     0
 76
     2
 52
0.0
 41
1.0
 77
     0
 78
     2
 53
0.0
 43
-142.7210172665502
 44
95.8254599850675
 45
0.0
 46
1.732050807568877
 79
     2
 49
0.0
 49
-1.0
 53
0.0
 43
-142.2210172665502
 44
96.69148537330831
 45
0.0
 46
1.732050807568877
 79
     2
 49
0.0
 49
-1.0
 98
        0
  0
LINE
  5
11E
330
E3
100
AcDbEntity
  8
0
  6
Continuous
100
AcDbLine
 10
180.7949626868521
 20
95.2493385347242
 30
0.0
 11
180.7949626868521
 21
39.87183871657226
 31
0.0
  0
LINE
  5
11F
330
E3
100
AcDbEntity
  8
0
  6
Continuous
100
AcDbLine
 10
182.5949612122831
 20
39.87183871657226
 30
0.0
 11
182.5949612122831
 21
95.2493385347242
 31
0.0
  0
LINE
  5
120
330
E3
100
AcDbEntity
  8
0
  6
Continuous
100
AcDbLine
 10
182.5949607209689
 20
95.24933920273459
 30
0.0
 11
180.7949617270833
 21
95.24933920273459
 31
0.0
  0
HATCH
  5
121
330
E3
100
AcDbEntity
  8
0
  6
Continuous
 62
   255
370
     0
100
AcDbHatch
 10
0.0
 20
0.0
 30
0.0
210
0.0
220
0.0
230
1.0
  2
SOLID
 70
     1
 71
     0
 91
        1
 92
        3
 72
     0
 73
     1
 93
        4
 10
188.2443715379502
 20
39.87184116184067
 10
206.2443721978643
 20
39.87184116184067
 10
206.2443721978643
 20
105.2492889990307
 10
188.2443715379502
 20
105.2492889990307
 97
        0
 75
     0
 76
     1
 98
        0
  0
LINE
  5
122
330
E3
100
AcDbEntity
  8
0
  6
Continuous
100
AcDbLine
 10
206.2443721978643
 20
39.87184116184067
 30
0.0
 11
206.2443721978643
 21
105.2492889990307
 31
0.0
  0
LINE
  5
123
330
E3
100
AcDbEntity
  8
0
  6
Continuous
100
AcDbLine
 10
206.2443714314444
 20
105.2492920265111
 30
0.0
 11
188.2443712849436
 21
105.2492920265111
 31
0.0
  0
LINE
  5
124
330
E3
100
AcDbEntity
  8
0
  6
Continuous
100
AcDbLine
 10
188.2443715379502
 20
105.2492889990307
 30
0.0
 11
188.2443715379502
 21
39.87184116184067
 31
0.0
  0
HATCH
  5
125
330
E3
100
AcDbEntity
  8
0
  6
Continuous
 62
   255
370
     0
100
AcDbHatch
 10
0.0
 20
0.0
 30
0.0
210
0.0
220
0.0
230
1.0
  2
SOLID
 70
     1
 71
     0
 91
        1
 92
        3
 72
     0
 73
     1
 93
        4
 10
206.2443721978643
 20
39.87184116184067
 10
208.2443741163682
 20
39.87184116184067
 10
208.2443741163682
 20
105.2492889990307
 10
206.2443721978643
 20
105.2492889990307
 97
        0
 75
     0
 76
     1
 98
        0
  0
HATCH
  5
126
330
E3
100
AcDbEntity
  8
0
  6
Continuous
 62
     9
370
    13
100
AcDbHatch
 10
0.0
 20
0.0
 30
0.0
210
0.0
220
0.0
230
1.0
  2
Gypsum_0002
 70
     0
 71
     0
 91
        1
 92
        3
 72
     0
 73
     1
 93
        4
 10
206.2443721978643
 20
39.87184116184067
 10
208.2443741163682
 20
39.87184116184067
 10
208.2443741163682
 20
105.2492889990307
 10
206.2443721978643
 20
105.2492889990307
 97
        0
 75
     0
 76
     2
 52
0.0
 41
1.0
 77
     0
 78
     1
 53
0.0
 43
-142.7210172665502
 44
95.8254599850675
 45
0.0
 46
0.75
 79
     2
 49
0.0
 49
-0.75
 98
        0
  0
LINE
  5
127
330
E3
100
AcDbEntity
  8
0
  6
Continuous
100
AcDbLine
 10
208.2443741163682
 20
39.87184116184067
 30
0.0
 11
208.2443741163682
 21
105.2492889990307
 31
0.0
  0
LINE
  5
128
330
E3
100
AcDbEntity
  8
0
  6
Continuous
100
AcDbLine
 10
208.2443688012959
 20
105.2492920265111
 30
0.0
 11
206.2443714314444
 21
105.2492920265111
 31
0.0
  0
LINE
  5
129
330
E3
100
AcDbEntity
  8
0
  6
Continuous
100
AcDbLine
 10
206.2443721978643
 20
105.2492889990307
 30
0.0
 11
206.2443721978643
 21
39.87184116184067
 31
0.0
  0
HATCH
  5
12A
330
E3
100
AcDbEntity
  8
0
  6
Continuous
 62
   255
370
     0
100
AcDbHatch
 10
0.0
 20
0.0
 30
0.0
210
0.0
220
0.0
230
1.0
  2
SOLID
 70
     1
 71
     0
 91
        1
 92
        3
 72
     0
 73
     1
 93
        4
 10
206.2443704671367
 20
96.24929195493851
 10
206.2443704671367
 20
105.2492919549385
 10
188.2443704671367
 20
105.2492919549385
 10
188.2443704671367
 20
96.24929195493851
 97
        0
 75
     0
 76
     1
 98
        0
  0
LINE
  5
12B
330
E3
100
AcDbEntity
  8
0
  6
Continuous
100
AcDbLine
 10
206.2443714314444
 20
96.24929365453481
 30
0.0
 11
206.2443714314444
 21
105.2492920265111
 31
0.0
  0
LINE
  5
12C
330
E3
100
AcDbEntity
  8
0
  6
Continuous
100
AcDbLine
 10
206.2443714314444
 20
105.2492920265111
 30
0.0
 11
188.2443712849436
 21
105.2492920265111
 31
0.0
  0
LINE
  5
12D
330
E3
100
AcDbEntity
  8
0
  6
Continuous
100
AcDbLine
 10
188.2443712849436
 20
105.2492920265111
 30
0.0
 11
188.2443712849436
 21
96.24929365453481
 31
0.0
  0
LINE
  5
12E
330
E3
100
AcDbEntity
  8
0
  6
Continuous
100
AcDbLine
 10
188.2443712849436
 20
96.24929365453481
 30
0.0
 11
206.2443714314444
 21
96.24929365453481
 31
0.0
  0
HATCH
  5
12F
330
E3
100
AcDbEntity
  8
0
  6
Continuous
 62
   255
370
     0
100
AcDbHatch
 10
0.0
 20
0.0
 30
0.0
210
0.0
220
0.0
230
1.0
  2
SOLID
 70
     1
 71
     0
 91
        1
 92
        3
 72
     0
 73
     1
 93
        4
 10
216.2443704671367
 20
105.2492919549385
 10
216.2443704671367
 20
112.2492919549385
 10
188.2443704671367
 20
112.2492919549385
 10
188.2443704671367
 20
105.2492919549385
 97
        0
 75
     0
 76
     1
 98
        0
  0
LINE
  5
130
330
E3
100
AcDbEntity
  8
0
  6
Continuous
100
AcDbLine
 10
216.2443718908946
 20
105.2492920265111
 30
0.0
 11
216.2443718908946
 21
112.2492930286359
 31
0.0
  0
LINE
  5
131
330
E3
100
AcDbEntity
  8
0
  6
Continuous
100
AcDbLine
 10
216.2443718908946
 20
112.2492930286359
 30
0.0
 11
188.2443712849436
 21
112.2492930286359
 31
0.0
  0
LINE
  5
132
330
E3
100
AcDbEntity
  8
0
  6
Continuous
100
AcDbLine
 10
188.2443712849436
 20
112.2492930286359
 30
0.0
 11
188.2443712849436
 21
105.2492920265111
 31
0.0
  0
LINE
  5
133
330
E3
100
AcDbEntity
  8
0
  6
Continuous
100
AcDbLine
 10
188.2443712849436
 20
105.2492920265111
 30
0.0
 11
216.2443718908946
 21
105.2492920265111
 31
0.0
  0
LINE
  5
134
330
E3
100
AcDbEntity
  8
0
  6
Continuous
100
AcDbLine
 10
206.2443714314444
 20
96.24929365453481
 30
0.0
 11
188.2443712849436
 21
105.2492920265111
 31
0.0
  0
LINE
  5
135
330
E3
100
AcDbEntity
  8
0
  6
Continuous
100
AcDbLine
 10
206.2443714314444
 20
105.2492920265111
 30
0.0
 11
188.2443712849436
 21
96.24929365453481
 31
0.0
  0
LINE
  5
136
330
E3
100
AcDbEntity
  8
0
  6
Continuous
100
AcDbLine
 10
216.2443718908946
 20
105.2492920265111
 30
0.0
 11
188.2443712849436
 21
112.2492930286359
 31
0.0
  0
LINE
  5
137
330
E3
100
AcDbEntity
  8
0
  6
Continuous
100
AcDbLine
 10
216.2443718908946
 20
112.2492930286359
 30
0.0
 11
188.2443712849436
 21
105.2492920265111
 31
0.0
  0
LINE
  5
138
330
E3
100
AcDbEntity
  8
0
  6
Continuous
 62
   251
370
    35
100
AcDbLine
 10
205.9170701201038
 20
39.87184049302206
 30
0.0
 11
205.636526625033
 21
40.78360430009098
 31
0.0
  0
LINE
  5
139
330
E3
100
AcDbEntity
  8
0
  6
Continuous
 62
   251
370
    35
100
AcDbLine
 10
205.636526625033
 20
40.78360430009098
 30
0.0
 11
204.1169180115527
 21
42.3032133950956
 31
0.0
  0
LINE
  5
13A
330
E3
100
AcDbEntity
  8
0
  6
Continuous
 62
   251
370
    35
100
AcDbLine
 10
204.1169180115527
 20
42.3032133950956
 30
0.0
 11
202.141429195812
 21
42.91105820150697
 31
0.0
  0
LINE
  5
13B
330
E3
100
AcDbEntity
  8
0
  6
Continuous
 62
   251
370
    35
100
AcDbLine
 10
202.141429195812
 20
42.91105820150697
 30
0.0
 11
199.6648505209359
 21
41.84732979028708
 31
0.0
  0
LINE
  5
13C
330
E3
100
AcDbEntity
  8
0
  6
Continuous
 62
   251
370
    35
100
AcDbLine
 10
199.6648505209359
 20
41.84732979028708
 30
0.0
 11
196.8238895653036
 21
39.87184097454638
 31
0.0
  0
LINE
  5
13D
330
E3
100
AcDbEntity
  8
0
  6
Continuous
 62
   251
370
    35
100
AcDbLine
 10
191.9159384698783
 20
39.8718422264137
 30
0.0
 11
190.8522134612065
 21
40.93556723508546
 31
0.0
  0
LINE
  5
13E
330
E3
100
AcDbEntity
  8
0
  6
Continuous
 62
   251
370
    35
100
AcDbLine
 10
190.8522134612065
 20
40.93556723508546
 30
0.0
 11
190.2443720573433
 21
42.91105820150697
 31
0.0
  0
LINE
  5
13F
330
E3
100
AcDbEntity
  8
0
  6
Continuous
 62
   251
370
    35
100
AcDbLine
 10
206.2443714314444
 20
47.01399703459118
 30
0.0
 11
205.636526625033
 21
45.03850821885049
 31
0.0
  0
LINE
  5
140
330
E3
100
AcDbEntity
  8
0
  6
Continuous
 62
   251
370
    35
100
AcDbLine
 10
205.636526625033
 20
45.03850821885049
 30
0.0
 11
204.1169180115527
 21
43.51889960537021
 31
0.0
  0
LINE
  5
141
330
E3
100
AcDbEntity
  8
0
  6
Continuous
 62
   251
370
    35
100
AcDbLine
 10
204.1169180115527
 20
43.51889960537021
 30
0.0
 11
202.141429195812
 21
42.91105820150697
 31
0.0
  0
LINE
  5
142
330
E3
100
AcDbEntity
  8
0
  6
Continuous
 62
   251
370
    35
100
AcDbLine
 10
202.141429195812
 20
42.91105820150697
 30
0.0
 11
199.6648505209359
 21
43.97478321017873
 31
0.0
  0
LINE
  5
143
330
E3
100
AcDbEntity
  8
0
  6
Continuous
 62
   251
370
    35
100
AcDbLine
 10
199.6648505209359
 20
43.97478321017873
 30
0.0
 11
196.8238895653036
 21
45.95027202591941
 31
0.0
  0
LINE
  5
144
330
E3
100
AcDbEntity
  8
0
  6
Continuous
 62
   251
370
    35
100
AcDbLine
 10
196.8238895653036
 20
45.95027202591941
 30
0.0
 11
194.3473108904275
 21
47.01399703459118
 31
0.0
  0
LINE
  5
145
330
E3
100
AcDbEntity
  8
0
  6
Continuous
 62
   251
370
    35
100
AcDbLine
 10
194.3473108904275
 20
47.01399703459118
 30
0.0
 11
192.3718220746868
 21
46.40615563072793
 31
0.0
  0
LINE
  5
146
330
E3
100
AcDbEntity
  8
0
  6
Continuous
 62
   251
370
    35
100
AcDbLine
 10
192.3718220746868
 20
46.40615563072793
 30
0.0
 11
190.8522134612065
 21
44.88654701724764
 31
0.0
  0
LINE
  5
147
330
E3
100
AcDbEntity
  8
0
  6
Continuous
 62
   251
370
    35
100
AcDbLine
 10
190.8522134612065
 20
44.88654701724764
 30
0.0
 11
190.2443720573433
 21
42.91105820150697
 31
0.0
  0
LINE
  5
148
330
E3
100
AcDbEntity
  8
0
  6
Continuous
 62
   251
370
    35
100
AcDbLine
 10
206.2443714314444
 20
47.01399703459118
 30
0.0
 11
205.636526625033
 21
48.98948925287998
 31
0.0
  0
LINE
  5
149
330
E3
100
AcDbEntity
  8
0
  6
Continuous
 62
   251
370
    35
100
AcDbLine
 10
205.636526625033
 20
48.98948925287998
 30
0.0
 11
204.1169180115527
 21
50.50909446381215
 31
0.0
  0
LINE
  5
14A
330
E3
100
AcDbEntity
  8
0
  6
Continuous
 62
   251
370
    35
100
AcDbLine
 10
204.1169180115527
 20
50.50909446381215
 30
0.0
 11
202.141429195812
 21
51.11693927022351
 31
0.0
  0
LINE
  5
14B
330
E3
100
AcDbEntity
  8
0
  6
Continuous
 62
   251
370
    35
100
AcDbLine
 10
202.141429195812
 20
51.11693927022351
 30
0.0
 11
199.6648505209359
 21
50.05321426155174
 31
0.0
  0
LINE
  5
14C
330
E3
100
AcDbEntity
  8
0
  6
Continuous
 62
   251
370
    35
100
AcDbLine
 10
199.6648505209359
 20
50.05321426155174
 30
0.0
 11
196.8238895653036
 21
48.07772204326294
 31
0.0
  0
LINE
  5
14D
330
E3
100
AcDbEntity
  8
0
  6
Continuous
 62
   251
370
    35
100
AcDbLine
 10
196.8238895653036
 20
48.07772204326294
 30
0.0
 11
194.3473108904275
 21
47.01399703459118
 31
0.0
  0
LINE
  5
14E
330
E3
100
AcDbEntity
  8
0
  6
Continuous
 62
   251
370
    35
100
AcDbLine
 10
194.3473108904275
 20
47.01399703459118
 30
0.0
 11
192.3718220746868
 21
47.62184184100254
 31
0.0
  0
LINE
  5
14F
330
E3
100
AcDbEntity
  8
0
  6
Continuous
 62
   251
370
    35
100
AcDbLine
 10
192.3718220746868
 20
47.62184184100254
 30
0.0
 11
190.8522134612065
 21
49.14145045448282
 31
0.0
  0
LINE
  5
150
330
E3
100
AcDbEntity
  8
0
  6
Continuous
 62
   251
370
    35
100
AcDbLine
 10
190.8522134612065
 20
49.14145045448282
 30
0.0
 11
190.2443720573433
 21
51.11693927022351
 31
0.0
  0
LINE
  5
151
330
E3
100
AcDbEntity
  8
0
  6
Continuous
 62
   251
370
    35
100
AcDbLine
 10
206.2443714314444
 20
55.21988150585585
 30
0.0
 11
205.636526625033
 21
53.24438928756704
 31
0.0
  0
LINE
  5
152
330
E3
100
AcDbEntity
  8
0
  6
Continuous
 62
   251
370
    35
100
AcDbLine
 10
205.636526625033
 20
53.24438928756704
 30
0.0
 11
204.1169180115527
 21
51.72478067408675
 31
0.0
  0
LINE
  5
153
330
E3
100
AcDbEntity
  8
0
  6
Continuous
 62
   251
370
    35
100
AcDbLine
 10
204.1169180115527
 20
51.72478067408675
 30
0.0
 11
202.141429195812
 21
51.11693927022351
 31
0.0
  0
LINE
  5
154
330
E3
100
AcDbEntity
  8
0
  6
Continuous
 62
   251
370
    35
100
AcDbLine
 10
202.141429195812
 20
51.11693927022351
 30
0.0
 11
199.6648505209359
 21
52.18066427889527
 31
0.0
  0
LINE
  5
155
330
E3
100
AcDbEntity
  8
0
  6
Continuous
 62
   251
370
    35
100
AcDbLine
 10
199.6648505209359
 20
52.18066427889527
 30
0.0
 11
196.8238895653036
 21
54.15615309463596
 31
0.0
  0
LINE
  5
156
330
E3
100
AcDbEntity
  8
0
  6
Continuous
 62
   251
370
    35
100
AcDbLine
 10
196.8238895653036
 20
54.15615309463596
 30
0.0
 11
194.3473108904275
 21
55.21988150585585
 31
0.0
  0
LINE
  5
157
330
E3
100
AcDbEntity
  8
0
  6
Continuous
 62
   251
370
    35
100
AcDbLine
 10
194.3473108904275
 20
55.21988150585585
 30
0.0
 11
192.3718220746868
 21
54.61203669944448
 31
0.0
  0
LINE
  5
158
330
E3
100
AcDbEntity
  8
0
  6
Continuous
 62
   251
370
    35
100
AcDbLine
 10
192.3718220746868
 20
54.61203669944448
 30
0.0
 11
190.8522134612065
 21
53.0924280859642
 31
0.0
  0
LINE
  5
159
330
E3
100
AcDbEntity
  8
0
  6
Continuous
 62
   251
370
    35
100
AcDbLine
 10
190.8522134612065
 20
53.0924280859642
 30
0.0
 11
190.2443720573433
 21
51.11693927022351
 31
0.0
  0
LINE
  5
15A
330
E3
100
AcDbEntity
  8
0
  6
Continuous
 62
   251
370
    35
100
AcDbLine
 10
206.2443714314444
 20
55.21988150585585
 30
0.0
 11
205.636526625033
 21
57.19537032159653
 31
0.0
  0
LINE
  5
15B
330
E3
100
AcDbEntity
  8
0
  6
Continuous
 62
   251
370
    35
100
AcDbLine
 10
205.636526625033
 20
57.19537032159653
 30
0.0
 11
204.1169180115527
 21
58.71497893507681
 31
0.0
  0
LINE
  5
15C
330
E3
100
AcDbEntity
  8
0
  6
Continuous
 62
   251
370
    35
100
AcDbLine
 10
204.1169180115527
 20
58.71497893507681
 30
0.0
 11
202.141429195812
 21
59.32282033894005
 31
0.0
  0
LINE
  5
15D
330
E3
100
AcDbEntity
  8
0
  6
Continuous
 62
   251
370
    35
100
AcDbLine
 10
202.141429195812
 20
59.32282033894005
 30
0.0
 11
199.6648505209359
 21
58.25909533026829
 31
0.0
  0
LINE
  5
15E
330
E3
100
AcDbEntity
  8
0
  6
Continuous
 62
   251
370
    35
100
AcDbLine
 10
199.6648505209359
 20
58.25909533026829
 30
0.0
 11
196.8238895653036
 21
56.2836065145276
 31
0.0
  0
LINE
  5
15F
330
E3
100
AcDbEntity
  8
0
  6
Continuous
 62
   251
370
    35
100
AcDbLine
 10
196.8238895653036
 20
56.2836065145276
 30
0.0
 11
194.3473108904275
 21
55.21988150585585
 31
0.0
  0
LINE
  5
160
330
E3
100
AcDbEntity
  8
0
  6
Continuous
 62
   251
370
    35
100
AcDbLine
 10
194.3473108904275
 20
55.21988150585585
 30
0.0
 11
192.3718220746868
 21
55.82772290971909
 31
0.0
  0
LINE
  5
161
330
E3
100
AcDbEntity
  8
0
  6
Continuous
 62
   251
370
    35
100
AcDbLine
 10
192.3718220746868
 20
55.82772290971909
 30
0.0
 11
190.8522134612065
 21
57.34733152319937
 31
0.0
  0
LINE
  5
162
330
E3
100
AcDbEntity
  8
0
  6
Continuous
 62
   251
370
    35
100
AcDbLine
 10
190.8522134612065
 20
57.34733152319937
 30
0.0
 11
190.2443720573433
 21
59.32282033894005
 31
0.0
  0
LINE
  5
163
330
E3
100
AcDbEntity
  8
0
  6
Continuous
 62
   251
370
    35
100
AcDbLine
 10
206.2443714314444
 20
63.42576257457239
 30
0.0
 11
205.636526625033
 21
61.45027375883171
 31
0.0
  0
LINE
  5
164
330
E3
100
AcDbEntity
  8
0
  6
Continuous
 62
   251
370
    35
100
AcDbLine
 10
205.636526625033
 20
61.45027375883171
 30
0.0
 11
204.1169180115527
 21
59.93066514535142
 31
0.0
  0
LINE
  5
165
330
E3
100
AcDbEntity
  8
0
  6
Continuous
 62
   251
370
    35
100
AcDbLine
 10
204.1169180115527
 20
59.93066514535142
 30
0.0
 11
202.141429195812
 21
59.32282033894005
 31
0.0
  0
LINE
  5
166
330
E3
100
AcDbEntity
  8
0
  6
Continuous
 62
   251
370
    35
100
AcDbLine
 10
202.141429195812
 20
59.32282033894005
 30
0.0
 11
199.6648505209359
 21
60.38654534761182
 31
0.0
  0
LINE
  5
167
330
E3
100
AcDbEntity
  8
0
  6
Continuous
 62
   251
370
    35
100
AcDbLine
 10
199.6648505209359
 20
60.38654534761182
 30
0.0
 11
196.8238895653036
 21
62.36203756590063
 31
0.0
  0
LINE
  5
168
330
E3
100
AcDbEntity
  8
0
  6
Continuous
 62
   251
370
    35
100
AcDbLine
 10
196.8238895653036
 20
62.36203756590063
 30
0.0
 11
194.3473108904275
 21
63.42576257457239
 31
0.0
  0
LINE
  5
169
330
E3
100
AcDbEntity
  8
0
  6
Continuous
 62
   251
370
    35
100
AcDbLine
 10
194.3473108904275
 20
63.42576257457239
 30
0.0
 11
192.3718220746868
 21
62.81791776816104
 31
0.0
  0
LINE
  5
16A
330
E3
100
AcDbEntity
  8
0
  6
Continuous
 62
   251
370
    35
100
AcDbLine
 10
192.3718220746868
 20
62.81791776816104
 30
0.0
 11
190.8522134612065
 21
61.29831255722887
 31
0.0
  0
LINE
  5
16B
330
E3
100
AcDbEntity
  8
0
  6
Continuous
 62
   251
370
    35
100
AcDbLine
 10
190.8522134612065
 20
61.29831255722887
 30
0.0
 11
190.2443720573433
 21
59.32282033894005
 31
0.0
  0
LINE
  5
16C
330
E3
100
AcDbEntity
  8
0
  6
Continuous
 62
   251
370
    35
100
AcDbLine
 10
206.2443714314444
 20
63.42576257457239
 30
0.0
 11
205.636526625033
 21
65.40125139031308
 31
0.0
  0
LINE
  5
16D
330
E3
100
AcDbEntity
  8
0
  6
Continuous
 62
   251
370
    35
100
AcDbLine
 10
205.636526625033
 20
65.40125139031308
 30
0.0
 11
204.1169180115527
 21
66.92086000379335
 31
0.0
  0
LINE
  5
16E
330
E3
100
AcDbEntity
  8
0
  6
Continuous
 62
   251
370
    35
100
AcDbLine
 10
204.1169180115527
 20
66.92086000379335
 30
0.0
 11
202.141429195812
 21
67.52870481020473
 31
0.0
  0
LINE
  5
16F
330
E3
100
AcDbEntity
  8
0
  6
Continuous
 62
   251
370
    35
100
AcDbLine
 10
202.141429195812
 20
67.52870481020473
 30
0.0
 11
199.6648505209359
 21
66.46497980153296
 31
0.0
  0
LINE
  5
170
330
E3
100
AcDbEntity
  8
0
  6
Continuous
 62
   251
370
    35
100
AcDbLine
 10
199.6648505209359
 20
66.46497980153296
 30
0.0
 11
196.8238895653036
 21
64.48948758324416
 31
0.0
  0
LINE
  5
171
330
E3
100
AcDbEntity
  8
0
  6
Continuous
 62
   251
370
    35
100
AcDbLine
 10
196.8238895653036
 20
64.48948758324416
 30
0.0
 11
194.3473108904275
 21
63.42576257457239
 31
0.0
  0
LINE
  5
172
330
E3
100
AcDbEntity
  8
0
  6
Continuous
 62
   251
370
    35
100
AcDbLine
 10
194.3473108904275
 20
63.42576257457239
 30
0.0
 11
192.3718220746868
 21
64.03360738098375
 31
0.0
  0
LINE
  5
173
330
E3
100
AcDbEntity
  8
0
  6
Continuous
 62
   251
370
    35
100
AcDbLine
 10
192.3718220746868
 20
64.03360738098375
 30
0.0
 11
190.8522134612065
 21
65.55321259191592
 31
0.0
  0
LINE
  5
174
330
E3
100
AcDbEntity
  8
0
  6
Continuous
 62
   251
370
    35
100
AcDbLine
 10
190.8522134612065
 20
65.55321259191592
 30
0.0
 11
190.2443720573433
 21
67.52870481020473
 31
0.0
  0
LINE
  5
175
330
E3
100
AcDbEntity
  8
0
  6
Continuous
 62
   251
370
    35
100
AcDbLine
 10
206.2443714314444
 20
71.63164364328894
 30
0.0
 11
205.636526625033
 21
69.65615482754825
 31
0.0
  0
LINE
  5
176
330
E3
100
AcDbEntity
  8
0
  6
Continuous
 62
   251
370
    35
100
AcDbLine
 10
205.636526625033
 20
69.65615482754825
 30
0.0
 11
204.1169180115527
 21
68.13654621406796
 31
0.0
  0
LINE
  5
177
330
E3
100
AcDbEntity
  8
0
  6
Continuous
 62
   251
370
    35
100
AcDbLine
 10
204.1169180115527
 20
68.13654621406796
 30
0.0
 11
202.141429195812
 21
67.52870481020473
 31
0.0
  0
LINE
  5
178
330
E3
100
AcDbEntity
  8
0
  6
Continuous
 62
   251
370
    35
100
AcDbLine
 10
202.141429195812
 20
67.52870481020473
 30
0.0
 11
199.6648505209359
 21
68.5924298188765
 31
0.0
  0
LINE
  5
179
330
E3
100
AcDbEntity
  8
0
  6
Continuous
 62
   251
370
    35
100
AcDbLine
 10
199.6648505209359
 20
68.5924298188765
 30
0.0
 11
196.8238895653036
 21
70.56791863461717
 31
0.0
  0
LINE
  5
17A
330
E3
100
AcDbEntity
  8
0
  6
Continuous
 62
   251
370
    35
100
AcDbLine
 10
196.8238895653036
 20
70.56791863461717
 30
0.0
 11
194.3473108904275
 21
71.63164364328894
 31
0.0
  0
LINE
  5
17B
330
E3
100
AcDbEntity
  8
0
  6
Continuous
 62
   251
370
    35
100
AcDbLine
 10
194.3473108904275
 20
71.63164364328894
 30
0.0
 11
192.3718220746868
 21
71.02380223942569
 31
0.0
  0
LINE
  5
17C
330
E3
100
AcDbEntity
  8
0
  6
Continuous
 62
   251
370
    35
100
AcDbLine
 10
192.3718220746868
 20
71.02380223942569
 30
0.0
 11
190.8522134612065
 21
69.5041936259454
 31
0.0
  0
LINE
  5
17D
330
E3
100
AcDbEntity
  8
0
  6
Continuous
 62
   251
370
    35
100
AcDbLine
 10
190.8522134612065
 20
69.5041936259454
 30
0.0
 11
190.2443720573433
 21
67.52870481020473
 31
0.0
  0
LINE
  5
17E
330
E3
100
AcDbEntity
  8
0
  6
Continuous
 62
   251
370
    35
100
AcDbLine
 10
206.2443714314444
 20
71.63164364328894
 30
0.0
 11
205.636526625033
 21
73.60713586157775
 31
0.0
  0
LINE
  5
17F
330
E3
100
AcDbEntity
  8
0
  6
Continuous
 62
   251
370
    35
100
AcDbLine
 10
205.636526625033
 20
73.60713586157775
 30
0.0
 11
204.1169180115527
 21
75.12674447505802
 31
0.0
  0
LINE
  5
180
330
E3
100
AcDbEntity
  8
0
  6
Continuous
 62
   251
370
    35
100
AcDbLine
 10
204.1169180115527
 20
75.12674447505802
 30
0.0
 11
202.141429195812
 21
75.73458587892127
 31
0.0
  0
LINE
  5
181
330
E3
100
AcDbEntity
  8
0
  6
Continuous
 62
   251
370
    35
100
AcDbLine
 10
202.141429195812
 20
75.73458587892127
 30
0.0
 11
199.6648505209359
 21
74.67086087024951
 31
0.0
  0
LINE
  5
182
330
E3
100
AcDbEntity
  8
0
  6
Continuous
 62
   251
370
    35
100
AcDbLine
 10
199.6648505209359
 20
74.67086087024951
 30
0.0
 11
196.8238895653036
 21
72.69537205450882
 31
0.0
  0
LINE
  5
183
330
E3
100
AcDbEntity
  8
0
  6
Continuous
 62
   251
370
    35
100
AcDbLine
 10
196.8238895653036
 20
72.69537205450882
 30
0.0
 11
194.3473108904275
 21
71.63164364328894
 31
0.0
  0
LINE
  5
184
330
E3
100
AcDbEntity
  8
0
  6
Continuous
 62
   251
370
    35
100
AcDbLine
 10
194.3473108904275
 20
71.63164364328894
 30
0.0
 11
192.3718220746868
 21
72.23948844970029
 31
0.0
  0
LINE
  5
185
330
E3
100
AcDbEntity
  8
0
  6
Continuous
 62
   251
370
    35
100
AcDbLine
 10
192.3718220746868
 20
72.23948844970029
 30
0.0
 11
190.8522134612065
 21
73.75909706318058
 31
0.0
  0
LINE
  5
186
330
E3
100
AcDbEntity
  8
0
  6
Continuous
 62
   251
370
    35
100
AcDbLine
 10
190.8522134612065
 20
73.75909706318058
 30
0.0
 11
190.2443720573433
 21
75.73458587892127
 31
0.0
  0
LINE
  5
187
330
E3
100
AcDbEntity
  8
0
  6
Continuous
 62
   251
370
    35
100
AcDbLine
 10
206.2443714314444
 20
79.8375281145536
 30
0.0
 11
205.636526625033
 21
77.8620358962648
 31
0.0
  0
LINE
  5
188
330
E3
100
AcDbEntity
  8
0
  6
Continuous
 62
   251
370
    35
100
AcDbLine
 10
205.636526625033
 20
77.8620358962648
 30
0.0
 11
204.1169180115527
 21
76.34243068533264
 31
0.0
  0
LINE
  5
189
330
E3
100
AcDbEntity
  8
0
  6
Continuous
 62
   251
370
    35
100
AcDbLine
 10
204.1169180115527
 20
76.34243068533264
 30
0.0
 11
202.141429195812
 21
75.73458587892127
 31
0.0
  0
LINE
  5
18A
330
E3
100
AcDbEntity
  8
0
  6
Continuous
 62
   251
370
    35
100
AcDbLine
 10
202.141429195812
 20
75.73458587892127
 30
0.0
 11
199.6648505209359
 21
76.79831088759303
 31
0.0
  0
LINE
  5
18B
330
E3
100
AcDbEntity
  8
0
  6
Continuous
 62
   251
370
    35
100
AcDbLine
 10
199.6648505209359
 20
76.79831088759303
 30
0.0
 11
196.8238895653036
 21
78.77380310588184
 31
0.0
  0
LINE
  5
18C
330
E3
100
AcDbEntity
  8
0
  6
Continuous
 62
   251
370
    35
100
AcDbLine
 10
196.8238895653036
 20
78.77380310588184
 30
0.0
 11
194.3473108904275
 21
79.8375281145536
 31
0.0
  0
LINE
  5
18D
330
E3
100
AcDbEntity
  8
0
  6
Continuous
 62
   251
370
    35
100
AcDbLine
 10
194.3473108904275
 20
79.8375281145536
 30
0.0
 11
192.3718220746868
 21
79.22968330814224
 31
0.0
  0
LINE
  5
18E
330
E3
100
AcDbEntity
  8
0
  6
Continuous
 62
   251
370
    35
100
AcDbLine
 10
192.3718220746868
 20
79.22968330814224
 30
0.0
 11
190.8522134612065
 21
77.71007469466196
 31
0.0
  0
LINE
  5
18F
330
E3
100
AcDbEntity
  8
0
  6
Continuous
 62
   251
370
    35
100
AcDbLine
 10
190.8522134612065
 20
77.71007469466196
 30
0.0
 11
190.2443720573433
 21
75.73458587892127
 31
0.0
  0
LINE
  5
190
330
E3
100
AcDbEntity
  8
0
  6
Continuous
 62
   251
370
    35
100
AcDbLine
 10
206.2443714314444
 20
79.8375281145536
 30
0.0
 11
205.636526625033
 21
81.81301693029428
 31
0.0
  0
LINE
  5
191
330
E3
100
AcDbEntity
  8
0
  6
Continuous
 62
   251
370
    35
100
AcDbLine
 10
205.636526625033
 20
81.81301693029428
 30
0.0
 11
204.1169180115527
 21
83.33262554377457
 31
0.0
  0
LINE
  5
192
330
E3
100
AcDbEntity
  8
0
  6
Continuous
 62
   251
370
    35
100
AcDbLine
 10
204.1169180115527
 20
83.33262554377457
 30
0.0
 11
202.141429195812
 21
83.94046694763782
 31
0.0
  0
LINE
  5
193
330
E3
100
AcDbEntity
  8
0
  6
Continuous
 62
   251
370
    35
100
AcDbLine
 10
202.141429195812
 20
83.94046694763782
 30
0.0
 11
199.6648505209359
 21
82.87674193896605
 31
0.0
  0
LINE
  5
194
330
E3
100
AcDbEntity
  8
0
  6
Continuous
 62
   251
370
    35
100
AcDbLine
 10
199.6648505209359
 20
82.87674193896605
 30
0.0
 11
196.8238895653036
 21
80.90125312322537
 31
0.0
  0
LINE
  5
195
330
E3
100
AcDbEntity
  8
0
  6
Continuous
 62
   251
370
    35
100
AcDbLine
 10
196.8238895653036
 20
80.90125312322537
 30
0.0
 11
194.3473108904275
 21
79.8375281145536
 31
0.0
  0
LINE
  5
196
330
E3
100
AcDbEntity
  8
0
  6
Continuous
 62
   251
370
    35
100
AcDbLine
 10
194.3473108904275
 20
79.8375281145536
 30
0.0
 11
192.3718220746868
 21
80.44536951841684
 31
0.0
  0
LINE
  5
197
330
E3
100
AcDbEntity
  8
0
  6
Continuous
 62
   251
370
    35
100
AcDbLine
 10
192.3718220746868
 20
80.44536951841684
 30
0.0
 11
190.8522134612065
 21
81.96497813189713
 31
0.0
  0
LINE
  5
198
330
E3
100
AcDbEntity
  8
0
  6
Continuous
 62
   251
370
    35
100
AcDbLine
 10
190.8522134612065
 20
81.96497813189713
 30
0.0
 11
190.2443720573433
 21
83.94046694763782
 31
0.0
  0
LINE
  5
199
330
E3
100
AcDbEntity
  8
0
  6
Continuous
 62
   251
370
    35
100
AcDbLine
 10
206.2443714314444
 20
88.04340918327016
 30
0.0
 11
205.636526625033
 21
86.06792036752945
 31
0.0
  0
LINE
  5
19A
330
E3
100
AcDbEntity
  8
0
  6
Continuous
 62
   251
370
    35
100
AcDbLine
 10
205.636526625033
 20
86.06792036752945
 30
0.0
 11
204.1169180115527
 21
84.54831175404917
 31
0.0
  0
LINE
  5
19B
330
E3
100
AcDbEntity
  8
0
  6
Continuous
 62
   251
370
    35
100
AcDbLine
 10
204.1169180115527
 20
84.54831175404917
 30
0.0
 11
202.141429195812
 21
83.94046694763782
 31
0.0
  0
LINE
  5
19C
330
E3
100
AcDbEntity
  8
0
  6
Continuous
 62
   251
370
    35
100
AcDbLine
 10
202.141429195812
 20
83.94046694763782
 30
0.0
 11
199.6648505209359
 21
85.0041953588577
 31
0.0
  0
LINE
  5
19D
330
E3
100
AcDbEntity
  8
0
  6
Continuous
 62
   251
370
    35
100
AcDbLine
 10
199.6648505209359
 20
85.0041953588577
 30
0.0
 11
196.8238895653036
 21
86.97968417459839
 31
0.0
  0
LINE
  5
19E
330
E3
100
AcDbEntity
  8
0
  6
Continuous
 62
   251
370
    35
100
AcDbLine
 10
196.8238895653036
 20
86.97968417459839
 30
0.0
 11
194.3473108904275
 21
88.04340918327016
 31
0.0
  0
LINE
  5
19F
330
E3
100
AcDbEntity
  8
0
  6
Continuous
 62
   251
370
    35
100
AcDbLine
 10
194.3473108904275
 20
88.04340918327016
 30
0.0
 11
192.3718220746868
 21
87.43556777940691
 31
0.0
  0
LINE
  5
1A0
330
E3
100
AcDbEntity
  8
0
  6
Continuous
 62
   251
370
    35
100
AcDbLine
 10
192.3718220746868
 20
87.43556777940691
 30
0.0
 11
190.8522134612065
 21
85.91595916592662
 31
0.0
  0
LINE
  5
1A1
330
E3
100
AcDbEntity
  8
0
  6
Continuous
 62
   251
370
    35
100
AcDbLine
 10
190.8522134612065
 20
85.91595916592662
 30
0.0
 11
190.2443720573433
 21
83.94046694763782
 31
0.0
  0
LINE
  5
1A2
330
E3
100
AcDbEntity
  8
0
  6
Continuous
 62
   251
370
    35
100
AcDbLine
 10
206.2443714314444
 20
88.04340918327016
 30
0.0
 11
205.636526625033
 21
90.01890140155895
 31
0.0
  0
LINE
  5
1A3
330
E3
100
AcDbEntity
  8
0
  6
Continuous
 62
   251
370
    35
100
AcDbLine
 10
205.636526625033
 20
90.01890140155895
 30
0.0
 11
204.1169180115527
 21
91.53850661249112
 31
0.0
  0
LINE
  5
1A4
330
E3
100
AcDbEntity
  8
0
  6
Continuous
 62
   251
370
    35
100
AcDbLine
 10
204.1169180115527
 20
91.53850661249112
 30
0.0
 11
202.141429195812
 21
92.14635141890248
 31
0.0
  0
LINE
  5
1A5
330
E3
100
AcDbEntity
  8
0
  6
Continuous
 62
   251
370
    35
100
AcDbLine
 10
202.141429195812
 20
92.14635141890248
 30
0.0
 11
199.6648505209359
 21
91.08262641023072
 31
0.0
  0
LINE
  5
1A6
330
E3
100
AcDbEntity
  8
0
  6
Continuous
 62
   251
370
    35
100
AcDbLine
 10
199.6648505209359
 20
91.08262641023072
 30
0.0
 11
196.8238895653036
 21
89.10713419194191
 31
0.0
  0
LINE
  5
1A7
330
E3
100
AcDbEntity
  8
0
  6
Continuous
 62
   251
370
    35
100
AcDbLine
 10
196.8238895653036
 20
89.10713419194191
 30
0.0
 11
194.3473108904275
 21
88.04340918327016
 31
0.0
  0
LINE
  5
1A8
330
E3
100
AcDbEntity
  8
0
  6
Continuous
 62
   251
370
    35
100
AcDbLine
 10
194.3473108904275
 20
88.04340918327016
 30
0.0
 11
192.3718220746868
 21
88.65125398968152
 31
0.0
  0
LINE
  5
1A9
330
E3
100
AcDbEntity
  8
0
  6
Continuous
 62
   251
370
    35
100
AcDbLine
 10
192.3718220746868
 20
88.65125398968152
 30
0.0
 11
190.8522134612065
 21
90.17085920061369
 31
0.0
  0
LINE
  5
1AA
330
E3
100
AcDbEntity
  8
0
  6
Continuous
 62
   251
370
    35
100
AcDbLine
 10
190.8522134612065
 20
90.17085920061369
 30
0.0
 11
190.2443720573433
 21
92.14635141890248
 31
0.0
  0
LINE
  5
1AB
330
E3
100
AcDbEntity
  8
0
  6
Continuous
 62
   251
370
    35
100
AcDbLine
 10
206.2443714314444
 20
96.24929365453481
 30
0.0
 11
205.636526625033
 21
94.273801436246
 31
0.0
  0
LINE
  5
1AC
330
E3
100
AcDbEntity
  8
0
  6
Continuous
 62
   251
370
    35
100
AcDbLine
 10
205.636526625033
 20
94.273801436246
 30
0.0
 11
204.1169180115527
 21
92.75419282276573
 31
0.0
  0
LINE
  5
1AD
330
E3
100
AcDbEntity
  8
0
  6
Continuous
 62
   251
370
    35
100
AcDbLine
 10
204.1169180115527
 20
92.75419282276573
 30
0.0
 11
202.141429195812
 21
92.14635141890248
 31
0.0
  0
LINE
  5
1AE
330
E3
100
AcDbEntity
  8
0
  6
Continuous
 62
   251
370
    35
100
AcDbLine
 10
202.141429195812
 20
92.14635141890248
 30
0.0
 11
199.6648505209359
 21
93.21007642757424
 31
0.0
  0
LINE
  5
1AF
330
E3
100
AcDbEntity
  8
0
  6
Continuous
 62
   251
370
    35
100
AcDbLine
 10
199.6648505209359
 20
93.21007642757424
 30
0.0
 11
196.8238895653036
 21
95.18556524331493
 31
0.0
  0
LINE
  5
1B0
330
E3
100
AcDbEntity
  8
0
  6
Continuous
 62
   251
370
    35
100
AcDbLine
 10
196.8238895653036
 20
95.18556524331493
 30
0.0
 11
194.3473108904275
 21
96.24929365453481
 31
0.0
  0
LINE
  5
1B1
330
E3
100
AcDbEntity
  8
0
  6
Continuous
 62
   251
370
    35
100
AcDbLine
 10
194.3473108904275
 20
96.24929365453481
 30
0.0
 11
192.3718220746868
 21
95.64144884812345
 31
0.0
  0
LINE
  5
1B2
330
E3
100
AcDbEntity
  8
0
  6
Continuous
 62
   251
370
    35
100
AcDbLine
 10
192.3718220746868
 20
95.64144884812345
 30
0.0
 11
190.8522134612065
 21
94.12184023464316
 31
0.0
  0
LINE
  5
1B3
330
E3
100
AcDbEntity
  8
0
  6
Continuous
 62
   251
370
    35
100
AcDbLine
 10
190.8522134612065
 20
94.12184023464316
 30
0.0
 11
190.2443720573433
 21
92.14635141890248
 31
0.0
  0
HATCH
  5
1B4
330
E3
100
AcDbEntity
  8
0
  6
Continuous
 62
   255
370
     0
100
AcDbHatch
 10
0.0
 20
0.0
 30
0.0
210
0.0
220
0.0
230
1.0
  2
SOLID
 70
     1
 71
     0
 91
        1
 92
        3
 72
     0
 73
     1
 93
        4
 10
208.2443673000084
 20
105.2492900949993
 10
208.2443673000084
 20
103.2492945733608
 10
256.5849458923345
 20
103.2492945733608
 10
256.5849458923345
 20
105.2492900949993
 97
        0
 75
     0
 76
     1
 98
        0
  0
HATCH
  5
1B5
330
E3
100
AcDbEntity
  8
0
  6
Continuous
 62
     9
370
    13
100
AcDbHatch
 10
0.0
 20
0.0
 30
0.0
210
0.0
220
0.0
230
1.0
  2
Gypsum_0002
 70
     0
 71
     0
 91
        1
 92
        3
 72
     0
 73
     1
 93
        4
 10
208.2443673000084
 20
105.2492900949993
 10
208.2443673000084
 20
103.2492945733608
 10
256.5849458923345
 20
103.2492945733608
 10
256.5849458923345
 20
105.2492900949993
 97
        0
 75
     0
 76
     2
 52
0.0
 41
1.0
 77
     0
 78
     1
 53
0.0
 43
-142.7210172665502
 44
95.8254599850675
 45
0.0
 46
0.75
 79
     2
 49
0.0
 49
-0.75
 98
        0
  0
LINE
  5
1B6
330
E3
100
AcDbEntity
  8
0
  6
Continuous
100
AcDbLine
 10
208.2443673000084
 20
103.2492945733608
 30
0.0
 11
256.5849458923345
 21
103.2492945733608
 31
0.0
  0
LINE
  5
1B7
330
E3
100
AcDbEntity
  8
0
  6
Continuous
100
AcDbLine
 10
256.5849458923345
 20
105.2492900949993
 30
0.0
 11
208.2443673000084
 21
105.2492900949993
 31
0.0
  0
LINE
  5
1B8
330
E3
100
AcDbEntity
  8
0
  6
Continuous
100
AcDbLine
 10
208.2443688012959
 20
105.2492920265111
 30
0.0
 11
208.2443688012959
 21
103.2492912541115
 31
0.0
  0
LINE
  5
1BA
330
E3
100
AcDbEntity
  8
0
  6
Dashed
100
AcDbLine
 10
90.55691616878991
 20
124.1682306364346
 30
0.0
 11
256.5849478240107
 21
153.4434511420612
 31
0.0
  0
LINE
  5
1BB
330
E3
100
AcDbEntity
  8
0
  6
Dashed
100
AcDbLine
 10
106.4066513695421
 20
131.958073256464
 30
0.0
 11
109.0733236028058
 21
132.428278186311
 31
0.0
  0
LINE
  5
1BC
330
E3
100
AcDbEntity
  8
0
  6
Dashed
100
AcDbLine
 10
187.4417918445085
 20
111.4881307749595
 30
0.0
 11
187.4417918445085
 21
39.87184234558415
 31
0.0
  0
LINE
  5
1BD
330
E3
100
AcDbEntity
  8
0
  6
Dashed
100
AcDbLine
 10
88.15497834877168
 20
121.7049368270524
 30
0.0
 11
90.55691532553176
 21
124.1682319540667
 31
0.0
  0
LWPOLYLINE
  5
1BE
330
E3
100
AcDbEntity
  8
0
  6
Continuous
100
AcDbPolyline
 90
        6
 70
   128
 43
0.0
 10
113.88798818437
 20
127.8152763888228
 10
116.503079720731
 20
128.2695058685406
 10
116.6733739717062
 20
127.9486593041695
 10
116.5451807218177
 20
127.6876570806202
 10
91.94604032738022
 20
123.3501649268454
 10
87.40309705074203
 20
116.2981436087252
  0
HATCH
  5
1BF
330
E3
100
AcDbEntity
  8
0
  6
Continuous
 62
   255
370
     0
100
AcDbHatch
 10
0.0
 20
0.0
 30
0.0
210
0.0
220
0.0
230
1.0
  2
SOLID
 70
     1
 71
     0
 91
        1
 92
        3
 72
     0
 73
     1
 93
        8
 10
229.1153381367401
 20
131.7981207796043
 10
217.3468719181879
 20
130.4850461155116
 10
223.5784062547938
 20
129.1719611788179
 10
229.1043156359807
 20
97.83296781740555
 10
256.5849509193534
 20
97.83296781740555
 10
256.5849509193534
 20
164.4501888051095
 10
217.3579046915482
 20
164.4501888051095
 10
222.8838140727351
 20
133.1111954436972
 97
        0
 75
     0
 76
     1
 98
        0
  0
LINE
  5
1C0
330
E3
100
AcDbEntity
  8
0
  6
Continuous
100
AcDbLine
 10
217.3578999964039
 20
164.4501893444083
 30
0.0
 11
222.8838116738024
 21
133.1111968144497
 31
0.0
  0
LINE
  5
1C1
330
E3
100
AcDbEntity
  8
0
  6
Continuous
100
AcDbLine
 10
223.578404444542
 20
129.1719647790798
 30
0.0
 11
229.1043161219405
 21
97.83297224912124
 31
0.0
  0
LINE
  5
1C2
330
E3
100
AcDbEntity
  8
0
  6
Continuous
100
AcDbLine
 10
223.578404444542
 20
129.1719647790798
 30
0.0
 11
217.3468723379458
 21
130.4850421242031
 31
0.0
  0
LINE
  5
1C3
330
E3
100
AcDbEntity
  8
0
  6
Continuous
100
AcDbLine
 10
217.3468723379458
 20
130.4850421242031
 30
0.0
 11
229.1153437803986
 21
131.7981194693264
 31
0.0
  0
LINE
  5
1C4
330
E3
100
AcDbEntity
  8
0
  6
Continuous
100
AcDbLine
 10
229.1153437803986
 20
131.7981194693264
 30
0.0
 11
222.8838116738024
 21
133.1111968144497
 31
0.0
  0
HATCH
  5
1C5
330
E3
100
AcDbEntity
  8
0
  6
Continuous
 62
   255
370
     0
100
AcDbHatch
 10
0.0
 20
0.0
 30
0.0
210
0.0
220
0.0
230
1.0
  2
SOLID
 70
     1
 71
     0
 91
        1
 92
        3
 72
     0
 73
     1
 93
        8
 10
196.7531788634073
 20
54.34481485043929
 10
169.9379128775264
 20
49.61655532246512
 10
169.9379128775264
 20
39.8718435475558
 10
227.5076904299451
 20
39.8718435475558
 10
227.5076904299451
 20
59.76765647276039
 10
200.6924150804695
 20
55.03940630838089
 10
199.379339462647
 20
48.80786846259549
 10
198.0662638448245
 20
60.57634333263007
 97
        0
 75
     0
 76
     1
 98
        0
  0
LINE
  5
1C6
330
E3
100
AcDbEntity
  8
0
  6
Continuous
100
AcDbLine
 10
227.5076874292081
 20
59.76765927254993
 30
0.0
 11
200.6924132481846
 21
55.03940354845637
 31
0.0
  0
LINE
  5
1C7
330
E3
100
AcDbEntity
  8
0
  6
Continuous
100
AcDbLine
 10
196.7531812128147
 20
54.34481077771675
 30
0.0
 11
169.9379104343393
 21
49.61655505362319
 31
0.0
  0
LINE
  5
1C8
330
E3
100
AcDbEntity
  8
0
  6
Continuous
100
AcDbLine
 10
196.7531812128147
 20
54.34481077771675
 30
0.0
 11
198.066258557938
 21
60.57634288431292
 31
0.0
  0
LINE
  5
1C9
330
E3
100
AcDbEntity
  8
0
  6
Continuous
100
AcDbLine
 10
198.066258557938
 20
60.57634288431292
 30
0.0
 11
199.3793359030613
 21
48.80787144186019
 31
0.0
  0
LINE
  5
1CA
330
E3
100
AcDbEntity
  8
0
  6
Continuous
100
AcDbLine
 10
199.3793359030613
 20
48.80787144186019
 30
0.0
 11
200.6924132481846
 21
55.03940354845637
 31
0.0
  0
LINE
  5
1CB
330
E3
100
AcDbEntity
  8
Doc_ Floor
  6
Continuous
100
AcDbLine
 10
89.42491138372897
 20
132.0161309350414
 30
0.0
 11
90.38805026486702
 21
132.1859589168242
 31
0.0
  0
LINE
  5
1CC
330
E3
100
AcDbEntity
  8
Doc_ Floor
  6
Continuous
100
AcDbLine
 10
90.38805026486702
 20
132.1859589168242
 30
0.0
 11
114.9871938168863
 21
136.5234490020365
 31
0.0
  0
LINE
  5
1CD
330
E3
100
AcDbEntity
  8
Doc_ Floor
  6
Continuous
100
AcDbLine
 10
90.78298062264764
 20
133.2710213047587
 30
0.0
 11
89.99311990708641
 21
131.1008931263416
 31
0.0
  0
LINE
  5
1CE
330
E3
100
AcDbEntity
  8
Doc_ Floor
  6
Continuous
100
AcDbLine
 10
114.5922600565576
 20
135.438386614102
 30
0.0
 11
115.382124174667
 21
137.6085113899709
 31
0.0
  0
LINE
  5
1CF
330
E3
100
AcDbEntity
  8
Doc_ Floor
  6
Continuous
100
AcDbLine
 10
114.9871938168863
 20
136.5234490020365
 30
0.0
 11
115.9503326980244
 21
136.6932769838193
 31
0.0
  0
LINE
  5
1D0
330
E3
100
AcDbEntity
  8
Doc_ Floor
  6
Continuous
100
AcDbLine
 10
90.64852553112398
 20
130.7087460529235
 30
0.0
 11
90.12757840115817
 21
133.6631683781769
 31
0.0
  0
LINE
  5
1D1
330
E3
100
AcDbEntity
  8
Doc_ Floor
  6
Continuous
100
AcDbLine
 10
115.2476656805952
 20
135.0462361381357
 30
0.0
 11
114.7267185506294
 21
138.0006618659372
 31
0.0
  0
WIPEOUT
  5
1D2
330
E3
100
AcDbEntity
  8
Doc_ Floor
  6
Wipeout_Contour
 62
   254
 48
681.2240770985593
370
     0
 92
      296
310
28010000060000000C0000000E000000120000000C00000016000000000000C20C00000014000000010000006C00000007000000040000000769088C45DF5840781E676B71C060400000000000000000E08A13A5DB735A4014CD9EDF1CE4604000000000000000009D1FB5C4D8515A406418D4728E44614000000000000000
310
00C4FDA9AB42BD5840C8699CFEE220614000000000000000000C0000000E000000FE0000008400000006000000050000000769088C45DF5840781E676B71C060400000000000000000E08A13A5DB735A4014CD9EDF1CE4604000000000000000009D1FB5C4D8515A406418D4728E4461400000000000000000C4FDA9AB42BD
310
5840C8699CFEE220614000000000000000000769088C45DF5840781E676B71C060400000000000000000
100
AcDbWipeout
 90
        0
 10
98.95719424820624
 20
134.0138451589626
 30
0.0
 11
6.85308680827842
 21
0.0
 31
0.0
 12
0.0
 22
4.128543579906705
 32
0.0
 13
1.0
 23
1.0
340
0
 70
    15
280
     1
281
    50
282
    50
283
     0
360
0
 71
     2
 91
        5
 14
-0.422454569907563
 24
0.5
 14
0.5
 24
0.2300066188743067
 14
0.422454569907563
 24
-0.5
 14
-0.5
 24
-0.2300066188743067
 14
-0.422454569907563
 24
0.5
  0
MTEXT
  5
1D4
330
E3
100
AcDbEntity
  8
Doc_ Floor
  6
Continuous
100
AcDbMText
 10
99.71588963046909
 20
134.3384200968949
 30
0.0
 40
2.5
 41
0.0
 71
     7
 72
     1
  1
{125}
  7
GENERATED_STYLE_1
 11
0.984807753012208
 21
0.1736481776669307
 31
0.0
 73
     1
 44
1.0
  0
LINE
  5
1D5
330
E3
100
AcDbEntity
  8
Doc_ Floor
  6
Continuous
100
AcDbLine
 10
85.40322539975865
 20
115.3201437454714
 30
0.0
 11
85.40322539975865
 21
116.2981449567991
 31
0.0
  0
LINE
  5
1D6
330
E3
100
AcDbEntity
  8
Doc_ Floor
  6
Continuous
100
AcDbLine
 10
85.40322539975865
 20
116.2981449567991
 30
0.0
 11
85.40322539975865
 21
123.3501641145878
 31
0.0
  0
LINE
  5
1D7
330
E3
100
AcDbEntity
  8
Doc_ Floor
  6
Continuous
100
AcDbLine
 10
84.40322671483288
 20
116.8754927244078
 30
0.0
 11
86.40322748723256
 21
115.7207937866423
 31
0.0
  0
LINE
  5
1D8
330
E3
100
AcDbEntity
  8
Doc_ Floor
  6
Continuous
100
AcDbLine
 10
86.40322748723256
 20
122.7728163469791
 30
0.0
 11
84.40322671483288
 21
123.9275152847446
 31
0.0
  0
LINE
  5
1D9
330
E3
100
AcDbEntity
  8
Doc_ Floor
  6
Continuous
100
AcDbLine
 10
85.40322539975865
 20
123.3501641145878
 30
0.0
 11
85.40322539975865
 21
124.3281653259155
 31
0.0
  0
LINE
  5
1DA
330
E3
100
AcDbEntity
  8
Doc_ Floor
  6
Continuous
100
AcDbLine
 10
86.9032285309695
 20
116.2981449567991
 30
0.0
 11
83.90322567109592
 21
116.2981449567991
 31
0.0
  0
LINE
  5
1DB
330
E3
100
AcDbEntity
  8
Doc_ Floor
  6
Continuous
100
AcDbLine
 10
86.9032285309695
 20
123.3501641145878
 30
0.0
 11
83.90322567109592
 21
123.3501641145878
 31
0.0
  0
WIPEOUT
  5
1DC
330
E3
100
AcDbEntity
  8
Doc_ Floor
  6
Wipeout_Contour
 62
   254
 48
584.5666051580699
370
     0
 92
      296
310
28010000060000000C0000000E000000120000000C00000016000000000000C20C00000014000000010000006C0000000700000004000000A7D3BFEBBC4B55401D348C5BD3655D400000000000000000A7D3BFEBBC4B5540EE4DBA86AA835E400000000000000000D8B99104E0875440EE4DBA86AA835E4000000000000000
310
00D8B99104E08754401D348C5BD3655D4000000000000000000C0000000E000000FE000000840000000600000005000000A7D3BFEBBC4B55401D348C5BD3655D400000000000000000A7D3BFEBBC4B5540EE4DBA86AA835E400000000000000000D8B99104E0875440EE4DBA86AA835E400000000000000000D8B99104E087
310
54401D348C5BD3655D400000000000000000A7D3BFEBBC4B55401D348C5BD3655D400000000000000000
100
AcDbWipeout
 90
        0
 10
82.12304796439219
 20
117.5910252446342
 30
0.0
 11
3.060357852001502
 21
0.0
 31
0.0
 12
0.0
 22
4.466257853527409
 32
0.0
 13
1.0
 23
1.0
340
0
 70
    15
280
     1
281
    50
282
    50
283
     0
360
0
 71
     2
 91
        5
 14
0.4999999999999977
 24
0.5000000000000016
 14
0.4999999999999977
 24
-0.4999999999999984
 14
-0.5000000000000023
 24
-0.4999999999999984
 14
-0.5000000000000023
 24
0.5000000000000016
 14
0.4999999999999977
 24
0.5000000000000016
  0
MTEXT
  5
1DD
330
E3
100
AcDbEntity
  8
Doc_ Floor
  6
Continuous
100
AcDbMText
 10
84.90322689086305
 20
117.8712041701648
 30
0.0
 40
2.5
 41
0.0
 71
     7
 72
     1
  1
{35}
  7
GENERATED_STYLE_1
 11
6.123233995736766E-17
 21
1.0
 31
0.0
 73
     1
 44
1.0
  0
LINE
  5
1DE
330
E3
100
AcDbEntity
  8
Doc_ Floor
  6
Continuous
100
AcDbLine
 10
80.98741546191225
 20
138.7424343689136
 30
0.0
 11
81.96541327069184
 21
138.7424343689136
 31
0.0
  0
LINE
  5
1DF
330
E3
100
AcDbEntity
  8
Doc_ Floor
  6
Continuous
100
AcDbLine
 10
81.96541327069184
 20
138.7424343689136
 30
0.0
 11
91.94603962114483
 21
138.7424343689136
 31
0.0
  0
LINE
  5
1E0
330
E3
100
AcDbEntity
  8
Doc_ Floor
  6
Continuous
100
AcDbLine
 10
82.54276444084866
 20
139.7424330538394
 30
0.0
 11
81.38806550308317
 21
137.7424356839878
 31
0.0
  0
LINE
  5
1E1
330
E3
100
AcDbEntity
  8
Doc_ Floor
  6
Continuous
100
AcDbLine
 10
91.36869185353613
 20
137.7424356839878
 30
0.0
 11
92.52339079130162
 21
139.7424330538394
 31
0.0
  0
LINE
  5
1E2
330
E3
100
AcDbEntity
  8
Doc_ Floor
  6
Continuous
100
AcDbLine
 10
91.94603962114483
 20
138.7424343689136
 30
0.0
 11
92.92404083247254
 21
138.7424343689136
 31
0.0
  0
LINE
  5
1E3
330
E3
100
AcDbEntity
  8
Doc_ Floor
  6
Continuous
100
AcDbLine
 10
81.96541327069184
 20
137.2424346402509
 30
0.0
 11
81.96541327069184
 21
140.2424340975763
 31
0.0
  0
LINE
  5
1E4
330
E3
100
AcDbEntity
  8
Doc_ Floor
  6
Continuous
100
AcDbLine
 10
91.94603962114483
 20
137.2424346402509
 30
0.0
 11
91.94603962114483
 21
140.2424340975763
 31
0.0
  0
WIPEOUT
  5
1E5
330
E3
100
AcDbEntity
  8
Doc_ Floor
  6
Wipeout_Contour
 62
   254
 48
652.251207503775
370
     0
 92
      296
310
28010000060000000C0000000E000000120000000C00000016000000000000C20C00000014000000010000006C000000070000000400000055BC2BC485D24E40A4504DB55282614000000000000000002BDE15B2BB1E5840A4504DB55282614000000000000000002BDE15B2BB1E5840A5504DB552F2614000000000000000
310
0055BC2BC485D24E40A5504DB552F2614000000000000000000C0000000E000000FE00000084000000060000000500000055BC2BC485D24E40A4504DB55282614000000000000000002BDE15B2BB1E5840A4504DB55282614000000000000000002BDE15B2BB1E5840A5504DB552F26140000000000000000055BC2BC485D2
310
4E40A5504DB552F26140000000000000000055BC2BC485D24E40A4504DB5528261400000000000000000
100
AcDbWipeout
 90
        0
 10
61.64470722327739
 20
140.072596217161
 30
0.0
 11
34.83549880981446
 21
0.0
 31
0.0
 12
0.0
 22
3.500000000000028
 32
0.0
 13
1.0
 23
1.0
340
0
 70
    15
280
     1
281
    50
282
    50
283
     0
360
0
 71
     2
 91
        5
 14
-0.5000000000000001
 24
0.4999999999999959
 14
0.4999999999999999
 24
0.4999999999999959
 14
0.4999999999999999
 24
-0.5000000000000041
 14
-0.5000000000000001
 24
-0.5000000000000041
 14
-0.5000000000000001
 24
0.4999999999999959
  0
MTEXT
  5
1E6
330
E3
100
AcDbEntity
  8
Doc_ Floor
  6
Continuous
100
AcDbMText
 10
62.14470722243837
 20
140.572596216322
 30
0.0
 40
2.5
 41
0.0
 71
     7
 72
     1
  1
{50 MIN. OVERHANG}
  7
GENERATED_STYLE_1
 73
     1
 44
1.0
  0
MTEXT
  5
1E8
330
E3
100
AcDbEntity
  8
Doc_ Floor
  6
Continuous
100
AcDbMText
 10
155.0814884993444
 20
167.9916270646204
 30
0.0
 40
2.5
 41
56.6835322004004
 71
     6
 72
     1
  1
\A1;{\fCentury Gothic|b0|i0|c0|p34;TRS CORRUGATE\PMIN. ROOF PITCH 8\fArial|b0|i0|c0|p34;\H1.029412x;\U+00B0}
  7
GENERATED_STYLE_1
 73
     1
 44
1.056356172275314
  0
LINE
  5
1E9
330
E3
100
AcDbEntity
  8
Doc_ Floor
  6
Continuous
100
AcDbLine
 10
185.2147186207494
 20
142.9951976033811
 30
0.0
 11
182.8890293448181
 21
146.0805465777573
 31
0.0
  0
LINE
  5
1EA
330
E3
100
AcDbEntity
  8
Doc_ Floor
  6
Continuous
100
AcDbLine
 10
185.2147186207494
 20
142.9951976033811
 30
0.0
 11
184.7432887735789
 21
146.8300292547744
 31
0.0
  0
LINE
  5
1EB
330
E3
100
AcDbEntity
  8
Doc_ Floor
  6
Continuous
100
AcDbLine
 10
182.8890293448181
 20
146.0805465777573
 30
0.0
 11
184.7432887735789
 21
146.8300292547744
 31
0.0
  0
LWPOLYLINE
  5
1EC
330
E3
100
AcDbEntity
  8
Doc_ Floor
  6
Continuous
100
AcDbPolyline
 90
       17
 70
   128
 43
0.0
 10
183.8161598098469
 20
146.4552882502975
 10
182.5314164917741
 20
149.3470139892494
 10
181.2276524085563
 20
151.9977676299025
 10
179.8961241916152
 20
154.4150566658888
 10
178.528088472372
 20
156.6063885908405
 10
177.1148018822486
 20
158.57927089839
 10
175.6475210526662
 20
160.3412110821692
 10
174.1175026150466
 20
161.8997166358104
 10
172.5160032008112
 20
163.2622950529458
 10
170.8342794413816
 20
164.4364538272076
 10
169.0635879681792
 20
165.4297004522278
 10
167.1951854126257
 20
166.2495424216387
 10
165.2203284061426
 20
166.9034872290724
 10
163.1302735801513
 20
167.3990423681612
 10
160.9162775660735
 20
167.7437153325371
 10
158.5695969953307
 20
167.9450136158324
 10
156.0814884993444
 20
168.0104447116792
  0
MTEXT
  5
1ED
330
E3
100
AcDbEntity
  8
Doc_ Floor
  6
Continuous
100
AcDbMText
 10
201.886382287991
 20
162.7195945132428
 30
0.0
 40
2.5
 41
0.0
 71
     6
 72
     1
  1
{UNDERLAY}
  7
GENERATED_STYLE_1
 73
     1
 44
1.0
  0
LINE
  5
1EE
330
E3
100
AcDbEntity
  8
Doc_ Floor
  6
Continuous
100
AcDbLine
 10
213.4670113647279
 20
145.8405954817623
 30
0.0
 11
211.7764145005557
 21
149.3147978629762
 31
0.0
  0
LINE
  5
1EF
330
E3
100
AcDbEntity
  8
Doc_ Floor
  6
Continuous
100
AcDbLine
 10
213.4670113647279
 20
145.8405954817623
 30
0.0
 11
213.7400114106158
 21
149.6946413223912
 31
0.0
  0
LINE
  5
1F0
330
E3
100
AcDbEntity
  8
Doc_ Floor
  6
Continuous
100
AcDbLine
 10
211.7764145005557
 20
149.3147978629762
 30
0.0
 11
213.7400114106158
 21
149.6946413223912
 31
0.0
  0
LWPOLYLINE
  5
1F1
330
E3
100
AcDbEntity
  8
Doc_ Floor
  6
Continuous
100
AcDbPolyline
 90
       12
 70
   128
 43
0.0
 10
212.7582119312106
 20
149.5047201600585
 10
211.9382617056484
 20
152.9059780807963
 10
211.0447372899212
 20
155.7376589724857
 10
210.0552788534201
 20
158.0355396761046
 10
208.947526565536
 20
159.8353970326307
 10
208.3423027802601
 20
160.5597472185394
 10
207.69912059566
 20
161.1730078830415
 10
207.0151850329098
 20
161.6796511312593
 10
206.2877011131832
 20
162.084149068315
 10
205.5138738576541
 20
162.3909737993307
 10
204.6909082874965
 20
162.6045974294287
 10
202.886382287991
 20
162.7701298073604
  0
MTEXT
  5
1F2
330
E3
100
AcDbEntity
  8
Doc_ Floor
  6
Continuous
100
AcDbMText
 10
82.47329453696916
 20
151.6847626214734
 30
0.0
 40
2.5
 41
0.0
 71
     6
 72
     1
  1
{ROOF FIXING}
  7
GENERATED_STYLE_1
 73
     1
 44
1.0
  0
LINE
  5
1F3
330
E3
100
AcDbEntity
  8
Doc_ Floor
  6
Continuous
100
AcDbLine
 10
107.7399874861739
 20
133.3806786255813
 30
0.0
 11
105.7161858896724
 21
136.6719430071047
 31
0.0
  0
LINE
  5
1F4
330
E3
100
AcDbEntity
  8
Doc_ Floor
  6
Continuous
100
AcDbLine
 10
107.7399874861739
 20
133.3806786255813
 30
0.0
 11
107.6329569325003
 21
137.2429007893434
 31
0.0
  0
LINE
  5
1F5
330
E3
100
AcDbEntity
  8
Doc_ Floor
  6
Continuous
100
AcDbLine
 10
105.7161858896724
 20
136.6719430071047
 30
0.0
 11
107.6329569325003
 21
137.2429007893434
 31
0.0
  0
LWPOLYLINE
  5
1F6
330
E3
100
AcDbEntity
  8
Doc_ Floor
  6
Continuous
100
AcDbPolyline
 90
       16
 70
   128
 43
0.0
 10
106.6745705922342
 20
136.9574214878718
 10
105.9452062098199
 20
138.9312316524872
 10
105.1507558236082
 20
140.7413373948253
 10
104.2845745666689
 20
142.3927560001741
 10
103.3400175720718
 20
143.8905047538215
 10
102.3104399728864
 20
145.2396009410555
 10
101.1891969021826
 20
146.4450618471641
 10
99.96964349303006
 20
147.5119047574353
 10
98.64513487849852
 20
148.445146957157
 10
97.20902619165773
 20
149.2498057316173
 10
95.65467256557734
 20
149.9308983661041
 10
93.97542913332715
 20
150.4934421459054
 10
92.16465102797687
 20
150.9424543563092
 10
90.2156933825962
 20
151.2829522826034
 10
88.12191133025487
 20
151.5199532100761
 10
83.47329453696916
 20
151.7035332097087
  0
MTEXT
  5
1F7
330
E3
100
AcDbEntity
  8
Doc_ Floor
  6
Continuous
100
AcDbMText
 10
137.6520146237161
 20
144.9132798695847
 30
0.0
 40
2.499999999999999
 41
0.0
 71
     4
 72
     1
  1
{PURLIN}
  7
GENERATED_STYLE_1
 73
     1
 44
1.0
  0
LINE
  5
1F8
330
E3
100
AcDbEntity
  8
Doc_ Floor
  6
Continuous
100
AcDbLine
 10
115.4172486789133
 20
122.8503059778719
 30
0.0
 11
115.9454194185386
 21
126.6777404896515
 31
0.0
  0
LINE
  5
1F9
330
E3
100
AcDbEntity
  8
Doc_ Floor
  6
Continuous
100
AcDbLine
 10
115.4172486789133
 20
122.8503059778719
 30
0.0
 11
117.7883721798955
 21
125.9008741053619
 31
0.0
  0
LINE
  5
1FA
330
E3
100
AcDbEntity
  8
Doc_ Floor
  6
Continuous
100
AcDbLine
 10
115.9454194185386
 20
126.6777404896515
 30
0.0
 11
117.7883721798955
 21
125.9008741053619
 31
0.0
  0
LWPOLYLINE
  5
1FB
330
E3
100
AcDbEntity
  8
Doc_ Floor
  6
Continuous
100
AcDbPolyline
 90
       15
 70
   128
 43
0.0
 10
116.8668959215798
 20
126.2893073987425
 10
119.1176785092345
 20
131.0881732899973
 10
121.3327449673695
 20
135.0795275180889
 10
122.442391956056
 20
136.7885367941823
 10
123.5617186821893
 20
138.3150469973654
 10
124.6969280690448
 20
139.6655177419317
 10
125.8542230398982
 20
140.8464086421748
 10
127.0398065180251
 20
141.8641793123881
 10
128.259881426701
 20
142.7252893668652
 10
129.5206506892013
 20
143.4361984198995
 10
130.8283172288019
 20
144.0033660857845
 10
132.189083968778
 20
144.4332519788138
 10
133.6091538324054
 20
144.7323157132809
 10
135.0947297429596
 20
144.9070169034793
 10
136.6520146237161
 20
144.9638151637024
  0
MTEXT
  5
1FC
330
E3
100
AcDbEntity
  8
Doc_ Floor
  6
Continuous
100
AcDbMText
 10
141.8745473323445
 20
82.7315317283595
 30
0.0
 40
2.499999999999999
 41
0.0
 71
     4
 72
     1
  1
{ROOF FRAME}
  7
GENERATED_STYLE_1
 73
     1
 44
1.0
  0
LINE
  5
1FD
330
E3
100
AcDbEntity
  8
Doc_ Floor
  6
Continuous
100
AcDbLine
 10
121.3173317680102
 20
108.3627970865833
 30
0.0
 11
123.5331833880685
 21
105.1976413460443
 31
0.0
  0
LINE
  5
1FE
330
E3
100
AcDbEntity
  8
Doc_ Floor
  6
Continuous
100
AcDbLine
 10
121.3173317680102
 20
108.3627970865833
 30
0.0
 11
121.6537348955727
 21
104.5137666018837
 31
0.0
  0
LINE
  5
1FF
330
E3
100
AcDbEntity
  8
Doc_ Floor
  6
Continuous
100
AcDbLine
 10
123.5331833880685
 20
105.1976413460443
 30
0.0
 11
121.6537348955727
 21
104.5137666018837
 31
0.0
  0
LWPOLYLINE
  5
200
330
E3
100
AcDbEntity
  8
Doc_ Floor
  6
Continuous
100
AcDbPolyline
 90
       15
 70
   128
 43
0.0
 10
122.5934592378488
 20
104.8557048181541
 10
124.8485395716967
 20
99.17146434866955
 10
127.0180929041624
 20
94.44506782394488
 10
128.0855023101806
 20
92.4218026189983
 10
129.1491764042177
 20
90.61488829399866
 10
130.214997332395
 20
89.01662148019828
 10
131.2888472408341
 20
87.61929880884949
 10
132.3766082756563
 20
86.4152169112046
 10
133.4841625829833
 20
85.39667241851593
 10
134.6173923089364
 20
84.55596196203582
 10
135.782179599637
 20
83.88538217301658
 10
136.9844066012067
 20
83.37722968271054
 10
138.2299554597669
 20
83.02380112237002
 10
139.524708321439
 20
82.81739312324733
 10
140.8745473323445
 20
82.7503023165948
  0
MTEXT
  5
201
330
E3
100
AcDbEntity
  8
Doc_ Floor
  6
Continuous
100
AcDbMText
 10
40.34122238232207
 20
91.32954567949021
 30
0.0
 40
2.5
 41
0.0
 71
     4
 72
     1
  1
{GUTTER}
  7
GENERATED_STYLE_1
 73
     1
 44
1.0
  0
LINE
  5
202
330
E3
100
AcDbEntity
  8
Doc_ Floor
  6
Continuous
100
AcDbLine
 10
79.60653894294289
 20
103.5148124992309
 30
0.0
 11
77.92693911429573
 21
100.0352817276605
 31
0.0
  0
LINE
  5
203
330
E3
100
AcDbEntity
  8
Doc_ Floor
  6
Continuous
100
AcDbLine
 10
79.60653894294289
 20
103.5148124992309
 30
0.0
 11
76.41219614462754
 21
101.3412511497605
 31
0.0
  0
LINE
  5
204
330
E3
100
AcDbEntity
  8
Doc_ Floor
  6
Continuous
100
AcDbLine
 10
77.92693911429573
 20
100.0352817276605
 30
0.0
 11
76.41219614462754
 21
101.3412511497605
 31
0.0
  0
LWPOLYLINE
  5
205
330
E3
100
AcDbEntity
  8
Doc_ Floor
  6
Continuous
100
AcDbPolyline
 90
        9
 70
   128
 43
0.0
 10
77.16956751115164
 20
100.6882656714208
 10
74.86456189659316
 20
98.29494947733839
 10
72.64180310324551
 20
96.30189250553727
 10
70.45813811605491
 20
94.68408264753684
 10
68.27041391996755
 20
93.41650779485657
 10
66.03547749992967
 20
92.47415583901588
 10
63.71017584088745
 20
91.83201467153418
 10
61.25135592778711
 20
91.4650721839309
 10
58.61586474557487
 20
91.34831626772551
  0
MTEXT
  5
206
330
E3
100
AcDbEntity
  8
Doc_ Floor
  6
Continuous
100
AcDbMText
 10
49.66686739519618
 20
76.78428055977871
 30
0.0
 40
2.5
 41
0.0
 71
     4
 72
     1
  1
{FASCIA}
  7
GENERATED_STYLE_1
 73
     1
 44
1.0
  0
LINE
  5
207
330
E3
100
AcDbEntity
  8
Doc_ Floor
  6
Continuous
100
AcDbLine
 10
94.89909412205382
 20
95.08170246194132
 30
0.0
 11
93.35740297127248
 21
91.53890811316931
 31
0.0
  0
LINE
  5
208
330
E3
100
AcDbEntity
  8
Doc_ Floor
  6
Continuous
100
AcDbLine
 10
94.89909412205382
 20
95.08170246194132
 30
0.0
 11
91.79255407798406
 21
92.78440064497818
 31
0.0
  0
LINE
  5
209
330
E3
100
AcDbEntity
  8
Doc_ Floor
  6
Continuous
100
AcDbLine
 10
93.35740297127248
 20
91.53890811316931
 30
0.0
 11
91.79255407798406
 21
92.78440064497818
 31
0.0
  0
LWPOLYLINE
  5
20A
330
E3
100
AcDbEntity
  8
Doc_ Floor
  6
Continuous
100
AcDbPolyline
 90
       13
 70
   128
 43
0.0
 10
92.57497736179654
 20
92.16165451657864
 10
89.19420498268543
 20
88.21548628742462
 10
86.02474766486097
 20
84.93312920294261
 10
83.00403201035019
 20
82.27215523480851
 10
81.52989811997088
 20
81.16142816052066
 10
80.06948462118017
 20
80.19013635469827
 10
78.6149698392314
 20
79.35297631380081
 10
77.15853209937796
 20
78.64464453428776
 10
75.69234972687326
 20
78.05983751261866
 10
74.20860104697066
 20
77.59325174525296
 10
72.69946438492356
 20
77.23958372865015
 10
71.1571180659853
 20
76.99352995926972
 10
67.94150975844899
 20
76.803051148014
  0
MTEXT
  5
20B
330
E3
100
AcDbEntity
  8
Doc_ Floor
  6
Continuous
100
AcDbMText
 10
137.5815424441485
 20
71.65620170867757
 30
0.0
 40
2.5
 41
0.0
 71
     4
 72
     1
  1
{SOFFIT BOARD}
  7
GENERATED_STYLE_1
 73
     1
 44
1.0
  0
LINE
  5
20C
330
E3
100
AcDbEntity
  8
Doc_ Floor
  6
Continuous
100
AcDbLine
 10
111.0070359327248
 20
94.34933800451772
 30
0.0
 11
113.7867135941616
 21
91.66575850964401
 31
0.0
  0
LINE
  5
20D
330
E3
100
AcDbEntity
  8
Doc_ Floor
  6
Continuous
100
AcDbLine
 10
111.0070359327248
 20
94.34933800451772
 30
0.0
 11
112.0725166562267
 21
90.63545332861028
 31
0.0
  0
LINE
  5
20E
330
E3
100
AcDbEntity
  8
Doc_ Floor
  6
Continuous
100
AcDbLine
 10
113.7867135941616
 20
91.66575850964401
 30
0.0
 11
112.0725166562267
 21
90.63545332861028
 31
0.0
  0
LWPOLYLINE
  5
20F
330
E3
100
AcDbEntity
  8
Doc_ Floor
  6
Continuous
100
AcDbPolyline
 90
       15
 70
   128
 43
0.0
 10
112.9296159024499
 20
91.15060588052593
 10
116.1594872780008
 20
86.1433173722116
 10
119.1889703518851
 20
81.97953749636538
 10
120.6476724586484
 20
80.19702374636445
 10
122.0792049095305
 20
78.60505969537648
 10
123.4912101777098
 20
77.19686952370014
 10
124.8913307363648
 20
75.96567741163408
 10
126.2872090586741
 20
74.9047075394769
 10
127.686487617816
 20
74.00718408752732
 10
129.0968088869691
 20
73.26633123608393
 10
130.5258153393118
 20
72.67537316544541
 10
131.9811494480226
 20
72.2275340559104
 10
133.47045368628
 20
71.91603808777754
 10
135.0013705272625
 20
71.73410944134548
 10
136.5815424441485
 20
71.67497229691287
  0
MTEXT
  5
210
330
E3
100
AcDbEntity
  8
Doc_ Floor
  6
Continuous
100
AcDbMText
 10
131.7391957414822
 20
154.6163509876695
 30
0.0
 40
2.499999999999999
 41
30.71478192863719
 71
     4
 72
     1
  1
{HEM TO FLASHING EDGE}
  7
GENERATED_STYLE_1
 73
     1
 44
1.070162922071087
  0
LINE
  5
211
330
E3
100
AcDbEntity
  8
Doc_ Floor
  6
Continuous
100
AcDbLine
 10
115.4172486789133
 20
128.5817689897687
 30
0.0
 11
114.9054135728138
 21
132.4114185603747
 31
0.0
  0
LINE
  5
212
330
E3
100
AcDbEntity
  8
Doc_ Floor
  6
Continuous
100
AcDbLine
 10
115.4172486789133
 20
128.5817689897687
 30
0.0
 11
116.8888099103861
 21
132.1542607785351
 31
0.0
  0
LINE
  5
213
330
E3
100
AcDbEntity
  8
Doc_ Floor
  6
Continuous
100
AcDbLine
 10
114.9054135728138
 20
132.4114185603747
 30
0.0
 11
116.8888099103861
 21
132.1542607785351
 31
0.0
  0
LWPOLYLINE
  5
214
330
E3
100
AcDbEntity
  8
Doc_ Floor
  6
Continuous
100
AcDbPolyline
 90
       16
 70
   128
 43
0.0
 10
115.8971117304919
 20
132.2828409830471
 10
116.8629904589413
 20
138.0295442207462
 10
117.411505014298
 20
140.5360106428071
 10
118.0098318946371
 20
142.8082517590701
 10
118.6625427481293
 20
144.8540411885814
 10
119.3742092229454
 20
146.6811525503867
 10
120.1494029672561
 20
148.2973594635322
 10
120.9926956292321
 20
149.7104355470636
 10
121.9086588570442
 20
150.9281544200271
 10
122.9018642988632
 20
151.9582897014685
 10
123.9768836028597
 20
152.8086150104339
 10
125.1382884172045
 20
153.4869039659691
 10
126.3906503900685
 20
154.0009301871202
 10
127.7385411696222
 20
154.3584672929331
 10
129.1865324040365
 20
154.5672889024539
 10
130.7391957414822
 20
154.6351686347283
  0
HATCH
  5
215
330
E3
100
AcDbEntity
  8
0
  6
Continuous
 62
   255
370
     0
100
AcDbHatch
 10
0.0
 20
0.0
 30
0.0
210
0.0
220
0.0
230
1.0
  2
SOLID
 70
     1
 71
     0
 91
        1
 92
        3
 72
     0
 73
     1
 93
        4
 10
96.9399292582794
 20
94.3493383657499
 10
180.2823211032648
 20
94.34933836574987
 10
180.2823211032648
 20
95.24933836574989
 10
96.9399292582794
 20
95.2493383657499
 97
        0
 75
     0
 76
     1
 98
        0
  0
HATCH
  5
216
330
E3
100
AcDbEntity
  8
0
  6
Continuous
100
AcDbHatch
 10
0.0
 20
0.0
 30
0.0
210
0.0
220
0.0
230
1.0
  2
Plaster_0002
 70
     0
 71
     0
 91
        1
 92
        3
 72
     0
 73
     1
 93
        4
 10
96.9399292582794
 20
94.3493383657499
 10
180.2823211032648
 20
94.34933836574987
 10
180.2823211032648
 20
95.24933836574989
 10
96.9399292582794
 20
95.2493383657499
 97
        0
 75
     0
 76
     2
 52
0.0
 41
1.0
 77
     0
 78
     2
 53
0.0
 43
-142.7210172665502
 44
95.8254599850675
 45
0.0
 46
1.732050807568877
 79
     2
 49
0.0
 49
-1.0
 53
0.0
 43
-142.2210172665502
 44
96.69148537330831
 45
0.0
 46
1.732050807568877
 79
     2
 49
0.0
 49
-1.0
 98
        0
  0
LINE
  5
217
330
E3
100
AcDbEntity
  8
0
  6
Continuous
100
AcDbLine
 10
96.9399288744458
 20
94.34933800451772
 30
0.0
 11
180.2823202170793
 21
94.34933800451772
 31
0.0
  0
LINE
  5
218
330
E3
100
AcDbEntity
  8
0
  6
Continuous
100
AcDbLine
 10
180.2823202170793
 20
94.34933800451772
 30
0.0
 11
180.2823202170793
 21
95.24933920273459
 31
0.0
  0
LINE
  5
219
330
E3
100
AcDbEntity
  8
0
  6
Continuous
100
AcDbLine
 10
180.2823202170793
 20
95.24933920273459
 30
0.0
 11
96.9399288744458
 21
95.24933920273459
 31
0.0
  0
LINE
  5
21A
330
E3
100
AcDbEntity
  8
0
  6
Continuous
100
AcDbLine
 10
96.9399288744458
 20
95.24933920273459
 30
0.0
 11
96.9399288744458
 21
94.34933800451772
 31
0.0
  0
HATCH
  5
21B
330
E3
100
AcDbEntity
  8
0
  6
Continuous
 62
   255
370
     0
100
AcDbHatch
 10
0.0
 20
0.0
 30
0.0
210
0.0
220
0.0
230
1.0
  2
SOLID
 70
     1
 71
     0
 91
        1
 92
        3
 72
     0
 73
     1
 93
        4
 10
108.3527250094337
 20
133.1442505448335
 10
106.8755133799154
 20
132.8837782783331
 10
106.9623374687488
 20
132.391374401827
 10
108.4395490982671
 20
132.6518466683274
 97
        0
 75
     0
 76
     1
 98
        0
  0
HATCH
  5
21C
330
E3
100
AcDbEntity
  8
0
  6
Continuous
 62
   255
370
     0
100
AcDbHatch
 10
0.0
 20
0.0
 30
0.0
210
0.0
220
0.0
230
1.0
  2
SOLID
 70
     1
 71
     0
 91
        1
 92
        3
 72
     1
 73
     1
 93
        4
 10
108.1209937526529
 20
133.0187711876657
 42
0.1666666666666667
 10
107.1361859996407
 20
132.8451230099988
 42
0.0
 10
107.1940687255297
 20
132.5168537589948
 42
0.1666666666666667
 10
108.1788764785419
 20
132.6905019366617
 42
0.0
 97
        0
 75
     0
 76
     1
 98
        0
  0
ARC
  5
21D
330
E3
100
AcDbEntity
  8
0
  6
Continuous
100
AcDbCircle
 10
107.881826801911
 20
131.4957691256895
 30
0.0
 40
1.541666666666654
100
AcDbArc
 50
81.07535558394812
 51
118.9246444160504
  0
LINE
  5
21E
330
E3
100
AcDbEntity
  8
0
  6
Continuous
100
AcDbLine
 10
107.1361849069296
 20
132.8451243565348
 30
0.0
 11
107.1940690555529
 21
132.5168533189799
 31
0.0
  0
ARC
  5
21F
330
E3
100
AcDbEntity
  8
0
  6
Continuous
100
AcDbCircle
 10
107.4332356762716
 20
134.039855820971
 30
0.0
 40
1.541666666666715
100
AcDbArc
 50
261.0753555839469
 51
298.9246444160493
  0
LINE
  5
220
330
E3
100
AcDbEntity
  8
0
  6
Continuous
100
AcDbLine
 10
108.1788753631213
 20
132.6905023623019
 30
0.0
 11
108.1209946170461
 21
133.0187699973086
 31
0.0
  0
HATCH
  5
221
330
E3
100
AcDbEntity
  8
0
  6
Continuous
 62
   255
370
     0
100
AcDbHatch
 10
0.0
 20
0.0
 30
0.0
210
0.0
220
0.0
230
1.0
  2
SOLID
 70
     1
 71
     0
 91
        1
 92
        3
 72
     1
 73
     1
 93
        4
 10
108.613397629159
 20
133.1055952764992
 42
0.3333333333333333
 10
108.1209937526529
 20
133.0187711876657
 42
0.0
 10
108.1788764785419
 20
132.6905019366617
 42
0.3333333333333333
 10
108.671280355048
 20
132.7773260254951
 42
0.0
 97
        0
 75
     0
 76
     1
 98
        0
  0
ARC
  5
222
330
E3
100
AcDbEntity
  8
0
  6
Continuous
100
AcDbCircle
 10
108.4250784167949
 20
132.7339139810784
 30
0.0
 40
0.4166666666667133
100
AcDbArc
 50
63.13010235415468
 51
136.8698976458379
  0
LINE
  5
223
330
E3
100
AcDbEntity
  8
0
  6
Continuous
100
AcDbLine
 10
108.1209946170461
 20
133.0187699973086
 30
0.0
 11
108.1788753631213
 21
132.6905023623019
 31
0.0
  0
ARC
  5
224
330
E3
100
AcDbEntity
  8
0
  6
Continuous
100
AcDbCircle
 10
108.367195690906
 20
133.0621832320824
 30
0.0
 40
0.4166666666666387
100
AcDbArc
 50
243.130102354158
 51
316.8698976458462
  0
LINE
  5
225
330
E3
100
AcDbEntity
  8
0
  6
Continuous
100
AcDbLine
 10
108.6712819194537
 20
132.7773251826887
 30
0.0
 11
108.6133977708303
 21
133.1055962202437
 31
0.0
  0
HATCH
  5
226
330
E3
100
AcDbEntity
  8
0
  6
Continuous
 62
   255
370
     0
100
AcDbHatch
 10
0.0
 20
0.0
 30
0.0
210
0.0
220
0.0
230
1.0
  2
SOLID
 70
     1
 71
     0
 91
        1
 92
        3
 72
     1
 73
     1
 93
        4
 10
106.6437821231346
 20
132.7582989211653
 42
0.0
 10
106.7016648490236
 20
132.4300296701613
 42
0.3333333333333333
 10
107.1940687255297
 20
132.5168537589948
 42
0.0
 10
107.1361859996407
 20
132.8451230099988
 42
0.3333333333333333
 97
        0
 75
     0
 76
     1
 98
        0
  0
LINE
  5
227
330
E3
100
AcDbEntity
  8
0
  6
Continuous
100
AcDbLine
 10
106.7016659017687
 20
132.430030498593
 30
0.0
 11
106.6437817531453
 21
132.7582981335998
 31
0.0
  0
ARC
  5
228
330
E3
100
AcDbEntity
  8
0
  6
Continuous
100
AcDbCircle
 10
106.8899840613876
 20
132.8017109655821
 30
0.0
 40
0.4166666666666698
100
AcDbArc
 50
243.1301023541581
 51
316.8698976458447
  0
LINE
  5
229
330
E3
100
AcDbEntity
  8
0
  6
Continuous
100
AcDbLine
 10
107.1361849069296
 20
132.8451243565348
 30
0.0
 11
107.1940690555529
 21
132.5168533189799
 31
0.0
  0
ARC
  5
22A
330
E3
100
AcDbEntity
  8
0
  6
Continuous
100
AcDbCircle
 10
106.9478667872766
 20
132.473441714578
 30
0.0
 40
0.4166666666666698
100
AcDbArc
 50
63.13010235415805
 51
136.8698976458448
  0
HATCH
  5
22B
330
E3
100
AcDbEntity
  8
0
  6
Continuous
 62
   255
370
     0
100
AcDbHatch
 10
0.0
 20
0.0
 30
0.0
210
0.0
220
0.0
230
1.0
  2
SOLID
 70
     1
 71
     0
 91
        1
 92
        3
 72
     0
 73
     1
 93
        4
 10
107.3726743607732
 20
132.463727867071
 10
107.6505114450403
 20
130.8880354622514
 10
108.3070492905099
 20
131.0038007982639
 10
108.0292122062428
 20
132.5794932030834
 97
        0
 75
     0
 76
     1
 98
        0
  0
LINE
  5
22C
330
E3
100
AcDbEntity
  8
0
  6
Continuous
100
AcDbLine
 10
107.3726756114862
 20
132.4637293351769
 30
0.0
 11
107.6505106782532
 21
130.888036521029
 31
0.0
  0
LINE
  5
22D
330
E3
100
AcDbEntity
  8
0
  6
Continuous
100
AcDbLine
 10
107.6505106782532
 20
130.888036521029
 30
0.0
 11
108.3070493508148
 21
131.0038014157275
 31
0.0
  0
LINE
  5
22E
330
E3
100
AcDbEntity
  8
0
  6
Continuous
100
AcDbLine
 10
108.3070493508148
 20
131.0038014157275
 30
0.0
 11
108.0292108814997
 21
132.5794942298755
 31
0.0
  0
LINE
  5
22F
330
E3
100
AcDbEntity
  8
0
  6
Continuous
100
AcDbLine
 10
108.0292108814997
 20
132.5794942298755
 30
0.0
 11
107.3726756114862
 21
132.4637293351769
 31
0.0
  0
HATCH
  5
230
330
E3
100
AcDbEntity
  8
0
  6
Continuous
 62
   255
370
     0
100
AcDbHatch
 10
0.0
 20
0.0
 30
0.0
210
0.0
220
0.0
230
1.0
  2
SOLID
 70
     1
 71
     0
 91
        1
 92
        3
 72
     0
 73
     1
 93
        5
 10
107.6833380418714
 20
130.8938236769576
 10
109.1419827342736
 20
122.621438551655
 10
109.5416139667774
 20
122.0826483531478
 10
109.732867386081
 20
122.7256274582552
 10
108.2742226936788
 20
130.9980125835577
 97
        0
 75
     0
 76
     1
 98
        0
  0
LINE
  5
231
330
E3
100
AcDbEntity
  8
0
  6
Continuous
100
AcDbLine
 10
107.6833384625183
 20
130.8938242553816
 30
0.0
 11
109.1419836213263
 21
122.6214369811048
 31
0.0
  0
LINE
  5
232
330
E3
100
AcDbEntity
  8
0
  6
Continuous
100
AcDbLine
 10
109.1419836213263
 20
122.6214369811048
 30
0.0
 11
109.5416128980611
 21
122.0826468887959
 31
0.0
  0
LINE
  5
233
330
E3
100
AcDbEntity
  8
0
  6
Continuous
100
AcDbLine
 10
109.5416128980611
 20
122.0826468887959
 30
0.0
 11
109.7328667253577
 21
122.725626407098
 31
0.0
  0
LINE
  5
234
330
E3
100
AcDbEntity
  8
0
  6
Continuous
100
AcDbLine
 10
109.7328667253577
 20
122.725626407098
 30
0.0
 11
108.2742215665497
 21
130.9980136813748
 31
0.0
  0
LINE
  5
235
330
E3
100
AcDbEntity
  8
0
  6
Continuous
100
AcDbLine
 10
108.2742215665497
 20
130.9980136813748
 30
0.0
 11
107.6833384625183
 21
130.8938242553816
 31
0.0
  0
LINE
  5
236
330
E3
100
AcDbEntity
  8
0
  6
Continuous
100
AcDbLine
 10
108.3527251567823
 20
133.1442491668908
 30
0.0
 11
106.8755122928816
 21
132.883777303182
 31
0.0
  0
LINE
  5
237
330
E3
100
AcDbEntity
  8
0
  6
Continuous
100
AcDbLine
 10
106.9623385158166
 20
132.3913741493977
 30
0.0
 11
108.4395479771693
 21
132.6518460131066
 31
0.0
  0
LINE
  5
238
330
E3
100
AcDbEntity
  8
0
  6
Continuous
100
AcDbLine
 10
108.4711842442812
 20
131.0327422190911
 30
0.0
 11
108.4702542389663
 21
131.0270596111712
 31
0.0
  0
LINE
  5
239
330
E3
100
AcDbEntity
  8
0
  6
Continuous
100
AcDbLine
 10
108.4702542389663
 20
131.0270596111712
 30
0.0
 11
108.4655910031636
 21
131.0207187339911
 31
0.0
  0
LINE
  5
23A
330
E3
100
AcDbEntity
  8
0
  6
Continuous
100
AcDbLine
 10
108.4655910031636
 20
131.0207187339911
 30
0.0
 11
108.457237824847
 21
131.0137266485946
 31
0.0
  0
LINE
  5
23B
330
E3
100
AcDbEntity
  8
0
  6
Continuous
100
AcDbLine
 10
108.457237824847
 20
131.0137266485946
 30
0.0
 11
108.4452642580115
 21
131.0060981357088
 31
0.0
  0
LINE
  5
23C
330
E3
100
AcDbEntity
  8
0
  6
Continuous
100
AcDbLine
 10
108.4452642580115
 20
131.0060981357088
 30
0.0
 11
108.4297690538714
 21
130.997846956517
 31
0.0
  0
LINE
  5
23D
330
E3
100
AcDbEntity
  8
0
  6
Continuous
100
AcDbLine
 10
108.4297690538714
 20
130.997846956517
 30
0.0
 11
108.4108781067072
 21
130.9889969288559
 31
0.0
  0
LINE
  5
23E
330
E3
100
AcDbEntity
  8
0
  6
Continuous
100
AcDbLine
 10
108.4108781067072
 20
130.9889969288559
 30
0.0
 11
108.3887411286363
 21
130.9795752731107
 31
0.0
  0
LINE
  5
23F
330
E3
100
AcDbEntity
  8
0
  6
Continuous
100
AcDbLine
 10
108.3887411286363
 20
130.9795752731107
 30
0.0
 11
108.3635350521607
 21
130.9696126122143
 31
0.0
  0
LINE
  5
240
330
E3
100
AcDbEntity
  8
0
  6
Continuous
100
AcDbLine
 10
108.3635350521607
 20
130.9696126122143
 30
0.0
 11
108.3354572250716
 21
130.959142971648
 31
0.0
  0
LINE
  5
241
330
E3
100
AcDbEntity
  8
0
  6
Continuous
100
AcDbLine
 10
108.3354572250716
 20
130.959142971648
 30
0.0
 11
108.3047288129967
 21
130.9482037794411
 31
0.0
  0
LINE
  5
242
330
E3
100
AcDbEntity
  8
0
  6
Continuous
100
AcDbLine
 10
108.3047288129967
 20
130.9482037794411
 30
0.0
 11
108.2715913968527
 21
130.9368426712672
 31
0.0
  0
LINE
  5
243
330
E3
100
AcDbEntity
  8
0
  6
Continuous
100
AcDbLine
 10
108.2715913968527
 20
130.9368426712672
 30
0.0
 11
108.2363069728447
 21
130.925103880252
 31
0.0
  0
LINE
  5
244
330
E3
100
AcDbEntity
  8
0
  6
Continuous
100
AcDbLine
 10
108.2363069728447
 20
130.925103880252
 30
0.0
 11
108.1991477448224
 21
130.913031639521
 31
0.0
  0
LINE
  5
245
330
E3
100
AcDbEntity
  8
0
  6
Continuous
100
AcDbLine
 10
108.1991477448224
 20
130.913031639521
 30
0.0
 11
108.1604063319241
 21
130.9006837923923
 31
0.0
  0
LINE
  5
246
330
E3
100
AcDbEntity
  8
0
  6
Continuous
100
AcDbLine
 10
108.1604063319241
 20
130.9006837923923
 30
0.0
 11
108.1203787558363
 21
130.8881079745395
 31
0.0
  0
LINE
  5
247
330
E3
100
AcDbEntity
  8
0
  6
Continuous
100
AcDbLine
 10
108.1203787558363
 20
130.8881079745395
 30
0.0
 11
108.0793848560823
 21
130.8753586267325
 31
0.0
  0
LINE
  5
248
330
E3
100
AcDbEntity
  8
0
  6
Continuous
100
AcDbLine
 10
108.0793848560823
 20
130.8753586267325
 30
0.0
 11
108.0377410696374
 21
130.8624969948376
 31
0.0
  0
LINE
  5
249
330
E3
100
AcDbEntity
  8
0
  6
Continuous
100
AcDbLine
 10
108.0377410696374
 20
130.8624969948376
 30
0.0
 11
107.9957672360248
 21
130.8495775196247
 31
0.0
  0
LINE
  5
24A
330
E3
100
AcDbEntity
  8
0
  6
Continuous
100
AcDbLine
 10
107.9957672360248
 20
130.8495775196247
 30
0.0
 11
107.9537968049603
 21
130.8366580444117
 31
0.0
  0
LINE
  5
24B
330
E3
100
AcDbEntity
  8
0
  6
Continuous
100
AcDbLine
 10
107.9537968049603
 20
130.8366580444117
 30
0.0
 11
107.9121496159673
 21
130.8237964125168
 31
0.0
  0
LINE
  5
24C
330
E3
100
AcDbEntity
  8
0
  6
Continuous
100
AcDbLine
 10
107.9121496159673
 20
130.8237964125168
 30
0.0
 11
107.8711557162133
 21
130.811050467258
 31
0.0
  0
LINE
  5
24D
330
E3
100
AcDbEntity
  8
0
  6
Continuous
100
AcDbLine
 10
107.8711557162133
 20
130.811050467258
 30
0.0
 11
107.8311315426737
 21
130.7984746494052
 31
0.0
  0
LINE
  5
24E
330
E3
100
AcDbEntity
  8
0
  6
Continuous
100
AcDbLine
 10
107.8311315426737
 20
130.7984746494052
 30
0.0
 11
107.7923867272273
 21
130.7861233997283
 31
0.0
  0
LINE
  5
24F
330
E3
100
AcDbEntity
  8
0
  6
Continuous
100
AcDbLine
 10
107.7923867272273
 20
130.7861233997283
 30
0.0
 11
107.755227499205
 21
130.7740545615455
 31
0.0
  0
LINE
  5
250
330
E3
100
AcDbEntity
  8
0
  6
Continuous
100
AcDbLine
 10
107.755227499205
 20
130.7740545615455
 30
0.0
 11
107.719943075197
 21
130.7623123679821
 31
0.0
  0
LINE
  5
251
330
E3
100
AcDbEntity
  8
0
  6
Continuous
100
AcDbLine
 10
107.719943075197
 20
130.7623123679821
 30
0.0
 11
107.6868056590529
 21
130.7509512598083
 31
0.0
  0
LINE
  5
252
330
E3
100
AcDbEntity
  8
0
  6
Continuous
100
AcDbLine
 10
107.6868056590529
 20
130.7509512598083
 30
0.0
 11
107.6560806495262
 21
130.7400154701495
 31
0.0
  0
LINE
  5
253
330
E3
100
AcDbEntity
  8
0
  6
Continuous
100
AcDbLine
 10
107.6560806495262
 20
130.7400154701495
 30
0.0
 11
107.6280028224371
 21
130.7295458295832
 31
0.0
  0
LINE
  5
254
330
E3
100
AcDbEntity
  8
0
  6
Continuous
100
AcDbLine
 10
107.6280028224371
 20
130.7295458295832
 30
0.0
 11
107.6027967459615
 21
130.7195831686868
 31
0.0
  0
LINE
  5
255
330
E3
100
AcDbEntity
  8
0
  6
Continuous
100
AcDbLine
 10
107.6027967459615
 20
130.7195831686868
 30
0.0
 11
107.5806597678906
 21
130.7101581103935
 31
0.0
  0
LINE
  5
256
330
E3
100
AcDbEntity
  8
0
  6
Continuous
100
AcDbLine
 10
107.5806597678906
 20
130.7101581103935
 30
0.0
 11
107.5617654181782
 21
130.7013114852805
 31
0.0
  0
LINE
  5
257
330
E3
100
AcDbEntity
  8
0
  6
Continuous
100
AcDbLine
 10
107.5617654181782
 20
130.7013114852805
 30
0.0
 11
107.5462702140382
 21
130.6930603060887
 31
0.0
  0
LINE
  5
258
330
E3
100
AcDbEntity
  8
0
  6
Continuous
100
AcDbLine
 10
107.5462702140382
 20
130.6930603060887
 30
0.0
 11
107.5342966472027
 21
130.6854283906547
 31
0.0
  0
LINE
  5
259
330
E3
100
AcDbEntity
  8
0
  6
Continuous
100
AcDbLine
 10
107.5342966472027
 20
130.6854283906547
 30
0.0
 11
107.5259433915672
 21
130.6784361542674
 31
0.0
  0
LINE
  5
25A
330
E3
100
AcDbEntity
  8
0
  6
Continuous
100
AcDbLine
 10
107.5259433915672
 20
130.6784361542674
 30
0.0
 11
107.5212811400404
 21
130.6720968715808
 31
0.0
  0
LINE
  5
25B
330
E3
100
AcDbEntity
  8
0
  6
Continuous
100
AcDbLine
 10
107.5212811400404
 20
130.6720968715808
 30
0.0
 11
107.5203511347256
 21
130.6664142636609
 31
0.0
  0
LINE
  5
25C
330
E3
100
AcDbEntity
  8
0
  6
Continuous
100
AcDbLine
 10
108.5391335311943
 20
130.6473826635646
 30
0.0
 11
108.5382035258795
 21
130.6417000556447
 31
0.0
  0
LINE
  5
25D
330
E3
100
AcDbEntity
  8
0
  6
Continuous
100
AcDbLine
 10
108.5382035258795
 20
130.6417000556447
 30
0.0
 11
108.5335402900767
 21
130.6353591784646
 31
0.0
  0
LINE
  5
25E
330
E3
100
AcDbEntity
  8
0
  6
Continuous
100
AcDbLine
 10
108.5335402900767
 20
130.6353591784646
 30
0.0
 11
108.5251867108103
 21
130.6283676586765
 31
0.0
  0
LINE
  5
25F
330
E3
100
AcDbEntity
  8
0
  6
Continuous
100
AcDbLine
 10
108.5251867108103
 20
130.6283676586765
 30
0.0
 11
108.5132131439748
 21
130.6207391457907
 31
0.0
  0
LINE
  5
260
330
E3
100
AcDbEntity
  8
0
  6
Continuous
100
AcDbLine
 10
108.5132131439748
 20
130.6207391457907
 30
0.0
 11
108.4977179398347
 21
130.6124879665988
 31
0.0
  0
LINE
  5
261
330
E3
100
AcDbEntity
  8
0
  6
Continuous
100
AcDbLine
 10
108.4977179398347
 20
130.6124879665988
 30
0.0
 11
108.4788269926706
 21
130.6036379389378
 31
0.0
  0
LINE
  5
262
330
E3
100
AcDbEntity
  8
0
  6
Continuous
100
AcDbLine
 10
108.4788269926706
 20
130.6036379389378
 30
0.0
 11
108.4566900145996
 21
130.5942162831926
 31
0.0
  0
LINE
  5
263
330
E3
100
AcDbEntity
  8
0
  6
Continuous
100
AcDbLine
 10
108.4566900145996
 20
130.5942162831926
 30
0.0
 11
108.431483938124
 21
130.5842536222962
 31
0.0
  0
LINE
  5
264
330
E3
100
AcDbEntity
  8
0
  6
Continuous
100
AcDbLine
 10
108.431483938124
 20
130.5842536222962
 30
0.0
 11
108.4034061110349
 21
130.5737839817299
 31
0.0
  0
LINE
  5
265
330
E3
100
AcDbEntity
  8
0
  6
Continuous
100
AcDbLine
 10
108.4034061110349
 20
130.5737839817299
 30
0.0
 11
108.3726776989601
 21
130.562844789523
 31
0.0
  0
LINE
  5
266
330
E3
100
AcDbEntity
  8
0
  6
Continuous
100
AcDbLine
 10
108.3726776989601
 20
130.562844789523
 30
0.0
 11
108.3395436853641
 21
130.5514836813491
 31
0.0
  0
LINE
  5
267
330
E3
100
AcDbEntity
  8
0
  6
Continuous
100
AcDbLine
 10
108.3395436853641
 20
130.5514836813491
 30
0.0
 11
108.304255858808
 21
130.5397448903339
 31
0.0
  0
LINE
  5
268
330
E3
100
AcDbEntity
  8
0
  6
Continuous
100
AcDbLine
 10
108.304255858808
 20
130.5397448903339
 30
0.0
 11
108.2670966307857
 21
130.527672649603
 31
0.0
  0
LINE
  5
269
330
E3
100
AcDbEntity
  8
0
  6
Continuous
100
AcDbLine
 10
108.2670966307857
 20
130.527672649603
 30
0.0
 11
108.2283552178874
 21
130.5153248024742
 31
0.0
  0
LINE
  5
26A
330
E3
100
AcDbEntity
  8
0
  6
Continuous
100
AcDbLine
 10
108.2283552178874
 20
130.5153248024742
 30
0.0
 11
108.1883276417996
 21
130.5027455820733
 31
0.0
  0
LINE
  5
26B
330
E3
100
AcDbEntity
  8
0
  6
Continuous
100
AcDbLine
 10
108.1883276417996
 20
130.5027455820733
 30
0.0
 11
108.1473337420457
 21
130.4899996368144
 31
0.0
  0
LINE
  5
26C
330
E3
100
AcDbEntity
  8
0
  6
Continuous
100
AcDbLine
 10
108.1473337420457
 20
130.4899996368144
 30
0.0
 11
108.1056899556008
 21
130.4771380049196
 31
0.0
  0
LINE
  5
26D
330
E3
100
AcDbEntity
  8
0
  6
Continuous
100
AcDbLine
 10
108.1056899556008
 20
130.4771380049196
 30
0.0
 11
108.0637161219882
 21
130.4642185297066
 31
0.0
  0
LINE
  5
26E
330
E3
100
AcDbEntity
  8
0
  6
Continuous
100
AcDbLine
 10
108.0637161219882
 20
130.4642185297066
 30
0.0
 11
108.0217456909237
 21
130.4512990544936
 31
0.0
  0
LINE
  5
26F
330
E3
100
AcDbEntity
  8
0
  6
Continuous
100
AcDbLine
 10
108.0217456909237
 20
130.4512990544936
 30
0.0
 11
107.9800985019306
 21
130.4384374225987
 31
0.0
  0
LINE
  5
270
330
E3
100
AcDbEntity
  8
0
  6
Continuous
100
AcDbLine
 10
107.9800985019306
 20
130.4384374225987
 30
0.0
 11
107.9391046021767
 21
130.4256914773399
 31
0.0
  0
LINE
  5
271
330
E3
100
AcDbEntity
  8
0
  6
Continuous
100
AcDbLine
 10
107.9391046021767
 20
130.4256914773399
 30
0.0
 11
107.899080428637
 21
130.4131156594871
 31
0.0
  0
LINE
  5
272
330
E3
100
AcDbEntity
  8
0
  6
Continuous
100
AcDbLine
 10
107.899080428637
 20
130.4131156594871
 30
0.0
 11
107.8603356131906
 21
130.4007644098103
 31
0.0
  0
LINE
  5
273
330
E3
100
AcDbEntity
  8
0
  6
Continuous
100
AcDbLine
 10
107.8603356131906
 20
130.4007644098103
 30
0.0
 11
107.8231763851683
 21
130.3886921690792
 31
0.0
  0
LINE
  5
274
330
E3
100
AcDbEntity
  8
0
  6
Continuous
100
AcDbLine
 10
107.8231763851683
 20
130.3886921690792
 30
0.0
 11
107.7878919611603
 21
130.376953378064
 31
0.0
  0
LINE
  5
275
330
E3
100
AcDbEntity
  8
0
  6
Continuous
100
AcDbLine
 10
107.7878919611603
 20
130.376953378064
 30
0.0
 11
107.7547545450162
 21
130.3655922698902
 31
0.0
  0
LINE
  5
276
330
E3
100
AcDbEntity
  8
0
  6
Continuous
100
AcDbLine
 10
107.7547545450162
 20
130.3655922698902
 30
0.0
 11
107.7240295354895
 21
130.3546564802314
 31
0.0
  0
LINE
  5
277
330
E3
100
AcDbEntity
  8
0
  6
Continuous
100
AcDbLine
 10
107.7240295354895
 20
130.3546564802314
 30
0.0
 11
107.6959517084004
 21
130.3441868396651
 31
0.0
  0
LINE
  5
278
330
E3
100
AcDbEntity
  8
0
  6
Continuous
100
AcDbLine
 10
107.6959517084004
 20
130.3441868396651
 30
0.0
 11
107.6707456319249
 21
130.3342207762206
 31
0.0
  0
LINE
  5
279
330
E3
100
AcDbEntity
  8
0
  6
Continuous
100
AcDbLine
 10
107.6707456319249
 20
130.3342207762206
 30
0.0
 11
107.6486086538539
 21
130.3247991204753
 31
0.0
  0
LINE
  5
27A
330
E3
100
AcDbEntity
  8
0
  6
Continuous
100
AcDbLine
 10
107.6486086538539
 20
130.3247991204753
 30
0.0
 11
107.6297177066897
 21
130.3159490928143
 31
0.0
  0
LINE
  5
27B
330
E3
100
AcDbEntity
  8
0
  6
Continuous
100
AcDbLine
 10
107.6297177066897
 20
130.3159490928143
 30
0.0
 11
107.6142225025497
 21
130.3077013161706
 31
0.0
  0
LINE
  5
27C
330
E3
100
AcDbEntity
  8
0
  6
Continuous
100
AcDbLine
 10
107.6142225025497
 20
130.3077013161706
 30
0.0
 11
107.6022489357142
 21
130.3000694007366
 31
0.0
  0
LINE
  5
27D
330
E3
100
AcDbEntity
  8
0
  6
Continuous
100
AcDbLine
 10
107.6022489357142
 20
130.3000694007366
 30
0.0
 11
107.5938922775306
 21
130.2930771643493
 31
0.0
  0
LINE
  5
27E
330
E3
100
AcDbEntity
  8
0
  6
Continuous
100
AcDbLine
 10
107.5938922775306
 20
130.2930771643493
 30
0.0
 11
107.5892304269536
 21
130.2867373160543
 31
0.0
  0
LINE
  5
27F
330
E3
100
AcDbEntity
  8
0
  6
Continuous
100
AcDbLine
 10
107.5892304269536
 20
130.2867373160543
 30
0.0
 11
107.5883004216387
 21
130.2810547081344
 31
0.0
  0
LINE
  5
280
330
E3
100
AcDbEntity
  8
0
  6
Continuous
100
AcDbLine
 10
108.6070828181075
 20
130.2620231080381
 30
0.0
 11
108.6061528127926
 21
130.2563405001182
 31
0.0
  0
LINE
  5
281
330
E3
100
AcDbEntity
  8
0
  6
Continuous
100
AcDbLine
 10
108.6061528127926
 20
130.2563405001182
 30
0.0
 11
108.6014895769899
 21
130.2499996229381
 31
0.0
  0
LINE
  5
282
330
E3
100
AcDbEntity
  8
0
  6
Continuous
100
AcDbLine
 10
108.6014895769899
 20
130.2499996229381
 30
0.0
 11
108.5931355967736
 21
130.2430086687584
 31
0.0
  0
LINE
  5
283
330
E3
100
AcDbEntity
  8
0
  6
Continuous
100
AcDbLine
 10
108.5931355967736
 20
130.2430086687584
 30
0.0
 11
108.5811620299381
 21
130.2353767533245
 31
0.0
  0
LINE
  5
284
330
E3
100
AcDbEntity
  8
0
  6
Continuous
100
AcDbLine
 10
108.5811620299381
 20
130.2353767533245
 30
0.0
 11
108.5656668257981
 21
130.2271289766808
 31
0.0
  0
LINE
  5
285
330
E3
100
AcDbEntity
  8
0
  6
Continuous
100
AcDbLine
 10
108.5656668257981
 20
130.2271289766808
 30
0.0
 11
108.5467758786339
 21
130.2182789490198
 31
0.0
  0
LINE
  5
286
330
E3
100
AcDbEntity
  8
0
  6
Continuous
100
AcDbLine
 10
108.5467758786339
 20
130.2182789490198
 30
0.0
 11
108.5246389005629
 21
130.2088572932745
 31
0.0
  0
LINE
  5
287
330
E3
100
AcDbEntity
  8
0
  6
Continuous
100
AcDbLine
 10
108.5246389005629
 20
130.2088572932745
 30
0.0
 11
108.4994328240874
 21
130.19889122983
 31
0.0
  0
LINE
  5
288
330
E3
100
AcDbEntity
  8
0
  6
Continuous
100
AcDbLine
 10
108.4994328240874
 20
130.19889122983
 30
0.0
 11
108.4713549969983
 21
130.1884215892637
 31
0.0
  0
LINE
  5
289
330
E3
100
AcDbEntity
  8
0
  6
Continuous
100
AcDbLine
 10
108.4713549969983
 20
130.1884215892637
 30
0.0
 11
108.4406265849234
 21
130.1774857996049
 31
0.0
  0
LINE
  5
28A
330
E3
100
AcDbEntity
  8
0
  6
Continuous
100
AcDbLine
 10
108.4406265849234
 20
130.1774857996049
 30
0.0
 11
108.4074925713275
 21
130.1661246914311
 31
0.0
  0
LINE
  5
28B
330
E3
100
AcDbEntity
  8
0
  6
Continuous
100
AcDbLine
 10
108.4074925713275
 20
130.1661246914311
 30
0.0
 11
108.3722047447714
 21
130.1543859004159
 31
0.0
  0
LINE
  5
28C
330
E3
100
AcDbEntity
  8
0
  6
Continuous
100
AcDbLine
 10
108.3722047447714
 20
130.1543859004159
 30
0.0
 11
108.335045516749
 21
130.1423136596849
 31
0.0
  0
LINE
  5
28D
330
E3
100
AcDbEntity
  8
0
  6
Continuous
100
AcDbLine
 10
108.335045516749
 20
130.1423136596849
 30
0.0
 11
108.2963041038508
 21
130.129962410008
 31
0.0
  0
LINE
  5
28E
330
E3
100
AcDbEntity
  8
0
  6
Continuous
100
AcDbLine
 10
108.2963041038508
 20
130.129962410008
 30
0.0
 11
108.2562799303111
 21
130.1173865921552
 31
0.0
  0
LINE
  5
28F
330
E3
100
AcDbEntity
  8
0
  6
Continuous
100
AcDbLine
 10
108.2562799303111
 20
130.1173865921552
 30
0.0
 11
108.215282628009
 21
130.1046406468964
 31
0.0
  0
LINE
  5
290
330
E3
100
AcDbEntity
  8
0
  6
Continuous
100
AcDbLine
 10
108.215282628009
 20
130.1046406468964
 30
0.0
 11
108.1736388415641
 21
130.0917790150015
 31
0.0
  0
LINE
  5
291
330
E3
100
AcDbEntity
  8
0
  6
Continuous
100
AcDbLine
 10
108.1736388415641
 20
130.0917790150015
 30
0.0
 11
108.1316650079515
 21
130.0788595397885
 31
0.0
  0
LINE
  5
292
330
E3
100
AcDbEntity
  8
0
  6
Continuous
100
AcDbLine
 10
108.1316650079515
 20
130.0788595397885
 30
0.0
 11
108.089694576887
 21
130.0659400645756
 31
0.0
  0
LINE
  5
293
330
E3
100
AcDbEntity
  8
0
  6
Continuous
100
AcDbLine
 10
108.089694576887
 20
130.0659400645756
 30
0.0
 11
108.0480473878939
 21
130.0530784326806
 31
0.0
  0
LINE
  5
294
330
E3
100
AcDbEntity
  8
0
  6
Continuous
100
AcDbLine
 10
108.0480473878939
 20
130.0530784326806
 30
0.0
 11
108.00705348814
 21
130.0403290848737
 31
0.0
  0
LINE
  5
295
330
E3
100
AcDbEntity
  8
0
  6
Continuous
100
AcDbLine
 10
108.00705348814
 20
130.0403290848737
 30
0.0
 11
107.9670293146004
 21
130.0277532670209
 31
0.0
  0
LINE
  5
296
330
E3
100
AcDbEntity
  8
0
  6
Continuous
100
AcDbLine
 10
107.9670293146004
 20
130.0277532670209
 30
0.0
 11
107.928284499154
 21
130.0154054198921
 31
0.0
  0
LINE
  5
297
330
E3
100
AcDbEntity
  8
0
  6
Continuous
100
AcDbLine
 10
107.928284499154
 20
130.0154054198921
 30
0.0
 11
107.8911252711316
 21
130.0033331791612
 31
0.0
  0
LINE
  5
298
330
E3
100
AcDbEntity
  8
0
  6
Continuous
100
AcDbLine
 10
107.8911252711316
 20
130.0033331791612
 30
0.0
 11
107.8558408471237
 21
129.991594388146
 31
0.0
  0
LINE
  5
299
330
E3
100
AcDbEntity
  8
0
  6
Continuous
100
AcDbLine
 10
107.8558408471237
 20
129.991594388146
 30
0.0
 11
107.8227034309796
 21
129.9802332799721
 31
0.0
  0
LINE
  5
29A
330
E3
100
AcDbEntity
  8
0
  6
Continuous
100
AcDbLine
 10
107.8227034309796
 20
129.9802332799721
 30
0.0
 11
107.7919784214529
 21
129.9692940877652
 31
0.0
  0
LINE
  5
29B
330
E3
100
AcDbEntity
  8
0
  6
Continuous
100
AcDbLine
 10
107.7919784214529
 20
129.9692940877652
 30
0.0
 11
107.7639005943637
 21
129.9588244471989
 31
0.0
  0
LINE
  5
29C
330
E3
100
AcDbEntity
  8
0
  6
Continuous
100
AcDbLine
 10
107.7639005943637
 20
129.9588244471989
 30
0.0
 11
107.7386945178882
 21
129.9488617863025
 31
0.0
  0
LINE
  5
29D
330
E3
100
AcDbEntity
  8
0
  6
Continuous
100
AcDbLine
 10
107.7386945178882
 20
129.9488617863025
 30
0.0
 11
107.7165575398172
 21
129.9394401305573
 31
0.0
  0
LINE
  5
29E
330
E3
100
AcDbEntity
  8
0
  6
Continuous
100
AcDbLine
 10
107.7165575398172
 20
129.9394401305573
 30
0.0
 11
107.6976665926531
 21
129.9305901028962
 31
0.0
  0
LINE
  5
29F
330
E3
100
AcDbEntity
  8
0
  6
Continuous
100
AcDbLine
 10
107.6976665926531
 20
129.9305901028962
 30
0.0
 11
107.682171388513
 21
129.9223389237044
 31
0.0
  0
LINE
  5
2A0
330
E3
100
AcDbEntity
  8
0
  6
Continuous
100
AcDbLine
 10
107.682171388513
 20
129.9223389237044
 30
0.0
 11
107.6701978216775
 21
129.9147104108186
 31
0.0
  0
LINE
  5
2A1
330
E3
100
AcDbEntity
  8
0
  6
Continuous
100
AcDbLine
 10
107.6701978216775
 20
129.9147104108186
 30
0.0
 11
107.661844566042
 21
129.9077181744312
 31
0.0
  0
LINE
  5
2A2
330
E3
100
AcDbEntity
  8
0
  6
Continuous
100
AcDbLine
 10
107.661844566042
 20
129.9077181744312
 30
0.0
 11
107.6571797138667
 21
129.9013777605278
 31
0.0
  0
LINE
  5
2A3
330
E3
100
AcDbEntity
  8
0
  6
Continuous
100
AcDbLine
 10
107.6571797138667
 20
129.9013777605278
 30
0.0
 11
107.6562497085519
 21
129.8956951526079
 31
0.0
  0
LINE
  5
2A4
330
E3
100
AcDbEntity
  8
0
  6
Continuous
100
AcDbLine
 10
108.6750321050206
 20
129.8766635525116
 30
0.0
 11
108.6741020997058
 21
129.8709809445917
 31
0.0
  0
LINE
  5
2A5
330
E3
100
AcDbEntity
  8
0
  6
Continuous
100
AcDbLine
 10
108.6741020997058
 20
129.8709809445917
 30
0.0
 11
108.669438863903
 21
129.8646400674116
 31
0.0
  0
LINE
  5
2A6
330
E3
100
AcDbEntity
  8
0
  6
Continuous
100
AcDbLine
 10
108.669438863903
 20
129.8646400674116
 30
0.0
 11
108.661084482737
 21
129.8576496788404
 31
0.0
  0
LINE
  5
2A7
330
E3
100
AcDbEntity
  8
0
  6
Continuous
100
AcDbLine
 10
108.661084482737
 20
129.8576496788404
 30
0.0
 11
108.6491109159015
 21
129.8500177634064
 31
0.0
  0
LINE
  5
2A8
330
E3
100
AcDbEntity
  8
0
  6
Continuous
100
AcDbLine
 10
108.6491109159015
 20
129.8500177634064
 30
0.0
 11
108.6336157117614
 21
129.8417665842146
 31
0.0
  0
LINE
  5
2A9
330
E3
100
AcDbEntity
  8
0
  6
Continuous
100
AcDbLine
 10
108.6336157117614
 20
129.8417665842146
 30
0.0
 11
108.6147247645972
 21
129.8329165565536
 31
0.0
  0
LINE
  5
2AA
330
E3
100
AcDbEntity
  8
0
  6
Continuous
100
AcDbLine
 10
108.6147247645972
 20
129.8329165565536
 30
0.0
 11
108.5925877865263
 21
129.8234949008083
 31
0.0
  0
LINE
  5
2AB
330
E3
100
AcDbEntity
  8
0
  6
Continuous
100
AcDbLine
 10
108.5925877865263
 20
129.8234949008083
 30
0.0
 11
108.5673817100507
 21
129.8135322399119
 31
0.0
  0
LINE
  5
2AC
330
E3
100
AcDbEntity
  8
0
  6
Continuous
100
AcDbLine
 10
108.5673817100507
 20
129.8135322399119
 30
0.0
 11
108.5393038829616
 21
129.8030625993456
 31
0.0
  0
LINE
  5
2AD
330
E3
100
AcDbEntity
  8
0
  6
Continuous
100
AcDbLine
 10
108.5393038829616
 20
129.8030625993456
 30
0.0
 11
108.5085754708867
 21
129.7921268096868
 31
0.0
  0
LINE
  5
2AE
330
E3
100
AcDbEntity
  8
0
  6
Continuous
100
AcDbLine
 10
108.5085754708867
 20
129.7921268096868
 30
0.0
 11
108.4754414572908
 21
129.780765701513
 31
0.0
  0
LINE
  5
2AF
330
E3
100
AcDbEntity
  8
0
  6
Continuous
100
AcDbLine
 10
108.4754414572908
 20
129.780765701513
 30
0.0
 11
108.4401536307347
 21
129.7690235079497
 31
0.0
  0
LINE
  5
2B0
330
E3
100
AcDbEntity
  8
0
  6
Continuous
100
AcDbLine
 10
108.4401536307347
 20
129.7690235079497
 30
0.0
 11
108.4029944027124
 21
129.7569546697668
 31
0.0
  0
LINE
  5
2B1
330
E3
100
AcDbEntity
  8
0
  6
Continuous
100
AcDbLine
 10
108.4029944027124
 20
129.7569546697668
 30
0.0
 11
108.3642529898141
 21
129.7446034200899
 31
0.0
  0
LINE
  5
2B2
330
E3
100
AcDbEntity
  8
0
  6
Continuous
100
AcDbLine
 10
108.3642529898141
 20
129.7446034200899
 30
0.0
 11
108.3242288162745
 21
129.7320276022371
 31
0.0
  0
LINE
  5
2B3
330
E3
100
AcDbEntity
  8
0
  6
Continuous
100
AcDbLine
 10
108.3242288162745
 20
129.7320276022371
 30
0.0
 11
108.2832315139724
 21
129.7192816569783
 31
0.0
  0
LINE
  5
2B4
330
E3
100
AcDbEntity
  8
0
  6
Continuous
100
AcDbLine
 10
108.2832315139724
 20
129.7192816569783
 30
0.0
 11
108.2415877275275
 21
129.7064200250834
 31
0.0
  0
LINE
  5
2B5
330
E3
100
AcDbEntity
  8
0
  6
Continuous
100
AcDbLine
 10
108.2415877275275
 20
129.7064200250834
 30
0.0
 11
108.1996138939148
 21
129.6935005498704
 31
0.0
  0
LINE
  5
2B6
330
E3
100
AcDbEntity
  8
0
  6
Continuous
100
AcDbLine
 10
108.1996138939148
 20
129.6935005498704
 30
0.0
 11
108.1576434628504
 21
129.6805810746575
 31
0.0
  0
LINE
  5
2B7
330
E3
100
AcDbEntity
  8
0
  6
Continuous
100
AcDbLine
 10
108.1576434628504
 20
129.6805810746575
 30
0.0
 11
108.1159996764054
 21
129.6677194427626
 31
0.0
  0
LINE
  5
2B8
330
E3
100
AcDbEntity
  8
0
  6
Continuous
100
AcDbLine
 10
108.1159996764054
 20
129.6677194427626
 30
0.0
 11
108.0750023741034
 21
129.6549700949556
 31
0.0
  0
LINE
  5
2B9
330
E3
100
AcDbEntity
  8
0
  6
Continuous
100
AcDbLine
 10
108.0750023741034
 20
129.6549700949556
 30
0.0
 11
108.0349782005637
 21
129.6423942771028
 31
0.0
  0
LINE
  5
2BA
330
E3
100
AcDbEntity
  8
0
  6
Continuous
100
AcDbLine
 10
108.0349782005637
 20
129.6423942771028
 30
0.0
 11
107.9962367876654
 21
129.630046429974
 31
0.0
  0
LINE
  5
2BB
330
E3
100
AcDbEntity
  8
0
  6
Continuous
100
AcDbLine
 10
107.9962367876654
 20
129.630046429974
 30
0.0
 11
107.9590775596431
 21
129.6179741892431
 31
0.0
  0
LINE
  5
2BC
330
E3
100
AcDbEntity
  8
0
  6
Continuous
100
AcDbLine
 10
107.9590775596431
 20
129.6179741892431
 30
0.0
 11
107.923789733087
 21
129.6062353982279
 31
0.0
  0
LINE
  5
2BD
330
E3
100
AcDbEntity
  8
0
  6
Continuous
100
AcDbLine
 10
107.923789733087
 20
129.6062353982279
 30
0.0
 11
107.8906557194911
 21
129.5948708875059
 31
0.0
  0
LINE
  5
2BE
330
E3
100
AcDbEntity
  8
0
  6
Continuous
100
AcDbLine
 10
107.8906557194911
 20
129.5948708875059
 30
0.0
 11
107.8599273074162
 21
129.5839350978471
 31
0.0
  0
LINE
  5
2BF
330
E3
100
AcDbEntity
  8
0
  6
Continuous
100
AcDbLine
 10
107.8599273074162
 20
129.5839350978471
 30
0.0
 11
107.8318494803271
 21
129.5734654572808
 31
0.0
  0
LINE
  5
2C0
330
E3
100
AcDbEntity
  8
0
  6
Continuous
100
AcDbLine
 10
107.8318494803271
 20
129.5734654572808
 30
0.0
 11
107.8066434038515
 21
129.5635027963845
 31
0.0
  0
LINE
  5
2C1
330
E3
100
AcDbEntity
  8
0
  6
Continuous
100
AcDbLine
 10
107.8066434038515
 20
129.5635027963845
 30
0.0
 11
107.7845064257805
 21
129.5540811406392
 31
0.0
  0
LINE
  5
2C2
330
E3
100
AcDbEntity
  8
0
  6
Continuous
100
AcDbLine
 10
107.7845064257805
 20
129.5540811406392
 30
0.0
 11
107.7656154786164
 21
129.5452311129782
 31
0.0
  0
LINE
  5
2C3
330
E3
100
AcDbEntity
  8
0
  6
Continuous
100
AcDbLine
 10
107.7656154786164
 20
129.5452311129782
 30
0.0
 11
107.7501202744763
 21
129.5369799337863
 31
0.0
  0
LINE
  5
2C4
330
E3
100
AcDbEntity
  8
0
  6
Continuous
100
AcDbLine
 10
107.7501202744763
 20
129.5369799337863
 30
0.0
 11
107.7381467076408
 21
129.5293514209005
 31
0.0
  0
LINE
  5
2C5
330
E3
100
AcDbEntity
  8
0
  6
Continuous
100
AcDbLine
 10
107.7381467076408
 20
129.5293514209005
 30
0.0
 11
107.7297934520054
 21
129.5223591845132
 31
0.0
  0
LINE
  5
2C6
330
E3
100
AcDbEntity
  8
0
  6
Continuous
100
AcDbLine
 10
107.7297934520054
 20
129.5223591845132
 30
0.0
 11
107.7251290007799
 21
129.5160182050013
 31
0.0
  0
LINE
  5
2C7
330
E3
100
AcDbEntity
  8
0
  6
Continuous
100
AcDbLine
 10
107.7251290007799
 20
129.5160182050013
 30
0.0
 11
107.724198995465
 21
129.5103355970814
 31
0.0
  0
LINE
  5
2C8
330
E3
100
AcDbEntity
  8
0
  6
Continuous
100
AcDbLine
 10
108.7429813919338
 20
129.491303996985
 30
0.0
 11
108.7420513866189
 21
129.4856213890652
 31
0.0
  0
LINE
  5
2C9
330
E3
100
AcDbEntity
  8
0
  6
Continuous
100
AcDbLine
 10
108.7420513866189
 20
129.4856213890652
 30
0.0
 11
108.7373881508162
 21
129.479280511885
 31
0.0
  0
LINE
  5
2CA
330
E3
100
AcDbEntity
  8
0
  6
Continuous
100
AcDbLine
 10
108.7373881508162
 20
129.479280511885
 30
0.0
 11
108.7290333687003
 21
129.4722872863742
 31
0.0
  0
LINE
  5
2CB
330
E3
100
AcDbEntity
  8
0
  6
Continuous
100
AcDbLine
 10
108.7290333687003
 20
129.4722872863742
 30
0.0
 11
108.7170598018648
 21
129.4646587734883
 31
0.0
  0
LINE
  5
2CC
330
E3
100
AcDbEntity
  8
0
  6
Continuous
100
AcDbLine
 10
108.7170598018648
 20
129.4646587734883
 30
0.0
 11
108.7015645977248
 21
129.4564075942965
 31
0.0
  0
LINE
  5
2CD
330
E3
100
AcDbEntity
  8
0
  6
Continuous
100
AcDbLine
 10
108.7015645977248
 20
129.4564075942965
 30
0.0
 11
108.6826736505606
 21
129.4475575666355
 31
0.0
  0
LINE
  5
2CE
330
E3
100
AcDbEntity
  8
0
  6
Continuous
100
AcDbLine
 10
108.6826736505606
 20
129.4475575666355
 30
0.0
 11
108.6605366724896
 21
129.4381359108902
 31
0.0
  0
LINE
  5
2CF
330
E3
100
AcDbEntity
  8
0
  6
Continuous
100
AcDbLine
 10
108.6605366724896
 20
129.4381359108902
 30
0.0
 11
108.6353305960141
 21
129.4281732499938
 31
0.0
  0
LINE
  5
2D0
330
E3
100
AcDbEntity
  8
0
  6
Continuous
100
AcDbLine
 10
108.6353305960141
 20
129.4281732499938
 30
0.0
 11
108.607252768925
 21
129.4177036094275
 31
0.0
  0
LINE
  5
2D1
330
E3
100
AcDbEntity
  8
0
  6
Continuous
100
AcDbLine
 10
108.607252768925
 20
129.4177036094275
 30
0.0
 11
108.5765243568501
 21
129.4067678197687
 31
0.0
  0
LINE
  5
2D2
330
E3
100
AcDbEntity
  8
0
  6
Continuous
100
AcDbLine
 10
108.5765243568501
 20
129.4067678197687
 30
0.0
 11
108.5433903432542
 21
129.3954067115949
 31
0.0
  0
LINE
  5
2D3
330
E3
100
AcDbEntity
  8
0
  6
Continuous
100
AcDbLine
 10
108.5433903432542
 20
129.3954067115949
 30
0.0
 11
108.5081059192461
 21
129.3836645180316
 31
0.0
  0
LINE
  5
2D4
330
E3
100
AcDbEntity
  8
0
  6
Continuous
100
AcDbLine
 10
108.5081059192461
 20
129.3836645180316
 30
0.0
 11
108.4709466912238
 21
129.3715956798487
 31
0.0
  0
LINE
  5
2D5
330
E3
100
AcDbEntity
  8
0
  6
Continuous
100
AcDbLine
 10
108.4709466912238
 20
129.3715956798487
 30
0.0
 11
108.4322018757774
 21
129.3592444301719
 31
0.0
  0
LINE
  5
2D6
330
E3
100
AcDbEntity
  8
0
  6
Continuous
100
AcDbLine
 10
108.4322018757774
 20
129.3592444301719
 30
0.0
 11
108.3921777022378
 21
129.3466686123191
 31
0.0
  0
LINE
  5
2D7
330
E3
100
AcDbEntity
  8
0
  6
Continuous
100
AcDbLine
 10
108.3921777022378
 20
129.3466686123191
 30
0.0
 11
108.3511838024838
 21
129.3339226670602
 31
0.0
  0
LINE
  5
2D8
330
E3
100
AcDbEntity
  8
0
  6
Continuous
100
AcDbLine
 10
108.3511838024838
 20
129.3339226670602
 30
0.0
 11
108.3095366134908
 21
129.3210610351653
 31
0.0
  0
LINE
  5
2D9
330
E3
100
AcDbEntity
  8
0
  6
Continuous
100
AcDbLine
 10
108.3095366134908
 20
129.3210610351653
 30
0.0
 11
108.2675661824263
 21
129.3081415599524
 31
0.0
  0
LINE
  5
2DA
330
E3
100
AcDbEntity
  8
0
  6
Continuous
100
AcDbLine
 10
108.2675661824263
 20
129.3081415599524
 30
0.0
 11
108.2255923488137
 21
129.2952220847394
 31
0.0
  0
LINE
  5
2DB
330
E3
100
AcDbEntity
  8
0
  6
Continuous
100
AcDbLine
 10
108.2255923488137
 20
129.2952220847394
 30
0.0
 11
108.1839485623688
 21
129.2823570502963
 31
0.0
  0
LINE
  5
2DC
330
E3
100
AcDbEntity
  8
0
  6
Continuous
100
AcDbLine
 10
108.1839485623688
 20
129.2823570502963
 30
0.0
 11
108.1429512600667
 21
129.2696111050375
 31
0.0
  0
LINE
  5
2DD
330
E3
100
AcDbEntity
  8
0
  6
Continuous
100
AcDbLine
 10
108.1429512600667
 20
129.2696111050375
 30
0.0
 11
108.102927086527
 21
129.2570352871847
 31
0.0
  0
LINE
  5
2DE
330
E3
100
AcDbEntity
  8
0
  6
Continuous
100
AcDbLine
 10
108.102927086527
 20
129.2570352871847
 30
0.0
 11
108.0641856736288
 21
129.2446840375079
 31
0.0
  0
LINE
  5
2DF
330
E3
100
AcDbEntity
  8
0
  6
Continuous
100
AcDbLine
 10
108.0641856736288
 20
129.2446840375079
 30
0.0
 11
108.0270264456065
 21
129.232615199325
 31
0.0
  0
LINE
  5
2E0
330
E3
100
AcDbEntity
  8
0
  6
Continuous
100
AcDbLine
 10
108.0270264456065
 20
129.232615199325
 30
0.0
 11
107.9917386190503
 21
129.2208730057617
 31
0.0
  0
LINE
  5
2E1
330
E3
100
AcDbEntity
  8
0
  6
Continuous
100
AcDbLine
 10
107.9917386190503
 20
129.2208730057617
 30
0.0
 11
107.9586046054544
 21
129.2095118975878
 31
0.0
  0
LINE
  5
2E2
330
E3
100
AcDbEntity
  8
0
  6
Continuous
100
AcDbLine
 10
107.9586046054544
 20
129.2095118975878
 30
0.0
 11
107.9278761933795
 21
129.198576107929
 31
0.0
  0
LINE
  5
2E3
330
E3
100
AcDbEntity
  8
0
  6
Continuous
100
AcDbLine
 10
107.9278761933795
 20
129.198576107929
 30
0.0
 11
107.8997983662904
 21
129.1881064673627
 31
0.0
  0
LINE
  5
2E4
330
E3
100
AcDbEntity
  8
0
  6
Continuous
100
AcDbLine
 10
107.8997983662904
 20
129.1881064673627
 30
0.0
 11
107.8745922898149
 21
129.1781438064664
 31
0.0
  0
LINE
  5
2E5
330
E3
100
AcDbEntity
  8
0
  6
Continuous
100
AcDbLine
 10
107.8745922898149
 20
129.1781438064664
 30
0.0
 11
107.8524553117439
 21
129.1687221507211
 31
0.0
  0
LINE
  5
2E6
330
E3
100
AcDbEntity
  8
0
  6
Continuous
100
AcDbLine
 10
107.8524553117439
 20
129.1687221507211
 30
0.0
 11
107.8335643645797
 21
129.1598721230601
 31
0.0
  0
LINE
  5
2E7
330
E3
100
AcDbEntity
  8
0
  6
Continuous
100
AcDbLine
 10
107.8335643645797
 20
129.1598721230601
 30
0.0
 11
107.8180691604397
 21
129.1516209438682
 31
0.0
  0
LINE
  5
2E8
330
E3
100
AcDbEntity
  8
0
  6
Continuous
100
AcDbLine
 10
107.8180691604397
 20
129.1516209438682
 30
0.0
 11
107.8060955936042
 21
129.1439924309824
 31
0.0
  0
LINE
  5
2E9
330
E3
100
AcDbEntity
  8
0
  6
Continuous
100
AcDbLine
 10
107.8060955936042
 20
129.1439924309824
 30
0.0
 11
107.7977423379687
 21
129.1370001945951
 31
0.0
  0
LINE
  5
2EA
330
E3
100
AcDbEntity
  8
0
  6
Continuous
100
AcDbLine
 10
107.7977423379687
 20
129.1370001945951
 30
0.0
 11
107.793078287693
 21
129.1306586494748
 31
0.0
  0
LINE
  5
2EB
330
E3
100
AcDbEntity
  8
0
  6
Continuous
100
AcDbLine
 10
107.793078287693
 20
129.1306586494748
 30
0.0
 11
107.7921482823782
 21
129.1249760415549
 31
0.0
  0
LINE
  5
2EC
330
E3
100
AcDbEntity
  8
0
  6
Continuous
100
AcDbLine
 10
108.8109306788469
 20
129.1059444414585
 30
0.0
 11
108.810000673532
 21
129.1002618335386
 31
0.0
  0
LINE
  5
2ED
330
E3
100
AcDbEntity
  8
0
  6
Continuous
100
AcDbLine
 10
108.810000673532
 20
129.1002618335386
 30
0.0
 11
108.8053374377293
 21
129.0939209563585
 31
0.0
  0
LINE
  5
2EE
330
E3
100
AcDbEntity
  8
0
  6
Continuous
100
AcDbLine
 10
108.8053374377293
 20
129.0939209563585
 30
0.0
 11
108.7969822546637
 21
129.0869282964561
 31
0.0
  0
LINE
  5
2EF
330
E3
100
AcDbEntity
  8
0
  6
Continuous
100
AcDbLine
 10
108.7969822546637
 20
129.0869282964561
 30
0.0
 11
108.7850086878281
 21
129.0792997835702
 31
0.0
  0
LINE
  5
2F0
330
E3
100
AcDbEntity
  8
0
  6
Continuous
100
AcDbLine
 10
108.7850086878281
 20
129.0792997835702
 30
0.0
 11
108.7695134836881
 21
129.0710486043784
 31
0.0
  0
LINE
  5
2F1
330
E3
100
AcDbEntity
  8
0
  6
Continuous
100
AcDbLine
 10
108.7695134836881
 20
129.0710486043784
 30
0.0
 11
108.7506225365239
 21
129.0621985767174
 31
0.0
  0
LINE
  5
2F2
330
E3
100
AcDbEntity
  8
0
  6
Continuous
100
AcDbLine
 10
108.7506225365239
 20
129.0621985767174
 30
0.0
 11
108.7284855584529
 21
129.0527769209722
 31
0.0
  0
LINE
  5
2F3
330
E3
100
AcDbEntity
  8
0
  6
Continuous
100
AcDbLine
 10
108.7284855584529
 20
129.0527769209722
 30
0.0
 11
108.7032794819774
 21
129.0428142600758
 31
0.0
  0
LINE
  5
2F4
330
E3
100
AcDbEntity
  8
0
  6
Continuous
100
AcDbLine
 10
108.7032794819774
 20
129.0428142600758
 30
0.0
 11
108.6752016548883
 21
129.0323446195095
 31
0.0
  0
LINE
  5
2F5
330
E3
100
AcDbEntity
  8
0
  6
Continuous
100
AcDbLine
 10
108.6752016548883
 20
129.0323446195095
 30
0.0
 11
108.6444766453616
 21
129.0214088298507
 31
0.0
  0
LINE
  5
2F6
330
E3
100
AcDbEntity
  8
0
  6
Continuous
100
AcDbLine
 10
108.6444766453616
 20
129.0214088298507
 30
0.0
 11
108.6113392292175
 21
129.0100477216768
 31
0.0
  0
LINE
  5
2F7
330
E3
100
AcDbEntity
  8
0
  6
Continuous
100
AcDbLine
 10
108.6113392292175
 20
129.0100477216768
 30
0.0
 11
108.5760548052095
 21
128.9983055281135
 31
0.0
  0
LINE
  5
2F8
330
E3
100
AcDbEntity
  8
0
  6
Continuous
100
AcDbLine
 10
108.5760548052095
 20
128.9983055281135
 30
0.0
 11
108.5388955771872
 21
128.9862366899306
 31
0.0
  0
LINE
  5
2F9
330
E3
100
AcDbEntity
  8
0
  6
Continuous
100
AcDbLine
 10
108.5388955771872
 20
128.9862366899306
 30
0.0
 11
108.5001507617408
 21
128.9738854402538
 31
0.0
  0
LINE
  5
2FA
330
E3
100
AcDbEntity
  8
0
  6
Continuous
100
AcDbLine
 10
108.5001507617408
 20
128.9738854402538
 30
0.0
 11
108.4601265882011
 21
128.961309622401
 31
0.0
  0
LINE
  5
2FB
330
E3
100
AcDbEntity
  8
0
  6
Continuous
100
AcDbLine
 10
108.4601265882011
 20
128.961309622401
 30
0.0
 11
108.4191326884472
 21
128.948560274594
 31
0.0
  0
LINE
  5
2FC
330
E3
100
AcDbEntity
  8
0
  6
Continuous
100
AcDbLine
 10
108.4191326884472
 20
128.948560274594
 30
0.0
 11
108.3774854994541
 21
128.9356986426991
 31
0.0
  0
LINE
  5
2FD
330
E3
100
AcDbEntity
  8
0
  6
Continuous
100
AcDbLine
 10
108.3774854994541
 20
128.9356986426991
 30
0.0
 11
108.3355150683897
 21
128.9227791674862
 31
0.0
  0
LINE
  5
2FE
330
E3
100
AcDbEntity
  8
0
  6
Continuous
100
AcDbLine
 10
108.3355150683897
 20
128.9227791674862
 30
0.0
 11
108.2935412347771
 21
128.9098596922732
 31
0.0
  0
LINE
  5
2FF
330
E3
100
AcDbEntity
  8
0
  6
Continuous
100
AcDbLine
 10
108.2935412347771
 20
128.9098596922732
 30
0.0
 11
108.2518974483321
 21
128.8969980603783
 31
0.0
  0
LINE
  5
300
330
E3
100
AcDbEntity
  8
0
  6
Continuous
100
AcDbLine
 10
108.2518974483321
 20
128.8969980603783
 30
0.0
 11
108.21090014603
 21
128.8842521151194
 31
0.0
  0
LINE
  5
301
330
E3
100
AcDbEntity
  8
0
  6
Continuous
100
AcDbLine
 10
108.21090014603
 20
128.8842521151194
 30
0.0
 11
108.1708759724904
 21
128.8716762972666
 31
0.0
  0
LINE
  5
302
330
E3
100
AcDbEntity
  8
0
  6
Continuous
100
AcDbLine
 10
108.1708759724904
 20
128.8716762972666
 30
0.0
 11
108.1321345595921
 21
128.8593250475898
 31
0.0
  0
LINE
  5
303
330
E3
100
AcDbEntity
  8
0
  6
Continuous
100
AcDbLine
 10
108.1321345595921
 20
128.8593250475898
 30
0.0
 11
108.0949753315698
 21
128.8472562094069
 31
0.0
  0
LINE
  5
304
330
E3
100
AcDbEntity
  8
0
  6
Continuous
100
AcDbLine
 10
108.0949753315698
 20
128.8472562094069
 30
0.0
 11
108.0596875050137
 21
128.8355140158436
 31
0.0
  0
LINE
  5
305
330
E3
100
AcDbEntity
  8
0
  6
Continuous
100
AcDbLine
 10
108.0596875050137
 20
128.8355140158436
 30
0.0
 11
108.0265534914177
 21
128.8241529076698
 31
0.0
  0
LINE
  5
306
330
E3
100
AcDbEntity
  8
0
  6
Continuous
100
AcDbLine
 10
108.0265534914177
 20
128.8241529076698
 30
0.0
 11
107.9958250793429
 21
128.813217118011
 31
0.0
  0
LINE
  5
307
330
E3
100
AcDbEntity
  8
0
  6
Continuous
100
AcDbLine
 10
107.9958250793429
 20
128.813217118011
 30
0.0
 11
107.9677472522537
 21
128.8027474774447
 31
0.0
  0
LINE
  5
308
330
E3
100
AcDbEntity
  8
0
  6
Continuous
100
AcDbLine
 10
107.9677472522537
 20
128.8027474774447
 30
0.0
 11
107.9425411757782
 21
128.7927848165483
 31
0.0
  0
LINE
  5
309
330
E3
100
AcDbEntity
  8
0
  6
Continuous
100
AcDbLine
 10
107.9425411757782
 20
128.7927848165483
 30
0.0
 11
107.9204041977072
 21
128.783363160803
 31
0.0
  0
LINE
  5
30A
330
E3
100
AcDbEntity
  8
0
  6
Continuous
100
AcDbLine
 10
107.9204041977072
 20
128.783363160803
 30
0.0
 11
107.9015132505431
 21
128.774513133142
 31
0.0
  0
LINE
  5
30B
330
E3
100
AcDbEntity
  8
0
  6
Continuous
100
AcDbLine
 10
107.9015132505431
 20
128.774513133142
 30
0.0
 11
107.886018046403
 21
128.7662619539502
 31
0.0
  0
LINE
  5
30C
330
E3
100
AcDbEntity
  8
0
  6
Continuous
100
AcDbLine
 10
107.886018046403
 20
128.7662619539502
 30
0.0
 11
107.8740444795675
 21
128.7586300385162
 31
0.0
  0
LINE
  5
30D
330
E3
100
AcDbEntity
  8
0
  6
Continuous
100
AcDbLine
 10
107.8740444795675
 20
128.7586300385162
 30
0.0
 11
107.865691223932
 21
128.751641204677
 31
0.0
  0
LINE
  5
30E
330
E3
100
AcDbEntity
  8
0
  6
Continuous
100
AcDbLine
 10
107.865691223932
 20
128.751641204677
 30
0.0
 11
107.8610275746062
 21
128.7452990939482
 31
0.0
  0
LINE
  5
30F
330
E3
100
AcDbEntity
  8
0
  6
Continuous
100
AcDbLine
 10
107.8610275746062
 20
128.7452990939482
 30
0.0
 11
107.8600975692913
 21
128.7396164860284
 31
0.0
  0
LINE
  5
310
330
E3
100
AcDbEntity
  8
0
  6
Continuous
100
AcDbLine
 10
108.8788799657601
 20
128.720584885932
 30
0.0
 11
108.8779499604452
 21
128.7149022780121
 31
0.0
  0
LINE
  5
311
330
E3
100
AcDbEntity
  8
0
  6
Continuous
100
AcDbLine
 10
108.8779499604452
 20
128.7149022780121
 30
0.0
 11
108.8732867246425
 21
128.708561400832
 31
0.0
  0
LINE
  5
312
330
E3
100
AcDbEntity
  8
0
  6
Continuous
100
AcDbLine
 10
108.8732867246425
 20
128.708561400832
 30
0.0
 11
108.8649345431751
 21
128.701569306538
 31
0.0
  0
LINE
  5
313
330
E3
100
AcDbEntity
  8
0
  6
Continuous
100
AcDbLine
 10
108.8649345431751
 20
128.701569306538
 30
0.0
 11
108.8529609763396
 21
128.6939407936522
 31
0.0
  0
LINE
  5
314
330
E3
100
AcDbEntity
  8
0
  6
Continuous
100
AcDbLine
 10
108.8529609763396
 20
128.6939407936522
 30
0.0
 11
108.8374657721996
 21
128.6856896144604
 31
0.0
  0
LINE
  5
315
330
E3
100
AcDbEntity
  8
0
  6
Continuous
100
AcDbLine
 10
108.8374657721996
 20
128.6856896144604
 30
0.0
 11
108.8185714224872
 21
128.6768395867993
 31
0.0
  0
LINE
  5
316
330
E3
100
AcDbEntity
  8
0
  6
Continuous
100
AcDbLine
 10
108.8185714224872
 20
128.6768395867993
 30
0.0
 11
108.7964344444163
 21
128.6674179310541
 31
0.0
  0
LINE
  5
317
330
E3
100
AcDbEntity
  8
0
  6
Continuous
100
AcDbLine
 10
108.7964344444163
 20
128.6674179310541
 30
0.0
 11
108.7712283679407
 21
128.6574552701577
 31
0.0
  0
LINE
  5
318
330
E3
100
AcDbEntity
  8
0
  6
Continuous
100
AcDbLine
 10
108.7712283679407
 20
128.6574552701577
 30
0.0
 11
108.7431505408516
 21
128.6469856295914
 31
0.0
  0
LINE
  5
319
330
E3
100
AcDbEntity
  8
0
  6
Continuous
100
AcDbLine
 10
108.7431505408516
 20
128.6469856295914
 30
0.0
 11
108.7124255313249
 21
128.6360464373845
 31
0.0
  0
LINE
  5
31A
330
E3
100
AcDbEntity
  8
0
  6
Continuous
100
AcDbLine
 10
108.7124255313249
 20
128.6360464373845
 30
0.0
 11
108.6792881151808
 21
128.6246853292106
 31
0.0
  0
LINE
  5
31B
330
E3
100
AcDbEntity
  8
0
  6
Continuous
100
AcDbLine
 10
108.6792881151808
 20
128.6246853292106
 30
0.0
 11
108.6440036911728
 21
128.6129465381954
 31
0.0
  0
LINE
  5
31C
330
E3
100
AcDbEntity
  8
0
  6
Continuous
100
AcDbLine
 10
108.6440036911728
 20
128.6129465381954
 30
0.0
 11
108.6068444631505
 21
128.6008742974645
 31
0.0
  0
LINE
  5
31D
330
E3
100
AcDbEntity
  8
0
  6
Continuous
100
AcDbLine
 10
108.6068444631505
 20
128.6008742974645
 30
0.0
 11
108.5680996477041
 21
128.5885264503357
 31
0.0
  0
LINE
  5
31E
330
E3
100
AcDbEntity
  8
0
  6
Continuous
100
AcDbLine
 10
108.5680996477041
 20
128.5885264503357
 30
0.0
 11
108.5280754741645
 21
128.5759506324829
 31
0.0
  0
LINE
  5
31F
330
E3
100
AcDbEntity
  8
0
  6
Continuous
100
AcDbLine
 10
108.5280754741645
 20
128.5759506324829
 30
0.0
 11
108.4870815744105
 21
128.563201284676
 31
0.0
  0
LINE
  5
320
330
E3
100
AcDbEntity
  8
0
  6
Continuous
100
AcDbLine
 10
108.4870815744105
 20
128.563201284676
 30
0.0
 11
108.4454343854175
 21
128.550339652781
 31
0.0
  0
LINE
  5
321
330
E3
100
AcDbEntity
  8
0
  6
Continuous
100
AcDbLine
 10
108.4454343854175
 20
128.550339652781
 30
0.0
 11
108.403463954353
 21
128.5374201775681
 31
0.0
  0
LINE
  5
322
330
E3
100
AcDbEntity
  8
0
  6
Continuous
100
AcDbLine
 10
108.403463954353
 20
128.5374201775681
 30
0.0
 11
108.3614901207404
 21
128.5245007023551
 31
0.0
  0
LINE
  5
323
330
E3
100
AcDbEntity
  8
0
  6
Continuous
100
AcDbLine
 10
108.3614901207404
 20
128.5245007023551
 30
0.0
 11
108.3198463342954
 21
128.5116390704602
 31
0.0
  0
LINE
  5
324
330
E3
100
AcDbEntity
  8
0
  6
Continuous
100
AcDbLine
 10
108.3198463342954
 20
128.5116390704602
 30
0.0
 11
108.2788524345415
 21
128.4988931252014
 31
0.0
  0
LINE
  5
325
330
E3
100
AcDbEntity
  8
0
  6
Continuous
100
AcDbLine
 10
108.2788524345415
 20
128.4988931252014
 30
0.0
 11
108.2388248584537
 21
128.4863173073486
 31
0.0
  0
LINE
  5
326
330
E3
100
AcDbEntity
  8
0
  6
Continuous
100
AcDbLine
 10
108.2388248584537
 20
128.4863173073486
 30
0.0
 11
108.2000834455554
 21
128.4739660576717
 31
0.0
  0
LINE
  5
327
330
E3
100
AcDbEntity
  8
0
  6
Continuous
100
AcDbLine
 10
108.2000834455554
 20
128.4739660576717
 30
0.0
 11
108.1629242175331
 21
128.4618972194889
 31
0.0
  0
LINE
  5
328
330
E3
100
AcDbEntity
  8
0
  6
Continuous
100
AcDbLine
 10
108.1629242175331
 20
128.4618972194889
 30
0.0
 11
108.1276397935251
 21
128.4501550259255
 31
0.0
  0
LINE
  5
329
330
E3
100
AcDbEntity
  8
0
  6
Continuous
100
AcDbLine
 10
108.1276397935251
 20
128.4501550259255
 30
0.0
 11
108.094502377381
 21
128.4387939177517
 31
0.0
  0
LINE
  5
32A
330
E3
100
AcDbEntity
  8
0
  6
Continuous
100
AcDbLine
 10
108.094502377381
 20
128.4387939177517
 30
0.0
 11
108.0637739653062
 21
128.4278581280929
 31
0.0
  0
LINE
  5
32B
330
E3
100
AcDbEntity
  8
0
  6
Continuous
100
AcDbLine
 10
108.0637739653062
 20
128.4278581280929
 30
0.0
 11
108.0356961382171
 21
128.4173884875266
 31
0.0
  0
LINE
  5
32C
330
E3
100
AcDbEntity
  8
0
  6
Continuous
100
AcDbLine
 10
108.0356961382171
 20
128.4173884875266
 30
0.0
 11
108.0104900617416
 21
128.4074258266302
 31
0.0
  0
LINE
  5
32D
330
E3
100
AcDbEntity
  8
0
  6
Continuous
100
AcDbLine
 10
108.0104900617416
 20
128.4074258266302
 30
0.0
 11
107.9883530836706
 21
128.3980007683369
 31
0.0
  0
LINE
  5
32E
330
E3
100
AcDbEntity
  8
0
  6
Continuous
100
AcDbLine
 10
107.9883530836706
 20
128.3980007683369
 30
0.0
 11
107.9694621365064
 21
128.3891541432239
 31
0.0
  0
LINE
  5
32F
330
E3
100
AcDbEntity
  8
0
  6
Continuous
100
AcDbLine
 10
107.9694621365064
 20
128.3891541432239
 30
0.0
 11
107.9539669323663
 21
128.3809029640321
 31
0.0
  0
LINE
  5
330
330
E3
100
AcDbEntity
  8
0
  6
Continuous
100
AcDbLine
 10
107.9539669323663
 20
128.3809029640321
 30
0.0
 11
107.9419933655309
 21
128.3732710485981
 31
0.0
  0
LINE
  5
331
330
E3
100
AcDbEntity
  8
0
  6
Continuous
100
AcDbLine
 10
107.9419933655309
 20
128.3732710485981
 30
0.0
 11
107.9336401098954
 21
128.3662788122109
 31
0.0
  0
LINE
  5
332
330
E3
100
AcDbEntity
  8
0
  6
Continuous
100
AcDbLine
 10
107.9336401098954
 20
128.3662788122109
 30
0.0
 11
107.9289768615193
 21
128.3599395384217
 31
0.0
  0
LINE
  5
333
330
E3
100
AcDbEntity
  8
0
  6
Continuous
100
AcDbLine
 10
107.9289768615193
 20
128.3599395384217
 30
0.0
 11
107.9280468562044
 21
128.3542569305018
 31
0.0
  0
LINE
  5
334
330
E3
100
AcDbEntity
  8
0
  6
Continuous
100
AcDbLine
 10
108.9468292526732
 20
128.3352253304055
 30
0.0
 11
108.9458992473583
 21
128.3295427224856
 31
0.0
  0
LINE
  5
335
330
E3
100
AcDbEntity
  8
0
  6
Continuous
100
AcDbLine
 10
108.9458992473583
 20
128.3295427224856
 30
0.0
 11
108.9412360115556
 21
128.3232018453055
 31
0.0
  0
LINE
  5
336
330
E3
100
AcDbEntity
  8
0
  6
Continuous
100
AcDbLine
 10
108.9412360115556
 20
128.3232018453055
 30
0.0
 11
108.9328834291385
 21
128.3162103166199
 31
0.0
  0
LINE
  5
337
330
E3
100
AcDbEntity
  8
0
  6
Continuous
100
AcDbLine
 10
108.9328834291385
 20
128.3162103166199
 30
0.0
 11
108.920909862303
 21
128.3085818037341
 31
0.0
  0
LINE
  5
338
330
E3
100
AcDbEntity
  8
0
  6
Continuous
100
AcDbLine
 10
108.920909862303
 20
128.3085818037341
 30
0.0
 11
108.9054146581629
 21
128.3003306245423
 31
0.0
  0
LINE
  5
339
330
E3
100
AcDbEntity
  8
0
  6
Continuous
100
AcDbLine
 10
108.9054146581629
 20
128.3003306245423
 30
0.0
 11
108.8865237109987
 21
128.2914805968812
 31
0.0
  0
LINE
  5
33A
330
E3
100
AcDbEntity
  8
0
  6
Continuous
100
AcDbLine
 10
108.8865237109987
 20
128.2914805968812
 30
0.0
 11
108.8643867329278
 21
128.282058941136
 31
0.0
  0
LINE
  5
33B
330
E3
100
AcDbEntity
  8
0
  6
Continuous
100
AcDbLine
 10
108.8643867329278
 20
128.282058941136
 30
0.0
 11
108.8391772539041
 21
128.2720962802396
 31
0.0
  0
LINE
  5
33C
330
E3
100
AcDbEntity
  8
0
  6
Continuous
100
AcDbLine
 10
108.8391772539041
 20
128.2720962802396
 30
0.0
 11
108.8111028293631
 21
128.2616266396733
 31
0.0
  0
LINE
  5
33D
330
E3
100
AcDbEntity
  8
0
  6
Continuous
100
AcDbLine
 10
108.8111028293631
 20
128.2616266396733
 30
0.0
 11
108.7803744172882
 21
128.2506874474664
 31
0.0
  0
LINE
  5
33E
330
E3
100
AcDbEntity
  8
0
  6
Continuous
100
AcDbLine
 10
108.7803744172882
 20
128.2506874474664
 30
0.0
 11
108.7472370011442
 21
128.2393263392925
 31
0.0
  0
LINE
  5
33F
330
E3
100
AcDbEntity
  8
0
  6
Continuous
100
AcDbLine
 10
108.7472370011442
 20
128.2393263392925
 30
0.0
 11
108.7119525771362
 21
128.2275875482773
 31
0.0
  0
LINE
  5
340
330
E3
100
AcDbEntity
  8
0
  6
Continuous
100
AcDbLine
 10
108.7119525771362
 20
128.2275875482773
 30
0.0
 11
108.6747933491138
 21
128.2155153075464
 31
0.0
  0
LINE
  5
341
330
E3
100
AcDbEntity
  8
0
  6
Continuous
100
AcDbLine
 10
108.6747933491138
 20
128.2155153075464
 30
0.0
 11
108.6360485336675
 21
128.2031674604176
 31
0.0
  0
LINE
  5
342
330
E3
100
AcDbEntity
  8
0
  6
Continuous
100
AcDbLine
 10
108.6360485336675
 20
128.2031674604176
 30
0.0
 11
108.5960243601278
 21
128.1905882400167
 31
0.0
  0
LINE
  5
343
330
E3
100
AcDbEntity
  8
0
  6
Continuous
100
AcDbLine
 10
108.5960243601278
 20
128.1905882400167
 30
0.0
 11
108.5550304603739
 21
128.1778422947579
 31
0.0
  0
LINE
  5
344
330
E3
100
AcDbEntity
  8
0
  6
Continuous
100
AcDbLine
 10
108.5550304603739
 20
128.1778422947579
 30
0.0
 11
108.5133832713808
 21
128.164980662863
 31
0.0
  0
LINE
  5
345
330
E3
100
AcDbEntity
  8
0
  6
Continuous
100
AcDbLine
 10
108.5133832713808
 20
128.164980662863
 30
0.0
 11
108.4714128403163
 21
128.15206118765
 31
0.0
  0
LINE
  5
346
330
E3
100
AcDbEntity
  8
0
  6
Continuous
100
AcDbLine
 10
108.4714128403163
 20
128.15206118765
 30
0.0
 11
108.4294390067037
 21
128.139141712437
 31
0.0
  0
LINE
  5
347
330
E3
100
AcDbEntity
  8
0
  6
Continuous
100
AcDbLine
 10
108.4294390067037
 20
128.139141712437
 30
0.0
 11
108.3877952202588
 21
128.1262800805421
 31
0.0
  0
LINE
  5
348
330
E3
100
AcDbEntity
  8
0
  6
Continuous
100
AcDbLine
 10
108.3877952202588
 20
128.1262800805421
 30
0.0
 11
108.3468013205048
 21
128.1135341352833
 31
0.0
  0
LINE
  5
349
330
E3
100
AcDbEntity
  8
0
  6
Continuous
100
AcDbLine
 10
108.3468013205048
 20
128.1135341352833
 30
0.0
 11
108.3067771469652
 21
128.1009583174305
 31
0.0
  0
LINE
  5
34A
330
E3
100
AcDbEntity
  8
0
  6
Continuous
100
AcDbLine
 10
108.3067771469652
 20
128.1009583174305
 30
0.0
 11
108.2680323315188
 21
128.0886070677537
 31
0.0
  0
LINE
  5
34B
330
E3
100
AcDbEntity
  8
0
  6
Continuous
100
AcDbLine
 10
108.2680323315188
 20
128.0886070677537
 30
0.0
 11
108.2308731034965
 21
128.0765348270226
 31
0.0
  0
LINE
  5
34C
330
E3
100
AcDbEntity
  8
0
  6
Continuous
100
AcDbLine
 10
108.2308731034965
 20
128.0765348270226
 30
0.0
 11
108.1955886794885
 21
128.0647960360075
 31
0.0
  0
LINE
  5
34D
330
E3
100
AcDbEntity
  8
0
  6
Continuous
100
AcDbLine
 10
108.1955886794885
 20
128.0647960360075
 30
0.0
 11
108.1624512633444
 21
128.0534349278336
 31
0.0
  0
LINE
  5
34E
330
E3
100
AcDbEntity
  8
0
  6
Continuous
100
AcDbLine
 10
108.1624512633444
 20
128.0534349278336
 30
0.0
 11
108.1317228512695
 21
128.0424991381748
 31
0.0
  0
LINE
  5
34F
330
E3
100
AcDbEntity
  8
0
  6
Continuous
100
AcDbLine
 10
108.1317228512695
 20
128.0424991381748
 30
0.0
 11
108.1036484267286
 21
128.0320294976085
 31
0.0
  0
LINE
  5
350
330
E3
100
AcDbEntity
  8
0
  6
Continuous
100
AcDbLine
 10
108.1036484267286
 20
128.0320294976085
 30
0.0
 11
108.0784389477049
 21
128.022063434164
 31
0.0
  0
LINE
  5
351
330
E3
100
AcDbEntity
  8
0
  6
Continuous
100
AcDbLine
 10
108.0784389477049
 20
128.022063434164
 30
0.0
 11
108.0563019696339
 21
128.0126417784188
 31
0.0
  0
LINE
  5
352
330
E3
100
AcDbEntity
  8
0
  6
Continuous
100
AcDbLine
 10
108.0563019696339
 20
128.0126417784188
 30
0.0
 11
108.0374110224698
 21
128.0037917507577
 31
0.0
  0
LINE
  5
353
330
E3
100
AcDbEntity
  8
0
  6
Continuous
100
AcDbLine
 10
108.0374110224698
 20
128.0037917507577
 30
0.0
 11
108.0219158183297
 21
127.995543974114
 31
0.0
  0
LINE
  5
354
330
E3
100
AcDbEntity
  8
0
  6
Continuous
100
AcDbLine
 10
108.0219158183297
 20
127.995543974114
 30
0.0
 11
108.0099422514942
 21
127.9879120586801
 31
0.0
  0
LINE
  5
355
330
E3
100
AcDbEntity
  8
0
  6
Continuous
100
AcDbLine
 10
108.0099422514942
 20
127.9879120586801
 30
0.0
 11
108.0015889958587
 21
127.9809198222928
 31
0.0
  0
LINE
  5
356
330
E3
100
AcDbEntity
  8
0
  6
Continuous
100
AcDbLine
 10
108.0015889958587
 20
127.9809198222928
 30
0.0
 11
107.9969261484324
 21
127.9745799828952
 31
0.0
  0
LINE
  5
357
330
E3
100
AcDbEntity
  8
0
  6
Continuous
100
AcDbLine
 10
107.9969261484324
 20
127.9745799828952
 30
0.0
 11
107.9959961431176
 21
127.9688973749753
 31
0.0
  0
LINE
  5
358
330
E3
100
AcDbEntity
  8
0
  6
Continuous
100
AcDbLine
 10
109.0147785395864
 20
127.949865774879
 30
0.0
 11
109.0138485342715
 21
127.9441831669591
 31
0.0
  0
LINE
  5
359
330
E3
100
AcDbEntity
  8
0
  6
Continuous
100
AcDbLine
 10
109.0138485342715
 20
127.9441831669591
 30
0.0
 11
109.0091852984688
 21
127.937842289779
 31
0.0
  0
LINE
  5
35A
330
E3
100
AcDbEntity
  8
0
  6
Continuous
100
AcDbLine
 10
109.0091852984688
 20
127.937842289779
 30
0.0
 11
109.0008323151018
 21
127.9308513267018
 31
0.0
  0
LINE
  5
35B
330
E3
100
AcDbEntity
  8
0
  6
Continuous
100
AcDbLine
 10
109.0008323151018
 20
127.9308513267018
 30
0.0
 11
108.9888587482663
 21
127.9232194112679
 31
0.0
  0
LINE
  5
35C
330
E3
100
AcDbEntity
  8
0
  6
Continuous
100
AcDbLine
 10
108.9888587482663
 20
127.9232194112679
 30
0.0
 11
108.9733635441262
 21
127.9149716346242
 31
0.0
  0
LINE
  5
35D
330
E3
100
AcDbEntity
  8
0
  6
Continuous
100
AcDbLine
 10
108.9733635441262
 20
127.9149716346242
 30
0.0
 11
108.9544725969621
 21
127.9061216069632
 31
0.0
  0
LINE
  5
35E
330
E3
100
AcDbEntity
  8
0
  6
Continuous
100
AcDbLine
 10
108.9544725969621
 20
127.9061216069632
 30
0.0
 11
108.9323356188911
 21
127.8966999512179
 31
0.0
  0
LINE
  5
35F
330
E3
100
AcDbEntity
  8
0
  6
Continuous
100
AcDbLine
 10
108.9323356188911
 20
127.8966999512179
 30
0.0
 11
108.9071261398674
 21
127.8867338877734
 31
0.0
  0
LINE
  5
360
330
E3
100
AcDbEntity
  8
0
  6
Continuous
100
AcDbLine
 10
108.9071261398674
 20
127.8867338877734
 30
0.0
 11
108.8790517153264
 21
127.8762642472071
 31
0.0
  0
LINE
  5
361
330
E3
100
AcDbEntity
  8
0
  6
Continuous
100
AcDbLine
 10
108.8790517153264
 20
127.8762642472071
 30
0.0
 11
108.8483233032516
 21
127.8653284575483
 31
0.0
  0
LINE
  5
362
330
E3
100
AcDbEntity
  8
0
  6
Continuous
100
AcDbLine
 10
108.8483233032516
 20
127.8653284575483
 30
0.0
 11
108.8151858871075
 21
127.8539673493745
 31
0.0
  0
LINE
  5
363
330
E3
100
AcDbEntity
  8
0
  6
Continuous
100
AcDbLine
 10
108.8151858871075
 20
127.8539673493745
 30
0.0
 11
108.7799014630995
 21
127.8422285583593
 31
0.0
  0
LINE
  5
364
330
E3
100
AcDbEntity
  8
0
  6
Continuous
100
AcDbLine
 10
108.7799014630995
 20
127.8422285583593
 30
0.0
 11
108.7427422350772
 21
127.8301563176283
 31
0.0
  0
LINE
  5
365
330
E3
100
AcDbEntity
  8
0
  6
Continuous
100
AcDbLine
 10
108.7427422350772
 20
127.8301563176283
 30
0.0
 11
108.7039974196308
 21
127.8178050679514
 31
0.0
  0
LINE
  5
366
330
E3
100
AcDbEntity
  8
0
  6
Continuous
100
AcDbLine
 10
108.7039974196308
 20
127.8178050679514
 30
0.0
 11
108.6639732460911
 21
127.8052292500986
 31
0.0
  0
LINE
  5
367
330
E3
100
AcDbEntity
  8
0
  6
Continuous
100
AcDbLine
 10
108.6639732460911
 20
127.8052292500986
 30
0.0
 11
108.6229793463372
 21
127.7924833048398
 31
0.0
  0
LINE
  5
368
330
E3
100
AcDbEntity
  8
0
  6
Continuous
100
AcDbLine
 10
108.6229793463372
 20
127.7924833048398
 30
0.0
 11
108.5813355598923
 21
127.7796216729449
 31
0.0
  0
LINE
  5
369
330
E3
100
AcDbEntity
  8
0
  6
Continuous
100
AcDbLine
 10
108.5813355598923
 20
127.7796216729449
 30
0.0
 11
108.5393617262797
 21
127.7667021977319
 31
0.0
  0
LINE
  5
36A
330
E3
100
AcDbEntity
  8
0
  6
Continuous
100
AcDbLine
 10
108.5393617262797
 20
127.7667021977319
 30
0.0
 11
108.4973912952152
 21
127.753782722519
 31
0.0
  0
LINE
  5
36B
330
E3
100
AcDbEntity
  8
0
  6
Continuous
100
AcDbLine
 10
108.4973912952152
 20
127.753782722519
 30
0.0
 11
108.4557441062221
 21
127.740921090624
 31
0.0
  0
LINE
  5
36C
330
E3
100
AcDbEntity
  8
0
  6
Continuous
100
AcDbLine
 10
108.4557441062221
 20
127.740921090624
 30
0.0
 11
108.4147502064682
 21
127.7281717428171
 31
0.0
  0
LINE
  5
36D
330
E3
100
AcDbEntity
  8
0
  6
Continuous
100
AcDbLine
 10
108.4147502064682
 20
127.7281717428171
 30
0.0
 11
108.3747260329285
 21
127.7155959249643
 31
0.0
  0
LINE
  5
36E
330
E3
100
AcDbEntity
  8
0
  6
Continuous
100
AcDbLine
 10
108.3747260329285
 20
127.7155959249643
 30
0.0
 11
108.3359812174821
 21
127.7032480778356
 31
0.0
  0
LINE
  5
36F
330
E3
100
AcDbEntity
  8
0
  6
Continuous
100
AcDbLine
 10
108.3359812174821
 20
127.7032480778356
 30
0.0
 11
108.2988219894598
 21
127.6911758371045
 31
0.0
  0
LINE
  5
370
330
E3
100
AcDbEntity
  8
0
  6
Continuous
100
AcDbLine
 10
108.2988219894598
 20
127.6911758371045
 30
0.0
 11
108.2635375654518
 21
127.6794370460894
 31
0.0
  0
LINE
  5
371
330
E3
100
AcDbEntity
  8
0
  6
Continuous
100
AcDbLine
 10
108.2635375654518
 20
127.6794370460894
 30
0.0
 11
108.2304001493077
 21
127.6680759379155
 31
0.0
  0
LINE
  5
372
330
E3
100
AcDbEntity
  8
0
  6
Continuous
100
AcDbLine
 10
108.2304001493077
 20
127.6680759379155
 30
0.0
 11
108.199675139781
 21
127.6571367457086
 31
0.0
  0
LINE
  5
373
330
E3
100
AcDbEntity
  8
0
  6
Continuous
100
AcDbLine
 10
108.199675139781
 20
127.6571367457086
 30
0.0
 11
108.1715973126919
 21
127.6466671051423
 31
0.0
  0
LINE
  5
374
330
E3
100
AcDbEntity
  8
0
  6
Continuous
100
AcDbLine
 10
108.1715973126919
 20
127.6466671051423
 30
0.0
 11
108.1463878336683
 21
127.6367044442459
 31
0.0
  0
LINE
  5
375
330
E3
100
AcDbEntity
  8
0
  6
Continuous
100
AcDbLine
 10
108.1463878336683
 20
127.6367044442459
 30
0.0
 11
108.1242542581454
 21
127.6272827885007
 31
0.0
  0
LINE
  5
376
330
E3
100
AcDbEntity
  8
0
  6
Continuous
100
AcDbLine
 10
108.1242542581454
 20
127.6272827885007
 30
0.0
 11
108.1053599084331
 21
127.6184327608397
 31
0.0
  0
LINE
  5
377
330
E3
100
AcDbEntity
  8
0
  6
Continuous
100
AcDbLine
 10
108.1053599084331
 20
127.6184327608397
 30
0.0
 11
108.089864704293
 21
127.6101815816478
 31
0.0
  0
LINE
  5
378
330
E3
100
AcDbEntity
  8
0
  6
Continuous
100
AcDbLine
 10
108.089864704293
 20
127.6101815816478
 30
0.0
 11
108.0778911374575
 21
127.602553068762
 31
0.0
  0
LINE
  5
379
330
E3
100
AcDbEntity
  8
0
  6
Continuous
100
AcDbLine
 10
108.0778911374575
 20
127.602553068762
 30
0.0
 11
108.0695378818221
 21
127.5955608323747
 31
0.0
  0
LINE
  5
37A
330
E3
100
AcDbEntity
  8
0
  6
Continuous
100
AcDbLine
 10
108.0695378818221
 20
127.5955608323747
 30
0.0
 11
108.0648754353456
 21
127.5892204273687
 31
0.0
  0
LINE
  5
37B
330
E3
100
AcDbEntity
  8
0
  6
Continuous
100
AcDbLine
 10
108.0648754353456
 20
127.5892204273687
 30
0.0
 11
108.0639454300307
 21
127.5835378194488
 31
0.0
  0
LINE
  5
37C
330
E3
100
AcDbEntity
  8
0
  6
Continuous
100
AcDbLine
 10
109.0827278264995
 20
127.5645062193525
 30
0.0
 11
109.0817978211847
 21
127.5588236114326
 31
0.0
  0
LINE
  5
37D
330
E3
100
AcDbEntity
  8
0
  6
Continuous
100
AcDbLine
 10
109.0817978211847
 20
127.5588236114326
 30
0.0
 11
109.0771345853819
 21
127.5524827342525
 31
0.0
  0
LINE
  5
37E
330
E3
100
AcDbEntity
  8
0
  6
Continuous
100
AcDbLine
 10
109.0771345853819
 20
127.5524827342525
 30
0.0
 11
109.0687812010651
 21
127.5454923367838
 31
0.0
  0
LINE
  5
37F
330
E3
100
AcDbEntity
  8
0
  6
Continuous
100
AcDbLine
 10
109.0687812010651
 20
127.5454923367838
 30
0.0
 11
109.0568076342296
 21
127.5378604213498
 31
0.0
  0
LINE
  5
380
330
E3
100
AcDbEntity
  8
0
  6
Continuous
100
AcDbLine
 10
109.0568076342296
 20
127.5378604213498
 30
0.0
 11
109.0413124300896
 21
127.529609242158
 31
0.0
  0
LINE
  5
381
330
E3
100
AcDbEntity
  8
0
  6
Continuous
100
AcDbLine
 10
109.0413124300896
 20
127.529609242158
 30
0.0
 11
109.0224214829254
 21
127.520759214497
 31
0.0
  0
LINE
  5
382
330
E3
100
AcDbEntity
  8
0
  6
Continuous
100
AcDbLine
 10
109.0224214829254
 20
127.520759214497
 30
0.0
 11
109.0002845048544
 21
127.5113375587517
 31
0.0
  0
LINE
  5
383
330
E3
100
AcDbEntity
  8
0
  6
Continuous
100
AcDbLine
 10
109.0002845048544
 20
127.5113375587517
 30
0.0
 11
108.9750784283789
 21
127.5013748978553
 31
0.0
  0
LINE
  5
384
330
E3
100
AcDbEntity
  8
0
  6
Continuous
100
AcDbLine
 10
108.9750784283789
 20
127.5013748978553
 30
0.0
 11
108.9470006012898
 21
127.490905257289
 31
0.0
  0
LINE
  5
385
330
E3
100
AcDbEntity
  8
0
  6
Continuous
100
AcDbLine
 10
108.9470006012898
 20
127.490905257289
 30
0.0
 11
108.9162721892149
 21
127.4799694676302
 31
0.0
  0
LINE
  5
386
330
E3
100
AcDbEntity
  8
0
  6
Continuous
100
AcDbLine
 10
108.9162721892149
 20
127.4799694676302
 30
0.0
 11
108.8831347730709
 21
127.4686083594564
 31
0.0
  0
LINE
  5
387
330
E3
100
AcDbEntity
  8
0
  6
Continuous
100
AcDbLine
 10
108.8831347730709
 20
127.4686083594564
 30
0.0
 11
108.8478503490629
 21
127.4568661658931
 31
0.0
  0
LINE
  5
388
330
E3
100
AcDbEntity
  8
0
  6
Continuous
100
AcDbLine
 10
108.8478503490629
 20
127.4568661658931
 30
0.0
 11
108.8106911210405
 21
127.4447973277102
 31
0.0
  0
LINE
  5
389
330
E3
100
AcDbEntity
  8
0
  6
Continuous
100
AcDbLine
 10
108.8106911210405
 20
127.4447973277102
 30
0.0
 11
108.7719497081422
 21
127.4324460780333
 31
0.0
  0
LINE
  5
38A
330
E3
100
AcDbEntity
  8
0
  6
Continuous
100
AcDbLine
 10
108.7719497081422
 20
127.4324460780333
 30
0.0
 11
108.7319221320545
 21
127.4198702601805
 31
0.0
  0
LINE
  5
38B
330
E3
100
AcDbEntity
  8
0
  6
Continuous
100
AcDbLine
 10
108.7319221320545
 20
127.4198702601805
 30
0.0
 11
108.6909282323005
 21
127.4071243149217
 31
0.0
  0
LINE
  5
38C
330
E3
100
AcDbEntity
  8
0
  6
Continuous
100
AcDbLine
 10
108.6909282323005
 20
127.4071243149217
 30
0.0
 11
108.6492844458556
 21
127.3942626830268
 31
0.0
  0
LINE
  5
38D
330
E3
100
AcDbEntity
  8
0
  6
Continuous
100
AcDbLine
 10
108.6492844458556
 20
127.3942626830268
 30
0.0
 11
108.607310612243
 21
127.3813432078139
 31
0.0
  0
LINE
  5
38E
330
E3
100
AcDbEntity
  8
0
  6
Continuous
100
AcDbLine
 10
108.607310612243
 20
127.3813432078139
 30
0.0
 11
108.5653401811785
 21
127.3684237326009
 31
0.0
  0
LINE
  5
38F
330
E3
100
AcDbEntity
  8
0
  6
Continuous
100
AcDbLine
 10
108.5653401811785
 20
127.3684237326009
 30
0.0
 11
108.5236929921854
 21
127.355562100706
 31
0.0
  0
LINE
  5
390
330
E3
100
AcDbEntity
  8
0
  6
Continuous
100
AcDbLine
 10
108.5236929921854
 20
127.355562100706
 30
0.0
 11
108.4826990924315
 21
127.342812752899
 31
0.0
  0
LINE
  5
391
330
E3
100
AcDbEntity
  8
0
  6
Continuous
100
AcDbLine
 10
108.4826990924315
 20
127.342812752899
 30
0.0
 11
108.4426749188919
 21
127.3302369350462
 31
0.0
  0
LINE
  5
392
330
E3
100
AcDbEntity
  8
0
  6
Continuous
100
AcDbLine
 10
108.4426749188919
 20
127.3302369350462
 30
0.0
 11
108.4039301034455
 21
127.3178890879175
 31
0.0
  0
LINE
  5
393
330
E3
100
AcDbEntity
  8
0
  6
Continuous
100
AcDbLine
 10
108.4039301034455
 20
127.3178890879175
 30
0.0
 11
108.3667708754232
 21
127.3058168471865
 31
0.0
  0
LINE
  5
394
330
E3
100
AcDbEntity
  8
0
  6
Continuous
100
AcDbLine
 10
108.3667708754232
 20
127.3058168471865
 30
0.0
 11
108.3314864514151
 21
127.2940780561713
 31
0.0
  0
LINE
  5
395
330
E3
100
AcDbEntity
  8
0
  6
Continuous
100
AcDbLine
 10
108.3314864514151
 20
127.2940780561713
 30
0.0
 11
108.2983490352711
 21
127.2827135454493
 31
0.0
  0
LINE
  5
396
330
E3
100
AcDbEntity
  8
0
  6
Continuous
100
AcDbLine
 10
108.2983490352711
 20
127.2827135454493
 30
0.0
 11
108.2676240257444
 21
127.2717777557905
 31
0.0
  0
LINE
  5
397
330
E3
100
AcDbEntity
  8
0
  6
Continuous
100
AcDbLine
 10
108.2676240257444
 20
127.2717777557905
 30
0.0
 11
108.2395461986552
 21
127.2613081152242
 31
0.0
  0
LINE
  5
398
330
E3
100
AcDbEntity
  8
0
  6
Continuous
100
AcDbLine
 10
108.2395461986552
 20
127.2613081152242
 30
0.0
 11
108.2143401221797
 21
127.2513454543279
 31
0.0
  0
LINE
  5
399
330
E3
100
AcDbEntity
  8
0
  6
Continuous
100
AcDbLine
 10
108.2143401221797
 20
127.2513454543279
 30
0.0
 11
108.1922031441087
 21
127.2419237985826
 31
0.0
  0
LINE
  5
39A
330
E3
100
AcDbEntity
  8
0
  6
Continuous
100
AcDbLine
 10
108.1922031441087
 20
127.2419237985826
 30
0.0
 11
108.1733087943964
 21
127.2330737709216
 31
0.0
  0
LINE
  5
39B
330
E3
100
AcDbEntity
  8
0
  6
Continuous
100
AcDbLine
 10
108.1733087943964
 20
127.2330737709216
 30
0.0
 11
108.1578169928045
 21
127.2248225917297
 31
0.0
  0
LINE
  5
39C
330
E3
100
AcDbEntity
  8
0
  6
Continuous
100
AcDbLine
 10
108.1578169928045
 20
127.2248225917297
 30
0.0
 11
108.145843425969
 21
127.2171940788439
 31
0.0
  0
LINE
  5
39D
330
E3
100
AcDbEntity
  8
0
  6
Continuous
100
AcDbLine
 10
108.145843425969
 20
127.2171940788439
 30
0.0
 11
108.1374867677854
 21
127.2102018424566
 31
0.0
  0
LINE
  5
39E
330
E3
100
AcDbEntity
  8
0
  6
Continuous
100
AcDbLine
 10
108.1374867677854
 20
127.2102018424566
 30
0.0
 11
108.1328247222588
 21
127.2038608718422
 31
0.0
  0
LINE
  5
39F
330
E3
100
AcDbEntity
  8
0
  6
Continuous
100
AcDbLine
 10
108.1328247222588
 20
127.2038608718422
 30
0.0
 11
108.1318947169439
 21
127.1981782639223
 31
0.0
  0
LINE
  5
3A0
330
E3
100
AcDbEntity
  8
0
  6
Continuous
100
AcDbLine
 10
109.1506771134126
 20
127.179146663826
 30
0.0
 11
109.1497471080978
 21
127.173464055906
 31
0.0
  0
LINE
  5
3A1
330
E3
100
AcDbEntity
  8
0
  6
Continuous
100
AcDbLine
 10
109.1497471080978
 20
127.173464055906
 30
0.0
 11
109.145083872295
 21
127.1671231787259
 31
0.0
  0
LINE
  5
3A2
330
E3
100
AcDbEntity
  8
0
  6
Continuous
100
AcDbLine
 10
109.145083872295
 20
127.1671231787259
 30
0.0
 11
109.1367300870285
 21
127.1601299443176
 31
0.0
  0
LINE
  5
3A3
330
E3
100
AcDbEntity
  8
0
  6
Continuous
100
AcDbLine
 10
109.1367300870285
 20
127.1601299443176
 30
0.0
 11
109.124756520193
 21
127.1525014314318
 31
0.0
  0
LINE
  5
3A4
330
E3
100
AcDbEntity
  8
0
  6
Continuous
100
AcDbLine
 10
109.124756520193
 20
127.1525014314318
 30
0.0
 11
109.1092613160529
 21
127.1442502522399
 31
0.0
  0
LINE
  5
3A5
330
E3
100
AcDbEntity
  8
0
  6
Continuous
100
AcDbLine
 10
109.1092613160529
 20
127.1442502522399
 30
0.0
 11
109.0903703688887
 21
127.1354002245789
 31
0.0
  0
LINE
  5
3A6
330
E3
100
AcDbEntity
  8
0
  6
Continuous
100
AcDbLine
 10
109.0903703688887
 20
127.1354002245789
 30
0.0
 11
109.0682333908178
 21
127.1259785688336
 31
0.0
  0
LINE
  5
3A7
330
E3
100
AcDbEntity
  8
0
  6
Continuous
100
AcDbLine
 10
109.0682333908178
 20
127.1259785688336
 30
0.0
 11
109.0430273143422
 21
127.1160159079373
 31
0.0
  0
LINE
  5
3A8
330
E3
100
AcDbEntity
  8
0
  6
Continuous
100
AcDbLine
 10
109.0430273143422
 20
127.1160159079373
 30
0.0
 11
109.0149494872531
 21
127.1055462673709
 31
0.0
  0
LINE
  5
3A9
330
E3
100
AcDbEntity
  8
0
  6
Continuous
100
AcDbLine
 10
109.0149494872531
 20
127.1055462673709
 30
0.0
 11
108.9842210751782
 21
127.0946104777121
 31
0.0
  0
LINE
  5
3AA
330
E3
100
AcDbEntity
  8
0
  6
Continuous
100
AcDbLine
 10
108.9842210751782
 20
127.0946104777121
 30
0.0
 11
108.9510870615823
 21
127.0832493695383
 31
0.0
  0
LINE
  5
3AB
330
E3
100
AcDbEntity
  8
0
  6
Continuous
100
AcDbLine
 10
108.9510870615823
 20
127.0832493695383
 30
0.0
 11
108.9157992350262
 21
127.071507175975
 31
0.0
  0
LINE
  5
3AC
330
E3
100
AcDbEntity
  8
0
  6
Continuous
100
AcDbLine
 10
108.9157992350262
 20
127.071507175975
 30
0.0
 11
108.8786400070039
 21
127.0594383377921
 31
0.0
  0
LINE
  5
3AD
330
E3
100
AcDbEntity
  8
0
  6
Continuous
100
AcDbLine
 10
108.8786400070039
 20
127.0594383377921
 30
0.0
 11
108.8398985941056
 21
127.0470870881153
 31
0.0
  0
LINE
  5
3AE
330
E3
100
AcDbEntity
  8
0
  6
Continuous
100
AcDbLine
 10
108.8398985941056
 20
127.0470870881153
 30
0.0
 11
108.799874420566
 21
127.0345112702624
 31
0.0
  0
LINE
  5
3AF
330
E3
100
AcDbEntity
  8
0
  6
Continuous
100
AcDbLine
 10
108.799874420566
 20
127.0345112702624
 30
0.0
 11
108.7588771182639
 21
127.0217653250036
 31
0.0
  0
LINE
  5
3B0
330
E3
100
AcDbEntity
  8
0
  6
Continuous
100
AcDbLine
 10
108.7588771182639
 20
127.0217653250036
 30
0.0
 11
108.717233331819
 21
127.0089036931087
 31
0.0
  0
LINE
  5
3B1
330
E3
100
AcDbEntity
  8
0
  6
Continuous
100
AcDbLine
 10
108.717233331819
 20
127.0089036931087
 30
0.0
 11
108.6752594982063
 21
126.9959842178958
 31
0.0
  0
LINE
  5
3B2
330
E3
100
AcDbEntity
  8
0
  6
Continuous
100
AcDbLine
 10
108.6752594982063
 20
126.9959842178958
 30
0.0
 11
108.6332890671418
 21
126.9830647426828
 31
0.0
  0
LINE
  5
3B3
330
E3
100
AcDbEntity
  8
0
  6
Continuous
100
AcDbLine
 10
108.6332890671418
 20
126.9830647426828
 30
0.0
 11
108.5916418781488
 21
126.9701997082398
 31
0.0
  0
LINE
  5
3B4
330
E3
100
AcDbEntity
  8
0
  6
Continuous
100
AcDbLine
 10
108.5916418781488
 20
126.9701997082398
 30
0.0
 11
108.5506479783949
 21
126.9574537629809
 31
0.0
  0
LINE
  5
3B5
330
E3
100
AcDbEntity
  8
0
  6
Continuous
100
AcDbLine
 10
108.5506479783949
 20
126.9574537629809
 30
0.0
 11
108.5106238048552
 21
126.9448779451282
 31
0.0
  0
LINE
  5
3B6
330
E3
100
AcDbEntity
  8
0
  6
Continuous
100
AcDbLine
 10
108.5106238048552
 20
126.9448779451282
 30
0.0
 11
108.4718789894088
 21
126.9325266954513
 31
0.0
  0
LINE
  5
3B7
330
E3
100
AcDbEntity
  8
0
  6
Continuous
100
AcDbLine
 10
108.4718789894088
 20
126.9325266954513
 30
0.0
 11
108.4347197613865
 21
126.9204578572684
 31
0.0
  0
LINE
  5
3B8
330
E3
100
AcDbEntity
  8
0
  6
Continuous
100
AcDbLine
 10
108.4347197613865
 20
126.9204578572684
 30
0.0
 11
108.3994353373785
 21
126.9087156637051
 31
0.0
  0
LINE
  5
3B9
330
E3
100
AcDbEntity
  8
0
  6
Continuous
100
AcDbLine
 10
108.3994353373785
 20
126.9087156637051
 30
0.0
 11
108.3662979212344
 21
126.8973545555313
 31
0.0
  0
LINE
  5
3BA
330
E3
100
AcDbEntity
  8
0
  6
Continuous
100
AcDbLine
 10
108.3662979212344
 20
126.8973545555313
 30
0.0
 11
108.3355729117077
 21
126.8864187658725
 31
0.0
  0
LINE
  5
3BB
330
E3
100
AcDbEntity
  8
0
  6
Continuous
100
AcDbLine
 10
108.3355729117077
 20
126.8864187658725
 30
0.0
 11
108.3074950846186
 21
126.8759491253061
 31
0.0
  0
LINE
  5
3BC
330
E3
100
AcDbEntity
  8
0
  6
Continuous
100
AcDbLine
 10
108.3074950846186
 20
126.8759491253061
 30
0.0
 11
108.282289008143
 21
126.8659864644098
 31
0.0
  0
LINE
  5
3BD
330
E3
100
AcDbEntity
  8
0
  6
Continuous
100
AcDbLine
 10
108.282289008143
 20
126.8659864644098
 30
0.0
 11
108.260152030072
 21
126.8565648086645
 31
0.0
  0
LINE
  5
3BE
330
E3
100
AcDbEntity
  8
0
  6
Continuous
100
AcDbLine
 10
108.260152030072
 20
126.8565648086645
 30
0.0
 11
108.2412610829079
 21
126.8477147810035
 31
0.0
  0
LINE
  5
3BF
330
E3
100
AcDbEntity
  8
0
  6
Continuous
100
AcDbLine
 10
108.2412610829079
 20
126.8477147810035
 30
0.0
 11
108.2257658787678
 21
126.8394636018116
 31
0.0
  0
LINE
  5
3C0
330
E3
100
AcDbEntity
  8
0
  6
Continuous
100
AcDbLine
 10
108.2257658787678
 20
126.8394636018116
 30
0.0
 11
108.2137923119323
 21
126.8318350889258
 31
0.0
  0
LINE
  5
3C1
330
E3
100
AcDbEntity
  8
0
  6
Continuous
100
AcDbLine
 10
108.2137923119323
 20
126.8318350889258
 30
0.0
 11
108.2054356537487
 21
126.8248428525385
 31
0.0
  0
LINE
  5
3C2
330
E3
100
AcDbEntity
  8
0
  6
Continuous
100
AcDbLine
 10
108.2054356537487
 20
126.8248428525385
 30
0.0
 11
108.2007740091719
 21
126.8185013163157
 31
0.0
  0
LINE
  5
3C3
330
E3
100
AcDbEntity
  8
0
  6
Continuous
100
AcDbLine
 10
108.2007740091719
 20
126.8185013163157
 30
0.0
 11
108.199844003857
 21
126.8128187083958
 31
0.0
  0
LINE
  5
3C4
330
E3
100
AcDbEntity
  8
0
  6
Continuous
100
AcDbLine
 10
109.2186264003258
 20
126.7937871082994
 30
0.0
 11
109.2176963950109
 21
126.7881045003795
 31
0.0
  0
LINE
  5
3C5
330
E3
100
AcDbEntity
  8
0
  6
Continuous
100
AcDbLine
 10
109.2176963950109
 20
126.7881045003795
 30
0.0
 11
109.2130331592082
 21
126.7817636231994
 31
0.0
  0
LINE
  5
3C6
330
E3
100
AcDbEntity
  8
0
  6
Continuous
100
AcDbLine
 10
109.2130331592082
 20
126.7817636231994
 30
0.0
 11
109.2046789729918
 21
126.7747709543995
 31
0.0
  0
LINE
  5
3C7
330
E3
100
AcDbEntity
  8
0
  6
Continuous
100
AcDbLine
 10
109.2046789729918
 20
126.7747709543995
 30
0.0
 11
109.1927054061563
 21
126.7671424415137
 31
0.0
  0
LINE
  5
3C8
330
E3
100
AcDbEntity
  8
0
  6
Continuous
100
AcDbLine
 10
109.1927054061563
 20
126.7671424415137
 30
0.0
 11
109.1772102020162
 21
126.7588912623218
 31
0.0
  0
LINE
  5
3C9
330
E3
100
AcDbEntity
  8
0
  6
Continuous
100
AcDbLine
 10
109.1772102020162
 20
126.7588912623218
 30
0.0
 11
109.1583192548521
 21
126.7500412346608
 31
0.0
  0
LINE
  5
3CA
330
E3
100
AcDbEntity
  8
0
  6
Continuous
100
AcDbLine
 10
109.1583192548521
 20
126.7500412346608
 30
0.0
 11
109.1361822767811
 21
126.7406195789156
 31
0.0
  0
LINE
  5
3CB
330
E3
100
AcDbEntity
  8
0
  6
Continuous
100
AcDbLine
 10
109.1361822767811
 20
126.7406195789156
 30
0.0
 11
109.1109762003055
 21
126.7306569180192
 31
0.0
  0
LINE
  5
3CC
330
E3
100
AcDbEntity
  8
0
  6
Continuous
100
AcDbLine
 10
109.1109762003055
 20
126.7306569180192
 30
0.0
 11
109.0828983732164
 21
126.7201872774529
 31
0.0
  0
LINE
  5
3CD
330
E3
100
AcDbEntity
  8
0
  6
Continuous
100
AcDbLine
 10
109.0828983732164
 20
126.7201872774529
 30
0.0
 11
109.0521699611416
 21
126.7092514877941
 31
0.0
  0
LINE
  5
3CE
330
E3
100
AcDbEntity
  8
0
  6
Continuous
100
AcDbLine
 10
109.0521699611416
 20
126.7092514877941
 30
0.0
 11
109.0190359475457
 21
126.6978903796202
 31
0.0
  0
LINE
  5
3CF
330
E3
100
AcDbEntity
  8
0
  6
Continuous
100
AcDbLine
 10
109.0190359475457
 20
126.6978903796202
 30
0.0
 11
108.9837481209895
 21
126.6861481860569
 31
0.0
  0
LINE
  5
3D0
330
E3
100
AcDbEntity
  8
0
  6
Continuous
100
AcDbLine
 10
108.9837481209895
 20
126.6861481860569
 30
0.0
 11
108.9465888929672
 21
126.6740793478741
 31
0.0
  0
LINE
  5
3D1
330
E3
100
AcDbEntity
  8
0
  6
Continuous
100
AcDbLine
 10
108.9465888929672
 20
126.6740793478741
 30
0.0
 11
108.9078474800689
 21
126.6617280981972
 31
0.0
  0
LINE
  5
3D2
330
E3
100
AcDbEntity
  8
0
  6
Continuous
100
AcDbLine
 10
108.9078474800689
 20
126.6617280981972
 30
0.0
 11
108.8678233065293
 21
126.6491522803444
 31
0.0
  0
LINE
  5
3D3
330
E3
100
AcDbEntity
  8
0
  6
Continuous
100
AcDbLine
 10
108.8678233065293
 20
126.6491522803444
 30
0.0
 11
108.8268260042272
 21
126.6364029325375
 31
0.0
  0
LINE
  5
3D4
330
E3
100
AcDbEntity
  8
0
  6
Continuous
100
AcDbLine
 10
108.8268260042272
 20
126.6364029325375
 30
0.0
 11
108.7851822177823
 21
126.6235413006425
 31
0.0
  0
LINE
  5
3D5
330
E3
100
AcDbEntity
  8
0
  6
Continuous
100
AcDbLine
 10
108.7851822177823
 20
126.6235413006425
 30
0.0
 11
108.7432083841697
 21
126.6106218254296
 31
0.0
  0
LINE
  5
3D6
330
E3
100
AcDbEntity
  8
0
  6
Continuous
100
AcDbLine
 10
108.7432083841697
 20
126.6106218254296
 30
0.0
 11
108.7012379531052
 21
126.5977023502166
 31
0.0
  0
LINE
  5
3D7
330
E3
100
AcDbEntity
  8
0
  6
Continuous
100
AcDbLine
 10
108.7012379531052
 20
126.5977023502166
 30
0.0
 11
108.6595907641121
 21
126.5848407183217
 31
0.0
  0
LINE
  5
3D8
330
E3
100
AcDbEntity
  8
0
  6
Continuous
100
AcDbLine
 10
108.6595907641121
 20
126.5848407183217
 30
0.0
 11
108.6185968643582
 21
126.5720947730629
 31
0.0
  0
LINE
  5
3D9
330
E3
100
AcDbEntity
  8
0
  6
Continuous
100
AcDbLine
 10
108.6185968643582
 20
126.5720947730629
 30
0.0
 11
108.5785726908185
 21
126.5595189552101
 31
0.0
  0
LINE
  5
3DA
330
E3
100
AcDbEntity
  8
0
  6
Continuous
100
AcDbLine
 10
108.5785726908185
 20
126.5595189552101
 30
0.0
 11
108.5398312779203
 21
126.5471677055332
 31
0.0
  0
LINE
  5
3DB
330
E3
100
AcDbEntity
  8
0
  6
Continuous
100
AcDbLine
 10
108.5398312779203
 20
126.5471677055332
 30
0.0
 11
108.5026686473498
 21
126.5350988673503
 31
0.0
  0
LINE
  5
3DC
330
E3
100
AcDbEntity
  8
0
  6
Continuous
100
AcDbLine
 10
108.5026686473498
 20
126.5350988673503
 30
0.0
 11
108.4673842233418
 21
126.523356673787
 31
0.0
  0
LINE
  5
3DD
330
E3
100
AcDbEntity
  8
0
  6
Continuous
100
AcDbLine
 10
108.4673842233418
 20
126.523356673787
 30
0.0
 11
108.4342502097459
 21
126.5119955656132
 31
0.0
  0
LINE
  5
3DE
330
E3
100
AcDbEntity
  8
0
  6
Continuous
100
AcDbLine
 10
108.4342502097459
 20
126.5119955656132
 30
0.0
 11
108.403521797671
 21
126.5010597759544
 31
0.0
  0
LINE
  5
3DF
330
E3
100
AcDbEntity
  8
0
  6
Continuous
100
AcDbLine
 10
108.403521797671
 20
126.5010597759544
 30
0.0
 11
108.3754439705819
 21
126.490590135388
 31
0.0
  0
LINE
  5
3E0
330
E3
100
AcDbEntity
  8
0
  6
Continuous
100
AcDbLine
 10
108.3754439705819
 20
126.490590135388
 30
0.0
 11
108.3502378941064
 21
126.4806274744917
 31
0.0
  0
LINE
  5
3E1
330
E3
100
AcDbEntity
  8
0
  6
Continuous
100
AcDbLine
 10
108.3502378941064
 20
126.4806274744917
 30
0.0
 11
108.3281009160354
 21
126.4712058187464
 31
0.0
  0
LINE
  5
3E2
330
E3
100
AcDbEntity
  8
0
  6
Continuous
100
AcDbLine
 10
108.3281009160354
 20
126.4712058187464
 30
0.0
 11
108.3092099688712
 21
126.4623557910854
 31
0.0
  0
LINE
  5
3E3
330
E3
100
AcDbEntity
  8
0
  6
Continuous
100
AcDbLine
 10
108.3092099688712
 20
126.4623557910854
 30
0.0
 11
108.2937147647312
 21
126.4541046118936
 31
0.0
  0
LINE
  5
3E4
330
E3
100
AcDbEntity
  8
0
  6
Continuous
100
AcDbLine
 10
108.2937147647312
 20
126.4541046118936
 30
0.0
 11
108.2817411978957
 21
126.4464726964597
 31
0.0
  0
LINE
  5
3E5
330
E3
100
AcDbEntity
  8
0
  6
Continuous
100
AcDbLine
 10
108.2817411978957
 20
126.4464726964597
 30
0.0
 11
108.2733879422602
 21
126.4394838626204
 31
0.0
  0
LINE
  5
3E6
330
E3
100
AcDbEntity
  8
0
  6
Continuous
100
AcDbLine
 10
108.2733879422602
 20
126.4394838626204
 30
0.0
 11
108.2687232960851
 21
126.4331417607892
 31
0.0
  0
LINE
  5
3E7
330
E3
100
AcDbEntity
  8
0
  6
Continuous
100
AcDbLine
 10
108.2687232960851
 20
126.4331417607892
 30
0.0
 11
108.2677932907701
 21
126.4274591528692
 31
0.0
  0
LINE
  5
3E8
330
E3
100
AcDbEntity
  8
0
  6
Continuous
100
AcDbLine
 10
109.2865756872389
 20
126.4084275527729
 30
0.0
 11
109.2856456819241
 21
126.402744944853
 31
0.0
  0
LINE
  5
3E9
330
E3
100
AcDbEntity
  8
0
  6
Continuous
100
AcDbLine
 10
109.2856456819241
 20
126.402744944853
 30
0.0
 11
109.2809824461213
 21
126.3964040676729
 31
0.0
  0
LINE
  5
3EA
330
E3
100
AcDbEntity
  8
0
  6
Continuous
100
AcDbLine
 10
109.2809824461213
 20
126.3964040676729
 30
0.0
 11
109.2726278589552
 21
126.3894119644814
 31
0.0
  0
LINE
  5
3EB
330
E3
100
AcDbEntity
  8
0
  6
Continuous
100
AcDbLine
 10
109.2726278589552
 20
126.3894119644814
 30
0.0
 11
109.2606542921197
 21
126.3817834515956
 31
0.0
  0
LINE
  5
3EC
330
E3
100
AcDbEntity
  8
0
  6
Continuous
100
AcDbLine
 10
109.2606542921197
 20
126.3817834515956
 30
0.0
 11
109.2451590879796
 21
126.3735322724038
 31
0.0
  0
LINE
  5
3ED
330
E3
100
AcDbEntity
  8
0
  6
Continuous
100
AcDbLine
 10
109.2451590879796
 20
126.3735322724038
 30
0.0
 11
109.2262681408154
 21
126.3646822447427
 31
0.0
  0
LINE
  5
3EE
330
E3
100
AcDbEntity
  8
0
  6
Continuous
100
AcDbLine
 10
109.2262681408154
 20
126.3646822447427
 30
0.0
 11
109.2041311627444
 21
126.3552605889975
 31
0.0
  0
LINE
  5
3EF
330
E3
100
AcDbEntity
  8
0
  6
Continuous
100
AcDbLine
 10
109.2041311627444
 20
126.3552605889975
 30
0.0
 11
109.1789250862689
 21
126.3452979281011
 31
0.0
  0
LINE
  5
3F0
330
E3
100
AcDbEntity
  8
0
  6
Continuous
100
AcDbLine
 10
109.1789250862689
 20
126.3452979281011
 30
0.0
 11
109.1508472591798
 21
126.3348282875348
 31
0.0
  0
LINE
  5
3F1
330
E3
100
AcDbEntity
  8
0
  6
Continuous
100
AcDbLine
 10
109.1508472591798
 20
126.3348282875348
 30
0.0
 11
109.1201188471049
 21
126.3238890953279
 31
0.0
  0
LINE
  5
3F2
330
E3
100
AcDbEntity
  8
0
  6
Continuous
100
AcDbLine
 10
109.1201188471049
 20
126.3238890953279
 30
0.0
 11
109.086984833509
 21
126.312527987154
 31
0.0
  0
LINE
  5
3F3
330
E3
100
AcDbEntity
  8
0
  6
Continuous
100
AcDbLine
 10
109.086984833509
 20
126.312527987154
 30
0.0
 11
109.0516970069529
 21
126.3007891961389
 31
0.0
  0
LINE
  5
3F4
330
E3
100
AcDbEntity
  8
0
  6
Continuous
100
AcDbLine
 10
109.0516970069529
 20
126.3007891961389
 30
0.0
 11
109.0145377789306
 21
126.2887169554078
 31
0.0
  0
LINE
  5
3F5
330
E3
100
AcDbEntity
  8
0
  6
Continuous
100
AcDbLine
 10
109.0145377789306
 20
126.2887169554078
 30
0.0
 11
108.9757963660323
 21
126.2763691082791
 31
0.0
  0
LINE
  5
3F6
330
E3
100
AcDbEntity
  8
0
  6
Continuous
100
AcDbLine
 10
108.9757963660323
 20
126.2763691082791
 30
0.0
 11
108.9357721924926
 21
126.2637932904263
 31
0.0
  0
LINE
  5
3F7
330
E3
100
AcDbEntity
  8
0
  6
Continuous
100
AcDbLine
 10
108.9357721924926
 20
126.2637932904263
 30
0.0
 11
108.8947782927387
 21
126.2510439426194
 31
0.0
  0
LINE
  5
3F8
330
E3
100
AcDbEntity
  8
0
  6
Continuous
100
AcDbLine
 10
108.8947782927387
 20
126.2510439426194
 30
0.0
 11
108.8531311037456
 21
126.2381823107245
 31
0.0
  0
LINE
  5
3F9
330
E3
100
AcDbEntity
  8
0
  6
Continuous
100
AcDbLine
 10
108.8531311037456
 20
126.2381823107245
 30
0.0
 11
108.8111606726812
 21
126.2252628355115
 31
0.0
  0
LINE
  5
3FA
330
E3
100
AcDbEntity
  8
0
  6
Continuous
100
AcDbLine
 10
108.8111606726812
 20
126.2252628355115
 30
0.0
 11
108.7691868390685
 21
126.2123433602985
 31
0.0
  0
LINE
  5
3FB
330
E3
100
AcDbEntity
  8
0
  6
Continuous
100
AcDbLine
 10
108.7691868390685
 20
126.2123433602985
 30
0.0
 11
108.7275430526236
 21
126.1994817284036
 31
0.0
  0
LINE
  5
3FC
330
E3
100
AcDbEntity
  8
0
  6
Continuous
100
AcDbLine
 10
108.7275430526236
 20
126.1994817284036
 30
0.0
 11
108.6865457503215
 21
126.1867357831448
 31
0.0
  0
LINE
  5
3FD
330
E3
100
AcDbEntity
  8
0
  6
Continuous
100
AcDbLine
 10
108.6865457503215
 20
126.1867357831448
 30
0.0
 11
108.6465215767819
 21
126.174159965292
 31
0.0
  0
LINE
  5
3FE
330
E3
100
AcDbEntity
  8
0
  6
Continuous
100
AcDbLine
 10
108.6465215767819
 20
126.174159965292
 30
0.0
 11
108.6077801638836
 21
126.1618087156151
 31
0.0
  0
LINE
  5
3FF
330
E3
100
AcDbEntity
  8
0
  6
Continuous
100
AcDbLine
 10
108.6077801638836
 20
126.1618087156151
 30
0.0
 11
108.5706209358613
 21
126.1497398774323
 31
0.0
  0
LINE
  5
400
330
E3
100
AcDbEntity
  8
0
  6
Continuous
100
AcDbLine
 10
108.5706209358613
 20
126.1497398774323
 30
0.0
 11
108.5353331093052
 21
126.1379976838689
 31
0.0
  0
LINE
  5
401
330
E3
100
AcDbEntity
  8
0
  6
Continuous
100
AcDbLine
 10
108.5353331093052
 20
126.1379976838689
 30
0.0
 11
108.5021990957092
 21
126.1266365756951
 31
0.0
  0
LINE
  5
402
330
E3
100
AcDbEntity
  8
0
  6
Continuous
100
AcDbLine
 10
108.5021990957092
 20
126.1266365756951
 30
0.0
 11
108.4714706836344
 21
126.1157007860363
 31
0.0
  0
LINE
  5
403
330
E3
100
AcDbEntity
  8
0
  6
Continuous
100
AcDbLine
 10
108.4714706836344
 20
126.1157007860363
 30
0.0
 11
108.4433928565452
 21
126.10523114547
 31
0.0
  0
LINE
  5
404
330
E3
100
AcDbEntity
  8
0
  6
Continuous
100
AcDbLine
 10
108.4433928565452
 20
126.10523114547
 30
0.0
 11
108.4181867800697
 21
126.0952684845736
 31
0.0
  0
LINE
  5
405
330
E3
100
AcDbEntity
  8
0
  6
Continuous
100
AcDbLine
 10
108.4181867800697
 20
126.0952684845736
 30
0.0
 11
108.3960498019987
 21
126.0858434262803
 31
0.0
  0
LINE
  5
406
330
E3
100
AcDbEntity
  8
0
  6
Continuous
100
AcDbLine
 10
108.3960498019987
 20
126.0858434262803
 30
0.0
 11
108.3771588548346
 21
126.0769968011674
 31
0.0
  0
LINE
  5
407
330
E3
100
AcDbEntity
  8
0
  6
Continuous
100
AcDbLine
 10
108.3771588548346
 20
126.0769968011674
 30
0.0
 11
108.3616636506945
 21
126.0687456219755
 31
0.0
  0
LINE
  5
408
330
E3
100
AcDbEntity
  8
0
  6
Continuous
100
AcDbLine
 10
108.3616636506945
 20
126.0687456219755
 30
0.0
 11
108.349690083859
 21
126.0611137065415
 31
0.0
  0
LINE
  5
409
330
E3
100
AcDbEntity
  8
0
  6
Continuous
100
AcDbLine
 10
108.349690083859
 20
126.0611137065415
 30
0.0
 11
108.3413368282236
 21
126.0541214701543
 31
0.0
  0
LINE
  5
40A
330
E3
100
AcDbEntity
  8
0
  6
Continuous
100
AcDbLine
 10
108.3413368282236
 20
126.0541214701543
 30
0.0
 11
108.3366725829982
 21
126.0477822052626
 31
0.0
  0
LINE
  5
40B
330
E3
100
AcDbEntity
  8
0
  6
Continuous
100
AcDbLine
 10
108.3366725829982
 20
126.0477822052626
 30
0.0
 11
108.3357425776833
 21
126.0420995973428
 31
0.0
  0
LINE
  5
40C
330
E3
100
AcDbEntity
  8
0
  6
Continuous
100
AcDbLine
 10
109.3545249741521
 20
126.0230679972464
 30
0.0
 11
109.3535949688372
 21
126.0173853893265
 31
0.0
  0
LINE
  5
40D
330
E3
100
AcDbEntity
  8
0
  6
Continuous
100
AcDbLine
 10
109.3535949688372
 20
126.0173853893265
 30
0.0
 11
109.3489317330345
 21
126.0110445121464
 31
0.0
  0
LINE
  5
40E
330
E3
100
AcDbEntity
  8
0
  6
Continuous
100
AcDbLine
 10
109.3489317330345
 20
126.0110445121464
 30
0.0
 11
109.3405767449185
 21
126.0040529745633
 31
0.0
  0
LINE
  5
40F
330
E3
100
AcDbEntity
  8
0
  6
Continuous
100
AcDbLine
 10
109.3405767449185
 20
126.0040529745633
 30
0.0
 11
109.328603178083
 21
125.9964244616775
 31
0.0
  0
LINE
  5
410
330
E3
100
AcDbEntity
  8
0
  6
Continuous
100
AcDbLine
 10
109.328603178083
 20
125.9964244616775
 30
0.0
 11
109.3131079739429
 21
125.9881732824857
 31
0.0
  0
LINE
  5
411
330
E3
100
AcDbEntity
  8
0
  6
Continuous
100
AcDbLine
 10
109.3131079739429
 20
125.9881732824857
 30
0.0
 11
109.2942170267788
 21
125.9793232548246
 31
0.0
  0
LINE
  5
412
330
E3
100
AcDbEntity
  8
0
  6
Continuous
100
AcDbLine
 10
109.2942170267788
 20
125.9793232548246
 30
0.0
 11
109.2720800487078
 21
125.9699015990794
 31
0.0
  0
LINE
  5
413
330
E3
100
AcDbEntity
  8
0
  6
Continuous
100
AcDbLine
 10
109.2720800487078
 20
125.9699015990794
 30
0.0
 11
109.2468739722322
 21
125.959938938183
 31
0.0
  0
LINE
  5
414
330
E3
100
AcDbEntity
  8
0
  6
Continuous
100
AcDbLine
 10
109.2468739722322
 20
125.959938938183
 30
0.0
 11
109.2187961451431
 21
125.9494692976167
 31
0.0
  0
LINE
  5
415
330
E3
100
AcDbEntity
  8
0
  6
Continuous
100
AcDbLine
 10
109.2187961451431
 20
125.9494692976167
 30
0.0
 11
109.1880711356164
 21
125.9385301054098
 31
0.0
  0
LINE
  5
416
330
E3
100
AcDbEntity
  8
0
  6
Continuous
100
AcDbLine
 10
109.1880711356164
 20
125.9385301054098
 30
0.0
 11
109.1549337194724
 21
125.927168997236
 31
0.0
  0
LINE
  5
417
330
E3
100
AcDbEntity
  8
0
  6
Continuous
100
AcDbLine
 10
109.1549337194724
 20
125.927168997236
 30
0.0
 11
109.1196492954643
 21
125.9154302062208
 31
0.0
  0
LINE
  5
418
330
E3
100
AcDbEntity
  8
0
  6
Continuous
100
AcDbLine
 10
109.1196492954643
 20
125.9154302062208
 30
0.0
 11
109.082490067442
 21
125.9033579654898
 31
0.0
  0
LINE
  5
419
330
E3
100
AcDbEntity
  8
0
  6
Continuous
100
AcDbLine
 10
109.082490067442
 20
125.9033579654898
 30
0.0
 11
109.0437452519956
 21
125.891010118361
 31
0.0
  0
LINE
  5
41A
330
E3
100
AcDbEntity
  8
0
  6
Continuous
100
AcDbLine
 10
109.0437452519956
 20
125.891010118361
 30
0.0
 11
109.003721078456
 21
125.8784308979601
 31
0.0
  0
LINE
  5
41B
330
E3
100
AcDbEntity
  8
0
  6
Continuous
100
AcDbLine
 10
109.003721078456
 20
125.8784308979601
 30
0.0
 11
108.962727178702
 21
125.8656849527013
 31
0.0
  0
LINE
  5
41C
330
E3
100
AcDbEntity
  8
0
  6
Continuous
100
AcDbLine
 10
108.962727178702
 20
125.8656849527013
 30
0.0
 11
108.921079989709
 21
125.8528233208064
 31
0.0
  0
LINE
  5
41D
330
E3
100
AcDbEntity
  8
0
  6
Continuous
100
AcDbLine
 10
108.921079989709
 20
125.8528233208064
 30
0.0
 11
108.8791095586445
 21
125.8399038455934
 31
0.0
  0
LINE
  5
41E
330
E3
100
AcDbEntity
  8
0
  6
Continuous
100
AcDbLine
 10
108.8791095586445
 20
125.8399038455934
 30
0.0
 11
108.8371357250319
 21
125.8269843703804
 31
0.0
  0
LINE
  5
41F
330
E3
100
AcDbEntity
  8
0
  6
Continuous
100
AcDbLine
 10
108.8371357250319
 20
125.8269843703804
 30
0.0
 11
108.7954919385869
 21
125.8141227384855
 31
0.0
  0
LINE
  5
420
330
E3
100
AcDbEntity
  8
0
  6
Continuous
100
AcDbLine
 10
108.7954919385869
 20
125.8141227384855
 30
0.0
 11
108.7544946362849
 21
125.8013767932267
 31
0.0
  0
LINE
  5
421
330
E3
100
AcDbEntity
  8
0
  6
Continuous
100
AcDbLine
 10
108.7544946362849
 20
125.8013767932267
 30
0.0
 11
108.7144704627452
 21
125.7888009753739
 31
0.0
  0
LINE
  5
422
330
E3
100
AcDbEntity
  8
0
  6
Continuous
100
AcDbLine
 10
108.7144704627452
 20
125.7888009753739
 30
0.0
 11
108.675729049847
 21
125.776449725697
 31
0.0
  0
LINE
  5
423
330
E3
100
AcDbEntity
  8
0
  6
Continuous
100
AcDbLine
 10
108.675729049847
 20
125.776449725697
 30
0.0
 11
108.6385698218246
 21
125.764377484966
 31
0.0
  0
LINE
  5
424
330
E3
100
AcDbEntity
  8
0
  6
Continuous
100
AcDbLine
 10
108.6385698218246
 20
125.764377484966
 30
0.0
 11
108.6032819952685
 21
125.7526386939509
 31
0.0
  0
LINE
  5
425
330
E3
100
AcDbEntity
  8
0
  6
Continuous
100
AcDbLine
 10
108.6032819952685
 20
125.7526386939509
 30
0.0
 11
108.5701479816726
 21
125.741277585777
 31
0.0
  0
LINE
  5
426
330
E3
100
AcDbEntity
  8
0
  6
Continuous
100
AcDbLine
 10
108.5701479816726
 20
125.741277585777
 30
0.0
 11
108.5394195695977
 21
125.7303417961182
 31
0.0
  0
LINE
  5
427
330
E3
100
AcDbEntity
  8
0
  6
Continuous
100
AcDbLine
 10
108.5394195695977
 20
125.7303417961182
 30
0.0
 11
108.5113417425086
 21
125.7198721555519
 31
0.0
  0
LINE
  5
428
330
E3
100
AcDbEntity
  8
0
  6
Continuous
100
AcDbLine
 10
108.5113417425086
 20
125.7198721555519
 30
0.0
 11
108.4861356660331
 21
125.7099060921074
 31
0.0
  0
LINE
  5
429
330
E3
100
AcDbEntity
  8
0
  6
Continuous
100
AcDbLine
 10
108.4861356660331
 20
125.7099060921074
 30
0.0
 11
108.4639986879621
 21
125.7004844363622
 31
0.0
  0
LINE
  5
42A
330
E3
100
AcDbEntity
  8
0
  6
Continuous
100
AcDbLine
 10
108.4639986879621
 20
125.7004844363622
 30
0.0
 11
108.4451077407979
 21
125.6916344087011
 31
0.0
  0
LINE
  5
42B
330
E3
100
AcDbEntity
  8
0
  6
Continuous
100
AcDbLine
 10
108.4451077407979
 20
125.6916344087011
 30
0.0
 11
108.4296125366579
 21
125.6833866320574
 31
0.0
  0
LINE
  5
42C
330
E3
100
AcDbEntity
  8
0
  6
Continuous
100
AcDbLine
 10
108.4296125366579
 20
125.6833866320574
 30
0.0
 11
108.4176389698223
 21
125.6757547166235
 31
0.0
  0
LINE
  5
42D
330
E3
100
AcDbEntity
  8
0
  6
Continuous
100
AcDbLine
 10
108.4176389698223
 20
125.6757547166235
 30
0.0
 11
108.4092857141869
 21
125.6687624802362
 31
0.0
  0
LINE
  5
42E
330
E3
100
AcDbEntity
  8
0
  6
Continuous
100
AcDbLine
 10
108.4092857141869
 20
125.6687624802362
 30
0.0
 11
108.4046218699113
 21
125.6624226497361
 31
0.0
  0
LINE
  5
42F
330
E3
100
AcDbEntity
  8
0
  6
Continuous
100
AcDbLine
 10
108.4046218699113
 20
125.6624226497361
 30
0.0
 11
108.4036918645965
 21
125.6567400418162
 31
0.0
  0
LINE
  5
430
330
E3
100
AcDbEntity
  8
0
  6
Continuous
100
AcDbLine
 10
109.4224742610653
 20
125.6377084417199
 30
0.0
 11
109.4215442557503
 21
125.6320258338
 31
0.0
  0
LINE
  5
431
330
E3
100
AcDbEntity
  8
0
  6
Continuous
100
AcDbLine
 10
109.4215442557503
 20
125.6320258338
 30
0.0
 11
109.4168810199477
 21
125.6256849566199
 31
0.0
  0
LINE
  5
432
330
E3
100
AcDbEntity
  8
0
  6
Continuous
100
AcDbLine
 10
109.4168810199477
 20
125.6256849566199
 30
0.0
 11
109.4085256308818
 21
125.6186939846453
 31
0.0
  0
LINE
  5
433
330
E3
100
AcDbEntity
  8
0
  6
Continuous
100
AcDbLine
 10
109.4085256308818
 20
125.6186939846453
 30
0.0
 11
109.3965520640463
 21
125.6110620692113
 31
0.0
  0
LINE
  5
434
330
E3
100
AcDbEntity
  8
0
  6
Continuous
100
AcDbLine
 10
109.3965520640463
 20
125.6110620692113
 30
0.0
 11
109.3810568599063
 21
125.6028142925676
 31
0.0
  0
LINE
  5
435
330
E3
100
AcDbEntity
  8
0
  6
Continuous
100
AcDbLine
 10
109.3810568599063
 20
125.6028142925676
 30
0.0
 11
109.3621659127421
 21
125.5939642649066
 31
0.0
  0
LINE
  5
436
330
E3
100
AcDbEntity
  8
0
  6
Continuous
100
AcDbLine
 10
109.3621659127421
 20
125.5939642649066
 30
0.0
 11
109.3400289346711
 21
125.5845426091613
 31
0.0
  0
LINE
  5
437
330
E3
100
AcDbEntity
  8
0
  6
Continuous
100
AcDbLine
 10
109.3400289346711
 20
125.5845426091613
 30
0.0
 11
109.3148228581956
 21
125.5745765457168
 31
0.0
  0
LINE
  5
438
330
E3
100
AcDbEntity
  8
0
  6
Continuous
100
AcDbLine
 10
109.3148228581956
 20
125.5745765457168
 30
0.0
 11
109.2867450311065
 21
125.5641069051505
 31
0.0
  0
LINE
  5
439
330
E3
100
AcDbEntity
  8
0
  6
Continuous
100
AcDbLine
 10
109.2867450311065
 20
125.5641069051505
 30
0.0
 11
109.2560200215797
 21
125.5531711154917
 31
0.0
  0
LINE
  5
43A
330
E3
100
AcDbEntity
  8
0
  6
Continuous
100
AcDbLine
 10
109.2560200215797
 20
125.5531711154917
 30
0.0
 11
109.2228826054357
 21
125.5418100073179
 31
0.0
  0
LINE
  5
43B
330
E3
100
AcDbEntity
  8
0
  6
Continuous
100
AcDbLine
 10
109.2228826054357
 20
125.5418100073179
 30
0.0
 11
109.1875981814277
 21
125.5300712163027
 31
0.0
  0
LINE
  5
43C
330
E3
100
AcDbEntity
  8
0
  6
Continuous
100
AcDbLine
 10
109.1875981814277
 20
125.5300712163027
 30
0.0
 11
109.1504389534053
 21
125.5179989755717
 31
0.0
  0
LINE
  5
43D
330
E3
100
AcDbEntity
  8
0
  6
Continuous
100
AcDbLine
 10
109.1504389534053
 20
125.5179989755717
 30
0.0
 11
109.111694137959
 21
125.5056477258948
 31
0.0
  0
LINE
  5
43E
330
E3
100
AcDbEntity
  8
0
  6
Continuous
100
AcDbLine
 10
109.111694137959
 20
125.5056477258948
 30
0.0
 11
109.0716699644193
 21
125.493071908042
 31
0.0
  0
LINE
  5
43F
330
E3
100
AcDbEntity
  8
0
  6
Continuous
100
AcDbLine
 10
109.0716699644193
 20
125.493071908042
 30
0.0
 11
109.0306760646654
 21
125.4803259627832
 31
0.0
  0
LINE
  5
440
330
E3
100
AcDbEntity
  8
0
  6
Continuous
100
AcDbLine
 10
109.0306760646654
 20
125.4803259627832
 30
0.0
 11
108.9890288756723
 21
125.4674643308883
 31
0.0
  0
LINE
  5
441
330
E3
100
AcDbEntity
  8
0
  6
Continuous
100
AcDbLine
 10
108.9890288756723
 20
125.4674643308883
 30
0.0
 11
108.9470584446078
 21
125.4545448556753
 31
0.0
  0
LINE
  5
442
330
E3
100
AcDbEntity
  8
0
  6
Continuous
100
AcDbLine
 10
108.9470584446078
 20
125.4545448556753
 30
0.0
 11
108.9050846109952
 21
125.4416253804624
 31
0.0
  0
LINE
  5
443
330
E3
100
AcDbEntity
  8
0
  6
Continuous
100
AcDbLine
 10
108.9050846109952
 20
125.4416253804624
 30
0.0
 11
108.8634408245503
 21
125.4287637485675
 31
0.0
  0
LINE
  5
444
330
E3
100
AcDbEntity
  8
0
  6
Continuous
100
AcDbLine
 10
108.8634408245503
 20
125.4287637485675
 30
0.0
 11
108.8224469247963
 21
125.4160144007605
 31
0.0
  0
LINE
  5
445
330
E3
100
AcDbEntity
  8
0
  6
Continuous
100
AcDbLine
 10
108.8224469247963
 20
125.4160144007605
 30
0.0
 11
108.7824193487086
 21
125.4034385829077
 31
0.0
  0
LINE
  5
446
330
E3
100
AcDbEntity
  8
0
  6
Continuous
100
AcDbLine
 10
108.7824193487086
 20
125.4034385829077
 30
0.0
 11
108.7436779358103
 21
125.391090735779
 31
0.0
  0
LINE
  5
447
330
E3
100
AcDbEntity
  8
0
  6
Continuous
100
AcDbLine
 10
108.7436779358103
 20
125.391090735779
 30
0.0
 11
108.706518707788
 21
125.379018495048
 31
0.0
  0
LINE
  5
448
330
E3
100
AcDbEntity
  8
0
  6
Continuous
100
AcDbLine
 10
108.706518707788
 20
125.379018495048
 30
0.0
 11
108.67123428378
 21
125.3672797040328
 31
0.0
  0
LINE
  5
449
330
E3
100
AcDbEntity
  8
0
  6
Continuous
100
AcDbLine
 10
108.67123428378
 20
125.3672797040328
 30
0.0
 11
108.6380968676359
 21
125.3559185958589
 31
0.0
  0
LINE
  5
44A
330
E3
100
AcDbEntity
  8
0
  6
Continuous
100
AcDbLine
 10
108.6380968676359
 20
125.3559185958589
 30
0.0
 11
108.607368455561
 21
125.344979403652
 31
0.0
  0
LINE
  5
44B
330
E3
100
AcDbEntity
  8
0
  6
Continuous
100
AcDbLine
 10
108.607368455561
 20
125.344979403652
 30
0.0
 11
108.5792906284719
 21
125.3345097630857
 31
0.0
  0
LINE
  5
44C
330
E3
100
AcDbEntity
  8
0
  6
Continuous
100
AcDbLine
 10
108.5792906284719
 20
125.3345097630857
 30
0.0
 11
108.5540845519964
 21
125.3245471021893
 31
0.0
  0
LINE
  5
44D
330
E3
100
AcDbEntity
  8
0
  6
Continuous
100
AcDbLine
 10
108.5540845519964
 20
125.3245471021893
 30
0.0
 11
108.5319475739254
 21
125.3151254464441
 31
0.0
  0
LINE
  5
44E
330
E3
100
AcDbEntity
  8
0
  6
Continuous
100
AcDbLine
 10
108.5319475739254
 20
125.3151254464441
 30
0.0
 11
108.5130566267613
 21
125.3062754187831
 31
0.0
  0
LINE
  5
44F
330
E3
100
AcDbEntity
  8
0
  6
Continuous
100
AcDbLine
 10
108.5130566267613
 20
125.3062754187831
 30
0.0
 11
108.4975614226212
 21
125.2980242395912
 31
0.0
  0
LINE
  5
450
330
E3
100
AcDbEntity
  8
0
  6
Continuous
100
AcDbLine
 10
108.4975614226212
 20
125.2980242395912
 30
0.0
 11
108.4855878557857
 21
125.2903957267054
 31
0.0
  0
LINE
  5
451
330
E3
100
AcDbEntity
  8
0
  6
Continuous
100
AcDbLine
 10
108.4855878557857
 20
125.2903957267054
 30
0.0
 11
108.4772346001502
 21
125.2834034903181
 31
0.0
  0
LINE
  5
452
330
E3
100
AcDbEntity
  8
0
  6
Continuous
100
AcDbLine
 10
108.4772346001502
 20
125.2834034903181
 30
0.0
 11
108.4725711568245
 21
125.2770630942096
 31
0.0
  0
LINE
  5
453
330
E3
100
AcDbEntity
  8
0
  6
Continuous
100
AcDbLine
 10
108.4725711568245
 20
125.2770630942096
 30
0.0
 11
108.4716411515096
 21
125.2713804862897
 31
0.0
  0
LINE
  5
454
330
E3
100
AcDbEntity
  8
0
  6
Continuous
100
AcDbLine
 10
109.4904235479784
 20
125.2523488861934
 30
0.0
 11
109.4894935426635
 21
125.2466662782735
 31
0.0
  0
LINE
  5
455
330
E3
100
AcDbEntity
  8
0
  6
Continuous
100
AcDbLine
 10
109.4894935426635
 20
125.2466662782735
 30
0.0
 11
109.4848303068608
 21
125.2403254010934
 31
0.0
  0
LINE
  5
456
330
E3
100
AcDbEntity
  8
0
  6
Continuous
100
AcDbLine
 10
109.4848303068608
 20
125.2403254010934
 30
0.0
 11
109.4764779193933
 21
125.2333349947272
 31
0.0
  0
LINE
  5
457
330
E3
100
AcDbEntity
  8
0
  6
Continuous
100
AcDbLine
 10
109.4764779193933
 20
125.2333349947272
 30
0.0
 11
109.4645043525578
 21
125.2257030792932
 31
0.0
  0
LINE
  5
458
330
E3
100
AcDbEntity
  8
0
  6
Continuous
100
AcDbLine
 10
109.4645043525578
 20
125.2257030792932
 30
0.0
 11
109.4490091484177
 21
125.2174519001014
 31
0.0
  0
LINE
  5
459
330
E3
100
AcDbEntity
  8
0
  6
Continuous
100
AcDbLine
 10
109.4490091484177
 20
125.2174519001014
 30
0.0
 11
109.4301147987054
 21
125.2086018724404
 31
0.0
  0
LINE
  5
45A
330
E3
100
AcDbEntity
  8
0
  6
Continuous
100
AcDbLine
 10
109.4301147987054
 20
125.2086018724404
 30
0.0
 11
109.4079778206345
 21
125.1991802166951
 31
0.0
  0
LINE
  5
45B
330
E3
100
AcDbEntity
  8
0
  6
Continuous
100
AcDbLine
 10
109.4079778206345
 20
125.1991802166951
 30
0.0
 11
109.3827717441589
 21
125.1892175557988
 31
0.0
  0
LINE
  5
45C
330
E3
100
AcDbEntity
  8
0
  6
Continuous
100
AcDbLine
 10
109.3827717441589
 20
125.1892175557988
 30
0.0
 11
109.3546939170698
 21
125.1787479152324
 31
0.0
  0
LINE
  5
45D
330
E3
100
AcDbEntity
  8
0
  6
Continuous
100
AcDbLine
 10
109.3546939170698
 20
125.1787479152324
 30
0.0
 11
109.3239689075431
 21
125.1678121255736
 31
0.0
  0
LINE
  5
45E
330
E3
100
AcDbEntity
  8
0
  6
Continuous
100
AcDbLine
 10
109.3239689075431
 20
125.1678121255736
 30
0.0
 11
109.290831491399
 21
125.1564510173998
 31
0.0
  0
LINE
  5
45F
330
E3
100
AcDbEntity
  8
0
  6
Continuous
100
AcDbLine
 10
109.290831491399
 20
125.1564510173998
 30
0.0
 11
109.255547067391
 21
125.1447088238365
 31
0.0
  0
LINE
  5
460
330
E3
100
AcDbEntity
  8
0
  6
Continuous
100
AcDbLine
 10
109.255547067391
 20
125.1447088238365
 30
0.0
 11
109.2183878393687
 21
125.1326399856536
 31
0.0
  0
LINE
  5
461
330
E3
100
AcDbEntity
  8
0
  6
Continuous
100
AcDbLine
 10
109.2183878393687
 20
125.1326399856536
 30
0.0
 11
109.1796430239223
 21
125.1202887359767
 31
0.0
  0
LINE
  5
462
330
E3
100
AcDbEntity
  8
0
  6
Continuous
100
AcDbLine
 10
109.1796430239223
 20
125.1202887359767
 30
0.0
 11
109.1396188503826
 21
125.107712918124
 31
0.0
  0
LINE
  5
463
330
E3
100
AcDbEntity
  8
0
  6
Continuous
100
AcDbLine
 10
109.1396188503826
 20
125.107712918124
 30
0.0
 11
109.0986249506287
 21
125.0949669728651
 31
0.0
  0
LINE
  5
464
330
E3
100
AcDbEntity
  8
0
  6
Continuous
100
AcDbLine
 10
109.0986249506287
 20
125.0949669728651
 30
0.0
 11
109.0569777616356
 21
125.0821053409702
 31
0.0
  0
LINE
  5
465
330
E3
100
AcDbEntity
  8
0
  6
Continuous
100
AcDbLine
 10
109.0569777616356
 20
125.0821053409702
 30
0.0
 11
109.0150073305712
 21
125.0691858657572
 31
0.0
  0
LINE
  5
466
330
E3
100
AcDbEntity
  8
0
  6
Continuous
100
AcDbLine
 10
109.0150073305712
 20
125.0691858657572
 30
0.0
 11
108.9730334969585
 21
125.0562663905443
 31
0.0
  0
LINE
  5
467
330
E3
100
AcDbEntity
  8
0
  6
Continuous
100
AcDbLine
 10
108.9730334969585
 20
125.0562663905443
 30
0.0
 11
108.9313897105136
 21
125.0434047586494
 31
0.0
  0
LINE
  5
468
330
E3
100
AcDbEntity
  8
0
  6
Continuous
100
AcDbLine
 10
108.9313897105136
 20
125.0434047586494
 30
0.0
 11
108.8903958107597
 21
125.0306554108424
 31
0.0
  0
LINE
  5
469
330
E3
100
AcDbEntity
  8
0
  6
Continuous
100
AcDbLine
 10
108.8903958107597
 20
125.0306554108424
 30
0.0
 11
108.8503682346719
 21
125.0180795929896
 31
0.0
  0
LINE
  5
46A
330
E3
100
AcDbEntity
  8
0
  6
Continuous
100
AcDbLine
 10
108.8503682346719
 20
125.0180795929896
 30
0.0
 11
108.8116268217736
 21
125.0057317458609
 31
0.0
  0
LINE
  5
46B
330
E3
100
AcDbEntity
  8
0
  6
Continuous
100
AcDbLine
 10
108.8116268217736
 20
125.0057317458609
 30
0.0
 11
108.7744675937513
 21
124.9936595051299
 31
0.0
  0
LINE
  5
46C
330
E3
100
AcDbEntity
  8
0
  6
Continuous
100
AcDbLine
 10
108.7744675937513
 20
124.9936595051299
 30
0.0
 11
108.7391831697433
 21
124.9819207141147
 31
0.0
  0
LINE
  5
46D
330
E3
100
AcDbEntity
  8
0
  6
Continuous
100
AcDbLine
 10
108.7391831697433
 20
124.9819207141147
 30
0.0
 11
108.7060457535992
 21
124.9705562033927
 31
0.0
  0
LINE
  5
46E
330
E3
100
AcDbEntity
  8
0
  6
Continuous
100
AcDbLine
 10
108.7060457535992
 20
124.9705562033927
 30
0.0
 11
108.6753173415244
 21
124.9596204137339
 31
0.0
  0
LINE
  5
46F
330
E3
100
AcDbEntity
  8
0
  6
Continuous
100
AcDbLine
 10
108.6753173415244
 20
124.9596204137339
 30
0.0
 11
108.6472395144353
 21
124.9491507731676
 31
0.0
  0
LINE
  5
470
330
E3
100
AcDbEntity
  8
0
  6
Continuous
100
AcDbLine
 10
108.6472395144353
 20
124.9491507731676
 30
0.0
 11
108.6220334379597
 21
124.9391881122713
 31
0.0
  0
LINE
  5
471
330
E3
100
AcDbEntity
  8
0
  6
Continuous
100
AcDbLine
 10
108.6220334379597
 20
124.9391881122713
 30
0.0
 11
108.5998964598888
 21
124.929766456526
 31
0.0
  0
LINE
  5
472
330
E3
100
AcDbEntity
  8
0
  6
Continuous
100
AcDbLine
 10
108.5998964598888
 20
124.929766456526
 30
0.0
 11
108.5810055127246
 21
124.920916428865
 31
0.0
  0
LINE
  5
473
330
E3
100
AcDbEntity
  8
0
  6
Continuous
100
AcDbLine
 10
108.5810055127246
 20
124.920916428865
 30
0.0
 11
108.5655103085845
 21
124.9126652496732
 31
0.0
  0
LINE
  5
474
330
E3
100
AcDbEntity
  8
0
  6
Continuous
100
AcDbLine
 10
108.5655103085845
 20
124.9126652496732
 30
0.0
 11
108.553536741749
 21
124.9050367367873
 31
0.0
  0
LINE
  5
475
330
E3
100
AcDbEntity
  8
0
  6
Continuous
100
AcDbLine
 10
108.553536741749
 20
124.9050367367873
 30
0.0
 11
108.5451834861136
 21
124.8980445004
 31
0.0
  0
LINE
  5
476
330
E3
100
AcDbEntity
  8
0
  6
Continuous
100
AcDbLine
 10
108.5451834861136
 20
124.8980445004
 30
0.0
 11
108.5405204437376
 21
124.8917035386831
 31
0.0
  0
LINE
  5
477
330
E3
100
AcDbEntity
  8
0
  6
Continuous
100
AcDbLine
 10
108.5405204437376
 20
124.8917035386831
 30
0.0
 11
108.5395904384228
 21
124.8860209307632
 31
0.0
  0
LINE
  5
478
330
E3
100
AcDbEntity
  8
0
  6
Continuous
100
AcDbLine
 10
109.5583728348915
 20
124.8669893306669
 30
0.0
 11
109.5574428295766
 21
124.8613067227469
 31
0.0
  0
LINE
  5
479
330
E3
100
AcDbEntity
  8
0
  6
Continuous
100
AcDbLine
 10
109.5574428295766
 20
124.8613067227469
 30
0.0
 11
109.5527795937739
 21
124.8549658455669
 31
0.0
  0
LINE
  5
47A
330
E3
100
AcDbEntity
  8
0
  6
Continuous
100
AcDbLine
 10
109.5527795937739
 20
124.8549658455669
 30
0.0
 11
109.5444268053566
 21
124.847972602261
 31
0.0
  0
LINE
  5
47B
330
E3
100
AcDbEntity
  8
0
  6
Continuous
100
AcDbLine
 10
109.5444268053566
 20
124.847972602261
 30
0.0
 11
109.5324532385211
 21
124.8403440893752
 31
0.0
  0
LINE
  5
47C
330
E3
100
AcDbEntity
  8
0
  6
Continuous
100
AcDbLine
 10
109.5324532385211
 20
124.8403440893752
 30
0.0
 11
109.5169580343811
 21
124.8320929101833
 31
0.0
  0
LINE
  5
47D
330
E3
100
AcDbEntity
  8
0
  6
Continuous
100
AcDbLine
 10
109.5169580343811
 20
124.8320929101833
 30
0.0
 11
109.4980670872169
 21
124.8232428825223
 31
0.0
  0
LINE
  5
47E
330
E3
100
AcDbEntity
  8
0
  6
Continuous
100
AcDbLine
 10
109.4980670872169
 20
124.8232428825223
 30
0.0
 11
109.4759301091459
 21
124.8138212267771
 31
0.0
  0
LINE
  5
47F
330
E3
100
AcDbEntity
  8
0
  6
Continuous
100
AcDbLine
 10
109.4759301091459
 20
124.8138212267771
 30
0.0
 11
109.4507206301223
 21
124.8038585658807
 31
0.0
  0
LINE
  5
480
330
E3
100
AcDbEntity
  8
0
  6
Continuous
100
AcDbLine
 10
109.4507206301223
 20
124.8038585658807
 30
0.0
 11
109.4226462055813
 21
124.7933889253144
 31
0.0
  0
LINE
  5
481
330
E3
100
AcDbEntity
  8
0
  6
Continuous
100
AcDbLine
 10
109.4226462055813
 20
124.7933889253144
 30
0.0
 11
109.3919177935064
 21
124.7824531356556
 31
0.0
  0
LINE
  5
482
330
E3
100
AcDbEntity
  8
0
  6
Continuous
100
AcDbLine
 10
109.3919177935064
 20
124.7824531356556
 30
0.0
 11
109.3587803773624
 21
124.7710920274817
 31
0.0
  0
LINE
  5
483
330
E3
100
AcDbEntity
  8
0
  6
Continuous
100
AcDbLine
 10
109.3587803773624
 20
124.7710920274817
 30
0.0
 11
109.3234959533544
 21
124.7593498339184
 31
0.0
  0
LINE
  5
484
330
E3
100
AcDbEntity
  8
0
  6
Continuous
100
AcDbLine
 10
109.3234959533544
 20
124.7593498339184
 30
0.0
 11
109.286336725332
 21
124.7472809957355
 31
0.0
  0
LINE
  5
485
330
E3
100
AcDbEntity
  8
0
  6
Continuous
100
AcDbLine
 10
109.286336725332
 20
124.7472809957355
 30
0.0
 11
109.2475919098856
 21
124.7349297460587
 31
0.0
  0
LINE
  5
486
330
E3
100
AcDbEntity
  8
0
  6
Continuous
100
AcDbLine
 10
109.2475919098856
 20
124.7349297460587
 30
0.0
 11
109.207567736346
 21
124.7223539282059
 31
0.0
  0
LINE
  5
487
330
E3
100
AcDbEntity
  8
0
  6
Continuous
100
AcDbLine
 10
109.207567736346
 20
124.7223539282059
 30
0.0
 11
109.166573836592
 21
124.709607982947
 31
0.0
  0
LINE
  5
488
330
E3
100
AcDbEntity
  8
0
  6
Continuous
100
AcDbLine
 10
109.166573836592
 20
124.709607982947
 30
0.0
 11
109.1249300501471
 21
124.6967463510521
 31
0.0
  0
LINE
  5
489
330
E3
100
AcDbEntity
  8
0
  6
Continuous
100
AcDbLine
 10
109.1249300501471
 20
124.6967463510521
 30
0.0
 11
109.0829562165345
 21
124.6838268758392
 31
0.0
  0
LINE
  5
48A
330
E3
100
AcDbEntity
  8
0
  6
Continuous
100
AcDbLine
 10
109.0829562165345
 20
124.6838268758392
 30
0.0
 11
109.04098578547
 21
124.6709074006262
 31
0.0
  0
LINE
  5
48B
330
E3
100
AcDbEntity
  8
0
  6
Continuous
100
AcDbLine
 10
109.04098578547
 20
124.6709074006262
 30
0.0
 11
108.9993385964769
 21
124.6580457687313
 31
0.0
  0
LINE
  5
48C
330
E3
100
AcDbEntity
  8
0
  6
Continuous
100
AcDbLine
 10
108.9993385964769
 20
124.6580457687313
 30
0.0
 11
108.958344696723
 21
124.6452964209244
 31
0.0
  0
LINE
  5
48D
330
E3
100
AcDbEntity
  8
0
  6
Continuous
100
AcDbLine
 10
108.958344696723
 20
124.6452964209244
 30
0.0
 11
108.9183205231834
 21
124.6327206030715
 31
0.0
  0
LINE
  5
48E
330
E3
100
AcDbEntity
  8
0
  6
Continuous
100
AcDbLine
 10
108.9183205231834
 20
124.6327206030715
 30
0.0
 11
108.879575707737
 21
124.6203693533947
 31
0.0
  0
LINE
  5
48F
330
E3
100
AcDbEntity
  8
0
  6
Continuous
100
AcDbLine
 10
108.879575707737
 20
124.6203693533947
 30
0.0
 11
108.8424164797147
 21
124.6083005152118
 31
0.0
  0
LINE
  5
490
330
E3
100
AcDbEntity
  8
0
  6
Continuous
100
AcDbLine
 10
108.8424164797147
 20
124.6083005152118
 30
0.0
 11
108.8071320557067
 21
124.5965583216485
 31
0.0
  0
LINE
  5
491
330
E3
100
AcDbEntity
  8
0
  6
Continuous
100
AcDbLine
 10
108.8071320557067
 20
124.5965583216485
 30
0.0
 11
108.7739946395626
 21
124.5851972134746
 31
0.0
  0
LINE
  5
492
330
E3
100
AcDbEntity
  8
0
  6
Continuous
100
AcDbLine
 10
108.7739946395626
 20
124.5851972134746
 30
0.0
 11
108.7432662274877
 21
124.5742614238159
 31
0.0
  0
LINE
  5
493
330
E3
100
AcDbEntity
  8
0
  6
Continuous
100
AcDbLine
 10
108.7432662274877
 20
124.5742614238159
 30
0.0
 11
108.7151918029467
 21
124.5637917832496
 31
0.0
  0
LINE
  5
494
330
E3
100
AcDbEntity
  8
0
  6
Continuous
100
AcDbLine
 10
108.7151918029467
 20
124.5637917832496
 30
0.0
 11
108.6899823239231
 21
124.5538291223532
 31
0.0
  0
LINE
  5
495
330
E3
100
AcDbEntity
  8
0
  6
Continuous
100
AcDbLine
 10
108.6899823239231
 20
124.5538291223532
 30
0.0
 11
108.6678453458521
 21
124.5444074666079
 31
0.0
  0
LINE
  5
496
330
E3
100
AcDbEntity
  8
0
  6
Continuous
100
AcDbLine
 10
108.6678453458521
 20
124.5444074666079
 30
0.0
 11
108.6489543986879
 21
124.5355574389469
 31
0.0
  0
LINE
  5
497
330
E3
100
AcDbEntity
  8
0
  6
Continuous
100
AcDbLine
 10
108.6489543986879
 20
124.5355574389469
 30
0.0
 11
108.6334591945479
 21
124.5273062597551
 31
0.0
  0
LINE
  5
498
330
E3
100
AcDbEntity
  8
0
  6
Continuous
100
AcDbLine
 10
108.6334591945479
 20
124.5273062597551
 30
0.0
 11
108.6214856277124
 21
124.5196777468693
 31
0.0
  0
LINE
  5
499
330
E3
100
AcDbEntity
  8
0
  6
Continuous
100
AcDbLine
 10
108.6214856277124
 20
124.5196777468693
 30
0.0
 11
108.6131323720769
 21
124.5126855104819
 31
0.0
  0
LINE
  5
49A
330
E3
100
AcDbEntity
  8
0
  6
Continuous
100
AcDbLine
 10
108.6131323720769
 20
124.5126855104819
 30
0.0
 11
108.6084697306508
 21
124.5063439831566
 31
0.0
  0
LINE
  5
49B
330
E3
100
AcDbEntity
  8
0
  6
Continuous
100
AcDbLine
 10
108.6084697306508
 20
124.5063439831566
 30
0.0
 11
108.6075397253359
 21
124.5006613752367
 31
0.0
  0
LINE
  5
49C
330
E3
100
AcDbEntity
  8
0
  6
Continuous
100
AcDbLine
 10
109.6263221218047
 20
124.4816297751403
 30
0.0
 11
109.6253921164898
 21
124.4759471672204
 31
0.0
  0
LINE
  5
49D
330
E3
100
AcDbEntity
  8
0
  6
Continuous
100
AcDbLine
 10
109.6253921164898
 20
124.4759471672204
 30
0.0
 11
109.6207288806871
 21
124.4696062900403
 31
0.0
  0
LINE
  5
49E
330
E3
100
AcDbEntity
  8
0
  6
Continuous
100
AcDbLine
 10
109.6207288806871
 20
124.4696062900403
 30
0.0
 11
109.61237569132
 21
124.4626136123429
 31
0.0
  0
LINE
  5
49F
330
E3
100
AcDbEntity
  8
0
  6
Continuous
100
AcDbLine
 10
109.61237569132
 20
124.4626136123429
 30
0.0
 11
109.6004021244845
 21
124.4549850994571
 31
0.0
  0
LINE
  5
4A0
330
E3
100
AcDbEntity
  8
0
  6
Continuous
100
AcDbLine
 10
109.6004021244845
 20
124.4549850994571
 30
0.0
 11
109.5849069203444
 21
124.4467339202652
 31
0.0
  0
LINE
  5
4A1
330
E3
100
AcDbEntity
  8
0
  6
Continuous
100
AcDbLine
 10
109.5849069203444
 20
124.4467339202652
 30
0.0
 11
109.5660159731802
 21
124.4378838926042
 31
0.0
  0
LINE
  5
4A2
330
E3
100
AcDbEntity
  8
0
  6
Continuous
100
AcDbLine
 10
109.5660159731802
 20
124.4378838926042
 30
0.0
 11
109.5438789951093
 21
124.428462236859
 31
0.0
  0
LINE
  5
4A3
330
E3
100
AcDbEntity
  8
0
  6
Continuous
100
AcDbLine
 10
109.5438789951093
 20
124.428462236859
 30
0.0
 11
109.5186729186337
 21
124.4184995759626
 31
0.0
  0
LINE
  5
4A4
330
E3
100
AcDbEntity
  8
0
  6
Continuous
100
AcDbLine
 10
109.5186729186337
 20
124.4184995759626
 30
0.0
 11
109.4905950915446
 21
124.4080299353963
 31
0.0
  0
LINE
  5
4A5
330
E3
100
AcDbEntity
  8
0
  6
Continuous
100
AcDbLine
 10
109.4905950915446
 20
124.4080299353963
 30
0.0
 11
109.4598666794697
 21
124.3970941457375
 31
0.0
  0
LINE
  5
4A6
330
E3
100
AcDbEntity
  8
0
  6
Continuous
100
AcDbLine
 10
109.4598666794697
 20
124.3970941457375
 30
0.0
 11
109.4267292633257
 21
124.3857330375636
 31
0.0
  0
LINE
  5
4A7
330
E3
100
AcDbEntity
  8
0
  6
Continuous
100
AcDbLine
 10
109.4267292633257
 20
124.3857330375636
 30
0.0
 11
109.3914448393177
 21
124.3739908440003
 31
0.0
  0
LINE
  5
4A8
330
E3
100
AcDbEntity
  8
0
  6
Continuous
100
AcDbLine
 10
109.3914448393177
 20
124.3739908440003
 30
0.0
 11
109.3542856112954
 21
124.3619220058174
 31
0.0
  0
LINE
  5
4A9
330
E3
100
AcDbEntity
  8
0
  6
Continuous
100
AcDbLine
 10
109.3542856112954
 20
124.3619220058174
 30
0.0
 11
109.3155441983971
 21
124.3495707561406
 31
0.0
  0
LINE
  5
4AA
330
E3
100
AcDbEntity
  8
0
  6
Continuous
100
AcDbLine
 10
109.3155441983971
 20
124.3495707561406
 30
0.0
 11
109.2755166223093
 21
124.3369949382878
 31
0.0
  0
LINE
  5
4AB
330
E3
100
AcDbEntity
  8
0
  6
Continuous
100
AcDbLine
 10
109.2755166223093
 20
124.3369949382878
 30
0.0
 11
109.2345227225554
 21
124.3242455904808
 31
0.0
  0
LINE
  5
4AC
330
E3
100
AcDbEntity
  8
0
  6
Continuous
100
AcDbLine
 10
109.2345227225554
 20
124.3242455904808
 30
0.0
 11
109.1928789361104
 21
124.3113839585859
 31
0.0
  0
LINE
  5
4AD
330
E3
100
AcDbEntity
  8
0
  6
Continuous
100
AcDbLine
 10
109.1928789361104
 20
124.3113839585859
 30
0.0
 11
109.1509051024978
 21
124.298464483373
 31
0.0
  0
LINE
  5
4AE
330
E3
100
AcDbEntity
  8
0
  6
Continuous
100
AcDbLine
 10
109.1509051024978
 20
124.298464483373
 30
0.0
 11
109.1089346714333
 21
124.28554500816
 31
0.0
  0
LINE
  5
4AF
330
E3
100
AcDbEntity
  8
0
  6
Continuous
100
AcDbLine
 10
109.1089346714333
 20
124.28554500816
 30
0.0
 11
109.0672874824403
 21
124.2726833762651
 31
0.0
  0
LINE
  5
4B0
330
E3
100
AcDbEntity
  8
0
  6
Continuous
100
AcDbLine
 10
109.0672874824403
 20
124.2726833762651
 30
0.0
 11
109.0262935826863
 21
124.2599374310063
 31
0.0
  0
LINE
  5
4B1
330
E3
100
AcDbEntity
  8
0
  6
Continuous
100
AcDbLine
 10
109.0262935826863
 20
124.2599374310063
 30
0.0
 11
108.9862694091467
 21
124.2473616131535
 31
0.0
  0
LINE
  5
4B2
330
E3
100
AcDbEntity
  8
0
  6
Continuous
100
AcDbLine
 10
108.9862694091467
 20
124.2473616131535
 30
0.0
 11
108.9475245937003
 21
124.2350103634766
 31
0.0
  0
LINE
  5
4B3
330
E3
100
AcDbEntity
  8
0
  6
Continuous
100
AcDbLine
 10
108.9475245937003
 20
124.2350103634766
 30
0.0
 11
108.910365365678
 21
124.2229415252937
 31
0.0
  0
LINE
  5
4B4
330
E3
100
AcDbEntity
  8
0
  6
Continuous
100
AcDbLine
 10
108.910365365678
 20
124.2229415252937
 30
0.0
 11
108.87508094167
 21
124.2111993317304
 31
0.0
  0
LINE
  5
4B5
330
E3
100
AcDbEntity
  8
0
  6
Continuous
100
AcDbLine
 10
108.87508094167
 20
124.2111993317304
 30
0.0
 11
108.8419435255259
 21
124.1998382235566
 31
0.0
  0
LINE
  5
4B6
330
E3
100
AcDbEntity
  8
0
  6
Continuous
100
AcDbLine
 10
108.8419435255259
 20
124.1998382235566
 30
0.0
 11
108.8112185159992
 21
124.1889024338978
 31
0.0
  0
LINE
  5
4B7
330
E3
100
AcDbEntity
  8
0
  6
Continuous
100
AcDbLine
 10
108.8112185159992
 20
124.1889024338978
 30
0.0
 11
108.7831406889101
 21
124.1784327933315
 31
0.0
  0
LINE
  5
4B8
330
E3
100
AcDbEntity
  8
0
  6
Continuous
100
AcDbLine
 10
108.7831406889101
 20
124.1784327933315
 30
0.0
 11
108.7579346124346
 21
124.1684701324351
 31
0.0
  0
LINE
  5
4B9
330
E3
100
AcDbEntity
  8
0
  6
Continuous
100
AcDbLine
 10
108.7579346124346
 20
124.1684701324351
 30
0.0
 11
108.7357976343635
 21
124.1590484766899
 31
0.0
  0
LINE
  5
4BA
330
E3
100
AcDbEntity
  8
0
  6
Continuous
100
AcDbLine
 10
108.7357976343635
 20
124.1590484766899
 30
0.0
 11
108.7169032846513
 21
124.1501984490288
 31
0.0
  0
LINE
  5
4BB
330
E3
100
AcDbEntity
  8
0
  6
Continuous
100
AcDbLine
 10
108.7169032846513
 20
124.1501984490288
 30
0.0
 11
108.7014080805112
 21
124.141947269837
 31
0.0
  0
LINE
  5
4BC
330
E3
100
AcDbEntity
  8
0
  6
Continuous
100
AcDbLine
 10
108.7014080805112
 20
124.141947269837
 30
0.0
 11
108.6894345136757
 21
124.134315354403
 31
0.0
  0
LINE
  5
4BD
330
E3
100
AcDbEntity
  8
0
  6
Continuous
100
AcDbLine
 10
108.6894345136757
 20
124.134315354403
 30
0.0
 11
108.6810812580403
 21
124.1273265205639
 31
0.0
  0
LINE
  5
4BE
330
E3
100
AcDbEntity
  8
0
  6
Continuous
100
AcDbLine
 10
108.6810812580403
 20
124.1273265205639
 30
0.0
 11
108.6764190175639
 21
124.12098442763
 31
0.0
  0
LINE
  5
4BF
330
E3
100
AcDbEntity
  8
0
  6
Continuous
100
AcDbLine
 10
108.6764190175639
 20
124.12098442763
 30
0.0
 11
108.675489012249
 21
124.1153018197101
 31
0.0
  0
LINE
  5
4C0
330
E3
100
AcDbEntity
  8
0
  6
Continuous
100
AcDbLine
 10
109.6942714087178
 20
124.0962702196138
 30
0.0
 11
109.693341403403
 21
124.0905876116939
 31
0.0
  0
LINE
  5
4C1
330
E3
100
AcDbEntity
  8
0
  6
Continuous
100
AcDbLine
 10
109.693341403403
 20
124.0905876116939
 30
0.0
 11
109.6886781676002
 21
124.0842467345138
 31
0.0
  0
LINE
  5
4C2
330
E3
100
AcDbEntity
  8
0
  6
Continuous
100
AcDbLine
 10
109.6886781676002
 20
124.0842467345138
 30
0.0
 11
109.6803245772833
 21
124.0772546224248
 31
0.0
  0
LINE
  5
4C3
330
E3
100
AcDbEntity
  8
0
  6
Continuous
100
AcDbLine
 10
109.6803245772833
 20
124.0772546224248
 30
0.0
 11
109.6683510104478
 21
124.069626109539
 31
0.0
  0
LINE
  5
4C4
330
E3
100
AcDbEntity
  8
0
  6
Continuous
100
AcDbLine
 10
109.6683510104478
 20
124.069626109539
 30
0.0
 11
109.6528558063077
 21
124.0613749303472
 31
0.0
  0
LINE
  5
4C5
330
E3
100
AcDbEntity
  8
0
  6
Continuous
100
AcDbLine
 10
109.6528558063077
 20
124.0613749303472
 30
0.0
 11
109.6339648591436
 21
124.0525249026861
 31
0.0
  0
LINE
  5
4C6
330
E3
100
AcDbEntity
  8
0
  6
Continuous
100
AcDbLine
 10
109.6339648591436
 20
124.0525249026861
 30
0.0
 11
109.6118278810726
 21
124.0431032469409
 31
0.0
  0
LINE
  5
4C7
330
E3
100
AcDbEntity
  8
0
  6
Continuous
100
AcDbLine
 10
109.6118278810726
 20
124.0431032469409
 30
0.0
 11
109.5866218045971
 21
124.0331405860445
 31
0.0
  0
LINE
  5
4C8
330
E3
100
AcDbEntity
  8
0
  6
Continuous
100
AcDbLine
 10
109.5866218045971
 20
124.0331405860445
 30
0.0
 11
109.558543977508
 21
124.0226709454782
 31
0.0
  0
LINE
  5
4C9
330
E3
100
AcDbEntity
  8
0
  6
Continuous
100
AcDbLine
 10
109.558543977508
 20
124.0226709454782
 30
0.0
 11
109.5278155654331
 21
124.0117317532713
 31
0.0
  0
LINE
  5
4CA
330
E3
100
AcDbEntity
  8
0
  6
Continuous
100
AcDbLine
 10
109.5278155654331
 20
124.0117317532713
 30
0.0
 11
109.4946815518371
 21
124.0003706450974
 31
0.0
  0
LINE
  5
4CB
330
E3
100
AcDbEntity
  8
0
  6
Continuous
100
AcDbLine
 10
109.4946815518371
 20
124.0003706450974
 30
0.0
 11
109.459393725281
 21
123.9886318540823
 31
0.0
  0
LINE
  5
4CC
330
E3
100
AcDbEntity
  8
0
  6
Continuous
100
AcDbLine
 10
109.459393725281
 20
123.9886318540823
 30
0.0
 11
109.4222344972587
 21
123.9765596133513
 31
0.0
  0
LINE
  5
4CD
330
E3
100
AcDbEntity
  8
0
  6
Continuous
100
AcDbLine
 10
109.4222344972587
 20
123.9765596133513
 30
0.0
 11
109.3834930843604
 21
123.9642117662225
 31
0.0
  0
LINE
  5
4CE
330
E3
100
AcDbEntity
  8
0
  6
Continuous
100
AcDbLine
 10
109.3834930843604
 20
123.9642117662225
 30
0.0
 11
109.3434655082727
 21
123.9516359483697
 31
0.0
  0
LINE
  5
4CF
330
E3
100
AcDbEntity
  8
0
  6
Continuous
100
AcDbLine
 10
109.3434655082727
 20
123.9516359483697
 30
0.0
 11
109.3024716085187
 21
123.9388866005628
 31
0.0
  0
LINE
  5
4D0
330
E3
100
AcDbEntity
  8
0
  6
Continuous
100
AcDbLine
 10
109.3024716085187
 20
123.9388866005628
 30
0.0
 11
109.2608278220738
 21
123.9260249686678
 31
0.0
  0
LINE
  5
4D1
330
E3
100
AcDbEntity
  8
0
  6
Continuous
100
AcDbLine
 10
109.2608278220738
 20
123.9260249686678
 30
0.0
 11
109.2188539884612
 21
123.9131054934549
 31
0.0
  0
LINE
  5
4D2
330
E3
100
AcDbEntity
  8
0
  6
Continuous
100
AcDbLine
 10
109.2188539884612
 20
123.9131054934549
 30
0.0
 11
109.1768835573967
 21
123.9001860182419
 31
0.0
  0
LINE
  5
4D3
330
E3
100
AcDbEntity
  8
0
  6
Continuous
100
AcDbLine
 10
109.1768835573967
 20
123.9001860182419
 30
0.0
 11
109.1352363684036
 21
123.887324386347
 31
0.0
  0
LINE
  5
4D4
330
E3
100
AcDbEntity
  8
0
  6
Continuous
100
AcDbLine
 10
109.1352363684036
 20
123.887324386347
 30
0.0
 11
109.0942424686497
 21
123.8745784410882
 31
0.0
  0
LINE
  5
4D5
330
E3
100
AcDbEntity
  8
0
  6
Continuous
100
AcDbLine
 10
109.0942424686497
 20
123.8745784410882
 30
0.0
 11
109.0542182951101
 21
123.8620026232354
 31
0.0
  0
LINE
  5
4D6
330
E3
100
AcDbEntity
  8
0
  6
Continuous
100
AcDbLine
 10
109.0542182951101
 20
123.8620026232354
 30
0.0
 11
109.0154734796636
 21
123.8496513735585
 31
0.0
  0
LINE
  5
4D7
330
E3
100
AcDbEntity
  8
0
  6
Continuous
100
AcDbLine
 10
109.0154734796636
 20
123.8496513735585
 30
0.0
 11
108.9783142516413
 21
123.8375825353757
 31
0.0
  0
LINE
  5
4D8
330
E3
100
AcDbEntity
  8
0
  6
Continuous
100
AcDbLine
 10
108.9783142516413
 20
123.8375825353757
 30
0.0
 11
108.9430298276333
 21
123.8258403418124
 31
0.0
  0
LINE
  5
4D9
330
E3
100
AcDbEntity
  8
0
  6
Continuous
100
AcDbLine
 10
108.9430298276333
 20
123.8258403418124
 30
0.0
 11
108.9098924114893
 21
123.8144792336385
 31
0.0
  0
LINE
  5
4DA
330
E3
100
AcDbEntity
  8
0
  6
Continuous
100
AcDbLine
 10
108.9098924114893
 20
123.8144792336385
 30
0.0
 11
108.8791674019625
 21
123.8035434439797
 31
0.0
  0
LINE
  5
4DB
330
E3
100
AcDbEntity
  8
0
  6
Continuous
100
AcDbLine
 10
108.8791674019625
 20
123.8035434439797
 30
0.0
 11
108.8510895748734
 21
123.7930738034134
 31
0.0
  0
LINE
  5
4DC
330
E3
100
AcDbEntity
  8
0
  6
Continuous
100
AcDbLine
 10
108.8510895748734
 20
123.7930738034134
 30
0.0
 11
108.8258834983979
 21
123.783111142517
 31
0.0
  0
LINE
  5
4DD
330
E3
100
AcDbEntity
  8
0
  6
Continuous
100
AcDbLine
 10
108.8258834983979
 20
123.783111142517
 30
0.0
 11
108.8037465203269
 21
123.7736860842237
 31
0.0
  0
LINE
  5
4DE
330
E3
100
AcDbEntity
  8
0
  6
Continuous
100
AcDbLine
 10
108.8037465203269
 20
123.7736860842237
 30
0.0
 11
108.7848555731627
 21
123.7648394591107
 31
0.0
  0
LINE
  5
4DF
330
E3
100
AcDbEntity
  8
0
  6
Continuous
100
AcDbLine
 10
108.7848555731627
 20
123.7648394591107
 30
0.0
 11
108.7693603690227
 21
123.7565882799189
 31
0.0
  0
LINE
  5
4E0
330
E3
100
AcDbEntity
  8
0
  6
Continuous
100
AcDbLine
 10
108.7693603690227
 20
123.7565882799189
 30
0.0
 11
108.7573868021872
 21
123.748956364485
 31
0.0
  0
LINE
  5
4E1
330
E3
100
AcDbEntity
  8
0
  6
Continuous
100
AcDbLine
 10
108.7573868021872
 20
123.748956364485
 30
0.0
 11
108.7490301440036
 21
123.7419641280976
 31
0.0
  0
LINE
  5
4E2
330
E3
100
AcDbEntity
  8
0
  6
Continuous
100
AcDbLine
 10
108.7490301440036
 20
123.7419641280976
 30
0.0
 11
108.7443683044771
 21
123.7356248721035
 31
0.0
  0
LINE
  5
4E3
330
E3
100
AcDbEntity
  8
0
  6
Continuous
100
AcDbLine
 10
108.7443683044771
 20
123.7356248721035
 30
0.0
 11
108.7434382991622
 21
123.7299422641836
 31
0.0
  0
LINE
  5
4E4
330
E3
100
AcDbEntity
  8
0
  6
Continuous
100
AcDbLine
 10
109.762220695631
 20
123.7109106640873
 30
0.0
 11
109.7612906903161
 21
123.7052280561674
 31
0.0
  0
LINE
  5
4E5
330
E3
100
AcDbEntity
  8
0
  6
Continuous
100
AcDbLine
 10
109.7612906903161
 20
123.7052280561674
 30
0.0
 11
109.7566274545134
 21
123.6988871789873
 31
0.0
  0
LINE
  5
4E6
330
E3
100
AcDbEntity
  8
0
  6
Continuous
100
AcDbLine
 10
109.7566274545134
 20
123.6988871789873
 30
0.0
 11
109.7482734632466
 21
123.6918956325067
 31
0.0
  0
LINE
  5
4E7
330
E3
100
AcDbEntity
  8
0
  6
Continuous
100
AcDbLine
 10
109.7482734632466
 20
123.6918956325067
 30
0.0
 11
109.7362998964112
 21
123.6842671196209
 31
0.0
  0
LINE
  5
4E8
330
E3
100
AcDbEntity
  8
0
  6
Continuous
100
AcDbLine
 10
109.7362998964112
 20
123.6842671196209
 30
0.0
 11
109.7208046922711
 21
123.6760159404291
 31
0.0
  0
LINE
  5
4E9
330
E3
100
AcDbEntity
  8
0
  6
Continuous
100
AcDbLine
 10
109.7208046922711
 20
123.6760159404291
 30
0.0
 11
109.7019137451069
 21
123.6671659127681
 31
0.0
  0
LINE
  5
4EA
330
E3
100
AcDbEntity
  8
0
  6
Continuous
100
AcDbLine
 10
109.7019137451069
 20
123.6671659127681
 30
0.0
 11
109.6797767670359
 21
123.6577442570228
 31
0.0
  0
LINE
  5
4EB
330
E3
100
AcDbEntity
  8
0
  6
Continuous
100
AcDbLine
 10
109.6797767670359
 20
123.6577442570228
 30
0.0
 11
109.6545706905604
 21
123.6477815961264
 31
0.0
  0
LINE
  5
4EC
330
E3
100
AcDbEntity
  8
0
  6
Continuous
100
AcDbLine
 10
109.6545706905604
 20
123.6477815961264
 30
0.0
 11
109.6264928634713
 21
123.6373119555601
 31
0.0
  0
LINE
  5
4ED
330
E3
100
AcDbEntity
  8
0
  6
Continuous
100
AcDbLine
 10
109.6264928634713
 20
123.6373119555601
 30
0.0
 11
109.5957644513964
 21
123.6263727633532
 31
0.0
  0
LINE
  5
4EE
330
E3
100
AcDbEntity
  8
0
  6
Continuous
100
AcDbLine
 10
109.5957644513964
 20
123.6263727633532
 30
0.0
 11
109.5626304378005
 21
123.6150116551794
 31
0.0
  0
LINE
  5
4EF
330
E3
100
AcDbEntity
  8
0
  6
Continuous
100
AcDbLine
 10
109.5626304378005
 20
123.6150116551794
 30
0.0
 11
109.5273426112444
 21
123.6032728641642
 31
0.0
  0
LINE
  5
4F0
330
E3
100
AcDbEntity
  8
0
  6
Continuous
100
AcDbLine
 10
109.5273426112444
 20
123.6032728641642
 30
0.0
 11
109.4901833832221
 21
123.5912006234332
 31
0.0
  0
LINE
  5
4F1
330
E3
100
AcDbEntity
  8
0
  6
Continuous
100
AcDbLine
 10
109.4901833832221
 20
123.5912006234332
 30
0.0
 11
109.4514419703238
 21
123.5788527763044
 31
0.0
  0
LINE
  5
4F2
330
E3
100
AcDbEntity
  8
0
  6
Continuous
100
AcDbLine
 10
109.4514419703238
 20
123.5788527763044
 30
0.0
 11
109.4114177967841
 21
123.5662735559035
 31
0.0
  0
LINE
  5
4F3
330
E3
100
AcDbEntity
  8
0
  6
Continuous
100
AcDbLine
 10
109.4114177967841
 20
123.5662735559035
 30
0.0
 11
109.3704204944821
 21
123.5535276106447
 31
0.0
  0
LINE
  5
4F4
330
E3
100
AcDbEntity
  8
0
  6
Continuous
100
AcDbLine
 10
109.3704204944821
 20
123.5535276106447
 30
0.0
 11
109.3287767080371
 21
123.5406659787498
 31
0.0
  0
LINE
  5
4F5
330
E3
100
AcDbEntity
  8
0
  6
Continuous
100
AcDbLine
 10
109.3287767080371
 20
123.5406659787498
 30
0.0
 11
109.2868028744245
 21
123.5277465035368
 31
0.0
  0
LINE
  5
4F6
330
E3
100
AcDbEntity
  8
0
  6
Continuous
100
AcDbLine
 10
109.2868028744245
 20
123.5277465035368
 30
0.0
 11
109.24483244336
 21
123.5148270283239
 31
0.0
  0
LINE
  5
4F7
330
E3
100
AcDbEntity
  8
0
  6
Continuous
100
AcDbLine
 10
109.24483244336
 20
123.5148270283239
 30
0.0
 11
109.203185254367
 21
123.501965396429
 31
0.0
  0
LINE
  5
4F8
330
E3
100
AcDbEntity
  8
0
  6
Continuous
100
AcDbLine
 10
109.203185254367
 20
123.501965396429
 30
0.0
 11
109.162191354613
 21
123.4892194511701
 31
0.0
  0
LINE
  5
4F9
330
E3
100
AcDbEntity
  8
0
  6
Continuous
100
AcDbLine
 10
109.162191354613
 20
123.4892194511701
 30
0.0
 11
109.1221671810734
 21
123.4766436333173
 31
0.0
  0
LINE
  5
4FA
330
E3
100
AcDbEntity
  8
0
  6
Continuous
100
AcDbLine
 10
109.1221671810734
 20
123.4766436333173
 30
0.0
 11
109.083422365627
 21
123.4642923836405
 31
0.0
  0
LINE
  5
4FB
330
E3
100
AcDbEntity
  8
0
  6
Continuous
100
AcDbLine
 10
109.083422365627
 20
123.4642923836405
 30
0.0
 11
109.0462631376047
 21
123.4522201429095
 31
0.0
  0
LINE
  5
4FC
330
E3
100
AcDbEntity
  8
0
  6
Continuous
100
AcDbLine
 10
109.0462631376047
 20
123.4522201429095
 30
0.0
 11
109.0109787135967
 21
123.4404813518942
 31
0.0
  0
LINE
  5
4FD
330
E3
100
AcDbEntity
  8
0
  6
Continuous
100
AcDbLine
 10
109.0109787135967
 20
123.4404813518942
 30
0.0
 11
108.9778412974526
 21
123.4291202437204
 31
0.0
  0
LINE
  5
4FE
330
E3
100
AcDbEntity
  8
0
  6
Continuous
100
AcDbLine
 10
108.9778412974526
 20
123.4291202437204
 30
0.0
 11
108.9471162879259
 21
123.4181844540616
 31
0.0
  0
LINE
  5
4FF
330
E3
100
AcDbEntity
  8
0
  6
Continuous
100
AcDbLine
 10
108.9471162879259
 20
123.4181844540616
 30
0.0
 11
108.9190384608368
 21
123.4077148134953
 31
0.0
  0
LINE
  5
500
330
E3
100
AcDbEntity
  8
0
  6
Continuous
100
AcDbLine
 10
108.9190384608368
 20
123.4077148134953
 30
0.0
 11
108.8938323843612
 21
123.3977487500508
 31
0.0
  0
LINE
  5
501
330
E3
100
AcDbEntity
  8
0
  6
Continuous
100
AcDbLine
 10
108.8938323843612
 20
123.3977487500508
 30
0.0
 11
108.8716954062902
 21
123.3883270943056
 31
0.0
  0
LINE
  5
502
330
E3
100
AcDbEntity
  8
0
  6
Continuous
100
AcDbLine
 10
108.8716954062902
 20
123.3883270943056
 30
0.0
 11
108.8528044591261
 21
123.3794770666446
 31
0.0
  0
LINE
  5
503
330
E3
100
AcDbEntity
  8
0
  6
Continuous
100
AcDbLine
 10
108.8528044591261
 20
123.3794770666446
 30
0.0
 11
108.837309254986
 21
123.3712292900008
 31
0.0
  0
LINE
  5
504
330
E3
100
AcDbEntity
  8
0
  6
Continuous
100
AcDbLine
 10
108.837309254986
 20
123.3712292900008
 30
0.0
 11
108.8253356881505
 21
123.3635973745669
 31
0.0
  0
LINE
  5
505
330
E3
100
AcDbEntity
  8
0
  6
Continuous
100
AcDbLine
 10
108.8253356881505
 20
123.3635973745669
 30
0.0
 11
108.8169824325151
 21
123.3566051381796
 31
0.0
  0
LINE
  5
506
330
E3
100
AcDbEntity
  8
0
  6
Continuous
100
AcDbLine
 10
108.8169824325151
 20
123.3566051381796
 30
0.0
 11
108.8123175913902
 21
123.350265316577
 31
0.0
  0
LINE
  5
507
330
E3
100
AcDbEntity
  8
0
  6
Continuous
100
AcDbLine
 10
108.8123175913902
 20
123.350265316577
 30
0.0
 11
108.8113875860753
 21
123.3445827086571
 31
0.0
  0
LINE
  5
508
330
E3
100
AcDbEntity
  8
0
  6
Continuous
100
AcDbLine
 10
109.8301699825441
 20
123.3255511085608
 30
0.0
 11
109.8292399772292
 21
123.3198685006409
 31
0.0
  0
LINE
  5
509
330
E3
100
AcDbEntity
  8
0
  6
Continuous
100
AcDbLine
 10
109.8292399772292
 20
123.3198685006409
 30
0.0
 11
109.8245767414265
 21
123.3135276234608
 31
0.0
  0
LINE
  5
50A
330
E3
100
AcDbEntity
  8
0
  6
Continuous
100
AcDbLine
 10
109.8245767414265
 20
123.3135276234608
 30
0.0
 11
109.81622234921
 21
123.3065366425887
 31
0.0
  0
LINE
  5
50B
330
E3
100
AcDbEntity
  8
0
  6
Continuous
100
AcDbLine
 10
109.81622234921
 20
123.3065366425887
 30
0.0
 11
109.8042487823745
 21
123.2989047271547
 31
0.0
  0
LINE
  5
50C
330
E3
100
AcDbEntity
  8
0
  6
Continuous
100
AcDbLine
 10
109.8042487823745
 20
123.2989047271547
 30
0.0
 11
109.7887535782344
 21
123.290656950511
 31
0.0
  0
LINE
  5
50D
330
E3
100
AcDbEntity
  8
0
  6
Continuous
100
AcDbLine
 10
109.7887535782344
 20
123.290656950511
 30
0.0
 11
109.7698626310703
 21
123.28180692285
 31
0.0
  0
LINE
  5
50E
330
E3
100
AcDbEntity
  8
0
  6
Continuous
100
AcDbLine
 10
109.7698626310703
 20
123.28180692285
 30
0.0
 11
109.7477256529993
 21
123.2723852671047
 31
0.0
  0
LINE
  5
50F
330
E3
100
AcDbEntity
  8
0
  6
Continuous
100
AcDbLine
 10
109.7477256529993
 20
123.2723852671047
 30
0.0
 11
109.7225195765237
 21
123.2624192036602
 31
0.0
  0
LINE
  5
510
330
E3
100
AcDbEntity
  8
0
  6
Continuous
100
AcDbLine
 10
109.7225195765237
 20
123.2624192036602
 30
0.0
 11
109.6944417494346
 21
123.2519495630939
 31
0.0
  0
LINE
  5
511
330
E3
100
AcDbEntity
  8
0
  6
Continuous
100
AcDbLine
 10
109.6944417494346
 20
123.2519495630939
 30
0.0
 11
109.6637133373598
 21
123.2410137734351
 31
0.0
  0
LINE
  5
512
330
E3
100
AcDbEntity
  8
0
  6
Continuous
100
AcDbLine
 10
109.6637133373598
 20
123.2410137734351
 30
0.0
 11
109.6305793237638
 21
123.2296526652613
 31
0.0
  0
LINE
  5
513
330
E3
100
AcDbEntity
  8
0
  6
Continuous
100
AcDbLine
 10
109.6305793237638
 20
123.2296526652613
 30
0.0
 11
109.5952914972077
 21
123.2179138742461
 31
0.0
  0
LINE
  5
514
330
E3
100
AcDbEntity
  8
0
  6
Continuous
100
AcDbLine
 10
109.5952914972077
 20
123.2179138742461
 30
0.0
 11
109.5581322691854
 21
123.2058416335151
 31
0.0
  0
LINE
  5
515
330
E3
100
AcDbEntity
  8
0
  6
Continuous
100
AcDbLine
 10
109.5581322691854
 20
123.2058416335151
 30
0.0
 11
109.5193908562871
 21
123.1934903838382
 31
0.0
  0
LINE
  5
516
330
E3
100
AcDbEntity
  8
0
  6
Continuous
100
AcDbLine
 10
109.5193908562871
 20
123.1934903838382
 30
0.0
 11
109.4793666827475
 21
123.1809145659854
 31
0.0
  0
LINE
  5
517
330
E3
100
AcDbEntity
  8
0
  6
Continuous
100
AcDbLine
 10
109.4793666827475
 20
123.1809145659854
 30
0.0
 11
109.4383693804454
 21
123.1681686207266
 31
0.0
  0
LINE
  5
518
330
E3
100
AcDbEntity
  8
0
  6
Continuous
100
AcDbLine
 10
109.4383693804454
 20
123.1681686207266
 30
0.0
 11
109.3967255940005
 21
123.1553069888317
 31
0.0
  0
LINE
  5
519
330
E3
100
AcDbEntity
  8
0
  6
Continuous
100
AcDbLine
 10
109.3967255940005
 20
123.1553069888317
 30
0.0
 11
109.3547517603879
 21
123.1423875136187
 31
0.0
  0
LINE
  5
51A
330
E3
100
AcDbEntity
  8
0
  6
Continuous
100
AcDbLine
 10
109.3547517603879
 20
123.1423875136187
 30
0.0
 11
109.3127813293234
 21
123.1294680384058
 31
0.0
  0
LINE
  5
51B
330
E3
100
AcDbEntity
  8
0
  6
Continuous
100
AcDbLine
 10
109.3127813293234
 20
123.1294680384058
 30
0.0
 11
109.2711375428784
 21
123.1166064065109
 31
0.0
  0
LINE
  5
51C
330
E3
100
AcDbEntity
  8
0
  6
Continuous
100
AcDbLine
 10
109.2711375428784
 20
123.1166064065109
 30
0.0
 11
109.2301402405764
 21
123.1038570587039
 31
0.0
  0
LINE
  5
51D
330
E3
100
AcDbEntity
  8
0
  6
Continuous
100
AcDbLine
 10
109.2301402405764
 20
123.1038570587039
 30
0.0
 11
109.1901160670367
 21
123.0912812408511
 31
0.0
  0
LINE
  5
51E
330
E3
100
AcDbEntity
  8
0
  6
Continuous
100
AcDbLine
 10
109.1901160670367
 20
123.0912812408511
 30
0.0
 11
109.1513746541384
 21
123.0789333937224
 31
0.0
  0
LINE
  5
51F
330
E3
100
AcDbEntity
  8
0
  6
Continuous
100
AcDbLine
 10
109.1513746541384
 20
123.0789333937224
 30
0.0
 11
109.1142154261161
 21
123.0668611529914
 31
0.0
  0
LINE
  5
520
330
E3
100
AcDbEntity
  8
0
  6
Continuous
100
AcDbLine
 10
109.1142154261161
 20
123.0668611529914
 30
0.0
 11
109.07892759956
 21
123.0551223619762
 31
0.0
  0
LINE
  5
521
330
E3
100
AcDbEntity
  8
0
  6
Continuous
100
AcDbLine
 10
109.07892759956
 20
123.0551223619762
 30
0.0
 11
109.0457935859641
 21
123.0437612538023
 31
0.0
  0
LINE
  5
522
330
E3
100
AcDbEntity
  8
0
  6
Continuous
100
AcDbLine
 10
109.0457935859641
 20
123.0437612538023
 30
0.0
 11
109.0150651738892
 21
123.0328220615954
 31
0.0
  0
LINE
  5
523
330
E3
100
AcDbEntity
  8
0
  6
Continuous
100
AcDbLine
 10
109.0150651738892
 20
123.0328220615954
 30
0.0
 11
108.9869873468001
 21
123.0223524210291
 31
0.0
  0
LINE
  5
524
330
E3
100
AcDbEntity
  8
0
  6
Continuous
100
AcDbLine
 10
108.9869873468001
 20
123.0223524210291
 30
0.0
 11
108.9617812703246
 21
123.0123897601327
 31
0.0
  0
LINE
  5
525
330
E3
100
AcDbEntity
  8
0
  6
Continuous
100
AcDbLine
 10
108.9617812703246
 20
123.0123897601327
 30
0.0
 11
108.9396442922536
 21
123.0029681043875
 31
0.0
  0
LINE
  5
526
330
E3
100
AcDbEntity
  8
0
  6
Continuous
100
AcDbLine
 10
108.9396442922536
 20
123.0029681043875
 30
0.0
 11
108.9207533450894
 21
122.9941180767265
 31
0.0
  0
LINE
  5
527
330
E3
100
AcDbEntity
  8
0
  6
Continuous
100
AcDbLine
 10
108.9207533450894
 20
122.9941180767265
 30
0.0
 11
108.9052581409494
 21
122.9858668975346
 31
0.0
  0
LINE
  5
528
330
E3
100
AcDbEntity
  8
0
  6
Continuous
100
AcDbLine
 10
108.9052581409494
 20
122.9858668975346
 30
0.0
 11
108.8932845741138
 21
122.9782383846488
 31
0.0
  0
LINE
  5
529
330
E3
100
AcDbEntity
  8
0
  6
Continuous
100
AcDbLine
 10
108.8932845741138
 20
122.9782383846488
 30
0.0
 11
108.8849313184784
 21
122.9712461482615
 31
0.0
  0
LINE
  5
52A
330
E3
100
AcDbEntity
  8
0
  6
Continuous
100
AcDbLine
 10
108.8849313184784
 20
122.9712461482615
 30
0.0
 11
108.8802668783034
 21
122.9649057610505
 31
0.0
  0
LINE
  5
52B
330
E3
100
AcDbEntity
  8
0
  6
Continuous
100
AcDbLine
 10
108.8802668783034
 20
122.9649057610505
 30
0.0
 11
108.8793368729884
 21
122.9592231531306
 31
0.0
  0
LINE
  5
52C
330
E3
100
AcDbEntity
  8
0
  6
Continuous
100
AcDbLine
 10
109.8981192694573
 20
122.9401915530343
 30
0.0
 11
109.8971892641424
 21
122.9345089451144
 31
0.0
  0
LINE
  5
52D
330
E3
100
AcDbEntity
  8
0
  6
Continuous
100
AcDbLine
 10
109.8971892641424
 20
122.9345089451144
 30
0.0
 11
109.8925260283397
 21
122.9281680679343
 31
0.0
  0
LINE
  5
52E
330
E3
100
AcDbEntity
  8
0
  6
Continuous
100
AcDbLine
 10
109.8925260283397
 20
122.9281680679343
 30
0.0
 11
109.8841712351733
 21
122.9211776526706
 31
0.0
  0
LINE
  5
52F
330
E3
100
AcDbEntity
  8
0
  6
Continuous
100
AcDbLine
 10
109.8841712351733
 20
122.9211776526706
 30
0.0
 11
109.8721976683378
 21
122.9135457372366
 31
0.0
  0
LINE
  5
530
330
E3
100
AcDbEntity
  8
0
  6
Continuous
100
AcDbLine
 10
109.8721976683378
 20
122.9135457372366
 30
0.0
 11
109.8567024641978
 21
122.9052945580448
 31
0.0
  0
LINE
  5
531
330
E3
100
AcDbEntity
  8
0
  6
Continuous
100
AcDbLine
 10
109.8567024641978
 20
122.9052945580448
 30
0.0
 11
109.8378115170336
 21
122.8964445303838
 31
0.0
  0
LINE
  5
532
330
E3
100
AcDbEntity
  8
0
  6
Continuous
100
AcDbLine
 10
109.8378115170336
 20
122.8964445303838
 30
0.0
 11
109.8156745389626
 21
122.8870228746385
 31
0.0
  0
LINE
  5
533
330
E3
100
AcDbEntity
  8
0
  6
Continuous
100
AcDbLine
 10
109.8156745389626
 20
122.8870228746385
 30
0.0
 11
109.7904684624871
 21
122.8770602137422
 31
0.0
  0
LINE
  5
534
330
E3
100
AcDbEntity
  8
0
  6
Continuous
100
AcDbLine
 10
109.7904684624871
 20
122.8770602137422
 30
0.0
 11
109.762390635398
 21
122.8665905731759
 31
0.0
  0
LINE
  5
535
330
E3
100
AcDbEntity
  8
0
  6
Continuous
100
AcDbLine
 10
109.762390635398
 20
122.8665905731759
 30
0.0
 11
109.7316622233231
 21
122.8556547835171
 31
0.0
  0
LINE
  5
536
330
E3
100
AcDbEntity
  8
0
  6
Continuous
100
AcDbLine
 10
109.7316622233231
 20
122.8556547835171
 30
0.0
 11
109.6985282097272
 21
122.8442936753432
 31
0.0
  0
LINE
  5
537
330
E3
100
AcDbEntity
  8
0
  6
Continuous
100
AcDbLine
 10
109.6985282097272
 20
122.8442936753432
 30
0.0
 11
109.6632437857192
 21
122.8325514817799
 31
0.0
  0
LINE
  5
538
330
E3
100
AcDbEntity
  8
0
  6
Continuous
100
AcDbLine
 10
109.6632437857192
 20
122.8325514817799
 30
0.0
 11
109.6260845576968
 21
122.820482643597
 31
0.0
  0
LINE
  5
539
330
E3
100
AcDbEntity
  8
0
  6
Continuous
100
AcDbLine
 10
109.6260845576968
 20
122.820482643597
 30
0.0
 11
109.5873397422505
 21
122.8081313939202
 31
0.0
  0
LINE
  5
53A
330
E3
100
AcDbEntity
  8
0
  6
Continuous
100
AcDbLine
 10
109.5873397422505
 20
122.8081313939202
 30
0.0
 11
109.5473155687108
 21
122.7955555760673
 31
0.0
  0
LINE
  5
53B
330
E3
100
AcDbEntity
  8
0
  6
Continuous
100
AcDbLine
 10
109.5473155687108
 20
122.7955555760673
 30
0.0
 11
109.5063216689569
 21
122.7828096308085
 31
0.0
  0
LINE
  5
53C
330
E3
100
AcDbEntity
  8
0
  6
Continuous
100
AcDbLine
 10
109.5063216689569
 20
122.7828096308085
 30
0.0
 11
109.4646744799638
 21
122.7699479989136
 31
0.0
  0
LINE
  5
53D
330
E3
100
AcDbEntity
  8
0
  6
Continuous
100
AcDbLine
 10
109.4646744799638
 20
122.7699479989136
 30
0.0
 11
109.4227040488993
 21
122.7570285237007
 31
0.0
  0
LINE
  5
53E
330
E3
100
AcDbEntity
  8
0
  6
Continuous
100
AcDbLine
 10
109.4227040488993
 20
122.7570285237007
 30
0.0
 11
109.3807302152867
 21
122.7441090484877
 31
0.0
  0
LINE
  5
53F
330
E3
100
AcDbEntity
  8
0
  6
Continuous
100
AcDbLine
 10
109.3807302152867
 20
122.7441090484877
 30
0.0
 11
109.3390864288418
 21
122.7312474165928
 31
0.0
  0
LINE
  5
540
330
E3
100
AcDbEntity
  8
0
  6
Continuous
100
AcDbLine
 10
109.3390864288418
 20
122.7312474165928
 30
0.0
 11
109.2980891265397
 21
122.7184980687858
 31
0.0
  0
LINE
  5
541
330
E3
100
AcDbEntity
  8
0
  6
Continuous
100
AcDbLine
 10
109.2980891265397
 20
122.7184980687858
 30
0.0
 11
109.2580649530001
 21
122.705922250933
 31
0.0
  0
LINE
  5
542
330
E3
100
AcDbEntity
  8
0
  6
Continuous
100
AcDbLine
 10
109.2580649530001
 20
122.705922250933
 30
0.0
 11
109.2193235401018
 21
122.6935744038043
 31
0.0
  0
LINE
  5
543
330
E3
100
AcDbEntity
  8
0
  6
Continuous
100
AcDbLine
 10
109.2193235401018
 20
122.6935744038043
 30
0.0
 11
109.1821643120795
 21
122.6815021630733
 31
0.0
  0
LINE
  5
544
330
E3
100
AcDbEntity
  8
0
  6
Continuous
100
AcDbLine
 10
109.1821643120795
 20
122.6815021630733
 30
0.0
 11
109.1468764855234
 21
122.6697633720581
 31
0.0
  0
LINE
  5
545
330
E3
100
AcDbEntity
  8
0
  6
Continuous
100
AcDbLine
 10
109.1468764855234
 20
122.6697633720581
 30
0.0
 11
109.1137424719274
 21
122.6583988613361
 31
0.0
  0
LINE
  5
546
330
E3
100
AcDbEntity
  8
0
  6
Continuous
100
AcDbLine
 10
109.1137424719274
 20
122.6583988613361
 30
0.0
 11
109.0830140598525
 21
122.6474630716773
 31
0.0
  0
LINE
  5
547
330
E3
100
AcDbEntity
  8
0
  6
Continuous
100
AcDbLine
 10
109.0830140598525
 20
122.6474630716773
 30
0.0
 11
109.0549362327634
 21
122.6369934311111
 31
0.0
  0
LINE
  5
548
330
E3
100
AcDbEntity
  8
0
  6
Continuous
100
AcDbLine
 10
109.0549362327634
 20
122.6369934311111
 30
0.0
 11
109.0297301562879
 21
122.6270307702147
 31
0.0
  0
LINE
  5
549
330
E3
100
AcDbEntity
  8
0
  6
Continuous
100
AcDbLine
 10
109.0297301562879
 20
122.6270307702147
 30
0.0
 11
109.0075931782169
 21
122.6176091144694
 31
0.0
  0
LINE
  5
54A
330
E3
100
AcDbEntity
  8
0
  6
Continuous
100
AcDbLine
 10
109.0075931782169
 20
122.6176091144694
 30
0.0
 11
108.9887022310528
 21
122.6087590868084
 31
0.0
  0
LINE
  5
54B
330
E3
100
AcDbEntity
  8
0
  6
Continuous
100
AcDbLine
 10
108.9887022310528
 20
122.6087590868084
 30
0.0
 11
108.9732070269127
 21
122.6005079076165
 31
0.0
  0
LINE
  5
54C
330
E3
100
AcDbEntity
  8
0
  6
Continuous
100
AcDbLine
 10
108.9732070269127
 20
122.6005079076165
 30
0.0
 11
108.9612334600772
 21
122.5928793947307
 31
0.0
  0
ENDBLK
  5
E5
330
E3
100
AcDbEntity
  8
0
100
AcDbBlockEnd
  0
BLOCK
  5
552
330
551
100
AcDbEntity
  8
0
100
AcDbBlockBegin
  2
R-TRSC-03 GUTTER FLASHING DETAI_STORY_MARKER
 70
     0
 10
0.0
 20
0.0
 30
0.0
  3
R-TRSC-03 GUTTER FLASHING DETAI_STORY_MARKER
  1

  0
ENDBLK
  5
553
330
551
100
AcDbEntity
  8
0
100
AcDbBlockEnd
  0
ENDSEC
  0
SECTION
  2
ENTITIES
  0
HATCH
  5
3F
330
1F
100
AcDbEntity
  8
Doc_ Finishes
  6
Continuous
100
AcDbHatch
 10
0.0
 20
0.0
 30
0.0
210
0.0
220
0.0
230
1.0
  2
SOLID
 70
     1
 71
     0
 91
        1
 92
        3
 72
     0
 73
     1
 93
       54
 10
27.4117749414874
 20
16.87044408857867
 10
26.89356552397386
 20
16.5825499677378
 10
26.5480925789648
 20
16.29465584689693
 10
26.12584786839819
 20
16.02595466744544
 10
25.76118198199976
 20
15.60370995687884
 10
25.39651609560134
 20
15.33500877742737
 10
25.07023609198168
 20
14.89357112547136
 10
24.49444785029994
 20
14.45213347351537
 10
23.93785255000758
 20
14.02988876294876
 10
23.43883607388344
 20
13.81876640766546
 10
22.74789018386533
 20
13.39652169709885
 10
22.09533017662603
 20
12.99346992792163
 10
21.63469958328064
 20
12.55203227596564
 10
20.90536781048376
 20
12.12978756539902
 10
20.59828074825351
 20
11.7459287376112
 10
20.04168544796116
 20
11.28529814426581
 10
19.36993249933246
 20
10.8630534336992
 10
18.73656543348255
 20
10.42161578174319
 10
18.04561954346447
 20
10.15291460229172
 10
17.1051654153843
 20
9.692284008946325
 10
16.39502658397681
 20
9.020531060317637
 10
15.83843128368446
 20
8.598286349751023
 10
15.12829245227699
 20
8.137655756405634
 10
14.84039833143612
 20
7.98411222529051
 10
14.37976773809073
 20
7.81137575278599
 10
14.07268067586046
 20
7.523481631945121
 10
14.0151018516923
 20
7.216394569714853
 10
14.14945244141803
 20
6.890114566095209
 10
14.4373465622589
 20
6.563834562475543
 10
14.8787842142149
 20
6.659799269422514
 10
15.51215128006482
 20
7.06285103859973
 10
16.01116775618899
 20
7.389131042219374
 10
16.33744775980864
 20
7.696218104449641
 10
16.51018423231316
 20
7.907340459732938
 10
17.01303929671522
 20
8.421711288968723
 10
17.33548071205699
 20
8.652026585641417
 10
17.75004824606785
 20
8.99749953065046
 10
18.14158425041142
 20
9.204783297655894
 10
19.24709767444037
 20
9.75754000967037
 10
20.23745345013295
 20
10.47151742935572
 10
21.4120614631637
 20
11.1624633193738
 10
21.84966052684182
 20
11.64612544238645
 10
22.49454335752537
 20
12.06069297639732
 10
23.78430901889248
 20
12.9819541630881
 10
24.3600972605742
 20
13.25833251909534
 10
25.6498629219413
 20
14.24868829478776
 10
25.85714668894673
 20
14.64022429913134
 10
26.68628175696843
 20
15.23904407048036
 10
27.28510152831745
 20
15.72270619349301
 10
27.81482671066464
 20
16.1142421978366
 10
28.27545730401003
 20
16.52880973184745
 10
28.22939424467549
 20
16.7821565581874
 10
28.09120506667188
 20
16.89731420652375
 10
27.56147988432467
 20
16.89731420652375
 97
        0
 75
     0
 76
     1
 98
        0
  0
LINE
  5
41
330
1F
100
AcDbEntity
  8
Doc_ Finishes
  6
Continuous
100
AcDbLine
 10
27.41177566876475
 20
16.87044600708104
 30
0.0
 11
26.89356756490952
 21
16.58254868214004
 31
0.0
  0
LINE
  5
42
330
1F
100
AcDbEntity
  8
Doc_ Finishes
  6
Continuous
100
AcDbLine
 10
26.89356756490952
 20
16.58254868214004
 30
0.0
 11
26.54809254523997
 21
16.29465578284815
 31
0.0
  0
LINE
  5
43
330
1F
100
AcDbEntity
  8
Doc_ Finishes
  6
Continuous
100
AcDbLine
 10
26.54809254523997
 20
16.29465578284815
 30
0.0
 11
26.12584579071597
 21
16.02595249803305
 31
0.0
  0
LINE
  5
44
330
1F
100
AcDbEntity
  8
Doc_ Finishes
  6
Continuous
100
AcDbLine
 10
26.12584579071597
 20
16.02595249803305
 30
0.0
 11
25.76118115656963
 21
15.60371016915814
 31
0.0
  0
LINE
  5
45
330
1F
100
AcDbEntity
  8
Doc_ Finishes
  6
Continuous
100
AcDbLine
 10
25.76118115656963
 20
15.60371016915814
 30
0.0
 11
25.39651652242329
 21
15.33500688434304
 31
0.0
  0
LINE
  5
46
330
1F
100
AcDbEntity
  8
Doc_ Finishes
  6
Continuous
100
AcDbLine
 10
25.39651652242329
 20
15.33500688434304
 30
0.0
 11
25.07023554287962
 21
14.89357051534225
 31
0.0
  0
LINE
  5
47
330
1F
100
AcDbEntity
  8
Doc_ Finishes
  6
Continuous
100
AcDbLine
 10
25.07023554287962
 20
14.89357051534225
 30
0.0
 11
24.49444974429583
 21
14.45213414634146
 31
0.0
  0
LINE
  5
48
330
1F
100
AcDbEntity
  8
Doc_ Finishes
  6
Continuous
100
AcDbLine
 10
24.49444974429583
 20
14.45213414634146
 30
0.0
 11
23.93785356018882
 21
14.02988739181747
 31
0.0
  0
LINE
  5
49
330
1F
100
AcDbEntity
  8
Doc_ Finishes
  6
Continuous
100
AcDbLine
 10
23.93785356018882
 20
14.02988739181747
 30
0.0
 11
23.43883507081038
 21
13.81876622738001
 31
0.0
  0
LINE
  5
4A
330
1F
100
AcDbEntity
  8
Doc_ Finishes
  6
Continuous
100
AcDbLine
 10
23.43883507081038
 20
13.81876622738001
 30
0.0
 11
22.74788945712038
 21
13.39652389850511
 31
0.0
  0
LINE
  5
4B
330
1F
100
AcDbEntity
  8
Doc_ Finishes
  6
Continuous
100
AcDbLine
 10
22.74788945712038
 20
13.39652389850511
 30
0.0
 11
22.09533192368214
 21
12.993471184107
 31
0.0
  0
LINE
  5
4C
330
1F
100
AcDbEntity
  8
Doc_ Finishes
  6
Continuous
100
AcDbLine
 10
22.09533192368214
 20
12.993471184107
 30
0.0
 11
21.63470151455547
 21
12.55203038945712
 31
0.0
  0
LINE
  5
4D
330
1F
100
AcDbEntity
  8
Doc_ Finishes
  6
Continuous
100
AcDbLine
 10
21.63470151455547
 20
12.55203038945712
 30
0.0
 11
20.90536782061369
 21
12.12978806058222
 31
0.0
  0
LINE
  5
4E
330
1F
100
AcDbEntity
  8
Doc_ Finishes
  6
Continuous
100
AcDbLine
 10
20.90536782061369
 20
12.12978806058222
 30
0.0
 11
20.59828088119591
 21
11.74592938630999
 31
0.0
  0
LINE
  5
4F
330
1F
100
AcDbEntity
  8
Doc_ Finishes
  6
Continuous
100
AcDbLine
 10
20.59828088119591
 20
11.74592938630999
 30
0.0
 11
20.0416846970889
 21
11.28529897718332
 31
0.0
  0
LINE
  5
50
330
1F
100
AcDbEntity
  8
Doc_ Finishes
  6
Continuous
100
AcDbLine
 10
20.0416846970889
 20
11.28529897718332
 30
0.0
 11
19.36993312352478
 21
10.86305222265932
 31
0.0
  0
LINE
  5
51
330
1F
100
AcDbEntity
  8
Doc_ Finishes
  6
Continuous
100
AcDbLine
 10
19.36993312352478
 20
10.86305222265932
 30
0.0
 11
18.73656520456333
 21
10.42161585365854
 31
0.0
  0
LINE
  5
52
330
1F
100
AcDbEntity
  8
Doc_ Finishes
  6
Continuous
100
AcDbLine
 10
18.73656520456333
 20
10.42161585365854
 30
0.0
 11
18.04561959087333
 21
10.15291256884343
 31
0.0
  0
LINE
  5
53
330
1F
100
AcDbEntity
  8
Doc_ Finishes
  6
Continuous
100
AcDbLine
 10
18.04561959087333
 20
10.15291256884343
 30
0.0
 11
17.1051647324941
 21
9.692282159716758
 31
0.0
  0
LINE
  5
54
330
1F
100
AcDbEntity
  8
Doc_ Finishes
  6
Continuous
100
AcDbLine
 10
17.1051647324941
 20
9.692282159716758
 30
0.0
 11
16.3950250786782
 21
9.020530586152635
 31
0.0
  0
LINE
  5
55
330
1F
100
AcDbEntity
  8
Doc_ Finishes
  6
Continuous
100
AcDbLine
 10
16.3950250786782
 20
9.020530586152635
 30
0.0
 11
15.8384333202203
 21
8.598288257277733
 31
0.0
  0
LINE
  5
56
330
1F
100
AcDbEntity
  8
Doc_ Finishes
  6
Continuous
100
AcDbLine
 10
15.8384333202203
 20
8.598288257277733
 30
0.0
 11
15.1282936664044
 21
8.137657848151063
 31
0.0
  0
LINE
  5
57
330
1F
100
AcDbEntity
  8
Doc_ Finishes
  6
Continuous
100
AcDbLine
 10
15.1282936664044
 20
8.137657848151063
 30
0.0
 11
14.84039634146341
 21
7.984114378442171
 31
0.0
  0
LINE
  5
58
330
1F
100
AcDbEntity
  8
Doc_ Finishes
  6
Continuous
100
AcDbLine
 10
14.84039634146341
 20
7.984114378442171
 30
0.0
 11
14.37976593233674
 21
7.811376868607396
 31
0.0
  0
LINE
  5
59
330
1F
100
AcDbEntity
  8
Doc_ Finishes
  6
Continuous
100
AcDbLine
 10
14.37976593233674
 20
7.811376868607396
 30
0.0
 11
14.07267899291896
 21
7.523479543666405
 31
0.0
  0
LINE
  5
5A
330
1F
100
AcDbEntity
  8
Doc_ Finishes
  6
Continuous
100
AcDbLine
 10
14.07267899291896
 20
7.523479543666405
 30
0.0
 11
14.0151012981904
 21
7.216392604248622
 31
0.0
  0
LINE
  5
5B
330
1F
100
AcDbEntity
  8
Doc_ Finishes
  6
Continuous
100
AcDbLine
 10
14.0151012981904
 20
7.216392604248622
 30
0.0
 11
14.14945072777341
 21
6.890116050354051
 31
0.0
  0
LINE
  5
5C
330
1F
100
AcDbEntity
  8
Doc_ Finishes
  6
Continuous
100
AcDbLine
 10
14.14945072777341
 20
6.890116050354051
 30
0.0
 11
14.4373480527144
 21
6.563835070810386
 31
0.0
  0
LINE
  5
5D
330
1F
100
AcDbEntity
  8
Doc_ Finishes
  6
Continuous
100
AcDbLine
 10
14.4373480527144
 20
6.563835070810386
 30
0.0
 11
14.87878442171519
 21
6.659800845790715
 31
0.0
  0
LINE
  5
5E
330
1F
100
AcDbEntity
  8
Doc_ Finishes
  6
Continuous
100
AcDbLine
 10
14.87878442171519
 20
6.659800845790715
 30
0.0
 11
15.51215234067663
 21
7.062849134539732
 31
0.0
  0
LINE
  5
5F
330
1F
100
AcDbEntity
  8
Doc_ Finishes
  6
Continuous
100
AcDbLine
 10
15.51215234067663
 20
7.062849134539732
 30
0.0
 11
16.01116640440598
 21
7.389130114083398
 31
0.0
  0
LINE
  5
60
330
1F
100
AcDbEntity
  8
Doc_ Finishes
  6
Continuous
100
AcDbLine
 10
16.01116640440598
 20
7.389130114083398
 30
0.0
 11
16.33744738394964
 21
7.69621705350118
 31
0.0
  0
LINE
  5
61
330
1F
100
AcDbEntity
  8
Doc_ Finishes
  6
Continuous
100
AcDbLine
 10
16.33744738394964
 20
7.69621705350118
 30
0.0
 11
16.51018489378442
 21
7.907342643587726
 31
0.0
  0
LINE
  5
62
330
1F
100
AcDbEntity
  8
Doc_ Finishes
  6
Continuous
100
AcDbLine
 10
16.51018489378442
 20
7.907342643587726
 30
0.0
 11
17.0130404209284
 21
8.421709284028323
 31
0.0
  0
LINE
  5
63
330
1F
100
AcDbEntity
  8
Doc_ Finishes
  6
Continuous
100
AcDbLine
 10
17.0130404209284
 20
8.421709284028323
 30
0.0
 11
17.33547993705743
 21
8.65202448859166
 31
0.0
  0
LINE
  5
64
330
1F
100
AcDbEntity
  8
Doc_ Finishes
  6
Continuous
100
AcDbLine
 10
17.33547993705743
 20
8.65202448859166
 30
0.0
 11
17.75004819040126
 21
8.997499508261212
 31
0.0
  0
LINE
  5
65
330
1F
100
AcDbEntity
  8
Doc_ Finishes
  6
Continuous
100
AcDbLine
 10
17.75004819040126
 20
8.997499508261212
 30
0.0
 11
18.14158536585366
 21
9.204783634933122
 31
0.0
  0
LINE
  5
66
330
1F
100
AcDbEntity
  8
Doc_ Finishes
  6
Continuous
100
AcDbLine
 10
18.14158536585366
 20
9.204783634933122
 30
0.0
 11
19.24709923288749
 21
9.75753835562549
 31
0.0
  0
LINE
  5
67
330
1F
100
AcDbEntity
  8
Doc_ Finishes
  6
Continuous
100
AcDbLine
 10
19.24709923288749
 20
9.75753835562549
 30
0.0
 11
20.23745328481511
 21
10.47151947285602
 31
0.0
  0
LINE
  5
68
330
1F
100
AcDbEntity
  8
Doc_ Finishes
  6
Continuous
100
AcDbLine
 10
20.23745328481511
 20
10.47151947285602
 30
0.0
 11
21.41206038552321
 21
11.16246508654602
 31
0.0
  0
LINE
  5
69
330
1F
100
AcDbEntity
  8
Doc_ Finishes
  6
Continuous
100
AcDbLine
 10
21.41206038552321
 20
11.16246508654602
 30
0.0
 11
21.84965971675846
 21
11.64612657356412
 31
0.0
  0
LINE
  5
6A
330
1F
100
AcDbEntity
  8
Doc_ Finishes
  6
Continuous
100
AcDbLine
 10
21.84965971675846
 20
11.64612657356412
 30
0.0
 11
22.49454317466562
 21
12.06069482690795
 31
0.0
  0
LINE
  5
6B
330
1F
100
AcDbEntity
  8
Doc_ Finishes
  6
Continuous
100
AcDbLine
 10
22.49454317466562
 20
12.06069482690795
 30
0.0
 11
23.78431009047993
 21
12.98195564516129
 31
0.0
  0
LINE
  5
6C
330
1F
100
AcDbEntity
  8
Doc_ Finishes
  6
Continuous
100
AcDbLine
 10
23.78431009047993
 20
12.98195564516129
 30
0.0
 11
24.36009588906373
 21
13.25833300550747
 31
0.0
  0
LINE
  5
6D
330
1F
100
AcDbEntity
  8
Doc_ Finishes
  6
Continuous
100
AcDbLine
 10
24.36009588906373
 20
13.25833300550747
 30
0.0
 11
25.64986280487805
 21
14.24868705743509
 31
0.0
  0
LINE
  5
6E
330
1F
100
AcDbEntity
  8
Doc_ Finishes
  6
Continuous
100
AcDbLine
 10
25.64986280487805
 20
14.24868705743509
 30
0.0
 11
25.85714693154996
 21
14.64022423288749
 31
0.0
  0
LINE
  5
6F
330
1F
100
AcDbEntity
  8
Doc_ Finishes
  6
Continuous
100
AcDbLine
 10
25.85714693154996
 20
14.64022423288749
 30
0.0
 11
26.68628343823761
 21
15.2390455350118
 31
0.0
  0
LINE
  5
70
330
1F
100
AcDbEntity
  8
Doc_ Finishes
  6
Continuous
100
AcDbLine
 10
26.68628343823761
 20
15.2390455350118
 30
0.0
 11
27.28510031471282
 21
15.7227070220299
 31
0.0
  0
LINE
  5
71
330
1F
100
AcDbEntity
  8
Doc_ Finishes
  6
Continuous
100
AcDbLine
 10
27.28510031471282
 20
15.7227070220299
 30
0.0
 11
27.81482838316287
 21
16.1142441974823
 31
0.0
  0
LINE
  5
72
330
1F
100
AcDbEntity
  8
Doc_ Finishes
  6
Continuous
100
AcDbLine
 10
27.81482838316287
 20
16.1142441974823
 30
0.0
 11
28.27545879228953
 21
16.52880802517702
 31
0.0
  0
LINE
  5
73
330
1F
100
AcDbEntity
  8
Doc_ Finishes
  6
Continuous
100
AcDbLine
 10
28.27545879228953
 20
16.52880802517702
 30
0.0
 11
28.22939221085759
 21
16.78215873328088
 31
0.0
  0
LINE
  5
74
330
1F
100
AcDbEntity
  8
Doc_ Finishes
  6
Continuous
100
AcDbLine
 10
28.22939221085759
 20
16.78215873328088
 30
0.0
 11
28.09120574350905
 21
16.897314122738
 31
0.0
  0
LINE
  5
75
330
1F
100
AcDbEntity
  8
Doc_ Finishes
  6
Continuous
100
AcDbLine
 10
28.09120574350905
 20
16.897314122738
 30
0.0
 11
27.56147767505901
 21
16.897314122738
 31
0.0
  0
LINE
  5
76
330
1F
100
AcDbEntity
  8
Doc_ Finishes
  6
Continuous
100
AcDbLine
 10
27.56147767505901
 20
16.897314122738
 30
0.0
 11
27.41177566876475
 21
16.87044600708104
 31
0.0
  0
HATCH
  5
77
330
1F
100
AcDbEntity
  8
Doc_ Finishes
  6
Continuous
100
AcDbHatch
 10
0.0
 20
0.0
 30
0.0
210
0.0
220
0.0
230
1.0
  2
SOLID
 70
     1
 71
     0
 91
        1
 92
        3
 72
     0
 73
     1
 93
       39
 10
27.65360600299377
 20
13.12014334109181
 10
27.21600693931564
 20
12.77467039608275
 10
26.54809257896482
 20
12.24494521373555
 10
25.92624127794851
 20
11.85340920939199
 10
25.32742150659951
 20
11.32368402704478
 10
24.72860173525052
 20
11.04730567103754
 10
24.08371890456698
 20
10.56364354802488
 10
23.62308831122158
 20
10.33332825135219
 10
23.231552306878
 20
10.03391836567767
 10
22.81698477286715
 20
9.619350831666825
 10
22.40241723885631
 20
9.38903553499415
 10
21.91875511584363
 20
9.043562589985086
 10
21.66540828950367
 20
8.859310352646935
 10
21.25084075549282
 20
8.582931996639696
 10
20.09926427212933
 20
7.753796928618002
 10
19.75379132712029
 20
7.477418572610764
 10
19.2931607337749
 20
7.316197864939873
 10
19.22406614477309
 20
6.993756449598113
 10
19.3622553227767
 20
6.717378093590874
 10
19.63863367878394
 20
6.602220445254527
 10
20.00713815346026
 20
6.8325357419272
 10
20.26048497980021
 20
7.131945627601722
 10
20.55989486547472
 20
7.362260924274415
 10
21.31993534449462
 20
7.707733869283458
 10
21.84966052684182
 20
8.122301403294307
 10
22.88607936186895
 20
8.882341882314256
 10
23.20852077721072
 20
9.342972475659646
 10
24.01462431556515
 20
9.734508480003234
 10
24.5673810275796
 20
10.05694989534501
 10
25.46561068460312
 20
10.60970660735953
 10
25.88017821861399
 20
11.07033720070492
 10
26.31777728229212
 20
11.34671555671216
 10
26.70931328663569
 20
11.30065249737762
 10
27.21600693931562
 20
11.55399932371759
 10
28.0681735370046
 20
12.17585062473387
 10
28.41364648201364
 20
12.49829204007566
 10
28.39061495234636
 20
12.77467039608289
 10
28.22939424467547
 20
13.00498569275559
 10
28.04514200733732
 20
13.05104875209013
 97
        0
 75
     0
 76
     1
 98
        0
  0
LINE
  5
78
330
1F
100
AcDbEntity
  8
Doc_ Finishes
  6
Continuous
100
AcDbLine
 10
27.6536064122738
 20
13.12014211250983
 30
0.0
 11
27.21600708103855
 21
12.77467151848938
 31
0.0
  0
LINE
  5
79
330
1F
100
AcDbEntity
  8
Doc_ Finishes
  6
Continuous
100
AcDbLine
 10
27.21600708103855
 20
12.77467151848938
 30
0.0
 11
26.54809254523997
 21
12.24494345003934
 31
0.0
  0
LINE
  5
7A
330
1F
100
AcDbEntity
  8
Doc_ Finishes
  6
Continuous
100
AcDbLine
 10
26.54809254523997
 20
12.24494345003934
 30
0.0
 11
25.92624016522423
 21
11.85341070023603
 31
0.0
  0
LINE
  5
7B
330
1F
100
AcDbEntity
  8
Doc_ Finishes
  6
Continuous
100
AcDbLine
 10
25.92624016522423
 20
11.85341070023603
 30
0.0
 11
25.32742328874902
 21
11.32368263178599
 31
0.0
  0
LINE
  5
7C
330
1F
100
AcDbEntity
  8
Doc_ Finishes
  6
Continuous
100
AcDbLine
 10
25.32742328874902
 20
11.32368263178599
 30
0.0
 11
24.72860198662471
 21
11.04730527143981
 31
0.0
  0
LINE
  5
7D
330
1F
100
AcDbEntity
  8
Doc_ Finishes
  6
Continuous
100
AcDbLine
 10
24.72860198662471
 20
11.04730527143981
 30
0.0
 11
24.08371852871754
 21
10.56364378442171
 31
0.0
  0
LINE
  5
7E
330
1F
100
AcDbEntity
  8
Doc_ Finishes
  6
Continuous
100
AcDbLine
 10
24.08371852871754
 20
10.56364378442171
 30
0.0
 11
23.62308811959087
 21
10.33332857985838
 31
0.0
  0
LINE
  5
7F
330
1F
100
AcDbEntity
  8
Doc_ Finishes
  6
Continuous
100
AcDbLine
 10
23.62308811959087
 20
10.33332857985838
 30
0.0
 11
23.23155094413847
 21
10.03392014162077
 31
0.0
  0
LINE
  5
80
330
1F
100
AcDbEntity
  8
Doc_ Finishes
  6
Continuous
100
AcDbLine
 10
23.23155094413847
 20
10.03392014162077
 30
0.0
 11
22.81698269079465
 21
9.619351888276947
 31
0.0
  0
LINE
  5
81
330
1F
100
AcDbEntity
  8
Doc_ Finishes
  6
Continuous
100
AcDbLine
 10
22.81698269079465
 20
9.619351888276947
 30
0.0
 11
22.40241886309992
 21
9.389036683713611
 31
0.0
  0
LINE
  5
82
330
1F
100
AcDbEntity
  8
Doc_ Finishes
  6
Continuous
100
AcDbLine
 10
22.40241886309992
 20
9.389036683713611
 30
0.0
 11
21.91875295043273
 21
9.04356166404406
 31
0.0
  0
LINE
  5
83
330
1F
100
AcDbEntity
  8
Doc_ Finishes
  6
Continuous
100
AcDbLine
 10
21.91875295043273
 20
9.04356166404406
 30
0.0
 11
21.66540666797797
 21
8.859308615263572
 31
0.0
  0
LINE
  5
84
330
1F
100
AcDbEntity
  8
Doc_ Finishes
  6
Continuous
100
AcDbLine
 10
21.66540666797797
 20
8.859308615263572
 30
0.0
 11
21.25084284028324
 21
8.582931254917387
 31
0.0
  0
LINE
  5
85
330
1F
100
AcDbEntity
  8
Doc_ Finishes
  6
Continuous
100
AcDbLine
 10
21.25084284028324
 20
8.582931254917387
 30
0.0
 11
20.09926239181747
 21
7.75379474822974
 31
0.0
  0
LINE
  5
86
330
1F
100
AcDbEntity
  8
Doc_ Finishes
  6
Continuous
100
AcDbLine
 10
20.09926239181747
 20
7.75379474822974
 30
0.0
 11
19.75379179779701
 21
7.477417387883556
 31
0.0
  0
LINE
  5
87
330
1F
100
AcDbEntity
  8
Doc_ Finishes
  6
Continuous
100
AcDbLine
 10
19.75379179779701
 20
7.477417387883556
 30
0.0
 11
19.29316138867033
 21
7.316199842643588
 31
0.0
  0
LINE
  5
88
330
1F
100
AcDbEntity
  8
Doc_ Finishes
  6
Continuous
100
AcDbLine
 10
19.29316138867033
 20
7.316199842643588
 30
0.0
 11
19.22406815499606
 21
6.993755900865461
 31
0.0
  0
LINE
  5
89
330
1F
100
AcDbEntity
  8
Doc_ Finishes
  6
Continuous
100
AcDbLine
 10
19.22406815499606
 20
6.993755900865461
 30
0.0
 11
19.36225462234461
 21
6.717378540519276
 31
0.0
  0
LINE
  5
8A
330
1F
100
AcDbEntity
  8
Doc_ Finishes
  6
Continuous
100
AcDbLine
 10
19.36225462234461
 20
6.717378540519276
 30
0.0
 11
19.63863198269079
 21
6.602218725413059
 31
0.0
  0
LINE
  5
8B
330
1F
100
AcDbEntity
  8
Doc_ Finishes
  6
Continuous
100
AcDbLine
 10
19.63863198269079
 20
6.602218725413059
 30
0.0
 11
20.00713808025177
 21
6.832533929976396
 31
0.0
  0
LINE
  5
8C
330
1F
100
AcDbEntity
  8
Doc_ Finishes
  6
Continuous
100
AcDbLine
 10
20.00713808025177
 20
6.832533929976396
 30
0.0
 11
20.26048436270653
 21
7.1319467938631
 31
0.0
  0
LINE
  5
8D
330
1F
100
AcDbEntity
  8
Doc_ Finishes
  6
Continuous
100
AcDbLine
 10
20.26048436270653
 20
7.1319467938631
 30
0.0
 11
20.55989280094414
 21
7.362261998426435
 31
0.0
  0
LINE
  5
8E
330
1F
100
AcDbEntity
  8
Doc_ Finishes
  6
Continuous
100
AcDbLine
 10
20.55989280094414
 20
7.362261998426435
 30
0.0
 11
21.31993607395751
 21
7.707732592446892
 31
0.0
  0
LINE
  5
8F
330
1F
100
AcDbEntity
  8
Doc_ Finishes
  6
Continuous
100
AcDbLine
 10
21.31993607395751
 20
7.707732592446892
 30
0.0
 11
21.84965971675846
 21
8.122300845790717
 31
0.0
  0
LINE
  5
90
330
1F
100
AcDbEntity
  8
Doc_ Finishes
  6
Continuous
100
AcDbLine
 10
21.84965971675846
 20
8.122300845790717
 30
0.0
 11
22.88608035011802
 21
8.882339693154996
 31
0.0
  0
LINE
  5
91
330
1F
100
AcDbEntity
  8
Doc_ Finishes
  6
Continuous
100
AcDbLine
 10
22.88608035011802
 20
8.882339693154996
 30
0.0
 11
23.20851986624705
 21
9.342974527930762
 31
0.0
  0
LINE
  5
92
330
1F
100
AcDbEntity
  8
Doc_ Finishes
  6
Continuous
100
AcDbLine
 10
23.20851986624705
 20
9.342974527930762
 30
0.0
 11
24.01462529504327
 21
9.734507277734066
 31
0.0
  0
LINE
  5
93
330
1F
100
AcDbEntity
  8
Doc_ Finishes
  6
Continuous
100
AcDbLine
 10
24.01462529504327
 20
9.734507277734066
 30
0.0
 11
24.56738001573564
 21
10.05695121951219
 31
0.0
  0
LINE
  5
94
330
1F
100
AcDbEntity
  8
Doc_ Finishes
  6
Continuous
100
AcDbLine
 10
24.56738001573564
 20
10.05695121951219
 30
0.0
 11
25.46560975609756
 21
10.60970594020456
 31
0.0
  0
LINE
  5
95
330
1F
100
AcDbEntity
  8
Doc_ Finishes
  6
Continuous
100
AcDbLine
 10
25.46560975609756
 20
10.60970594020456
 30
0.0
 11
25.88017800944139
 21
11.07033634933124
 31
0.0
  0
LINE
  5
96
330
1F
100
AcDbEntity
  8
Doc_ Finishes
  6
Continuous
100
AcDbLine
 10
25.88017800944139
 20
11.07033634933124
 30
0.0
 11
26.31777734067663
 21
11.34671370967742
 31
0.0
  0
LINE
  5
97
330
1F
100
AcDbEntity
  8
Doc_ Finishes
  6
Continuous
100
AcDbLine
 10
26.31777734067663
 20
11.34671370967742
 30
0.0
 11
26.70931451612903
 21
11.30065155389457
 31
0.0
  0
LINE
  5
98
330
1F
100
AcDbEntity
  8
Doc_ Finishes
  6
Continuous
100
AcDbLine
 10
26.70931451612903
 20
11.30065155389457
 30
0.0
 11
27.21600708103855
 21
11.55399783634933
 31
0.0
  0
LINE
  5
99
330
1F
100
AcDbEntity
  8
Doc_ Finishes
  6
Continuous
100
AcDbLine
 10
27.21600708103855
 20
11.55399783634933
 30
0.0
 11
28.06817466561763
 21
12.17585021636507
 31
0.0
  0
LINE
  5
9A
330
1F
100
AcDbEntity
  8
Doc_ Finishes
  6
Continuous
100
AcDbLine
 10
28.06817466561763
 20
12.17585021636507
 30
0.0
 11
28.41364525963808
 21
12.49829415814319
 31
0.0
  0
LINE
  5
9B
330
1F
100
AcDbEntity
  8
Doc_ Finishes
  6
Continuous
100
AcDbLine
 10
28.41364525963808
 20
12.49829415814319
 30
0.0
 11
28.39061418174666
 21
12.77467151848938
 31
0.0
  0
LINE
  5
9C
330
1F
100
AcDbEntity
  8
Doc_ Finishes
  6
Continuous
100
AcDbLine
 10
28.39061418174666
 20
12.77467151848938
 30
0.0
 11
28.22939221085759
 21
13.00498672305271
 31
0.0
  0
LINE
  5
9D
330
1F
100
AcDbEntity
  8
Doc_ Finishes
  6
Continuous
100
AcDbLine
 10
28.22939221085759
 20
13.00498672305271
 30
0.0
 11
28.04514358772619
 21
13.05104887883556
 31
0.0
  0
LINE
  5
9E
330
1F
100
AcDbEntity
  8
Doc_ Finishes
  6
Continuous
100
AcDbLine
 10
28.04514358772619
 20
13.05104887883556
 30
0.0
 11
27.6536064122738
 21
13.12014211250983
 31
0.0
  0
HATCH
  5
9F
330
1F
100
AcDbEntity
  8
Doc_ Finishes
  6
Continuous
100
AcDbHatch
 10
0.0
 20
0.0
 30
0.0
210
0.0
220
0.0
230
1.0
  2
SOLID
 70
     1
 71
     0
 91
        1
 92
        3
 72
     0
 73
     1
 93
       47
 10
28.06817353700456
 20
15.74573772316067
 10
28.30309513961077
 20
15.62136746295728
 10
28.4412843176144
 20
15.4002647781515
 10
28.93876535842742
 20
15.17916209334572
 10
29.82317609765057
 20
14.40530269652538
 10
30.92868952167951
 20
13.74199464210799
 10
31.59199757609689
 20
13.3827027792986
 10
32.20002995931279
 20
13.07868658769064
 10
33.55428390374828
 20
12.08372450606458
 10
34.07940278016201
 20
11.69679480765445
 10
34.88090001258301
 20
11.08876242443854
 10
35.59948373820179
 20
10.50836787682334
 10
36.5668079842271
 20
9.817421986805197
 10
37.06428902504012
 20
9.458130123995785
 10
37.81051058625966
 20
8.933011247582023
 10
38.61200781868061
 20
8.407892371168286
 10
38.77783483228498
 20
8.186789686362482
 10
39.38586721550092
 20
7.744584316750918
 10
40.18736444792187
 20
6.915449248729224
 10
40.7953968311378
 20
6.44560604351692
 10
41.56925622795804
 20
6.169227687509681
 10
42.23256428237543
 20
6.086314180707507
 10
42.48130480278193
 20
6.30741686551329
 10
42.14965077557326
 20
6.611433057121246
 10
41.48634272115586
 20
6.998362755531397
 10
40.76775899553709
 20
7.357654618340788
 10
40.18736444792187
 20
8.048600508358874
 10
38.99893751709079
 20
8.822459905179112
 10
38.47381864067705
 20
9.319940945992132
 10
38.22507812027052
 20
9.734508480003
 10
37.17484036744301
 20
10.31490302761817
 10
36.73263499783144
 20
10.78474623283046
 10
36.2351539570184
 20
11.17167593124059
 10
35.48893239579888
 20
11.61388130085215
 10
34.85326217698223
 20
12.16663801286669
 10
34.35578113616919
 20
12.58120554687754
 10
33.69247308175183
 20
12.99577308088841
 10
33.22262987653953
 20
13.32742710809708
 10
32.7251488357265
 20
13.5761676285036
 10
31.93747052110588
 20
14.06443605744977
 10
31.43077686842594
 20
14.38687747279155
 10
30.92408321574601
 20
14.70931888813342
 10
30.62467333007151
 20
15.100854892477
 10
29.95675896972068
 20
15.67664313415887
 10
29.47309684670803
 20
15.9530214901661
 10
28.82821401602447
 20
16.36758902417695
 10
28.50577260068269
 20
16.22939984617334
 97
        0
 75
     0
 76
     1
 98
        0
  0
LINE
  5
A0
330
1F
100
AcDbEntity
  8
Doc_ Finishes
  6
Continuous
100
AcDbLine
 10
28.30309697088906
 20
15.62136850904799
 30
0.0
 11
28.06817466561763
 21
15.74573809992132
 31
0.0
  0
LINE
  5
A1
330
1F
100
AcDbEntity
  8
Doc_ Finishes
  6
Continuous
100
AcDbLine
 10
28.44128343823761
 20
15.40026308025177
 30
0.0
 11
28.30309697088906
 21
15.62136850904799
 31
0.0
  0
LINE
  5
A2
330
1F
100
AcDbEntity
  8
Doc_ Finishes
  6
Continuous
100
AcDbLine
 10
28.93876622738001
 20
15.17916207710464
 30
0.0
 11
28.44128343823761
 21
15.40026308025177
 31
0.0
  0
LINE
  5
A3
330
1F
100
AcDbEntity
  8
Doc_ Finishes
  6
Continuous
100
AcDbLine
 10
29.82317466561762
 20
14.40530192761605
 30
0.0
 11
28.93876622738001
 21
15.17916207710464
 31
0.0
  0
LINE
  5
A4
330
1F
100
AcDbEntity
  8
Doc_ Finishes
  6
Continuous
100
AcDbLine
 10
30.92868853265146
 20
13.74199449252557
 30
0.0
 11
29.82317466561762
 21
14.40530192761605
 31
0.0
  0
LINE
  5
A5
330
1F
100
AcDbEntity
  8
Doc_ Finishes
  6
Continuous
100
AcDbLine
 10
31.59199596774193
 20
13.3827025963808
 30
0.0
 11
30.92868853265146
 21
13.74199449252557
 31
0.0
  0
LINE
  5
A6
330
1F
100
AcDbEntity
  8
Doc_ Finishes
  6
Continuous
100
AcDbLine
 10
32.20003147128246
 20
13.07868705743509
 30
0.0
 11
31.59199596774193
 21
13.3827025963808
 31
0.0
  0
LINE
  5
A7
330
1F
100
AcDbEntity
  8
Doc_ Finishes
  6
Continuous
100
AcDbLine
 10
33.55428452006294
 20
12.08372590479937
 30
0.0
 11
32.20003147128246
 21
13.07868705743509
 31
0.0
  0
LINE
  5
A8
330
1F
100
AcDbEntity
  8
Doc_ Finishes
  6
Continuous
100
AcDbLine
 10
34.07940106215578
 20
11.69679583005508
 30
0.0
 11
33.55428452006294
 21
12.08372590479937
 31
0.0
  0
LINE
  5
A9
330
1F
100
AcDbEntity
  8
Doc_ Finishes
  6
Continuous
100
AcDbLine
 10
34.8808993902439
 20
11.08876032651456
 30
0.0
 11
34.07940106215578
 21
11.69679583005508
 31
0.0
  0
LINE
  5
AA
330
1F
100
AcDbEntity
  8
Doc_ Finishes
  6
Continuous
100
AcDbLine
 10
35.59948318253343
 20
10.50836742722266
 30
0.0
 11
34.8808993902439
 21
11.08876032651456
 31
0.0
  0
LINE
  5
AB
330
1F
100
AcDbEntity
  8
Doc_ Finishes
  6
Continuous
100
AcDbLine
 10
36.56680615656963
 20
9.817421813532652
 30
0.0
 11
35.59948318253343
 21
10.50836742722266
 31
0.0
  0
LINE
  5
AC
330
1F
100
AcDbEntity
  8
Doc_ Finishes
  6
Continuous
100
AcDbLine
 10
37.06428894571204
 20
9.458129917387884
 30
0.0
 11
36.56680615656963
 21
9.817421813532652
 31
0.0
  0
LINE
  5
AD
330
1F
100
AcDbEntity
  8
Doc_ Finishes
  6
Continuous
100
AcDbLine
 10
37.8105109166011
 20
8.933013375295044
 30
0.0
 11
37.06428894571204
 21
9.458129917387884
 31
0.0
  0
LINE
  5
AE
330
1F
100
AcDbEntity
  8
Doc_ Finishes
  6
Continuous
100
AcDbLine
 10
38.61200924468922
 20
8.407892407553108
 30
0.0
 11
37.8105109166011
 21
8.933013375295044
 31
0.0
  0
LINE
  5
AF
330
1F
100
AcDbEntity
  8
Doc_ Finishes
  6
Continuous
100
AcDbLine
 10
38.77783389063729
 20
8.18679140440598
 30
0.0
 11
38.61200924468922
 21
8.407892407553108
 31
0.0
  0
LINE
  5
B0
330
1F
100
AcDbEntity
  8
Doc_ Finishes
  6
Continuous
100
AcDbLine
 10
39.3858693941778
 20
7.744584972462627
 30
0.0
 11
38.77783389063729
 21
8.18679140440598
 31
0.0
  0
LINE
  5
B1
330
1F
100
AcDbEntity
  8
Doc_ Finishes
  6
Continuous
100
AcDbLine
 10
40.18736329661684
 20
6.915448465774981
 30
0.0
 11
39.3858693941778
 21
7.744584972462627
 31
0.0
  0
LINE
  5
B2
330
1F
100
AcDbEntity
  8
Doc_ Finishes
  6
Continuous
100
AcDbLine
 10
40.79539880015735
 20
6.4456038552321
 30
0.0
 11
40.18736329661684
 21
6.915448465774981
 31
0.0
  0
LINE
  5
B3
330
1F
100
AcDbEntity
  8
Doc_ Finishes
  6
Continuous
100
AcDbLine
 10
41.56925452399685
 20
6.169226494885916
 30
0.0
 11
40.79539880015735
 21
6.4456038552321
 31
0.0
  0
LINE
  5
B4
330
1F
100
AcDbEntity
  8
Doc_ Finishes
  6
Continuous
100
AcDbLine
 10
42.23256638473643
 20
6.086316384736428
 30
0.0
 11
41.56925452399685
 21
6.169226494885916
 31
0.0
  0
LINE
  5
B5
330
1F
100
AcDbEntity
  8
Doc_ Finishes
  6
Continuous
100
AcDbLine
 10
42.48130556648308
 20
6.307417387883556
 30
0.0
 11
42.23256638473643
 21
6.086316384736428
 31
0.0
  0
LINE
  5
B6
330
1F
100
AcDbEntity
  8
Doc_ Finishes
  6
Continuous
100
AcDbLine
 10
42.14965184893784
 20
6.611432926829268
 30
0.0
 11
42.48130556648308
 21
6.307417387883556
 31
0.0
  0
LINE
  5
B7
330
1F
100
AcDbEntity
  8
Doc_ Finishes
  6
Continuous
100
AcDbLine
 10
41.48634441384736
 20
6.998363001573564
 30
0.0
 11
42.14965184893784
 21
6.611432926829268
 31
0.0
  0
LINE
  5
B8
330
1F
100
AcDbEntity
  8
Doc_ Finishes
  6
Continuous
100
AcDbLine
 10
40.76776062155783
 20
7.357654897718332
 30
0.0
 11
41.48634441384736
 21
6.998363001573564
 31
0.0
  0
LINE
  5
B9
330
1F
100
AcDbEntity
  8
Doc_ Finishes
  6
Continuous
100
AcDbLine
 10
40.18736329661684
 20
8.048600511408338
 30
0.0
 11
40.76776062155783
 21
7.357654897718332
 31
0.0
  0
LINE
  5
BA
330
1F
100
AcDbEntity
  8
Doc_ Finishes
  6
Continuous
100
AcDbLine
 10
38.99893931943352
 20
8.822460660896931
 30
0.0
 11
40.18736329661684
 21
8.048600511408338
 31
0.0
  0
LINE
  5
BB
330
1F
100
AcDbEntity
  8
Doc_ Finishes
  6
Continuous
100
AcDbLine
 10
38.47381835169158
 20
9.319939024390242
 30
0.0
 11
38.99893931943352
 21
8.822460660896931
 31
0.0
  0
LINE
  5
BC
330
1F
100
AcDbEntity
  8
Doc_ Finishes
  6
Continuous
100
AcDbLine
 10
38.22507916994492
 20
9.734507277734066
 30
0.0
 11
38.47381835169158
 21
9.319939024390242
 31
0.0
  0
LINE
  5
BD
330
1F
100
AcDbEntity
  8
Doc_ Finishes
  6
Continuous
100
AcDbLine
 10
37.17484166011014
 20
10.31490460267506
 30
0.0
 11
38.22507916994492
 21
9.734507277734066
 31
0.0
  0
LINE
  5
BE
330
1F
100
AcDbEntity
  8
Doc_ Finishes
  6
Continuous
100
AcDbLine
 10
36.7326352281668
 20
10.78474478756884
 30
0.0
 11
37.17484166011014
 21
10.31490460267506
 31
0.0
  0
LINE
  5
BF
330
1F
100
AcDbEntity
  8
Doc_ Finishes
  6
Continuous
100
AcDbLine
 10
36.23515243902439
 20
11.17167486231314
 30
0.0
 11
36.7326352281668
 21
10.78474478756884
 31
0.0
  0
LINE
  5
C0
330
1F
100
AcDbEntity
  8
Doc_ Finishes
  6
Continuous
100
AcDbLine
 10
35.48893046813532
 20
11.61388129425649
 30
0.0
 11
36.23515243902439
 21
11.17167486231314
 31
0.0
  0
LINE
  5
C1
330
1F
100
AcDbEntity
  8
Doc_ Finishes
  6
Continuous
100
AcDbLine
 10
34.85326121164437
 20
12.16663601494886
 30
0.0
 11
35.48893046813532
 21
11.61388129425649
 31
0.0
  0
LINE
  5
C2
330
1F
100
AcDbEntity
  8
Doc_ Finishes
  6
Continuous
100
AcDbLine
 10
34.35578284815106
 20
12.58120426829268
 30
0.0
 11
34.85326121164437
 21
12.16663601494886
 31
0.0
  0
LINE
  5
C3
330
1F
100
AcDbEntity
  8
Doc_ Finishes
  6
Continuous
100
AcDbLine
 10
33.69247098741149
 20
12.99577252163651
 30
0.0
 11
34.35578284815106
 21
12.58120426829268
 31
0.0
  0
LINE
  5
C4
330
1F
100
AcDbEntity
  8
Doc_ Finishes
  6
Continuous
100
AcDbLine
 10
33.2226308025177
 20
13.32742623918175
 30
0.0
 11
33.69247098741149
 21
12.99577252163651
 31
0.0
  0
LINE
  5
C5
330
1F
100
AcDbEntity
  8
Doc_ Finishes
  6
Continuous
100
AcDbLine
 10
32.7251480133753
 20
13.5761654209284
 30
0.0
 11
33.2226308025177
 21
13.32742623918175
 31
0.0
  0
LINE
  5
C6
330
1F
100
AcDbEntity
  8
Doc_ Finishes
  6
Continuous
100
AcDbLine
 10
31.93747098741148
 20
14.0644340086546
 30
0.0
 11
32.7251480133753
 21
13.5761654209284
 31
0.0
  0
LINE
  5
C7
330
1F
100
AcDbEntity
  8
Doc_ Finishes
  6
Continuous
100
AcDbLine
 10
31.43077842250197
 20
14.38687795043273
 30
0.0
 11
31.93747098741148
 21
14.0644340086546
 31
0.0
  0
LINE
  5
C8
330
1F
100
AcDbEntity
  8
Doc_ Finishes
  6
Continuous
100
AcDbLine
 10
30.92408143194335
 20
14.70931746656176
 30
0.0
 11
31.43077842250197
 21
14.38687795043273
 31
0.0
  0
LINE
  5
C9
330
1F
100
AcDbEntity
  8
Doc_ Finishes
  6
Continuous
100
AcDbLine
 10
30.62467299370574
 20
15.10085464201416
 30
0.0
 11
30.92408143194335
 21
14.70931746656176
 31
0.0
  0
LINE
  5
CA
330
1F
100
AcDbEntity
  8
Doc_ Finishes
  6
Continuous
100
AcDbLine
 10
29.95675845790716
 20
15.67664486624705
 30
0.0
 11
30.62467299370574
 21
15.10085464201416
 31
0.0
  0
LINE
  5
CB
330
1F
100
AcDbEntity
  8
Doc_ Finishes
  6
Continuous
100
AcDbLine
 10
29.47309697088906
 20
15.95302222659323
 30
0.0
 11
29.95675845790716
 21
15.67664486624705
 31
0.0
  0
LINE
  5
CC
330
1F
100
AcDbEntity
  8
Doc_ Finishes
  6
Continuous
100
AcDbLine
 10
28.8282135129819
 20
16.36759047993706
 30
0.0
 11
29.47309697088906
 21
15.95302222659323
 31
0.0
  0
LINE
  5
CD
330
1F
100
AcDbEntity
  8
Doc_ Finishes
  6
Continuous
100
AcDbLine
 10
28.50577399685287
 20
16.22939958693942
 30
0.0
 11
28.8282135129819
 21
16.36759047993706
 31
0.0
  0
LINE
  5
CE
330
1F
100
AcDbEntity
  8
Doc_ Finishes
  6
Continuous
100
AcDbLine
 10
28.06817466561763
 20
15.74573809992132
 30
0.0
 11
28.50577399685287
 21
16.22939958693942
 31
0.0
  0
LINE
  5
CF
330
1F
100
AcDbEntity
  8
Doc_ Finishes
  6
Continuous
 62
   254
370
    18
100
AcDbLine
 10
97.43333792289535
 20
5.093360051140834
 30
0.0
 11
97.43333792289535
 21
20.69901750590086
 31
0.0
  0
LINE
  5
D0
330
1F
100
AcDbEntity
  8
Doc_ Finishes
  6
Continuous
 62
   254
370
    18
100
AcDbLine
 10
7.000000491738787
 20
20.69901750590086
 30
0.0
 11
290.2406840086546
 21
20.69901750590086
 31
0.0
  0
LINE
  5
D1
330
1F
100
AcDbEntity
  8
Doc_ Finishes
  6
Continuous
 62
   254
370
    18
100
AcDbLine
 10
290.2406840086546
 20
20.69901750590086
 30
0.0
 11
290.2406840086546
 21
5.000000983477577
 31
0.0
  0
LINE
  5
D2
330
1F
100
AcDbEntity
  8
Doc_ Finishes
  6
Continuous
 62
   254
370
    18
100
AcDbLine
 10
290.2406840086546
 20
5.000000983477577
 30
0.0
 11
7.000000491738787
 21
5.000000983477577
 31
0.0
  0
LINE
  5
D3
330
1F
100
AcDbEntity
  8
Doc_ Finishes
  6
Continuous
 62
   254
370
    18
100
AcDbLine
 10
7.000000491738787
 20
20.69901750590086
 30
0.0
 11
7.000000491738787
 21
5.000000983477577
 31
0.0
  0
LINE
  5
D4
330
1F
100
AcDbEntity
  8
Doc_ Finishes
  6
Continuous
 62
   254
370
    18
100
AcDbLine
 10
190.2919443351691
 20
5.093360051140834
 30
0.0
 11
190.2919443351691
 21
20.69901750590086
 31
0.0
  0
LINE
  5
D5
330
1F
100
AcDbEntity
  8
Doc_ Finishes
  6
Continuous
 62
   254
370
    18
100
AcDbLine
 10
190.2919443351691
 20
12.8961909913454
 30
0.0
 11
290.2406840086546
 21
12.8961909913454
 31
0.0
  0
MTEXT
  5
D7
330
1F
100
AcDbEntity
  8
0
  6
Continuous
100
AcDbMText
 10
210.3494767103412
 20
15.00230533707754
 30
0.0
 40
2.25
 41
0.0
 71
     7
 72
     1
  1
{R-TRSC-03}
  7
GENERATED_STYLE_1
 73
     1
 44
1.0
  0
MTEXT
  5
D8
330
1F
100
AcDbEntity
  8
0
  6
Continuous
100
AcDbMText
 10
210.3494767103412
 20
11.03300550383743
 30
0.0
 40
3.0
 41
0.0
 71
     1
 72
     1
  1
{GUTTER FLASHING DETAIL}
  7
GENERATED_STYLE_1
 73
     1
 44
1.0
  0
MTEXT
  5
DA
330
1F
100
AcDbEntity
  8
Doc_ Floor
  6
Continuous
100
AcDbMText
 10
29.78353726544612
 20
13.33283672870609
 30
0.0
 40
5.603347280334726
 41
0.0
 71
     1
 72
     1
  1
{The Roofing Store}
  7
GENERATED_STYLE_2
 73
     1
 44
1.0
  0
MTEXT
  5
DC
102
{ACAD_XDICTIONARY
360
57F
102
}
330
1F
100
AcDbEntity
  8
0
  6
Continuous
100
AcDbMText
 10
102.7389238446655
 20
6.378784417288157
 30
0.0
 40
1.5
 41
0.0
 71
     7
 72
     1
  1
{P: HEAD OFFICE              09 277 2717\P    ALBANY             09 972 0060\P    KATIKAIT            07 549 5190\P    WELLINGTON              04 974 5792\P    CHRISTCHURCH          03 348 6528}
  7
GENERATED_STYLE_1
 73
     1
 44
1.062946161486498
  0
MTEXT
  5
DD
330
1F
100
AcDbEntity
  8
0
  6
Continuous
100
AcDbMText
 10
149.4184566143587
 20
9.199084231526156
 30
0.0
 40
1.5
 41
0.0
 71
     7
 72
     1
  1
{WEB: www.theroofingstore.co.nz}
  7
GENERATED_STYLE_1
 73
     1
 44
1.0
  0
MTEXT
  5
DE
330
1F
100
AcDbEntity
  8
0
  6
Continuous
100
AcDbMText
 10
149.4184566143587
 20
6.620946023411263
 30
0.0
 40
1.5
 41
0.0
 71
     7
 72
     1
  1
{Copyright \U+00A9 The Roofing Store 2013}
  7
GENERATED_STYLE_1
 73
     1
 44
1.0
  0
MTEXT
  5
DF
330
1F
100
AcDbEntity
  8
0
  6
Continuous
100
AcDbMText
 10
273.9546684065315
 20
15.01597367092287
 30
0.0
 40
2.25
 41
0.0
 71
     7
 72
     1
  1
{1:5}
  7
GENERATED_STYLE_1
 73
     1
 44
1.0
  0
MTEXT
  5
E0
330
1F
100
AcDbEntity
  8
0
  6
Continuous
100
AcDbMText
 10
264.8396605309016
 20
15.51746459162148
 30
0.0
 40
1.5
 41
0.0
 71
     7
 72
     1
  1
{SCALE:}
  7
GENERATED_STYLE_1
 73
     1
 44
1.0
  0
MTEXT
  5
E1
330
1F
100
AcDbEntity
  8
0
  6
Continuous
100
AcDbMText
 10
191.5066235617487
 20
15.48695559872207
 30
0.0
 40
1.5
 41
0.0
 71
     7
 72
     1
  1
{DETAIL NUMBER:}
  7
GENERATED_STYLE_1
 73
     1
 44
1.0
  0
MTEXT
  5
E2
330
1F
100
AcDbEntity
  8
0
  6
Continuous
100
AcDbMText
 10
191.5066235617487
 20
9.005462392315325
 30
0.0
 40
1.5
 41
0.0
 71
     7
 72
     1
  1
{TITLE:}
  7
GENERATED_STYLE_1
 73
     1
 44
1.0
  0
INSERT
  5
54D
102
{ACAD_XDICTIONARY
360
54E
102
}
330
1F
100
AcDbEntity
  8
0
  6
Continuous
100
AcDbBlockReference
  2
Drawing_1_2
 10
-142.7210172665502
 20
95.8254599850675
 30
0.0
  0
ENDSEC
  0
SECTION
  2
OBJECTS
  0
DICTIONARY
  5
C
330
0
100
AcDbDictionary
281
     1
  3
ACAD_GROUP
350
D
  3
ACAD_LAYOUT
350
1A
  3
ACAD_MATERIAL
350
3B
  3
ACAD_MLEADERSTYLE
350
57A
  3
ACAD_MLINESTYLE
350
17
  3
ACAD_PLOTSETTINGS
350
19
  3
ACAD_PLOTSTYLENAME
350
E
  3
ACAD_SCALELIST
350
554
  3
ACAD_VISUALSTYLE
350
2A
  3
AcDbVariableDictionary
350
578
  3
WATERMARKS
350
576
  0
DICTIONARY
  5
57F
330
DC
100
AcDbDictionary
280
     1
281
     1
  3
ACAD_MTEXT_RT
360
580
  0
DICTIONARY
  5
54E
330
54D
100
AcDbDictionary
280
     1
281
     1
  3
ACAD_FILTER
360
54F
  0
DICTIONARY
  5
D
102
{ACAD_REACTORS
330
C
102
}
330
C
100
AcDbDictionary
281
     1
  0
DICTIONARY
  5
1A
102
{ACAD_REACTORS
330
C
102
}
330
C
100
AcDbDictionary
281
     1
  3
Layout1
350
1E
  3
Model
350
22
  0
DICTIONARY
  5
3B
102
{ACAD_REACTORS
330
C
102
}
330
C
100
AcDbDictionary
281
     1
  3
ByBlock
350
3D
  3
ByLayer
350
3C
  3
Global
350
3E
  0
DICTIONARY
  5
57A
102
{ACAD_REACTORS
330
C
102
}
330
C
100
AcDbDictionary
281
     1
  0
DICTIONARY
  5
17
102
{ACAD_REACTORS
330
C
102
}
330
C
100
AcDbDictionary
281
     1
  3
Standard
350
18
  0
DICTIONARY
  5
19
102
{ACAD_REACTORS
330
C
102
}
330
C
100
AcDbDictionary
281
     1
  0
ACDBDICTIONARYWDFLT
  5
E
102
{ACAD_REACTORS
330
C
102
}
330
C
100
AcDbDictionary
281
     1
  3
Normal
350
F
100
AcDbDictionaryWithDefault
340
F
  0
DICTIONARY
  5
554
102
{ACAD_REACTORS
330
C
102
}
330
C
100
AcDbDictionary
281
     1
  3
A0
350
555
  3
A1
350
556
  3
A2
350
557
  3
A3
350
558
  3
A4
350
559
  3
A5
350
55A
  3
A6
350
55B
  3
A7
350
55C
  3
A8
350
55D
  3
A9
350
55E
  3
B0
350
55F
  3
B1
350
560
  3
B2
350
561
  3
B3
350
562
  3
B4
350
563
  3
B5
350
564
  3
B6
350
565
  3
B7
350
566
  3
B8
350
567
  3
B9
350
568
  3
C0
350
569
  3
C1
350
56A
  3
C2
350
56B
  3
C3
350
56C
  3
C4
350
56D
  3
C5
350
56E
  3
C6
350
56F
  3
C7
350
570
  3
C8
350
571
  3
C9
350
572
  3
D0
350
573
  3
D1
350
574
  3
D2
350
575
  0
DICTIONARY
  5
2A
102
{ACAD_REACTORS
330
C
102
}
330
C
100
AcDbDictionary
281
     1
  3
2dWireframe
350
2F
  3
3D Hidden
350
31
  3
3dWireframe
350
30
  3
Basic
350
32
  3
Brighten
350
36
  3
ColorChange
350
3A
  3
Conceptual
350
34
  3
Dim
350
35
  3
Facepattern
350
39
  3
Flat
350
2B
  3
FlatWithEdges
350
2C
  3
Gouraud
350
2D
  3
GouraudWithEdges
350
2E
  3
Linepattern
350
38
  3
Realistic
350
33
  3
Thicken
350
37
  0
DICTIONARY
  5
578
102
{ACAD_REACTORS
330
C
102
}
330
C
100
AcDbDictionary
281
     1
  3
CANNOSCALE
350
57C
  3
DIMASSOC
350
57D
  3
HIDETEXT
350
57E
  3
XCLIPFRAME
350
57B
  0
DICTIONARY
  5
576
102
{ACAD_REACTORS
330
C
102
}
330
C
100
AcDbDictionary
281
     1
  3
AC_WATERMARK
350
577
  0
XRECORD
  5
580
102
{ACAD_REACTORS
330
57F
102
}
330
57F
100
AcDbXrecord
280
     1
 40
956118.0
  1
{P: HEAD OFFICE ^I^I09 277 2717\P    ALBANY ^I^I09 972 0060\P    KATIKAIT^I^I07 549 5190\P    WELLINGTON^I^I04 974 5792\P    CHRISTCHURCH^I^I03 348 6528}
  0
DICTIONARY
  5
54F
102
{ACAD_REACTORS
330
54E
102
}
330
54E
100
AcDbDictionary
280
     1
281
     1
  3
SPATIAL
360
550
  0
LAYOUT
  5
1E
102
{ACAD_REACTORS
330
1A
102
}
330
1A
100
AcDbPlotSettings
  1

  2
none_device
  4

  6

 40
0.0
 41
0.0
 42
0.0
 43
0.0
 44
0.0
 45
0.0
 46
0.0
 47
0.0
 48
0.0
 49
0.0
140
0.0
141
0.0
142
1.0
143
1.0
 70
   688
 72
     0
 73
     0
 74
     5
  7

 75
    16
147
1.0
148
0.0
149
0.0
100
AcDbLayout
  1
Layout1
 70
     1
 71
     1
 10
0.0
 20
0.0
 11
12.0
 21
9.0
 12
0.0
 22
0.0
 32
0.0
 14
1.000000000000000E+20
 24
1.000000000000000E+20
 34
1.000000000000000E+20
 15
-1.000000000000000E+20
 25
-1.000000000000000E+20
 35
-1.000000000000000E+20
146
0.0
 13
0.0
 23
0.0
 33
0.0
 16
1.0
 26
0.0
 36
0.0
 17
0.0
 27
1.0
 37
0.0
 76
     0
330
1B
  0
LAYOUT
  5
22
102
{ACAD_REACTORS
330
1A
102
}
330
1A
100
AcDbPlotSettings
  1

  2
none_device
  4

  6

 40
0.0
 41
0.0
 42
0.0
 43
0.0
 44
0.0
 45
0.0
 46
0.0
 47
0.0
 48
0.0
 49
0.0
140
0.0
141
0.0
142
1.0
143
1.0
 70
  1712
 72
     0
 73
     0
 74
     0
  7

 75
     0
147
1.0
148
0.0
149
0.0
100
AcDbLayout
  1
Model
 70
     1
 71
     0
 10
0.0
 20
0.0
 11
12.0
 21
9.0
 12
0.0
 22
0.0
 32
0.0
 14
1.000000000000000E+20
 24
1.000000000000000E+20
 34
1.000000000000000E+20
 15
-1.000000000000000E+20
 25
-1.000000000000000E+20
 35
-1.000000000000000E+20
146
0.0
 13
0.0
 23
0.0
 33
0.0
 16
1.0
 26
0.0
 36
0.0
 17
0.0
 27
1.0
 37
0.0
 76
     0
330
1F
331
29
  0
MATERIAL
  5
3D
102
{ACAD_REACTORS
330
3B
102
}
102
{ACAD_XDICTIONARY
360
5A3
102
}
330
3B
100
AcDbMaterial
  1
ByBlock
  0
MATERIAL
  5
3C
102
{ACAD_REACTORS
330
3B
102
}
102
{ACAD_XDICTIONARY
360
5A1
102
}
330
3B
100
AcDbMaterial
  1
ByLayer
  0
MATERIAL
  5
3E
102
{ACAD_REACTORS
330
3B
102
}
102
{ACAD_XDICTIONARY
360
5A5
102
}
330
3B
100
AcDbMaterial
  1
Global
  0
MLINESTYLE
  5
18
102
{ACAD_REACTORS
330
17
102
}
330
17
100
AcDbMlineStyle
  2
Standard
 70
     0
  3

 62
   256
 51
90.0
 52
90.0
 71
     2
 49
0.5
 62
   256
  6
BYLAYER
 49
-0.5
 62
   256
  6
BYLAYER
  0
ACDBPLACEHOLDER
  5
F
102
{ACAD_REACTORS
330
E
102
}
330
E
  0
SCALE
  5
555
102
{ACAD_REACTORS
330
554
102
}
330
554
100
AcDbScale
 70
     0
300
1:1
140
1.0
141
1.0
290
     1
  0
SCALE
  5
556
102
{ACAD_REACTORS
330
554
102
}
330
554
100
AcDbScale
 70
     0
300
1:2
140
1.0
141
2.0
290
     0
  0
SCALE
  5
557
102
{ACAD_REACTORS
330
554
102
}
330
554
100
AcDbScale
 70
     0
300
1:4
140
1.0
141
4.0
290
     0
  0
SCALE
  5
558
102
{ACAD_REACTORS
330
554
102
}
330
554
100
AcDbScale
 70
     0
300
1:5
140
1.0
141
5.0
290
     0
  0
SCALE
  5
559
102
{ACAD_REACTORS
330
554
102
}
330
554
100
AcDbScale
 70
     0
300
1:8
140
1.0
141
8.0
290
     0
  0
SCALE
  5
55A
102
{ACAD_REACTORS
330
554
102
}
330
554
100
AcDbScale
 70
     0
300
1:10
140
1.0
141
10.0
290
     0
  0
SCALE
  5
55B
102
{ACAD_REACTORS
330
554
102
}
330
554
100
AcDbScale
 70
     0
300
1:16
140
1.0
141
16.0
290
     0
  0
SCALE
  5
55C
102
{ACAD_REACTORS
330
554
102
}
330
554
100
AcDbScale
 70
     0
300
1:20
140
1.0
141
20.0
290
     0
  0
SCALE
  5
55D
102
{ACAD_REACTORS
330
554
102
}
330
554
100
AcDbScale
 70
     0
300
1:30
140
1.0
141
30.0
290
     0
  0
SCALE
  5
55E
102
{ACAD_REACTORS
330
554
102
}
330
554
100
AcDbScale
 70
     0
300
1:40
140
1.0
141
40.0
290
     0
  0
SCALE
  5
55F
102
{ACAD_REACTORS
330
554
102
}
330
554
100
AcDbScale
 70
     0
300
1:50
140
1.0
141
50.0
290
     0
  0
SCALE
  5
560
102
{ACAD_REACTORS
330
554
102
}
330
554
100
AcDbScale
 70
     0
300
1:100
140
1.0
141
100.0
290
     0
  0
SCALE
  5
561
102
{ACAD_REACTORS
330
554
102
}
330
554
100
AcDbScale
 70
     0
300
2:1
140
2.0
141
1.0
290
     0
  0
SCALE
  5
562
102
{ACAD_REACTORS
330
554
102
}
330
554
100
AcDbScale
 70
     0
300
4:1
140
4.0
141
1.0
290
     0
  0
SCALE
  5
563
102
{ACAD_REACTORS
330
554
102
}
330
554
100
AcDbScale
 70
     0
300
8:1
140
8.0
141
1.0
290
     0
  0
SCALE
  5
564
102
{ACAD_REACTORS
330
554
102
}
330
554
100
AcDbScale
 70
     0
300
10:1
140
10.0
141
1.0
290
     0
  0
SCALE
  5
565
102
{ACAD_REACTORS
330
554
102
}
330
554
100
AcDbScale
 70
     0
300
100:1
140
100.0
141
1.0
290
     0
  0
SCALE
  5
566
102
{ACAD_REACTORS
330
554
102
}
330
554
100
AcDbScale
 70
     0
300
1/128" = 1'-0"
140
0.0078125
141
12.0
290
     0
  0
SCALE
  5
567
102
{ACAD_REACTORS
330
554
102
}
330
554
100
AcDbScale
 70
     0
300
1/64" = 1'-0"
140
0.015625
141
12.0
290
     0
  0
SCALE
  5
568
102
{ACAD_REACTORS
330
554
102
}
330
554
100
AcDbScale
 70
     0
300
1/32" = 1'-0"
140
0.03125
141
12.0
290
     0
  0
SCALE
  5
569
102
{ACAD_REACTORS
330
554
102
}
330
554
100
AcDbScale
 70
     0
300
1/16" = 1'-0"
140
0.0625
141
12.0
290
     0
  0
SCALE
  5
56A
102
{ACAD_REACTORS
330
554
102
}
330
554
100
AcDbScale
 70
     0
300
3/32" = 1'-0"
140
0.09375
141
12.0
290
     0
  0
SCALE
  5
56B
102
{ACAD_REACTORS
330
554
102
}
330
554
100
AcDbScale
 70
     0
300
1/8" = 1'-0"
140
0.125
141
12.0
290
     0
  0
SCALE
  5
56C
102
{ACAD_REACTORS
330
554
102
}
330
554
100
AcDbScale
 70
     0
300
3/16" = 1'-0"
140
0.1875
141
12.0
290
     0
  0
SCALE
  5
56D
102
{ACAD_REACTORS
330
554
102
}
330
554
100
AcDbScale
 70
     0
300
1/4" = 1'-0"
140
0.25
141
12.0
290
     0
  0
SCALE
  5
56E
102
{ACAD_REACTORS
330
554
102
}
330
554
100
AcDbScale
 70
     0
300
3/8" = 1'-0"
140
0.375
141
12.0
290
     0
  0
SCALE
  5
56F
102
{ACAD_REACTORS
330
554
102
}
330
554
100
AcDbScale
 70
     0
300
1/2" = 1'-0"
140
0.5
141
12.0
290
     0
  0
SCALE
  5
570
102
{ACAD_REACTORS
330
554
102
}
330
554
100
AcDbScale
 70
     0
300
3/4" = 1'-0"
140
0.75
141
12.0
290
     0
  0
SCALE
  5
571
102
{ACAD_REACTORS
330
554
102
}
330
554
100
AcDbScale
 70
     0
300
1" = 1'-0"
140
1.0
141
12.0
290
     0
  0
SCALE
  5
572
102
{ACAD_REACTORS
330
554
102
}
330
554
100
AcDbScale
 70
     0
300
1-1/2" = 1'-0"
140
1.5
141
12.0
290
     0
  0
SCALE
  5
573
102
{ACAD_REACTORS
330
554
102
}
330
554
100
AcDbScale
 70
     0
300
3" = 1'-0"
140
3.0
141
12.0
290
     0
  0
SCALE
  5
574
102
{ACAD_REACTORS
330
554
102
}
330
554
100
AcDbScale
 70
     0
300
6" = 1'-0"
140
6.0
141
12.0
290
     0
  0
SCALE
  5
575
102
{ACAD_REACTORS
330
554
102
}
330
554
100
AcDbScale
 70
     0
300
1'-0" = 1'-0"
140
12.0
141
12.0
290
     0
  0
VISUALSTYLE
  5
2F
102
{ACAD_REACTORS
330
2A
102
}
102
{ACAD_XDICTIONARY
360
589
102
}
330
2A
100
AcDbVisualStyle
  2
2dWireframe
 70
     4
 71
     0
 72
     2
 73
     0
 90
        0
 40
-0.6
 41
-30.0
 62
     5
 63
     7
 74
     1
 91
        4
 64
     7
 65
   257
 75
     1
175
     1
 42
1.0
 92
        0
 66
   257
 43
1.0
 76
     1
 77
     6
 78
     2
 67
     7
 79
     5
170
     0
171
     0
290
     0
174
     0
 93
        1
 44
0.0
173
     0
291
     0
 45
0.0
1001
ACAD
1000
AcDbSavedByObjectVersion
1070
     0
  0
VISUALSTYLE
  5
31
102
{ACAD_REACTORS
330
2A
102
}
102
{ACAD_XDICTIONARY
360
58D
102
}
330
2A
100
AcDbVisualStyle
  2
3D Hidden
 70
     6
 71
     1
 72
     2
 73
     2
 90
        0
 40
-0.6
 41
-30.0
 62
     5
 63
     7
 74
     2
 91
        2
 64
     7
 65
   257
 75
     2
175
     1
 42
40.0
 92
        0
 66
   257
 43
1.0
 76
     1
 77
     6
 78
     2
 67
     7
 79
     3
170
     0
171
     0
290
     0
174
     0
 93
        1
 44
0.0
173
     0
291
     0
 45
0.0
1001
ACAD
1000
AcDbSavedByObjectVersion
1070
     0
  0
VISUALSTYLE
  5
30
102
{ACAD_REACTORS
330
2A
102
}
102
{ACAD_XDICTIONARY
360
58B
102
}
330
2A
100
AcDbVisualStyle
  2
3dWireframe
 70
     5
 71
     0
 72
     2
 73
     0
 90
        0
 40
-0.6
 41
-30.0
 62
     5
 63
     7
 74
     1
 91
        4
 64
     7
 65
   257
 75
     1
175
     1
 42
1.0
 92
        0
 66
   257
 43
1.0
 76
     1
 77
     6
 78
     2
 67
     7
 79
     5
170
     0
171
     0
290
     0
174
     0
 93
        1
 44
0.0
173
     0
291
     0
 45
0.0
1001
ACAD
1000
AcDbSavedByObjectVersion
1070
     0
  0
VISUALSTYLE
  5
32
102
{ACAD_REACTORS
330
2A
102
}
102
{ACAD_XDICTIONARY
360
58F
102
}
330
2A
100
AcDbVisualStyle
  2
Basic
 70
     7
 71
     1
 72
     0
 73
     1
 90
        0
 40
-0.6
 41
-30.0
 62
     5
 63
     7
 74
     0
 91
        4
 64
     7
 65
   257
 75
     1
175
     1
 42
1.0
 92
        8
 66
     7
 43
1.0
 76
     1
 77
     6
 78
     2
 67
     7
 79
     5
170
     0
171
     0
290
     0
174
     0
 93
        1
 44
0.0
173
     0
291
     1
 45
0.0
1001
ACAD
1000
AcDbSavedByObjectVersion
1070
     0
  0
VISUALSTYLE
  5
36
102
{ACAD_REACTORS
330
2A
102
}
102
{ACAD_XDICTIONARY
360
597
102
}
330
2A
100
AcDbVisualStyle
  2
Brighten
 70
    12
 71
     2
 72
     2
 73
     0
 90
        0
 40
-0.6
 41
-30.0
 62
     5
 63
     7
 74
     1
 91
        4
 64
     7
 65
   257
 75
     1
175
     1
 42
1.0
 92
        8
 66
     7
 43
1.0
 76
     1
 77
     6
 78
     2
 67
     7
 79
     5
170
     0
171
     0
290
     0
174
     0
 93
        1
 44
50.0
173
     0
291
     1
 45
0.0
1001
ACAD
1000
AcDbSavedByObjectVersion
1070
     0
  0
VISUALSTYLE
  5
3A
102
{ACAD_REACTORS
330
2A
102
}
102
{ACAD_XDICTIONARY
360
59F
102
}
330
2A
100
AcDbVisualStyle
  2
ColorChange
 70
    16
 71
     2
 72
     2
 73
     3
 90
        0
 40
-0.6
 41
-30.0
 62
     5
 63
     8
 74
     1
 91
        4
 64
     7
 65
   257
 75
     1
175
     1
 42
1.0
 92
        8
 66
     8
 43
1.0
 76
     1
 77
     6
 78
     2
 67
     7
 79
     5
170
     0
171
     0
290
     0
174
     0
 93
        1
 44
0.0
173
     0
291
     1
 45
0.0
1001
ACAD
1000
AcDbSavedByObjectVersion
1070
     0
  0
VISUALSTYLE
  5
34
102
{ACAD_REACTORS
330
2A
102
}
102
{ACAD_XDICTIONARY
360
593
102
}
330
2A
100
AcDbVisualStyle
  2
Conceptual
 70
     9
 71
     3
 72
     2
 73
     0
 90
        0
 40
-0.6
 41
-30.0
 62
     5
 63
     7
 74
     2
 91
        2
 64
     7
 65
   257
 75
     1
175
     1
 42
40.0
 92
        8
 66
     7
 43
1.0
 76
     1
 77
     6
 78
     2
 67
     7
 79
     3
170
     0
171
     0
290
     0
174
     0
 93
        1
 44
0.0
173
     0
291
     0
 45
0.0
1001
ACAD
1000
AcDbSavedByObjectVersion
1070
     0
  0
VISUALSTYLE
  5
35
102
{ACAD_REACTORS
330
2A
102
}
102
{ACAD_XDICTIONARY
360
595
102
}
330
2A
100
AcDbVisualStyle
  2
Dim
 70
    11
 71
     2
 72
     2
 73
     0
 90
        0
 40
-0.6
 41
-30.0
 62
     5
 63
     7
 74
     1
 91
        4
 64
     7
 65
   257
 75
     1
175
     1
 42
1.0
 92
        8
 66
     7
 43
1.0
 76
     1
 77
     6
 78
     2
 67
     7
 79
     5
170
     0
171
     0
290
     0
174
     0
 93
        1
 44
-50.0
173
     0
291
     1
 45
0.0
1001
ACAD
1000
AcDbSavedByObjectVersion
1070
     0
  0
VISUALSTYLE
  5
39
102
{ACAD_REACTORS
330
2A
102
}
102
{ACAD_XDICTIONARY
360
59D
102
}
330
2A
100
AcDbVisualStyle
  2
Facepattern
 70
    15
 71
     2
 72
     2
 73
     0
 90
        0
 40
-0.6
 41
-30.0
 62
     5
 63
     7
 74
     1
 91
        4
 64
     7
 65
   257
 75
     1
175
     1
 42
1.0
 92
        8
 66
     7
 43
1.0
 76
     1
 77
     6
 78
     2
 67
     7
 79
     5
170
     0
171
     0
290
     0
174
     0
 93
        1
 44
0.0
173
     0
291
     1
 45
0.0
1001
ACAD
1000
AcDbSavedByObjectVersion
1070
     0
  0
VISUALSTYLE
  5
2B
102
{ACAD_REACTORS
330
2A
102
}
102
{ACAD_XDICTIONARY
360
581
102
}
330
2A
100
AcDbVisualStyle
  2
Flat
 70
     0
 71
     2
 72
     1
 73
     1
 90
        2
 40
-0.6
 41
30.0
 62
     5
 63
     7
 74
     0
 91
        4
 64
     7
 65
   257
 75
     1
175
     1
 42
1.0
 92
        8
 66
     7
 43
1.0
 76
     1
 77
     6
 78
     2
 67
     7
 79
     5
170
     0
171
     0
290
     0
174
     0
 93
       13
 44
0.0
173
     0
291
     1
 45
0.0
1001
ACAD
1000
AcDbSavedByObjectVersion
1070
     0
  0
VISUALSTYLE
  5
2C
102
{ACAD_REACTORS
330
2A
102
}
102
{ACAD_XDICTIONARY
360
583
102
}
330
2A
100
AcDbVisualStyle
  2
FlatWithEdges
 70
     1
 71
     2
 72
     1
 73
     1
 90
        2
 40
-0.6
 41
30.0
 62
     5
 63
     7
 74
     1
 91
        4
 64
     7
 65
   257
 75
     1
175
     1
 42
1.0
 92
        0
 66
   257
 43
1.0
 76
     1
 77
     6
 78
     2
 67
     7
 79
     5
170
     0
171
     0
290
     0
174
     0
 93
       13
 44
0.0
173
     0
291
     1
 45
0.0
1001
ACAD
1000
AcDbSavedByObjectVersion
1070
     0
  0
VISUALSTYLE
  5
2D
102
{ACAD_REACTORS
330
2A
102
}
102
{ACAD_XDICTIONARY
360
585
102
}
330
2A
100
AcDbVisualStyle
  2
Gouraud
 70
     2
 71
     2
 72
     2
 73
     1
 90
        2
 40
-0.6
 41
30.0
 62
     5
 63
     7
 74
     0
 91
        4
 64
     7
 65
   257
 75
     1
175
     1
 42
1.0
 92
        0
 66
     7
 43
1.0
 76
     1
 77
     6
 78
     2
 67
     7
 79
     5
170
     0
171
     0
290
     0
174
     0
 93
       13
 44
0.0
173
     0
291
     1
 45
0.0
1001
ACAD
1000
AcDbSavedByObjectVersion
1070
     0
  0
VISUALSTYLE
  5
2E
102
{ACAD_REACTORS
330
2A
102
}
102
{ACAD_XDICTIONARY
360
587
102
}
330
2A
100
AcDbVisualStyle
  2
GouraudWithEdges
 70
     3
 71
     2
 72
     2
 73
     1
 90
        2
 40
-0.6
 41
30.0
 62
     5
 63
     7
 74
     1
 91
        4
 64
     7
 65
   257
 75
     1
175
     1
 42
1.0
 92
        0
 66
   257
 43
1.0
 76
     1
 77
     6
 78
     2
 67
     7
 79
     5
170
     0
171
     0
290
     0
174
     0
 93
       13
 44
0.0
173
     0
291
     1
 45
0.0
1001
ACAD
1000
AcDbSavedByObjectVersion
1070
     0
  0
VISUALSTYLE
  5
38
102
{ACAD_REACTORS
330
2A
102
}
102
{ACAD_XDICTIONARY
360
59B
102
}
330
2A
100
AcDbVisualStyle
  2
Linepattern
 70
    14
 71
     2
 72
     2
 73
     0
 90
        0
 40
-0.6
 41
-30.0
 62
     5
 63
     7
 74
     1
 91
        4
 64
     7
 65
   257
 75
     7
175
     7
 42
1.0
 92
        8
 66
     7
 43
1.0
 76
     1
 77
     6
 78
     2
 67
     7
 79
     5
170
     0
171
     0
290
     0
174
     0
 93
        1
 44
0.0
173
     0
291
     1
 45
0.0
1001
ACAD
1000
AcDbSavedByObjectVersion
1070
     0
  0
VISUALSTYLE
  5
33
102
{ACAD_REACTORS
330
2A
102
}
102
{ACAD_XDICTIONARY
360
591
102
}
330
2A
100
AcDbVisualStyle
  2
Realistic
 70
     8
 71
     2
 72
     2
 73
     0
 90
        0
 40
-0.6
 41
-30.0
 62
     5
 63
     7
 74
     1
 91
        0
 64
     7
 65
   257
 75
     1
175
     1
 42
1.0
 92
        8
 66
     8
 43
1.0
 76
     1
 77
     6
 78
     2
 67
     7
 79
     5
170
     0
171
     0
290
     0
174
     0
 93
       13
 44
0.0
173
     0
291
     0
 45
0.0
1001
ACAD
1000
AcDbSavedByObjectVersion
1070
     0
  0
VISUALSTYLE
  5
37
102
{ACAD_REACTORS
330
2A
102
}
102
{ACAD_XDICTIONARY
360
599
102
}
330
2A
100
AcDbVisualStyle
  2
Thicken
 70
    13
 71
     2
 72
     2
 73
     0
 90
        0
 40
-0.6
 41
-30.0
 62
     5
 63
     7
 74
     1
 91
        4
 64
     7
 65
   257
 75
     1
175
     1
 42
1.0
 92
       12
 66
     7
 43
1.0
 76
     1
 77
     6
 78
     2
 67
     7
 79
     5
170
     0
171
     0
290
     0
174
     0
 93
        1
 44
0.0
173
     0
291
     1
 45
0.0
1001
ACAD
1000
AcDbSavedByObjectVersion
1070
     0
  0
DICTIONARYVAR
  5
57C
102
{ACAD_REACTORS
330
578
102
}
330
578
100
DictionaryVariables
280
     0
  1
1:1
  0
DICTIONARYVAR
  5
57D
102
{ACAD_REACTORS
330
578
102
}
330
578
100
DictionaryVariables
280
     0
  1
2
  0
DICTIONARYVAR
  5
57E
102
{ACAD_REACTORS
330
578
102
}
330
578
100
DictionaryVariables
280
     0
  1
1
  0
DICTIONARYVAR
  5
57B
102
{ACAD_REACTORS
330
578
102
}
330
578
100
DictionaryVariables
280
     0
  1
0
  0
XRECORD
  5
577
102
{ACAD_REACTORS
330
576
102
}
330
576
100
AcDbXrecord
280
     1
1000
This DWG file was created in ArchiCAD(TM)®
  0
SPATIAL_FILTER
  5
550
102
{ACAD_REACTORS
330
54F
102
}
330
54F
100
AcDbFilter
100
AcDbSpatialFilter
 70
     4
 10
28.24402708147603
 20
39.87184097454639
 10
256.5849483802536
 20
39.87184097454639
 10
256.5849483802536
 20
189.4745304610989
 10
28.24402708147603
 20
189.4745304610989
210
0.0
220
0.0
230
1.0
 11
0.0
 21
0.0
 31
0.0
 71
     1
 72
     0
 73
     0
 40
1.0
 40
0.0
 40
0.0
 40
0.0
 40
0.0
 40
1.0
 40
0.0
 40
0.0
 40
0.0
 40
0.0
 40
1.0
 40
0.0
 40
1.0
 40
0.0
 40
0.0
 40
0.0
 40
0.0
 40
1.0
 40
0.0
 40
0.0
 40
0.0
 40
0.0
 40
1.0
 40
0.0
  0
DICTIONARY
  5
5A3
330
3D
100
AcDbDictionary
280
     1
281
     1
  3
ACAD_XREC_ROUNDTRIP
360
5A4
  0
DICTIONARY
  5
5A1
330
3C
100
AcDbDictionary
280
     1
281
     1
  3
ACAD_XREC_ROUNDTRIP
360
5A2
  0
DICTIONARY
  5
5A5
330
3E
100
AcDbDictionary
280
     1
281
     1
  3
ACAD_XREC_ROUNDTRIP
360
5A6
  0
DICTIONARY
  5
589
330
2F
100
AcDbDictionary
280
     1
281
     1
  3
ACAD_XREC_ROUNDTRIP
360
58A
  0
DICTIONARY
  5
58D
330
31
100
AcDbDictionary
280
     1
281
     1
  3
ACAD_XREC_ROUNDTRIP
360
58E
  0
DICTIONARY
  5
58B
330
30
100
AcDbDictionary
280
     1
281
     1
  3
ACAD_XREC_ROUNDTRIP
360
58C
  0
DICTIONARY
  5
58F
330
32
100
AcDbDictionary
280
     1
281
     1
  3
ACAD_XREC_ROUNDTRIP
360
590
  0
DICTIONARY
  5
597
330
36
100
AcDbDictionary
280
     1
281
     1
  3
ACAD_XREC_ROUNDTRIP
360
598
  0
DICTIONARY
  5
59F
330
3A
100
AcDbDictionary
280
     1
281
     1
  3
ACAD_XREC_ROUNDTRIP
360
5A0
  0
DICTIONARY
  5
593
330
34
100
AcDbDictionary
280
     1
281
     1
  3
ACAD_XREC_ROUNDTRIP
360
594
  0
DICTIONARY
  5
595
330
35
100
AcDbDictionary
280
     1
281
     1
  3
ACAD_XREC_ROUNDTRIP
360
596
  0
DICTIONARY
  5
59D
330
39
100
AcDbDictionary
280
     1
281
     1
  3
ACAD_XREC_ROUNDTRIP
360
59E
  0
DICTIONARY
  5
581
330
2B
100
AcDbDictionary
280
     1
281
     1
  3
ACAD_XREC_ROUNDTRIP
360
582
  0
DICTIONARY
  5
583
330
2C
100
AcDbDictionary
280
     1
281
     1
  3
ACAD_XREC_ROUNDTRIP
360
584
  0
DICTIONARY
  5
585
330
2D
100
AcDbDictionary
280
     1
281
     1
  3
ACAD_XREC_ROUNDTRIP
360
586
  0
DICTIONARY
  5
587
330
2E
100
AcDbDictionary
280
     1
281
     1
  3
ACAD_XREC_ROUNDTRIP
360
588
  0
DICTIONARY
  5
59B
330
38
100
AcDbDictionary
280
     1
281
     1
  3
ACAD_XREC_ROUNDTRIP
360
59C
  0
DICTIONARY
  5
591
330
33
100
AcDbDictionary
280
     1
281
     1
  3
ACAD_XREC_ROUNDTRIP
360
592
  0
DICTIONARY
  5
599
330
37
100
AcDbDictionary
280
     1
281
     1
  3
ACAD_XREC_ROUNDTRIP
360
59A
  0
XRECORD
  5
5A4
102
{ACAD_REACTORS
330
5A3
102
}
330
5A3
100
AcDbXrecord
280
     1
102
MATERIAL
148
0.0
149
0.0
149
0.0
 93
        0
 94
      127
282
     0
 72
     1
 77
     1
171
     1
175
     1
179
     1
273
     0
  0
XRECORD
  5
5A2
102
{ACAD_REACTORS
330
5A1
102
}
330
5A1
100
AcDbXrecord
280
     1
102
MATERIAL
148
0.0
149
0.0
149
0.0
 93
        0
 94
      127
282
     0
 72
     1
 77
     1
171
     1
175
     1
179
     1
273
     0
  0
XRECORD
  5
5A6
102
{ACAD_REACTORS
330
5A5
102
}
330
5A5
100
AcDbXrecord
280
     1
102
MATERIAL
148
0.0
149
0.0
149
0.0
 93
        0
 94
      127
282
     0
 72
     1
 77
     1
171
     1
175
     1
179
     1
273
     0
  0
XRECORD
  5
58A
102
{ACAD_REACTORS
330
589
102
}
330
589
100
AcDbXrecord
280
     1
102
RTVSPropertyOp0
 70
     1
102
RTVSPropertyOp1
 70
     1
102
RTVSPropertyOp2
 70
     1
102
RTVSPropertyOp3
 70
     1
102
RTVSPropertyOp4
 70
     1
102
RTVSPropertyOp5
 70
     1
102
RTVSPropertyOp6
 70
     1
102
RTVSPropertyOp7
 70
     1
102
RTVSPropertyOp8
 70
     1
102
RTVSPropertyOp9
 70
     1
102
RTVSPropertyOp10
 70
     1
102
RTVSPropertyOp11
 70
     1
102
RTVSPropertyOp12
 70
     1
102
RTVSPropertyOp13
 70
     1
102
RTVSPropertyOp14
 70
     1
102
RTVSPropertyOp15
 70
     1
102
RTVSPropertyOp16
 70
     1
102
RTVSPropertyOp17
 70
     1
102
RTVSPropertyOp18
 70
     1
102
RTVSPropertyOp19
 70
     1
102
RTVSPropertyOp20
 70
     1
102
RTVSPropertyOp21
 70
     1
102
RTVSPropertyOp22
 70
     1
102
RTVSPropertyOp23
 70
     1
102
RTVSPropertyOp24
 70
     1
102
RTVSPropertyOp25
 70
     1
102
RTVSPropertyOp26
 70
     1
102
RTVSPropertyOp27
 70
     1
102
RTVSPropertyOp28
 70
     1
102
RTVSPropertyOp29
 70
     1
102
RTVSPropertyOp30
 70
     1
102
RTVSPropertyOp31
 70
     1
102
RTVSPropertyOp32
 70
     1
  0
XRECORD
  5
58E
102
{ACAD_REACTORS
330
58D
102
}
330
58D
100
AcDbXrecord
280
     1
102
RTVSPropertyOp0
 70
     1
102
RTVSPropertyOp1
 70
     1
102
RTVSPropertyOp2
 70
     1
102
RTVSPropertyOp3
 70
     1
102
RTVSPropertyOp4
 70
     1
102
RTVSPropertyOp5
 70
     1
102
RTVSPropertyOp6
 70
     1
102
RTVSPropertyOp7
 70
     1
102
RTVSPropertyOp8
 70
     1
102
RTVSPropertyOp9
 70
     1
102
RTVSPropertyOp10
 70
     1
102
RTVSPropertyOp11
 70
     1
102
RTVSPropertyOp12
 70
     1
102
RTVSPropertyOp13
 70
     1
102
RTVSPropertyOp14
 70
     1
102
RTVSPropertyOp15
 70
     1
102
RTVSPropertyOp16
 70
     1
102
RTVSPropertyOp17
 70
     1
102
RTVSPropertyOp18
 70
     1
102
RTVSPropertyOp19
 70
     1
102
RTVSPropertyOp20
 70
     1
102
RTVSPropertyOp21
 70
     1
102
RTVSPropertyOp22
 70
     1
102
RTVSPropertyOp23
 70
     1
102
RTVSPropertyOp24
 70
     1
102
RTVSPropertyOp25
 70
     1
102
RTVSPropertyOp26
 70
     1
102
RTVSPropertyOp27
 70
     1
102
RTVSPropertyOp28
 70
     1
102
RTVSPropertyOp29
 70
     1
102
RTVSPropertyOp30
 70
     1
102
RTVSPropertyOp31
 70
     1
102
RTVSPropertyOp32
 70
     1
  0
XRECORD
  5
58C
102
{ACAD_REACTORS
330
58B
102
}
330
58B
100
AcDbXrecord
280
     1
102
RTVSPropertyOp0
 70
     1
102
RTVSPropertyOp1
 70
     1
102
RTVSPropertyOp2
 70
     1
102
RTVSPropertyOp3
 70
     1
102
RTVSPropertyOp4
 70
     1
102
RTVSPropertyOp5
 70
     1
102
RTVSPropertyOp6
 70
     1
102
RTVSPropertyOp7
 70
     1
102
RTVSPropertyOp8
 70
     1
102
RTVSPropertyOp9
 70
     1
102
RTVSPropertyOp10
 70
     1
102
RTVSPropertyOp11
 70
     1
102
RTVSPropertyOp12
 70
     1
102
RTVSPropertyOp13
 70
     1
102
RTVSPropertyOp14
 70
     1
102
RTVSPropertyOp15
 70
     1
102
RTVSPropertyOp16
 70
     1
102
RTVSPropertyOp17
 70
     1
102
RTVSPropertyOp18
 70
     1
102
RTVSPropertyOp19
 70
     1
102
RTVSPropertyOp20
 70
     1
102
RTVSPropertyOp21
 70
     1
102
RTVSPropertyOp22
 70
     1
102
RTVSPropertyOp23
 70
     1
102
RTVSPropertyOp24
 70
     1
102
RTVSPropertyOp25
 70
     1
102
RTVSPropertyOp26
 70
     1
102
RTVSPropertyOp27
 70
     1
102
RTVSPropertyOp28
 70
     1
102
RTVSPropertyOp29
 70
     1
102
RTVSPropertyOp30
 70
     1
102
RTVSPropertyOp31
 70
     1
102
RTVSPropertyOp32
 70
     1
  0
XRECORD
  5
590
102
{ACAD_REACTORS
330
58F
102
}
330
58F
100
AcDbXrecord
280
     1
102
RTVSPropertyOp0
 70
     1
102
RTVSPropertyOp1
 70
     1
102
RTVSPropertyOp2
 70
     1
102
RTVSPropertyOp3
 70
     1
102
RTVSPropertyOp4
 70
     1
102
RTVSPropertyOp5
 70
     1
102
RTVSPropertyOp6
 70
     1
102
RTVSPropertyOp7
 70
     1
102
RTVSPropertyOp8
 70
     1
102
RTVSPropertyOp9
 70
     1
102
RTVSPropertyOp10
 70
     1
102
RTVSPropertyOp11
 70
     1
102
RTVSPropertyOp12
 70
     1
102
RTVSPropertyOp13
 70
     1
102
RTVSPropertyOp14
 70
     1
102
RTVSPropertyOp15
 70
     1
102
RTVSPropertyOp16
 70
     1
102
RTVSPropertyOp17
 70
     1
102
RTVSPropertyOp18
 70
     1
102
RTVSPropertyOp19
 70
     1
102
RTVSPropertyOp20
 70
     1
102
RTVSPropertyOp21
 70
     1
102
RTVSPropertyOp22
 70
     1
102
RTVSPropertyOp23
 70
     1
102
RTVSPropertyOp24
 70
     1
102
RTVSPropertyOp25
 70
     1
102
RTVSPropertyOp26
 70
     1
102
RTVSPropertyOp27
 70
     1
102
RTVSPropertyOp28
 70
     1
102
RTVSPropertyOp29
 70
     1
102
RTVSPropertyOp30
 70
     1
102
RTVSPropertyOp31
 70
     1
102
RTVSPropertyOp32
 70
     1
  0
XRECORD
  5
598
102
{ACAD_REACTORS
330
597
102
}
330
597
100
AcDbXrecord
280
     1
102
RTVSPropertyOp0
 70
     1
102
RTVSPropertyOp1
 70
     1
102
RTVSPropertyOp2
 70
     1
102
RTVSPropertyOp3
 70
     1
102
RTVSPropertyOp4
 70
     1
102
RTVSPropertyOp5
 70
     1
102
RTVSPropertyOp6
 70
     1
102
RTVSPropertyOp7
 70
     1
102
RTVSPropertyOp8
 70
     1
102
RTVSPropertyOp9
 70
     1
102
RTVSPropertyOp10
 70
     1
102
RTVSPropertyOp11
 70
     1
102
RTVSPropertyOp12
 70
     1
102
RTVSPropertyOp13
 70
     1
102
RTVSPropertyOp14
 70
     1
102
RTVSPropertyOp15
 70
     1
102
RTVSPropertyOp16
 70
     1
102
RTVSPropertyOp17
 70
     1
102
RTVSPropertyOp18
 70
     1
102
RTVSPropertyOp19
 70
     1
102
RTVSPropertyOp20
 70
     1
102
RTVSPropertyOp21
 70
     1
102
RTVSPropertyOp22
 70
     1
102
RTVSPropertyOp23
 70
     1
102
RTVSPropertyOp24
 70
     1
102
RTVSPropertyOp25
 70
     1
102
RTVSPropertyOp26
 70
     1
102
RTVSPropertyOp27
 70
     1
102
RTVSPropertyOp28
 70
     1
102
RTVSPropertyOp29
 70
     1
102
RTVSPropertyOp30
 70
     1
102
RTVSPropertyOp31
 70
     1
102
RTVSPropertyOp32
 70
     1
  0
XRECORD
  5
5A0
102
{ACAD_REACTORS
330
59F
102
}
330
59F
100
AcDbXrecord
280
     1
102
RTVSPropertyOp0
 70
     1
102
RTVSPropertyOp1
 70
     1
102
RTVSPropertyOp2
 70
     1
102
RTVSPropertyOp3
 70
     1
102
RTVSPropertyOp4
 70
     1
102
RTVSPropertyOp5
 70
     1
102
RTVSPropertyOp6
 70
     1
102
RTVSPropertyOp7
 70
     1
102
RTVSPropertyOp8
 70
     1
102
RTVSPropertyOp9
 70
     1
102
RTVSPropertyOp10
 70
     1
102
RTVSPropertyOp11
 70
     1
102
RTVSPropertyOp12
 70
     1
102
RTVSPropertyOp13
 70
     1
102
RTVSPropertyOp14
 70
     1
102
RTVSPropertyOp15
 70
     1
102
RTVSPropertyOp16
 70
     1
102
RTVSPropertyOp17
 70
     1
102
RTVSPropertyOp18
 70
     1
102
RTVSPropertyOp19
 70
     1
102
RTVSPropertyOp20
 70
     1
102
RTVSPropertyOp21
 70
     1
102
RTVSPropertyOp22
 70
     1
102
RTVSPropertyOp23
 70
     1
102
RTVSPropertyOp24
 70
     1
102
RTVSPropertyOp25
 70
     1
102
RTVSPropertyOp26
 70
     1
102
RTVSPropertyOp27
 70
     1
102
RTVSPropertyOp28
 70
     1
102
RTVSPropertyOp29
 70
     1
102
RTVSPropertyOp30
 70
     1
102
RTVSPropertyOp31
 70
     1
102
RTVSPropertyOp32
 70
     1
  0
XRECORD
  5
594
102
{ACAD_REACTORS
330
593
102
}
330
593
100
AcDbXrecord
280
     1
102
RTVSPropertyOp0
 70
     1
102
RTVSPropertyOp1
 70
     1
102
RTVSPropertyOp2
 70
     1
102
RTVSPropertyOp3
 70
     1
102
RTVSPropertyOp4
 70
     1
102
RTVSPropertyOp5
 70
     1
102
RTVSPropertyOp6
 70
     1
102
RTVSPropertyOp7
 70
     1
102
RTVSPropertyOp8
 70
     1
102
RTVSPropertyOp9
 70
     1
102
RTVSPropertyOp10
 70
     1
102
RTVSPropertyOp11
 70
     1
102
RTVSPropertyOp12
 70
     1
102
RTVSPropertyOp13
 70
     1
102
RTVSPropertyOp14
 70
     1
102
RTVSPropertyOp15
 70
     1
102
RTVSPropertyOp16
 70
     1
102
RTVSPropertyOp17
 70
     1
102
RTVSPropertyOp18
 70
     1
102
RTVSPropertyOp19
 70
     1
102
RTVSPropertyOp20
 70
     1
102
RTVSPropertyOp21
 70
     1
102
RTVSPropertyOp22
 70
     1
102
RTVSPropertyOp23
 70
     1
102
RTVSPropertyOp24
 70
     1
102
RTVSPropertyOp25
 70
     1
102
RTVSPropertyOp26
 70
     1
102
RTVSPropertyOp27
 70
     1
102
RTVSPropertyOp28
 70
     1
102
RTVSPropertyOp29
 70
     1
102
RTVSPropertyOp30
 70
     1
102
RTVSPropertyOp31
 70
     1
102
RTVSPropertyOp32
 70
     1
  0
XRECORD
  5
596
102
{ACAD_REACTORS
330
595
102
}
330
595
100
AcDbXrecord
280
     1
102
RTVSPropertyOp0
 70
     1
102
RTVSPropertyOp1
 70
     1
102
RTVSPropertyOp2
 70
     1
102
RTVSPropertyOp3
 70
     1
102
RTVSPropertyOp4
 70
     1
102
RTVSPropertyOp5
 70
     1
102
RTVSPropertyOp6
 70
     1
102
RTVSPropertyOp7
 70
     1
102
RTVSPropertyOp8
 70
     1
102
RTVSPropertyOp9
 70
     1
102
RTVSPropertyOp10
 70
     1
102
RTVSPropertyOp11
 70
     1
102
RTVSPropertyOp12
 70
     1
102
RTVSPropertyOp13
 70
     1
102
RTVSPropertyOp14
 70
     1
102
RTVSPropertyOp15
 70
     1
102
RTVSPropertyOp16
 70
     1
102
RTVSPropertyOp17
 70
     1
102
RTVSPropertyOp18
 70
     1
102
RTVSPropertyOp19
 70
     1
102
RTVSPropertyOp20
 70
     1
102
RTVSPropertyOp21
 70
     1
102
RTVSPropertyOp22
 70
     1
102
RTVSPropertyOp23
 70
     1
102
RTVSPropertyOp24
 70
     1
102
RTVSPropertyOp25
 70
     1
102
RTVSPropertyOp26
 70
     1
102
RTVSPropertyOp27
 70
     1
102
RTVSPropertyOp28
 70
     1
102
RTVSPropertyOp29
 70
     1
102
RTVSPropertyOp30
 70
     1
102
RTVSPropertyOp31
 70
     1
102
RTVSPropertyOp32
 70
     1
  0
XRECORD
  5
59E
102
{ACAD_REACTORS
330
59D
102
}
330
59D
100
AcDbXrecord
280
     1
102
RTVSPropertyOp0
 70
     1
102
RTVSPropertyOp1
 70
     1
102
RTVSPropertyOp2
 70
     1
102
RTVSPropertyOp3
 70
     1
102
RTVSPropertyOp4
 70
     1
102
RTVSPropertyOp5
 70
     1
102
RTVSPropertyOp6
 70
     1
102
RTVSPropertyOp7
 70
     1
102
RTVSPropertyOp8
 70
     1
102
RTVSPropertyOp9
 70
     1
102
RTVSPropertyOp10
 70
     1
102
RTVSPropertyOp11
 70
     1
102
RTVSPropertyOp12
 70
     1
102
RTVSPropertyOp13
 70
     1
102
RTVSPropertyOp14
 70
     1
102
RTVSPropertyOp15
 70
     1
102
RTVSPropertyOp16
 70
     1
102
RTVSPropertyOp17
 70
     1
102
RTVSPropertyOp18
 70
     1
102
RTVSPropertyOp19
 70
     1
102
RTVSPropertyOp20
 70
     1
102
RTVSPropertyOp21
 70
     1
102
RTVSPropertyOp22
 70
     1
102
RTVSPropertyOp23
 70
     1
102
RTVSPropertyOp24
 70
     1
102
RTVSPropertyOp25
 70
     1
102
RTVSPropertyOp26
 70
     1
102
RTVSPropertyOp27
 70
     1
102
RTVSPropertyOp28
 70
     1
102
RTVSPropertyOp29
 70
     1
102
RTVSPropertyOp30
 70
     1
102
RTVSPropertyOp31
 70
     1
102
RTVSPropertyOp32
 70
     1
  0
XRECORD
  5
582
102
{ACAD_REACTORS
330
581
102
}
330
581
100
AcDbXrecord
280
     1
102
RTVSPropertyOp0
 70
     1
102
RTVSPropertyOp1
 70
     1
102
RTVSPropertyOp2
 70
     1
102
RTVSPropertyOp3
 70
     1
102
RTVSPropertyOp4
 70
     1
102
RTVSPropertyOp5
 70
     1
102
RTVSPropertyOp6
 70
     1
102
RTVSPropertyOp7
 70
     1
102
RTVSPropertyOp8
 70
     1
102
RTVSPropertyOp9
 70
     1
102
RTVSPropertyOp10
 70
     1
102
RTVSPropertyOp11
 70
     1
102
RTVSPropertyOp12
 70
     1
102
RTVSPropertyOp13
 70
     1
102
RTVSPropertyOp14
 70
     1
102
RTVSPropertyOp15
 70
     1
102
RTVSPropertyOp16
 70
     1
102
RTVSPropertyOp17
 70
     1
102
RTVSPropertyOp18
 70
     1
102
RTVSPropertyOp19
 70
     1
102
RTVSPropertyOp20
 70
     1
102
RTVSPropertyOp21
 70
     1
102
RTVSPropertyOp22
 70
     1
102
RTVSPropertyOp23
 70
     1
102
RTVSPropertyOp24
 70
     1
102
RTVSPropertyOp25
 70
     1
102
RTVSPropertyOp26
 70
     1
102
RTVSPropertyOp27
 70
     1
102
RTVSPropertyOp28
 70
     1
102
RTVSPropertyOp29
 70
     1
102
RTVSPropertyOp30
 70
     1
102
RTVSPropertyOp31
 70
     1
102
RTVSPropertyOp32
 70
     1
  0
XRECORD
  5
584
102
{ACAD_REACTORS
330
583
102
}
330
583
100
AcDbXrecord
280
     1
102
RTVSPropertyOp0
 70
     1
102
RTVSPropertyOp1
 70
     1
102
RTVSPropertyOp2
 70
     1
102
RTVSPropertyOp3
 70
     1
102
RTVSPropertyOp4
 70
     1
102
RTVSPropertyOp5
 70
     1
102
RTVSPropertyOp6
 70
     1
102
RTVSPropertyOp7
 70
     1
102
RTVSPropertyOp8
 70
     1
102
RTVSPropertyOp9
 70
     1
102
RTVSPropertyOp10
 70
     1
102
RTVSPropertyOp11
 70
     1
102
RTVSPropertyOp12
 70
     1
102
RTVSPropertyOp13
 70
     1
102
RTVSPropertyOp14
 70
     1
102
RTVSPropertyOp15
 70
     1
102
RTVSPropertyOp16
 70
     1
102
RTVSPropertyOp17
 70
     1
102
RTVSPropertyOp18
 70
     1
102
RTVSPropertyOp19
 70
     1
102
RTVSPropertyOp20
 70
     1
102
RTVSPropertyOp21
 70
     1
102
RTVSPropertyOp22
 70
     1
102
RTVSPropertyOp23
 70
     1
102
RTVSPropertyOp24
 70
     1
102
RTVSPropertyOp25
 70
     1
102
RTVSPropertyOp26
 70
     1
102
RTVSPropertyOp27
 70
     1
102
RTVSPropertyOp28
 70
     1
102
RTVSPropertyOp29
 70
     1
102
RTVSPropertyOp30
 70
     1
102
RTVSPropertyOp31
 70
     1
102
RTVSPropertyOp32
 70
     1
  0
XRECORD
  5
586
102
{ACAD_REACTORS
330
585
102
}
330
585
100
AcDbXrecord
280
     1
102
RTVSPropertyOp0
 70
     1
102
RTVSPropertyOp1
 70
     1
102
RTVSPropertyOp2
 70
     1
102
RTVSPropertyOp3
 70
     1
102
RTVSPropertyOp4
 70
     1
102
RTVSPropertyOp5
 70
     1
102
RTVSPropertyOp6
 70
     1
102
RTVSPropertyOp7
 70
     1
102
RTVSPropertyOp8
 70
     1
102
RTVSPropertyOp9
 70
     1
102
RTVSPropertyOp10
 70
     1
102
RTVSPropertyOp11
 70
     1
102
RTVSPropertyOp12
 70
     1
102
RTVSPropertyOp13
 70
     1
102
RTVSPropertyOp14
 70
     1
102
RTVSPropertyOp15
 70
     1
102
RTVSPropertyOp16
 70
     1
102
RTVSPropertyOp17
 70
     1
102
RTVSPropertyOp18
 70
     1
102
RTVSPropertyOp19
 70
     1
102
RTVSPropertyOp20
 70
     1
102
RTVSPropertyOp21
 70
     1
102
RTVSPropertyOp22
 70
     1
102
RTVSPropertyOp23
 70
     1
102
RTVSPropertyOp24
 70
     1
102
RTVSPropertyOp25
 70
     1
102
RTVSPropertyOp26
 70
     1
102
RTVSPropertyOp27
 70
     1
102
RTVSPropertyOp28
 70
     1
102
RTVSPropertyOp29
 70
     1
102
RTVSPropertyOp30
 70
     1
102
RTVSPropertyOp31
 70
     1
102
RTVSPropertyOp32
 70
     1
  0
XRECORD
  5
588
102
{ACAD_REACTORS
330
587
102
}
330
587
100
AcDbXrecord
280
     1
102
RTVSPropertyOp0
 70
     1
102
RTVSPropertyOp1
 70
     1
102
RTVSPropertyOp2
 70
     1
102
RTVSPropertyOp3
 70
     1
102
RTVSPropertyOp4
 70
     1
102
RTVSPropertyOp5
 70
     1
102
RTVSPropertyOp6
 70
     1
102
RTVSPropertyOp7
 70
     1
102
RTVSPropertyOp8
 70
     1
102
RTVSPropertyOp9
 70
     1
102
RTVSPropertyOp10
 70
     1
102
RTVSPropertyOp11
 70
     1
102
RTVSPropertyOp12
 70
     1
102
RTVSPropertyOp13
 70
     1
102
RTVSPropertyOp14
 70
     1
102
RTVSPropertyOp15
 70
     1
102
RTVSPropertyOp16
 70
     1
102
RTVSPropertyOp17
 70
     1
102
RTVSPropertyOp18
 70
     1
102
RTVSPropertyOp19
 70
     1
102
RTVSPropertyOp20
 70
     1
102
RTVSPropertyOp21
 70
     1
102
RTVSPropertyOp22
 70
     1
102
RTVSPropertyOp23
 70
     1
102
RTVSPropertyOp24
 70
     1
102
RTVSPropertyOp25
 70
     1
102
RTVSPropertyOp26
 70
     1
102
RTVSPropertyOp27
 70
     1
102
RTVSPropertyOp28
 70
     1
102
RTVSPropertyOp29
 70
     1
102
RTVSPropertyOp30
 70
     1
102
RTVSPropertyOp31
 70
     1
102
RTVSPropertyOp32
 70
     1
  0
XRECORD
  5
59C
102
{ACAD_REACTORS
330
59B
102
}
330
59B
100
AcDbXrecord
280
     1
102
RTVSPropertyOp0
 70
     1
102
RTVSPropertyOp1
 70
     1
102
RTVSPropertyOp2
 70
     1
102
RTVSPropertyOp3
 70
     1
102
RTVSPropertyOp4
 70
     1
102
RTVSPropertyOp5
 70
     1
102
RTVSPropertyOp6
 70
     1
102
RTVSPropertyOp7
 70
     1
102
RTVSPropertyOp8
 70
     1
102
RTVSPropertyOp9
 70
     1
102
RTVSPropertyOp10
 70
     1
102
RTVSPropertyOp11
 70
     1
102
RTVSPropertyOp12
 70
     1
102
RTVSPropertyOp13
 70
     1
102
RTVSPropertyOp14
 70
     1
102
RTVSPropertyOp15
 70
     1
102
RTVSPropertyOp16
 70
     1
102
RTVSPropertyOp17
 70
     1
102
RTVSPropertyOp18
 70
     1
102
RTVSPropertyOp19
 70
     1
102
RTVSPropertyOp20
 70
     1
102
RTVSPropertyOp21
 70
     1
102
RTVSPropertyOp22
 70
     1
102
RTVSPropertyOp23
 70
     1
102
RTVSPropertyOp24
 70
     1
102
RTVSPropertyOp25
 70
     1
102
RTVSPropertyOp26
 70
     1
102
RTVSPropertyOp27
 70
     1
102
RTVSPropertyOp28
 70
     1
102
RTVSPropertyOp29
 70
     1
102
RTVSPropertyOp30
 70
     1
102
RTVSPropertyOp31
 70
     1
102
RTVSPropertyOp32
 70
     1
  0
XRECORD
  5
592
102
{ACAD_REACTORS
330
591
102
}
330
591
100
AcDbXrecord
280
     1
102
RTVSPropertyOp0
 70
     1
102
RTVSPropertyOp1
 70
     1
102
RTVSPropertyOp2
 70
     1
102
RTVSPropertyOp3
 70
     1
102
RTVSPropertyOp4
 70
     1
102
RTVSPropertyOp5
 70
     1
102
RTVSPropertyOp6
 70
     1
102
RTVSPropertyOp7
 70
     1
102
RTVSPropertyOp8
 70
     1
102
RTVSPropertyOp9
 70
     1
102
RTVSPropertyOp10
 70
     1
102
RTVSPropertyOp11
 70
     1
102
RTVSPropertyOp12
 70
     1
102
RTVSPropertyOp13
 70
     1
102
RTVSPropertyOp14
 70
     1
102
RTVSPropertyOp15
 70
     1
102
RTVSPropertyOp16
 70
     1
102
RTVSPropertyOp17
 70
     1
102
RTVSPropertyOp18
 70
     1
102
RTVSPropertyOp19
 70
     1
102
RTVSPropertyOp20
 70
     1
102
RTVSPropertyOp21
 70
     1
102
RTVSPropertyOp22
 70
     1
102
RTVSPropertyOp23
 70
     1
102
RTVSPropertyOp24
 70
     1
102
RTVSPropertyOp25
 70
     1
102
RTVSPropertyOp26
 70
     1
102
RTVSPropertyOp27
 70
     1
102
RTVSPropertyOp28
 70
     1
102
RTVSPropertyOp29
 70
     1
102
RTVSPropertyOp30
 70
     1
102
RTVSPropertyOp31
 70
     1
102
RTVSPropertyOp32
 70
     1
  0
XRECORD
  5
59A
102
{ACAD_REACTORS
330
599
102
}
330
599
100
AcDbXrecord
280
     1
102
RTVSPropertyOp0
 70
     1
102
RTVSPropertyOp1
 70
     1
102
RTVSPropertyOp2
 70
     1
102
RTVSPropertyOp3
 70
     1
102
RTVSPropertyOp4
 70
     1
102
RTVSPropertyOp5
 70
     1
102
RTVSPropertyOp6
 70
     1
102
RTVSPropertyOp7
 70
     1
102
RTVSPropertyOp8
 70
     1
102
RTVSPropertyOp9
 70
     1
102
RTVSPropertyOp10
 70
     1
102
RTVSPropertyOp11
 70
     1
102
RTVSPropertyOp12
 70
     1
102
RTVSPropertyOp13
 70
     1
102
RTVSPropertyOp14
 70
     1
102
RTVSPropertyOp15
 70
     1
102
RTVSPropertyOp16
 70
     1
102
RTVSPropertyOp17
 70
     1
102
RTVSPropertyOp18
 70
     1
102
RTVSPropertyOp19
 70
     1
102
RTVSPropertyOp20
 70
     1
102
RTVSPropertyOp21
 70
     1
102
RTVSPropertyOp22
 70
     1
102
RTVSPropertyOp23
 70
     1
102
RTVSPropertyOp24
 70
     1
102
RTVSPropertyOp25
 70
     1
102
RTVSPropertyOp26
 70
     1
102
RTVSPropertyOp27
 70
     1
102
RTVSPropertyOp28
 70
     1
102
RTVSPropertyOp29
 70
     1
102
RTVSPropertyOp30
 70
     1
102
RTVSPropertyOp31
 70
     1
102
RTVSPropertyOp32
 70
     1
  0
ENDSEC
  0
EOF
