  0
SECTION
  2
HEADER
  9
$ACADVER
  1
AC1015
  9
$ACADMAINTVER
 70
     6
  9
$DWGCODEPAGE
  3
ANSI_949
  9
$INSBASE
 10
0.0
 20
0.0
 30
0.0
  9
$EXTMIN
 10
1.000000000000000E+20
 20
1.000000000000000E+20
 30
1.000000000000000E+20
  9
$EXTMAX
 10
-1.000000000000000E+20
 20
-1.000000000000000E+20
 30
-1.000000000000000E+20
  9
$LIMMIN
 10
0.0
 20
0.0
  9
$LIMMAX
 10
12.0
 20
9.0
  9
$ORTHOMODE
 70
     0
  9
$REGENMODE
 70
     1
  9
$FILLMODE
 70
     1
  9
$QTEXTMODE
 70
     0
  9
$MIRRTEXT
 70
     1
  9
$LTSCALE
 40
1.0
  9
$ATTMODE
 70
     1
  9
$TEXTSIZE
 40
0.2
  9
$TRACEWID
 40
0.05
  9
$TEXTSTYLE
  7
Standard
  9
$CLAYER
  8
0
  9
$CELTYPE
  6
ByLayer
  9
$CECOLOR
 62
   256
  9
$CELTSCALE
 40
1.0
  9
$DISPSILH
 70
     0
  9
$DIMSCALE
 40
1.0
  9
$DIMASZ
 40
0.18
  9
$DIMEXO
 40
0.0625
  9
$DIMDLI
 40
0.38
  9
$DIMRND
 40
0.0
  9
$DIMDLE
 40
0.0
  9
$DIMEXE
 40
0.18
  9
$DIMTP
 40
0.0
  9
$DIMTM
 40
0.0
  9
$DIMTXT
 40
0.18
  9
$DIMCEN
 40
0.09
  9
$DIMTSZ
 40
0.0
  9
$DIMTOL
 70
     0
  9
$DIMLIM
 70
     0
  9
$DIMTIH
 70
     1
  9
$DIMTOH
 70
     1
  9
$DIMSE1
 70
     0
  9
$DIMSE2
 70
     0
  9
$DIMTAD
 70
     0
  9
$DIMZIN
 70
     0
  9
$DIMBLK
  1

  9
$DIMASO
 70
     1
  9
$DIMSHO
 70
     1
  9
$DIMPOST
  1

  9
$DIMAPOST
  1

  9
$DIMALT
 70
     0
  9
$DIMALTD
 70
     2
  9
$DIMALTF
 40
25.4
  9
$DIMLFAC
 40
1.0
  9
$DIMTOFL
 70
     0
  9
$DIMTVP
 40
0.0
  9
$DIMTIX
 70
     0
  9
$DIMSOXD
 70
     0
  9
$DIMSAH
 70
     0
  9
$DIMBLK1
  1

  9
$DIMBLK2
  1

  9
$DIMSTYLE
  2
Standard
  9
$DIMCLRD
 70
     0
  9
$DIMCLRE
 70
     0
  9
$DIMCLRT
 70
     0
  9
$DIMTFAC
 40
1.0
  9
$DIMGAP
 40
0.09
  9
$DIMJUST
 70
     0
  9
$DIMSD1
 70
     0
  9
$DIMSD2
 70
     0
  9
$DIMTOLJ
 70
     1
  9
$DIMTZIN
 70
     0
  9
$DIMALTZ
 70
     0
  9
$DIMALTTZ
 70
     0
  9
$DIMUPT
 70
     0
  9
$DIMDEC
 70
     4
  9
$DIMTDEC
 70
     4
  9
$DIMALTU
 70
     2
  9
$DIMALTTD
 70
     2
  9
$DIMTXSTY
  7
Standard
  9
$DIMAUNIT
 70
     0
  9
$DIMADEC
 70
     0
  9
$DIMALTRND
 40
0.0
  9
$DIMAZIN
 70
     0
  9
$DIMDSEP
 70
    46
  9
$DIMATFIT
 70
     3
  9
$DIMFRAC
 70
     0
  9
$DIMLDRBLK
  1

  9
$DIMLUNIT
 70
     2
  9
$DIMLWD
 70
    -2
  9
$DIMLWE
 70
    -2
  9
$DIMTMOVE
 70
     0
  9
$LUNITS
 70
     2
  9
$LUPREC
 70
     4
  9
$SKETCHINC
 40
0.1
  9
$FILLETRAD
 40
0.5
  9
$AUNITS
 70
     0
  9
$AUPREC
 70
     0
  9
$MENU
  1
.
  9
$ELEVATION
 40
0.0
  9
$PELEVATION
 40
0.0
  9
$THICKNESS
 40
0.0
  9
$LIMCHECK
 70
     0
  9
$CHAMFERA
 40
0.5
  9
$CHAMFERB
 40
0.5
  9
$CHAMFERC
 40
1.0
  9
$CHAMFERD
 40
0.0
  9
$SKPOLY
 70
     0
  9
$TDCREATE
 40
2456522.534855544
  9
$TDUCREATE
 40
2456522.034855544
  9
$TDUPDATE
 40
2456522.534892292
  9
$TDUUPDATE
 40
2456522.034892292
  9
$TDINDWG
 40
0.0000000116
  9
$TDUSRTIMER
 40
0.0000000116
  9
$USRTIMER
 70
     1
  9
$ANGBASE
 50
0.0
  9
$ANGDIR
 70
     0
  9
$PDMODE
 70
     0
  9
$PDSIZE
 40
0.0
  9
$PLINEWID
 40
0.0
  9
$SPLFRAME
 70
     0
  9
$SPLINETYPE
 70
     6
  9
$SPLINESEGS
 70
     8
  9
$HANDSEED
  5
540
  9
$SURFTAB1
 70
     6
  9
$SURFTAB2
 70
     6
  9
$SURFTYPE
 70
     6
  9
$SURFU
 70
     6
  9
$SURFV
 70
     6
  9
$UCSBASE
  2

  9
$UCSNAME
  2

  9
$UCSORG
 10
0.0
 20
0.0
 30
0.0
  9
$UCSXDIR
 10
1.0
 20
0.0
 30
0.0
  9
$UCSYDIR
 10
0.0
 20
1.0
 30
0.0
  9
$UCSORTHOREF
  2

  9
$UCSORTHOVIEW
 70
     0
  9
$UCSORGTOP
 10
0.0
 20
0.0
 30
0.0
  9
$UCSORGBOTTOM
 10
0.0
 20
0.0
 30
0.0
  9
$UCSORGLEFT
 10
0.0
 20
0.0
 30
0.0
  9
$UCSORGRIGHT
 10
0.0
 20
0.0
 30
0.0
  9
$UCSORGFRONT
 10
0.0
 20
0.0
 30
0.0
  9
$UCSORGBACK
 10
0.0
 20
0.0
 30
0.0
  9
$PUCSBASE
  2

  9
$PUCSNAME
  2

  9
$PUCSORG
 10
0.0
 20
0.0
 30
0.0
  9
$PUCSXDIR
 10
1.0
 20
0.0
 30
0.0
  9
$PUCSYDIR
 10
0.0
 20
1.0
 30
0.0
  9
$PUCSORTHOREF
  2

  9
$PUCSORTHOVIEW
 70
     0
  9
$PUCSORGTOP
 10
0.0
 20
0.0
 30
0.0
  9
$PUCSORGBOTTOM
 10
0.0
 20
0.0
 30
0.0
  9
$PUCSORGLEFT
 10
0.0
 20
0.0
 30
0.0
  9
$PUCSORGRIGHT
 10
0.0
 20
0.0
 30
0.0
  9
$PUCSORGFRONT
 10
0.0
 20
0.0
 30
0.0
  9
$PUCSORGBACK
 10
0.0
 20
0.0
 30
0.0
  9
$USERI1
 70
     0
  9
$USERI2
 70
     0
  9
$USERI3
 70
     0
  9
$USERI4
 70
     0
  9
$USERI5
 70
     0
  9
$USERR1
 40
0.0
  9
$USERR2
 40
0.0
  9
$USERR3
 40
0.0
  9
$USERR4
 40
0.0
  9
$USERR5
 40
0.0
  9
$WORLDVIEW
 70
     1
  9
$SHADEDGE
 70
     3
  9
$SHADEDIF
 70
    70
  9
$TILEMODE
 70
     1
  9
$MAXACTVP
 70
    64
  9
$PINSBASE
 10
0.0
 20
0.0
 30
0.0
  9
$PLIMCHECK
 70
     0
  9
$PEXTMIN
 10
1.000000000000000E+20
 20
1.000000000000000E+20
 30
1.000000000000000E+20
  9
$PEXTMAX
 10
-1.000000000000000E+20
 20
-1.000000000000000E+20
 30
-1.000000000000000E+20
  9
$PLIMMIN
 10
0.0
 20
0.0
  9
$PLIMMAX
 10
12.0
 20
9.0
  9
$UNITMODE
 70
     0
  9
$VISRETAIN
 70
     1
  9
$PLINEGEN
 70
     0
  9
$PSLTSCALE
 70
     1
  9
$TREEDEPTH
 70
  3020
  9
$CMLSTYLE
  2
Standard
  9
$CMLJUST
 70
     0
  9
$CMLSCALE
 40
1.0
  9
$PROXYGRAPHICS
 70
     1
  9
$MEASUREMENT
 70
     0
  9
$CELWEIGHT
370
    -1
  9
$ENDCAPS
280
     0
  9
$JOINSTYLE
280
     0
  9
$LWDISPLAY
290
     1
  9
$INSUNITS
 70
     4
  9
$HYPERLINKBASE
  1

  9
$STYLESHEET
  1

  9
$XEDIT
290
     1
  9
$CEPSNTYPE
380
     0
  9
$PSTYLEMODE
290
     1
  9
$FINGERPRINTGUID
  2
{5419BE57-2579-4759-B9EF-84627C3C0E40}
  9
$VERSIONGUID
  2
{FAEB1C32-E019-11D5-929B-00C0DF256EC4}
  9
$EXTNAMES
290
     1
  9
$PSVPSCALE
 40
0.0
  9
$OLESTARTUP
290
     0
  0
ENDSEC
  0
SECTION
  2
CLASSES
  0
CLASS
  1
ACDBDICTIONARYWDFLT
  2
AcDbDictionaryWithDefault
  3
ObjectDBX Classes
 90
        0
280
     0
281
     0
  0
CLASS
  1
VISUALSTYLE
  2
AcDbVisualStyle
  3
ObjectDBX Classes
 90
     4095
280
     0
281
     0
  0
CLASS
  1
MATERIAL
  2
AcDbMaterial
  3
ObjectDBX Classes
 90
     1153
280
     0
281
     0
  0
CLASS
  1
SPATIAL_FILTER
  2
AcDbSpatialFilter
  3
ObjectDBX Classes
 90
        0
280
     0
281
     0
  0
CLASS
  1
SCALE
  2
AcDbScale
  3
ObjectDBX Classes
 90
     1153
280
     0
281
     0
  0
CLASS
  1
DICTIONARYVAR
  2
AcDbDictionaryVar
  3
ObjectDBX Classes
 90
        0
280
     0
281
     0
  0
CLASS
  1
ACDBPLACEHOLDER
  2
AcDbPlaceHolder
  3
ObjectDBX Classes
 90
        0
280
     0
281
     0
  0
CLASS
  1
LAYOUT
  2
AcDbLayout
  3
ObjectDBX Classes
 90
        0
280
     0
281
     0
  0
ENDSEC
  0
SECTION
  2
TABLES
  0
TABLE
  2
VPORT
  5
8
330
0
100
AcDbSymbolTable
 70
     1
  0
VPORT
  5
29
330
8
100
AcDbSymbolTableRecord
100
AcDbViewportTableRecord
  2
*Active
 70
     0
 10
0.0
 20
0.0
 11
1.0
 21
1.0
 12
148.6203422501967
 22
99.83536082289874
 13
0.0
 23
0.0
 14
0.5
 24
0.5
 15
0.5
 25
0.5
 16
0.0
 26
0.0
 36
1.0
 17
0.0
 27
0.0
 37
0.0
 40
199.5292239653249
 41
1.447935753198045
 42
50.0
 43
0.0
 44
0.0
 50
0.0
 51
0.0
 71
     0
 72
   100
 73
     1
 74
     3
 75
     0
 76
     0
 77
     0
 78
     0
281
     0
 65
     1
110
0.0
120
0.0
130
0.0
111
1.0
121
0.0
131
0.0
112
0.0
122
1.0
132
0.0
 79
     0
146
0.0
  0
ENDTAB
  0
TABLE
  2
LTYPE
  5
5
330
0
100
AcDbSymbolTable
 70
     2
  0
LTYPE
  5
14
330
5
100
AcDbSymbolTableRecord
100
AcDbLinetypeTableRecord
  2
ByBlock
 70
     0
  3

 72
    65
 73
     0
 40
0.0
  0
LTYPE
  5
15
330
5
100
AcDbSymbolTableRecord
100
AcDbLinetypeTableRecord
  2
ByLayer
 70
     0
  3

 72
    65
 73
     0
 40
0.0
  0
LTYPE
  5
16
330
5
100
AcDbSymbolTableRecord
100
AcDbLinetypeTableRecord
  2
Continuous
 70
     0
  3
Solid line
 72
    65
 73
     0
 40
0.0
  0
LTYPE
  5
132
330
5
100
AcDbSymbolTableRecord
100
AcDbLinetypeTableRecord
  2
Dashed
 70
     0
  3
- - - - - 
 72
    65
 73
     2
 40
5.644444465637207
 49
2.822222232818604
 74
     0
 49
-2.822222232818603
 74
     0
  0
ENDTAB
  0
TABLE
  2
LAYER
  5
2
330
0
100
AcDbSymbolTable
 70
     3
  0
LAYER
  5
10
330
2
100
AcDbSymbolTableRecord
100
AcDbLayerTableRecord
  2
0
 70
     0
 62
     7
  6
Continuous
370
    -3
390
F
  0
LAYER
  5
40
330
2
100
AcDbSymbolTableRecord
100
AcDbLayerTableRecord
  2
Doc_ Finishes
 70
     0
 62
     7
  6
Continuous
370
    -3
390
F
  0
LAYER
  5
DB
330
2
100
AcDbSymbolTableRecord
100
AcDbLayerTableRecord
  2
Doc_ Floor
 70
     0
 62
     7
  6
Continuous
370
    -3
390
F
  0
ENDTAB
  0
TABLE
  2
STYLE
  5
3
330
0
100
AcDbSymbolTable
 70
     4
  0
STYLE
  5
11
330
3
100
AcDbSymbolTableRecord
100
AcDbTextStyleTableRecord
  2
Standard
 70
     0
 40
0.0
 41
1.0
 50
0.0
 71
     0
 42
0.2
  3
txt
  4

  0
STYLE
  5
D6
330
3
100
AcDbSymbolTableRecord
100
AcDbTextStyleTableRecord
  2
GENERATED_STYLE_1
 70
     0
 40
0.0
 41
1.0
 50
0.0
 71
     0
 42
0.2
  3

  4

1001
ACAD
1000
Century Gothic
1071
       34
  0
STYLE
  5
D9
330
3
100
AcDbSymbolTableRecord
100
AcDbTextStyleTableRecord
  2
GENERATED_STYLE_2
 70
     0
 40
0.0
 41
1.0
 50
0.0
 71
     0
 42
0.2
  3

  4

1001
ACAD
1000
DilleniaUPC
1071
 33554450
  0
STYLE
  5
181
330
3
100
AcDbSymbolTableRecord
100
AcDbTextStyleTableRecord
  2
GENERATED_STYLE_3
 70
     0
 40
0.0
 41
1.0
 50
0.0
 71
     0
 42
0.2
  3

  4

1001
ACAD
1000
Arial
1071
       34
  0
ENDTAB
  0
TABLE
  2
VIEW
  5
6
330
0
100
AcDbSymbolTable
 70
     0
  0
ENDTAB
  0
TABLE
  2
UCS
  5
7
330
0
100
AcDbSymbolTable
 70
     0
  0
ENDTAB
  0
TABLE
  2
APPID
  5
9
330
0
100
AcDbSymbolTable
 70
     1
  0
APPID
  5
12
330
9
100
AcDbSymbolTableRecord
100
AcDbRegAppTableRecord
  2
ACAD
 70
     0
  0
ENDTAB
  0
TABLE
  2
DIMSTYLE
  5
A
330
0
100
AcDbSymbolTable
 70
     1
100
AcDbDimStyleTable
  0
DIMSTYLE
105
27
330
A
100
AcDbSymbolTableRecord
100
AcDbDimStyleTableRecord
  2
Standard
 70
     0
178
     0
340
11
  0
ENDTAB
  0
TABLE
  2
BLOCK_RECORD
  5
1
330
0
100
AcDbSymbolTable
 70
     3
  0
BLOCK_RECORD
  5
1F
330
1
100
AcDbSymbolTableRecord
100
AcDbBlockTableRecord
  2
*Model_Space
340
22
  0
BLOCK_RECORD
  5
1B
330
1
100
AcDbSymbolTableRecord
100
AcDbBlockTableRecord
  2
*Paper_Space
340
1E
  0
BLOCK_RECORD
  5
E3
330
1
100
AcDbSymbolTableRecord
100
AcDbBlockTableRecord
  2
Drawing_1_2
340
0
102
{BLKREFS
331
4E6
102
}
  0
BLOCK_RECORD
  5
4EA
330
1
100
AcDbSymbolTableRecord
100
AcDbBlockTableRecord
  2
R-TRSC-05 HIDDENGUTTER DETAIL_STORY_MARKER
340
0
  0
ENDTAB
  0
ENDSEC
  0
SECTION
  2
BLOCKS
  0
BLOCK
  5
20
330
1F
100
AcDbEntity
  8
0
100
AcDbBlockBegin
  2
*Model_Space
 70
     0
 10
0.0
 20
0.0
 30
0.0
  3
*Model_Space
  1

  0
ENDBLK
  5
21
330
1F
100
AcDbEntity
  8
0
100
AcDbBlockEnd
  0
BLOCK
  5
1C
330
1B
100
AcDbEntity
 67
     1
  8
0
100
AcDbBlockBegin
  2
*Paper_Space
 70
     0
 10
0.0
 20
0.0
 30
0.0
  3
*Paper_Space
  1

  0
ENDBLK
  5
1D
330
1B
100
AcDbEntity
 67
     1
  8
0
100
AcDbBlockEnd
  0
BLOCK
  5
E4
330
E3
100
AcDbEntity
  8
0
100
AcDbBlockBegin
  2
Drawing_1_2
 70
     0
 10
26.12171212374109
 20
79.28749807145608
 30
0.0
  3
Drawing_1_2
  1

  0
HATCH
  5
E6
330
E3
100
AcDbEntity
  8
0
  6
Continuous
 62
   255
370
     0
100
AcDbHatch
 10
0.0
 20
0.0
 30
0.0
210
0.0
220
0.0
230
1.0
  2
SOLID
 70
     1
 71
     0
 91
        1
 92
        3
 72
     0
 73
     1
 93
        4
 10
106.3111730868406
 20
125.6122907542079
 10
106.3111730868406
 20
111.6122907542079
 10
134.3111730868406
 20
111.6122907542079
 10
134.3111730868406
 20
125.6122907542079
 97
        0
 75
     0
 76
     1
 98
        0
  0
LINE
  5
E7
330
E3
100
AcDbEntity
  8
0
  6
Continuous
100
AcDbLine
 10
106.3111735142743
 20
125.6122912378308
 30
0.0
 11
134.3111739599097
 21
111.6122892102031
 31
0.0
  0
LINE
  5
E8
330
E3
100
AcDbEntity
  8
0
  6
Continuous
100
AcDbLine
 10
106.3111735142743
 20
125.6122912378308
 30
0.0
 11
106.3111735142743
 21
111.6122892102031
 31
0.0
  0
LINE
  5
E9
330
E3
100
AcDbEntity
  8
0
  6
Continuous
100
AcDbLine
 10
106.3111735142743
 20
111.6122892102031
 30
0.0
 11
134.3111739599097
 21
111.6122892102031
 31
0.0
  0
LINE
  5
EA
330
E3
100
AcDbEntity
  8
0
  6
Continuous
100
AcDbLine
 10
134.3111739599097
 20
111.6122892102031
 30
0.0
 11
134.3111739599097
 21
125.6122912378308
 31
0.0
  0
LINE
  5
EB
330
E3
100
AcDbEntity
  8
0
  6
Continuous
100
AcDbLine
 10
134.3111739599097
 20
125.6122912378308
 30
0.0
 11
106.3111735142743
 21
125.6122912378308
 31
0.0
  0
HATCH
  5
EC
330
E3
100
AcDbEntity
  8
0
  6
Continuous
 62
   255
370
     0
100
AcDbHatch
 10
0.0
 20
0.0
 30
0.0
210
0.0
220
0.0
230
1.0
  2
SOLID
 70
     1
 71
     0
 91
        1
 92
        3
 72
     0
 73
     1
 93
        4
 10
80.71174278380172
 20
83.61229075420786
 10
169.3895022910217
 20
83.61229075420785
 10
169.3895022910217
 20
111.6122907542078
 10
80.71174278380174
 20
111.6122907542079
 97
        0
 75
     0
 76
     1
 98
        0
  0
LINE
  5
ED
330
E3
100
AcDbEntity
  8
0
  6
Continuous
100
AcDbLine
 10
80.71174373621747
 20
83.6122923741879
 30
0.0
 11
169.3895023720015
 21
83.6122923741879
 31
0.0
  0
LINE
  5
EE
330
E3
100
AcDbEntity
  8
0
  6
Continuous
100
AcDbLine
 10
169.3895023720015
 20
83.6122923741879
 30
0.0
 11
169.3895023720015
 21
111.6122892102031
 31
0.0
  0
LINE
  5
EF
330
E3
100
AcDbEntity
  8
0
  6
Continuous
100
AcDbLine
 10
169.3895023720015
 20
111.6122892102031
 30
0.0
 11
80.71174373621747
 21
111.6122892102031
 31
0.0
  0
LINE
  5
F0
330
E3
100
AcDbEntity
  8
0
  6
Continuous
100
AcDbLine
 10
80.71174373621747
 20
111.6122892102031
 30
0.0
 11
80.71174373621747
 21
83.6122923741879
 31
0.0
  0
HATCH
  5
F1
330
E3
100
AcDbEntity
  8
0
  6
Continuous
 62
   255
370
     0
100
AcDbHatch
 10
0.0
 20
0.0
 30
0.0
210
0.0
220
0.0
230
1.0
  2
SOLID
 70
     1
 71
     0
 91
        1
 92
        3
 72
     0
 73
     1
 93
        4
 10
161.3078660438386
 20
197.6438028207592
 10
161.3078660438386
 20
140.8546342837216
 10
165.3078666231608
 20
140.8546342837216
 10
165.3078666231608
 20
197.6438028207592
 97
        0
 75
     0
 76
     1
 98
        0
  0
LINE
  5
F2
330
E3
100
AcDbEntity
  8
0
  6
Continuous
100
AcDbLine
 10
161.3078660438386
 20
197.6438028207592
 30
0.0
 11
161.3078660438386
 21
140.8546342837216
 31
0.0
  0
LINE
  5
F3
330
E3
100
AcDbEntity
  8
0
  6
Continuous
100
AcDbLine
 10
161.3078660438386
 20
140.8546342837216
 30
0.0
 11
165.3078666231608
 21
140.8546342837216
 31
0.0
  0
LINE
  5
F4
330
E3
100
AcDbEntity
  8
0
  6
Continuous
100
AcDbLine
 10
165.3078666231608
 20
140.8546342837216
 30
0.0
 11
165.3078666231608
 21
197.6438028207592
 31
0.0
  0
HATCH
  5
F5
330
E3
100
AcDbEntity
  8
0
  6
Continuous
 62
   255
370
     0
100
AcDbHatch
 10
0.0
 20
0.0
 30
0.0
210
0.0
220
0.0
230
1.0
  2
SOLID
 70
     1
 71
     0
 91
        1
 92
        3
 72
     0
 73
     1
 93
        4
 10
161.3078656812288
 20
137.0546356246902
 10
165.3078656812288
 20
137.0546356246902
 10
165.3078656812288
 20
146.0546356246902
 10
161.3078656812288
 20
146.0546356246901
 97
        0
 75
     0
 76
     1
 98
        0
  0
LINE
  5
F6
330
E3
100
AcDbEntity
  8
0
  6
Continuous
100
AcDbLine
 10
161.3078660438386
 20
137.0546355381756
 30
0.0
 11
165.3078666231608
 21
146.0546350368405
 31
0.0
  0
LINE
  5
F7
330
E3
100
AcDbEntity
  8
0
  6
Continuous
100
AcDbLine
 10
161.3078660438386
 20
137.0546355381756
 30
0.0
 11
165.3078666231608
 21
137.0546355381756
 31
0.0
  0
LINE
  5
F8
330
E3
100
AcDbEntity
  8
0
  6
Continuous
100
AcDbLine
 10
165.3078666231608
 20
137.0546355381756
 30
0.0
 11
165.3078666231608
 21
146.0546350368405
 31
0.0
  0
LINE
  5
F9
330
E3
100
AcDbEntity
  8
0
  6
Continuous
100
AcDbLine
 10
165.3078666231608
 20
146.0546350368405
 30
0.0
 11
161.3078660438386
 21
146.0546350368405
 31
0.0
  0
LINE
  5
FA
330
E3
100
AcDbEntity
  8
0
  6
Continuous
100
AcDbLine
 10
161.3078660438386
 20
146.0546350368405
 30
0.0
 11
161.3078660438386
 21
137.0546355381756
 31
0.0
  0
HATCH
  5
FB
330
E3
100
AcDbEntity
  8
0
  6
Continuous
 62
   255
370
     0
100
AcDbHatch
 10
0.0
 20
0.0
 30
0.0
210
0.0
220
0.0
230
1.0
  2
SOLID
 70
     1
 71
     0
 91
        1
 92
        3
 72
     0
 73
     1
 93
        4
 10
169.3895017656127
 20
197.6438053121825
 10
169.3895017656127
 20
26.01930819705006
 10
187.3894999625705
 20
26.01930819705006
 10
187.3894999625705
 20
197.6438053121825
 97
        0
 75
     0
 76
     1
 98
        0
  0
LINE
  5
FC
330
E3
100
AcDbEntity
  8
0
  6
Continuous
100
AcDbLine
 10
187.3894999625705
 20
26.01930819705006
 30
0.0
 11
187.3894999625705
 21
197.6438053121825
 31
0.0
  0
LINE
  5
FD
330
E3
100
AcDbEntity
  8
0
  6
Continuous
100
AcDbLine
 10
169.3895017656127
 20
197.6438053121825
 30
0.0
 11
169.3895017656127
 21
26.01930819705006
 31
0.0
  0
HATCH
  5
FE
330
E3
100
AcDbEntity
  8
0
  6
Continuous
 62
   255
370
     0
100
AcDbHatch
 10
0.0
 20
0.0
 30
0.0
210
0.0
220
0.0
230
1.0
  2
SOLID
 70
     1
 71
     0
 91
        1
 92
        3
 72
     0
 73
     1
 93
        4
 10
187.3894999625705
 20
197.6438053121825
 10
187.3894999625705
 20
26.01930819705006
 10
189.3894989790929
 20
26.01930819705006
 10
189.3894989790929
 20
197.6438053121825
 97
        0
 75
     0
 76
     1
 98
        0
  0
HATCH
  5
FF
330
E3
100
AcDbEntity
  8
0
  6
Continuous
 62
     9
370
    13
100
AcDbHatch
 10
0.0
 20
0.0
 30
0.0
210
0.0
220
0.0
230
1.0
  2
Gypsum_0002
 70
     0
 71
     0
 91
        1
 92
        3
 72
     0
 73
     1
 93
        4
 10
187.3894999625705
 20
197.6438053121825
 10
187.3894999625705
 20
26.01930819705006
 10
189.3894989790929
 20
26.01930819705006
 10
189.3894989790929
 20
197.6438053121825
 97
        0
 75
     0
 76
     2
 52
0.0
 41
1.0
 77
     0
 78
     1
 53
0.0
 43
26.12171212374109
 44
79.28749807145608
 45
0.0
 46
0.75
 79
     2
 49
0.0
 49
-0.75
 98
        0
  0
LINE
  5
100
330
E3
100
AcDbEntity
  8
0
  6
Continuous
100
AcDbLine
 10
189.3894989790929
 20
26.01930819705006
 30
0.0
 11
189.3894989790929
 21
197.6438053121825
 31
0.0
  0
LINE
  5
101
330
E3
100
AcDbEntity
  8
0
  6
Continuous
100
AcDbLine
 10
187.3894999625705
 20
197.6438053121825
 30
0.0
 11
187.3894999625705
 21
26.01930819705006
 31
0.0
  0
HATCH
  5
102
330
E3
100
AcDbEntity
  8
0
  6
Continuous
 62
   255
370
     0
100
AcDbHatch
 10
0.0
 20
0.0
 30
0.0
210
0.0
220
0.0
230
1.0
  2
SOLID
 70
     1
 71
     0
 91
        1
 92
        3
 72
     0
 73
     1
 93
        4
 10
169.3895023720015
 20
194.8452967979795
 10
187.3895013693313
 20
194.8452967979795
 10
187.3895013693313
 20
197.6438028207592
 10
169.3895023720015
 20
197.6438028207592
 97
        0
 75
     0
 76
     1
 98
        0
  0
LINE
  5
103
330
E3
100
AcDbEntity
  8
0
  6
Continuous
100
AcDbLine
 10
187.3895013693313
 20
194.8452967979795
 30
0.0
 11
187.3895013693313
 21
197.6438028207592
 31
0.0
  0
LINE
  5
104
330
E3
100
AcDbEntity
  8
0
  6
Continuous
100
AcDbLine
 10
169.3895023720015
 20
197.6438028207592
 30
0.0
 11
169.3895023720015
 21
194.8452967979795
 31
0.0
  0
LINE
  5
105
330
E3
100
AcDbEntity
  8
0
  6
Continuous
100
AcDbLine
 10
169.3895023720015
 20
194.8452967979795
 30
0.0
 11
187.3895013693313
 21
194.8452967979795
 31
0.0
  0
HATCH
  5
106
330
E3
100
AcDbEntity
  8
0
  6
Continuous
 62
   255
370
     0
100
AcDbHatch
 10
0.0
 20
0.0
 30
0.0
210
0.0
220
0.0
230
1.0
  2
SOLID
 70
     1
 71
     0
 91
        1
 92
        3
 72
     0
 73
     1
 93
        4
 10
187.3895022910217
 20
46.34529790331813
 10
187.3895022910217
 20
55.34529790331812
 10
169.3895022910217
 20
55.34529790331812
 10
169.3895022910217
 20
46.34529790331813
 97
        0
 75
     0
 76
     1
 98
        0
  0
LINE
  5
107
330
E3
100
AcDbEntity
  8
0
  6
Continuous
100
AcDbLine
 10
187.3895013693313
 20
46.34529965557851
 30
0.0
 11
187.3895013693313
 21
55.34529915424341
 31
0.0
  0
LINE
  5
108
330
E3
100
AcDbEntity
  8
0
  6
Continuous
100
AcDbLine
 10
187.3895013693313
 20
55.34529915424341
 30
0.0
 11
169.3895023720015
 21
55.34529915424341
 31
0.0
  0
LINE
  5
109
330
E3
100
AcDbEntity
  8
0
  6
Continuous
100
AcDbLine
 10
169.3895023720015
 20
55.34529915424341
 30
0.0
 11
169.3895023720015
 21
46.34529965557851
 31
0.0
  0
LINE
  5
10A
330
E3
100
AcDbEntity
  8
0
  6
Continuous
100
AcDbLine
 10
169.3895023720015
 20
46.34529965557851
 30
0.0
 11
187.3895013693313
 21
46.34529965557851
 31
0.0
  0
LINE
  5
10B
330
E3
100
AcDbEntity
  8
0
  6
Continuous
100
AcDbLine
 10
187.3895013693313
 20
194.8452967979795
 30
0.0
 11
181.7924893237719
 21
197.6438028207592
 31
0.0
  0
LINE
  5
10C
330
E3
100
AcDbEntity
  8
0
  6
Continuous
100
AcDbLine
 10
174.9865144175609
 20
197.6438028207592
 30
0.0
 11
169.3895023720015
 21
194.8452967979795
 31
0.0
  0
LINE
  5
10D
330
E3
100
AcDbEntity
  8
0
  6
Continuous
100
AcDbLine
 10
169.3895023720015
 20
46.34529965557851
 30
0.0
 11
187.3895013693313
 21
55.34529915424341
 31
0.0
  0
HATCH
  5
10E
330
E3
100
AcDbEntity
  8
0
  6
Continuous
 62
   255
370
     0
100
AcDbHatch
 10
0.0
 20
0.0
 30
0.0
210
0.0
220
0.0
230
1.0
  2
SOLID
 70
     1
 71
     0
 91
        1
 92
        3
 72
     0
 73
     1
 93
        4
 10
169.3895022910217
 20
111.6122907542078
 10
169.3895022910217
 20
113.4122907542079
 10
134.7111730868406
 20
113.4122907542079
 10
134.7111730868406
 20
111.6122907542079
 97
        0
 75
     0
 76
     1
 98
        0
  0
HATCH
  5
10F
330
E3
100
AcDbEntity
  8
0
  6
Continuous
100
AcDbHatch
 10
0.0
 20
0.0
 30
0.0
210
0.0
220
0.0
230
1.0
  2
Wood_0002
 70
     0
 71
     0
 91
        1
 92
        3
 72
     0
 73
     1
 93
        4
 10
169.3895022910217
 20
111.6122907542078
 10
169.3895022910217
 20
113.4122907542079
 10
134.7111730868406
 20
113.4122907542079
 10
134.7111730868406
 20
111.6122907542079
 97
        0
 75
     0
 76
     2
 52
0.0
 41
1.0
 77
     0
 78
     1
 53
9.999999999999996
 43
26.12171212374109
 44
79.28749807145608
 45
-0.1562833557601421
 46
0.8863269542313407
 79
     0
 98
        0
  0
LINE
  5
110
330
E3
100
AcDbEntity
  8
0
  6
Continuous
100
AcDbLine
 10
169.3895023720015
 20
113.4122912757081
 30
0.0
 11
169.3895023720015
 21
111.6122892102031
 31
0.0
  0
LINE
  5
111
330
E3
100
AcDbEntity
  8
0
  6
Continuous
100
AcDbLine
 10
134.7111740178419
 20
113.4122912757081
 30
0.0
 11
169.3895023720015
 21
113.4122912757081
 31
0.0
  0
LINE
  5
112
330
E3
100
AcDbEntity
  8
0
  6
Continuous
100
AcDbLine
 10
134.7111740178419
 20
111.6122892102031
 30
0.0
 11
134.7111740178419
 21
113.4122912757081
 31
0.0
  0
LINE
  5
113
330
E3
100
AcDbEntity
  8
0
  6
Continuous
100
AcDbLine
 10
169.3895023720015
 20
111.6122892102031
 30
0.0
 11
134.7111740178419
 21
111.6122892102031
 31
0.0
  0
HATCH
  5
114
330
E3
100
AcDbEntity
  8
0
  6
Continuous
 62
   255
370
     0
100
AcDbHatch
 10
0.0
 20
0.0
 30
0.0
210
0.0
220
0.0
230
1.0
  2
SOLID
 70
     1
 71
     0
 91
        1
 92
        3
 72
     0
 73
     1
 93
        4
 10
169.3895022910217
 20
111.6122907542078
 10
160.3895022910217
 20
111.6122907542078
 10
160.3895022910217
 20
83.61229075420785
 10
169.3895022910217
 20
83.61229075420785
 97
        0
 75
     0
 76
     1
 98
        0
  0
LINE
  5
115
330
E3
100
AcDbEntity
  8
0
  6
Continuous
100
AcDbLine
 10
160.3895028733366
 20
111.6122892102031
 30
0.0
 11
169.3895023720015
 21
83.6122923741879
 31
0.0
  0
LINE
  5
116
330
E3
100
AcDbEntity
  8
0
  6
Continuous
100
AcDbLine
 10
169.3895023720015
 20
111.6122892102031
 30
0.0
 11
160.3895028733366
 21
83.6122923741879
 31
0.0
  0
LINE
  5
117
330
E3
100
AcDbEntity
  8
0
  6
Continuous
100
AcDbLine
 10
169.3895023720015
 20
111.6122892102031
 30
0.0
 11
160.3895028733366
 21
111.6122892102031
 31
0.0
  0
LINE
  5
118
330
E3
100
AcDbEntity
  8
0
  6
Continuous
100
AcDbLine
 10
160.3895028733366
 20
111.6122892102031
 30
0.0
 11
160.3895028733366
 21
83.6122923741879
 31
0.0
  0
LINE
  5
119
330
E3
100
AcDbEntity
  8
0
  6
Continuous
100
AcDbLine
 10
160.3895028733366
 20
83.6122923741879
 30
0.0
 11
169.3895023720015
 21
83.6122923741879
 31
0.0
  0
LINE
  5
11A
330
E3
100
AcDbEntity
  8
0
  6
Continuous
100
AcDbLine
 10
169.3895023720015
 20
83.6122923741879
 30
0.0
 11
169.3895023720015
 21
111.6122892102031
 31
0.0
  0
HATCH
  5
11B
330
E3
100
AcDbEntity
  8
0
  6
Continuous
 62
   255
370
     0
100
AcDbHatch
 10
0.0
 20
0.0
 30
0.0
210
0.0
220
0.0
230
1.0
  2
SOLID
 70
     1
 71
     0
 91
        1
 92
        3
 72
     0
 73
     1
 93
        4
 10
158.507865638313
 20
197.6438028207592
 10
158.507865638313
 20
137.85463565404
 10
160.307864094198
 20
137.85463565404
 10
160.307864094198
 20
197.6438028207592
 97
        0
 75
     0
 76
     1
 98
        0
  0
HATCH
  5
11C
330
E3
100
AcDbEntity
  8
0
  6
Continuous
100
AcDbHatch
 10
0.0
 20
0.0
 30
0.0
210
0.0
220
0.0
230
1.0
  2
Plaster_0002
 70
     0
 71
     0
 91
        1
 92
        3
 72
     0
 73
     1
 93
        4
 10
158.507865638313
 20
197.6438028207592
 10
158.507865638313
 20
137.85463565404
 10
160.307864094198
 20
137.85463565404
 10
160.307864094198
 20
197.6438028207592
 97
        0
 75
     0
 76
     2
 52
0.0
 41
1.0
 77
     0
 78
     2
 53
0.0
 43
26.12171212374109
 44
79.28749807145608
 45
0.0
 46
1.732050807568877
 79
     2
 49
0.0
 49
-1.0
 53
0.0
 43
26.62171212374109
 44
80.1535234596969
 45
0.0
 46
1.732050807568877
 79
     2
 49
0.0
 49
-1.0
 98
        0
  0
LINE
  5
11D
330
E3
100
AcDbEntity
  8
0
  6
Continuous
100
AcDbLine
 10
158.507865638313
 20
197.6438028207592
 30
0.0
 11
158.507865638313
 21
137.85463565404
 31
0.0
  0
LINE
  5
11E
330
E3
100
AcDbEntity
  8
0
  6
Continuous
100
AcDbLine
 10
158.507865638313
 20
137.85463565404
 30
0.0
 11
160.307864094198
 21
137.85463565404
 31
0.0
  0
LINE
  5
11F
330
E3
100
AcDbEntity
  8
0
  6
Continuous
100
AcDbLine
 10
160.307864094198
 20
137.85463565404
 30
0.0
 11
160.307864094198
 21
197.6438028207592
 31
0.0
  0
HATCH
  5
120
330
E3
100
AcDbEntity
  8
0
  6
Continuous
 62
   255
370
     0
100
AcDbHatch
 10
0.0
 20
0.0
 30
0.0
210
0.0
220
0.0
230
1.0
  2
SOLID
 70
     1
 71
     0
 91
        1
 92
        3
 72
     0
 73
     1
 93
        4
 10
178.3895022910217
 20
152.0546356246901
 10
169.3895022910217
 20
152.0546356246901
 10
169.3895022910217
 20
134.0546356246902
 10
178.3895022910217
 20
134.0546356246902
 97
        0
 75
     0
 76
     1
 98
        0
  0
LINE
  5
121
330
E3
100
AcDbEntity
  8
0
  6
Continuous
100
AcDbLine
 10
178.3895018706664
 20
152.0546359058238
 30
0.0
 11
169.3895023720015
 21
134.054636908494
 31
0.0
  0
LINE
  5
122
330
E3
100
AcDbEntity
  8
0
  6
Continuous
100
AcDbLine
 10
178.3895018706664
 20
152.0546359058238
 30
0.0
 11
169.3895023720015
 21
152.0546359058238
 31
0.0
  0
LINE
  5
123
330
E3
100
AcDbEntity
  8
0
  6
Continuous
100
AcDbLine
 10
169.3895023720015
 20
152.0546359058238
 30
0.0
 11
169.3895023720015
 21
134.054636908494
 31
0.0
  0
LINE
  5
124
330
E3
100
AcDbEntity
  8
0
  6
Continuous
100
AcDbLine
 10
169.3895023720015
 20
134.054636908494
 30
0.0
 11
178.3895018706664
 21
134.054636908494
 31
0.0
  0
LINE
  5
125
330
E3
100
AcDbEntity
  8
0
  6
Continuous
100
AcDbLine
 10
178.3895018706664
 20
134.054636908494
 30
0.0
 11
178.3895018706664
 21
152.0546359058238
 31
0.0
  0
HATCH
  5
126
330
E3
100
AcDbEntity
  8
0
  6
Continuous
 62
   255
370
     0
100
AcDbHatch
 10
0.0
 20
0.0
 30
0.0
210
0.0
220
0.0
230
1.0
  2
SOLID
 70
     1
 71
     0
 91
        1
 92
        3
 72
     0
 73
     1
 93
        8
 10
150.7258414836445
 20
63.66405625107252
 10
150.7258414836445
 20
26.01930573920253
 10
198.563414757173
 20
26.01930573920253
 10
198.563414757173
 20
72.09911191202694
 10
176.6142461304842
 20
68.22888179562564
 10
175.3011698999604
 20
73.99735322291279
 10
173.9880936694366
 20
61.76582226876609
 10
172.6750174389128
 20
67.53429369605324
 97
        0
 75
     0
 76
     1
 98
        0
  0
LINE
  5
127
330
E3
100
AcDbEntity
  8
0
  6
Continuous
100
AcDbLine
 10
150.7258422218372
 20
63.66405864989888
 30
0.0
 11
172.6750147370287
 21
67.53428977488076
 31
0.0
  0
LINE
  5
128
330
E3
100
AcDbEntity
  8
0
  6
Continuous
100
AcDbLine
 10
176.6142437513521
 20
68.22888176285876
 30
0.0
 11
198.5634162665436
 21
72.09911288784068
 31
0.0
  0
LINE
  5
129
330
E3
100
AcDbEntity
  8
0
  6
Continuous
100
AcDbLine
 10
176.6142437513521
 20
68.22888176285876
 30
0.0
 11
175.301168616451
 21
73.99735076597602
 31
0.0
  0
LINE
  5
12A
330
E3
100
AcDbEntity
  8
0
  6
Continuous
100
AcDbLine
 10
175.301168616451
 20
73.99735076597602
 30
0.0
 11
173.9880898719298
 21
61.76582077176352
 31
0.0
  0
LINE
  5
12B
330
E3
100
AcDbEntity
  8
0
  6
Continuous
100
AcDbLine
 10
173.9880898719298
 20
61.76582077176352
 30
0.0
 11
172.6750147370287
 21
67.53428977488076
 31
0.0
  0
HATCH
  5
12C
330
E3
100
AcDbEntity
  8
0
  6
Continuous
 62
   255
370
     0
100
AcDbHatch
 10
0.0
 20
0.0
 30
0.0
210
0.0
220
0.0
230
1.0
  2
SOLID
 70
     1
 71
     0
 91
        1
 92
        3
 72
     0
 73
     1
 93
        4
 10
178.3895022910217
 20
131.4122907542078
 10
169.3895022910217
 20
131.4122907542078
 10
169.3895022910217
 20
113.4122907542079
 10
178.3895022910217
 20
113.4122907542079
 97
        0
 75
     0
 76
     1
 98
        0
  0
LINE
  5
12D
330
E3
100
AcDbEntity
  8
0
  6
Continuous
100
AcDbLine
 10
178.3895018706664
 20
131.4122902730379
 30
0.0
 11
169.3895023720015
 21
113.4122912757081
 31
0.0
  0
LINE
  5
12E
330
E3
100
AcDbEntity
  8
0
  6
Continuous
100
AcDbLine
 10
178.3895018706664
 20
131.4122902730379
 30
0.0
 11
169.3895023720015
 21
131.4122902730379
 31
0.0
  0
LINE
  5
12F
330
E3
100
AcDbEntity
  8
0
  6
Continuous
100
AcDbLine
 10
169.3895023720015
 20
131.4122902730379
 30
0.0
 11
169.3895023720015
 21
113.4122912757081
 31
0.0
  0
LINE
  5
130
330
E3
100
AcDbEntity
  8
0
  6
Continuous
100
AcDbLine
 10
169.3895023720015
 20
113.4122912757081
 30
0.0
 11
178.3895018706664
 21
113.4122912757081
 31
0.0
  0
LINE
  5
131
330
E3
100
AcDbEntity
  8
0
  6
Continuous
100
AcDbLine
 10
178.3895018706664
 20
113.4122912757081
 30
0.0
 11
178.3895018706664
 21
131.4122902730379
 31
0.0
  0
LINE
  5
133
330
E3
100
AcDbEntity
  8
0
  6
Dashed
100
AcDbLine
 10
116.2194870009182
 20
131.3668884706766
 30
0.0
 11
118.92729770758
 21
131.3668884706766
 31
0.0
  0
LINE
  5
134
330
E3
100
AcDbEntity
  8
0
  6
Dashed
100
AcDbLine
 10
166.5097690667813
 20
154.4696378347984
 30
0.0
 11
166.5097690667813
 21
140.8004213985519
 31
0.0
  0
LINE
  5
135
330
E3
100
AcDbEntity
  8
0
  6
Dashed
100
AcDbLine
 10
83.07504868527326
 20
126.4945582067416
 30
0.0
 11
135.2364676011171
 21
126.4945582067416
 31
0.0
  0
LINE
  5
136
330
E3
100
AcDbEntity
  8
0
  6
Dashed
100
AcDbLine
 10
135.2364676011171
 20
126.4945582067416
 30
0.0
 11
141.5974052186707
 21
124.0054940913423
 31
0.0
  0
LINE
  5
137
330
E3
100
AcDbEntity
  8
0
  6
Dashed
100
AcDbLine
 10
134.8526205933969
 20
124.1802177551442
 30
0.0
 11
134.8526205933969
 21
114.1634568404399
 31
0.0
  0
LINE
  5
138
330
E3
100
AcDbEntity
  8
0
  6
Dashed
100
AcDbLine
 10
134.8526205933969
 20
114.1634568404399
 30
0.0
 11
168.5680719412524
 21
114.1634568404399
 31
0.0
  0
LINE
  5
139
330
E3
100
AcDbEntity
  8
0
  6
Dashed
100
AcDbLine
 10
168.5680719412524
 20
114.1634568404399
 30
0.0
 11
168.5680719412524
 21
156.7685579890761
 31
0.0
  0
LINE
  5
13A
330
E3
100
AcDbEntity
  8
0
  6
Dashed
100
AcDbLine
 10
166.5097690667813
 20
154.4696378347984
 30
0.0
 11
167.2548054964829
 21
155.1122549021053
 31
0.0
  0
LINE
  5
13B
330
E3
100
AcDbEntity
  8
0
  6
Dashed
100
AcDbLine
 10
167.2548054964829
 20
155.1122549021053
 30
0.0
 11
167.2548054964829
 21
197.6438028207592
 31
0.0
  0
LINE
  5
13C
330
E3
100
AcDbEntity
  8
0
  6
Continuous
100
AcDbLine
 10
38.52770116952185
 20
56.90658260014564
 30
0.0
 11
138.9207852398038
 21
56.90658260014564
 31
0.0
  0
LINE
  5
13D
330
E3
100
AcDbEntity
  8
0
  6
Continuous
100
AcDbLine
 10
138.9207852398038
 20
64.99294753071702
 30
0.0
 11
138.9207852398038
 21
35.38539552797995
 31
0.0
  0
LINE
  5
13E
330
E3
100
AcDbEntity
  8
0
  6
Continuous
100
AcDbLine
 10
38.52770116952185
 20
35.38539552797995
 30
0.0
 11
38.52770116952185
 21
56.90658260014564
 31
0.0
  0
LINE
  5
13F
330
E3
100
AcDbEntity
  8
0
  6
Continuous
100
AcDbLine
 10
114.9507704881525
 20
64.99294753071702
 30
0.0
 11
114.9507704881525
 21
35.38539552797995
 31
0.0
  0
LINE
  5
140
330
E3
100
AcDbEntity
  8
0
  6
Continuous
100
AcDbLine
 10
38.52770116952185
 20
46.14598725925271
 30
0.0
 11
138.9207852398038
 21
46.14598725925271
 31
0.0
  0
LINE
  5
141
330
E3
100
AcDbEntity
  8
0
  6
Continuous
100
AcDbLine
 10
38.52770116952185
 20
35.38539552797995
 30
0.0
 11
138.9207852398038
 21
35.38539552797995
 31
0.0
  0
LINE
  5
142
330
E3
100
AcDbEntity
  8
0
  6
Continuous
100
AcDbLine
 10
114.9507704881525
 20
64.99294753071702
 30
0.0
 11
138.9207852398038
 21
64.99294753071702
 31
0.0
  0
LINE
  5
143
330
E3
100
AcDbEntity
  8
0
  6
Continuous
100
AcDbLine
 10
157.3008591917875
 20
51.55812538912271
 30
0.0
 11
229.6939464260544
 21
51.55812538912271
 31
0.0
  0
LINE
  5
144
330
E3
100
AcDbEntity
  8
0
  6
Continuous
100
AcDbLine
 10
229.6939464260544
 20
59.64449031969411
 30
0.0
 11
229.6939464260544
 21
35.38539552797995
 31
0.0
  0
LINE
  5
145
330
E3
100
AcDbEntity
  8
0
  6
Continuous
100
AcDbLine
 10
157.3008591917875
 20
35.38539552797995
 30
0.0
 11
157.3008591917875
 21
51.55812538912271
 31
0.0
  0
LINE
  5
146
330
E3
100
AcDbEntity
  8
0
  6
Continuous
100
AcDbLine
 10
205.7239280647829
 20
59.64449031969411
 30
0.0
 11
205.7239280647829
 21
35.38539552797995
 31
0.0
  0
LINE
  5
147
330
E3
100
AcDbEntity
  8
0
  6
Continuous
100
AcDbLine
 10
205.7239280647829
 20
59.64449031969411
 30
0.0
 11
229.6939464260544
 21
59.64449031969411
 31
0.0
  0
LINE
  5
148
330
E3
100
AcDbEntity
  8
0
  6
Continuous
100
AcDbLine
 10
157.3008591917875
 20
43.47176045855134
 30
0.0
 11
229.6939464260544
 21
43.47176045855134
 31
0.0
  0
LINE
  5
149
330
E3
100
AcDbEntity
  8
0
  6
Continuous
100
AcDbLine
 10
157.3008591917875
 20
35.38539552797995
 30
0.0
 11
229.6939464260544
 21
35.38539552797995
 31
0.0
  0
LWPOLYLINE
  5
14A
330
E3
100
AcDbEntity
  8
0
  6
Continuous
100
AcDbPolyline
 90
        3
 70
   128
 43
0.0
 10
121.6985997437202
 20
129.0329095110611
 42
0.5012060838038215
 10
129.3533755313545
 20
129.2552341820282
 42
-0.4736328287552234
 10
136.6736766632947
 20
129.1501154369508
  0
LWPOLYLINE
  5
14B
330
E3
100
AcDbEntity
  8
0
  6
Continuous
100
AcDbPolyline
 90
        3
 70
   128
 43
0.0
 10
136.6736766632947
 20
129.0329095110611
 42
0.5012060838038215
 10
144.3284524509289
 20
129.2552341820282
 42
-0.4736328287552234
 10
151.6487535828691
 20
129.1501154369508
  0
LWPOLYLINE
  5
14C
330
E3
100
AcDbEntity
  8
0
  6
Continuous
100
AcDbPolyline
 90
        3
 70
   128
 43
0.0
 10
91.74844590457133
 20
129.0329095110611
 42
0.5012060838038215
 10
99.4032216922056
 20
129.2552341820282
 42
-0.4736328287552234
 10
106.7235228241458
 20
129.1501154369508
  0
LWPOLYLINE
  5
14D
330
E3
100
AcDbEntity
  8
0
  6
Continuous
100
AcDbPolyline
 90
        3
 70
   128
 43
0.0
 10
106.7235228241458
 20
129.0329095110611
 42
0.5012060838038215
 10
114.3782986117801
 20
129.2552341820282
 42
-0.4736328287552234
 10
121.6985997437202
 20
129.1501154369508
  0
LWPOLYLINE
  5
14E
330
E3
100
AcDbEntity
  8
0
  6
Continuous
100
AcDbPolyline
 90
        8
 70
   128
 43
0.0
 10
138.8820605215612
 20
123.2471986718545
 10
135.6309671586692
 20
123.9903057262298
 10
135.6309671586692
 20
114.9903057262298
 10
167.6309671586692
 20
114.9903057262298
 10
167.6309671586692
 20
151.9903057262298
 10
167.370695210085
 20
152.2309721332364
 10
167.0855373414768
 20
151.9198908220274
 10
167.0855373414768
 20
149.7941685287658
  0
LWPOLYLINE
  5
14F
330
E3
100
AcDbEntity
  8
0
  6
Continuous
100
AcDbPolyline
 90
        4
 70
   128
 43
0.0
 10
160.8281163850782
 20
138.4480767970899
 10
160.8281163850782
 20
136.4984625188516
 10
165.9020729582614
 20
136.4984625188516
 10
165.9020729582614
 20
148.4211036819244
  0
LWPOLYLINE
  5
150
330
E3
100
AcDbEntity
  8
0
  6
Continuous
100
AcDbPolyline
 90
        3
 70
   128
 43
0.0
 10
76.77336898499688
 20
129.0329095110611
 42
0.5012060838038215
 10
84.42814477263116
 20
129.2552341820282
 42
-0.4736328287552234
 10
91.74844590457133
 20
129.1501154369508
  0
HATCH
  5
151
330
E3
100
AcDbEntity
  8
0
  6
Continuous
 62
   255
370
     0
100
AcDbHatch
 10
0.0
 20
0.0
 30
0.0
210
0.0
220
0.0
230
1.0
  2
SOLID
 70
     1
 71
     0
 91
        1
 92
        3
 72
     0
 73
     1
 93
        8
 10
149.8140175101609
 20
169.2206376051742
 10
171.962361027335
 20
173.1259906879008
 10
173.2754419827045
 20
167.3575200459895
 10
174.5885178730936
 20
179.589052472219
 10
175.9015937634827
 20
173.8205818303076
 10
198.0499372806568
 20
177.7259298480539
 10
198.0499372806568
 20
197.6438029127367
 10
149.8140175101609
 20
197.6438029127367
 97
        0
 75
     0
 76
     1
 98
        0
  0
LINE
  5
152
330
E3
100
AcDbEntity
  8
0
  6
Continuous
100
AcDbLine
 10
149.8140160734434
 20
169.2206357750105
 30
0.0
 11
171.9623638193947
 21
173.1259885041405
 31
0.0
  0
LINE
  5
153
330
E3
100
AcDbEntity
  8
0
  6
Continuous
100
AcDbLine
 10
175.901592833718
 20
173.8205804921185
 30
0.0
 11
198.0499405796693
 21
177.7259332212486
 31
0.0
  0
LINE
  5
154
330
E3
100
AcDbEntity
  8
0
  6
Continuous
100
AcDbLine
 10
175.901592833718
 20
173.8205804921185
 30
0.0
 11
174.588517698817
 21
179.5890494952358
 31
0.0
  0
LINE
  5
155
330
E3
100
AcDbEntity
  8
0
  6
Continuous
100
AcDbLine
 10
174.588517698817
 20
179.5890494952358
 30
0.0
 11
173.2754389542957
 21
167.3575195010233
 31
0.0
  0
LINE
  5
156
330
E3
100
AcDbEntity
  8
0
  6
Continuous
100
AcDbLine
 10
173.2754389542957
 20
167.3575195010233
 30
0.0
 11
171.9623638193947
 21
173.1259885041405
 31
0.0
  0
HATCH
  5
157
330
E3
100
AcDbEntity
  8
0
  6
Continuous
 62
   255
370
     0
100
AcDbHatch
 10
0.0
 20
0.0
 30
0.0
210
0.0
220
0.0
230
1.0
  2
SOLID
 70
     1
 71
     0
 91
        1
 92
        3
 72
     0
 73
     1
 93
        9
 10
20.4838534549374
 20
136.979673894376
 10
20.4838534549374
 20
111.6056417708868
 10
26.29358992981614
 20
78.6569856627871
 10
94.76322055383469
 20
78.6569856627871
 10
89.96858491585921
 20
105.8487152000796
 10
83.73705299832577
 20
107.1617903603176
 10
95.50552230047532
 20
108.4748691968455
 10
89.27399038294188
 20
109.7879443570836
 10
84.4793547449664
 20
136.979673894376
 97
        0
 75
     0
 76
     1
 98
        0
  0
LINE
  5
158
330
E3
100
AcDbEntity
  8
0
  6
Continuous
100
AcDbLine
 10
84.47935696969594
 20
136.9796745563312
 30
0.0
 11
89.273990159706
 21
109.7879438663449
 31
0.0
  0
LINE
  5
159
330
E3
100
AcDbEntity
  8
0
  6
Continuous
100
AcDbLine
 10
89.96858214768397
 20
105.8487148520216
 30
0.0
 11
94.7632189473142
 21
78.65698416203522
 31
0.0
  0
LINE
  5
15A
330
E3
100
AcDbEntity
  8
0
  6
Continuous
100
AcDbLine
 10
89.96858214768397
 20
105.8487148520216
 30
0.0
 11
83.73705302245476
 21
107.1617899869226
 31
0.0
  0
LINE
  5
15B
330
E3
100
AcDbEntity
  8
0
  6
Continuous
100
AcDbLine
 10
83.73705302245476
 20
107.1617899869226
 30
0.0
 11
95.50552289455536
 21
108.4748687314438
 31
0.0
  0
LINE
  5
15C
330
E3
100
AcDbEntity
  8
0
  6
Continuous
100
AcDbLine
 10
95.50552289455536
 20
108.4748687314438
 30
0.0
 11
89.273990159706
 21
109.7879438663449
 31
0.0
  0
LINE
  5
15D
330
E3
100
AcDbEntity
  8
Doc_ Floor
  6
Continuous
100
AcDbLine
 10
146.8508247405243
 20
114.012303996277
 30
0.0
 11
146.8508247405243
 21
114.9903053110479
 31
0.0
  0
LINE
  5
15E
330
E3
100
AcDbEntity
  8
Doc_ Floor
  6
Continuous
100
AcDbLine
 10
146.8508247405243
 20
114.9903053110479
 30
0.0
 11
146.8508247405243
 21
123.9903048097128
 31
0.0
  0
LINE
  5
15F
330
E3
100
AcDbEntity
  8
Doc_ Floor
  6
Continuous
100
AcDbLine
 10
145.8508264005038
 20
115.5676568362578
 30
0.0
 11
147.850826690165
 21
114.4129573954581
 31
0.0
  0
LINE
  5
160
330
E3
100
AcDbEntity
  8
Doc_ Floor
  6
Continuous
100
AcDbLine
 10
147.850826690165
 20
123.4129568941229
 30
0.0
 11
145.8508264005038
 21
124.5676563349227
 31
0.0
  0
LINE
  5
161
330
E3
100
AcDbEntity
  8
Doc_ Floor
  6
Continuous
100
AcDbLine
 10
146.8508247405243
 20
123.9903048097128
 30
0.0
 11
146.8508247405243
 21
124.9683061244836
 31
0.0
  0
LINE
  5
162
330
E3
100
AcDbEntity
  8
Doc_ Floor
  6
Continuous
100
AcDbLine
 10
148.3508240553651
 20
114.9903053110479
 30
0.0
 11
145.3508254256835
 21
114.9903053110479
 31
0.0
  0
LINE
  5
163
330
E3
100
AcDbEntity
  8
Doc_ Floor
  6
Continuous
100
AcDbLine
 10
148.3508240553651
 20
123.9903048097128
 30
0.0
 11
145.3508254256835
 21
123.9903048097128
 31
0.0
  0
MTEXT
  5
164
330
E3
100
AcDbEntity
  8
Doc_ Floor
  6
Continuous
100
AcDbMText
 10
146.3508253683408
 20
118.1608932286498
 30
0.0
 40
2.5
 41
0.0
 71
     7
 72
     1
  1
{A}
  7
GENERATED_STYLE_1
 11
6.123233995736766E-17
 21
1.0
 31
0.0
 73
     1
 44
1.0
  0
LINE
  5
165
330
E3
100
AcDbEntity
  8
Doc_ Floor
  6
Continuous
100
AcDbLine
 10
146.8508247405243
 20
129.9582414228227
 30
0.0
 11
146.8508247405243
 21
130.9362427375935
 31
0.0
  0
LINE
  5
166
330
E3
100
AcDbEntity
  8
Doc_ Floor
  6
Continuous
100
AcDbLine
 10
146.8508247405243
 20
130.9362427375935
 30
0.0
 11
146.8508247405243
 21
137.85463565404
 31
0.0
  0
LINE
  5
167
330
E3
100
AcDbEntity
  8
Doc_ Floor
  6
Continuous
100
AcDbLine
 10
145.8508264005038
 20
131.5135906531833
 30
0.0
 11
147.850826690165
 21
130.3588912123835
 31
0.0
  0
LINE
  5
168
330
E3
100
AcDbEntity
  8
Doc_ Floor
  6
Continuous
100
AcDbLine
 10
147.850826690165
 20
137.27728412883
 30
0.0
 11
145.8508264005038
 21
138.43198717925
 31
0.0
  0
LINE
  5
169
330
E3
100
AcDbEntity
  8
Doc_ Floor
  6
Continuous
100
AcDbLine
 10
146.8508247405243
 20
137.85463565404
 30
0.0
 11
146.8508247405243
 21
138.8326369688109
 31
0.0
  0
LINE
  5
16A
330
E3
100
AcDbEntity
  8
Doc_ Floor
  6
Continuous
100
AcDbLine
 10
148.3508240553651
 20
130.9362427375935
 30
0.0
 11
145.3508254256835
 21
130.9362427375935
 31
0.0
  0
LINE
  5
16B
330
E3
100
AcDbEntity
  8
Doc_ Floor
  6
Continuous
100
AcDbLine
 10
148.3508240553651
 20
137.85463565404
 30
0.0
 11
145.3508254256835
 21
137.85463565404
 31
0.0
  0
MTEXT
  5
16C
330
E3
100
AcDbEntity
  8
Doc_ Floor
  6
Continuous
100
AcDbMText
 10
134.2102243184717
 20
133.3327036019922
 30
0.0
 40
2.5
 41
0.0
 71
     7
 72
     1
  1
{35 MIN.}
  7
GENERATED_STYLE_1
 73
     1
 44
1.0
  0
LINE
  5
16D
330
E3
100
AcDbEntity
  8
Doc_ Floor
  6
Continuous
100
AcDbLine
 10
146.8508247405243
 20
136.8766343392692
 30
0.0
 11
146.8508247405243
 21
137.85463565404
 31
0.0
  0
LINE
  5
16E
330
E3
100
AcDbEntity
  8
Doc_ Floor
  6
Continuous
100
AcDbLine
 10
146.8508247405243
 20
137.85463565404
 30
0.0
 11
146.8508247405243
 21
151.9903052553481
 31
0.0
  0
LINE
  5
16F
330
E3
100
AcDbEntity
  8
Doc_ Floor
  6
Continuous
100
AcDbLine
 10
145.8508264005038
 20
138.43198717925
 30
0.0
 11
147.850826690165
 21
137.27728412883
 31
0.0
  0
LINE
  5
170
330
E3
100
AcDbEntity
  8
Doc_ Floor
  6
Continuous
100
AcDbLine
 10
147.850826690165
 20
151.4129573397583
 30
0.0
 11
145.8508264005038
 21
152.5676567805581
 31
0.0
  0
LINE
  5
171
330
E3
100
AcDbEntity
  8
Doc_ Floor
  6
Continuous
100
AcDbLine
 10
146.8508247405243
 20
151.9903052553481
 30
0.0
 11
146.8508247405243
 21
152.9683065701189
 31
0.0
  0
LINE
  5
172
330
E3
100
AcDbEntity
  8
Doc_ Floor
  6
Continuous
100
AcDbLine
 10
148.3508240553651
 20
137.85463565404
 30
0.0
 11
145.3508254256835
 21
137.85463565404
 31
0.0
  0
LINE
  5
173
330
E3
100
AcDbEntity
  8
Doc_ Floor
  6
Continuous
100
AcDbLine
 10
148.3508240553651
 20
151.9903052553481
 30
0.0
 11
145.3508254256835
 21
151.9903052553481
 31
0.0
  0
MTEXT
  5
174
330
E3
100
AcDbEntity
  8
Doc_ Floor
  6
Continuous
100
AcDbMText
 10
142.7641814663789
 20
143.5573874584481
 30
0.0
 40
2.5
 41
0.0
 71
     7
 72
     1
  1
{B}
  7
GENERATED_STYLE_1
 73
     1
 44
1.0
  0
LINE
  5
175
330
E3
100
AcDbEntity
  8
Doc_ Floor
  6
Continuous
100
AcDbLine
 10
134.6529688927762
 20
97.86747288934407
 30
0.0
 11
135.6309665979268
 21
97.86747288934407
 31
0.0
  0
LINE
  5
176
330
E3
100
AcDbEntity
  8
Doc_ Floor
  6
Continuous
100
AcDbLine
 10
135.6309665979268
 20
97.86747288934407
 30
0.0
 11
151.6487535137396
 21
97.86747288934407
 31
0.0
  0
LINE
  5
177
330
E3
100
AcDbEntity
  8
Doc_ Floor
  6
Continuous
100
AcDbLine
 10
136.2083181231368
 20
98.86747122936453
 30
0.0
 11
135.053618682337
 21
96.86747093970342
 31
0.0
  0
LINE
  5
178
330
E3
100
AcDbEntity
  8
Doc_ Floor
  6
Continuous
100
AcDbLine
 10
135.6309665979268
 20
96.3674699648831
 30
0.0
 11
135.6309665979268
 21
99.36747220418485
 31
0.0
  0
LINE
  5
179
330
E3
100
AcDbEntity
  8
Doc_ Floor
  6
Continuous
100
AcDbLine
 10
151.6487535137396
 20
96.3674699648831
 30
0.0
 11
151.6487535137396
 21
99.36747220418485
 31
0.0
  0
LINE
  5
17A
330
E3
100
AcDbEntity
  8
Doc_ Floor
  6
Continuous
100
AcDbLine
 10
151.6487535137396
 20
97.86747288934407
 30
0.0
 11
167.6309676228844
 21
97.86747288934407
 31
0.0
  0
LINE
  5
17B
330
E3
100
AcDbEntity
  8
Doc_ Floor
  6
Continuous
100
AcDbLine
 10
152.2261050389496
 20
98.86747122936453
 30
0.0
 11
151.0714019885296
 21
96.86747093970342
 31
0.0
  0
LINE
  5
17C
330
E3
100
AcDbEntity
  8
Doc_ Floor
  6
Continuous
100
AcDbLine
 10
167.0536160976744
 20
96.86747093970342
 30
0.0
 11
168.2083155384742
 21
98.86747122936453
 31
0.0
  0
LINE
  5
17D
330
E3
100
AcDbEntity
  8
Doc_ Floor
  6
Continuous
100
AcDbLine
 10
167.6309676228844
 20
97.86747288934407
 30
0.0
 11
168.6089689376552
 21
97.86747288934407
 31
0.0
  0
LINE
  5
17E
330
E3
100
AcDbEntity
  8
Doc_ Floor
  6
Continuous
100
AcDbLine
 10
167.6309676228844
 20
96.3674699648831
 30
0.0
 11
167.6309676228844
 21
99.36747220418485
 31
0.0
  0
MTEXT
  5
17F
330
E3
100
AcDbEntity
  8
Doc_ Floor
  6
Continuous
100
AcDbMText
 10
137.3574980288884
 20
98.36747130082357
 30
0.0
 40
2.5
 41
0.0
 71
     7
 72
     1
  1
{80 MIN.}
  7
GENERATED_STYLE_1
 73
     1
 44
1.0
  0
MTEXT
  5
180
330
E3
100
AcDbEntity
  8
Doc_ Floor
  6
Continuous
100
AcDbMText
 10
153.3574980288884
 20
98.36747130082357
 30
0.0
 40
2.5
 41
0.0
 71
     7
 72
     1
  1
{80 MIN.}
  7
GENERATED_STYLE_1
 73
     1
 44
1.0
  0
MTEXT
  5
182
330
E3
100
AcDbEntity
  8
Doc_ Floor
  6
Continuous
100
AcDbMText
 10
73.20746058109886
 20
155.7198498865425
 30
0.0
 40
2.5
 41
56.68353220040039
 71
     6
 72
     1
  1
\A1;{\fCentury Gothic|b0|i0|c0|p34;TRS CORRUGATE\PMIN. ROOF PITCH 8\fArial|b0|i0|c0|p34;\H1.029412x;\U+00B0}
  7
GENERATED_STYLE_1
 73
     1
 44
1.056356172275314
  0
LINE
  5
183
330
E3
100
AcDbEntity
  8
Doc_ Floor
  6
Continuous
100
AcDbLine
 10
103.3406907486338
 20
130.7234195330121
 30
0.0
 11
101.0150016512562
 21
133.808767631356
 31
0.0
  0
LINE
  5
184
330
E3
100
AcDbEntity
  8
Doc_ Floor
  6
Continuous
100
AcDbLine
 10
103.3406907486338
 20
130.7234195330121
 30
0.0
 11
102.8692599173729
 21
134.5582547227138
 31
0.0
  0
LINE
  5
185
330
E3
100
AcDbEntity
  8
Doc_ Floor
  6
Continuous
100
AcDbLine
 10
101.0150016512562
 20
133.808767631356
 30
0.0
 11
102.8692599173729
 21
134.5582547227138
 31
0.0
  0
LWPOLYLINE
  5
186
330
E3
100
AcDbEntity
  8
Doc_ Floor
  6
Continuous
100
AcDbPolyline
 90
       17
 70
   128
 43
0.0
 10
101.9421318916013
 20
134.1835110722196
 10
100.6573885735286
 20
137.0752368111715
 10
99.3536244903108
 20
139.7259904518245
 10
98.02209627336961
 20
142.1432794878108
 10
96.6540605541265
 20
144.3346114127626
 10
95.24077396400301
 20
146.307493720312
 10
93.77349313442069
 20
148.0694339040913
 10
92.24347469680107
 20
149.6279394577325
 10
90.64197528256567
 20
150.9905178748679
 10
88.96025152313602
 20
152.1646766491296
 10
87.18956004993368
 20
153.1579232741499
 10
85.32115749438017
 20
153.9777652435608
 10
83.34630048789704
 20
154.6317100509945
 10
81.2562456619058
 20
155.1272651900832
 10
79.042249647828
 20
155.4719381544592
 10
76.69556907708517
 20
155.6732364377545
 10
74.20746058109886
 20
155.7386675336014
  0
MTEXT
  5
187
330
E3
100
AcDbEntity
  8
Doc_ Floor
  6
Continuous
100
AcDbMText
 10
84.61063592105417
 20
143.3735547292774
 30
0.0
 40
2.5
 41
0.0
 71
     6
 72
     1
  1
{UNDERLAY}
  7
GENERATED_STYLE_1
 73
     1
 44
1.0
  0
LINE
  5
188
330
E3
100
AcDbEntity
  8
Doc_ Floor
  6
Continuous
100
AcDbLine
 10
96.1912640939032
 20
126.4945582067416
 30
0.0
 11
94.50066600580072
 21
129.9687562463462
 31
0.0
  0
LINE
  5
189
330
E3
100
AcDbEntity
  8
Doc_ Floor
  6
Continuous
100
AcDbLine
 10
96.1912640939032
 20
126.4945582067416
 30
0.0
 11
96.46426327615715
 21
130.3486037949301
 31
0.0
  0
LINE
  5
18A
330
E3
100
AcDbEntity
  8
Doc_ Floor
  6
Continuous
100
AcDbLine
 10
94.50066600580072
 20
129.9687562463462
 30
0.0
 11
96.46426327615715
 21
130.3486037949301
 31
0.0
  0
LWPOLYLINE
  5
18B
330
E3
100
AcDbEntity
  8
Doc_ Floor
  6
Continuous
100
AcDbPolyline
 90
       12
 70
   128
 43
0.0
 10
95.48246556427382
 20
130.158680376093
 10
94.6625153387116
 20
133.5599382968309
 10
93.76899092298441
 20
136.3916191885203
 10
92.77953248648325
 20
138.6894998921392
 10
91.67178019859918
 20
140.4893572486652
 10
91.06655641332323
 20
141.213707434574
 10
90.42337422872319
 20
141.8269680990761
 10
89.73943866597294
 20
142.3336113472939
 10
89.01195474624635
 20
142.7381092843495
 10
88.23812749071729
 20
143.0449340153652
 10
87.41516192055965
 20
143.2585576454633
 10
85.61063592105417
 20
143.424090023395
  0
MTEXT
  5
18C
330
E3
100
AcDbEntity
  8
Doc_ Floor
  6
Continuous
100
AcDbMText
 10
78.03072071894049
 20
166.7695038187583
 30
0.0
 40
2.5
 41
0.0
 71
     6
 72
     1
  1
{ROOF FIXING}
  7
GENERATED_STYLE_1
 73
     1
 44
1.0
  0
LINE
  5
18D
330
E3
100
AcDbEntity
  8
Doc_ Floor
  6
Continuous
100
AcDbLine
 10
117.8786669551558
 20
132.2769314667118
 30
0.0
 11
115.16169142291
 21
135.023975134883
 31
0.0
  0
LINE
  5
18E
330
E3
100
AcDbEntity
  8
Doc_ Floor
  6
Continuous
100
AcDbLine
 10
117.8786669551558
 20
132.2769314667118
 30
0.0
 11
116.8992217923213
 21
136.0144260295826
 31
0.0
  0
LINE
  5
18F
330
E3
100
AcDbEntity
  8
Doc_ Floor
  6
Continuous
100
AcDbLine
 10
115.16169142291
 20
135.023975134883
 30
0.0
 11
116.8992217923213
 21
136.0144260295826
 31
0.0
  0
LWPOLYLINE
  5
190
330
E3
100
AcDbEntity
  8
Doc_ Floor
  6
Continuous
100
AcDbPolyline
 90
       17
 70
   128
 43
0.0
 10
116.0304562306249
 20
135.5192013624809
 10
113.5384707939494
 20
139.7211144162615
 10
111.1286122550532
 20
143.5716508284009
 10
108.7884106206177
 20
147.0818885652937
 10
106.5053958973245
 20
150.2629055933346
 10
104.2670980918548
 20
153.1257798789179
 10
102.0610472108903
 20
155.6815893884385
 10
99.87477326111228
 20
157.9414120882907
 10
97.6958062492022
 20
159.9163259448693
 10
95.51167618184154
 20
161.6174089245687
 10
93.30991306571167
 20
163.0557389937836
 10
91.07804690749407
 20
164.2423941189085
 10
88.80360771387019
 20
165.188452266338
 10
86.47412549152145
 20
165.9049914024667
 10
84.0771302471293
 20
166.4030894936891
 10
81.60015198737517
 20
166.6938245063999
 10
79.03072071894049
 20
166.7882744069936
  0
MTEXT
  5
191
330
E3
100
AcDbEntity
  8
Doc_ Floor
  6
Continuous
100
AcDbMText
 10
199.5846598040943
 20
143.502746323124
 30
0.0
 40
2.5
 41
0.0
 71
     4
 72
     1
  1
{METAL HIDDEN GUTTER}
  7
GENERATED_STYLE_1
 73
     1
 44
1.0
  0
LINE
  5
192
330
E3
100
AcDbEntity
  8
Doc_ Floor
  6
Continuous
100
AcDbLine
 10
158.6006906303248
 20
114.9903053110479
 30
0.0
 11
160.8681709930166
 21
118.1186800816883
 31
0.0
  0
LINE
  5
193
330
E3
100
AcDbEntity
  8
Doc_ Floor
  6
Continuous
100
AcDbLine
 10
158.6006906303248
 20
114.9903053110479
 30
0.0
 11
162.1285745505558
 21
116.5658178796173
 31
0.0
  0
LINE
  5
194
330
E3
100
AcDbEntity
  8
Doc_ Floor
  6
Continuous
100
AcDbLine
 10
160.8681709930166
 20
118.1186800816883
 30
0.0
 11
162.1285745505558
 21
116.5658178796173
 31
0.0
  0
LWPOLYLINE
  5
195
330
E3
100
AcDbEntity
  8
Doc_ Floor
  6
Continuous
100
AcDbPolyline
 90
        9
 70
   128
 43
0.0
 10
161.4983716995332
 20
117.342249241487
 10
176.9887945973551
 20
129.6898624257524
 10
182.9182268235236
 20
134.226681705624
 10
187.7763750371021
 20
137.7715298416212
 10
191.6676658400196
 20
140.3989221319687
 10
194.6965258342049
 20
142.1833738748911
 10
196.9673816215868
 20
143.1994003686131
 10
197.8511912508293
 20
143.4425401777191
 10
198.5846598040943
 20
143.5215169113593
  0
MTEXT
  5
196
330
E3
100
AcDbEntity
  8
Doc_ Floor
  6
Continuous
100
AcDbMText
 10
220.8087086944494
 20
104.3041952799212
 30
0.0
 40
2.5
 41
0.0
 71
     6
 72
     1
  1
{UNDERLAY}
  7
GENERATED_STYLE_1
 73
     1
 44
1.0
  0
LINE
  5
197
330
E3
100
AcDbEntity
  8
Doc_ Floor
  6
Continuous
100
AcDbLine
 10
168.5680719412524
 20
114.1634568404399
 30
0.0
 11
172.4115088557932
 21
113.768250358079
 31
0.0
  0
LINE
  5
198
330
E3
100
AcDbEntity
  8
Doc_ Floor
  6
Continuous
100
AcDbLine
 10
168.5680719412524
 20
114.1634568404399
 30
0.0
 11
171.6989806652446
 21
111.8994778093025
 31
0.0
  0
LINE
  5
199
330
E3
100
AcDbEntity
  8
Doc_ Floor
  6
Continuous
100
AcDbLine
 10
172.4115088557932
 20
113.768250358079
 30
0.0
 11
171.6989806652446
 21
111.8994778093025
 31
0.0
  0
LWPOLYLINE
  5
19A
330
E3
100
AcDbEntity
  8
Doc_ Floor
  6
Continuous
100
AcDbPolyline
 90
        6
 70
   128
 43
0.0
 10
172.0552446806111
 20
112.8338638930918
 10
182.7261589098906
 20
108.8404245833714
 10
190.1474602588489
 20
106.2222308081268
 10
194.8767003305841
 20
104.7900702456014
 10
196.4060322634612
 20
104.4596235685596
 10
197.4714307281941
 20
104.3547305740389
  0
MTEXT
  5
19B
330
E3
100
AcDbEntity
  8
Doc_ Floor
  6
Continuous
100
AcDbMText
 10
198.8634527114357
 20
85.60938523449802
 30
0.0
 40
2.499999999999999
 41
0.0
 71
     4
 72
     1
  1
{SOLID SUPPORT FOR HIDDEN GUTTER}
  7
GENERATED_STYLE_1
 73
     1
 44
1.0
  0
LINE
  5
19C
330
E3
100
AcDbEntity
  8
Doc_ Floor
  6
Continuous
100
AcDbLine
 10
153.5751356002556
 20
112.4920474931033
 30
0.0
 11
157.1224609346636
 21
110.9608105254055
 31
0.0
  0
LINE
  5
19D
330
E3
100
AcDbEntity
  8
Doc_ Floor
  6
Continuous
100
AcDbLine
 10
153.5751356002556
 20
112.4920474931033
 30
0.0
 11
155.8815926414255
 21
109.3922934007044
 31
0.0
  0
LINE
  5
19E
330
E3
100
AcDbEntity
  8
Doc_ Floor
  6
Continuous
100
AcDbLine
 10
157.1224609346636
 20
110.9608105254055
 30
0.0
 11
155.8815926414255
 21
109.3922934007044
 31
0.0
  0
LWPOLYLINE
  5
19F
330
E3
100
AcDbEntity
  8
Doc_ Floor
  6
Continuous
100
AcDbPolyline
 90
       12
 70
   128
 43
0.0
 10
156.5020281391087
 20
110.1765529273228
 10
164.6593725617214
 20
103.8531811442045
 10
171.7331712593182
 20
98.59931149519609
 10
177.838459044254
 20
94.34516750539191
 10
183.0902707288836
 20
91.0209726998862
 10
187.6036411255617
 20
88.55695060377322
 10
189.6193592197799
 20
87.62569917333096
 10
191.4936050466433
 20
86.88332474214722
 10
193.2407579576962
 20
86.32110525085884
 10
194.875197304483
 20
85.9303186401025
 10
196.411302438548
 20
85.70224285051509
 10
197.8634527114357
 20
85.62815582273332
  0
MTEXT
  5
1A0
330
E3
100
AcDbEntity
  8
Doc_ Floor
  6
Continuous
100
AcDbMText
 10
111.4764557867262
 20
180.8908537492673
 30
0.0
 40
2.5
 41
56.71228972547952
 71
     6
 72
     1
  1
{CLADDING ON CAVITY BATTENS WITH BUILDING WRAP OVER METAL HIDDEN GUTTER}
  7
GENERATED_STYLE_1
 73
     1
 44
1.065340909090909
  0
LINE
  5
1A1
330
E3
100
AcDbEntity
  8
Doc_ Floor
  6
Continuous
100
AcDbLine
 10
158.307867414157
 20
160.9689394122912
 30
0.0
 11
154.7188834534926
 21
162.3998181107051
 31
0.0
  0
LINE
  5
1A2
330
E3
100
AcDbEntity
  8
Doc_ Floor
  6
Continuous
100
AcDbLine
 10
158.307867414157
 20
160.9689394122912
 30
0.0
 11
155.9151548896649
 21
164.002608578817
 31
0.0
  0
LINE
  5
1A3
330
E3
100
AcDbEntity
  8
Doc_ Floor
  6
Continuous
100
AcDbLine
 10
154.7188834534926
 20
162.3998181107051
 30
0.0
 11
155.9151548896649
 21
164.002608578817
 31
0.0
  0
LWPOLYLINE
  5
1A4
330
E3
100
AcDbEntity
  8
Doc_ Floor
  6
Continuous
100
AcDbPolyline
 90
       15
 70
   128
 43
0.0
 10
155.317019857806
 20
163.201213177669
 10
148.8843857445985
 20
167.7587274089904
 10
142.9887753179524
 20
171.5468381518251
 10
140.2065495541147
 20
173.1679452792594
 10
137.5156143923473
 20
174.6153952116112
 10
134.9016480594601
 20
175.8954191745605
 10
132.350328782263
 20
177.0142483937869
 10
129.847334787566
 20
177.9781140949703
 10
127.3783443021791
 20
178.7932475037904
 10
124.9290355529121
 20
179.465879845927
 10
122.4850867665752
 20
180.0022423470599
 10
120.0321761699781
 20
180.4085662328688
 10
117.555981989931
 20
180.6910827290336
 10
115.0421824532437
 20
180.856023061234
 10
112.4764557867262
 20
180.9096184551497
  0
MTEXT
  5
1A5
330
E3
100
AcDbEntity
  8
Doc_ Floor
  6
Continuous
100
AcDbMText
 10
199.5846598040943
 20
172.5307261741983
 30
0.0
 40
2.499999999999999
 41
0.0
 71
     4
 72
     1
  1
{HEM TO FLASHING EDGE}
  7
GENERATED_STYLE_1
 73
     1
 44
1.0
  0
LINE
  5
1A6
330
E3
100
AcDbEntity
  8
Doc_ Floor
  6
Continuous
100
AcDbLine
 10
167.6309676228844
 20
151.2895480361383
 30
0.0
 11
169.8956397010923
 21
154.4199586325485
 31
0.0
  0
LINE
  5
1A7
330
E3
100
AcDbEntity
  8
Doc_ Floor
  6
Continuous
100
AcDbLine
 10
167.6309676228844
 20
151.2895480361383
 30
0.0
 11
171.157436572013
 21
152.8682262415873
 31
0.0
  0
LINE
  5
1A8
330
E3
100
AcDbEntity
  8
Doc_ Floor
  6
Continuous
100
AcDbLine
 10
169.8956397010923
 20
154.4199586325485
 30
0.0
 11
171.157436572013
 21
152.8682262415873
 31
0.0
  0
LWPOLYLINE
  5
1A9
330
E3
100
AcDbEntity
  8
Doc_ Floor
  6
Continuous
100
AcDbPolyline
 90
        9
 70
   128
 43
0.0
 10
170.526536738393
 20
153.6440929086401
 10
181.7718737800494
 20
162.5541313062839
 10
186.1430386715481
 20
165.830119435805
 10
189.7832289091054
 20
168.3910784315267
 10
192.76996531693
 20
170.2902519777496
 10
195.1807687192305
 20
171.5808837587745
 10
197.0931599402157
 20
172.3162174589023
 10
197.8866762402803
 20
172.4922861799737
 10
198.5846598040943
 20
172.5494967624336
  0
MTEXT
  5
1AA
330
E3
100
AcDbEntity
  8
0
  6
Continuous
100
AcDbMText
 10
42.0836279444616
 20
48.06293888957747
 30
0.0
 40
2.499999999999999
 41
69.01187578516154
 71
     7
 72
     1
  1
\A1;{\fCentury Gothic|b0|i0|c0|p34;LOW, MEDIUM OR HIGH WIND ZONE.\P ROOF PITCH \fArial|b0|i0|c0|p34;\H1.029412x;\U+2265\fCentury Gothic|b0|i0|c0|p34;\H0.971429x; 10\fArial|b0|i0|c0|p34;\H1.029412x;\U+00B0}
  7
GENERATED_STYLE_1
 73
     1
 44
1.056355725756043
  0
MTEXT
  5
1AB
330
E3
100
AcDbEntity
  8
0
  6
Continuous
100
AcDbMText
 10
42.0836279444616
 20
37.6400865034502
 30
0.0
 40
2.5
 41
69.01187578516154
 71
     7
 72
     1
  1
\A1;{\fCentury Gothic|b0|i0|c0|p34;VERY HIGH OR EXTRA WIND ZONE.\P ROOF PITCH \fArial|b0|i0|c0|p34;\H1.029412x;<\fCentury Gothic|b0|i0|c0|p34;\H0.971429x; 10\fArial|b0|i0|c0|p34;\H1.029412x;\U+00B0}
  7
GENERATED_STYLE_1
 73
     1
 44
1.056355725756044
  0
MTEXT
  5
1AC
330
E3
100
AcDbEntity
  8
0
  6
Continuous
100
AcDbMText
 10
126.5829620010497
 20
50.1027666210229
 30
0.0
 40
2.499999999999999
 41
0.0
 71
     8
 72
     1
  1
{75MM}
  7
GENERATED_STYLE_1
 73
     1
 44
1.0
  0
MTEXT
  5
1AD
330
E3
100
AcDbEntity
  8
0
  6
Continuous
100
AcDbMText
 10
126.5829620010497
 20
38.86398709956514
 30
0.0
 40
2.499999999999999
 41
0.0
 71
     8
 72
     1
  1
{100MM}
  7
GENERATED_STYLE_1
 73
     1
 44
1.0
  0
MTEXT
  5
1AE
330
E3
100
AcDbEntity
  8
0
  6
Continuous
100
AcDbMText
 10
126.5829620010497
 20
59.98483282917054
 30
0.0
 40
2.499999999999999
 41
0.0
 71
     8
 72
     1
  1
{B}
  7
GENERATED_STYLE_1
 73
     1
 44
1.0
  0
MTEXT
  5
1AF
330
E3
100
AcDbEntity
  8
0
  6
Continuous
100
AcDbMText
 10
160.8567875075116
 20
46.51192937361961
 30
0.0
 40
2.499999999999999
 41
0.0
 71
     7
 72
     1
  1
\A1;{\fCentury Gothic|b0|i0|c0|p34;ROOF PITCH \fArial|b0|i0|c0|p34;\H1.029412x;\U+2265\fCentury Gothic|b0|i0|c0|p34;\H0.971429x; 12\fArial|b0|i0|c0|p34;\H1.029412x;\U+00B0}
  7
GENERATED_STYLE_1
 73
     1
 44
1.0
  0
MTEXT
  5
1B0
330
E3
100
AcDbEntity
  8
0
  6
Continuous
100
AcDbMText
 10
160.8567875075116
 20
38.35693337624465
 30
0.0
 40
2.5
 41
0.0
 71
     7
 72
     1
  1
\A1;{\fCentury Gothic|b0|i0|c0|p34;ROOF PITCH \fArial|b0|i0|c0|p34;\H1.029412x;<\fCentury Gothic|b0|i0|c0|p34;\H0.971429x; 12\fArial|b0|i0|c0|p34;\H1.029412x;\U+00B0}
  7
GENERATED_STYLE_1
 73
     1
 44
1.0
  0
MTEXT
  5
1B1
330
E3
100
AcDbEntity
  8
0
  6
Continuous
100
AcDbMText
 10
217.3561215640997
 20
46.51192937361961
 30
0.0
 40
2.499999999999999
 41
0.0
 71
     8
 72
     1
  1
{20MM}
  7
GENERATED_STYLE_1
 73
     1
 44
1.0
  0
MTEXT
  5
1B2
330
E3
100
AcDbEntity
  8
0
  6
Continuous
100
AcDbMText
 10
217.3561215640997
 20
38.43900243752393
 30
0.0
 40
2.499999999999999
 41
0.0
 71
     8
 72
     1
  1
{45MM}
  7
GENERATED_STYLE_1
 73
     1
 44
1.0
  0
MTEXT
  5
1B3
330
E3
100
AcDbEntity
  8
0
  6
Continuous
100
AcDbMText
 10
217.3561215640997
 20
54.63637772953227
 30
0.0
 40
2.499999999999999
 41
0.0
 71
     8
 72
     1
  1
{A}
  7
GENERATED_STYLE_1
 73
     1
 44
1.0
  0
HATCH
  5
1B4
330
E3
100
AcDbEntity
  8
0
  6
Continuous
 62
   255
370
     0
100
AcDbHatch
 10
0.0
 20
0.0
 30
0.0
210
0.0
220
0.0
230
1.0
  2
SOLID
 70
     1
 71
     0
 91
        1
 92
        3
 72
     0
 73
     1
 93
        4
 10
118.3419732505908
 20
132.153008052186
 10
116.8419732505908
 20
132.153008052186
 10
116.8419732505908
 20
131.653008052186
 10
118.3419732505908
 20
131.653008052186
 97
        0
 75
     0
 76
     1
 98
        0
  0
HATCH
  5
1B5
330
E3
100
AcDbEntity
  8
0
  6
Continuous
 62
   255
370
     0
100
AcDbHatch
 10
0.0
 20
0.0
 30
0.0
210
0.0
220
0.0
230
1.0
  2
SOLID
 70
     1
 71
     0
 91
        1
 92
        3
 72
     1
 73
     1
 93
        4
 10
118.0919732505908
 20
132.0696747188527
 42
0.1666666666666667
 10
117.0919732505908
 20
132.0696747188527
 42
0.0
 10
117.0919732505908
 20
131.7363413855193
 42
0.1666666666666667
 10
118.0919732505908
 20
131.7363413855193
 42
0.0
 97
        0
 75
     0
 76
     1
 98
        0
  0
ARC
  5
1B6
330
E3
100
AcDbEntity
  8
0
  6
Continuous
100
AcDbCircle
 10
117.5919732505908
 20
130.6113413855193
 30
0.0
 40
1.541666666666673
100
AcDbArc
 50
71.07535558394882
 51
108.9246444160512
  0
LINE
  5
1B7
330
E3
100
AcDbEntity
  8
0
  6
Continuous
100
AcDbLine
 10
117.0919718991978
 20
132.0696742964158
 30
0.0
 11
117.0919718991978
 21
131.7363403132022
 31
0.0
  0
ARC
  5
1B8
330
E3
100
AcDbEntity
  8
0
  6
Continuous
100
AcDbCircle
 10
117.5919732505908
 20
133.1946747188527
 30
0.0
 40
1.541666666666673
100
AcDbArc
 50
251.0753555839488
 51
288.9246444160512
  0
LINE
  5
1B9
330
E3
100
AcDbEntity
  8
0
  6
Continuous
100
AcDbLine
 10
118.0919738488385
 20
131.7363403132022
 30
0.0
 11
118.0919738488385
 21
132.0696742964158
 31
0.0
  0
HATCH
  5
1BA
330
E3
100
AcDbEntity
  8
0
  6
Continuous
 62
   255
370
     0
100
AcDbHatch
 10
0.0
 20
0.0
 30
0.0
210
0.0
220
0.0
230
1.0
  2
SOLID
 70
     1
 71
     0
 91
        1
 92
        3
 72
     1
 73
     1
 93
        4
 10
118.5919732505908
 20
132.0696747188527
 42
0.3333333333333333
 10
118.0919732505908
 20
132.0696747188527
 42
0.0
 10
118.0919732505908
 20
131.7363413855193
 42
0.3333333333333333
 10
118.5919732505908
 20
131.7363413855193
 42
0.0
 97
        0
 75
     0
 76
     1
 98
        0
  0
ARC
  5
1BB
330
E3
100
AcDbEntity
  8
0
  6
Continuous
100
AcDbCircle
 10
118.3419732505908
 20
131.7363413855194
 30
0.0
 40
0.4166666666666596
100
AcDbArc
 50
53.13010235415521
 51
126.8698976458448
  0
LINE
  5
1BC
330
E3
100
AcDbEntity
  8
0
  6
Continuous
100
AcDbLine
 10
118.0919738488385
 20
132.0696742964158
 30
0.0
 11
118.0919738488385
 21
131.7363403132022
 31
0.0
  0
ARC
  5
1BD
330
E3
100
AcDbEntity
  8
0
  6
Continuous
100
AcDbCircle
 10
118.3419732505908
 20
132.0696747188526
 30
0.0
 40
0.4166666666666596
100
AcDbArc
 50
233.1301023541552
 51
306.8698976458448
  0
LINE
  5
1BE
330
E3
100
AcDbEntity
  8
0
  6
Continuous
100
AcDbLine
 10
118.5919748236588
 20
131.7363403132022
 30
0.0
 11
118.5919748236588
 21
132.0696742964158
 31
0.0
  0
HATCH
  5
1BF
330
E3
100
AcDbEntity
  8
0
  6
Continuous
 62
   255
370
     0
100
AcDbHatch
 10
0.0
 20
0.0
 30
0.0
210
0.0
220
0.0
230
1.0
  2
SOLID
 70
     1
 71
     0
 91
        1
 92
        3
 72
     1
 73
     1
 93
        4
 10
116.5919732505908
 20
132.0696747188527
 42
0.0
 10
116.5919732505908
 20
131.7363413855193
 42
0.3333333333333333
 10
117.0919732505908
 20
131.7363413855193
 42
0.0
 10
117.0919732505908
 20
132.0696747188527
 42
0.3333333333333333
 97
        0
 75
     0
 76
     1
 98
        0
  0
LINE
  5
1C0
330
E3
100
AcDbEntity
  8
0
  6
Continuous
100
AcDbLine
 10
116.5919745339977
 20
131.7363403132022
 30
0.0
 11
116.5919745339977
 21
132.0696742964158
 31
0.0
  0
ARC
  5
1C1
330
E3
100
AcDbEntity
  8
0
  6
Continuous
100
AcDbCircle
 10
116.8419732505908
 20
132.0696747188526
 30
0.0
 40
0.4166666666666596
100
AcDbArc
 50
233.1301023541552
 51
306.8698976458448
  0
LINE
  5
1C2
330
E3
100
AcDbEntity
  8
0
  6
Continuous
100
AcDbLine
 10
117.0919718991978
 20
132.0696742964158
 30
0.0
 11
117.0919718991978
 21
131.7363403132022
 31
0.0
  0
ARC
  5
1C3
330
E3
100
AcDbEntity
  8
0
  6
Continuous
100
AcDbCircle
 10
116.8419732505908
 20
131.7363413855194
 30
0.0
 40
0.4166666666666596
100
AcDbArc
 50
53.13010235415521
 51
126.8698976458448
  0
HATCH
  5
1C4
330
E3
100
AcDbEntity
  8
0
  6
Continuous
 62
   255
370
     0
100
AcDbHatch
 10
0.0
 20
0.0
 30
0.0
210
0.0
220
0.0
230
1.0
  2
SOLID
 70
     1
 71
     0
 91
        1
 92
        3
 72
     0
 73
     1
 93
        4
 10
117.2586402505908
 20
131.653008052186
 10
117.2586402505908
 20
130.053008052186
 10
117.9253062505908
 20
130.053008052186
 10
117.9253062505908
 20
131.653008052186
 97
        0
 75
     0
 76
     1
 98
        0
  0
LINE
  5
1C5
330
E3
100
AcDbEntity
  8
0
  6
Continuous
100
AcDbLine
 10
117.2586388908046
 20
131.6530086222089
 30
0.0
 11
117.2586388908046
 21
130.05300839048
 31
0.0
  0
LINE
  5
1C6
330
E3
100
AcDbEntity
  8
0
  6
Continuous
100
AcDbLine
 10
117.2586388908046
 20
130.05300839048
 30
0.0
 11
117.9253068572317
 21
130.05300839048
 31
0.0
  0
LINE
  5
1C7
330
E3
100
AcDbEntity
  8
0
  6
Continuous
100
AcDbLine
 10
117.9253068572317
 20
130.05300839048
 30
0.0
 11
117.9253068572317
 21
131.6530086222089
 31
0.0
  0
LINE
  5
1C8
330
E3
100
AcDbEntity
  8
0
  6
Continuous
100
AcDbLine
 10
117.9253068572317
 20
131.6530086222089
 30
0.0
 11
117.2586388908046
 21
131.6530086222089
 31
0.0
  0
HATCH
  5
1C9
330
E3
100
AcDbEntity
  8
0
  6
Continuous
 62
   255
370
     0
100
AcDbHatch
 10
0.0
 20
0.0
 30
0.0
210
0.0
220
0.0
230
1.0
  2
SOLID
 70
     1
 71
     0
 91
        1
 92
        3
 72
     0
 73
     1
 93
        5
 10
117.2919732505908
 20
130.053008052186
 10
117.2919732505908
 20
121.653008052186
 10
117.5919732505908
 20
121.053008052186
 10
117.8919732505908
 20
121.653008052186
 10
117.8919732505908
 20
130.053008052186
 97
        0
 75
     0
 76
     1
 98
        0
  0
LINE
  5
1CA
330
E3
100
AcDbEntity
  8
0
  6
Continuous
100
AcDbLine
 10
117.291973732974
 20
130.05300839048
 30
0.0
 11
117.291973732974
 21
121.6530071739034
 31
0.0
  0
LINE
  5
1CB
330
E3
100
AcDbEntity
  8
0
  6
Continuous
100
AcDbLine
 10
117.291973732974
 20
121.6530071739034
 30
0.0
 11
117.5919728740181
 21
121.0530088918152
 31
0.0
  0
LINE
  5
1CC
330
E3
100
AcDbEntity
  8
0
  6
Continuous
100
AcDbLine
 10
117.5919728740181
 20
121.0530088918152
 30
0.0
 11
117.8919720150623
 21
121.6530071739034
 31
0.0
  0
LINE
  5
1CD
330
E3
100
AcDbEntity
  8
0
  6
Continuous
100
AcDbLine
 10
117.8919720150623
 20
121.6530071739034
 30
0.0
 11
117.8919720150623
 21
130.05300839048
 31
0.0
  0
LINE
  5
1CE
330
E3
100
AcDbEntity
  8
0
  6
Continuous
100
AcDbLine
 10
117.8919720150623
 20
130.05300839048
 30
0.0
 11
117.291973732974
 21
130.05300839048
 31
0.0
  0
LINE
  5
1CF
330
E3
100
AcDbEntity
  8
0
  6
Continuous
100
AcDbLine
 10
118.3419725314385
 20
132.1530095970292
 30
0.0
 11
116.8419732165977
 21
132.1530095970292
 31
0.0
  0
LINE
  5
1D0
330
E3
100
AcDbEntity
  8
0
  6
Continuous
100
AcDbLine
 10
116.8419732165977
 20
131.6530086222089
 30
0.0
 11
118.3419725314385
 21
131.6530086222089
 31
0.0
  0
LINE
  5
1D1
330
E3
100
AcDbEntity
  8
0
  6
Continuous
100
AcDbLine
 10
118.0919732505908
 20
130.053008052186
 30
0.0
 11
118.0900705996366
 21
130.0475732695773
 31
0.0
  0
LINE
  5
1D2
330
E3
100
AcDbEntity
  8
0
  6
Continuous
100
AcDbLine
 10
118.0900705996366
 20
130.0475732695773
 30
0.0
 11
118.0843771270969
 21
130.0421384869686
 31
0.0
  0
LINE
  5
1D3
330
E3
100
AcDbEntity
  8
0
  6
Continuous
100
AcDbLine
 10
118.0843771270969
 20
130.0421384869686
 30
0.0
 11
118.0749364416874
 21
130.0367037362213
 31
0.0
  0
LINE
  5
1D4
330
E3
100
AcDbEntity
  8
0
  6
Continuous
100
AcDbLine
 10
118.0749364416874
 20
130.0367037362213
 30
0.0
 11
118.0618190820292
 21
130.0312676482617
 31
0.0
  0
LINE
  5
1D5
330
E3
100
AcDbEntity
  8
0
  6
Continuous
100
AcDbLine
 10
118.0618190820292
 20
130.0312676482617
 30
0.0
 11
118.0451281984135
 21
130.0258351699222
 31
0.0
  0
LINE
  5
1D6
330
E3
100
AcDbEntity
  8
0
  6
Continuous
100
AcDbLine
 10
118.0451281984135
 20
130.0258351699222
 30
0.0
 11
118.0249865179256
 21
130.0203990819626
 31
0.0
  0
LINE
  5
1D7
330
E3
100
AcDbEntity
  8
0
  6
Continuous
100
AcDbLine
 10
118.0249865179256
 20
130.0203990819626
 30
0.0
 11
118.0015492542325
 21
130.014962994003
 31
0.0
  0
LINE
  5
1D8
330
E3
100
AcDbEntity
  8
0
  6
Continuous
100
AcDbLine
 10
118.0015492542325
 20
130.014962994003
 30
0.0
 11
117.974996888342
 21
130.0095305156635
 31
0.0
  0
LINE
  5
1D9
330
E3
100
AcDbEntity
  8
0
  6
Continuous
100
AcDbLine
 10
117.974996888342
 20
130.0095305156635
 30
0.0
 11
117.945527949363
 21
130.0040944277039
 31
0.0
  0
LINE
  5
1DA
330
E3
100
AcDbEntity
  8
0
  6
Continuous
100
AcDbLine
 10
117.945527949363
 20
130.0040944277039
 30
0.0
 11
117.9133662337453
 21
129.9986619493644
 31
0.0
  0
LINE
  5
1DB
330
E3
100
AcDbEntity
  8
0
  6
Continuous
100
AcDbLine
 10
117.9133662337453
 20
129.9986619493644
 30
0.0
 11
117.8787608052799
 21
129.9932258614048
 31
0.0
  0
LINE
  5
1DC
330
E3
100
AcDbEntity
  8
0
  6
Continuous
100
AcDbLine
 10
117.8787608052799
 20
129.9932258614048
 30
0.0
 11
117.8419715566182
 21
129.9877897734452
 31
0.0
  0
LINE
  5
1DD
330
E3
100
AcDbEntity
  8
0
  6
Continuous
100
AcDbLine
 10
117.8419715566182
 20
129.9877897734452
 30
0.0
 11
117.8032836477528
 21
129.9823572951057
 31
0.0
  0
LINE
  5
1DE
330
E3
100
AcDbEntity
  8
0
  6
Continuous
100
AcDbLine
 10
117.8032836477528
 20
129.9823572951057
 30
0.0
 11
117.7629822386763
 21
129.9769212071461
 31
0.0
  0
LINE
  5
1DF
330
E3
100
AcDbEntity
  8
0
  6
Continuous
100
AcDbLine
 10
117.7629822386763
 20
129.9769212071461
 30
0.0
 11
117.7213813663425
 21
129.9714851191864
 31
0.0
  0
LINE
  5
1E0
330
E3
100
AcDbEntity
  8
0
  6
Continuous
100
AcDbLine
 10
117.7213813663425
 20
129.9714851191864
 30
0.0
 11
117.6787986773255
 21
129.966052640847
 31
0.0
  0
LINE
  5
1E1
330
E3
100
AcDbEntity
  8
0
  6
Continuous
100
AcDbLine
 10
117.6787986773255
 20
129.966052640847
 30
0.0
 11
117.6355518181991
 21
129.9606165528874
 31
0.0
  0
LINE
  5
1E2
330
E3
100
AcDbEntity
  8
0
  6
Continuous
100
AcDbLine
 10
117.6355518181991
 20
129.9606165528874
 30
0.0
 11
117.5919728740181
 21
129.9551804649277
 31
0.0
  0
LINE
  5
1E3
330
E3
100
AcDbEntity
  8
0
  6
Continuous
100
AcDbLine
 10
117.5919728740181
 20
129.9551804649277
 30
0.0
 11
117.5483939298371
 21
129.9497479865882
 31
0.0
  0
LINE
  5
1E4
330
E3
100
AcDbEntity
  8
0
  6
Continuous
100
AcDbLine
 10
117.5483939298371
 20
129.9497479865882
 30
0.0
 11
117.505150680331
 21
129.9443118986287
 31
0.0
  0
LINE
  5
1E5
330
E3
100
AcDbEntity
  8
0
  6
Continuous
100
AcDbLine
 10
117.505150680331
 20
129.9443118986287
 30
0.0
 11
117.4625643816937
 21
129.9388794202892
 31
0.0
  0
LINE
  5
1E6
330
E3
100
AcDbEntity
  8
0
  6
Continuous
100
AcDbLine
 10
117.4625643816937
 20
129.9388794202892
 30
0.0
 11
117.42096350936
 21
129.9334433323295
 31
0.0
  0
LINE
  5
1E7
330
E3
100
AcDbEntity
  8
0
  6
Continuous
100
AcDbLine
 10
117.42096350936
 20
129.9334433323295
 30
0.0
 11
117.3806657099036
 21
129.9280072443699
 31
0.0
  0
LINE
  5
1E8
330
E3
100
AcDbEntity
  8
0
  6
Continuous
100
AcDbLine
 10
117.3806657099036
 20
129.9280072443699
 30
0.0
 11
117.341974191418
 21
129.9225747660305
 31
0.0
  0
LINE
  5
1E9
330
E3
100
AcDbEntity
  8
0
  6
Continuous
100
AcDbLine
 10
117.341974191418
 20
129.9225747660305
 30
0.0
 11
117.3051849427564
 21
129.9171386780708
 31
0.0
  0
LINE
  5
1EA
330
E3
100
AcDbEntity
  8
0
  6
Continuous
100
AcDbLine
 10
117.3051849427564
 20
129.9171386780708
 30
0.0
 11
117.2705795142909
 21
129.9117025901112
 31
0.0
  0
LINE
  5
1EB
330
E3
100
AcDbEntity
  8
0
  6
Continuous
100
AcDbLine
 10
117.2705795142909
 20
129.9117025901112
 30
0.0
 11
117.2384214082934
 21
129.9062701117718
 31
0.0
  0
LINE
  5
1EC
330
E3
100
AcDbEntity
  8
0
  6
Continuous
100
AcDbLine
 10
117.2384214082934
 20
129.9062701117718
 30
0.0
 11
117.2089524693144
 21
129.9008340238121
 31
0.0
  0
LINE
  5
1ED
330
E3
100
AcDbEntity
  8
0
  6
Continuous
100
AcDbLine
 10
117.2089524693144
 20
129.9008340238121
 30
0.0
 11
117.1823964938038
 21
129.8953979358525
 31
0.0
  0
LINE
  5
1EE
330
E3
100
AcDbEntity
  8
0
  6
Continuous
100
AcDbLine
 10
117.1823964938038
 20
129.8953979358525
 30
0.0
 11
117.1589592301107
 21
129.889965457513
 31
0.0
  0
LINE
  5
1EF
330
E3
100
AcDbEntity
  8
0
  6
Continuous
100
AcDbLine
 10
117.1589592301107
 20
129.889965457513
 30
0.0
 11
117.138821159243
 21
129.8845293695534
 31
0.0
  0
LINE
  5
1F0
330
E3
100
AcDbEntity
  8
0
  6
Continuous
100
AcDbLine
 10
117.138821159243
 20
129.8845293695534
 30
0.0
 11
117.122126666007
 21
129.8790932815938
 31
0.0
  0
LINE
  5
1F1
330
E3
100
AcDbEntity
  8
0
  6
Continuous
100
AcDbLine
 10
117.122126666007
 20
129.8790932815938
 30
0.0
 11
117.1090093063488
 21
129.8736608032543
 31
0.0
  0
LINE
  5
1F2
330
E3
100
AcDbEntity
  8
0
  6
Continuous
100
AcDbLine
 10
117.1090093063488
 20
129.8736608032543
 30
0.0
 11
117.0995701496328
 21
129.8682247152947
 31
0.0
  0
LINE
  5
1F3
330
E3
100
AcDbEntity
  8
0
  6
Continuous
100
AcDbLine
 10
117.0995701496328
 20
129.8682247152947
 30
0.0
 11
117.0938759015449
 21
129.8627906608816
 31
0.0
  0
LINE
  5
1F4
330
E3
100
AcDbEntity
  8
0
  6
Continuous
100
AcDbLine
 10
117.0938759015449
 20
129.8627906608816
 30
0.0
 11
117.0919732505908
 21
129.857355878273
 31
0.0
  0
LINE
  5
1F5
330
E3
100
AcDbEntity
  8
0
  6
Continuous
100
AcDbLine
 10
118.0919732505908
 20
129.6617037043599
 30
0.0
 11
118.0900705996366
 21
129.6562689217512
 31
0.0
  0
LINE
  5
1F6
330
E3
100
AcDbEntity
  8
0
  6
Continuous
100
AcDbLine
 10
118.0900705996366
 20
129.6562689217512
 30
0.0
 11
118.0843771270969
 21
129.6508341391425
 31
0.0
  0
LINE
  5
1F7
330
E3
100
AcDbEntity
  8
0
  6
Continuous
100
AcDbLine
 10
118.0843771270969
 20
129.6508341391425
 30
0.0
 11
118.0749364416874
 21
129.6453992532524
 31
0.0
  0
LINE
  5
1F8
330
E3
100
AcDbEntity
  8
0
  6
Continuous
100
AcDbLine
 10
118.0749364416874
 20
129.6453992532524
 30
0.0
 11
118.0618190820292
 21
129.6399631652928
 31
0.0
  0
LINE
  5
1F9
330
E3
100
AcDbEntity
  8
0
  6
Continuous
100
AcDbLine
 10
118.0618190820292
 20
129.6399631652928
 30
0.0
 11
118.0451281984135
 21
129.6345306869533
 31
0.0
  0
LINE
  5
1FA
330
E3
100
AcDbEntity
  8
0
  6
Continuous
100
AcDbLine
 10
118.0451281984135
 20
129.6345306869533
 30
0.0
 11
118.0249865179256
 21
129.6290945989937
 31
0.0
  0
LINE
  5
1FB
330
E3
100
AcDbEntity
  8
0
  6
Continuous
100
AcDbLine
 10
118.0249865179256
 20
129.6290945989937
 30
0.0
 11
118.0015492542325
 21
129.6236585110341
 31
0.0
  0
LINE
  5
1FC
330
E3
100
AcDbEntity
  8
0
  6
Continuous
100
AcDbLine
 10
118.0015492542325
 20
129.6236585110341
 30
0.0
 11
117.974996888342
 21
129.6182260326946
 31
0.0
  0
LINE
  5
1FD
330
E3
100
AcDbEntity
  8
0
  6
Continuous
100
AcDbLine
 10
117.974996888342
 20
129.6182260326946
 30
0.0
 11
117.945527949363
 21
129.612789944735
 31
0.0
  0
LINE
  5
1FE
330
E3
100
AcDbEntity
  8
0
  6
Continuous
100
AcDbLine
 10
117.945527949363
 20
129.612789944735
 30
0.0
 11
117.9133662337453
 21
129.6073574663955
 31
0.0
  0
LINE
  5
1FF
330
E3
100
AcDbEntity
  8
0
  6
Continuous
100
AcDbLine
 10
117.9133662337453
 20
129.6073574663955
 30
0.0
 11
117.8787608052799
 21
129.6019213784359
 31
0.0
  0
LINE
  5
200
330
E3
100
AcDbEntity
  8
0
  6
Continuous
100
AcDbLine
 10
117.8787608052799
 20
129.6019213784359
 30
0.0
 11
117.8419715566182
 21
129.5964852904763
 31
0.0
  0
LINE
  5
201
330
E3
100
AcDbEntity
  8
0
  6
Continuous
100
AcDbLine
 10
117.8419715566182
 20
129.5964852904763
 30
0.0
 11
117.8032836477528
 21
129.5910528121368
 31
0.0
  0
LINE
  5
202
330
E3
100
AcDbEntity
  8
0
  6
Continuous
100
AcDbLine
 10
117.8032836477528
 20
129.5910528121368
 30
0.0
 11
117.7629822386763
 21
129.5856167241772
 31
0.0
  0
LINE
  5
203
330
E3
100
AcDbEntity
  8
0
  6
Continuous
100
AcDbLine
 10
117.7629822386763
 20
129.5856167241772
 30
0.0
 11
117.7213813663425
 21
129.5801806362175
 31
0.0
  0
LINE
  5
204
330
E3
100
AcDbEntity
  8
0
  6
Continuous
100
AcDbLine
 10
117.7213813663425
 20
129.5801806362175
 30
0.0
 11
117.6787986773255
 21
129.574748157878
 31
0.0
  0
LINE
  5
205
330
E3
100
AcDbEntity
  8
0
  6
Continuous
100
AcDbLine
 10
117.6787986773255
 20
129.574748157878
 30
0.0
 11
117.6355518181991
 21
129.5693120699185
 31
0.0
  0
LINE
  5
206
330
E3
100
AcDbEntity
  8
0
  6
Continuous
100
AcDbLine
 10
117.6355518181991
 20
129.5693120699185
 30
0.0
 11
117.5919728740181
 21
129.5638759819588
 31
0.0
  0
LINE
  5
207
330
E3
100
AcDbEntity
  8
0
  6
Continuous
100
AcDbLine
 10
117.5919728740181
 20
129.5638759819588
 30
0.0
 11
117.5483939298371
 21
129.5584435036193
 31
0.0
  0
LINE
  5
208
330
E3
100
AcDbEntity
  8
0
  6
Continuous
100
AcDbLine
 10
117.5483939298371
 20
129.5584435036193
 30
0.0
 11
117.505150680331
 21
129.5530074156597
 31
0.0
  0
LINE
  5
209
330
E3
100
AcDbEntity
  8
0
  6
Continuous
100
AcDbLine
 10
117.505150680331
 20
129.5530074156597
 30
0.0
 11
117.4625643816937
 21
129.5475749373203
 31
0.0
  0
LINE
  5
20A
330
E3
100
AcDbEntity
  8
0
  6
Continuous
100
AcDbLine
 10
117.4625643816937
 20
129.5475749373203
 30
0.0
 11
117.42096350936
 21
129.5421388493606
 31
0.0
  0
LINE
  5
20B
330
E3
100
AcDbEntity
  8
0
  6
Continuous
100
AcDbLine
 10
117.42096350936
 20
129.5421388493606
 30
0.0
 11
117.3806657099036
 21
129.536702761401
 31
0.0
  0
LINE
  5
20C
330
E3
100
AcDbEntity
  8
0
  6
Continuous
100
AcDbLine
 10
117.3806657099036
 20
129.536702761401
 30
0.0
 11
117.341974191418
 21
129.5312702830616
 31
0.0
  0
LINE
  5
20D
330
E3
100
AcDbEntity
  8
0
  6
Continuous
100
AcDbLine
 10
117.341974191418
 20
129.5312702830616
 30
0.0
 11
117.3051849427564
 21
129.5258341951019
 31
0.0
  0
LINE
  5
20E
330
E3
100
AcDbEntity
  8
0
  6
Continuous
100
AcDbLine
 10
117.3051849427564
 20
129.5258341951019
 30
0.0
 11
117.2705795142909
 21
129.5203981071423
 31
0.0
  0
LINE
  5
20F
330
E3
100
AcDbEntity
  8
0
  6
Continuous
100
AcDbLine
 10
117.2705795142909
 20
129.5203981071423
 30
0.0
 11
117.2384214082934
 21
129.5149656288028
 31
0.0
  0
LINE
  5
210
330
E3
100
AcDbEntity
  8
0
  6
Continuous
100
AcDbLine
 10
117.2384214082934
 20
129.5149656288028
 30
0.0
 11
117.2089524693144
 21
129.5095295408432
 31
0.0
  0
LINE
  5
211
330
E3
100
AcDbEntity
  8
0
  6
Continuous
100
AcDbLine
 10
117.2089524693144
 20
129.5095295408432
 30
0.0
 11
117.1823964938038
 21
129.5040934528836
 31
0.0
  0
LINE
  5
212
330
E3
100
AcDbEntity
  8
0
  6
Continuous
100
AcDbLine
 10
117.1823964938038
 20
129.5040934528836
 30
0.0
 11
117.1589592301107
 21
129.4986609745441
 31
0.0
  0
LINE
  5
213
330
E3
100
AcDbEntity
  8
0
  6
Continuous
100
AcDbLine
 10
117.1589592301107
 20
129.4986609745441
 30
0.0
 11
117.138821159243
 21
129.4932248865845
 31
0.0
  0
LINE
  5
214
330
E3
100
AcDbEntity
  8
0
  6
Continuous
100
AcDbLine
 10
117.138821159243
 20
129.4932248865845
 30
0.0
 11
117.122126666007
 21
129.487792408245
 31
0.0
  0
LINE
  5
215
330
E3
100
AcDbEntity
  8
0
  6
Continuous
100
AcDbLine
 10
117.122126666007
 20
129.487792408245
 30
0.0
 11
117.1090093063488
 21
129.4823563202854
 31
0.0
  0
LINE
  5
216
330
E3
100
AcDbEntity
  8
0
  6
Continuous
100
AcDbLine
 10
117.1090093063488
 20
129.4823563202854
 30
0.0
 11
117.0995701496328
 21
129.4769202323258
 31
0.0
  0
LINE
  5
217
330
E3
100
AcDbEntity
  8
0
  6
Continuous
100
AcDbLine
 10
117.0995701496328
 20
129.4769202323258
 30
0.0
 11
117.0938759015449
 21
129.4714863130555
 31
0.0
  0
LINE
  5
218
330
E3
100
AcDbEntity
  8
0
  6
Continuous
100
AcDbLine
 10
117.0938759015449
 20
129.4714863130555
 30
0.0
 11
117.0919732505908
 21
129.4660515304469
 31
0.0
  0
LINE
  5
219
330
E3
100
AcDbEntity
  8
0
  6
Continuous
100
AcDbLine
 10
118.0919732505908
 20
129.2703993565338
 30
0.0
 11
118.0900705996366
 21
129.2649645739251
 31
0.0
  0
LINE
  5
21A
330
E3
100
AcDbEntity
  8
0
  6
Continuous
100
AcDbLine
 10
118.0900705996366
 20
129.2649645739251
 30
0.0
 11
118.0843771270969
 21
129.2595297913165
 31
0.0
  0
LINE
  5
21B
330
E3
100
AcDbEntity
  8
0
  6
Continuous
100
AcDbLine
 10
118.0843771270969
 20
129.2595297913165
 30
0.0
 11
118.0749364416874
 21
129.2540947702835
 31
0.0
  0
LINE
  5
21C
330
E3
100
AcDbEntity
  8
0
  6
Continuous
100
AcDbLine
 10
118.0749364416874
 20
129.2540947702835
 30
0.0
 11
118.0618190820292
 21
129.2486586823239
 31
0.0
  0
LINE
  5
21D
330
E3
100
AcDbEntity
  8
0
  6
Continuous
100
AcDbLine
 10
118.0618190820292
 20
129.2486586823239
 30
0.0
 11
118.0451281984135
 21
129.2432262039844
 31
0.0
  0
LINE
  5
21E
330
E3
100
AcDbEntity
  8
0
  6
Continuous
100
AcDbLine
 10
118.0451281984135
 20
129.2432262039844
 30
0.0
 11
118.0249865179256
 21
129.2377901160248
 31
0.0
  0
LINE
  5
21F
330
E3
100
AcDbEntity
  8
0
  6
Continuous
100
AcDbLine
 10
118.0249865179256
 20
129.2377901160248
 30
0.0
 11
118.0015492542325
 21
129.2323576376853
 31
0.0
  0
LINE
  5
220
330
E3
100
AcDbEntity
  8
0
  6
Continuous
100
AcDbLine
 10
118.0015492542325
 20
129.2323576376853
 30
0.0
 11
117.974996888342
 21
129.2269215497257
 31
0.0
  0
LINE
  5
221
330
E3
100
AcDbEntity
  8
0
  6
Continuous
100
AcDbLine
 10
117.974996888342
 20
129.2269215497257
 30
0.0
 11
117.945527949363
 21
129.221485461766
 31
0.0
  0
LINE
  5
222
330
E3
100
AcDbEntity
  8
0
  6
Continuous
100
AcDbLine
 10
117.945527949363
 20
129.221485461766
 30
0.0
 11
117.9133662337453
 21
129.2160529834266
 31
0.0
  0
LINE
  5
223
330
E3
100
AcDbEntity
  8
0
  6
Continuous
100
AcDbLine
 10
117.9133662337453
 20
129.2160529834266
 30
0.0
 11
117.8787608052799
 21
129.210616895467
 31
0.0
  0
LINE
  5
224
330
E3
100
AcDbEntity
  8
0
  6
Continuous
100
AcDbLine
 10
117.8787608052799
 20
129.210616895467
 30
0.0
 11
117.8419715566182
 21
129.2051808075073
 31
0.0
  0
LINE
  5
225
330
E3
100
AcDbEntity
  8
0
  6
Continuous
100
AcDbLine
 10
117.8419715566182
 20
129.2051808075073
 30
0.0
 11
117.8032836477528
 21
129.1997483291679
 31
0.0
  0
LINE
  5
226
330
E3
100
AcDbEntity
  8
0
  6
Continuous
100
AcDbLine
 10
117.8032836477528
 20
129.1997483291679
 30
0.0
 11
117.7629822386763
 21
129.1943122412083
 31
0.0
  0
LINE
  5
227
330
E3
100
AcDbEntity
  8
0
  6
Continuous
100
AcDbLine
 10
117.7629822386763
 20
129.1943122412083
 30
0.0
 11
117.7213813663425
 21
129.1888761532486
 31
0.0
  0
LINE
  5
228
330
E3
100
AcDbEntity
  8
0
  6
Continuous
100
AcDbLine
 10
117.7213813663425
 20
129.1888761532486
 30
0.0
 11
117.6787986773255
 21
129.1834436749092
 31
0.0
  0
LINE
  5
229
330
E3
100
AcDbEntity
  8
0
  6
Continuous
100
AcDbLine
 10
117.6787986773255
 20
129.1834436749092
 30
0.0
 11
117.6355518181991
 21
129.1780075869495
 31
0.0
  0
LINE
  5
22A
330
E3
100
AcDbEntity
  8
0
  6
Continuous
100
AcDbLine
 10
117.6355518181991
 20
129.1780075869495
 30
0.0
 11
117.5919728740181
 21
129.1725714989899
 31
0.0
  0
LINE
  5
22B
330
E3
100
AcDbEntity
  8
0
  6
Continuous
100
AcDbLine
 10
117.5919728740181
 20
129.1725714989899
 30
0.0
 11
117.5483939298371
 21
129.1671390206504
 31
0.0
  0
LINE
  5
22C
330
E3
100
AcDbEntity
  8
0
  6
Continuous
100
AcDbLine
 10
117.5483939298371
 20
129.1671390206504
 30
0.0
 11
117.505150680331
 21
129.1617029326908
 31
0.0
  0
LINE
  5
22D
330
E3
100
AcDbEntity
  8
0
  6
Continuous
100
AcDbLine
 10
117.505150680331
 20
129.1617029326908
 30
0.0
 11
117.4625643816937
 21
129.1562704543514
 31
0.0
  0
LINE
  5
22E
330
E3
100
AcDbEntity
  8
0
  6
Continuous
100
AcDbLine
 10
117.4625643816937
 20
129.1562704543514
 30
0.0
 11
117.42096350936
 21
129.1508343663917
 31
0.0
  0
LINE
  5
22F
330
E3
100
AcDbEntity
  8
0
  6
Continuous
100
AcDbLine
 10
117.42096350936
 20
129.1508343663917
 30
0.0
 11
117.3806657099036
 21
129.1453982784321
 31
0.0
  0
LINE
  5
230
330
E3
100
AcDbEntity
  8
0
  6
Continuous
100
AcDbLine
 10
117.3806657099036
 20
129.1453982784321
 30
0.0
 11
117.341974191418
 21
129.1399658000926
 31
0.0
  0
LINE
  5
231
330
E3
100
AcDbEntity
  8
0
  6
Continuous
100
AcDbLine
 10
117.341974191418
 20
129.1399658000926
 30
0.0
 11
117.3051849427564
 21
129.134529712133
 31
0.0
  0
LINE
  5
232
330
E3
100
AcDbEntity
  8
0
  6
Continuous
100
AcDbLine
 10
117.3051849427564
 20
129.134529712133
 30
0.0
 11
117.2705795142909
 21
129.1290936241734
 31
0.0
  0
LINE
  5
233
330
E3
100
AcDbEntity
  8
0
  6
Continuous
100
AcDbLine
 10
117.2705795142909
 20
129.1290936241734
 30
0.0
 11
117.2384214082934
 21
129.1236611458339
 31
0.0
  0
LINE
  5
234
330
E3
100
AcDbEntity
  8
0
  6
Continuous
100
AcDbLine
 10
117.2384214082934
 20
129.1236611458339
 30
0.0
 11
117.2089524693144
 21
129.1182250578743
 31
0.0
  0
LINE
  5
235
330
E3
100
AcDbEntity
  8
0
  6
Continuous
100
AcDbLine
 10
117.2089524693144
 20
129.1182250578743
 30
0.0
 11
117.1823964938038
 21
129.1127889699146
 31
0.0
  0
LINE
  5
236
330
E3
100
AcDbEntity
  8
0
  6
Continuous
100
AcDbLine
 10
117.1823964938038
 20
129.1127889699146
 30
0.0
 11
117.1589592301107
 21
129.1073564915752
 31
0.0
  0
LINE
  5
237
330
E3
100
AcDbEntity
  8
0
  6
Continuous
100
AcDbLine
 10
117.1589592301107
 20
129.1073564915752
 30
0.0
 11
117.138821159243
 21
129.1019204036156
 31
0.0
  0
LINE
  5
238
330
E3
100
AcDbEntity
  8
0
  6
Continuous
100
AcDbLine
 10
117.138821159243
 20
129.1019204036156
 30
0.0
 11
117.122126666007
 21
129.0964879252761
 31
0.0
  0
LINE
  5
239
330
E3
100
AcDbEntity
  8
0
  6
Continuous
100
AcDbLine
 10
117.122126666007
 20
129.0964879252761
 30
0.0
 11
117.1090093063488
 21
129.0910518373165
 31
0.0
  0
LINE
  5
23A
330
E3
100
AcDbEntity
  8
0
  6
Continuous
100
AcDbLine
 10
117.1090093063488
 20
129.0910518373165
 30
0.0
 11
117.0995701496328
 21
129.0856157493568
 31
0.0
  0
LINE
  5
23B
330
E3
100
AcDbEntity
  8
0
  6
Continuous
100
AcDbLine
 10
117.0995701496328
 20
129.0856157493568
 30
0.0
 11
117.0938759015449
 21
129.0801819652295
 31
0.0
  0
LINE
  5
23C
330
E3
100
AcDbEntity
  8
0
  6
Continuous
100
AcDbLine
 10
117.0938759015449
 20
129.0801819652295
 30
0.0
 11
117.0919732505908
 21
129.0747471826208
 31
0.0
  0
LINE
  5
23D
330
E3
100
AcDbEntity
  8
0
  6
Continuous
100
AcDbLine
 10
118.0919732505908
 20
128.8790950087077
 30
0.0
 11
118.0900705996366
 21
128.873660226099
 31
0.0
  0
LINE
  5
23E
330
E3
100
AcDbEntity
  8
0
  6
Continuous
100
AcDbLine
 10
118.0900705996366
 20
128.873660226099
 30
0.0
 11
118.0843771270969
 21
128.8682254434903
 31
0.0
  0
LINE
  5
23F
330
E3
100
AcDbEntity
  8
0
  6
Continuous
100
AcDbLine
 10
118.0843771270969
 20
128.8682254434903
 30
0.0
 11
118.0749364416874
 21
128.8627902873146
 31
0.0
  0
LINE
  5
240
330
E3
100
AcDbEntity
  8
0
  6
Continuous
100
AcDbLine
 10
118.0749364416874
 20
128.8627902873146
 30
0.0
 11
118.0618190820292
 21
128.8573541993549
 31
0.0
  0
LINE
  5
241
330
E3
100
AcDbEntity
  8
0
  6
Continuous
100
AcDbLine
 10
118.0618190820292
 20
128.8573541993549
 30
0.0
 11
118.0451281984135
 21
128.8519217210155
 31
0.0
  0
LINE
  5
242
330
E3
100
AcDbEntity
  8
0
  6
Continuous
100
AcDbLine
 10
118.0451281984135
 20
128.8519217210155
 30
0.0
 11
118.0249865179256
 21
128.8464856330558
 31
0.0
  0
LINE
  5
243
330
E3
100
AcDbEntity
  8
0
  6
Continuous
100
AcDbLine
 10
118.0249865179256
 20
128.8464856330558
 30
0.0
 11
118.0015492542325
 21
128.8410531547164
 31
0.0
  0
LINE
  5
244
330
E3
100
AcDbEntity
  8
0
  6
Continuous
100
AcDbLine
 10
118.0015492542325
 20
128.8410531547164
 30
0.0
 11
117.974996888342
 21
128.8356170667568
 31
0.0
  0
LINE
  5
245
330
E3
100
AcDbEntity
  8
0
  6
Continuous
100
AcDbLine
 10
117.974996888342
 20
128.8356170667568
 30
0.0
 11
117.945527949363
 21
128.8301809787971
 31
0.0
  0
LINE
  5
246
330
E3
100
AcDbEntity
  8
0
  6
Continuous
100
AcDbLine
 10
117.945527949363
 20
128.8301809787971
 30
0.0
 11
117.9133662337453
 21
128.8247485004577
 31
0.0
  0
LINE
  5
247
330
E3
100
AcDbEntity
  8
0
  6
Continuous
100
AcDbLine
 10
117.9133662337453
 20
128.8247485004577
 30
0.0
 11
117.8787608052799
 21
128.819312412498
 31
0.0
  0
LINE
  5
248
330
E3
100
AcDbEntity
  8
0
  6
Continuous
100
AcDbLine
 10
117.8787608052799
 20
128.819312412498
 30
0.0
 11
117.8419715566182
 21
128.8138763245385
 31
0.0
  0
LINE
  5
249
330
E3
100
AcDbEntity
  8
0
  6
Continuous
100
AcDbLine
 10
117.8419715566182
 20
128.8138763245385
 30
0.0
 11
117.8032836477528
 21
128.8084438461989
 31
0.0
  0
LINE
  5
24A
330
E3
100
AcDbEntity
  8
0
  6
Continuous
100
AcDbLine
 10
117.8032836477528
 20
128.8084438461989
 30
0.0
 11
117.7629822386763
 21
128.8030077582393
 31
0.0
  0
LINE
  5
24B
330
E3
100
AcDbEntity
  8
0
  6
Continuous
100
AcDbLine
 10
117.7629822386763
 20
128.8030077582393
 30
0.0
 11
117.7213813663425
 21
128.7975716702797
 31
0.0
  0
LINE
  5
24C
330
E3
100
AcDbEntity
  8
0
  6
Continuous
100
AcDbLine
 10
117.7213813663425
 20
128.7975716702797
 30
0.0
 11
117.6787986773255
 21
128.7921391919402
 31
0.0
  0
LINE
  5
24D
330
E3
100
AcDbEntity
  8
0
  6
Continuous
100
AcDbLine
 10
117.6787986773255
 20
128.7921391919402
 30
0.0
 11
117.6355518181991
 21
128.7867031039806
 31
0.0
  0
LINE
  5
24E
330
E3
100
AcDbEntity
  8
0
  6
Continuous
100
AcDbLine
 10
117.6355518181991
 20
128.7867031039806
 30
0.0
 11
117.5919728740181
 21
128.7812706256412
 31
0.0
  0
LINE
  5
24F
330
E3
100
AcDbEntity
  8
0
  6
Continuous
100
AcDbLine
 10
117.5919728740181
 20
128.7812706256412
 30
0.0
 11
117.5483939298371
 21
128.7758345376815
 31
0.0
  0
LINE
  5
250
330
E3
100
AcDbEntity
  8
0
  6
Continuous
100
AcDbLine
 10
117.5483939298371
 20
128.7758345376815
 30
0.0
 11
117.505150680331
 21
128.7703984497219
 31
0.0
  0
LINE
  5
251
330
E3
100
AcDbEntity
  8
0
  6
Continuous
100
AcDbLine
 10
117.505150680331
 20
128.7703984497219
 30
0.0
 11
117.4625643816937
 21
128.7649659713824
 31
0.0
  0
LINE
  5
252
330
E3
100
AcDbEntity
  8
0
  6
Continuous
100
AcDbLine
 10
117.4625643816937
 20
128.7649659713824
 30
0.0
 11
117.42096350936
 21
128.7595298834228
 31
0.0
  0
LINE
  5
253
330
E3
100
AcDbEntity
  8
0
  6
Continuous
100
AcDbLine
 10
117.42096350936
 20
128.7595298834228
 30
0.0
 11
117.3806657099036
 21
128.7540937954632
 31
0.0
  0
LINE
  5
254
330
E3
100
AcDbEntity
  8
0
  6
Continuous
100
AcDbLine
 10
117.3806657099036
 20
128.7540937954632
 30
0.0
 11
117.341974191418
 21
128.7486613171237
 31
0.0
  0
LINE
  5
255
330
E3
100
AcDbEntity
  8
0
  6
Continuous
100
AcDbLine
 10
117.341974191418
 20
128.7486613171237
 30
0.0
 11
117.3051849427564
 21
128.7432252291641
 31
0.0
  0
LINE
  5
256
330
E3
100
AcDbEntity
  8
0
  6
Continuous
100
AcDbLine
 10
117.3051849427564
 20
128.7432252291641
 30
0.0
 11
117.2705795142909
 21
128.7377891412044
 31
0.0
  0
LINE
  5
257
330
E3
100
AcDbEntity
  8
0
  6
Continuous
100
AcDbLine
 10
117.2705795142909
 20
128.7377891412044
 30
0.0
 11
117.2384214082934
 21
128.732356662865
 31
0.0
  0
LINE
  5
258
330
E3
100
AcDbEntity
  8
0
  6
Continuous
100
AcDbLine
 10
117.2384214082934
 20
128.732356662865
 30
0.0
 11
117.2089524693144
 21
128.7269205749054
 31
0.0
  0
LINE
  5
259
330
E3
100
AcDbEntity
  8
0
  6
Continuous
100
AcDbLine
 10
117.2089524693144
 20
128.7269205749054
 30
0.0
 11
117.1823964938038
 21
128.7214880965659
 31
0.0
  0
LINE
  5
25A
330
E3
100
AcDbEntity
  8
0
  6
Continuous
100
AcDbLine
 10
117.1823964938038
 20
128.7214880965659
 30
0.0
 11
117.1589592301107
 21
128.7160520086063
 31
0.0
  0
LINE
  5
25B
330
E3
100
AcDbEntity
  8
0
  6
Continuous
100
AcDbLine
 10
117.1589592301107
 20
128.7160520086063
 30
0.0
 11
117.138821159243
 21
128.7106159206466
 31
0.0
  0
LINE
  5
25C
330
E3
100
AcDbEntity
  8
0
  6
Continuous
100
AcDbLine
 10
117.138821159243
 20
128.7106159206466
 30
0.0
 11
117.122126666007
 21
128.7051834423072
 31
0.0
  0
LINE
  5
25D
330
E3
100
AcDbEntity
  8
0
  6
Continuous
100
AcDbLine
 10
117.122126666007
 20
128.7051834423072
 30
0.0
 11
117.1090093063488
 21
128.6997473543476
 31
0.0
  0
LINE
  5
25E
330
E3
100
AcDbEntity
  8
0
  6
Continuous
100
AcDbLine
 10
117.1090093063488
 20
128.6997473543476
 30
0.0
 11
117.0995701496328
 21
128.6943112663879
 31
0.0
  0
LINE
  5
25F
330
E3
100
AcDbEntity
  8
0
  6
Continuous
100
AcDbLine
 10
117.0995701496328
 20
128.6943112663879
 30
0.0
 11
117.0938759015449
 21
128.6888776174034
 31
0.0
  0
LINE
  5
260
330
E3
100
AcDbEntity
  8
0
  6
Continuous
100
AcDbLine
 10
117.0938759015449
 20
128.6888776174034
 30
0.0
 11
117.0919732505908
 21
128.6834428347947
 31
0.0
  0
LINE
  5
261
330
E3
100
AcDbEntity
  8
0
  6
Continuous
100
AcDbLine
 10
118.0919732505908
 20
128.4877906608816
 30
0.0
 11
118.0900705996366
 21
128.482355878273
 31
0.0
  0
LINE
  5
262
330
E3
100
AcDbEntity
  8
0
  6
Continuous
100
AcDbLine
 10
118.0900705996366
 20
128.482355878273
 30
0.0
 11
118.0843771270969
 21
128.4769210956642
 31
0.0
  0
LINE
  5
263
330
E3
100
AcDbEntity
  8
0
  6
Continuous
100
AcDbLine
 10
118.0843771270969
 20
128.4769210956642
 30
0.0
 11
118.0749364416874
 21
128.4714858043456
 31
0.0
  0
LINE
  5
264
330
E3
100
AcDbEntity
  8
0
  6
Continuous
100
AcDbLine
 10
118.0749364416874
 20
128.4714858043456
 30
0.0
 11
118.0618190820292
 21
128.4660533260062
 31
0.0
  0
LINE
  5
265
330
E3
100
AcDbEntity
  8
0
  6
Continuous
100
AcDbLine
 10
118.0618190820292
 20
128.4660533260062
 30
0.0
 11
118.0451281984135
 21
128.4606172380466
 31
0.0
  0
LINE
  5
266
330
E3
100
AcDbEntity
  8
0
  6
Continuous
100
AcDbLine
 10
118.0451281984135
 20
128.4606172380466
 30
0.0
 11
118.0249865179256
 21
128.455181150087
 31
0.0
  0
LINE
  5
267
330
E3
100
AcDbEntity
  8
0
  6
Continuous
100
AcDbLine
 10
118.0249865179256
 20
128.455181150087
 30
0.0
 11
118.0015492542325
 21
128.4497486717475
 31
0.0
  0
LINE
  5
268
330
E3
100
AcDbEntity
  8
0
  6
Continuous
100
AcDbLine
 10
118.0015492542325
 20
128.4497486717475
 30
0.0
 11
117.974996888342
 21
128.4443125837878
 31
0.0
  0
LINE
  5
269
330
E3
100
AcDbEntity
  8
0
  6
Continuous
100
AcDbLine
 10
117.974996888342
 20
128.4443125837878
 30
0.0
 11
117.945527949363
 21
128.4388764958282
 31
0.0
  0
LINE
  5
26A
330
E3
100
AcDbEntity
  8
0
  6
Continuous
100
AcDbLine
 10
117.945527949363
 20
128.4388764958282
 30
0.0
 11
117.9133662337453
 21
128.4334440174887
 31
0.0
  0
LINE
  5
26B
330
E3
100
AcDbEntity
  8
0
  6
Continuous
100
AcDbLine
 10
117.9133662337453
 20
128.4334440174887
 30
0.0
 11
117.8787608052799
 21
128.4280079295291
 31
0.0
  0
LINE
  5
26C
330
E3
100
AcDbEntity
  8
0
  6
Continuous
100
AcDbLine
 10
117.8787608052799
 20
128.4280079295291
 30
0.0
 11
117.8419715566182
 21
128.4225718415695
 31
0.0
  0
LINE
  5
26D
330
E3
100
AcDbEntity
  8
0
  6
Continuous
100
AcDbLine
 10
117.8419715566182
 20
128.4225718415695
 30
0.0
 11
117.8032836477528
 21
128.41713936323
 31
0.0
  0
LINE
  5
26E
330
E3
100
AcDbEntity
  8
0
  6
Continuous
100
AcDbLine
 10
117.8032836477528
 20
128.41713936323
 30
0.0
 11
117.7629822386763
 21
128.4117032752704
 31
0.0
  0
LINE
  5
26F
330
E3
100
AcDbEntity
  8
0
  6
Continuous
100
AcDbLine
 10
117.7629822386763
 20
128.4117032752704
 30
0.0
 11
117.7213813663425
 21
128.4062671873108
 31
0.0
  0
LINE
  5
270
330
E3
100
AcDbEntity
  8
0
  6
Continuous
100
AcDbLine
 10
117.7213813663425
 20
128.4062671873108
 30
0.0
 11
117.6787986773255
 21
128.4008347089713
 31
0.0
  0
LINE
  5
271
330
E3
100
AcDbEntity
  8
0
  6
Continuous
100
AcDbLine
 10
117.6787986773255
 20
128.4008347089713
 30
0.0
 11
117.6355518181991
 21
128.3953986210117
 31
0.0
  0
LINE
  5
272
330
E3
100
AcDbEntity
  8
0
  6
Continuous
100
AcDbLine
 10
117.6355518181991
 20
128.3953986210117
 30
0.0
 11
117.5919728740181
 21
128.3899661426722
 31
0.0
  0
LINE
  5
273
330
E3
100
AcDbEntity
  8
0
  6
Continuous
100
AcDbLine
 10
117.5919728740181
 20
128.3899661426722
 30
0.0
 11
117.5483939298371
 21
128.3845300547126
 31
0.0
  0
LINE
  5
274
330
E3
100
AcDbEntity
  8
0
  6
Continuous
100
AcDbLine
 10
117.5483939298371
 20
128.3845300547126
 30
0.0
 11
117.505150680331
 21
128.379093966753
 31
0.0
  0
LINE
  5
275
330
E3
100
AcDbEntity
  8
0
  6
Continuous
100
AcDbLine
 10
117.505150680331
 20
128.379093966753
 30
0.0
 11
117.4625643816937
 21
128.3736614884135
 31
0.0
  0
LINE
  5
276
330
E3
100
AcDbEntity
  8
0
  6
Continuous
100
AcDbLine
 10
117.4625643816937
 20
128.3736614884135
 30
0.0
 11
117.42096350936
 21
128.3682254004539
 31
0.0
  0
LINE
  5
277
330
E3
100
AcDbEntity
  8
0
  6
Continuous
100
AcDbLine
 10
117.42096350936
 20
128.3682254004539
 30
0.0
 11
117.3806657099036
 21
128.3627893124943
 31
0.0
  0
LINE
  5
278
330
E3
100
AcDbEntity
  8
0
  6
Continuous
100
AcDbLine
 10
117.3806657099036
 20
128.3627893124943
 30
0.0
 11
117.341974191418
 21
128.3573568341548
 31
0.0
  0
LINE
  5
279
330
E3
100
AcDbEntity
  8
0
  6
Continuous
100
AcDbLine
 10
117.341974191418
 20
128.3573568341548
 30
0.0
 11
117.3051849427564
 21
128.3519207461952
 31
0.0
  0
LINE
  5
27A
330
E3
100
AcDbEntity
  8
0
  6
Continuous
100
AcDbLine
 10
117.3051849427564
 20
128.3519207461952
 30
0.0
 11
117.2705795142909
 21
128.3464846582356
 31
0.0
  0
LINE
  5
27B
330
E3
100
AcDbEntity
  8
0
  6
Continuous
100
AcDbLine
 10
117.2705795142909
 20
128.3464846582356
 30
0.0
 11
117.2384214082934
 21
128.3410521798961
 31
0.0
  0
LINE
  5
27C
330
E3
100
AcDbEntity
  8
0
  6
Continuous
100
AcDbLine
 10
117.2384214082934
 20
128.3410521798961
 30
0.0
 11
117.2089524693144
 21
128.3356160919365
 31
0.0
  0
LINE
  5
27D
330
E3
100
AcDbEntity
  8
0
  6
Continuous
100
AcDbLine
 10
117.2089524693144
 20
128.3356160919365
 30
0.0
 11
117.1823964938038
 21
128.330183613597
 31
0.0
  0
LINE
  5
27E
330
E3
100
AcDbEntity
  8
0
  6
Continuous
100
AcDbLine
 10
117.1823964938038
 20
128.330183613597
 30
0.0
 11
117.1589592301107
 21
128.3247475256374
 31
0.0
  0
LINE
  5
27F
330
E3
100
AcDbEntity
  8
0
  6
Continuous
100
AcDbLine
 10
117.1589592301107
 20
128.3247475256374
 30
0.0
 11
117.138821159243
 21
128.3193114376777
 31
0.0
  0
LINE
  5
280
330
E3
100
AcDbEntity
  8
0
  6
Continuous
100
AcDbLine
 10
117.138821159243
 20
128.3193114376777
 30
0.0
 11
117.122126666007
 21
128.3138789593383
 31
0.0
  0
LINE
  5
281
330
E3
100
AcDbEntity
  8
0
  6
Continuous
100
AcDbLine
 10
117.122126666007
 20
128.3138789593383
 30
0.0
 11
117.1090093063488
 21
128.3084428713786
 31
0.0
  0
LINE
  5
282
330
E3
100
AcDbEntity
  8
0
  6
Continuous
100
AcDbLine
 10
117.1090093063488
 20
128.3084428713786
 30
0.0
 11
117.0995701496328
 21
128.303006783419
 31
0.0
  0
LINE
  5
283
330
E3
100
AcDbEntity
  8
0
  6
Continuous
100
AcDbLine
 10
117.0995701496328
 20
128.303006783419
 30
0.0
 11
117.0938759015449
 21
128.2975732695773
 31
0.0
  0
LINE
  5
284
330
E3
100
AcDbEntity
  8
0
  6
Continuous
100
AcDbLine
 10
117.0938759015449
 20
128.2975732695773
 30
0.0
 11
117.0919732505908
 21
128.2921384869686
 31
0.0
  0
LINE
  5
285
330
E3
100
AcDbEntity
  8
0
  6
Continuous
100
AcDbLine
 10
118.0919732505908
 20
128.0964863130555
 30
0.0
 11
118.0900705996366
 21
128.0910515304469
 31
0.0
  0
LINE
  5
286
330
E3
100
AcDbEntity
  8
0
  6
Continuous
100
AcDbLine
 10
118.0900705996366
 20
128.0910515304469
 30
0.0
 11
118.0843771270969
 21
128.0856167478382
 31
0.0
  0
LINE
  5
287
330
E3
100
AcDbEntity
  8
0
  6
Continuous
100
AcDbLine
 10
118.0843771270969
 20
128.0856167478382
 30
0.0
 11
118.0749364416874
 21
128.0801813213768
 31
0.0
  0
LINE
  5
288
330
E3
100
AcDbEntity
  8
0
  6
Continuous
100
AcDbLine
 10
118.0749364416874
 20
128.0801813213768
 30
0.0
 11
118.0618190820292
 21
128.0747488430373
 31
0.0
  0
LINE
  5
289
330
E3
100
AcDbEntity
  8
0
  6
Continuous
100
AcDbLine
 10
118.0618190820292
 20
128.0747488430373
 30
0.0
 11
118.0451281984135
 21
128.0693127550776
 31
0.0
  0
LINE
  5
28A
330
E3
100
AcDbEntity
  8
0
  6
Continuous
100
AcDbLine
 10
118.0451281984135
 20
128.0693127550776
 30
0.0
 11
118.0249865179256
 21
128.0638766671181
 31
0.0
  0
LINE
  5
28B
330
E3
100
AcDbEntity
  8
0
  6
Continuous
100
AcDbLine
 10
118.0249865179256
 20
128.0638766671181
 30
0.0
 11
118.0015492542325
 21
128.0584441887786
 31
0.0
  0
LINE
  5
28C
330
E3
100
AcDbEntity
  8
0
  6
Continuous
100
AcDbLine
 10
118.0015492542325
 20
128.0584441887786
 30
0.0
 11
117.974996888342
 21
128.0530081008189
 31
0.0
  0
LINE
  5
28D
330
E3
100
AcDbEntity
  8
0
  6
Continuous
100
AcDbLine
 10
117.974996888342
 20
128.0530081008189
 30
0.0
 11
117.945527949363
 21
128.0475720128593
 31
0.0
  0
LINE
  5
28E
330
E3
100
AcDbEntity
  8
0
  6
Continuous
100
AcDbLine
 10
117.945527949363
 20
128.0475720128593
 30
0.0
 11
117.9133662337453
 21
128.0421395345198
 31
0.0
  0
LINE
  5
28F
330
E3
100
AcDbEntity
  8
0
  6
Continuous
100
AcDbLine
 10
117.9133662337453
 20
128.0421395345198
 30
0.0
 11
117.8787608052799
 21
128.0367034465602
 31
0.0
  0
LINE
  5
290
330
E3
100
AcDbEntity
  8
0
  6
Continuous
100
AcDbLine
 10
117.8787608052799
 20
128.0367034465602
 30
0.0
 11
117.8419715566182
 21
128.0312673586006
 31
0.0
  0
LINE
  5
291
330
E3
100
AcDbEntity
  8
0
  6
Continuous
100
AcDbLine
 10
117.8419715566182
 20
128.0312673586006
 30
0.0
 11
117.8032836477528
 21
128.0258348802611
 31
0.0
  0
LINE
  5
292
330
E3
100
AcDbEntity
  8
0
  6
Continuous
100
AcDbLine
 10
117.8032836477528
 20
128.0258348802611
 30
0.0
 11
117.7629822386763
 21
128.0203987923015
 31
0.0
  0
LINE
  5
293
330
E3
100
AcDbEntity
  8
0
  6
Continuous
100
AcDbLine
 10
117.7629822386763
 20
128.0203987923015
 30
0.0
 11
117.7213813663425
 21
128.014966313962
 31
0.0
  0
LINE
  5
294
330
E3
100
AcDbEntity
  8
0
  6
Continuous
100
AcDbLine
 10
117.7213813663425
 20
128.014966313962
 30
0.0
 11
117.6787986773255
 21
128.0095302260024
 31
0.0
  0
LINE
  5
295
330
E3
100
AcDbEntity
  8
0
  6
Continuous
100
AcDbLine
 10
117.6787986773255
 20
128.0095302260024
 30
0.0
 11
117.6355518181991
 21
128.0040941380428
 31
0.0
  0
LINE
  5
296
330
E3
100
AcDbEntity
  8
0
  6
Continuous
100
AcDbLine
 10
117.6355518181991
 20
128.0040941380428
 30
0.0
 11
117.5919728740181
 21
127.9986616597033
 31
0.0
  0
LINE
  5
297
330
E3
100
AcDbEntity
  8
0
  6
Continuous
100
AcDbLine
 10
117.5919728740181
 20
127.9986616597033
 30
0.0
 11
117.5483939298371
 21
127.9932255717437
 31
0.0
  0
LINE
  5
298
330
E3
100
AcDbEntity
  8
0
  6
Continuous
100
AcDbLine
 10
117.5483939298371
 20
127.9932255717437
 30
0.0
 11
117.505150680331
 21
127.9877894837841
 31
0.0
  0
LINE
  5
299
330
E3
100
AcDbEntity
  8
0
  6
Continuous
100
AcDbLine
 10
117.505150680331
 20
127.9877894837841
 30
0.0
 11
117.4625643816937
 21
127.9823570054446
 31
0.0
  0
LINE
  5
29A
330
E3
100
AcDbEntity
  8
0
  6
Continuous
100
AcDbLine
 10
117.4625643816937
 20
127.9823570054446
 30
0.0
 11
117.42096350936
 21
127.976920917485
 31
0.0
  0
LINE
  5
29B
330
E3
100
AcDbEntity
  8
0
  6
Continuous
100
AcDbLine
 10
117.42096350936
 20
127.976920917485
 30
0.0
 11
117.3806657099036
 21
127.9714848295254
 31
0.0
  0
LINE
  5
29C
330
E3
100
AcDbEntity
  8
0
  6
Continuous
100
AcDbLine
 10
117.3806657099036
 20
127.9714848295254
 30
0.0
 11
117.341974191418
 21
127.9660523511859
 31
0.0
  0
LINE
  5
29D
330
E3
100
AcDbEntity
  8
0
  6
Continuous
100
AcDbLine
 10
117.341974191418
 20
127.9660523511859
 30
0.0
 11
117.3051849427564
 21
127.9606162632262
 31
0.0
  0
LINE
  5
29E
330
E3
100
AcDbEntity
  8
0
  6
Continuous
100
AcDbLine
 10
117.3051849427564
 20
127.9606162632262
 30
0.0
 11
117.2705795142909
 21
127.9551801752666
 31
0.0
  0
LINE
  5
29F
330
E3
100
AcDbEntity
  8
0
  6
Continuous
100
AcDbLine
 10
117.2705795142909
 20
127.9551801752666
 30
0.0
 11
117.2384214082934
 21
127.9497476969272
 31
0.0
  0
LINE
  5
2A0
330
E3
100
AcDbEntity
  8
0
  6
Continuous
100
AcDbLine
 10
117.2384214082934
 20
127.9497476969272
 30
0.0
 11
117.2089524693144
 21
127.9443116089675
 31
0.0
  0
LINE
  5
2A1
330
E3
100
AcDbEntity
  8
0
  6
Continuous
100
AcDbLine
 10
117.2089524693144
 20
127.9443116089675
 30
0.0
 11
117.1823964938038
 21
127.9388791306281
 31
0.0
  0
LINE
  5
2A2
330
E3
100
AcDbEntity
  8
0
  6
Continuous
100
AcDbLine
 10
117.1823964938038
 20
127.9388791306281
 30
0.0
 11
117.1589592301107
 21
127.9334430426685
 31
0.0
  0
LINE
  5
2A3
330
E3
100
AcDbEntity
  8
0
  6
Continuous
100
AcDbLine
 10
117.1589592301107
 20
127.9334430426685
 30
0.0
 11
117.138821159243
 21
127.9280069547088
 31
0.0
  0
LINE
  5
2A4
330
E3
100
AcDbEntity
  8
0
  6
Continuous
100
AcDbLine
 10
117.138821159243
 20
127.9280069547088
 30
0.0
 11
117.122126666007
 21
127.9225744763693
 31
0.0
  0
LINE
  5
2A5
330
E3
100
AcDbEntity
  8
0
  6
Continuous
100
AcDbLine
 10
117.122126666007
 20
127.9225744763693
 30
0.0
 11
117.1090093063488
 21
127.9171383884097
 31
0.0
  0
LINE
  5
2A6
330
E3
100
AcDbEntity
  8
0
  6
Continuous
100
AcDbLine
 10
117.1090093063488
 20
127.9171383884097
 30
0.0
 11
117.0995701496328
 21
127.9117023004501
 31
0.0
  0
LINE
  5
2A7
330
E3
100
AcDbEntity
  8
0
  6
Continuous
100
AcDbLine
 10
117.0995701496328
 20
127.9117023004501
 30
0.0
 11
117.0938759015449
 21
127.9062689217512
 31
0.0
  0
LINE
  5
2A8
330
E3
100
AcDbEntity
  8
0
  6
Continuous
100
AcDbLine
 10
117.0938759015449
 20
127.9062689217512
 30
0.0
 11
117.0919732505908
 21
127.9008341391425
 31
0.0
  0
LINE
  5
2A9
330
E3
100
AcDbEntity
  8
0
  6
Continuous
100
AcDbLine
 10
118.0919732505908
 20
127.7051819652295
 30
0.0
 11
118.0900705996366
 21
127.6997471826208
 31
0.0
  0
LINE
  5
2AA
330
E3
100
AcDbEntity
  8
0
  6
Continuous
100
AcDbLine
 10
118.0900705996366
 20
127.6997471826208
 30
0.0
 11
118.0843771270969
 21
127.6943124000121
 31
0.0
  0
LINE
  5
2AB
330
E3
100
AcDbEntity
  8
0
  6
Continuous
100
AcDbLine
 10
118.0843771270969
 20
127.6943124000121
 30
0.0
 11
118.0749364416874
 21
127.6888768384079
 31
0.0
  0
LINE
  5
2AC
330
E3
100
AcDbEntity
  8
0
  6
Continuous
100
AcDbLine
 10
118.0749364416874
 20
127.6888768384079
 30
0.0
 11
118.0618190820292
 21
127.6834443600683
 31
0.0
  0
LINE
  5
2AD
330
E3
100
AcDbEntity
  8
0
  6
Continuous
100
AcDbLine
 10
118.0618190820292
 20
127.6834443600683
 30
0.0
 11
118.0451281984135
 21
127.6780082721087
 31
0.0
  0
LINE
  5
2AE
330
E3
100
AcDbEntity
  8
0
  6
Continuous
100
AcDbLine
 10
118.0451281984135
 20
127.6780082721087
 30
0.0
 11
118.0249865179256
 21
127.6725721841491
 31
0.0
  0
LINE
  5
2AF
330
E3
100
AcDbEntity
  8
0
  6
Continuous
100
AcDbLine
 10
118.0249865179256
 20
127.6725721841491
 30
0.0
 11
118.0015492542325
 21
127.6671397058096
 31
0.0
  0
LINE
  5
2B0
330
E3
100
AcDbEntity
  8
0
  6
Continuous
100
AcDbLine
 10
118.0015492542325
 20
127.6671397058096
 30
0.0
 11
117.974996888342
 21
127.66170361785
 31
0.0
  0
LINE
  5
2B1
330
E3
100
AcDbEntity
  8
0
  6
Continuous
100
AcDbLine
 10
117.974996888342
 20
127.66170361785
 30
0.0
 11
117.945527949363
 21
127.6562675298904
 31
0.0
  0
LINE
  5
2B2
330
E3
100
AcDbEntity
  8
0
  6
Continuous
100
AcDbLine
 10
117.945527949363
 20
127.6562675298904
 30
0.0
 11
117.9133662337453
 21
127.6508350515509
 31
0.0
  0
LINE
  5
2B3
330
E3
100
AcDbEntity
  8
0
  6
Continuous
100
AcDbLine
 10
117.9133662337453
 20
127.6508350515509
 30
0.0
 11
117.8787608052799
 21
127.6453989635913
 31
0.0
  0
LINE
  5
2B4
330
E3
100
AcDbEntity
  8
0
  6
Continuous
100
AcDbLine
 10
117.8787608052799
 20
127.6453989635913
 30
0.0
 11
117.8419715566182
 21
127.6399628756317
 31
0.0
  0
LINE
  5
2B5
330
E3
100
AcDbEntity
  8
0
  6
Continuous
100
AcDbLine
 10
117.8419715566182
 20
127.6399628756317
 30
0.0
 11
117.8032836477528
 21
127.6345303972922
 31
0.0
  0
LINE
  5
2B6
330
E3
100
AcDbEntity
  8
0
  6
Continuous
100
AcDbLine
 10
117.8032836477528
 20
127.6345303972922
 30
0.0
 11
117.7629822386763
 21
127.6290943093326
 31
0.0
  0
LINE
  5
2B7
330
E3
100
AcDbEntity
  8
0
  6
Continuous
100
AcDbLine
 10
117.7629822386763
 20
127.6290943093326
 30
0.0
 11
117.7213813663425
 21
127.6236618309931
 31
0.0
  0
LINE
  5
2B8
330
E3
100
AcDbEntity
  8
0
  6
Continuous
100
AcDbLine
 10
117.7213813663425
 20
127.6236618309931
 30
0.0
 11
117.6787986773255
 21
127.6182257430335
 31
0.0
  0
LINE
  5
2B9
330
E3
100
AcDbEntity
  8
0
  6
Continuous
100
AcDbLine
 10
117.6787986773255
 20
127.6182257430335
 30
0.0
 11
117.6355518181991
 21
127.6127896550739
 31
0.0
  0
LINE
  5
2BA
330
E3
100
AcDbEntity
  8
0
  6
Continuous
100
AcDbLine
 10
117.6355518181991
 20
127.6127896550739
 30
0.0
 11
117.5919728740181
 21
127.6073571767344
 31
0.0
  0
LINE
  5
2BB
330
E3
100
AcDbEntity
  8
0
  6
Continuous
100
AcDbLine
 10
117.5919728740181
 20
127.6073571767344
 30
0.0
 11
117.5483939298371
 21
127.6019210887748
 31
0.0
  0
LINE
  5
2BC
330
E3
100
AcDbEntity
  8
0
  6
Continuous
100
AcDbLine
 10
117.5483939298371
 20
127.6019210887748
 30
0.0
 11
117.505150680331
 21
127.5964850008152
 31
0.0
  0
LINE
  5
2BD
330
E3
100
AcDbEntity
  8
0
  6
Continuous
100
AcDbLine
 10
117.505150680331
 20
127.5964850008152
 30
0.0
 11
117.4625643816937
 21
127.5910525224757
 31
0.0
  0
LINE
  5
2BE
330
E3
100
AcDbEntity
  8
0
  6
Continuous
100
AcDbLine
 10
117.4625643816937
 20
127.5910525224757
 30
0.0
 11
117.42096350936
 21
127.585616434516
 31
0.0
  0
LINE
  5
2BF
330
E3
100
AcDbEntity
  8
0
  6
Continuous
100
AcDbLine
 10
117.42096350936
 20
127.585616434516
 30
0.0
 11
117.3806657099036
 21
127.5801803465564
 31
0.0
  0
LINE
  5
2C0
330
E3
100
AcDbEntity
  8
0
  6
Continuous
100
AcDbLine
 10
117.3806657099036
 20
127.5801803465564
 30
0.0
 11
117.341974191418
 21
127.574747868217
 31
0.0
  0
LINE
  5
2C1
330
E3
100
AcDbEntity
  8
0
  6
Continuous
100
AcDbLine
 10
117.341974191418
 20
127.574747868217
 30
0.0
 11
117.3051849427564
 21
127.5693117802573
 31
0.0
  0
LINE
  5
2C2
330
E3
100
AcDbEntity
  8
0
  6
Continuous
100
AcDbLine
 10
117.3051849427564
 20
127.5693117802573
 30
0.0
 11
117.2705795142909
 21
127.5638793019179
 31
0.0
  0
LINE
  5
2C3
330
E3
100
AcDbEntity
  8
0
  6
Continuous
100
AcDbLine
 10
117.2705795142909
 20
127.5638793019179
 30
0.0
 11
117.2384214082934
 21
127.5584432139583
 31
0.0
  0
LINE
  5
2C4
330
E3
100
AcDbEntity
  8
0
  6
Continuous
100
AcDbLine
 10
117.2384214082934
 20
127.5584432139583
 30
0.0
 11
117.2089524693144
 21
127.5530071259986
 31
0.0
  0
LINE
  5
2C5
330
E3
100
AcDbEntity
  8
0
  6
Continuous
100
AcDbLine
 10
117.2089524693144
 20
127.5530071259986
 30
0.0
 11
117.1823964938038
 21
127.5475746476591
 31
0.0
  0
LINE
  5
2C6
330
E3
100
AcDbEntity
  8
0
  6
Continuous
100
AcDbLine
 10
117.1823964938038
 20
127.5475746476591
 30
0.0
 11
117.1589592301107
 21
127.5421385596995
 31
0.0
  0
LINE
  5
2C7
330
E3
100
AcDbEntity
  8
0
  6
Continuous
100
AcDbLine
 10
117.1589592301107
 20
127.5421385596995
 30
0.0
 11
117.138821159243
 21
127.5367024717399
 31
0.0
  0
LINE
  5
2C8
330
E3
100
AcDbEntity
  8
0
  6
Continuous
100
AcDbLine
 10
117.138821159243
 20
127.5367024717399
 30
0.0
 11
117.122126666007
 21
127.5312699934004
 31
0.0
  0
LINE
  5
2C9
330
E3
100
AcDbEntity
  8
0
  6
Continuous
100
AcDbLine
 10
117.122126666007
 20
127.5312699934004
 30
0.0
 11
117.1090093063488
 21
127.5258339054408
 31
0.0
  0
LINE
  5
2CA
330
E3
100
AcDbEntity
  8
0
  6
Continuous
100
AcDbLine
 10
117.1090093063488
 20
127.5258339054408
 30
0.0
 11
117.0995701496328
 21
127.5203978174812
 31
0.0
  0
LINE
  5
2CB
330
E3
100
AcDbEntity
  8
0
  6
Continuous
100
AcDbLine
 10
117.0995701496328
 20
127.5203978174812
 30
0.0
 11
117.0938759015449
 21
127.5149645739251
 31
0.0
  0
LINE
  5
2CC
330
E3
100
AcDbEntity
  8
0
  6
Continuous
100
AcDbLine
 10
117.0938759015449
 20
127.5149645739251
 30
0.0
 11
117.0919732505908
 21
127.5095297913164
 31
0.0
  0
LINE
  5
2CD
330
E3
100
AcDbEntity
  8
0
  6
Continuous
100
AcDbLine
 10
118.0919732505908
 20
127.3138776174034
 30
0.0
 11
118.0900705996366
 21
127.3084428347947
 31
0.0
  0
LINE
  5
2CE
330
E3
100
AcDbEntity
  8
0
  6
Continuous
100
AcDbLine
 10
118.0900705996366
 20
127.3084428347947
 30
0.0
 11
118.0843771270969
 21
127.303008052186
 31
0.0
  0
LINE
  5
2CF
330
E3
100
AcDbEntity
  8
0
  6
Continuous
100
AcDbLine
 10
118.0843771270969
 20
127.303008052186
 30
0.0
 11
118.0749364416874
 21
127.2975723554389
 31
0.0
  0
LINE
  5
2D0
330
E3
100
AcDbEntity
  8
0
  6
Continuous
100
AcDbLine
 10
118.0749364416874
 20
127.2975723554389
 30
0.0
 11
118.0618190820292
 21
127.2921398770994
 31
0.0
  0
LINE
  5
2D1
330
E3
100
AcDbEntity
  8
0
  6
Continuous
100
AcDbLine
 10
118.0618190820292
 20
127.2921398770994
 30
0.0
 11
118.0451281984135
 21
127.2867037891398
 31
0.0
  0
LINE
  5
2D2
330
E3
100
AcDbEntity
  8
0
  6
Continuous
100
AcDbLine
 10
118.0451281984135
 20
127.2867037891398
 30
0.0
 11
118.0249865179256
 21
127.2812677011802
 31
0.0
  0
LINE
  5
2D3
330
E3
100
AcDbEntity
  8
0
  6
Continuous
100
AcDbLine
 10
118.0249865179256
 20
127.2812677011802
 30
0.0
 11
118.0015492542325
 21
127.2758352228408
 31
0.0
  0
LINE
  5
2D4
330
E3
100
AcDbEntity
  8
0
  6
Continuous
100
AcDbLine
 10
118.0015492542325
 20
127.2758352228408
 30
0.0
 11
117.974996888342
 21
127.2703991348811
 31
0.0
  0
LINE
  5
2D5
330
E3
100
AcDbEntity
  8
0
  6
Continuous
100
AcDbLine
 10
117.974996888342
 20
127.2703991348811
 30
0.0
 11
117.945527949363
 21
127.2649630469215
 31
0.0
  0
LINE
  5
2D6
330
E3
100
AcDbEntity
  8
0
  6
Continuous
100
AcDbLine
 10
117.945527949363
 20
127.2649630469215
 30
0.0
 11
117.9133662337453
 21
127.259530568582
 31
0.0
  0
LINE
  5
2D7
330
E3
100
AcDbEntity
  8
0
  6
Continuous
100
AcDbLine
 10
117.9133662337453
 20
127.259530568582
 30
0.0
 11
117.8787608052799
 21
127.2540944806224
 31
0.0
  0
LINE
  5
2D8
330
E3
100
AcDbEntity
  8
0
  6
Continuous
100
AcDbLine
 10
117.8787608052799
 20
127.2540944806224
 30
0.0
 11
117.8419715566182
 21
127.2486620022829
 31
0.0
  0
LINE
  5
2D9
330
E3
100
AcDbEntity
  8
0
  6
Continuous
100
AcDbLine
 10
117.8419715566182
 20
127.2486620022829
 30
0.0
 11
117.8032836477528
 21
127.2432259143233
 31
0.0
  0
LINE
  5
2DA
330
E3
100
AcDbEntity
  8
0
  6
Continuous
100
AcDbLine
 10
117.8032836477528
 20
127.2432259143233
 30
0.0
 11
117.7629822386763
 21
127.2377898263637
 31
0.0
  0
LINE
  5
2DB
330
E3
100
AcDbEntity
  8
0
  6
Continuous
100
AcDbLine
 10
117.7629822386763
 20
127.2377898263637
 30
0.0
 11
117.7213813663425
 21
127.2323573480242
 31
0.0
  0
LINE
  5
2DC
330
E3
100
AcDbEntity
  8
0
  6
Continuous
100
AcDbLine
 10
117.7213813663425
 20
127.2323573480242
 30
0.0
 11
117.6787986773255
 21
127.2269212600646
 31
0.0
  0
LINE
  5
2DD
330
E3
100
AcDbEntity
  8
0
  6
Continuous
100
AcDbLine
 10
117.6787986773255
 20
127.2269212600646
 30
0.0
 11
117.6355518181991
 21
127.221485172105
 31
0.0
  0
LINE
  5
2DE
330
E3
100
AcDbEntity
  8
0
  6
Continuous
100
AcDbLine
 10
117.6355518181991
 20
127.221485172105
 30
0.0
 11
117.5919728740181
 21
127.2160526937655
 31
0.0
  0
LINE
  5
2DF
330
E3
100
AcDbEntity
  8
0
  6
Continuous
100
AcDbLine
 10
117.5919728740181
 20
127.2160526937655
 30
0.0
 11
117.5483939298371
 21
127.2106166058059
 31
0.0
  0
LINE
  5
2E0
330
E3
100
AcDbEntity
  8
0
  6
Continuous
100
AcDbLine
 10
117.5483939298371
 20
127.2106166058059
 30
0.0
 11
117.505150680331
 21
127.2051805178462
 31
0.0
  0
LINE
  5
2E1
330
E3
100
AcDbEntity
  8
0
  6
Continuous
100
AcDbLine
 10
117.505150680331
 20
127.2051805178462
 30
0.0
 11
117.4625643816937
 21
127.1997480395068
 31
0.0
  0
LINE
  5
2E2
330
E3
100
AcDbEntity
  8
0
  6
Continuous
100
AcDbLine
 10
117.4625643816937
 20
127.1997480395068
 30
0.0
 11
117.42096350936
 21
127.1943119515471
 31
0.0
  0
LINE
  5
2E3
330
E3
100
AcDbEntity
  8
0
  6
Continuous
100
AcDbLine
 10
117.42096350936
 20
127.1943119515471
 30
0.0
 11
117.3806657099036
 21
127.1888758635875
 31
0.0
  0
LINE
  5
2E4
330
E3
100
AcDbEntity
  8
0
  6
Continuous
100
AcDbLine
 10
117.3806657099036
 20
127.1888758635875
 30
0.0
 11
117.341974191418
 21
127.1834433852481
 31
0.0
  0
LINE
  5
2E5
330
E3
100
AcDbEntity
  8
0
  6
Continuous
100
AcDbLine
 10
117.341974191418
 20
127.1834433852481
 30
0.0
 11
117.3051849427564
 21
127.1780072972884
 31
0.0
  0
LINE
  5
2E6
330
E3
100
AcDbEntity
  8
0
  6
Continuous
100
AcDbLine
 10
117.3051849427564
 20
127.1780072972884
 30
0.0
 11
117.2705795142909
 21
127.1725748189489
 31
0.0
  0
LINE
  5
2E7
330
E3
100
AcDbEntity
  8
0
  6
Continuous
100
AcDbLine
 10
117.2705795142909
 20
127.1725748189489
 30
0.0
 11
117.2384214082934
 21
127.1671387309893
 31
0.0
  0
LINE
  5
2E8
330
E3
100
AcDbEntity
  8
0
  6
Continuous
100
AcDbLine
 10
117.2384214082934
 20
127.1671387309893
 30
0.0
 11
117.2089524693144
 21
127.1617026430297
 31
0.0
  0
LINE
  5
2E9
330
E3
100
AcDbEntity
  8
0
  6
Continuous
100
AcDbLine
 10
117.2089524693144
 20
127.1617026430297
 30
0.0
 11
117.1823964938038
 21
127.1562701646903
 31
0.0
  0
LINE
  5
2EA
330
E3
100
AcDbEntity
  8
0
  6
Continuous
100
AcDbLine
 10
117.1823964938038
 20
127.1562701646903
 30
0.0
 11
117.1589592301107
 21
127.1508340767306
 31
0.0
  0
LINE
  5
2EB
330
E3
100
AcDbEntity
  8
0
  6
Continuous
100
AcDbLine
 10
117.1589592301107
 20
127.1508340767306
 30
0.0
 11
117.138821159243
 21
127.145397988771
 31
0.0
  0
LINE
  5
2EC
330
E3
100
AcDbEntity
  8
0
  6
Continuous
100
AcDbLine
 10
117.138821159243
 20
127.145397988771
 30
0.0
 11
117.122126666007
 21
127.1399655104315
 31
0.0
  0
LINE
  5
2ED
330
E3
100
AcDbEntity
  8
0
  6
Continuous
100
AcDbLine
 10
117.122126666007
 20
127.1399655104315
 30
0.0
 11
117.1090093063488
 21
127.1345294224719
 31
0.0
  0
LINE
  5
2EE
330
E3
100
AcDbEntity
  8
0
  6
Continuous
100
AcDbLine
 10
117.1090093063488
 20
127.1345294224719
 30
0.0
 11
117.0995701496328
 21
127.1290933345123
 31
0.0
  0
LINE
  5
2EF
330
E3
100
AcDbEntity
  8
0
  6
Continuous
100
AcDbLine
 10
117.0995701496328
 20
127.1290933345123
 30
0.0
 11
117.0938759015449
 21
127.123660226099
 31
0.0
  0
LINE
  5
2F0
330
E3
100
AcDbEntity
  8
0
  6
Continuous
100
AcDbLine
 10
117.0938759015449
 20
127.123660226099
 30
0.0
 11
117.0919732505908
 21
127.1182254434903
 31
0.0
  0
LINE
  5
2F1
330
E3
100
AcDbEntity
  8
0
  6
Continuous
100
AcDbLine
 10
118.0919732505908
 20
126.9225732695773
 30
0.0
 11
118.0900705996366
 21
126.9171384869686
 31
0.0
  0
LINE
  5
2F2
330
E3
100
AcDbEntity
  8
0
  6
Continuous
100
AcDbLine
 10
118.0900705996366
 20
126.9171384869686
 30
0.0
 11
118.0843771270969
 21
126.9117037043599
 31
0.0
  0
LINE
  5
2F3
330
E3
100
AcDbEntity
  8
0
  6
Continuous
100
AcDbLine
 10
118.0843771270969
 20
126.9117037043599
 30
0.0
 11
118.0749364416874
 21
126.90626787247
 31
0.0
  0
LINE
  5
2F4
330
E3
100
AcDbEntity
  8
0
  6
Continuous
100
AcDbLine
 10
118.0749364416874
 20
126.90626787247
 30
0.0
 11
118.0618190820292
 21
126.9008353941306
 31
0.0
  0
LINE
  5
2F5
330
E3
100
AcDbEntity
  8
0
  6
Continuous
100
AcDbLine
 10
118.0618190820292
 20
126.9008353941306
 30
0.0
 11
118.0451281984135
 21
126.8953993061709
 31
0.0
  0
LINE
  5
2F6
330
E3
100
AcDbEntity
  8
0
  6
Continuous
100
AcDbLine
 10
118.0451281984135
 20
126.8953993061709
 30
0.0
 11
118.0249865179256
 21
126.8899632182113
 31
0.0
  0
LINE
  5
2F7
330
E3
100
AcDbEntity
  8
0
  6
Continuous
100
AcDbLine
 10
118.0249865179256
 20
126.8899632182113
 30
0.0
 11
118.0015492542325
 21
126.8845307398718
 31
0.0
  0
LINE
  5
2F8
330
E3
100
AcDbEntity
  8
0
  6
Continuous
100
AcDbLine
 10
118.0015492542325
 20
126.8845307398718
 30
0.0
 11
117.974996888342
 21
126.8790946519122
 31
0.0
  0
LINE
  5
2F9
330
E3
100
AcDbEntity
  8
0
  6
Continuous
100
AcDbLine
 10
117.974996888342
 20
126.8790946519122
 30
0.0
 11
117.945527949363
 21
126.8736585639525
 31
0.0
  0
LINE
  5
2FA
330
E3
100
AcDbEntity
  8
0
  6
Continuous
100
AcDbLine
 10
117.945527949363
 20
126.8736585639525
 30
0.0
 11
117.9133662337453
 21
126.8682260856131
 31
0.0
  0
LINE
  5
2FB
330
E3
100
AcDbEntity
  8
0
  6
Continuous
100
AcDbLine
 10
117.9133662337453
 20
126.8682260856131
 30
0.0
 11
117.8787608052799
 21
126.8627899976535
 31
0.0
  0
LINE
  5
2FC
330
E3
100
AcDbEntity
  8
0
  6
Continuous
100
AcDbLine
 10
117.8787608052799
 20
126.8627899976535
 30
0.0
 11
117.8419715566182
 21
126.857357519314
 31
0.0
  0
LINE
  5
2FD
330
E3
100
AcDbEntity
  8
0
  6
Continuous
100
AcDbLine
 10
117.8419715566182
 20
126.857357519314
 30
0.0
 11
117.8032836477528
 21
126.8519214313544
 31
0.0
  0
LINE
  5
2FE
330
E3
100
AcDbEntity
  8
0
  6
Continuous
100
AcDbLine
 10
117.8032836477528
 20
126.8519214313544
 30
0.0
 11
117.7629822386763
 21
126.8464853433948
 31
0.0
  0
LINE
  5
2FF
330
E3
100
AcDbEntity
  8
0
  6
Continuous
100
AcDbLine
 10
117.7629822386763
 20
126.8464853433948
 30
0.0
 11
117.7213813663425
 21
126.8410528650553
 31
0.0
  0
LINE
  5
300
330
E3
100
AcDbEntity
  8
0
  6
Continuous
100
AcDbLine
 10
117.7213813663425
 20
126.8410528650553
 30
0.0
 11
117.6787986773255
 21
126.8356167770957
 31
0.0
  0
LINE
  5
301
330
E3
100
AcDbEntity
  8
0
  6
Continuous
100
AcDbLine
 10
117.6787986773255
 20
126.8356167770957
 30
0.0
 11
117.6355518181991
 21
126.830180689136
 31
0.0
  0
LINE
  5
302
330
E3
100
AcDbEntity
  8
0
  6
Continuous
100
AcDbLine
 10
117.6355518181991
 20
126.830180689136
 30
0.0
 11
117.5919728740181
 21
126.8247482107966
 31
0.0
  0
LINE
  5
303
330
E3
100
AcDbEntity
  8
0
  6
Continuous
100
AcDbLine
 10
117.5919728740181
 20
126.8247482107966
 30
0.0
 11
117.5483939298371
 21
126.8193121228369
 31
0.0
  0
LINE
  5
304
330
E3
100
AcDbEntity
  8
0
  6
Continuous
100
AcDbLine
 10
117.5483939298371
 20
126.8193121228369
 30
0.0
 11
117.505150680331
 21
126.8138760348773
 31
0.0
  0
LINE
  5
305
330
E3
100
AcDbEntity
  8
0
  6
Continuous
100
AcDbLine
 10
117.505150680331
 20
126.8138760348773
 30
0.0
 11
117.4625643816937
 21
126.8084435565379
 31
0.0
  0
LINE
  5
306
330
E3
100
AcDbEntity
  8
0
  6
Continuous
100
AcDbLine
 10
117.4625643816937
 20
126.8084435565379
 30
0.0
 11
117.42096350936
 21
126.8030074685782
 31
0.0
  0
LINE
  5
307
330
E3
100
AcDbEntity
  8
0
  6
Continuous
100
AcDbLine
 10
117.42096350936
 20
126.8030074685782
 30
0.0
 11
117.3806657099036
 21
126.7975749902387
 31
0.0
  0
LINE
  5
308
330
E3
100
AcDbEntity
  8
0
  6
Continuous
100
AcDbLine
 10
117.3806657099036
 20
126.7975749902387
 30
0.0
 11
117.341974191418
 21
126.7921389022791
 31
0.0
  0
LINE
  5
309
330
E3
100
AcDbEntity
  8
0
  6
Continuous
100
AcDbLine
 10
117.341974191418
 20
126.7921389022791
 30
0.0
 11
117.3051849427564
 21
126.7867028143195
 31
0.0
  0
LINE
  5
30A
330
E3
100
AcDbEntity
  8
0
  6
Continuous
100
AcDbLine
 10
117.3051849427564
 20
126.7867028143195
 30
0.0
 11
117.2705795142909
 21
126.78127033598
 31
0.0
  0
LINE
  5
30B
330
E3
100
AcDbEntity
  8
0
  6
Continuous
100
AcDbLine
 10
117.2705795142909
 20
126.78127033598
 30
0.0
 11
117.2384214082934
 21
126.7758342480204
 31
0.0
  0
LINE
  5
30C
330
E3
100
AcDbEntity
  8
0
  6
Continuous
100
AcDbLine
 10
117.2384214082934
 20
126.7758342480204
 30
0.0
 11
117.2089524693144
 21
126.7703981600608
 31
0.0
  0
LINE
  5
30D
330
E3
100
AcDbEntity
  8
0
  6
Continuous
100
AcDbLine
 10
117.2089524693144
 20
126.7703981600608
 30
0.0
 11
117.1823964938038
 21
126.7649656817213
 31
0.0
  0
LINE
  5
30E
330
E3
100
AcDbEntity
  8
0
  6
Continuous
100
AcDbLine
 10
117.1823964938038
 20
126.7649656817213
 30
0.0
 11
117.1589592301107
 21
126.7595295937617
 31
0.0
  0
LINE
  5
30F
330
E3
100
AcDbEntity
  8
0
  6
Continuous
100
AcDbLine
 10
117.1589592301107
 20
126.7595295937617
 30
0.0
 11
117.138821159243
 21
126.7540935058021
 31
0.0
  0
LINE
  5
310
330
E3
100
AcDbEntity
  8
0
  6
Continuous
100
AcDbLine
 10
117.138821159243
 20
126.7540935058021
 30
0.0
 11
117.122126666007
 21
126.7486610274626
 31
0.0
  0
LINE
  5
311
330
E3
100
AcDbEntity
  8
0
  6
Continuous
100
AcDbLine
 10
117.122126666007
 20
126.7486610274626
 30
0.0
 11
117.1090093063488
 21
126.743224939503
 31
0.0
  0
LINE
  5
312
330
E3
100
AcDbEntity
  8
0
  6
Continuous
100
AcDbLine
 10
117.1090093063488
 20
126.743224939503
 30
0.0
 11
117.0995701496328
 21
126.7377924611635
 31
0.0
  0
LINE
  5
313
330
E3
100
AcDbEntity
  8
0
  6
Continuous
100
AcDbLine
 10
117.0995701496328
 20
126.7377924611635
 30
0.0
 11
117.0938759015449
 21
126.7323558782729
 31
0.0
  0
LINE
  5
314
330
E3
100
AcDbEntity
  8
0
  6
Continuous
100
AcDbLine
 10
117.0938759015449
 20
126.7323558782729
 30
0.0
 11
117.0919732505908
 21
126.7269210956643
 31
0.0
  0
LINE
  5
315
330
E3
100
AcDbEntity
  8
0
  6
Continuous
100
AcDbLine
 10
118.0919732505908
 20
126.5312689217512
 30
0.0
 11
118.0900705996366
 21
126.5258341391425
 31
0.0
  0
LINE
  5
316
330
E3
100
AcDbEntity
  8
0
  6
Continuous
100
AcDbLine
 10
118.0900705996366
 20
126.5258341391425
 30
0.0
 11
118.0843771270969
 21
126.5203993565338
 31
0.0
  0
LINE
  5
317
330
E3
100
AcDbEntity
  8
0
  6
Continuous
100
AcDbLine
 10
118.0843771270969
 20
126.5203993565338
 30
0.0
 11
118.0749364416874
 21
126.5149633895011
 31
0.0
  0
LINE
  5
318
330
E3
100
AcDbEntity
  8
0
  6
Continuous
100
AcDbLine
 10
118.0749364416874
 20
126.5149633895011
 30
0.0
 11
118.0618190820292
 21
126.5095309111616
 31
0.0
  0
LINE
  5
319
330
E3
100
AcDbEntity
  8
0
  6
Continuous
100
AcDbLine
 10
118.0618190820292
 20
126.5095309111616
 30
0.0
 11
118.0451281984135
 21
126.504094823202
 31
0.0
  0
LINE
  5
31A
330
E3
100
AcDbEntity
  8
0
  6
Continuous
100
AcDbLine
 10
118.0451281984135
 20
126.504094823202
 30
0.0
 11
118.0249865179256
 21
126.4986587352424
 31
0.0
  0
LINE
  5
31B
330
E3
100
AcDbEntity
  8
0
  6
Continuous
100
AcDbLine
 10
118.0249865179256
 20
126.4986587352424
 30
0.0
 11
118.0015492542325
 21
126.4932262569029
 31
0.0
  0
LINE
  5
31C
330
E3
100
AcDbEntity
  8
0
  6
Continuous
100
AcDbLine
 10
118.0015492542325
 20
126.4932262569029
 30
0.0
 11
117.974996888342
 21
126.4877901689433
 31
0.0
  0
LINE
  5
31D
330
E3
100
AcDbEntity
  8
0
  6
Continuous
100
AcDbLine
 10
117.974996888342
 20
126.4877901689433
 30
0.0
 11
117.945527949363
 21
126.4823540809837
 31
0.0
  0
LINE
  5
31E
330
E3
100
AcDbEntity
  8
0
  6
Continuous
100
AcDbLine
 10
117.945527949363
 20
126.4823540809837
 30
0.0
 11
117.9133662337453
 21
126.4769216026442
 31
0.0
  0
LINE
  5
31F
330
E3
100
AcDbEntity
  8
0
  6
Continuous
100
AcDbLine
 10
117.9133662337453
 20
126.4769216026442
 30
0.0
 11
117.8787608052799
 21
126.4714855146846
 31
0.0
  0
LINE
  5
320
330
E3
100
AcDbEntity
  8
0
  6
Continuous
100
AcDbLine
 10
117.8787608052799
 20
126.4714855146846
 30
0.0
 11
117.8419715566182
 21
126.4660530363451
 31
0.0
  0
LINE
  5
321
330
E3
100
AcDbEntity
  8
0
  6
Continuous
100
AcDbLine
 10
117.8419715566182
 20
126.4660530363451
 30
0.0
 11
117.8032836477528
 21
126.4606169483855
 31
0.0
  0
LINE
  5
322
330
E3
100
AcDbEntity
  8
0
  6
Continuous
100
AcDbLine
 10
117.8032836477528
 20
126.4606169483855
 30
0.0
 11
117.7629822386763
 21
126.4551808604258
 31
0.0
  0
LINE
  5
323
330
E3
100
AcDbEntity
  8
0
  6
Continuous
100
AcDbLine
 10
117.7629822386763
 20
126.4551808604258
 30
0.0
 11
117.7213813663425
 21
126.4497483820864
 31
0.0
  0
LINE
  5
324
330
E3
100
AcDbEntity
  8
0
  6
Continuous
100
AcDbLine
 10
117.7213813663425
 20
126.4497483820864
 30
0.0
 11
117.6787986773255
 21
126.4443122941267
 31
0.0
  0
LINE
  5
325
330
E3
100
AcDbEntity
  8
0
  6
Continuous
100
AcDbLine
 10
117.6787986773255
 20
126.4443122941267
 30
0.0
 11
117.6355518181991
 21
126.4388762061671
 31
0.0
  0
LINE
  5
326
330
E3
100
AcDbEntity
  8
0
  6
Continuous
100
AcDbLine
 10
117.6355518181991
 20
126.4388762061671
 30
0.0
 11
117.5919728740181
 21
126.4334437278277
 31
0.0
  0
LINE
  5
327
330
E3
100
AcDbEntity
  8
0
  6
Continuous
100
AcDbLine
 10
117.5919728740181
 20
126.4334437278277
 30
0.0
 11
117.5483939298371
 21
126.428007639868
 31
0.0
  0
LINE
  5
328
330
E3
100
AcDbEntity
  8
0
  6
Continuous
100
AcDbLine
 10
117.5483939298371
 20
126.428007639868
 30
0.0
 11
117.505150680331
 21
126.4225715519084
 31
0.0
  0
LINE
  5
329
330
E3
100
AcDbEntity
  8
0
  6
Continuous
100
AcDbLine
 10
117.505150680331
 20
126.4225715519084
 30
0.0
 11
117.4625643816937
 21
126.4171390735689
 31
0.0
  0
LINE
  5
32A
330
E3
100
AcDbEntity
  8
0
  6
Continuous
100
AcDbLine
 10
117.4625643816937
 20
126.4171390735689
 30
0.0
 11
117.42096350936
 21
126.4117029856093
 31
0.0
  0
LINE
  5
32B
330
E3
100
AcDbEntity
  8
0
  6
Continuous
100
AcDbLine
 10
117.42096350936
 20
126.4117029856093
 30
0.0
 11
117.3806657099036
 21
126.4062705072699
 31
0.0
  0
LINE
  5
32C
330
E3
100
AcDbEntity
  8
0
  6
Continuous
100
AcDbLine
 10
117.3806657099036
 20
126.4062705072699
 30
0.0
 11
117.341974191418
 21
126.4008344193102
 31
0.0
  0
LINE
  5
32D
330
E3
100
AcDbEntity
  8
0
  6
Continuous
100
AcDbLine
 10
117.341974191418
 20
126.4008344193102
 30
0.0
 11
117.3051849427564
 21
126.3953983313506
 31
0.0
  0
LINE
  5
32E
330
E3
100
AcDbEntity
  8
0
  6
Continuous
100
AcDbLine
 10
117.3051849427564
 20
126.3953983313506
 30
0.0
 11
117.2705795142909
 21
126.3899658530111
 31
0.0
  0
LINE
  5
32F
330
E3
100
AcDbEntity
  8
0
  6
Continuous
100
AcDbLine
 10
117.2705795142909
 20
126.3899658530111
 30
0.0
 11
117.2384214082934
 21
126.3845297650515
 31
0.0
  0
LINE
  5
330
330
E3
100
AcDbEntity
  8
0
  6
Continuous
100
AcDbLine
 10
117.2384214082934
 20
126.3845297650515
 30
0.0
 11
117.2089524693144
 21
126.3790936770919
 31
0.0
  0
LINE
  5
331
330
E3
100
AcDbEntity
  8
0
  6
Continuous
100
AcDbLine
 10
117.2089524693144
 20
126.3790936770919
 30
0.0
 11
117.1823964938038
 21
126.3736611987524
 31
0.0
  0
LINE
  5
332
330
E3
100
AcDbEntity
  8
0
  6
Continuous
100
AcDbLine
 10
117.1823964938038
 20
126.3736611987524
 30
0.0
 11
117.1589592301107
 21
126.3682251107928
 31
0.0
  0
LINE
  5
333
330
E3
100
AcDbEntity
  8
0
  6
Continuous
100
AcDbLine
 10
117.1589592301107
 20
126.3682251107928
 30
0.0
 11
117.138821159243
 21
126.3627890228332
 31
0.0
  0
LINE
  5
334
330
E3
100
AcDbEntity
  8
0
  6
Continuous
100
AcDbLine
 10
117.138821159243
 20
126.3627890228332
 30
0.0
 11
117.122126666007
 21
126.3573565444937
 31
0.0
  0
LINE
  5
335
330
E3
100
AcDbEntity
  8
0
  6
Continuous
100
AcDbLine
 10
117.122126666007
 20
126.3573565444937
 30
0.0
 11
117.1090093063488
 21
126.3519204565341
 31
0.0
  0
LINE
  5
336
330
E3
100
AcDbEntity
  8
0
  6
Continuous
100
AcDbLine
 10
117.1090093063488
 20
126.3519204565341
 30
0.0
 11
117.0995701496328
 21
126.3464879781946
 31
0.0
  0
LINE
  5
337
330
E3
100
AcDbEntity
  8
0
  6
Continuous
100
AcDbLine
 10
117.0995701496328
 20
126.3464879781946
 30
0.0
 11
117.0938759015449
 21
126.3410515304469
 31
0.0
  0
LINE
  5
338
330
E3
100
AcDbEntity
  8
0
  6
Continuous
100
AcDbLine
 10
117.0938759015449
 20
126.3410515304469
 30
0.0
 11
117.0919732505908
 21
126.3356167478382
 31
0.0
  0
LINE
  5
339
330
E3
100
AcDbEntity
  8
0
  6
Continuous
100
AcDbLine
 10
118.0919732505908
 20
126.1399645739251
 30
0.0
 11
118.0900705996366
 21
126.1345297913164
 31
0.0
  0
LINE
  5
33A
330
E3
100
AcDbEntity
  8
0
  6
Continuous
100
AcDbLine
 10
118.0900705996366
 20
126.1345297913164
 30
0.0
 11
118.0843771270969
 21
126.1290950087077
 31
0.0
  0
LINE
  5
33B
330
E3
100
AcDbEntity
  8
0
  6
Continuous
100
AcDbLine
 10
118.0843771270969
 20
126.1290950087077
 30
0.0
 11
118.0749364416874
 21
126.1236589065322
 31
0.0
  0
LINE
  5
33C
330
E3
100
AcDbEntity
  8
0
  6
Continuous
100
AcDbLine
 10
118.0749364416874
 20
126.1236589065322
 30
0.0
 11
118.0618190820292
 21
126.1182264281927
 31
0.0
  0
LINE
  5
33D
330
E3
100
AcDbEntity
  8
0
  6
Continuous
100
AcDbLine
 10
118.0618190820292
 20
126.1182264281927
 30
0.0
 11
118.0451281984135
 21
126.1127903402331
 31
0.0
  0
LINE
  5
33E
330
E3
100
AcDbEntity
  8
0
  6
Continuous
100
AcDbLine
 10
118.0451281984135
 20
126.1127903402331
 30
0.0
 11
118.0249865179256
 21
126.1073542522735
 31
0.0
  0
LINE
  5
33F
330
E3
100
AcDbEntity
  8
0
  6
Continuous
100
AcDbLine
 10
118.0249865179256
 20
126.1073542522735
 30
0.0
 11
118.0015492542325
 21
126.101921773934
 31
0.0
  0
LINE
  5
340
330
E3
100
AcDbEntity
  8
0
  6
Continuous
100
AcDbLine
 10
118.0015492542325
 20
126.101921773934
 30
0.0
 11
117.974996888342
 21
126.0964856859744
 31
0.0
  0
LINE
  5
341
330
E3
100
AcDbEntity
  8
0
  6
Continuous
100
AcDbLine
 10
117.974996888342
 20
126.0964856859744
 30
0.0
 11
117.945527949363
 21
126.0910532076349
 31
0.0
  0
LINE
  5
342
330
E3
100
AcDbEntity
  8
0
  6
Continuous
100
AcDbLine
 10
117.945527949363
 20
126.0910532076349
 30
0.0
 11
117.9133662337453
 21
126.0856171196752
 31
0.0
  0
LINE
  5
343
330
E3
100
AcDbEntity
  8
0
  6
Continuous
100
AcDbLine
 10
117.9133662337453
 20
126.0856171196752
 30
0.0
 11
117.8787608052799
 21
126.0801810317156
 31
0.0
  0
LINE
  5
344
330
E3
100
AcDbEntity
  8
0
  6
Continuous
100
AcDbLine
 10
117.8787608052799
 20
126.0801810317156
 30
0.0
 11
117.8419715566182
 21
126.0747485533762
 31
0.0
  0
LINE
  5
345
330
E3
100
AcDbEntity
  8
0
  6
Continuous
100
AcDbLine
 10
117.8419715566182
 20
126.0747485533762
 30
0.0
 11
117.8032836477528
 21
126.0693124654166
 31
0.0
  0
LINE
  5
346
330
E3
100
AcDbEntity
  8
0
  6
Continuous
100
AcDbLine
 10
117.8032836477528
 20
126.0693124654166
 30
0.0
 11
117.7629822386763
 21
126.0638763774569
 31
0.0
  0
LINE
  5
347
330
E3
100
AcDbEntity
  8
0
  6
Continuous
100
AcDbLine
 10
117.7629822386763
 20
126.0638763774569
 30
0.0
 11
117.7213813663425
 21
126.0584438991175
 31
0.0
  0
LINE
  5
348
330
E3
100
AcDbEntity
  8
0
  6
Continuous
100
AcDbLine
 10
117.7213813663425
 20
126.0584438991175
 30
0.0
 11
117.6787986773255
 21
126.0530078111578
 31
0.0
  0
LINE
  5
349
330
E3
100
AcDbEntity
  8
0
  6
Continuous
100
AcDbLine
 10
117.6787986773255
 20
126.0530078111578
 30
0.0
 11
117.6355518181991
 21
126.0475717231982
 31
0.0
  0
LINE
  5
34A
330
E3
100
AcDbEntity
  8
0
  6
Continuous
100
AcDbLine
 10
117.6355518181991
 20
126.0475717231982
 30
0.0
 11
117.5919728740181
 21
126.0421392448587
 31
0.0
  0
LINE
  5
34B
330
E3
100
AcDbEntity
  8
0
  6
Continuous
100
AcDbLine
 10
117.5919728740181
 20
126.0421392448587
 30
0.0
 11
117.5483939298371
 21
126.0367031568991
 31
0.0
  0
LINE
  5
34C
330
E3
100
AcDbEntity
  8
0
  6
Continuous
100
AcDbLine
 10
117.5483939298371
 20
126.0367031568991
 30
0.0
 11
117.505150680331
 21
126.0312706785596
 31
0.0
  0
LINE
  5
34D
330
E3
100
AcDbEntity
  8
0
  6
Continuous
100
AcDbLine
 10
117.505150680331
 20
126.0312706785596
 30
0.0
 11
117.4625643816937
 21
126.0258345906
 31
0.0
  0
LINE
  5
34E
330
E3
100
AcDbEntity
  8
0
  6
Continuous
100
AcDbLine
 10
117.4625643816937
 20
126.0258345906
 30
0.0
 11
117.42096350936
 21
126.0203985026404
 31
0.0
  0
LINE
  5
34F
330
E3
100
AcDbEntity
  8
0
  6
Continuous
100
AcDbLine
 10
117.42096350936
 20
126.0203985026404
 30
0.0
 11
117.3806657099036
 21
126.0149660243009
 31
0.0
  0
LINE
  5
350
330
E3
100
AcDbEntity
  8
0
  6
Continuous
100
AcDbLine
 10
117.3806657099036
 20
126.0149660243009
 30
0.0
 11
117.341974191418
 21
126.0095299363413
 31
0.0
  0
LINE
  5
351
330
E3
100
AcDbEntity
  8
0
  6
Continuous
100
AcDbLine
 10
117.341974191418
 20
126.0095299363413
 30
0.0
 11
117.3051849427564
 21
126.0040938483817
 31
0.0
  0
LINE
  5
352
330
E3
100
AcDbEntity
  8
0
  6
Continuous
100
AcDbLine
 10
117.3051849427564
 20
126.0040938483817
 30
0.0
 11
117.2705795142909
 21
125.9986613700422
 31
0.0
  0
LINE
  5
353
330
E3
100
AcDbEntity
  8
0
  6
Continuous
100
AcDbLine
 10
117.2705795142909
 20
125.9986613700422
 30
0.0
 11
117.2384214082934
 21
125.9932252820826
 31
0.0
  0
LINE
  5
354
330
E3
100
AcDbEntity
  8
0
  6
Continuous
100
AcDbLine
 10
117.2384214082934
 20
125.9932252820826
 30
0.0
 11
117.2089524693144
 21
125.987789194123
 31
0.0
  0
LINE
  5
355
330
E3
100
AcDbEntity
  8
0
  6
Continuous
100
AcDbLine
 10
117.2089524693144
 20
125.987789194123
 30
0.0
 11
117.1823964938038
 21
125.9823567157835
 31
0.0
  0
LINE
  5
356
330
E3
100
AcDbEntity
  8
0
  6
Continuous
100
AcDbLine
 10
117.1823964938038
 20
125.9823567157835
 30
0.0
 11
117.1589592301107
 21
125.9769206278239
 31
0.0
  0
LINE
  5
357
330
E3
100
AcDbEntity
  8
0
  6
Continuous
100
AcDbLine
 10
117.1589592301107
 20
125.9769206278239
 30
0.0
 11
117.138821159243
 21
125.9714845398642
 31
0.0
  0
LINE
  5
358
330
E3
100
AcDbEntity
  8
0
  6
Continuous
100
AcDbLine
 10
117.138821159243
 20
125.9714845398642
 30
0.0
 11
117.122126666007
 21
125.9660520615248
 31
0.0
  0
LINE
  5
359
330
E3
100
AcDbEntity
  8
0
  6
Continuous
100
AcDbLine
 10
117.122126666007
 20
125.9660520615248
 30
0.0
 11
117.1090093063488
 21
125.9606159735652
 31
0.0
  0
LINE
  5
35A
330
E3
100
AcDbEntity
  8
0
  6
Continuous
100
AcDbLine
 10
117.1090093063488
 20
125.9606159735652
 30
0.0
 11
117.0995701496328
 21
125.9551834952257
 31
0.0
  0
LINE
  5
35B
330
E3
100
AcDbEntity
  8
0
  6
Continuous
100
AcDbLine
 10
117.0995701496328
 20
125.9551834952257
 30
0.0
 11
117.0938759015449
 21
125.9497471826208
 31
0.0
  0
LINE
  5
35C
330
E3
100
AcDbEntity
  8
0
  6
Continuous
100
AcDbLine
 10
117.0938759015449
 20
125.9497471826208
 30
0.0
 11
117.0919732505908
 21
125.9443124000121
 31
0.0
  0
LINE
  5
35D
330
E3
100
AcDbEntity
  8
0
  6
Continuous
100
AcDbLine
 10
118.0919732505908
 20
125.748660226099
 30
0.0
 11
118.0900705996366
 21
125.7432254434903
 31
0.0
  0
LINE
  5
35E
330
E3
100
AcDbEntity
  8
0
  6
Continuous
100
AcDbLine
 10
118.0900705996366
 20
125.7432254434903
 30
0.0
 11
118.0843771270969
 21
125.7377906608816
 31
0.0
  0
LINE
  5
35F
330
E3
100
AcDbEntity
  8
0
  6
Continuous
100
AcDbLine
 10
118.0843771270969
 20
125.7377906608816
 30
0.0
 11
118.0749364416874
 21
125.7323544235632
 31
0.0
  0
LINE
  5
360
330
E3
100
AcDbEntity
  8
0
  6
Continuous
100
AcDbLine
 10
118.0749364416874
 20
125.7323544235632
 30
0.0
 11
118.0618190820292
 21
125.7269219452238
 31
0.0
  0
LINE
  5
361
330
E3
100
AcDbEntity
  8
0
  6
Continuous
100
AcDbLine
 10
118.0618190820292
 20
125.7269219452238
 30
0.0
 11
118.0451281984135
 21
125.7214858572642
 31
0.0
  0
LINE
  5
362
330
E3
100
AcDbEntity
  8
0
  6
Continuous
100
AcDbLine
 10
118.0451281984135
 20
125.7214858572642
 30
0.0
 11
118.0249865179256
 21
125.7160497693045
 31
0.0
  0
LINE
  5
363
330
E3
100
AcDbEntity
  8
0
  6
Continuous
100
AcDbLine
 10
118.0249865179256
 20
125.7160497693045
 30
0.0
 11
118.0015492542325
 21
125.7106172909651
 31
0.0
  0
LINE
  5
364
330
E3
100
AcDbEntity
  8
0
  6
Continuous
100
AcDbLine
 10
118.0015492542325
 20
125.7106172909651
 30
0.0
 11
117.974996888342
 21
125.7051812030055
 31
0.0
  0
LINE
  5
365
330
E3
100
AcDbEntity
  8
0
  6
Continuous
100
AcDbLine
 10
117.974996888342
 20
125.7051812030055
 30
0.0
 11
117.945527949363
 21
125.699748724666
 31
0.0
  0
LINE
  5
366
330
E3
100
AcDbEntity
  8
0
  6
Continuous
100
AcDbLine
 10
117.945527949363
 20
125.699748724666
 30
0.0
 11
117.9133662337453
 21
125.6943126367064
 31
0.0
  0
LINE
  5
367
330
E3
100
AcDbEntity
  8
0
  6
Continuous
100
AcDbLine
 10
117.9133662337453
 20
125.6943126367064
 30
0.0
 11
117.8787608052799
 21
125.6888765487467
 31
0.0
  0
LINE
  5
368
330
E3
100
AcDbEntity
  8
0
  6
Continuous
100
AcDbLine
 10
117.8787608052799
 20
125.6888765487467
 30
0.0
 11
117.8419715566182
 21
125.6834440704073
 31
0.0
  0
LINE
  5
369
330
E3
100
AcDbEntity
  8
0
  6
Continuous
100
AcDbLine
 10
117.8419715566182
 20
125.6834440704073
 30
0.0
 11
117.8032836477528
 21
125.6780079824477
 31
0.0
  0
LINE
  5
36A
330
E3
100
AcDbEntity
  8
0
  6
Continuous
100
AcDbLine
 10
117.8032836477528
 20
125.6780079824477
 30
0.0
 11
117.7629822386763
 21
125.672571894488
 31
0.0
  0
LINE
  5
36B
330
E3
100
AcDbEntity
  8
0
  6
Continuous
100
AcDbLine
 10
117.7629822386763
 20
125.672571894488
 30
0.0
 11
117.7213813663425
 21
125.6671394161485
 31
0.0
  0
LINE
  5
36C
330
E3
100
AcDbEntity
  8
0
  6
Continuous
100
AcDbLine
 10
117.7213813663425
 20
125.6671394161485
 30
0.0
 11
117.6787986773255
 21
125.6617033281889
 31
0.0
  0
LINE
  5
36D
330
E3
100
AcDbEntity
  8
0
  6
Continuous
100
AcDbLine
 10
117.6787986773255
 20
125.6617033281889
 30
0.0
 11
117.6355518181991
 21
125.6562672402293
 31
0.0
  0
LINE
  5
36E
330
E3
100
AcDbEntity
  8
0
  6
Continuous
100
AcDbLine
 10
117.6355518181991
 20
125.6562672402293
 30
0.0
 11
117.5919728740181
 21
125.6508347618898
 31
0.0
  0
LINE
  5
36F
330
E3
100
AcDbEntity
  8
0
  6
Continuous
100
AcDbLine
 10
117.5919728740181
 20
125.6508347618898
 30
0.0
 11
117.5483939298371
 21
125.6453986739302
 31
0.0
  0
LINE
  5
370
330
E3
100
AcDbEntity
  8
0
  6
Continuous
100
AcDbLine
 10
117.5483939298371
 20
125.6453986739302
 30
0.0
 11
117.505150680331
 21
125.6399661955907
 31
0.0
  0
LINE
  5
371
330
E3
100
AcDbEntity
  8
0
  6
Continuous
100
AcDbLine
 10
117.505150680331
 20
125.6399661955907
 30
0.0
 11
117.4625643816937
 21
125.6345301076311
 31
0.0
  0
LINE
  5
372
330
E3
100
AcDbEntity
  8
0
  6
Continuous
100
AcDbLine
 10
117.4625643816937
 20
125.6345301076311
 30
0.0
 11
117.42096350936
 21
125.6290940196715
 31
0.0
  0
LINE
  5
373
330
E3
100
AcDbEntity
  8
0
  6
Continuous
100
AcDbLine
 10
117.42096350936
 20
125.6290940196715
 30
0.0
 11
117.3806657099036
 21
125.623661541332
 31
0.0
  0
LINE
  5
374
330
E3
100
AcDbEntity
  8
0
  6
Continuous
100
AcDbLine
 10
117.3806657099036
 20
125.623661541332
 30
0.0
 11
117.341974191418
 21
125.6182254533724
 31
0.0
  0
LINE
  5
375
330
E3
100
AcDbEntity
  8
0
  6
Continuous
100
AcDbLine
 10
117.341974191418
 20
125.6182254533724
 30
0.0
 11
117.3051849427564
 21
125.6127893654128
 31
0.0
  0
LINE
  5
376
330
E3
100
AcDbEntity
  8
0
  6
Continuous
100
AcDbLine
 10
117.3051849427564
 20
125.6127893654128
 30
0.0
 11
117.2705795142909
 21
125.6073568870733
 31
0.0
  0
LINE
  5
377
330
E3
100
AcDbEntity
  8
0
  6
Continuous
100
AcDbLine
 10
117.2705795142909
 20
125.6073568870733
 30
0.0
 11
117.2384214082934
 21
125.6019207991137
 31
0.0
  0
LINE
  5
378
330
E3
100
AcDbEntity
  8
0
  6
Continuous
100
AcDbLine
 10
117.2384214082934
 20
125.6019207991137
 30
0.0
 11
117.2089524693144
 21
125.596484711154
 31
0.0
  0
LINE
  5
379
330
E3
100
AcDbEntity
  8
0
  6
Continuous
100
AcDbLine
 10
117.2089524693144
 20
125.596484711154
 30
0.0
 11
117.1823964938038
 21
125.5910522328146
 31
0.0
  0
LINE
  5
37A
330
E3
100
AcDbEntity
  8
0
  6
Continuous
100
AcDbLine
 10
117.1823964938038
 20
125.5910522328146
 30
0.0
 11
117.1589592301107
 21
125.5856161448549
 31
0.0
  0
LINE
  5
37B
330
E3
100
AcDbEntity
  8
0
  6
Continuous
100
AcDbLine
 10
117.1589592301107
 20
125.5856161448549
 30
0.0
 11
117.138821159243
 21
125.5801836665155
 31
0.0
  0
LINE
  5
37C
330
E3
100
AcDbEntity
  8
0
  6
Continuous
100
AcDbLine
 10
117.138821159243
 20
125.5801836665155
 30
0.0
 11
117.122126666007
 21
125.5747475785559
 31
0.0
  0
LINE
  5
37D
330
E3
100
AcDbEntity
  8
0
  6
Continuous
100
AcDbLine
 10
117.122126666007
 20
125.5747475785559
 30
0.0
 11
117.1090093063488
 21
125.5693114905962
 31
0.0
  0
LINE
  5
37E
330
E3
100
AcDbEntity
  8
0
  6
Continuous
100
AcDbLine
 10
117.1090093063488
 20
125.5693114905962
 30
0.0
 11
117.0995701496328
 21
125.5638790122568
 31
0.0
  0
LINE
  5
37F
330
E3
100
AcDbEntity
  8
0
  6
Continuous
100
AcDbLine
 10
117.0995701496328
 20
125.5638790122568
 30
0.0
 11
117.0938759015449
 21
125.5584428347947
 31
0.0
  0
LINE
  5
380
330
E3
100
AcDbEntity
  8
0
  6
Continuous
100
AcDbLine
 10
117.0938759015449
 20
125.5584428347947
 30
0.0
 11
117.0919732505908
 21
125.553008052186
 31
0.0
  0
LINE
  5
381
330
E3
100
AcDbEntity
  8
0
  6
Continuous
100
AcDbLine
 10
118.0919732505908
 20
125.357355878273
 30
0.0
 11
118.0900705996366
 21
125.3519210956642
 31
0.0
  0
LINE
  5
382
330
E3
100
AcDbEntity
  8
0
  6
Continuous
100
AcDbLine
 10
118.0900705996366
 20
125.3519210956642
 30
0.0
 11
118.0843771270969
 21
125.3464863130556
 31
0.0
  0
LINE
  5
383
330
E3
100
AcDbEntity
  8
0
  6
Continuous
100
AcDbLine
 10
118.0843771270969
 20
125.3464863130556
 30
0.0
 11
118.0749364416874
 21
125.3410499405944
 31
0.0
  0
LINE
  5
384
330
E3
100
AcDbEntity
  8
0
  6
Continuous
100
AcDbLine
 10
118.0749364416874
 20
125.3410499405944
 30
0.0
 11
118.0618190820292
 21
125.3356174622549
 31
0.0
  0
LINE
  5
385
330
E3
100
AcDbEntity
  8
0
  6
Continuous
100
AcDbLine
 10
118.0618190820292
 20
125.3356174622549
 30
0.0
 11
118.0451281984135
 21
125.3301813742953
 31
0.0
  0
LINE
  5
386
330
E3
100
AcDbEntity
  8
0
  6
Continuous
100
AcDbLine
 10
118.0451281984135
 20
125.3301813742953
 30
0.0
 11
118.0249865179256
 21
125.3247488959558
 31
0.0
  0
LINE
  5
387
330
E3
100
AcDbEntity
  8
0
  6
Continuous
100
AcDbLine
 10
118.0249865179256
 20
125.3247488959558
 30
0.0
 11
118.0015492542325
 21
125.3193128079961
 31
0.0
  0
LINE
  5
388
330
E3
100
AcDbEntity
  8
0
  6
Continuous
100
AcDbLine
 10
118.0015492542325
 20
125.3193128079961
 30
0.0
 11
117.974996888342
 21
125.3138767200365
 31
0.0
  0
LINE
  5
389
330
E3
100
AcDbEntity
  8
0
  6
Continuous
100
AcDbLine
 10
117.974996888342
 20
125.3138767200365
 30
0.0
 11
117.945527949363
 21
125.3084442416971
 31
0.0
  0
LINE
  5
38A
330
E3
100
AcDbEntity
  8
0
  6
Continuous
100
AcDbLine
 10
117.945527949363
 20
125.3084442416971
 30
0.0
 11
117.9133662337453
 21
125.3030081537374
 31
0.0
  0
LINE
  5
38B
330
E3
100
AcDbEntity
  8
0
  6
Continuous
100
AcDbLine
 10
117.9133662337453
 20
125.3030081537374
 30
0.0
 11
117.8787608052799
 21
125.2975720657778
 31
0.0
  0
LINE
  5
38C
330
E3
100
AcDbEntity
  8
0
  6
Continuous
100
AcDbLine
 10
117.8787608052799
 20
125.2975720657778
 30
0.0
 11
117.8419715566182
 21
125.2921395874383
 31
0.0
  0
LINE
  5
38D
330
E3
100
AcDbEntity
  8
0
  6
Continuous
100
AcDbLine
 10
117.8419715566182
 20
125.2921395874383
 30
0.0
 11
117.8032836477528
 21
125.2867034994787
 31
0.0
  0
LINE
  5
38E
330
E3
100
AcDbEntity
  8
0
  6
Continuous
100
AcDbLine
 10
117.8032836477528
 20
125.2867034994787
 30
0.0
 11
117.7629822386763
 21
125.2812674115191
 31
0.0
  0
LINE
  5
38F
330
E3
100
AcDbEntity
  8
0
  6
Continuous
100
AcDbLine
 10
117.7629822386763
 20
125.2812674115191
 30
0.0
 11
117.7213813663425
 21
125.2758349331796
 31
0.0
  0
LINE
  5
390
330
E3
100
AcDbEntity
  8
0
  6
Continuous
100
AcDbLine
 10
117.7213813663425
 20
125.2758349331796
 30
0.0
 11
117.6787986773255
 21
125.27039884522
 31
0.0
  0
LINE
  5
391
330
E3
100
AcDbEntity
  8
0
  6
Continuous
100
AcDbLine
 10
117.6787986773255
 20
125.27039884522
 30
0.0
 11
117.6355518181991
 21
125.2649663668806
 31
0.0
  0
LINE
  5
392
330
E3
100
AcDbEntity
  8
0
  6
Continuous
100
AcDbLine
 10
117.6355518181991
 20
125.2649663668806
 30
0.0
 11
117.5919728740181
 21
125.2595302789209
 31
0.0
  0
LINE
  5
393
330
E3
100
AcDbEntity
  8
0
  6
Continuous
100
AcDbLine
 10
117.5919728740181
 20
125.2595302789209
 30
0.0
 11
117.5483939298371
 21
125.2540941909613
 31
0.0
  0
LINE
  5
394
330
E3
100
AcDbEntity
  8
0
  6
Continuous
100
AcDbLine
 10
117.5483939298371
 20
125.2540941909613
 30
0.0
 11
117.505150680331
 21
125.2486617126218
 31
0.0
  0
LINE
  5
395
330
E3
100
AcDbEntity
  8
0
  6
Continuous
100
AcDbLine
 10
117.505150680331
 20
125.2486617126218
 30
0.0
 11
117.4625643816937
 21
125.2432256246622
 31
0.0
  0
LINE
  5
396
330
E3
100
AcDbEntity
  8
0
  6
Continuous
100
AcDbLine
 10
117.4625643816937
 20
125.2432256246622
 30
0.0
 11
117.42096350936
 21
125.2377895367026
 31
0.0
  0
LINE
  5
397
330
E3
100
AcDbEntity
  8
0
  6
Continuous
100
AcDbLine
 10
117.42096350936
 20
125.2377895367026
 30
0.0
 11
117.3806657099036
 21
125.2323570583631
 31
0.0
  0
LINE
  5
398
330
E3
100
AcDbEntity
  8
0
  6
Continuous
100
AcDbLine
 10
117.3806657099036
 20
125.2323570583631
 30
0.0
 11
117.341974191418
 21
125.2269209704035
 31
0.0
  0
LINE
  5
399
330
E3
100
AcDbEntity
  8
0
  6
Continuous
100
AcDbLine
 10
117.341974191418
 20
125.2269209704035
 30
0.0
 11
117.3051849427564
 21
125.2214848824438
 31
0.0
  0
LINE
  5
39A
330
E3
100
AcDbEntity
  8
0
  6
Continuous
100
AcDbLine
 10
117.3051849427564
 20
125.2214848824438
 30
0.0
 11
117.2705795142909
 21
125.2160524041044
 31
0.0
  0
LINE
  5
39B
330
E3
100
AcDbEntity
  8
0
  6
Continuous
100
AcDbLine
 10
117.2705795142909
 20
125.2160524041044
 30
0.0
 11
117.2384214082934
 21
125.2106163161448
 31
0.0
  0
LINE
  5
39C
330
E3
100
AcDbEntity
  8
0
  6
Continuous
100
AcDbLine
 10
117.2384214082934
 20
125.2106163161448
 30
0.0
 11
117.2089524693144
 21
125.2051802281851
 31
0.0
  0
LINE
  5
39D
330
E3
100
AcDbEntity
  8
0
  6
Continuous
100
AcDbLine
 10
117.2089524693144
 20
125.2051802281851
 30
0.0
 11
117.1823964938038
 21
125.1997477498457
 31
0.0
  0
LINE
  5
39E
330
E3
100
AcDbEntity
  8
0
  6
Continuous
100
AcDbLine
 10
117.1823964938038
 20
125.1997477498457
 30
0.0
 11
117.1589592301107
 21
125.194311661886
 31
0.0
  0
LINE
  5
39F
330
E3
100
AcDbEntity
  8
0
  6
Continuous
100
AcDbLine
 10
117.1589592301107
 20
125.194311661886
 30
0.0
 11
117.138821159243
 21
125.1888791835465
 31
0.0
  0
LINE
  5
3A0
330
E3
100
AcDbEntity
  8
0
  6
Continuous
100
AcDbLine
 10
117.138821159243
 20
125.1888791835465
 30
0.0
 11
117.122126666007
 21
125.1834430955869
 31
0.0
  0
LINE
  5
3A1
330
E3
100
AcDbEntity
  8
0
  6
Continuous
100
AcDbLine
 10
117.122126666007
 20
125.1834430955869
 30
0.0
 11
117.1090093063488
 21
125.1780070076273
 31
0.0
  0
LINE
  5
3A2
330
E3
100
AcDbEntity
  8
0
  6
Continuous
100
AcDbLine
 10
117.1090093063488
 20
125.1780070076273
 30
0.0
 11
117.0995701496328
 21
125.1725745292878
 31
0.0
  0
LINE
  5
3A3
330
E3
100
AcDbEntity
  8
0
  6
Continuous
100
AcDbLine
 10
117.0995701496328
 20
125.1725745292878
 30
0.0
 11
117.0938759015449
 21
125.1671384869686
 31
0.0
  0
LINE
  5
3A4
330
E3
100
AcDbEntity
  8
0
  6
Continuous
100
AcDbLine
 10
117.0938759015449
 20
125.1671384869686
 30
0.0
 11
117.0919732505908
 21
125.1617037043599
 31
0.0
  0
LINE
  5
3A5
330
E3
100
AcDbEntity
  8
0
  6
Continuous
100
AcDbLine
 10
118.0919732505908
 20
124.9660515304469
 30
0.0
 11
118.0900705996366
 21
124.9606167478382
 31
0.0
  0
LINE
  5
3A6
330
E3
100
AcDbEntity
  8
0
  6
Continuous
100
AcDbLine
 10
118.0900705996366
 20
124.9606167478382
 30
0.0
 11
118.0843771270969
 21
124.9551819652295
 31
0.0
  0
LINE
  5
3A7
330
E3
100
AcDbEntity
  8
0
  6
Continuous
100
AcDbLine
 10
118.0843771270969
 20
124.9551819652295
 30
0.0
 11
118.0749364416874
 21
124.9497454576254
 31
0.0
  0
LINE
  5
3A8
330
E3
100
AcDbEntity
  8
0
  6
Continuous
100
AcDbLine
 10
118.0749364416874
 20
124.9497454576254
 30
0.0
 11
118.0618190820292
 21
124.944312979286
 31
0.0
  0
LINE
  5
3A9
330
E3
100
AcDbEntity
  8
0
  6
Continuous
100
AcDbLine
 10
118.0618190820292
 20
124.944312979286
 30
0.0
 11
118.0451281984135
 21
124.9388768913263
 31
0.0
  0
LINE
  5
3AA
330
E3
100
AcDbEntity
  8
0
  6
Continuous
100
AcDbLine
 10
118.0451281984135
 20
124.9388768913263
 30
0.0
 11
118.0249865179256
 21
124.9334444129869
 31
0.0
  0
LINE
  5
3AB
330
E3
100
AcDbEntity
  8
0
  6
Continuous
100
AcDbLine
 10
118.0249865179256
 20
124.9334444129869
 30
0.0
 11
118.0015492542325
 21
124.9280083250272
 31
0.0
  0
LINE
  5
3AC
330
E3
100
AcDbEntity
  8
0
  6
Continuous
100
AcDbLine
 10
118.0015492542325
 20
124.9280083250272
 30
0.0
 11
117.974996888342
 21
124.9225722370676
 31
0.0
  0
LINE
  5
3AD
330
E3
100
AcDbEntity
  8
0
  6
Continuous
100
AcDbLine
 10
117.974996888342
 20
124.9225722370676
 30
0.0
 11
117.945527949363
 21
124.9171397587281
 31
0.0
  0
LINE
  5
3AE
330
E3
100
AcDbEntity
  8
0
  6
Continuous
100
AcDbLine
 10
117.945527949363
 20
124.9171397587281
 30
0.0
 11
117.9133662337453
 21
124.9117036707685
 31
0.0
  0
LINE
  5
3AF
330
E3
100
AcDbEntity
  8
0
  6
Continuous
100
AcDbLine
 10
117.9133662337453
 20
124.9117036707685
 30
0.0
 11
117.8787608052799
 21
124.9062675828089
 31
0.0
  0
LINE
  5
3B0
330
E3
100
AcDbEntity
  8
0
  6
Continuous
100
AcDbLine
 10
117.8787608052799
 20
124.9062675828089
 30
0.0
 11
117.8419715566182
 21
124.9008351044694
 31
0.0
  0
LINE
  5
3B1
330
E3
100
AcDbEntity
  8
0
  6
Continuous
100
AcDbLine
 10
117.8419715566182
 20
124.9008351044694
 30
0.0
 11
117.8032836477528
 21
124.8953990165098
 31
0.0
  0
LINE
  5
3B2
330
E3
100
AcDbEntity
  8
0
  6
Continuous
100
AcDbLine
 10
117.8032836477528
 20
124.8953990165098
 30
0.0
 11
117.7629822386763
 21
124.8899629285502
 31
0.0
  0
LINE
  5
3B3
330
E3
100
AcDbEntity
  8
0
  6
Continuous
100
AcDbLine
 10
117.7629822386763
 20
124.8899629285502
 30
0.0
 11
117.7213813663425
 21
124.8845304502107
 31
0.0
  0
LINE
  5
3B4
330
E3
100
AcDbEntity
  8
0
  6
Continuous
100
AcDbLine
 10
117.7213813663425
 20
124.8845304502107
 30
0.0
 11
117.6787986773255
 21
124.8790943622511
 31
0.0
  0
LINE
  5
3B5
330
E3
100
AcDbEntity
  8
0
  6
Continuous
100
AcDbLine
 10
117.6787986773255
 20
124.8790943622511
 30
0.0
 11
117.6355518181991
 21
124.8736618839116
 31
0.0
  0
LINE
  5
3B6
330
E3
100
AcDbEntity
  8
0
  6
Continuous
100
AcDbLine
 10
117.6355518181991
 20
124.8736618839116
 30
0.0
 11
117.5919728740181
 21
124.868225795952
 31
0.0
  0
LINE
  5
3B7
330
E3
100
AcDbEntity
  8
0
  6
Continuous
100
AcDbLine
 10
117.5919728740181
 20
124.868225795952
 30
0.0
 11
117.5483939298371
 21
124.8627897079924
 31
0.0
  0
LINE
  5
3B8
330
E3
100
AcDbEntity
  8
0
  6
Continuous
100
AcDbLine
 10
117.5483939298371
 20
124.8627897079924
 30
0.0
 11
117.505150680331
 21
124.8573572296529
 31
0.0
  0
LINE
  5
3B9
330
E3
100
AcDbEntity
  8
0
  6
Continuous
100
AcDbLine
 10
117.505150680331
 20
124.8573572296529
 30
0.0
 11
117.4625643816937
 21
124.8519211416933
 31
0.0
  0
LINE
  5
3BA
330
E3
100
AcDbEntity
  8
0
  6
Continuous
100
AcDbLine
 10
117.4625643816937
 20
124.8519211416933
 30
0.0
 11
117.42096350936
 21
124.8464850537336
 31
0.0
  0
LINE
  5
3BB
330
E3
100
AcDbEntity
  8
0
  6
Continuous
100
AcDbLine
 10
117.42096350936
 20
124.8464850537336
 30
0.0
 11
117.3806657099036
 21
124.8410525753942
 31
0.0
  0
LINE
  5
3BC
330
E3
100
AcDbEntity
  8
0
  6
Continuous
100
AcDbLine
 10
117.3806657099036
 20
124.8410525753942
 30
0.0
 11
117.341974191418
 21
124.8356164874346
 31
0.0
  0
LINE
  5
3BD
330
E3
100
AcDbEntity
  8
0
  6
Continuous
100
AcDbLine
 10
117.341974191418
 20
124.8356164874346
 30
0.0
 11
117.3051849427564
 21
124.8301803994749
 31
0.0
  0
LINE
  5
3BE
330
E3
100
AcDbEntity
  8
0
  6
Continuous
100
AcDbLine
 10
117.3051849427564
 20
124.8301803994749
 30
0.0
 11
117.2705795142909
 21
124.8247479211355
 31
0.0
  0
LINE
  5
3BF
330
E3
100
AcDbEntity
  8
0
  6
Continuous
100
AcDbLine
 10
117.2705795142909
 20
124.8247479211355
 30
0.0
 11
117.2384214082934
 21
124.8193118331758
 31
0.0
  0
LINE
  5
3C0
330
E3
100
AcDbEntity
  8
0
  6
Continuous
100
AcDbLine
 10
117.2384214082934
 20
124.8193118331758
 30
0.0
 11
117.2089524693144
 21
124.8138793548364
 31
0.0
  0
LINE
  5
3C1
330
E3
100
AcDbEntity
  8
0
  6
Continuous
100
AcDbLine
 10
117.2089524693144
 20
124.8138793548364
 30
0.0
 11
117.1823964938038
 21
124.8084432668768
 31
0.0
  0
LINE
  5
3C2
330
E3
100
AcDbEntity
  8
0
  6
Continuous
100
AcDbLine
 10
117.1823964938038
 20
124.8084432668768
 30
0.0
 11
117.1589592301107
 21
124.8030071789171
 31
0.0
  0
LINE
  5
3C3
330
E3
100
AcDbEntity
  8
0
  6
Continuous
100
AcDbLine
 10
117.1589592301107
 20
124.8030071789171
 30
0.0
 11
117.138821159243
 21
124.7975747005777
 31
0.0
  0
LINE
  5
3C4
330
E3
100
AcDbEntity
  8
0
  6
Continuous
100
AcDbLine
 10
117.138821159243
 20
124.7975747005777
 30
0.0
 11
117.122126666007
 21
124.792138612618
 31
0.0
  0
LINE
  5
3C5
330
E3
100
AcDbEntity
  8
0
  6
Continuous
100
AcDbLine
 10
117.122126666007
 20
124.792138612618
 30
0.0
 11
117.1090093063488
 21
124.7867025246584
 31
0.0
  0
LINE
  5
3C6
330
E3
100
AcDbEntity
  8
0
  6
Continuous
100
AcDbLine
 10
117.1090093063488
 20
124.7867025246584
 30
0.0
 11
117.0995701496328
 21
124.7812700463189
 31
0.0
  0
LINE
  5
3C7
330
E3
100
AcDbEntity
  8
0
  6
Continuous
100
AcDbLine
 10
117.0995701496328
 20
124.7812700463189
 30
0.0
 11
117.0938759015449
 21
124.7758341391425
 31
0.0
  0
LINE
  5
3C8
330
E3
100
AcDbEntity
  8
0
  6
Continuous
100
AcDbLine
 10
117.0938759015449
 20
124.7758341391425
 30
0.0
 11
117.0919732505908
 21
124.7703993565338
 31
0.0
  0
LINE
  5
3C9
330
E3
100
AcDbEntity
  8
0
  6
Continuous
100
AcDbLine
 10
118.0919732505908
 20
124.5747471826208
 30
0.0
 11
118.0900705996366
 21
124.5693124000121
 31
0.0
  0
LINE
  5
3CA
330
E3
100
AcDbEntity
  8
0
  6
Continuous
100
AcDbLine
 10
118.0900705996366
 20
124.5693124000121
 30
0.0
 11
118.0843771270969
 21
124.5638776174034
 31
0.0
  0
LINE
  5
3CB
330
E3
100
AcDbEntity
  8
0
  6
Continuous
100
AcDbLine
 10
118.0843771270969
 20
124.5638776174034
 30
0.0
 11
118.0749364416874
 21
124.5584445842767
 31
0.0
  0
LINE
  5
3CC
330
E3
100
AcDbEntity
  8
0
  6
Continuous
100
AcDbLine
 10
118.0749364416874
 20
124.5584445842767
 30
0.0
 11
118.0618190820292
 21
124.553008496317
 31
0.0
  0
LINE
  5
3CD
330
E3
100
AcDbEntity
  8
0
  6
Continuous
100
AcDbLine
 10
118.0618190820292
 20
124.553008496317
 30
0.0
 11
118.0451281984135
 21
124.5475724083574
 31
0.0
  0
LINE
  5
3CE
330
E3
100
AcDbEntity
  8
0
  6
Continuous
100
AcDbLine
 10
118.0451281984135
 20
124.5475724083574
 30
0.0
 11
118.0249865179256
 21
124.542139930018
 31
0.0
  0
LINE
  5
3CF
330
E3
100
AcDbEntity
  8
0
  6
Continuous
100
AcDbLine
 10
118.0249865179256
 20
124.542139930018
 30
0.0
 11
118.0015492542325
 21
124.5367038420583
 31
0.0
  0
LINE
  5
3D0
330
E3
100
AcDbEntity
  8
0
  6
Continuous
100
AcDbLine
 10
118.0015492542325
 20
124.5367038420583
 30
0.0
 11
117.974996888342
 21
124.5312677540987
 31
0.0
  0
LINE
  5
3D1
330
E3
100
AcDbEntity
  8
0
  6
Continuous
100
AcDbLine
 10
117.974996888342
 20
124.5312677540987
 30
0.0
 11
117.945527949363
 21
124.5258352757592
 31
0.0
  0
LINE
  5
3D2
330
E3
100
AcDbEntity
  8
0
  6
Continuous
100
AcDbLine
 10
117.945527949363
 20
124.5258352757592
 30
0.0
 11
117.9133662337453
 21
124.5203991877996
 31
0.0
  0
LINE
  5
3D3
330
E3
100
AcDbEntity
  8
0
  6
Continuous
100
AcDbLine
 10
117.9133662337453
 20
124.5203991877996
 30
0.0
 11
117.8787608052799
 21
124.51496309984
 31
0.0
  0
LINE
  5
3D4
330
E3
100
AcDbEntity
  8
0
  6
Continuous
100
AcDbLine
 10
117.8787608052799
 20
124.51496309984
 30
0.0
 11
117.8419715566182
 21
124.5095306215005
 31
0.0
  0
LINE
  5
3D5
330
E3
100
AcDbEntity
  8
0
  6
Continuous
100
AcDbLine
 10
117.8419715566182
 20
124.5095306215005
 30
0.0
 11
117.8032836477528
 21
124.5040945335409
 31
0.0
  0
LINE
  5
3D6
330
E3
100
AcDbEntity
  8
0
  6
Continuous
100
AcDbLine
 10
117.8032836477528
 20
124.5040945335409
 30
0.0
 11
117.7629822386763
 21
124.4986584455813
 31
0.0
  0
LINE
  5
3D7
330
E3
100
AcDbEntity
  8
0
  6
Continuous
100
AcDbLine
 10
117.7629822386763
 20
124.4986584455813
 30
0.0
 11
117.7213813663425
 21
124.4932259672418
 31
0.0
  0
LINE
  5
3D8
330
E3
100
AcDbEntity
  8
0
  6
Continuous
100
AcDbLine
 10
117.7213813663425
 20
124.4932259672418
 30
0.0
 11
117.6787986773255
 21
124.4877898792822
 31
0.0
  0
LINE
  5
3D9
330
E3
100
AcDbEntity
  8
0
  6
Continuous
100
AcDbLine
 10
117.6787986773255
 20
124.4877898792822
 30
0.0
 11
117.6355518181991
 21
124.4823574009427
 31
0.0
  0
LINE
  5
3DA
330
E3
100
AcDbEntity
  8
0
  6
Continuous
100
AcDbLine
 10
117.6355518181991
 20
124.4823574009427
 30
0.0
 11
117.5919728740181
 21
124.4769213129831
 31
0.0
  0
LINE
  5
3DB
330
E3
100
AcDbEntity
  8
0
  6
Continuous
100
AcDbLine
 10
117.5919728740181
 20
124.4769213129831
 30
0.0
 11
117.5483939298371
 21
124.4714852250235
 31
0.0
  0
LINE
  5
3DC
330
E3
100
AcDbEntity
  8
0
  6
Continuous
100
AcDbLine
 10
117.5483939298371
 20
124.4714852250235
 30
0.0
 11
117.505150680331
 21
124.466052746684
 31
0.0
  0
LINE
  5
3DD
330
E3
100
AcDbEntity
  8
0
  6
Continuous
100
AcDbLine
 10
117.505150680331
 20
124.466052746684
 30
0.0
 11
117.4625643816937
 21
124.4606166587244
 31
0.0
  0
LINE
  5
3DE
330
E3
100
AcDbEntity
  8
0
  6
Continuous
100
AcDbLine
 10
117.4625643816937
 20
124.4606166587244
 30
0.0
 11
117.42096350936
 21
124.4551805707647
 31
0.0
  0
LINE
  5
3DF
330
E3
100
AcDbEntity
  8
0
  6
Continuous
100
AcDbLine
 10
117.42096350936
 20
124.4551805707647
 30
0.0
 11
117.3806657099036
 21
124.4497480924253
 31
0.0
  0
LINE
  5
3E0
330
E3
100
AcDbEntity
  8
0
  6
Continuous
100
AcDbLine
 10
117.3806657099036
 20
124.4497480924253
 30
0.0
 11
117.341974191418
 21
124.4443120044656
 31
0.0
  0
LINE
  5
3E1
330
E3
100
AcDbEntity
  8
0
  6
Continuous
100
AcDbLine
 10
117.341974191418
 20
124.4443120044656
 30
0.0
 11
117.3051849427564
 21
124.438875916506
 31
0.0
  0
LINE
  5
3E2
330
E3
100
AcDbEntity
  8
0
  6
Continuous
100
AcDbLine
 10
117.3051849427564
 20
124.438875916506
 30
0.0
 11
117.2705795142909
 21
124.4334434381665
 31
0.0
  0
LINE
  5
3E3
330
E3
100
AcDbEntity
  8
0
  6
Continuous
100
AcDbLine
 10
117.2705795142909
 20
124.4334434381665
 30
0.0
 11
117.2384214082934
 21
124.4280073502069
 31
0.0
  0
LINE
  5
3E4
330
E3
100
AcDbEntity
  8
0
  6
Continuous
100
AcDbLine
 10
117.2384214082934
 20
124.4280073502069
 30
0.0
 11
117.2089524693144
 21
124.4225748718675
 31
0.0
  0
LINE
  5
3E5
330
E3
100
AcDbEntity
  8
0
  6
Continuous
100
AcDbLine
 10
117.2089524693144
 20
124.4225748718675
 30
0.0
 11
117.1823964938038
 21
124.4171387839078
 31
0.0
  0
LINE
  5
3E6
330
E3
100
AcDbEntity
  8
0
  6
Continuous
100
AcDbLine
 10
117.1823964938038
 20
124.4171387839078
 30
0.0
 11
117.1589592301107
 21
124.4117026959482
 31
0.0
  0
LINE
  5
3E7
330
E3
100
AcDbEntity
  8
0
  6
Continuous
100
AcDbLine
 10
117.1589592301107
 20
124.4117026959482
 30
0.0
 11
117.138821159243
 21
124.4062702176087
 31
0.0
  0
LINE
  5
3E8
330
E3
100
AcDbEntity
  8
0
  6
Continuous
100
AcDbLine
 10
117.138821159243
 20
124.4062702176087
 30
0.0
 11
117.122126666007
 21
124.4008341296491
 31
0.0
  0
LINE
  5
3E9
330
E3
100
AcDbEntity
  8
0
  6
Continuous
100
AcDbLine
 10
117.122126666007
 20
124.4008341296491
 30
0.0
 11
117.1090093063488
 21
124.3953980416895
 31
0.0
  0
LINE
  5
3EA
330
E3
100
AcDbEntity
  8
0
  6
Continuous
100
AcDbLine
 10
117.1090093063488
 20
124.3953980416895
 30
0.0
 11
117.0995701496328
 21
124.38996556335
 31
0.0
  0
LINE
  5
3EB
330
E3
100
AcDbEntity
  8
0
  6
Continuous
100
AcDbLine
 10
117.0995701496328
 20
124.38996556335
 30
0.0
 11
117.0938759015449
 21
124.3845297913164
 31
0.0
  0
LINE
  5
3EC
330
E3
100
AcDbEntity
  8
0
  6
Continuous
100
AcDbLine
 10
117.0938759015449
 20
124.3845297913164
 30
0.0
 11
117.0919732505908
 21
124.3790950087077
 31
0.0
  0
LINE
  5
3ED
330
E3
100
AcDbEntity
  8
0
  6
Continuous
100
AcDbLine
 10
118.0919732505908
 20
124.1834428347947
 30
0.0
 11
118.0900705996366
 21
124.178008052186
 31
0.0
  0
LINE
  5
3EE
330
E3
100
AcDbEntity
  8
0
  6
Continuous
100
AcDbLine
 10
118.0900705996366
 20
124.178008052186
 30
0.0
 11
118.0843771270969
 21
124.1725732695773
 31
0.0
  0
LINE
  5
3EF
330
E3
100
AcDbEntity
  8
0
  6
Continuous
100
AcDbLine
 10
118.0843771270969
 20
124.1725732695773
 30
0.0
 11
118.0749364416874
 21
124.1671401013078
 31
0.0
  0
LINE
  5
3F0
330
E3
100
AcDbEntity
  8
0
  6
Continuous
100
AcDbLine
 10
118.0749364416874
 20
124.1671401013078
 30
0.0
 11
118.0618190820292
 21
124.1617040133481
 31
0.0
  0
LINE
  5
3F1
330
E3
100
AcDbEntity
  8
0
  6
Continuous
100
AcDbLine
 10
118.0618190820292
 20
124.1617040133481
 30
0.0
 11
118.0451281984135
 21
124.1562679253885
 31
0.0
  0
LINE
  5
3F2
330
E3
100
AcDbEntity
  8
0
  6
Continuous
100
AcDbLine
 10
118.0451281984135
 20
124.1562679253885
 30
0.0
 11
118.0249865179256
 21
124.150835447049
 31
0.0
  0
LINE
  5
3F3
330
E3
100
AcDbEntity
  8
0
  6
Continuous
100
AcDbLine
 10
118.0249865179256
 20
124.150835447049
 30
0.0
 11
118.0015492542325
 21
124.1453993590894
 31
0.0
  0
LINE
  5
3F4
330
E3
100
AcDbEntity
  8
0
  6
Continuous
100
AcDbLine
 10
118.0015492542325
 20
124.1453993590894
 30
0.0
 11
117.974996888342
 21
124.1399632711298
 31
0.0
  0
LINE
  5
3F5
330
E3
100
AcDbEntity
  8
0
  6
Continuous
100
AcDbLine
 10
117.974996888342
 20
124.1399632711298
 30
0.0
 11
117.945527949363
 21
124.1345307927903
 31
0.0
  0
LINE
  5
3F6
330
E3
100
AcDbEntity
  8
0
  6
Continuous
100
AcDbLine
 10
117.945527949363
 20
124.1345307927903
 30
0.0
 11
117.9133662337453
 21
124.1290947048307
 31
0.0
  0
LINE
  5
3F7
330
E3
100
AcDbEntity
  8
0
  6
Continuous
100
AcDbLine
 10
117.9133662337453
 20
124.1290947048307
 30
0.0
 11
117.8787608052799
 21
124.1236586168711
 31
0.0
  0
LINE
  5
3F8
330
E3
100
AcDbEntity
  8
0
  6
Continuous
100
AcDbLine
 10
117.8787608052799
 20
124.1236586168711
 30
0.0
 11
117.8419715566182
 21
124.1182261385316
 31
0.0
  0
LINE
  5
3F9
330
E3
100
AcDbEntity
  8
0
  6
Continuous
100
AcDbLine
 10
117.8419715566182
 20
124.1182261385316
 30
0.0
 11
117.8032836477528
 21
124.112790050572
 31
0.0
  0
LINE
  5
3FA
330
E3
100
AcDbEntity
  8
0
  6
Continuous
100
AcDbLine
 10
117.8032836477528
 20
124.112790050572
 30
0.0
 11
117.7629822386763
 21
124.1073575722325
 31
0.0
  0
LINE
  5
3FB
330
E3
100
AcDbEntity
  8
0
  6
Continuous
100
AcDbLine
 10
117.7629822386763
 20
124.1073575722325
 30
0.0
 11
117.7213813663425
 21
124.1019214842729
 31
0.0
  0
LINE
  5
3FC
330
E3
100
AcDbEntity
  8
0
  6
Continuous
100
AcDbLine
 10
117.7213813663425
 20
124.1019214842729
 30
0.0
 11
117.6787986773255
 21
124.0964853963133
 31
0.0
  0
LINE
  5
3FD
330
E3
100
AcDbEntity
  8
0
  6
Continuous
100
AcDbLine
 10
117.6787986773255
 20
124.0964853963133
 30
0.0
 11
117.6355518181991
 21
124.0910529179738
 31
0.0
  0
LINE
  5
3FE
330
E3
100
AcDbEntity
  8
0
  6
Continuous
100
AcDbLine
 10
117.6355518181991
 20
124.0910529179738
 30
0.0
 11
117.5919728740181
 21
124.0856168300142
 31
0.0
  0
LINE
  5
3FF
330
E3
100
AcDbEntity
  8
0
  6
Continuous
100
AcDbLine
 10
117.5919728740181
 20
124.0856168300142
 30
0.0
 11
117.5483939298371
 21
124.0801807420545
 31
0.0
  0
LINE
  5
400
330
E3
100
AcDbEntity
  8
0
  6
Continuous
100
AcDbLine
 10
117.5483939298371
 20
124.0801807420545
 30
0.0
 11
117.505150680331
 21
124.0747482637151
 31
0.0
  0
LINE
  5
401
330
E3
100
AcDbEntity
  8
0
  6
Continuous
100
AcDbLine
 10
117.505150680331
 20
124.0747482637151
 30
0.0
 11
117.4625643816937
 21
124.0693121757555
 31
0.0
  0
LINE
  5
402
330
E3
100
AcDbEntity
  8
0
  6
Continuous
100
AcDbLine
 10
117.4625643816937
 20
124.0693121757555
 30
0.0
 11
117.42096350936
 21
124.0638760877958
 31
0.0
  0
LINE
  5
403
330
E3
100
AcDbEntity
  8
0
  6
Continuous
100
AcDbLine
 10
117.42096350936
 20
124.0638760877958
 30
0.0
 11
117.3806657099036
 21
124.0584436094563
 31
0.0
  0
LINE
  5
404
330
E3
100
AcDbEntity
  8
0
  6
Continuous
100
AcDbLine
 10
117.3806657099036
 20
124.0584436094563
 30
0.0
 11
117.341974191418
 21
124.0530075214967
 31
0.0
  0
LINE
  5
405
330
E3
100
AcDbEntity
  8
0
  6
Continuous
100
AcDbLine
 10
117.341974191418
 20
124.0530075214967
 30
0.0
 11
117.3051849427564
 21
124.0475750431573
 31
0.0
  0
LINE
  5
406
330
E3
100
AcDbEntity
  8
0
  6
Continuous
100
AcDbLine
 10
117.3051849427564
 20
124.0475750431573
 30
0.0
 11
117.2705795142909
 21
124.0421389551976
 31
0.0
  0
LINE
  5
407
330
E3
100
AcDbEntity
  8
0
  6
Continuous
100
AcDbLine
 10
117.2705795142909
 20
124.0421389551976
 30
0.0
 11
117.2384214082934
 21
124.036702867238
 31
0.0
  0
LINE
  5
408
330
E3
100
AcDbEntity
  8
0
  6
Continuous
100
AcDbLine
 10
117.2384214082934
 20
124.036702867238
 30
0.0
 11
117.2089524693144
 21
124.0312703888985
 31
0.0
  0
LINE
  5
409
330
E3
100
AcDbEntity
  8
0
  6
Continuous
100
AcDbLine
 10
117.2089524693144
 20
124.0312703888985
 30
0.0
 11
117.1823964938038
 21
124.0258343009389
 31
0.0
  0
LINE
  5
40A
330
E3
100
AcDbEntity
  8
0
  6
Continuous
100
AcDbLine
 10
117.1823964938038
 20
124.0258343009389
 30
0.0
 11
117.1589592301107
 21
124.0203982129793
 31
0.0
  0
LINE
  5
40B
330
E3
100
AcDbEntity
  8
0
  6
Continuous
100
AcDbLine
 10
117.1589592301107
 20
124.0203982129793
 30
0.0
 11
117.138821159243
 21
124.0149657346398
 31
0.0
  0
LINE
  5
40C
330
E3
100
AcDbEntity
  8
0
  6
Continuous
100
AcDbLine
 10
117.138821159243
 20
124.0149657346398
 30
0.0
 11
117.122126666007
 21
124.0095296466802
 31
0.0
  0
LINE
  5
40D
330
E3
100
AcDbEntity
  8
0
  6
Continuous
100
AcDbLine
 10
117.122126666007
 20
124.0095296466802
 30
0.0
 11
117.1090093063488
 21
124.0040935587206
 31
0.0
  0
LINE
  5
40E
330
E3
100
AcDbEntity
  8
0
  6
Continuous
100
AcDbLine
 10
117.1090093063488
 20
124.0040935587206
 30
0.0
 11
117.0995701496328
 21
123.9986610803811
 31
0.0
  0
LINE
  5
40F
330
E3
100
AcDbEntity
  8
0
  6
Continuous
100
AcDbLine
 10
117.0995701496328
 20
123.9986610803811
 30
0.0
 11
117.0938759015449
 21
123.9932254434903
 31
0.0
  0
LINE
  5
410
330
E3
100
AcDbEntity
  8
0
  6
Continuous
100
AcDbLine
 10
117.0938759015449
 20
123.9932254434903
 30
0.0
 11
117.0919732505908
 21
123.9877906608816
 31
0.0
  0
LINE
  5
411
330
E3
100
AcDbEntity
  8
0
  6
Continuous
100
AcDbLine
 10
118.0919732505908
 20
123.7921384869686
 30
0.0
 11
118.0900705996366
 21
123.7867037043599
 31
0.0
  0
LINE
  5
412
330
E3
100
AcDbEntity
  8
0
  6
Continuous
100
AcDbLine
 10
118.0900705996366
 20
123.7867037043599
 30
0.0
 11
118.0843771270969
 21
123.7812689217512
 31
0.0
  0
LINE
  5
413
330
E3
100
AcDbEntity
  8
0
  6
Continuous
100
AcDbLine
 10
118.0843771270969
 20
123.7812689217512
 30
0.0
 11
118.0749364416874
 21
123.7758356183388
 31
0.0
  0
LINE
  5
414
330
E3
100
AcDbEntity
  8
0
  6
Continuous
100
AcDbLine
 10
118.0749364416874
 20
123.7758356183388
 30
0.0
 11
118.0618190820292
 21
123.7703995303792
 31
0.0
  0
LINE
  5
415
330
E3
100
AcDbEntity
  8
0
  6
Continuous
100
AcDbLine
 10
118.0618190820292
 20
123.7703995303792
 30
0.0
 11
118.0451281984135
 21
123.7649634424196
 31
0.0
  0
LINE
  5
416
330
E3
100
AcDbEntity
  8
0
  6
Continuous
100
AcDbLine
 10
118.0451281984135
 20
123.7649634424196
 30
0.0
 11
118.0249865179256
 21
123.7595309640801
 31
0.0
  0
LINE
  5
417
330
E3
100
AcDbEntity
  8
0
  6
Continuous
100
AcDbLine
 10
118.0249865179256
 20
123.7595309640801
 30
0.0
 11
118.0015492542325
 21
123.7540948761205
 31
0.0
  0
LINE
  5
418
330
E3
100
AcDbEntity
  8
0
  6
Continuous
100
AcDbLine
 10
118.0015492542325
 20
123.7540948761205
 30
0.0
 11
117.974996888342
 21
123.7486587881609
 31
0.0
  0
LINE
  5
419
330
E3
100
AcDbEntity
  8
0
  6
Continuous
100
AcDbLine
 10
117.974996888342
 20
123.7486587881609
 30
0.0
 11
117.945527949363
 21
123.7432263098214
 31
0.0
  0
LINE
  5
41A
330
E3
100
AcDbEntity
  8
0
  6
Continuous
100
AcDbLine
 10
117.945527949363
 20
123.7432263098214
 30
0.0
 11
117.9133662337453
 21
123.7377902218618
 31
0.0
  0
LINE
  5
41B
330
E3
100
AcDbEntity
  8
0
  6
Continuous
100
AcDbLine
 10
117.9133662337453
 20
123.7377902218618
 30
0.0
 11
117.8787608052799
 21
123.7323541339022
 31
0.0
  0
LINE
  5
41C
330
E3
100
AcDbEntity
  8
0
  6
Continuous
100
AcDbLine
 10
117.8787608052799
 20
123.7323541339022
 30
0.0
 11
117.8419715566182
 21
123.7269216555627
 31
0.0
  0
LINE
  5
41D
330
E3
100
AcDbEntity
  8
0
  6
Continuous
100
AcDbLine
 10
117.8419715566182
 20
123.7269216555627
 30
0.0
 11
117.8032836477528
 21
123.7214855676031
 31
0.0
  0
LINE
  5
41E
330
E3
100
AcDbEntity
  8
0
  6
Continuous
100
AcDbLine
 10
117.8032836477528
 20
123.7214855676031
 30
0.0
 11
117.7629822386763
 21
123.7160530892636
 31
0.0
  0
LINE
  5
41F
330
E3
100
AcDbEntity
  8
0
  6
Continuous
100
AcDbLine
 10
117.7629822386763
 20
123.7160530892636
 30
0.0
 11
117.7213813663425
 21
123.710617001304
 31
0.0
  0
LINE
  5
420
330
E3
100
AcDbEntity
  8
0
  6
Continuous
100
AcDbLine
 10
117.7213813663425
 20
123.710617001304
 30
0.0
 11
117.6787986773255
 21
123.7051809133443
 31
0.0
  0
LINE
  5
421
330
E3
100
AcDbEntity
  8
0
  6
Continuous
100
AcDbLine
 10
117.6787986773255
 20
123.7051809133443
 30
0.0
 11
117.6355518181991
 21
123.6997484350049
 31
0.0
  0
LINE
  5
422
330
E3
100
AcDbEntity
  8
0
  6
Continuous
100
AcDbLine
 10
117.6355518181991
 20
123.6997484350049
 30
0.0
 11
117.5919728740181
 21
123.6943123470452
 31
0.0
  0
LINE
  5
423
330
E3
100
AcDbEntity
  8
0
  6
Continuous
100
AcDbLine
 10
117.5919728740181
 20
123.6943123470452
 30
0.0
 11
117.5483939298371
 21
123.6888762590856
 31
0.0
  0
LINE
  5
424
330
E3
100
AcDbEntity
  8
0
  6
Continuous
100
AcDbLine
 10
117.5483939298371
 20
123.6888762590856
 30
0.0
 11
117.505150680331
 21
123.6834437807461
 31
0.0
  0
LINE
  5
425
330
E3
100
AcDbEntity
  8
0
  6
Continuous
100
AcDbLine
 10
117.505150680331
 20
123.6834437807461
 30
0.0
 11
117.4625643816937
 21
123.6780076927865
 31
0.0
  0
LINE
  5
426
330
E3
100
AcDbEntity
  8
0
  6
Continuous
100
AcDbLine
 10
117.4625643816937
 20
123.6780076927865
 30
0.0
 11
117.42096350936
 21
123.6725716048269
 31
0.0
  0
LINE
  5
427
330
E3
100
AcDbEntity
  8
0
  6
Continuous
100
AcDbLine
 10
117.42096350936
 20
123.6725716048269
 30
0.0
 11
117.3806657099036
 21
123.6671391264874
 31
0.0
  0
LINE
  5
428
330
E3
100
AcDbEntity
  8
0
  6
Continuous
100
AcDbLine
 10
117.3806657099036
 20
123.6671391264874
 30
0.0
 11
117.341974191418
 21
123.6617030385278
 31
0.0
  0
LINE
  5
429
330
E3
100
AcDbEntity
  8
0
  6
Continuous
100
AcDbLine
 10
117.341974191418
 20
123.6617030385278
 30
0.0
 11
117.3051849427564
 21
123.6562705601883
 31
0.0
  0
LINE
  5
42A
330
E3
100
AcDbEntity
  8
0
  6
Continuous
100
AcDbLine
 10
117.3051849427564
 20
123.6562705601883
 30
0.0
 11
117.2705795142909
 21
123.6508344722287
 31
0.0
  0
LINE
  5
42B
330
E3
100
AcDbEntity
  8
0
  6
Continuous
100
AcDbLine
 10
117.2705795142909
 20
123.6508344722287
 30
0.0
 11
117.2384214082934
 21
123.6453983842691
 31
0.0
  0
LINE
  5
42C
330
E3
100
AcDbEntity
  8
0
  6
Continuous
100
AcDbLine
 10
117.2384214082934
 20
123.6453983842691
 30
0.0
 11
117.2089524693144
 21
123.6399659059296
 31
0.0
  0
LINE
  5
42D
330
E3
100
AcDbEntity
  8
0
  6
Continuous
100
AcDbLine
 10
117.2089524693144
 20
123.6399659059296
 30
0.0
 11
117.1823964938038
 21
123.63452981797
 31
0.0
  0
LINE
  5
42E
330
E3
100
AcDbEntity
  8
0
  6
Continuous
100
AcDbLine
 10
117.1823964938038
 20
123.63452981797
 30
0.0
 11
117.1589592301107
 21
123.6290937300104
 31
0.0
  0
LINE
  5
42F
330
E3
100
AcDbEntity
  8
0
  6
Continuous
100
AcDbLine
 10
117.1589592301107
 20
123.6290937300104
 30
0.0
 11
117.138821159243
 21
123.6236612516709
 31
0.0
  0
LINE
  5
430
330
E3
100
AcDbEntity
  8
0
  6
Continuous
100
AcDbLine
 10
117.138821159243
 20
123.6236612516709
 30
0.0
 11
117.122126666007
 21
123.6182251637113
 31
0.0
  0
LINE
  5
431
330
E3
100
AcDbEntity
  8
0
  6
Continuous
100
AcDbLine
 10
117.122126666007
 20
123.6182251637113
 30
0.0
 11
117.1090093063488
 21
123.6127890757516
 31
0.0
  0
LINE
  5
432
330
E3
100
AcDbEntity
  8
0
  6
Continuous
100
AcDbLine
 10
117.1090093063488
 20
123.6127890757516
 30
0.0
 11
117.0995701496328
 21
123.6073565974122
 31
0.0
  0
LINE
  5
433
330
E3
100
AcDbEntity
  8
0
  6
Continuous
100
AcDbLine
 10
117.0995701496328
 20
123.6073565974122
 30
0.0
 11
117.0938759015449
 21
123.6019210956642
 31
0.0
  0
LINE
  5
434
330
E3
100
AcDbEntity
  8
0
  6
Continuous
100
AcDbLine
 10
117.0938759015449
 20
123.6019210956642
 30
0.0
 11
117.0919732505908
 21
123.5964863130555
 31
0.0
  0
LINE
  5
435
330
E3
100
AcDbEntity
  8
0
  6
Continuous
100
AcDbLine
 10
118.0919732505908
 20
123.4008341391425
 30
0.0
 11
118.0900705996366
 21
123.3953993565338
 31
0.0
  0
LINE
  5
436
330
E3
100
AcDbEntity
  8
0
  6
Continuous
100
AcDbLine
 10
118.0900705996366
 20
123.3953993565338
 30
0.0
 11
118.0843771270969
 21
123.3899645739251
 31
0.0
  0
LINE
  5
437
330
E3
100
AcDbEntity
  8
0
  6
Continuous
100
AcDbLine
 10
118.0843771270969
 20
123.3899645739251
 30
0.0
 11
118.0749364416874
 21
123.3845311353699
 31
0.0
  0
LINE
  5
438
330
E3
100
AcDbEntity
  8
0
  6
Continuous
100
AcDbLine
 10
118.0749364416874
 20
123.3845311353699
 30
0.0
 11
118.0618190820292
 21
123.3790950474103
 31
0.0
  0
LINE
  5
439
330
E3
100
AcDbEntity
  8
0
  6
Continuous
100
AcDbLine
 10
118.0618190820292
 20
123.3790950474103
 30
0.0
 11
118.0451281984135
 21
123.3736589594507
 31
0.0
  0
LINE
  5
43A
330
E3
100
AcDbEntity
  8
0
  6
Continuous
100
AcDbLine
 10
118.0451281984135
 20
123.3736589594507
 30
0.0
 11
118.0249865179256
 21
123.3682264811112
 31
0.0
  0
LINE
  5
43B
330
E3
100
AcDbEntity
  8
0
  6
Continuous
100
AcDbLine
 10
118.0249865179256
 20
123.3682264811112
 30
0.0
 11
118.0015492542325
 21
123.3627903931516
 31
0.0
  0
LINE
  5
43C
330
E3
100
AcDbEntity
  8
0
  6
Continuous
100
AcDbLine
 10
118.0015492542325
 20
123.3627903931516
 30
0.0
 11
117.974996888342
 21
123.357354305192
 31
0.0
  0
LINE
  5
43D
330
E3
100
AcDbEntity
  8
0
  6
Continuous
100
AcDbLine
 10
117.974996888342
 20
123.357354305192
 30
0.0
 11
117.945527949363
 21
123.3519218268525
 31
0.0
  0
LINE
  5
43E
330
E3
100
AcDbEntity
  8
0
  6
Continuous
100
AcDbLine
 10
117.945527949363
 20
123.3519218268525
 30
0.0
 11
117.9133662337453
 21
123.3464857388929
 31
0.0
  0
LINE
  5
43F
330
E3
100
AcDbEntity
  8
0
  6
Continuous
100
AcDbLine
 10
117.9133662337453
 20
123.3464857388929
 30
0.0
 11
117.8787608052799
 21
123.3410532605534
 31
0.0
  0
LINE
  5
440
330
E3
100
AcDbEntity
  8
0
  6
Continuous
100
AcDbLine
 10
117.8787608052799
 20
123.3410532605534
 30
0.0
 11
117.8419715566182
 21
123.3356171725938
 31
0.0
  0
LINE
  5
441
330
E3
100
AcDbEntity
  8
0
  6
Continuous
100
AcDbLine
 10
117.8419715566182
 20
123.3356171725938
 30
0.0
 11
117.8032836477528
 21
123.3301810846341
 31
0.0
  0
LINE
  5
442
330
E3
100
AcDbEntity
  8
0
  6
Continuous
100
AcDbLine
 10
117.8032836477528
 20
123.3301810846341
 30
0.0
 11
117.7629822386763
 21
123.3247486062947
 31
0.0
  0
LINE
  5
443
330
E3
100
AcDbEntity
  8
0
  6
Continuous
100
AcDbLine
 10
117.7629822386763
 20
123.3247486062947
 30
0.0
 11
117.7213813663425
 21
123.3193125183351
 31
0.0
  0
LINE
  5
444
330
E3
100
AcDbEntity
  8
0
  6
Continuous
100
AcDbLine
 10
117.7213813663425
 20
123.3193125183351
 30
0.0
 11
117.6787986773255
 21
123.3138764303754
 31
0.0
  0
LINE
  5
445
330
E3
100
AcDbEntity
  8
0
  6
Continuous
100
AcDbLine
 10
117.6787986773255
 20
123.3138764303754
 30
0.0
 11
117.6355518181991
 21
123.308443952036
 31
0.0
  0
LINE
  5
446
330
E3
100
AcDbEntity
  8
0
  6
Continuous
100
AcDbLine
 10
117.6355518181991
 20
123.308443952036
 30
0.0
 11
117.5919728740181
 21
123.3030078640763
 31
0.0
  0
LINE
  5
447
330
E3
100
AcDbEntity
  8
0
  6
Continuous
100
AcDbLine
 10
117.5919728740181
 20
123.3030078640763
 30
0.0
 11
117.5483939298371
 21
123.2975717761167
 31
0.0
  0
LINE
  5
448
330
E3
100
AcDbEntity
  8
0
  6
Continuous
100
AcDbLine
 10
117.5483939298371
 20
123.2975717761167
 30
0.0
 11
117.505150680331
 21
123.2921392977772
 31
0.0
  0
LINE
  5
449
330
E3
100
AcDbEntity
  8
0
  6
Continuous
100
AcDbLine
 10
117.505150680331
 20
123.2921392977772
 30
0.0
 11
117.4625643816937
 21
123.2867032098176
 31
0.0
  0
LINE
  5
44A
330
E3
100
AcDbEntity
  8
0
  6
Continuous
100
AcDbLine
 10
117.4625643816937
 20
123.2867032098176
 30
0.0
 11
117.42096350936
 21
123.281267121858
 31
0.0
  0
LINE
  5
44B
330
E3
100
AcDbEntity
  8
0
  6
Continuous
100
AcDbLine
 10
117.42096350936
 20
123.281267121858
 30
0.0
 11
117.3806657099036
 21
123.2758346435185
 31
0.0
  0
LINE
  5
44C
330
E3
100
AcDbEntity
  8
0
  6
Continuous
100
AcDbLine
 10
117.3806657099036
 20
123.2758346435185
 30
0.0
 11
117.341974191418
 21
123.2703985555589
 31
0.0
  0
LINE
  5
44D
330
E3
100
AcDbEntity
  8
0
  6
Continuous
100
AcDbLine
 10
117.341974191418
 20
123.2703985555589
 30
0.0
 11
117.3051849427564
 21
123.2649660772194
 31
0.0
  0
LINE
  5
44E
330
E3
100
AcDbEntity
  8
0
  6
Continuous
100
AcDbLine
 10
117.3051849427564
 20
123.2649660772194
 30
0.0
 11
117.2705795142909
 21
123.2595299892598
 31
0.0
  0
LINE
  5
44F
330
E3
100
AcDbEntity
  8
0
  6
Continuous
100
AcDbLine
 10
117.2705795142909
 20
123.2595299892598
 30
0.0
 11
117.2384214082934
 21
123.2540939013002
 31
0.0
  0
LINE
  5
450
330
E3
100
AcDbEntity
  8
0
  6
Continuous
100
AcDbLine
 10
117.2384214082934
 20
123.2540939013002
 30
0.0
 11
117.2089524693144
 21
123.2486614229607
 31
0.0
  0
LINE
  5
451
330
E3
100
AcDbEntity
  8
0
  6
Continuous
100
AcDbLine
 10
117.2089524693144
 20
123.2486614229607
 30
0.0
 11
117.1823964938038
 21
123.2432253350011
 31
0.0
  0
LINE
  5
452
330
E3
100
AcDbEntity
  8
0
  6
Continuous
100
AcDbLine
 10
117.1823964938038
 20
123.2432253350011
 30
0.0
 11
117.1589592301107
 21
123.2377892470415
 31
0.0
  0
LINE
  5
453
330
E3
100
AcDbEntity
  8
0
  6
Continuous
100
AcDbLine
 10
117.1589592301107
 20
123.2377892470415
 30
0.0
 11
117.138821159243
 21
123.232356768702
 31
0.0
  0
LINE
  5
454
330
E3
100
AcDbEntity
  8
0
  6
Continuous
100
AcDbLine
 10
117.138821159243
 20
123.232356768702
 30
0.0
 11
117.122126666007
 21
123.2269206807424
 31
0.0
  0
LINE
  5
455
330
E3
100
AcDbEntity
  8
0
  6
Continuous
100
AcDbLine
 10
117.122126666007
 20
123.2269206807424
 30
0.0
 11
117.1090093063488
 21
123.2214845927827
 31
0.0
  0
LINE
  5
456
330
E3
100
AcDbEntity
  8
0
  6
Continuous
100
AcDbLine
 10
117.1090093063488
 20
123.2214845927827
 30
0.0
 11
117.0995701496328
 21
123.2160521144433
 31
0.0
  0
LINE
  5
457
330
E3
100
AcDbEntity
  8
0
  6
Continuous
100
AcDbLine
 10
117.0995701496328
 20
123.2160521144433
 30
0.0
 11
117.0938759015449
 21
123.2106167478382
 31
0.0
  0
LINE
  5
458
330
E3
100
AcDbEntity
  8
0
  6
Continuous
100
AcDbLine
 10
117.0938759015449
 20
123.2106167478382
 30
0.0
 11
117.0919732505908
 21
123.2051819652295
 31
0.0
  0
LINE
  5
459
330
E3
100
AcDbEntity
  8
0
  6
Continuous
100
AcDbLine
 10
118.0919732505908
 20
123.0095297913164
 30
0.0
 11
118.0900705996367
 21
123.0040950087077
 31
0.0
  0
LINE
  5
45A
330
E3
100
AcDbEntity
  8
0
  6
Continuous
100
AcDbLine
 10
118.0900705996367
 20
123.0040950087077
 30
0.0
 11
118.0843771270969
 21
122.998660226099
 31
0.0
  0
LINE
  5
45B
330
E3
100
AcDbEntity
  8
0
  6
Continuous
100
AcDbLine
 10
118.0843771270969
 20
122.998660226099
 30
0.0
 11
118.0749364416874
 21
122.993226652401
 31
0.0
  0
LINE
  5
45C
330
E3
100
AcDbEntity
  8
0
  6
Continuous
100
AcDbLine
 10
118.0749364416874
 20
122.993226652401
 30
0.0
 11
118.0618190820292
 21
122.9877905644414
 31
0.0
  0
LINE
  5
45D
330
E3
100
AcDbEntity
  8
0
  6
Continuous
100
AcDbLine
 10
118.0618190820292
 20
122.9877905644414
 30
0.0
 11
118.0451281984135
 21
122.9823544764817
 31
0.0
  0
LINE
  5
45E
330
E3
100
AcDbEntity
  8
0
  6
Continuous
100
AcDbLine
 10
118.0451281984135
 20
122.9823544764817
 30
0.0
 11
118.0249865179256
 21
122.9769219981423
 31
0.0
  0
LINE
  5
45F
330
E3
100
AcDbEntity
  8
0
  6
Continuous
100
AcDbLine
 10
118.0249865179256
 20
122.9769219981423
 30
0.0
 11
118.0015492542325
 21
122.9714859101827
 31
0.0
  0
LINE
  5
460
330
E3
100
AcDbEntity
  8
0
  6
Continuous
100
AcDbLine
 10
118.0015492542325
 20
122.9714859101827
 30
0.0
 11
117.974996888342
 21
122.966049822223
 31
0.0
  0
LINE
  5
461
330
E3
100
AcDbEntity
  8
0
  6
Continuous
100
AcDbLine
 10
117.974996888342
 20
122.966049822223
 30
0.0
 11
117.945527949363
 21
122.9606173438836
 31
0.0
  0
LINE
  5
462
330
E3
100
AcDbEntity
  8
0
  6
Continuous
100
AcDbLine
 10
117.945527949363
 20
122.9606173438836
 30
0.0
 11
117.9133662337453
 21
122.9551812559239
 31
0.0
  0
LINE
  5
463
330
E3
100
AcDbEntity
  8
0
  6
Continuous
100
AcDbLine
 10
117.9133662337453
 20
122.9551812559239
 30
0.0
 11
117.8787608052799
 21
122.9497487775845
 31
0.0
  0
LINE
  5
464
330
E3
100
AcDbEntity
  8
0
  6
Continuous
100
AcDbLine
 10
117.8787608052799
 20
122.9497487775845
 30
0.0
 11
117.8419715566182
 21
122.9443126896249
 31
0.0
  0
LINE
  5
465
330
E3
100
AcDbEntity
  8
0
  6
Continuous
100
AcDbLine
 10
117.8419715566182
 20
122.9443126896249
 30
0.0
 11
117.8032836477528
 21
122.9388766016652
 31
0.0
  0
LINE
  5
466
330
E3
100
AcDbEntity
  8
0
  6
Continuous
100
AcDbLine
 10
117.8032836477528
 20
122.9388766016652
 30
0.0
 11
117.7629822386763
 21
122.9334441233258
 31
0.0
  0
LINE
  5
467
330
E3
100
AcDbEntity
  8
0
  6
Continuous
100
AcDbLine
 10
117.7629822386763
 20
122.9334441233258
 30
0.0
 11
117.7213813663425
 21
122.9280080353661
 31
0.0
  0
LINE
  5
468
330
E3
100
AcDbEntity
  8
0
  6
Continuous
100
AcDbLine
 10
117.7213813663425
 20
122.9280080353661
 30
0.0
 11
117.6787986773255
 21
122.9225719474065
 31
0.0
  0
LINE
  5
469
330
E3
100
AcDbEntity
  8
0
  6
Continuous
100
AcDbLine
 10
117.6787986773255
 20
122.9225719474065
 30
0.0
 11
117.6355518181991
 21
122.917139469067
 31
0.0
  0
LINE
  5
46A
330
E3
100
AcDbEntity
  8
0
  6
Continuous
100
AcDbLine
 10
117.6355518181991
 20
122.917139469067
 30
0.0
 11
117.5919728740181
 21
122.9117033811074
 31
0.0
  0
LINE
  5
46B
330
E3
100
AcDbEntity
  8
0
  6
Continuous
100
AcDbLine
 10
117.5919728740181
 20
122.9117033811074
 30
0.0
 11
117.5483939298371
 21
122.9062672931478
 31
0.0
  0
LINE
  5
46C
330
E3
100
AcDbEntity
  8
0
  6
Continuous
100
AcDbLine
 10
117.5483939298371
 20
122.9062672931478
 30
0.0
 11
117.505150680331
 21
122.9008348148083
 31
0.0
  0
LINE
  5
46D
330
E3
100
AcDbEntity
  8
0
  6
Continuous
100
AcDbLine
 10
117.505150680331
 20
122.9008348148083
 30
0.0
 11
117.4625643816937
 21
122.8953987268487
 31
0.0
  0
LINE
  5
46E
330
E3
100
AcDbEntity
  8
0
  6
Continuous
100
AcDbLine
 10
117.4625643816937
 20
122.8953987268487
 30
0.0
 11
117.42096350936
 21
122.8899662485092
 31
0.0
  0
LINE
  5
46F
330
E3
100
AcDbEntity
  8
0
  6
Continuous
100
AcDbLine
 10
117.42096350936
 20
122.8899662485092
 30
0.0
 11
117.3806657099036
 21
122.8845301605496
 31
0.0
  0
LINE
  5
470
330
E3
100
AcDbEntity
  8
0
  6
Continuous
100
AcDbLine
 10
117.3806657099036
 20
122.8845301605496
 30
0.0
 11
117.341974191418
 21
122.87909407259
 31
0.0
  0
LINE
  5
471
330
E3
100
AcDbEntity
  8
0
  6
Continuous
100
AcDbLine
 10
117.341974191418
 20
122.87909407259
 30
0.0
 11
117.3051849427564
 21
122.8736615942505
 31
0.0
  0
LINE
  5
472
330
E3
100
AcDbEntity
  8
0
  6
Continuous
100
AcDbLine
 10
117.3051849427564
 20
122.8736615942505
 30
0.0
 11
117.2705795142909
 21
122.8682255062909
 31
0.0
  0
LINE
  5
473
330
E3
100
AcDbEntity
  8
0
  6
Continuous
100
AcDbLine
 10
117.2705795142909
 20
122.8682255062909
 30
0.0
 11
117.2384214082934
 21
122.8627894183313
 31
0.0
  0
LINE
  5
474
330
E3
100
AcDbEntity
  8
0
  6
Continuous
100
AcDbLine
 10
117.2384214082934
 20
122.8627894183313
 30
0.0
 11
117.2089524693144
 21
122.8573569399918
 31
0.0
  0
LINE
  5
475
330
E3
100
AcDbEntity
  8
0
  6
Continuous
100
AcDbLine
 10
117.2089524693144
 20
122.8573569399918
 30
0.0
 11
117.1823964938038
 21
122.8519208520322
 31
0.0
  0
LINE
  5
476
330
E3
100
AcDbEntity
  8
0
  6
Continuous
100
AcDbLine
 10
117.1823964938038
 20
122.8519208520322
 30
0.0
 11
117.1589592301107
 21
122.8464847640725
 31
0.0
  0
LINE
  5
477
330
E3
100
AcDbEntity
  8
0
  6
Continuous
100
AcDbLine
 10
117.1589592301107
 20
122.8464847640725
 30
0.0
 11
117.138821159243
 21
122.8410522857331
 31
0.0
  0
LINE
  5
478
330
E3
100
AcDbEntity
  8
0
  6
Continuous
100
AcDbLine
 10
117.138821159243
 20
122.8410522857331
 30
0.0
 11
117.122126666007
 21
122.8356161977734
 31
0.0
  0
LINE
  5
479
330
E3
100
AcDbEntity
  8
0
  6
Continuous
100
AcDbLine
 10
117.122126666007
 20
122.8356161977734
 30
0.0
 11
117.1090093063488
 21
122.830183719434
 31
0.0
  0
LINE
  5
47A
330
E3
100
AcDbEntity
  8
0
  6
Continuous
100
AcDbLine
 10
117.1090093063488
 20
122.830183719434
 30
0.0
 11
117.0995701496328
 21
122.8247476314744
 31
0.0
  0
LINE
  5
47B
330
E3
100
AcDbEntity
  8
0
  6
Continuous
100
AcDbLine
 10
117.0995701496328
 20
122.8247476314744
 30
0.0
 11
117.0938759015449
 21
122.8193124000121
 31
0.0
  0
LINE
  5
47C
330
E3
100
AcDbEntity
  8
0
  6
Continuous
100
AcDbLine
 10
117.0938759015449
 20
122.8193124000121
 30
0.0
 11
117.0919732505908
 21
122.8138776174034
 31
0.0
  0
LINE
  5
47D
330
E3
100
AcDbEntity
  8
0
  6
Continuous
100
AcDbLine
 10
118.0919732505908
 20
122.6182254434903
 30
0.0
 11
118.0900705996367
 21
122.6127906608816
 31
0.0
  0
LINE
  5
47E
330
E3
100
AcDbEntity
  8
0
  6
Continuous
100
AcDbLine
 10
118.0900705996367
 20
122.6127906608816
 30
0.0
 11
118.0843771270969
 21
122.6073558782729
 31
0.0
  0
LINE
  5
47F
330
E3
100
AcDbEntity
  8
0
  6
Continuous
100
AcDbLine
 10
118.0843771270969
 20
122.6073558782729
 30
0.0
 11
118.0749364416874
 21
122.6019221694321
 31
0.0
  0
LINE
  5
480
330
E3
100
AcDbEntity
  8
0
  6
Continuous
100
AcDbLine
 10
118.0749364416874
 20
122.6019221694321
 30
0.0
 11
118.0618190820292
 21
122.5964860814725
 31
0.0
  0
LINE
  5
481
330
E3
100
AcDbEntity
  8
0
  6
Continuous
100
AcDbLine
 10
118.0618190820292
 20
122.5964860814725
 30
0.0
 11
118.0451281984135
 21
122.5910499935129
 31
0.0
  0
LINE
  5
482
330
E3
100
AcDbEntity
  8
0
  6
Continuous
100
AcDbLine
 10
118.0451281984135
 20
122.5910499935129
 30
0.0
 11
118.0249865179256
 21
122.5856175151734
 31
0.0
  0
LINE
  5
483
330
E3
100
AcDbEntity
  8
0
  6
Continuous
100
AcDbLine
 10
118.0249865179256
 20
122.5856175151734
 30
0.0
 11
118.0015492542325
 21
122.5801814272137
 31
0.0
  0
LINE
  5
484
330
E3
100
AcDbEntity
  8
0
  6
Continuous
100
AcDbLine
 10
118.0015492542325
 20
122.5801814272137
 30
0.0
 11
117.974996888342
 21
122.5747489488743
 31
0.0
  0
LINE
  5
485
330
E3
100
AcDbEntity
  8
0
  6
Continuous
100
AcDbLine
 10
117.974996888342
 20
122.5747489488743
 30
0.0
 11
117.945527949363
 21
122.5693128609146
 31
0.0
  0
LINE
  5
486
330
E3
100
AcDbEntity
  8
0
  6
Continuous
100
AcDbLine
 10
117.945527949363
 20
122.5693128609146
 30
0.0
 11
117.9133662337453
 21
122.563876772955
 31
0.0
  0
LINE
  5
487
330
E3
100
AcDbEntity
  8
0
  6
Continuous
100
AcDbLine
 10
117.9133662337453
 20
122.563876772955
 30
0.0
 11
117.8787608052799
 21
122.5584442946156
 31
0.0
  0
LINE
  5
488
330
E3
100
AcDbEntity
  8
0
  6
Continuous
100
AcDbLine
 10
117.8787608052799
 20
122.5584442946156
 30
0.0
 11
117.8419715566182
 21
122.5530082066559
 31
0.0
  0
LINE
  5
489
330
E3
100
AcDbEntity
  8
0
  6
Continuous
100
AcDbLine
 10
117.8419715566182
 20
122.5530082066559
 30
0.0
 11
117.8032836477528
 21
122.5475721186963
 31
0.0
  0
LINE
  5
48A
330
E3
100
AcDbEntity
  8
0
  6
Continuous
100
AcDbLine
 10
117.8032836477528
 20
122.5475721186963
 30
0.0
 11
117.7629822386763
 21
122.5421396403568
 31
0.0
  0
LINE
  5
48B
330
E3
100
AcDbEntity
  8
0
  6
Continuous
100
AcDbLine
 10
117.7629822386763
 20
122.5421396403568
 30
0.0
 11
117.7213813663425
 21
122.5367035523972
 31
0.0
  0
LINE
  5
48C
330
E3
100
AcDbEntity
  8
0
  6
Continuous
100
AcDbLine
 10
117.7213813663425
 20
122.5367035523972
 30
0.0
 11
117.6787986773255
 21
122.5312674644376
 31
0.0
  0
LINE
  5
48D
330
E3
100
AcDbEntity
  8
0
  6
Continuous
100
AcDbLine
 10
117.6787986773255
 20
122.5312674644376
 30
0.0
 11
117.6355518181991
 21
122.5258349860981
 31
0.0
  0
LINE
  5
48E
330
E3
100
AcDbEntity
  8
0
  6
Continuous
100
AcDbLine
 10
117.6355518181991
 20
122.5258349860981
 30
0.0
 11
117.5919728740181
 21
122.5203988981385
 31
0.0
  0
LINE
  5
48F
330
E3
100
AcDbEntity
  8
0
  6
Continuous
100
AcDbLine
 10
117.5919728740181
 20
122.5203988981385
 30
0.0
 11
117.5483939298371
 21
122.5149628101789
 31
0.0
  0
LINE
  5
490
330
E3
100
AcDbEntity
  8
0
  6
Continuous
100
AcDbLine
 10
117.5483939298371
 20
122.5149628101789
 30
0.0
 11
117.505150680331
 21
122.5095303318394
 31
0.0
  0
LINE
  5
491
330
E3
100
AcDbEntity
  8
0
  6
Continuous
100
AcDbLine
 10
117.505150680331
 20
122.5095303318394
 30
0.0
 11
117.4625643816937
 21
122.5040942438798
 31
0.0
  0
LINE
  5
492
330
E3
100
AcDbEntity
  8
0
  6
Continuous
100
AcDbLine
 10
117.4625643816937
 20
122.5040942438798
 30
0.0
 11
117.42096350936
 21
122.4986617655403
 31
0.0
  0
LINE
  5
493
330
E3
100
AcDbEntity
  8
0
  6
Continuous
100
AcDbLine
 10
117.42096350936
 20
122.4986617655403
 30
0.0
 11
117.3806657099036
 21
122.4932256775807
 31
0.0
  0
LINE
  5
494
330
E3
100
AcDbEntity
  8
0
  6
Continuous
100
AcDbLine
 10
117.3806657099036
 20
122.4932256775807
 30
0.0
 11
117.341974191418
 21
122.4877895896211
 31
0.0
  0
LINE
  5
495
330
E3
100
AcDbEntity
  8
0
  6
Continuous
100
AcDbLine
 10
117.341974191418
 20
122.4877895896211
 30
0.0
 11
117.3051849427564
 21
122.4823571112816
 31
0.0
  0
LINE
  5
496
330
E3
100
AcDbEntity
  8
0
  6
Continuous
100
AcDbLine
 10
117.3051849427564
 20
122.4823571112816
 30
0.0
 11
117.2705795142909
 21
122.476921023322
 31
0.0
  0
LINE
  5
497
330
E3
100
AcDbEntity
  8
0
  6
Continuous
100
AcDbLine
 10
117.2705795142909
 20
122.476921023322
 30
0.0
 11
117.2384214082934
 21
122.4714849353624
 31
0.0
  0
LINE
  5
498
330
E3
100
AcDbEntity
  8
0
  6
Continuous
100
AcDbLine
 10
117.2384214082934
 20
122.4714849353624
 30
0.0
 11
117.2089524693144
 21
122.4660524570229
 31
0.0
  0
LINE
  5
499
330
E3
100
AcDbEntity
  8
0
  6
Continuous
100
AcDbLine
 10
117.2089524693144
 20
122.4660524570229
 30
0.0
 11
117.1823964938038
 21
122.4606163690633
 31
0.0
  0
LINE
  5
49A
330
E3
100
AcDbEntity
  8
0
  6
Continuous
100
AcDbLine
 10
117.1823964938038
 20
122.4606163690633
 30
0.0
 11
117.1589592301107
 21
122.4551802811036
 31
0.0
  0
LINE
  5
49B
330
E3
100
AcDbEntity
  8
0
  6
Continuous
100
AcDbLine
 10
117.1589592301107
 20
122.4551802811036
 30
0.0
 11
117.138821159243
 21
122.4497478027642
 31
0.0
  0
LINE
  5
49C
330
E3
100
AcDbEntity
  8
0
  6
Continuous
100
AcDbLine
 10
117.138821159243
 20
122.4497478027642
 30
0.0
 11
117.122126666007
 21
122.4443117148045
 31
0.0
  0
LINE
  5
49D
330
E3
100
AcDbEntity
  8
0
  6
Continuous
100
AcDbLine
 10
117.122126666007
 20
122.4443117148045
 30
0.0
 11
117.1090093063488
 21
122.4388792364651
 31
0.0
  0
LINE
  5
49E
330
E3
100
AcDbEntity
  8
0
  6
Continuous
100
AcDbLine
 10
117.1090093063488
 20
122.4388792364651
 30
0.0
 11
117.0995701496328
 21
122.4334431485054
 31
0.0
  0
LINE
  5
49F
330
E3
100
AcDbEntity
  8
0
  6
Continuous
100
AcDbLine
 10
117.0995701496328
 20
122.4334431485054
 30
0.0
 11
117.0938759015449
 21
122.428008052186
 31
0.0
  0
LINE
  5
4A0
330
E3
100
AcDbEntity
  8
0
  6
Continuous
100
AcDbLine
 10
117.0938759015449
 20
122.428008052186
 30
0.0
 11
117.0919732505908
 21
122.4225732695773
 31
0.0
  0
LINE
  5
4A1
330
E3
100
AcDbEntity
  8
0
  6
Continuous
100
AcDbLine
 10
118.0919732505908
 20
122.2269210956642
 30
0.0
 11
118.0900705996367
 21
122.2214863130556
 31
0.0
  0
LINE
  5
4A2
330
E3
100
AcDbEntity
  8
0
  6
Continuous
100
AcDbLine
 10
118.0900705996367
 20
122.2214863130556
 30
0.0
 11
118.0843771270969
 21
122.2160515304469
 31
0.0
  0
LINE
  5
4A3
330
E3
100
AcDbEntity
  8
0
  6
Continuous
100
AcDbLine
 10
118.0843771270969
 20
122.2160515304469
 30
0.0
 11
118.0749364416874
 21
122.2106176864632
 31
0.0
  0
LINE
  5
4A4
330
E3
100
AcDbEntity
  8
0
  6
Continuous
100
AcDbLine
 10
118.0749364416874
 20
122.2106176864632
 30
0.0
 11
118.0618190820292
 21
122.2051815985035
 31
0.0
  0
LINE
  5
4A5
330
E3
100
AcDbEntity
  8
0
  6
Continuous
100
AcDbLine
 10
118.0618190820292
 20
122.2051815985035
 30
0.0
 11
118.0451281984135
 21
122.1997455105439
 31
0.0
  0
LINE
  5
4A6
330
E3
100
AcDbEntity
  8
0
  6
Continuous
100
AcDbLine
 10
118.0451281984135
 20
122.1997455105439
 30
0.0
 11
118.0249865179256
 21
122.1943130322045
 31
0.0
  0
LINE
  5
4A7
330
E3
100
AcDbEntity
  8
0
  6
Continuous
100
AcDbLine
 10
118.0249865179256
 20
122.1943130322045
 30
0.0
 11
118.0015492542325
 21
122.1888769442448
 31
0.0
  0
LINE
  5
4A8
330
E3
100
AcDbEntity
  8
0
  6
Continuous
100
AcDbLine
 10
118.0015492542325
 20
122.1888769442448
 30
0.0
 11
117.974996888342
 21
122.1834444659054
 31
0.0
  0
LINE
  5
4A9
330
E3
100
AcDbEntity
  8
0
  6
Continuous
100
AcDbLine
 10
117.974996888342
 20
122.1834444659054
 30
0.0
 11
117.945527949363
 21
122.1780083779457
 31
0.0
  0
LINE
  5
4AA
330
E3
100
AcDbEntity
  8
0
  6
Continuous
100
AcDbLine
 10
117.945527949363
 20
122.1780083779457
 30
0.0
 11
117.9133662337453
 21
122.1725722899861
 31
0.0
  0
LINE
  5
4AB
330
E3
100
AcDbEntity
  8
0
  6
Continuous
100
AcDbLine
 10
117.9133662337453
 20
122.1725722899861
 30
0.0
 11
117.8787608052799
 21
122.1671398116466
 31
0.0
  0
LINE
  5
4AC
330
E3
100
AcDbEntity
  8
0
  6
Continuous
100
AcDbLine
 10
117.8787608052799
 20
122.1671398116466
 30
0.0
 11
117.8419715566182
 21
122.161703723687
 31
0.0
  0
LINE
  5
4AD
330
E3
100
AcDbEntity
  8
0
  6
Continuous
100
AcDbLine
 10
117.8419715566182
 20
122.161703723687
 30
0.0
 11
117.8032836477528
 21
122.1562676357274
 31
0.0
  0
LINE
  5
4AE
330
E3
100
AcDbEntity
  8
0
  6
Continuous
100
AcDbLine
 10
117.8032836477528
 20
122.1562676357274
 30
0.0
 11
117.7629822386763
 21
122.1508351573879
 31
0.0
  0
LINE
  5
4AF
330
E3
100
AcDbEntity
  8
0
  6
Continuous
100
AcDbLine
 10
117.7629822386763
 20
122.1508351573879
 30
0.0
 11
117.7213813663425
 21
122.1453990694283
 31
0.0
  0
LINE
  5
4B0
330
E3
100
AcDbEntity
  8
0
  6
Continuous
100
AcDbLine
 10
117.7213813663425
 20
122.1453990694283
 30
0.0
 11
117.6787986773255
 21
122.1399629814687
 31
0.0
  0
LINE
  5
4B1
330
E3
100
AcDbEntity
  8
0
  6
Continuous
100
AcDbLine
 10
117.6787986773255
 20
122.1399629814687
 30
0.0
 11
117.6355518181991
 21
122.1345305031292
 31
0.0
  0
LINE
  5
4B2
330
E3
100
AcDbEntity
  8
0
  6
Continuous
100
AcDbLine
 10
117.6355518181991
 20
122.1345305031292
 30
0.0
 11
117.5919728740181
 21
122.1290944151696
 31
0.0
  0
LINE
  5
4B3
330
E3
100
AcDbEntity
  8
0
  6
Continuous
100
AcDbLine
 10
117.5919728740181
 20
122.1290944151696
 30
0.0
 11
117.5483939298371
 21
122.1236619368301
 31
0.0
  0
LINE
  5
4B4
330
E3
100
AcDbEntity
  8
0
  6
Continuous
100
AcDbLine
 10
117.5483939298371
 20
122.1236619368301
 30
0.0
 11
117.505150680331
 21
122.1182258488705
 31
0.0
  0
LINE
  5
4B5
330
E3
100
AcDbEntity
  8
0
  6
Continuous
100
AcDbLine
 10
117.505150680331
 20
122.1182258488705
 30
0.0
 11
117.4625643816937
 21
122.1127897609109
 31
0.0
  0
LINE
  5
4B6
330
E3
100
AcDbEntity
  8
0
  6
Continuous
100
AcDbLine
 10
117.4625643816937
 20
122.1127897609109
 30
0.0
 11
117.42096350936
 21
122.1073572825714
 31
0.0
  0
LINE
  5
4B7
330
E3
100
AcDbEntity
  8
0
  6
Continuous
100
AcDbLine
 10
117.42096350936
 20
122.1073572825714
 30
0.0
 11
117.3806657099036
 21
122.1019211946118
 31
0.0
  0
LINE
  5
4B8
330
E3
100
AcDbEntity
  8
0
  6
Continuous
100
AcDbLine
 10
117.3806657099036
 20
122.1019211946118
 30
0.0
 11
117.341974191418
 21
122.0964851066522
 31
0.0
  0
LINE
  5
4B9
330
E3
100
AcDbEntity
  8
0
  6
Continuous
100
AcDbLine
 10
117.341974191418
 20
122.0964851066522
 30
0.0
 11
117.3051849427564
 21
122.0910526283127
 31
0.0
  0
LINE
  5
4BA
330
E3
100
AcDbEntity
  8
0
  6
Continuous
100
AcDbLine
 10
117.3051849427564
 20
122.0910526283127
 30
0.0
 11
117.2705795142909
 21
122.0856165403531
 31
0.0
  0
LINE
  5
4BB
330
E3
100
AcDbEntity
  8
0
  6
Continuous
100
AcDbLine
 10
117.2705795142909
 20
122.0856165403531
 30
0.0
 11
117.2384214082934
 21
122.0801804523934
 31
0.0
  0
LINE
  5
4BC
330
E3
100
AcDbEntity
  8
0
  6
Continuous
100
AcDbLine
 10
117.2384214082934
 20
122.0801804523934
 30
0.0
 11
117.2089524693144
 21
122.074747974054
 31
0.0
  0
LINE
  5
4BD
330
E3
100
AcDbEntity
  8
0
  6
Continuous
100
AcDbLine
 10
117.2089524693144
 20
122.074747974054
 30
0.0
 11
117.1823964938038
 21
122.0693118860943
 31
0.0
  0
LINE
  5
4BE
330
E3
100
AcDbEntity
  8
0
  6
Continuous
100
AcDbLine
 10
117.1823964938038
 20
122.0693118860943
 30
0.0
 11
117.1589592301107
 21
122.0638794077549
 31
0.0
  0
LINE
  5
4BF
330
E3
100
AcDbEntity
  8
0
  6
Continuous
100
AcDbLine
 10
117.1589592301107
 20
122.0638794077549
 30
0.0
 11
117.138821159243
 21
122.0584433197952
 31
0.0
  0
LINE
  5
4C0
330
E3
100
AcDbEntity
  8
0
  6
Continuous
100
AcDbLine
 10
117.138821159243
 20
122.0584433197952
 30
0.0
 11
117.122126666007
 21
122.0530072318356
 31
0.0
  0
LINE
  5
4C1
330
E3
100
AcDbEntity
  8
0
  6
Continuous
100
AcDbLine
 10
117.122126666007
 20
122.0530072318356
 30
0.0
 11
117.1090093063488
 21
122.0475747534962
 31
0.0
  0
LINE
  5
4C2
330
E3
100
AcDbEntity
  8
0
  6
Continuous
100
AcDbLine
 10
117.1090093063488
 20
122.0475747534962
 30
0.0
 11
117.0995701496328
 21
122.0421386655365
 31
0.0
  0
LINE
  5
4C3
330
E3
100
AcDbEntity
  8
0
  6
Continuous
100
AcDbLine
 10
117.0995701496328
 20
122.0421386655365
 30
0.0
 11
117.0938759015449
 21
122.0367037043599
 31
0.0
  0
LINE
  5
4C4
330
E3
100
AcDbEntity
  8
0
  6
Continuous
100
AcDbLine
 10
117.0938759015449
 20
122.0367037043599
 30
0.0
 11
117.0919732505908
 21
122.0312689217512
 31
0.0
  0
LINE
  5
4C5
330
E3
100
AcDbEntity
  8
0
  6
Continuous
100
AcDbLine
 10
118.0919732505908
 20
121.8356167478382
 30
0.0
 11
118.0900705996367
 21
121.8301819652295
 31
0.0
  0
LINE
  5
4C6
330
E3
100
AcDbEntity
  8
0
  6
Continuous
100
AcDbLine
 10
118.0900705996367
 20
121.8301819652295
 30
0.0
 11
118.0843771270969
 21
121.8247471826208
 31
0.0
  0
LINE
  5
4C7
330
E3
100
AcDbEntity
  8
0
  6
Continuous
100
AcDbLine
 10
118.0843771270969
 20
121.8247471826208
 30
0.0
 11
118.0749364416874
 21
121.8193132034943
 31
0.0
  0
LINE
  5
4C8
330
E3
100
AcDbEntity
  8
0
  6
Continuous
100
AcDbLine
 10
118.0749364416874
 20
121.8193132034943
 30
0.0
 11
118.0618190820292
 21
121.8138771155346
 31
0.0
  0
LINE
  5
4C9
330
E3
100
AcDbEntity
  8
0
  6
Continuous
100
AcDbLine
 10
118.0618190820292
 20
121.8138771155346
 30
0.0
 11
118.0451281984135
 21
121.8084446371952
 31
0.0
  0
LINE
  5
4CA
330
E3
100
AcDbEntity
  8
0
  6
Continuous
100
AcDbLine
 10
118.0451281984135
 20
121.8084446371952
 30
0.0
 11
118.0249865179256
 21
121.8030085492355
 31
0.0
  0
LINE
  5
4CB
330
E3
100
AcDbEntity
  8
0
  6
Continuous
100
AcDbLine
 10
118.0249865179256
 20
121.8030085492355
 30
0.0
 11
118.0015492542325
 21
121.7975724612759
 31
0.0
  0
LINE
  5
4CC
330
E3
100
AcDbEntity
  8
0
  6
Continuous
100
AcDbLine
 10
118.0015492542325
 20
121.7975724612759
 30
0.0
 11
117.974996888342
 21
121.7921399829364
 31
0.0
  0
LINE
  5
4CD
330
E3
100
AcDbEntity
  8
0
  6
Continuous
100
AcDbLine
 10
117.974996888342
 20
121.7921399829364
 30
0.0
 11
117.945527949363
 21
121.7867038949768
 31
0.0
  0
LINE
  5
4CE
330
E3
100
AcDbEntity
  8
0
  6
Continuous
100
AcDbLine
 10
117.945527949363
 20
121.7867038949768
 30
0.0
 11
117.9133662337453
 21
121.7812678070172
 31
0.0
  0
LINE
  5
4CF
330
E3
100
AcDbEntity
  8
0
  6
Continuous
100
AcDbLine
 10
117.9133662337453
 20
121.7812678070172
 30
0.0
 11
117.8787608052799
 21
121.7758353286777
 31
0.0
  0
LINE
  5
4D0
330
E3
100
AcDbEntity
  8
0
  6
Continuous
100
AcDbLine
 10
117.8787608052799
 20
121.7758353286777
 30
0.0
 11
117.8419715566182
 21
121.7703992407181
 31
0.0
  0
LINE
  5
4D1
330
E3
100
AcDbEntity
  8
0
  6
Continuous
100
AcDbLine
 10
117.8419715566182
 20
121.7703992407181
 30
0.0
 11
117.8032836477528
 21
121.7649631527585
 31
0.0
  0
LINE
  5
4D2
330
E3
100
AcDbEntity
  8
0
  6
Continuous
100
AcDbLine
 10
117.8032836477528
 20
121.7649631527585
 30
0.0
 11
117.7629822386763
 21
121.759530674419
 31
0.0
  0
LINE
  5
4D3
330
E3
100
AcDbEntity
  8
0
  6
Continuous
100
AcDbLine
 10
117.7629822386763
 20
121.759530674419
 30
0.0
 11
117.7213813663425
 21
121.7540945864594
 31
0.0
  0
LINE
  5
4D4
330
E3
100
AcDbEntity
  8
0
  6
Continuous
100
AcDbLine
 10
117.7213813663425
 20
121.7540945864594
 30
0.0
 11
117.6787986773255
 21
121.7486584984998
 31
0.0
  0
LINE
  5
4D5
330
E3
100
AcDbEntity
  8
0
  6
Continuous
100
AcDbLine
 10
117.6787986773255
 20
121.7486584984998
 30
0.0
 11
117.6355518181991
 21
121.7432260201603
 31
0.0
  0
LINE
  5
4D6
330
E3
100
AcDbEntity
  8
0
  6
Continuous
100
AcDbLine
 10
117.6355518181991
 20
121.7432260201603
 30
0.0
 11
117.5919728740181
 21
121.7377899322007
 31
0.0
  0
LINE
  5
4D7
330
E3
100
AcDbEntity
  8
0
  6
Continuous
100
AcDbLine
 10
117.5919728740181
 20
121.7377899322007
 30
0.0
 11
117.5483939298371
 21
121.7323574538612
 31
0.0
  0
LINE
  5
4D8
330
E3
100
AcDbEntity
  8
0
  6
Continuous
100
AcDbLine
 10
117.5483939298371
 20
121.7323574538612
 30
0.0
 11
117.505150680331
 21
121.7269213659016
 31
0.0
  0
LINE
  5
4D9
330
E3
100
AcDbEntity
  8
0
  6
Continuous
100
AcDbLine
 10
117.505150680331
 20
121.7269213659016
 30
0.0
 11
117.4625643816937
 21
121.721485277942
 31
0.0
  0
LINE
  5
4DA
330
E3
100
AcDbEntity
  8
0
  6
Continuous
100
AcDbLine
 10
117.4625643816937
 20
121.721485277942
 30
0.0
 11
117.42096350936
 21
121.7160527996025
 31
0.0
  0
LINE
  5
4DB
330
E3
100
AcDbEntity
  8
0
  6
Continuous
100
AcDbLine
 10
117.42096350936
 20
121.7160527996025
 30
0.0
 11
117.3806657099036
 21
121.7106167116429
 31
0.0
  0
LINE
  5
4DC
330
E3
100
AcDbEntity
  8
0
  6
Continuous
100
AcDbLine
 10
117.3806657099036
 20
121.7106167116429
 30
0.0
 11
117.341974191418
 21
121.7051806236832
 31
0.0
  0
LINE
  5
4DD
330
E3
100
AcDbEntity
  8
0
  6
Continuous
100
AcDbLine
 10
117.341974191418
 20
121.7051806236832
 30
0.0
 11
117.3051849427564
 21
121.6997481453438
 31
0.0
  0
LINE
  5
4DE
330
E3
100
AcDbEntity
  8
0
  6
Continuous
100
AcDbLine
 10
117.3051849427564
 20
121.6997481453438
 30
0.0
 11
117.2705795142909
 21
121.6943120573841
 31
0.0
  0
LINE
  5
4DF
330
E3
100
AcDbEntity
  8
0
  6
Continuous
100
AcDbLine
 10
117.2705795142909
 20
121.6943120573841
 30
0.0
 11
117.2384214082934
 21
121.6888759694245
 31
0.0
  0
LINE
  5
4E0
330
E3
100
AcDbEntity
  8
0
  6
Continuous
100
AcDbLine
 10
117.2384214082934
 20
121.6888759694245
 30
0.0
 11
117.2089524693144
 21
121.683443491085
 31
0.0
  0
LINE
  5
4E1
330
E3
100
AcDbEntity
  8
0
  6
Continuous
100
AcDbLine
 10
117.2089524693144
 20
121.683443491085
 30
0.0
 11
117.1823964938038
 21
121.6780074031254
 31
0.0
  0
LINE
  5
4E2
330
E3
100
AcDbEntity
  8
0
  6
Continuous
100
AcDbLine
 10
117.1823964938038
 20
121.6780074031254
 30
0.0
 11
117.1589592301107
 21
121.672574924786
 31
0.0
  0
LINE
  5
4E3
330
E3
100
AcDbEntity
  8
0
  6
Continuous
100
AcDbLine
 10
117.1589592301107
 20
121.672574924786
 30
0.0
 11
117.138821159243
 21
121.6671388368263
 31
0.0
  0
LINE
  5
4E4
330
E3
100
AcDbEntity
  8
0
  6
Continuous
100
AcDbLine
 10
117.138821159243
 20
121.6671388368263
 30
0.0
 11
117.122126666007
 21
121.6617027488667
 31
0.0
  0
LINE
  5
4E5
330
E3
100
AcDbEntity
  8
0
  6
Continuous
100
AcDbLine
 10
117.122126666007
 20
121.6617027488667
 30
0.0
 11
117.1090093063488
 21
121.6562702705272
 31
0.0
  0
ENDBLK
  5
E5
330
E3
100
AcDbEntity
  8
0
100
AcDbBlockEnd
  0
BLOCK
  5
4EB
330
4EA
100
AcDbEntity
  8
0
100
AcDbBlockBegin
  2
R-TRSC-05 HIDDENGUTTER DETAIL_STORY_MARKER
 70
     0
 10
0.0
 20
0.0
 30
0.0
  3
R-TRSC-05 HIDDENGUTTER DETAIL_STORY_MARKER
  1

  0
ENDBLK
  5
4EC
330
4EA
100
AcDbEntity
  8
0
100
AcDbBlockEnd
  0
ENDSEC
  0
SECTION
  2
ENTITIES
  0
HATCH
  5
3F
330
1F
100
AcDbEntity
  8
Doc_ Finishes
  6
Continuous
100
AcDbHatch
 10
0.0
 20
0.0
 30
0.0
210
0.0
220
0.0
230
1.0
  2
SOLID
 70
     1
 71
     0
 91
        1
 92
        3
 72
     0
 73
     1
 93
       54
 10
27.4117749414874
 20
16.87044408857867
 10
26.89356552397386
 20
16.5825499677378
 10
26.5480925789648
 20
16.29465584689693
 10
26.12584786839819
 20
16.02595466744544
 10
25.76118198199976
 20
15.60370995687884
 10
25.39651609560134
 20
15.33500877742737
 10
25.07023609198168
 20
14.89357112547136
 10
24.49444785029994
 20
14.45213347351537
 10
23.93785255000758
 20
14.02988876294876
 10
23.43883607388344
 20
13.81876640766546
 10
22.74789018386533
 20
13.39652169709885
 10
22.09533017662603
 20
12.99346992792163
 10
21.63469958328064
 20
12.55203227596564
 10
20.90536781048376
 20
12.12978756539902
 10
20.59828074825351
 20
11.7459287376112
 10
20.04168544796116
 20
11.28529814426581
 10
19.36993249933246
 20
10.8630534336992
 10
18.73656543348255
 20
10.42161578174319
 10
18.04561954346447
 20
10.15291460229172
 10
17.1051654153843
 20
9.692284008946325
 10
16.39502658397681
 20
9.020531060317637
 10
15.83843128368446
 20
8.598286349751023
 10
15.12829245227699
 20
8.137655756405634
 10
14.84039833143612
 20
7.98411222529051
 10
14.37976773809073
 20
7.81137575278599
 10
14.07268067586046
 20
7.523481631945121
 10
14.0151018516923
 20
7.216394569714853
 10
14.14945244141803
 20
6.890114566095209
 10
14.4373465622589
 20
6.563834562475543
 10
14.8787842142149
 20
6.659799269422514
 10
15.51215128006482
 20
7.06285103859973
 10
16.01116775618899
 20
7.389131042219374
 10
16.33744775980864
 20
7.696218104449641
 10
16.51018423231316
 20
7.907340459732938
 10
17.01303929671522
 20
8.421711288968723
 10
17.33548071205699
 20
8.652026585641417
 10
17.75004824606785
 20
8.99749953065046
 10
18.14158425041142
 20
9.204783297655894
 10
19.24709767444037
 20
9.75754000967037
 10
20.23745345013295
 20
10.47151742935572
 10
21.4120614631637
 20
11.1624633193738
 10
21.84966052684182
 20
11.64612544238645
 10
22.49454335752537
 20
12.06069297639732
 10
23.78430901889248
 20
12.9819541630881
 10
24.3600972605742
 20
13.25833251909534
 10
25.6498629219413
 20
14.24868829478776
 10
25.85714668894673
 20
14.64022429913134
 10
26.68628175696843
 20
15.23904407048036
 10
27.28510152831745
 20
15.72270619349301
 10
27.81482671066464
 20
16.1142421978366
 10
28.27545730401003
 20
16.52880973184745
 10
28.22939424467549
 20
16.7821565581874
 10
28.09120506667188
 20
16.89731420652375
 10
27.56147988432467
 20
16.89731420652375
 97
        0
 75
     0
 76
     1
 98
        0
  0
LINE
  5
41
330
1F
100
AcDbEntity
  8
Doc_ Finishes
  6
Continuous
100
AcDbLine
 10
27.41177566876475
 20
16.87044600708104
 30
0.0
 11
26.89356756490952
 21
16.58254868214004
 31
0.0
  0
LINE
  5
42
330
1F
100
AcDbEntity
  8
Doc_ Finishes
  6
Continuous
100
AcDbLine
 10
26.89356756490952
 20
16.58254868214004
 30
0.0
 11
26.54809254523997
 21
16.29465578284815
 31
0.0
  0
LINE
  5
43
330
1F
100
AcDbEntity
  8
Doc_ Finishes
  6
Continuous
100
AcDbLine
 10
26.54809254523997
 20
16.29465578284815
 30
0.0
 11
26.12584579071597
 21
16.02595249803305
 31
0.0
  0
LINE
  5
44
330
1F
100
AcDbEntity
  8
Doc_ Finishes
  6
Continuous
100
AcDbLine
 10
26.12584579071597
 20
16.02595249803305
 30
0.0
 11
25.76118115656963
 21
15.60371016915814
 31
0.0
  0
LINE
  5
45
330
1F
100
AcDbEntity
  8
Doc_ Finishes
  6
Continuous
100
AcDbLine
 10
25.76118115656963
 20
15.60371016915814
 30
0.0
 11
25.39651652242329
 21
15.33500688434304
 31
0.0
  0
LINE
  5
46
330
1F
100
AcDbEntity
  8
Doc_ Finishes
  6
Continuous
100
AcDbLine
 10
25.39651652242329
 20
15.33500688434304
 30
0.0
 11
25.07023554287962
 21
14.89357051534225
 31
0.0
  0
LINE
  5
47
330
1F
100
AcDbEntity
  8
Doc_ Finishes
  6
Continuous
100
AcDbLine
 10
25.07023554287962
 20
14.89357051534225
 30
0.0
 11
24.49444974429583
 21
14.45213414634146
 31
0.0
  0
LINE
  5
48
330
1F
100
AcDbEntity
  8
Doc_ Finishes
  6
Continuous
100
AcDbLine
 10
24.49444974429583
 20
14.45213414634146
 30
0.0
 11
23.93785356018882
 21
14.02988739181747
 31
0.0
  0
LINE
  5
49
330
1F
100
AcDbEntity
  8
Doc_ Finishes
  6
Continuous
100
AcDbLine
 10
23.93785356018882
 20
14.02988739181747
 30
0.0
 11
23.43883507081038
 21
13.81876622738001
 31
0.0
  0
LINE
  5
4A
330
1F
100
AcDbEntity
  8
Doc_ Finishes
  6
Continuous
100
AcDbLine
 10
23.43883507081038
 20
13.81876622738001
 30
0.0
 11
22.74788945712038
 21
13.39652389850511
 31
0.0
  0
LINE
  5
4B
330
1F
100
AcDbEntity
  8
Doc_ Finishes
  6
Continuous
100
AcDbLine
 10
22.74788945712038
 20
13.39652389850511
 30
0.0
 11
22.09533192368214
 21
12.993471184107
 31
0.0
  0
LINE
  5
4C
330
1F
100
AcDbEntity
  8
Doc_ Finishes
  6
Continuous
100
AcDbLine
 10
22.09533192368214
 20
12.993471184107
 30
0.0
 11
21.63470151455547
 21
12.55203038945712
 31
0.0
  0
LINE
  5
4D
330
1F
100
AcDbEntity
  8
Doc_ Finishes
  6
Continuous
100
AcDbLine
 10
21.63470151455547
 20
12.55203038945712
 30
0.0
 11
20.90536782061369
 21
12.12978806058222
 31
0.0
  0
LINE
  5
4E
330
1F
100
AcDbEntity
  8
Doc_ Finishes
  6
Continuous
100
AcDbLine
 10
20.90536782061369
 20
12.12978806058222
 30
0.0
 11
20.59828088119591
 21
11.74592938630999
 31
0.0
  0
LINE
  5
4F
330
1F
100
AcDbEntity
  8
Doc_ Finishes
  6
Continuous
100
AcDbLine
 10
20.59828088119591
 20
11.74592938630999
 30
0.0
 11
20.0416846970889
 21
11.28529897718332
 31
0.0
  0
LINE
  5
50
330
1F
100
AcDbEntity
  8
Doc_ Finishes
  6
Continuous
100
AcDbLine
 10
20.0416846970889
 20
11.28529897718332
 30
0.0
 11
19.36993312352478
 21
10.86305222265932
 31
0.0
  0
LINE
  5
51
330
1F
100
AcDbEntity
  8
Doc_ Finishes
  6
Continuous
100
AcDbLine
 10
19.36993312352478
 20
10.86305222265932
 30
0.0
 11
18.73656520456333
 21
10.42161585365854
 31
0.0
  0
LINE
  5
52
330
1F
100
AcDbEntity
  8
Doc_ Finishes
  6
Continuous
100
AcDbLine
 10
18.73656520456333
 20
10.42161585365854
 30
0.0
 11
18.04561959087333
 21
10.15291256884343
 31
0.0
  0
LINE
  5
53
330
1F
100
AcDbEntity
  8
Doc_ Finishes
  6
Continuous
100
AcDbLine
 10
18.04561959087333
 20
10.15291256884343
 30
0.0
 11
17.1051647324941
 21
9.692282159716758
 31
0.0
  0
LINE
  5
54
330
1F
100
AcDbEntity
  8
Doc_ Finishes
  6
Continuous
100
AcDbLine
 10
17.1051647324941
 20
9.692282159716758
 30
0.0
 11
16.3950250786782
 21
9.020530586152635
 31
0.0
  0
LINE
  5
55
330
1F
100
AcDbEntity
  8
Doc_ Finishes
  6
Continuous
100
AcDbLine
 10
16.3950250786782
 20
9.020530586152635
 30
0.0
 11
15.8384333202203
 21
8.598288257277733
 31
0.0
  0
LINE
  5
56
330
1F
100
AcDbEntity
  8
Doc_ Finishes
  6
Continuous
100
AcDbLine
 10
15.8384333202203
 20
8.598288257277733
 30
0.0
 11
15.1282936664044
 21
8.137657848151063
 31
0.0
  0
LINE
  5
57
330
1F
100
AcDbEntity
  8
Doc_ Finishes
  6
Continuous
100
AcDbLine
 10
15.1282936664044
 20
8.137657848151063
 30
0.0
 11
14.84039634146341
 21
7.984114378442171
 31
0.0
  0
LINE
  5
58
330
1F
100
AcDbEntity
  8
Doc_ Finishes
  6
Continuous
100
AcDbLine
 10
14.84039634146341
 20
7.984114378442171
 30
0.0
 11
14.37976593233674
 21
7.811376868607396
 31
0.0
  0
LINE
  5
59
330
1F
100
AcDbEntity
  8
Doc_ Finishes
  6
Continuous
100
AcDbLine
 10
14.37976593233674
 20
7.811376868607396
 30
0.0
 11
14.07267899291896
 21
7.523479543666405
 31
0.0
  0
LINE
  5
5A
330
1F
100
AcDbEntity
  8
Doc_ Finishes
  6
Continuous
100
AcDbLine
 10
14.07267899291896
 20
7.523479543666405
 30
0.0
 11
14.0151012981904
 21
7.216392604248622
 31
0.0
  0
LINE
  5
5B
330
1F
100
AcDbEntity
  8
Doc_ Finishes
  6
Continuous
100
AcDbLine
 10
14.0151012981904
 20
7.216392604248622
 30
0.0
 11
14.14945072777341
 21
6.890116050354051
 31
0.0
  0
LINE
  5
5C
330
1F
100
AcDbEntity
  8
Doc_ Finishes
  6
Continuous
100
AcDbLine
 10
14.14945072777341
 20
6.890116050354051
 30
0.0
 11
14.4373480527144
 21
6.563835070810386
 31
0.0
  0
LINE
  5
5D
330
1F
100
AcDbEntity
  8
Doc_ Finishes
  6
Continuous
100
AcDbLine
 10
14.4373480527144
 20
6.563835070810386
 30
0.0
 11
14.87878442171519
 21
6.659800845790715
 31
0.0
  0
LINE
  5
5E
330
1F
100
AcDbEntity
  8
Doc_ Finishes
  6
Continuous
100
AcDbLine
 10
14.87878442171519
 20
6.659800845790715
 30
0.0
 11
15.51215234067663
 21
7.062849134539732
 31
0.0
  0
LINE
  5
5F
330
1F
100
AcDbEntity
  8
Doc_ Finishes
  6
Continuous
100
AcDbLine
 10
15.51215234067663
 20
7.062849134539732
 30
0.0
 11
16.01116640440598
 21
7.389130114083398
 31
0.0
  0
LINE
  5
60
330
1F
100
AcDbEntity
  8
Doc_ Finishes
  6
Continuous
100
AcDbLine
 10
16.01116640440598
 20
7.389130114083398
 30
0.0
 11
16.33744738394964
 21
7.69621705350118
 31
0.0
  0
LINE
  5
61
330
1F
100
AcDbEntity
  8
Doc_ Finishes
  6
Continuous
100
AcDbLine
 10
16.33744738394964
 20
7.69621705350118
 30
0.0
 11
16.51018489378442
 21
7.907342643587726
 31
0.0
  0
LINE
  5
62
330
1F
100
AcDbEntity
  8
Doc_ Finishes
  6
Continuous
100
AcDbLine
 10
16.51018489378442
 20
7.907342643587726
 30
0.0
 11
17.0130404209284
 21
8.421709284028323
 31
0.0
  0
LINE
  5
63
330
1F
100
AcDbEntity
  8
Doc_ Finishes
  6
Continuous
100
AcDbLine
 10
17.0130404209284
 20
8.421709284028323
 30
0.0
 11
17.33547993705743
 21
8.65202448859166
 31
0.0
  0
LINE
  5
64
330
1F
100
AcDbEntity
  8
Doc_ Finishes
  6
Continuous
100
AcDbLine
 10
17.33547993705743
 20
8.65202448859166
 30
0.0
 11
17.75004819040126
 21
8.997499508261212
 31
0.0
  0
LINE
  5
65
330
1F
100
AcDbEntity
  8
Doc_ Finishes
  6
Continuous
100
AcDbLine
 10
17.75004819040126
 20
8.997499508261212
 30
0.0
 11
18.14158536585366
 21
9.204783634933122
 31
0.0
  0
LINE
  5
66
330
1F
100
AcDbEntity
  8
Doc_ Finishes
  6
Continuous
100
AcDbLine
 10
18.14158536585366
 20
9.204783634933122
 30
0.0
 11
19.24709923288749
 21
9.75753835562549
 31
0.0
  0
LINE
  5
67
330
1F
100
AcDbEntity
  8
Doc_ Finishes
  6
Continuous
100
AcDbLine
 10
19.24709923288749
 20
9.75753835562549
 30
0.0
 11
20.23745328481511
 21
10.47151947285602
 31
0.0
  0
LINE
  5
68
330
1F
100
AcDbEntity
  8
Doc_ Finishes
  6
Continuous
100
AcDbLine
 10
20.23745328481511
 20
10.47151947285602
 30
0.0
 11
21.41206038552321
 21
11.16246508654602
 31
0.0
  0
LINE
  5
69
330
1F
100
AcDbEntity
  8
Doc_ Finishes
  6
Continuous
100
AcDbLine
 10
21.41206038552321
 20
11.16246508654602
 30
0.0
 11
21.84965971675846
 21
11.64612657356412
 31
0.0
  0
LINE
  5
6A
330
1F
100
AcDbEntity
  8
Doc_ Finishes
  6
Continuous
100
AcDbLine
 10
21.84965971675846
 20
11.64612657356412
 30
0.0
 11
22.49454317466562
 21
12.06069482690795
 31
0.0
  0
LINE
  5
6B
330
1F
100
AcDbEntity
  8
Doc_ Finishes
  6
Continuous
100
AcDbLine
 10
22.49454317466562
 20
12.06069482690795
 30
0.0
 11
23.78431009047993
 21
12.98195564516129
 31
0.0
  0
LINE
  5
6C
330
1F
100
AcDbEntity
  8
Doc_ Finishes
  6
Continuous
100
AcDbLine
 10
23.78431009047993
 20
12.98195564516129
 30
0.0
 11
24.36009588906373
 21
13.25833300550747
 31
0.0
  0
LINE
  5
6D
330
1F
100
AcDbEntity
  8
Doc_ Finishes
  6
Continuous
100
AcDbLine
 10
24.36009588906373
 20
13.25833300550747
 30
0.0
 11
25.64986280487805
 21
14.24868705743509
 31
0.0
  0
LINE
  5
6E
330
1F
100
AcDbEntity
  8
Doc_ Finishes
  6
Continuous
100
AcDbLine
 10
25.64986280487805
 20
14.24868705743509
 30
0.0
 11
25.85714693154996
 21
14.64022423288749
 31
0.0
  0
LINE
  5
6F
330
1F
100
AcDbEntity
  8
Doc_ Finishes
  6
Continuous
100
AcDbLine
 10
25.85714693154996
 20
14.64022423288749
 30
0.0
 11
26.68628343823761
 21
15.2390455350118
 31
0.0
  0
LINE
  5
70
330
1F
100
AcDbEntity
  8
Doc_ Finishes
  6
Continuous
100
AcDbLine
 10
26.68628343823761
 20
15.2390455350118
 30
0.0
 11
27.28510031471282
 21
15.7227070220299
 31
0.0
  0
LINE
  5
71
330
1F
100
AcDbEntity
  8
Doc_ Finishes
  6
Continuous
100
AcDbLine
 10
27.28510031471282
 20
15.7227070220299
 30
0.0
 11
27.81482838316287
 21
16.1142441974823
 31
0.0
  0
LINE
  5
72
330
1F
100
AcDbEntity
  8
Doc_ Finishes
  6
Continuous
100
AcDbLine
 10
27.81482838316287
 20
16.1142441974823
 30
0.0
 11
28.27545879228953
 21
16.52880802517702
 31
0.0
  0
LINE
  5
73
330
1F
100
AcDbEntity
  8
Doc_ Finishes
  6
Continuous
100
AcDbLine
 10
28.27545879228953
 20
16.52880802517702
 30
0.0
 11
28.22939221085759
 21
16.78215873328088
 31
0.0
  0
LINE
  5
74
330
1F
100
AcDbEntity
  8
Doc_ Finishes
  6
Continuous
100
AcDbLine
 10
28.22939221085759
 20
16.78215873328088
 30
0.0
 11
28.09120574350905
 21
16.897314122738
 31
0.0
  0
LINE
  5
75
330
1F
100
AcDbEntity
  8
Doc_ Finishes
  6
Continuous
100
AcDbLine
 10
28.09120574350905
 20
16.897314122738
 30
0.0
 11
27.56147767505901
 21
16.897314122738
 31
0.0
  0
LINE
  5
76
330
1F
100
AcDbEntity
  8
Doc_ Finishes
  6
Continuous
100
AcDbLine
 10
27.56147767505901
 20
16.897314122738
 30
0.0
 11
27.41177566876475
 21
16.87044600708104
 31
0.0
  0
HATCH
  5
77
330
1F
100
AcDbEntity
  8
Doc_ Finishes
  6
Continuous
100
AcDbHatch
 10
0.0
 20
0.0
 30
0.0
210
0.0
220
0.0
230
1.0
  2
SOLID
 70
     1
 71
     0
 91
        1
 92
        3
 72
     0
 73
     1
 93
       39
 10
27.65360600299377
 20
13.12014334109181
 10
27.21600693931564
 20
12.77467039608275
 10
26.54809257896482
 20
12.24494521373555
 10
25.92624127794851
 20
11.85340920939199
 10
25.32742150659951
 20
11.32368402704478
 10
24.72860173525052
 20
11.04730567103754
 10
24.08371890456698
 20
10.56364354802488
 10
23.62308831122158
 20
10.33332825135219
 10
23.231552306878
 20
10.03391836567767
 10
22.81698477286715
 20
9.619350831666825
 10
22.40241723885631
 20
9.38903553499415
 10
21.91875511584363
 20
9.043562589985086
 10
21.66540828950367
 20
8.859310352646935
 10
21.25084075549282
 20
8.582931996639696
 10
20.09926427212933
 20
7.753796928618002
 10
19.75379132712029
 20
7.477418572610764
 10
19.2931607337749
 20
7.316197864939873
 10
19.22406614477309
 20
6.993756449598113
 10
19.3622553227767
 20
6.717378093590874
 10
19.63863367878394
 20
6.602220445254527
 10
20.00713815346026
 20
6.8325357419272
 10
20.26048497980021
 20
7.131945627601722
 10
20.55989486547472
 20
7.362260924274415
 10
21.31993534449462
 20
7.707733869283458
 10
21.84966052684182
 20
8.122301403294307
 10
22.88607936186895
 20
8.882341882314256
 10
23.20852077721072
 20
9.342972475659646
 10
24.01462431556515
 20
9.734508480003234
 10
24.5673810275796
 20
10.05694989534501
 10
25.46561068460312
 20
10.60970660735953
 10
25.88017821861399
 20
11.07033720070492
 10
26.31777728229212
 20
11.34671555671216
 10
26.70931328663569
 20
11.30065249737762
 10
27.21600693931562
 20
11.55399932371759
 10
28.0681735370046
 20
12.17585062473387
 10
28.41364648201364
 20
12.49829204007566
 10
28.39061495234636
 20
12.77467039608289
 10
28.22939424467547
 20
13.00498569275559
 10
28.04514200733732
 20
13.05104875209013
 97
        0
 75
     0
 76
     1
 98
        0
  0
LINE
  5
78
330
1F
100
AcDbEntity
  8
Doc_ Finishes
  6
Continuous
100
AcDbLine
 10
27.6536064122738
 20
13.12014211250983
 30
0.0
 11
27.21600708103855
 21
12.77467151848938
 31
0.0
  0
LINE
  5
79
330
1F
100
AcDbEntity
  8
Doc_ Finishes
  6
Continuous
100
AcDbLine
 10
27.21600708103855
 20
12.77467151848938
 30
0.0
 11
26.54809254523997
 21
12.24494345003934
 31
0.0
  0
LINE
  5
7A
330
1F
100
AcDbEntity
  8
Doc_ Finishes
  6
Continuous
100
AcDbLine
 10
26.54809254523997
 20
12.24494345003934
 30
0.0
 11
25.92624016522423
 21
11.85341070023603
 31
0.0
  0
LINE
  5
7B
330
1F
100
AcDbEntity
  8
Doc_ Finishes
  6
Continuous
100
AcDbLine
 10
25.92624016522423
 20
11.85341070023603
 30
0.0
 11
25.32742328874902
 21
11.32368263178599
 31
0.0
  0
LINE
  5
7C
330
1F
100
AcDbEntity
  8
Doc_ Finishes
  6
Continuous
100
AcDbLine
 10
25.32742328874902
 20
11.32368263178599
 30
0.0
 11
24.72860198662471
 21
11.04730527143981
 31
0.0
  0
LINE
  5
7D
330
1F
100
AcDbEntity
  8
Doc_ Finishes
  6
Continuous
100
AcDbLine
 10
24.72860198662471
 20
11.04730527143981
 30
0.0
 11
24.08371852871754
 21
10.56364378442171
 31
0.0
  0
LINE
  5
7E
330
1F
100
AcDbEntity
  8
Doc_ Finishes
  6
Continuous
100
AcDbLine
 10
24.08371852871754
 20
10.56364378442171
 30
0.0
 11
23.62308811959087
 21
10.33332857985838
 31
0.0
  0
LINE
  5
7F
330
1F
100
AcDbEntity
  8
Doc_ Finishes
  6
Continuous
100
AcDbLine
 10
23.62308811959087
 20
10.33332857985838
 30
0.0
 11
23.23155094413847
 21
10.03392014162077
 31
0.0
  0
LINE
  5
80
330
1F
100
AcDbEntity
  8
Doc_ Finishes
  6
Continuous
100
AcDbLine
 10
23.23155094413847
 20
10.03392014162077
 30
0.0
 11
22.81698269079465
 21
9.619351888276947
 31
0.0
  0
LINE
  5
81
330
1F
100
AcDbEntity
  8
Doc_ Finishes
  6
Continuous
100
AcDbLine
 10
22.81698269079465
 20
9.619351888276947
 30
0.0
 11
22.40241886309992
 21
9.389036683713611
 31
0.0
  0
LINE
  5
82
330
1F
100
AcDbEntity
  8
Doc_ Finishes
  6
Continuous
100
AcDbLine
 10
22.40241886309992
 20
9.389036683713611
 30
0.0
 11
21.91875295043273
 21
9.04356166404406
 31
0.0
  0
LINE
  5
83
330
1F
100
AcDbEntity
  8
Doc_ Finishes
  6
Continuous
100
AcDbLine
 10
21.91875295043273
 20
9.04356166404406
 30
0.0
 11
21.66540666797797
 21
8.859308615263572
 31
0.0
  0
LINE
  5
84
330
1F
100
AcDbEntity
  8
Doc_ Finishes
  6
Continuous
100
AcDbLine
 10
21.66540666797797
 20
8.859308615263572
 30
0.0
 11
21.25084284028324
 21
8.582931254917387
 31
0.0
  0
LINE
  5
85
330
1F
100
AcDbEntity
  8
Doc_ Finishes
  6
Continuous
100
AcDbLine
 10
21.25084284028324
 20
8.582931254917387
 30
0.0
 11
20.09926239181747
 21
7.75379474822974
 31
0.0
  0
LINE
  5
86
330
1F
100
AcDbEntity
  8
Doc_ Finishes
  6
Continuous
100
AcDbLine
 10
20.09926239181747
 20
7.75379474822974
 30
0.0
 11
19.75379179779701
 21
7.477417387883556
 31
0.0
  0
LINE
  5
87
330
1F
100
AcDbEntity
  8
Doc_ Finishes
  6
Continuous
100
AcDbLine
 10
19.75379179779701
 20
7.477417387883556
 30
0.0
 11
19.29316138867033
 21
7.316199842643588
 31
0.0
  0
LINE
  5
88
330
1F
100
AcDbEntity
  8
Doc_ Finishes
  6
Continuous
100
AcDbLine
 10
19.29316138867033
 20
7.316199842643588
 30
0.0
 11
19.22406815499606
 21
6.993755900865461
 31
0.0
  0
LINE
  5
89
330
1F
100
AcDbEntity
  8
Doc_ Finishes
  6
Continuous
100
AcDbLine
 10
19.22406815499606
 20
6.993755900865461
 30
0.0
 11
19.36225462234461
 21
6.717378540519276
 31
0.0
  0
LINE
  5
8A
330
1F
100
AcDbEntity
  8
Doc_ Finishes
  6
Continuous
100
AcDbLine
 10
19.36225462234461
 20
6.717378540519276
 30
0.0
 11
19.63863198269079
 21
6.602218725413059
 31
0.0
  0
LINE
  5
8B
330
1F
100
AcDbEntity
  8
Doc_ Finishes
  6
Continuous
100
AcDbLine
 10
19.63863198269079
 20
6.602218725413059
 30
0.0
 11
20.00713808025177
 21
6.832533929976396
 31
0.0
  0
LINE
  5
8C
330
1F
100
AcDbEntity
  8
Doc_ Finishes
  6
Continuous
100
AcDbLine
 10
20.00713808025177
 20
6.832533929976396
 30
0.0
 11
20.26048436270653
 21
7.1319467938631
 31
0.0
  0
LINE
  5
8D
330
1F
100
AcDbEntity
  8
Doc_ Finishes
  6
Continuous
100
AcDbLine
 10
20.26048436270653
 20
7.1319467938631
 30
0.0
 11
20.55989280094414
 21
7.362261998426435
 31
0.0
  0
LINE
  5
8E
330
1F
100
AcDbEntity
  8
Doc_ Finishes
  6
Continuous
100
AcDbLine
 10
20.55989280094414
 20
7.362261998426435
 30
0.0
 11
21.31993607395751
 21
7.707732592446892
 31
0.0
  0
LINE
  5
8F
330
1F
100
AcDbEntity
  8
Doc_ Finishes
  6
Continuous
100
AcDbLine
 10
21.31993607395751
 20
7.707732592446892
 30
0.0
 11
21.84965971675846
 21
8.122300845790717
 31
0.0
  0
LINE
  5
90
330
1F
100
AcDbEntity
  8
Doc_ Finishes
  6
Continuous
100
AcDbLine
 10
21.84965971675846
 20
8.122300845790717
 30
0.0
 11
22.88608035011802
 21
8.882339693154996
 31
0.0
  0
LINE
  5
91
330
1F
100
AcDbEntity
  8
Doc_ Finishes
  6
Continuous
100
AcDbLine
 10
22.88608035011802
 20
8.882339693154996
 30
0.0
 11
23.20851986624705
 21
9.342974527930762
 31
0.0
  0
LINE
  5
92
330
1F
100
AcDbEntity
  8
Doc_ Finishes
  6
Continuous
100
AcDbLine
 10
23.20851986624705
 20
9.342974527930762
 30
0.0
 11
24.01462529504327
 21
9.734507277734066
 31
0.0
  0
LINE
  5
93
330
1F
100
AcDbEntity
  8
Doc_ Finishes
  6
Continuous
100
AcDbLine
 10
24.01462529504327
 20
9.734507277734066
 30
0.0
 11
24.56738001573564
 21
10.05695121951219
 31
0.0
  0
LINE
  5
94
330
1F
100
AcDbEntity
  8
Doc_ Finishes
  6
Continuous
100
AcDbLine
 10
24.56738001573564
 20
10.05695121951219
 30
0.0
 11
25.46560975609756
 21
10.60970594020456
 31
0.0
  0
LINE
  5
95
330
1F
100
AcDbEntity
  8
Doc_ Finishes
  6
Continuous
100
AcDbLine
 10
25.46560975609756
 20
10.60970594020456
 30
0.0
 11
25.88017800944139
 21
11.07033634933124
 31
0.0
  0
LINE
  5
96
330
1F
100
AcDbEntity
  8
Doc_ Finishes
  6
Continuous
100
AcDbLine
 10
25.88017800944139
 20
11.07033634933124
 30
0.0
 11
26.31777734067663
 21
11.34671370967742
 31
0.0
  0
LINE
  5
97
330
1F
100
AcDbEntity
  8
Doc_ Finishes
  6
Continuous
100
AcDbLine
 10
26.31777734067663
 20
11.34671370967742
 30
0.0
 11
26.70931451612903
 21
11.30065155389457
 31
0.0
  0
LINE
  5
98
330
1F
100
AcDbEntity
  8
Doc_ Finishes
  6
Continuous
100
AcDbLine
 10
26.70931451612903
 20
11.30065155389457
 30
0.0
 11
27.21600708103855
 21
11.55399783634933
 31
0.0
  0
LINE
  5
99
330
1F
100
AcDbEntity
  8
Doc_ Finishes
  6
Continuous
100
AcDbLine
 10
27.21600708103855
 20
11.55399783634933
 30
0.0
 11
28.06817466561763
 21
12.17585021636507
 31
0.0
  0
LINE
  5
9A
330
1F
100
AcDbEntity
  8
Doc_ Finishes
  6
Continuous
100
AcDbLine
 10
28.06817466561763
 20
12.17585021636507
 30
0.0
 11
28.41364525963808
 21
12.49829415814319
 31
0.0
  0
LINE
  5
9B
330
1F
100
AcDbEntity
  8
Doc_ Finishes
  6
Continuous
100
AcDbLine
 10
28.41364525963808
 20
12.49829415814319
 30
0.0
 11
28.39061418174666
 21
12.77467151848938
 31
0.0
  0
LINE
  5
9C
330
1F
100
AcDbEntity
  8
Doc_ Finishes
  6
Continuous
100
AcDbLine
 10
28.39061418174666
 20
12.77467151848938
 30
0.0
 11
28.22939221085759
 21
13.00498672305271
 31
0.0
  0
LINE
  5
9D
330
1F
100
AcDbEntity
  8
Doc_ Finishes
  6
Continuous
100
AcDbLine
 10
28.22939221085759
 20
13.00498672305271
 30
0.0
 11
28.04514358772619
 21
13.05104887883556
 31
0.0
  0
LINE
  5
9E
330
1F
100
AcDbEntity
  8
Doc_ Finishes
  6
Continuous
100
AcDbLine
 10
28.04514358772619
 20
13.05104887883556
 30
0.0
 11
27.6536064122738
 21
13.12014211250983
 31
0.0
  0
HATCH
  5
9F
330
1F
100
AcDbEntity
  8
Doc_ Finishes
  6
Continuous
100
AcDbHatch
 10
0.0
 20
0.0
 30
0.0
210
0.0
220
0.0
230
1.0
  2
SOLID
 70
     1
 71
     0
 91
        1
 92
        3
 72
     0
 73
     1
 93
       47
 10
28.06817353700456
 20
15.74573772316067
 10
28.30309513961077
 20
15.62136746295728
 10
28.4412843176144
 20
15.4002647781515
 10
28.93876535842742
 20
15.17916209334572
 10
29.82317609765057
 20
14.40530269652538
 10
30.92868952167951
 20
13.74199464210799
 10
31.59199757609689
 20
13.3827027792986
 10
32.20002995931279
 20
13.07868658769064
 10
33.55428390374828
 20
12.08372450606458
 10
34.07940278016201
 20
11.69679480765445
 10
34.88090001258301
 20
11.08876242443854
 10
35.59948373820179
 20
10.50836787682334
 10
36.5668079842271
 20
9.817421986805197
 10
37.06428902504012
 20
9.458130123995785
 10
37.81051058625966
 20
8.933011247582023
 10
38.61200781868061
 20
8.407892371168286
 10
38.77783483228498
 20
8.186789686362482
 10
39.38586721550092
 20
7.744584316750918
 10
40.18736444792187
 20
6.915449248729224
 10
40.7953968311378
 20
6.44560604351692
 10
41.56925622795804
 20
6.169227687509681
 10
42.23256428237543
 20
6.086314180707507
 10
42.48130480278193
 20
6.30741686551329
 10
42.14965077557326
 20
6.611433057121246
 10
41.48634272115586
 20
6.998362755531397
 10
40.76775899553709
 20
7.357654618340788
 10
40.18736444792187
 20
8.048600508358874
 10
38.99893751709079
 20
8.822459905179112
 10
38.47381864067705
 20
9.319940945992132
 10
38.22507812027052
 20
9.734508480003
 10
37.17484036744301
 20
10.31490302761817
 10
36.73263499783144
 20
10.78474623283046
 10
36.2351539570184
 20
11.17167593124059
 10
35.48893239579888
 20
11.61388130085215
 10
34.85326217698223
 20
12.16663801286669
 10
34.35578113616919
 20
12.58120554687754
 10
33.69247308175183
 20
12.99577308088841
 10
33.22262987653953
 20
13.32742710809708
 10
32.7251488357265
 20
13.5761676285036
 10
31.93747052110588
 20
14.06443605744977
 10
31.43077686842594
 20
14.38687747279155
 10
30.92408321574601
 20
14.70931888813342
 10
30.62467333007151
 20
15.100854892477
 10
29.95675896972068
 20
15.67664313415887
 10
29.47309684670803
 20
15.9530214901661
 10
28.82821401602447
 20
16.36758902417695
 10
28.50577260068269
 20
16.22939984617334
 97
        0
 75
     0
 76
     1
 98
        0
  0
LINE
  5
A0
330
1F
100
AcDbEntity
  8
Doc_ Finishes
  6
Continuous
100
AcDbLine
 10
28.30309697088906
 20
15.62136850904799
 30
0.0
 11
28.06817466561763
 21
15.74573809992132
 31
0.0
  0
LINE
  5
A1
330
1F
100
AcDbEntity
  8
Doc_ Finishes
  6
Continuous
100
AcDbLine
 10
28.44128343823761
 20
15.40026308025177
 30
0.0
 11
28.30309697088906
 21
15.62136850904799
 31
0.0
  0
LINE
  5
A2
330
1F
100
AcDbEntity
  8
Doc_ Finishes
  6
Continuous
100
AcDbLine
 10
28.93876622738001
 20
15.17916207710464
 30
0.0
 11
28.44128343823761
 21
15.40026308025177
 31
0.0
  0
LINE
  5
A3
330
1F
100
AcDbEntity
  8
Doc_ Finishes
  6
Continuous
100
AcDbLine
 10
29.82317466561762
 20
14.40530192761605
 30
0.0
 11
28.93876622738001
 21
15.17916207710464
 31
0.0
  0
LINE
  5
A4
330
1F
100
AcDbEntity
  8
Doc_ Finishes
  6
Continuous
100
AcDbLine
 10
30.92868853265146
 20
13.74199449252557
 30
0.0
 11
29.82317466561762
 21
14.40530192761605
 31
0.0
  0
LINE
  5
A5
330
1F
100
AcDbEntity
  8
Doc_ Finishes
  6
Continuous
100
AcDbLine
 10
31.59199596774193
 20
13.3827025963808
 30
0.0
 11
30.92868853265146
 21
13.74199449252557
 31
0.0
  0
LINE
  5
A6
330
1F
100
AcDbEntity
  8
Doc_ Finishes
  6
Continuous
100
AcDbLine
 10
32.20003147128246
 20
13.07868705743509
 30
0.0
 11
31.59199596774193
 21
13.3827025963808
 31
0.0
  0
LINE
  5
A7
330
1F
100
AcDbEntity
  8
Doc_ Finishes
  6
Continuous
100
AcDbLine
 10
33.55428452006294
 20
12.08372590479937
 30
0.0
 11
32.20003147128246
 21
13.07868705743509
 31
0.0
  0
LINE
  5
A8
330
1F
100
AcDbEntity
  8
Doc_ Finishes
  6
Continuous
100
AcDbLine
 10
34.07940106215578
 20
11.69679583005508
 30
0.0
 11
33.55428452006294
 21
12.08372590479937
 31
0.0
  0
LINE
  5
A9
330
1F
100
AcDbEntity
  8
Doc_ Finishes
  6
Continuous
100
AcDbLine
 10
34.8808993902439
 20
11.08876032651456
 30
0.0
 11
34.07940106215578
 21
11.69679583005508
 31
0.0
  0
LINE
  5
AA
330
1F
100
AcDbEntity
  8
Doc_ Finishes
  6
Continuous
100
AcDbLine
 10
35.59948318253343
 20
10.50836742722266
 30
0.0
 11
34.8808993902439
 21
11.08876032651456
 31
0.0
  0
LINE
  5
AB
330
1F
100
AcDbEntity
  8
Doc_ Finishes
  6
Continuous
100
AcDbLine
 10
36.56680615656963
 20
9.817421813532652
 30
0.0
 11
35.59948318253343
 21
10.50836742722266
 31
0.0
  0
LINE
  5
AC
330
1F
100
AcDbEntity
  8
Doc_ Finishes
  6
Continuous
100
AcDbLine
 10
37.06428894571204
 20
9.458129917387884
 30
0.0
 11
36.56680615656963
 21
9.817421813532652
 31
0.0
  0
LINE
  5
AD
330
1F
100
AcDbEntity
  8
Doc_ Finishes
  6
Continuous
100
AcDbLine
 10
37.8105109166011
 20
8.933013375295044
 30
0.0
 11
37.06428894571204
 21
9.458129917387884
 31
0.0
  0
LINE
  5
AE
330
1F
100
AcDbEntity
  8
Doc_ Finishes
  6
Continuous
100
AcDbLine
 10
38.61200924468922
 20
8.407892407553108
 30
0.0
 11
37.8105109166011
 21
8.933013375295044
 31
0.0
  0
LINE
  5
AF
330
1F
100
AcDbEntity
  8
Doc_ Finishes
  6
Continuous
100
AcDbLine
 10
38.77783389063729
 20
8.18679140440598
 30
0.0
 11
38.61200924468922
 21
8.407892407553108
 31
0.0
  0
LINE
  5
B0
330
1F
100
AcDbEntity
  8
Doc_ Finishes
  6
Continuous
100
AcDbLine
 10
39.3858693941778
 20
7.744584972462627
 30
0.0
 11
38.77783389063729
 21
8.18679140440598
 31
0.0
  0
LINE
  5
B1
330
1F
100
AcDbEntity
  8
Doc_ Finishes
  6
Continuous
100
AcDbLine
 10
40.18736329661684
 20
6.915448465774981
 30
0.0
 11
39.3858693941778
 21
7.744584972462627
 31
0.0
  0
LINE
  5
B2
330
1F
100
AcDbEntity
  8
Doc_ Finishes
  6
Continuous
100
AcDbLine
 10
40.79539880015735
 20
6.4456038552321
 30
0.0
 11
40.18736329661684
 21
6.915448465774981
 31
0.0
  0
LINE
  5
B3
330
1F
100
AcDbEntity
  8
Doc_ Finishes
  6
Continuous
100
AcDbLine
 10
41.56925452399685
 20
6.169226494885916
 30
0.0
 11
40.79539880015735
 21
6.4456038552321
 31
0.0
  0
LINE
  5
B4
330
1F
100
AcDbEntity
  8
Doc_ Finishes
  6
Continuous
100
AcDbLine
 10
42.23256638473643
 20
6.086316384736428
 30
0.0
 11
41.56925452399685
 21
6.169226494885916
 31
0.0
  0
LINE
  5
B5
330
1F
100
AcDbEntity
  8
Doc_ Finishes
  6
Continuous
100
AcDbLine
 10
42.48130556648308
 20
6.307417387883556
 30
0.0
 11
42.23256638473643
 21
6.086316384736428
 31
0.0
  0
LINE
  5
B6
330
1F
100
AcDbEntity
  8
Doc_ Finishes
  6
Continuous
100
AcDbLine
 10
42.14965184893784
 20
6.611432926829268
 30
0.0
 11
42.48130556648308
 21
6.307417387883556
 31
0.0
  0
LINE
  5
B7
330
1F
100
AcDbEntity
  8
Doc_ Finishes
  6
Continuous
100
AcDbLine
 10
41.48634441384736
 20
6.998363001573564
 30
0.0
 11
42.14965184893784
 21
6.611432926829268
 31
0.0
  0
LINE
  5
B8
330
1F
100
AcDbEntity
  8
Doc_ Finishes
  6
Continuous
100
AcDbLine
 10
40.76776062155783
 20
7.357654897718332
 30
0.0
 11
41.48634441384736
 21
6.998363001573564
 31
0.0
  0
LINE
  5
B9
330
1F
100
AcDbEntity
  8
Doc_ Finishes
  6
Continuous
100
AcDbLine
 10
40.18736329661684
 20
8.048600511408338
 30
0.0
 11
40.76776062155783
 21
7.357654897718332
 31
0.0
  0
LINE
  5
BA
330
1F
100
AcDbEntity
  8
Doc_ Finishes
  6
Continuous
100
AcDbLine
 10
38.99893931943352
 20
8.822460660896931
 30
0.0
 11
40.18736329661684
 21
8.048600511408338
 31
0.0
  0
LINE
  5
BB
330
1F
100
AcDbEntity
  8
Doc_ Finishes
  6
Continuous
100
AcDbLine
 10
38.47381835169158
 20
9.319939024390242
 30
0.0
 11
38.99893931943352
 21
8.822460660896931
 31
0.0
  0
LINE
  5
BC
330
1F
100
AcDbEntity
  8
Doc_ Finishes
  6
Continuous
100
AcDbLine
 10
38.22507916994492
 20
9.734507277734066
 30
0.0
 11
38.47381835169158
 21
9.319939024390242
 31
0.0
  0
LINE
  5
BD
330
1F
100
AcDbEntity
  8
Doc_ Finishes
  6
Continuous
100
AcDbLine
 10
37.17484166011014
 20
10.31490460267506
 30
0.0
 11
38.22507916994492
 21
9.734507277734066
 31
0.0
  0
LINE
  5
BE
330
1F
100
AcDbEntity
  8
Doc_ Finishes
  6
Continuous
100
AcDbLine
 10
36.7326352281668
 20
10.78474478756884
 30
0.0
 11
37.17484166011014
 21
10.31490460267506
 31
0.0
  0
LINE
  5
BF
330
1F
100
AcDbEntity
  8
Doc_ Finishes
  6
Continuous
100
AcDbLine
 10
36.23515243902439
 20
11.17167486231314
 30
0.0
 11
36.7326352281668
 21
10.78474478756884
 31
0.0
  0
LINE
  5
C0
330
1F
100
AcDbEntity
  8
Doc_ Finishes
  6
Continuous
100
AcDbLine
 10
35.48893046813532
 20
11.61388129425649
 30
0.0
 11
36.23515243902439
 21
11.17167486231314
 31
0.0
  0
LINE
  5
C1
330
1F
100
AcDbEntity
  8
Doc_ Finishes
  6
Continuous
100
AcDbLine
 10
34.85326121164437
 20
12.16663601494886
 30
0.0
 11
35.48893046813532
 21
11.61388129425649
 31
0.0
  0
LINE
  5
C2
330
1F
100
AcDbEntity
  8
Doc_ Finishes
  6
Continuous
100
AcDbLine
 10
34.35578284815106
 20
12.58120426829268
 30
0.0
 11
34.85326121164437
 21
12.16663601494886
 31
0.0
  0
LINE
  5
C3
330
1F
100
AcDbEntity
  8
Doc_ Finishes
  6
Continuous
100
AcDbLine
 10
33.69247098741149
 20
12.99577252163651
 30
0.0
 11
34.35578284815106
 21
12.58120426829268
 31
0.0
  0
LINE
  5
C4
330
1F
100
AcDbEntity
  8
Doc_ Finishes
  6
Continuous
100
AcDbLine
 10
33.2226308025177
 20
13.32742623918175
 30
0.0
 11
33.69247098741149
 21
12.99577252163651
 31
0.0
  0
LINE
  5
C5
330
1F
100
AcDbEntity
  8
Doc_ Finishes
  6
Continuous
100
AcDbLine
 10
32.7251480133753
 20
13.5761654209284
 30
0.0
 11
33.2226308025177
 21
13.32742623918175
 31
0.0
  0
LINE
  5
C6
330
1F
100
AcDbEntity
  8
Doc_ Finishes
  6
Continuous
100
AcDbLine
 10
31.93747098741148
 20
14.0644340086546
 30
0.0
 11
32.7251480133753
 21
13.5761654209284
 31
0.0
  0
LINE
  5
C7
330
1F
100
AcDbEntity
  8
Doc_ Finishes
  6
Continuous
100
AcDbLine
 10
31.43077842250197
 20
14.38687795043273
 30
0.0
 11
31.93747098741148
 21
14.0644340086546
 31
0.0
  0
LINE
  5
C8
330
1F
100
AcDbEntity
  8
Doc_ Finishes
  6
Continuous
100
AcDbLine
 10
30.92408143194335
 20
14.70931746656176
 30
0.0
 11
31.43077842250197
 21
14.38687795043273
 31
0.0
  0
LINE
  5
C9
330
1F
100
AcDbEntity
  8
Doc_ Finishes
  6
Continuous
100
AcDbLine
 10
30.62467299370574
 20
15.10085464201416
 30
0.0
 11
30.92408143194335
 21
14.70931746656176
 31
0.0
  0
LINE
  5
CA
330
1F
100
AcDbEntity
  8
Doc_ Finishes
  6
Continuous
100
AcDbLine
 10
29.95675845790716
 20
15.67664486624705
 30
0.0
 11
30.62467299370574
 21
15.10085464201416
 31
0.0
  0
LINE
  5
CB
330
1F
100
AcDbEntity
  8
Doc_ Finishes
  6
Continuous
100
AcDbLine
 10
29.47309697088906
 20
15.95302222659323
 30
0.0
 11
29.95675845790716
 21
15.67664486624705
 31
0.0
  0
LINE
  5
CC
330
1F
100
AcDbEntity
  8
Doc_ Finishes
  6
Continuous
100
AcDbLine
 10
28.8282135129819
 20
16.36759047993706
 30
0.0
 11
29.47309697088906
 21
15.95302222659323
 31
0.0
  0
LINE
  5
CD
330
1F
100
AcDbEntity
  8
Doc_ Finishes
  6
Continuous
100
AcDbLine
 10
28.50577399685287
 20
16.22939958693942
 30
0.0
 11
28.8282135129819
 21
16.36759047993706
 31
0.0
  0
LINE
  5
CE
330
1F
100
AcDbEntity
  8
Doc_ Finishes
  6
Continuous
100
AcDbLine
 10
28.06817466561763
 20
15.74573809992132
 30
0.0
 11
28.50577399685287
 21
16.22939958693942
 31
0.0
  0
LINE
  5
CF
330
1F
100
AcDbEntity
  8
Doc_ Finishes
  6
Continuous
 62
   254
370
    18
100
AcDbLine
 10
97.43333792289535
 20
5.093360051140834
 30
0.0
 11
97.43333792289535
 21
20.69901750590086
 31
0.0
  0
LINE
  5
D0
330
1F
100
AcDbEntity
  8
Doc_ Finishes
  6
Continuous
 62
   254
370
    18
100
AcDbLine
 10
7.000000491738787
 20
20.69901750590086
 30
0.0
 11
290.2406840086546
 21
20.69901750590086
 31
0.0
  0
LINE
  5
D1
330
1F
100
AcDbEntity
  8
Doc_ Finishes
  6
Continuous
 62
   254
370
    18
100
AcDbLine
 10
290.2406840086546
 20
20.69901750590086
 30
0.0
 11
290.2406840086546
 21
5.000000983477577
 31
0.0
  0
LINE
  5
D2
330
1F
100
AcDbEntity
  8
Doc_ Finishes
  6
Continuous
 62
   254
370
    18
100
AcDbLine
 10
290.2406840086546
 20
5.000000983477577
 30
0.0
 11
7.000000491738787
 21
5.000000983477577
 31
0.0
  0
LINE
  5
D3
330
1F
100
AcDbEntity
  8
Doc_ Finishes
  6
Continuous
 62
   254
370
    18
100
AcDbLine
 10
7.000000491738787
 20
20.69901750590086
 30
0.0
 11
7.000000491738787
 21
5.000000983477577
 31
0.0
  0
LINE
  5
D4
330
1F
100
AcDbEntity
  8
Doc_ Finishes
  6
Continuous
 62
   254
370
    18
100
AcDbLine
 10
190.2919443351691
 20
5.093360051140834
 30
0.0
 11
190.2919443351691
 21
20.69901750590086
 31
0.0
  0
LINE
  5
D5
330
1F
100
AcDbEntity
  8
Doc_ Finishes
  6
Continuous
 62
   254
370
    18
100
AcDbLine
 10
190.2919443351691
 20
12.8961909913454
 30
0.0
 11
290.2406840086546
 21
12.8961909913454
 31
0.0
  0
MTEXT
  5
D7
330
1F
100
AcDbEntity
  8
0
  6
Continuous
100
AcDbMText
 10
210.3494767103412
 20
15.00230533707754
 30
0.0
 40
2.25
 41
0.0
 71
     7
 72
     1
  1
{R-TRSC-05}
  7
GENERATED_STYLE_1
 73
     1
 44
1.0
  0
MTEXT
  5
D8
330
1F
100
AcDbEntity
  8
0
  6
Continuous
100
AcDbMText
 10
210.3494767103412
 20
11.03300550383743
 30
0.0
 40
3.0
 41
0.0
 71
     1
 72
     1
  1
{HIDDENGUTTER DETAIL}
  7
GENERATED_STYLE_1
 73
     1
 44
1.0
  0
MTEXT
  5
DA
330
1F
100
AcDbEntity
  8
Doc_ Floor
  6
Continuous
100
AcDbMText
 10
29.78353726544612
 20
13.33283672870609
 30
0.0
 40
5.603347280334726
 41
0.0
 71
     1
 72
     1
  1
{The Roofing Store}
  7
GENERATED_STYLE_2
 73
     1
 44
1.0
  0
MTEXT
  5
DC
102
{ACAD_XDICTIONARY
360
518
102
}
330
1F
100
AcDbEntity
  8
0
  6
Continuous
100
AcDbMText
 10
102.7389238446655
 20
6.378784417288157
 30
0.0
 40
1.5
 41
0.0
 71
     7
 72
     1
  1
{P: HEAD OFFICE              09 277 2717\P    ALBANY             09 972 0060\P    KATIKAIT            07 549 5190\P    WELLINGTON              04 974 5792\P    CHRISTCHURCH          03 348 6528}
  7
GENERATED_STYLE_1
 73
     1
 44
1.062946161486498
  0
MTEXT
  5
DD
330
1F
100
AcDbEntity
  8
0
  6
Continuous
100
AcDbMText
 10
149.4184566143587
 20
9.199084231526156
 30
0.0
 40
1.5
 41
0.0
 71
     7
 72
     1
  1
{WEB: www.theroofingstore.co.nz}
  7
GENERATED_STYLE_1
 73
     1
 44
1.0
  0
MTEXT
  5
DE
330
1F
100
AcDbEntity
  8
0
  6
Continuous
100
AcDbMText
 10
149.4184566143587
 20
6.620946023411263
 30
0.0
 40
1.5
 41
0.0
 71
     7
 72
     1
  1
{Copyright \U+00A9 The Roofing Store 2013}
  7
GENERATED_STYLE_1
 73
     1
 44
1.0
  0
MTEXT
  5
DF
330
1F
100
AcDbEntity
  8
0
  6
Continuous
100
AcDbMText
 10
273.9546684065315
 20
15.01597367092287
 30
0.0
 40
2.25
 41
0.0
 71
     7
 72
     1
  1
{1:5}
  7
GENERATED_STYLE_1
 73
     1
 44
1.0
  0
MTEXT
  5
E0
330
1F
100
AcDbEntity
  8
0
  6
Continuous
100
AcDbMText
 10
264.8396605309016
 20
15.51746459162148
 30
0.0
 40
1.5
 41
0.0
 71
     7
 72
     1
  1
{SCALE:}
  7
GENERATED_STYLE_1
 73
     1
 44
1.0
  0
MTEXT
  5
E1
330
1F
100
AcDbEntity
  8
0
  6
Continuous
100
AcDbMText
 10
191.5066235617487
 20
15.48695559872207
 30
0.0
 40
1.5
 41
0.0
 71
     7
 72
     1
  1
{DETAIL NUMBER:}
  7
GENERATED_STYLE_1
 73
     1
 44
1.0
  0
MTEXT
  5
E2
330
1F
100
AcDbEntity
  8
0
  6
Continuous
100
AcDbMText
 10
191.5066235617487
 20
9.005462392315325
 30
0.0
 40
1.5
 41
0.0
 71
     7
 72
     1
  1
{TITLE:}
  7
GENERATED_STYLE_1
 73
     1
 44
1.0
  0
INSERT
  5
4E6
102
{ACAD_XDICTIONARY
360
4E7
102
}
330
1F
100
AcDbEntity
  8
0
  6
Continuous
100
AcDbBlockReference
  2
Drawing_1_2
 10
26.12171212374109
 20
79.28749807145608
 30
0.0
  0
ENDSEC
  0
SECTION
  2
OBJECTS
  0
DICTIONARY
  5
C
330
0
100
AcDbDictionary
281
     1
  3
ACAD_GROUP
350
D
  3
ACAD_LAYOUT
350
1A
  3
ACAD_MATERIAL
350
3B
  3
ACAD_MLEADERSTYLE
350
513
  3
ACAD_MLINESTYLE
350
17
  3
ACAD_PLOTSETTINGS
350
19
  3
ACAD_PLOTSTYLENAME
350
E
  3
ACAD_SCALELIST
350
4ED
  3
ACAD_VISUALSTYLE
350
2A
  3
AcDbVariableDictionary
350
511
  3
WATERMARKS
350
50F
  0
DICTIONARY
  5
518
330
DC
100
AcDbDictionary
280
     1
281
     1
  3
ACAD_MTEXT_RT
360
519
  0
DICTIONARY
  5
4E7
330
4E6
100
AcDbDictionary
280
     1
281
     1
  3
ACAD_FILTER
360
4E8
  0
DICTIONARY
  5
D
102
{ACAD_REACTORS
330
C
102
}
330
C
100
AcDbDictionary
281
     1
  0
DICTIONARY
  5
1A
102
{ACAD_REACTORS
330
C
102
}
330
C
100
AcDbDictionary
281
     1
  3
Layout1
350
1E
  3
Model
350
22
  0
DICTIONARY
  5
3B
102
{ACAD_REACTORS
330
C
102
}
330
C
100
AcDbDictionary
281
     1
  3
ByBlock
350
3D
  3
ByLayer
350
3C
  3
Global
350
3E
  0
DICTIONARY
  5
513
102
{ACAD_REACTORS
330
C
102
}
330
C
100
AcDbDictionary
281
     1
  0
DICTIONARY
  5
17
102
{ACAD_REACTORS
330
C
102
}
330
C
100
AcDbDictionary
281
     1
  3
Standard
350
18
  0
DICTIONARY
  5
19
102
{ACAD_REACTORS
330
C
102
}
330
C
100
AcDbDictionary
281
     1
  0
ACDBDICTIONARYWDFLT
  5
E
102
{ACAD_REACTORS
330
C
102
}
330
C
100
AcDbDictionary
281
     1
  3
Normal
350
F
100
AcDbDictionaryWithDefault
340
F
  0
DICTIONARY
  5
4ED
102
{ACAD_REACTORS
330
C
102
}
330
C
100
AcDbDictionary
281
     1
  3
A0
350
4EE
  3
A1
350
4EF
  3
A2
350
4F0
  3
A3
350
4F1
  3
A4
350
4F2
  3
A5
350
4F3
  3
A6
350
4F4
  3
A7
350
4F5
  3
A8
350
4F6
  3
A9
350
4F7
  3
B0
350
4F8
  3
B1
350
4F9
  3
B2
350
4FA
  3
B3
350
4FB
  3
B4
350
4FC
  3
B5
350
4FD
  3
B6
350
4FE
  3
B7
350
4FF
  3
B8
350
500
  3
B9
350
501
  3
C0
350
502
  3
C1
350
503
  3
C2
350
504
  3
C3
350
505
  3
C4
350
506
  3
C5
350
507
  3
C6
350
508
  3
C7
350
509
  3
C8
350
50A
  3
C9
350
50B
  3
D0
350
50C
  3
D1
350
50D
  3
D2
350
50E
  0
DICTIONARY
  5
2A
102
{ACAD_REACTORS
330
C
102
}
330
C
100
AcDbDictionary
281
     1
  3
2dWireframe
350
2F
  3
3D Hidden
350
31
  3
3dWireframe
350
30
  3
Basic
350
32
  3
Brighten
350
36
  3
ColorChange
350
3A
  3
Conceptual
350
34
  3
Dim
350
35
  3
Facepattern
350
39
  3
Flat
350
2B
  3
FlatWithEdges
350
2C
  3
Gouraud
350
2D
  3
GouraudWithEdges
350
2E
  3
Linepattern
350
38
  3
Realistic
350
33
  3
Thicken
350
37
  0
DICTIONARY
  5
511
102
{ACAD_REACTORS
330
C
102
}
330
C
100
AcDbDictionary
281
     1
  3
CANNOSCALE
350
515
  3
DIMASSOC
350
516
  3
HIDETEXT
350
517
  3
XCLIPFRAME
350
514
  0
DICTIONARY
  5
50F
102
{ACAD_REACTORS
330
C
102
}
330
C
100
AcDbDictionary
281
     1
  3
AC_WATERMARK
350
510
  0
XRECORD
  5
519
102
{ACAD_REACTORS
330
518
102
}
330
518
100
AcDbXrecord
280
     1
 40
956118.0
  1
{P: HEAD OFFICE ^I^I09 277 2717\P    ALBANY ^I^I09 972 0060\P    KATIKAIT^I^I07 549 5190\P    WELLINGTON^I^I04 974 5792\P    CHRISTCHURCH^I^I03 348 6528}
  0
DICTIONARY
  5
4E8
102
{ACAD_REACTORS
330
4E7
102
}
330
4E7
100
AcDbDictionary
280
     1
281
     1
  3
SPATIAL
360
4E9
  0
LAYOUT
  5
1E
102
{ACAD_REACTORS
330
1A
102
}
330
1A
100
AcDbPlotSettings
  1

  2
none_device
  4

  6

 40
0.0
 41
0.0
 42
0.0
 43
0.0
 44
0.0
 45
0.0
 46
0.0
 47
0.0
 48
0.0
 49
0.0
140
0.0
141
0.0
142
1.0
143
1.0
 70
   688
 72
     0
 73
     0
 74
     5
  7

 75
    16
147
1.0
148
0.0
149
0.0
100
AcDbLayout
  1
Layout1
 70
     1
 71
     1
 10
0.0
 20
0.0
 11
12.0
 21
9.0
 12
0.0
 22
0.0
 32
0.0
 14
1.000000000000000E+20
 24
1.000000000000000E+20
 34
1.000000000000000E+20
 15
-1.000000000000000E+20
 25
-1.000000000000000E+20
 35
-1.000000000000000E+20
146
0.0
 13
0.0
 23
0.0
 33
0.0
 16
1.0
 26
0.0
 36
0.0
 17
0.0
 27
1.0
 37
0.0
 76
     0
330
1B
  0
LAYOUT
  5
22
102
{ACAD_REACTORS
330
1A
102
}
330
1A
100
AcDbPlotSettings
  1

  2
none_device
  4

  6

 40
0.0
 41
0.0
 42
0.0
 43
0.0
 44
0.0
 45
0.0
 46
0.0
 47
0.0
 48
0.0
 49
0.0
140
0.0
141
0.0
142
1.0
143
1.0
 70
  1712
 72
     0
 73
     0
 74
     0
  7

 75
     0
147
1.0
148
0.0
149
0.0
100
AcDbLayout
  1
Model
 70
     1
 71
     0
 10
0.0
 20
0.0
 11
12.0
 21
9.0
 12
0.0
 22
0.0
 32
0.0
 14
1.000000000000000E+20
 24
1.000000000000000E+20
 34
1.000000000000000E+20
 15
-1.000000000000000E+20
 25
-1.000000000000000E+20
 35
-1.000000000000000E+20
146
0.0
 13
0.0
 23
0.0
 33
0.0
 16
1.0
 26
0.0
 36
0.0
 17
0.0
 27
1.0
 37
0.0
 76
     0
330
1F
331
29
  0
MATERIAL
  5
3D
102
{ACAD_REACTORS
330
3B
102
}
102
{ACAD_XDICTIONARY
360
53C
102
}
330
3B
100
AcDbMaterial
  1
ByBlock
  0
MATERIAL
  5
3C
102
{ACAD_REACTORS
330
3B
102
}
102
{ACAD_XDICTIONARY
360
53A
102
}
330
3B
100
AcDbMaterial
  1
ByLayer
  0
MATERIAL
  5
3E
102
{ACAD_REACTORS
330
3B
102
}
102
{ACAD_XDICTIONARY
360
53E
102
}
330
3B
100
AcDbMaterial
  1
Global
  0
MLINESTYLE
  5
18
102
{ACAD_REACTORS
330
17
102
}
330
17
100
AcDbMlineStyle
  2
Standard
 70
     0
  3

 62
   256
 51
90.0
 52
90.0
 71
     2
 49
0.5
 62
   256
  6
BYLAYER
 49
-0.5
 62
   256
  6
BYLAYER
  0
ACDBPLACEHOLDER
  5
F
102
{ACAD_REACTORS
330
E
102
}
330
E
  0
SCALE
  5
4EE
102
{ACAD_REACTORS
330
4ED
102
}
330
4ED
100
AcDbScale
 70
     0
300
1:1
140
1.0
141
1.0
290
     1
  0
SCALE
  5
4EF
102
{ACAD_REACTORS
330
4ED
102
}
330
4ED
100
AcDbScale
 70
     0
300
1:2
140
1.0
141
2.0
290
     0
  0
SCALE
  5
4F0
102
{ACAD_REACTORS
330
4ED
102
}
330
4ED
100
AcDbScale
 70
     0
300
1:4
140
1.0
141
4.0
290
     0
  0
SCALE
  5
4F1
102
{ACAD_REACTORS
330
4ED
102
}
330
4ED
100
AcDbScale
 70
     0
300
1:5
140
1.0
141
5.0
290
     0
  0
SCALE
  5
4F2
102
{ACAD_REACTORS
330
4ED
102
}
330
4ED
100
AcDbScale
 70
     0
300
1:8
140
1.0
141
8.0
290
     0
  0
SCALE
  5
4F3
102
{ACAD_REACTORS
330
4ED
102
}
330
4ED
100
AcDbScale
 70
     0
300
1:10
140
1.0
141
10.0
290
     0
  0
SCALE
  5
4F4
102
{ACAD_REACTORS
330
4ED
102
}
330
4ED
100
AcDbScale
 70
     0
300
1:16
140
1.0
141
16.0
290
     0
  0
SCALE
  5
4F5
102
{ACAD_REACTORS
330
4ED
102
}
330
4ED
100
AcDbScale
 70
     0
300
1:20
140
1.0
141
20.0
290
     0
  0
SCALE
  5
4F6
102
{ACAD_REACTORS
330
4ED
102
}
330
4ED
100
AcDbScale
 70
     0
300
1:30
140
1.0
141
30.0
290
     0
  0
SCALE
  5
4F7
102
{ACAD_REACTORS
330
4ED
102
}
330
4ED
100
AcDbScale
 70
     0
300
1:40
140
1.0
141
40.0
290
     0
  0
SCALE
  5
4F8
102
{ACAD_REACTORS
330
4ED
102
}
330
4ED
100
AcDbScale
 70
     0
300
1:50
140
1.0
141
50.0
290
     0
  0
SCALE
  5
4F9
102
{ACAD_REACTORS
330
4ED
102
}
330
4ED
100
AcDbScale
 70
     0
300
1:100
140
1.0
141
100.0
290
     0
  0
SCALE
  5
4FA
102
{ACAD_REACTORS
330
4ED
102
}
330
4ED
100
AcDbScale
 70
     0
300
2:1
140
2.0
141
1.0
290
     0
  0
SCALE
  5
4FB
102
{ACAD_REACTORS
330
4ED
102
}
330
4ED
100
AcDbScale
 70
     0
300
4:1
140
4.0
141
1.0
290
     0
  0
SCALE
  5
4FC
102
{ACAD_REACTORS
330
4ED
102
}
330
4ED
100
AcDbScale
 70
     0
300
8:1
140
8.0
141
1.0
290
     0
  0
SCALE
  5
4FD
102
{ACAD_REACTORS
330
4ED
102
}
330
4ED
100
AcDbScale
 70
     0
300
10:1
140
10.0
141
1.0
290
     0
  0
SCALE
  5
4FE
102
{ACAD_REACTORS
330
4ED
102
}
330
4ED
100
AcDbScale
 70
     0
300
100:1
140
100.0
141
1.0
290
     0
  0
SCALE
  5
4FF
102
{ACAD_REACTORS
330
4ED
102
}
330
4ED
100
AcDbScale
 70
     0
300
1/128" = 1'-0"
140
0.0078125
141
12.0
290
     0
  0
SCALE
  5
500
102
{ACAD_REACTORS
330
4ED
102
}
330
4ED
100
AcDbScale
 70
     0
300
1/64" = 1'-0"
140
0.015625
141
12.0
290
     0
  0
SCALE
  5
501
102
{ACAD_REACTORS
330
4ED
102
}
330
4ED
100
AcDbScale
 70
     0
300
1/32" = 1'-0"
140
0.03125
141
12.0
290
     0
  0
SCALE
  5
502
102
{ACAD_REACTORS
330
4ED
102
}
330
4ED
100
AcDbScale
 70
     0
300
1/16" = 1'-0"
140
0.0625
141
12.0
290
     0
  0
SCALE
  5
503
102
{ACAD_REACTORS
330
4ED
102
}
330
4ED
100
AcDbScale
 70
     0
300
3/32" = 1'-0"
140
0.09375
141
12.0
290
     0
  0
SCALE
  5
504
102
{ACAD_REACTORS
330
4ED
102
}
330
4ED
100
AcDbScale
 70
     0
300
1/8" = 1'-0"
140
0.125
141
12.0
290
     0
  0
SCALE
  5
505
102
{ACAD_REACTORS
330
4ED
102
}
330
4ED
100
AcDbScale
 70
     0
300
3/16" = 1'-0"
140
0.1875
141
12.0
290
     0
  0
SCALE
  5
506
102
{ACAD_REACTORS
330
4ED
102
}
330
4ED
100
AcDbScale
 70
     0
300
1/4" = 1'-0"
140
0.25
141
12.0
290
     0
  0
SCALE
  5
507
102
{ACAD_REACTORS
330
4ED
102
}
330
4ED
100
AcDbScale
 70
     0
300
3/8" = 1'-0"
140
0.375
141
12.0
290
     0
  0
SCALE
  5
508
102
{ACAD_REACTORS
330
4ED
102
}
330
4ED
100
AcDbScale
 70
     0
300
1/2" = 1'-0"
140
0.5
141
12.0
290
     0
  0
SCALE
  5
509
102
{ACAD_REACTORS
330
4ED
102
}
330
4ED
100
AcDbScale
 70
     0
300
3/4" = 1'-0"
140
0.75
141
12.0
290
     0
  0
SCALE
  5
50A
102
{ACAD_REACTORS
330
4ED
102
}
330
4ED
100
AcDbScale
 70
     0
300
1" = 1'-0"
140
1.0
141
12.0
290
     0
  0
SCALE
  5
50B
102
{ACAD_REACTORS
330
4ED
102
}
330
4ED
100
AcDbScale
 70
     0
300
1-1/2" = 1'-0"
140
1.5
141
12.0
290
     0
  0
SCALE
  5
50C
102
{ACAD_REACTORS
330
4ED
102
}
330
4ED
100
AcDbScale
 70
     0
300
3" = 1'-0"
140
3.0
141
12.0
290
     0
  0
SCALE
  5
50D
102
{ACAD_REACTORS
330
4ED
102
}
330
4ED
100
AcDbScale
 70
     0
300
6" = 1'-0"
140
6.0
141
12.0
290
     0
  0
SCALE
  5
50E
102
{ACAD_REACTORS
330
4ED
102
}
330
4ED
100
AcDbScale
 70
     0
300
1'-0" = 1'-0"
140
12.0
141
12.0
290
     0
  0
VISUALSTYLE
  5
2F
102
{ACAD_REACTORS
330
2A
102
}
102
{ACAD_XDICTIONARY
360
522
102
}
330
2A
100
AcDbVisualStyle
  2
2dWireframe
 70
     4
 71
     0
 72
     2
 73
     0
 90
        0
 40
-0.6
 41
-30.0
 62
     5
 63
     7
 74
     1
 91
        4
 64
     7
 65
   257
 75
     1
175
     1
 42
1.0
 92
        0
 66
   257
 43
1.0
 76
     1
 77
     6
 78
     2
 67
     7
 79
     5
170
     0
171
     0
290
     0
174
     0
 93
        1
 44
0.0
173
     0
291
     0
 45
0.0
1001
ACAD
1000
AcDbSavedByObjectVersion
1070
     0
  0
VISUALSTYLE
  5
31
102
{ACAD_REACTORS
330
2A
102
}
102
{ACAD_XDICTIONARY
360
526
102
}
330
2A
100
AcDbVisualStyle
  2
3D Hidden
 70
     6
 71
     1
 72
     2
 73
     2
 90
        0
 40
-0.6
 41
-30.0
 62
     5
 63
     7
 74
     2
 91
        2
 64
     7
 65
   257
 75
     2
175
     1
 42
40.0
 92
        0
 66
   257
 43
1.0
 76
     1
 77
     6
 78
     2
 67
     7
 79
     3
170
     0
171
     0
290
     0
174
     0
 93
        1
 44
0.0
173
     0
291
     0
 45
0.0
1001
ACAD
1000
AcDbSavedByObjectVersion
1070
     0
  0
VISUALSTYLE
  5
30
102
{ACAD_REACTORS
330
2A
102
}
102
{ACAD_XDICTIONARY
360
524
102
}
330
2A
100
AcDbVisualStyle
  2
3dWireframe
 70
     5
 71
     0
 72
     2
 73
     0
 90
        0
 40
-0.6
 41
-30.0
 62
     5
 63
     7
 74
     1
 91
        4
 64
     7
 65
   257
 75
     1
175
     1
 42
1.0
 92
        0
 66
   257
 43
1.0
 76
     1
 77
     6
 78
     2
 67
     7
 79
     5
170
     0
171
     0
290
     0
174
     0
 93
        1
 44
0.0
173
     0
291
     0
 45
0.0
1001
ACAD
1000
AcDbSavedByObjectVersion
1070
     0
  0
VISUALSTYLE
  5
32
102
{ACAD_REACTORS
330
2A
102
}
102
{ACAD_XDICTIONARY
360
528
102
}
330
2A
100
AcDbVisualStyle
  2
Basic
 70
     7
 71
     1
 72
     0
 73
     1
 90
        0
 40
-0.6
 41
-30.0
 62
     5
 63
     7
 74
     0
 91
        4
 64
     7
 65
   257
 75
     1
175
     1
 42
1.0
 92
        8
 66
     7
 43
1.0
 76
     1
 77
     6
 78
     2
 67
     7
 79
     5
170
     0
171
     0
290
     0
174
     0
 93
        1
 44
0.0
173
     0
291
     1
 45
0.0
1001
ACAD
1000
AcDbSavedByObjectVersion
1070
     0
  0
VISUALSTYLE
  5
36
102
{ACAD_REACTORS
330
2A
102
}
102
{ACAD_XDICTIONARY
360
530
102
}
330
2A
100
AcDbVisualStyle
  2
Brighten
 70
    12
 71
     2
 72
     2
 73
     0
 90
        0
 40
-0.6
 41
-30.0
 62
     5
 63
     7
 74
     1
 91
        4
 64
     7
 65
   257
 75
     1
175
     1
 42
1.0
 92
        8
 66
     7
 43
1.0
 76
     1
 77
     6
 78
     2
 67
     7
 79
     5
170
     0
171
     0
290
     0
174
     0
 93
        1
 44
50.0
173
     0
291
     1
 45
0.0
1001
ACAD
1000
AcDbSavedByObjectVersion
1070
     0
  0
VISUALSTYLE
  5
3A
102
{ACAD_REACTORS
330
2A
102
}
102
{ACAD_XDICTIONARY
360
538
102
}
330
2A
100
AcDbVisualStyle
  2
ColorChange
 70
    16
 71
     2
 72
     2
 73
     3
 90
        0
 40
-0.6
 41
-30.0
 62
     5
 63
     8
 74
     1
 91
        4
 64
     7
 65
   257
 75
     1
175
     1
 42
1.0
 92
        8
 66
     8
 43
1.0
 76
     1
 77
     6
 78
     2
 67
     7
 79
     5
170
     0
171
     0
290
     0
174
     0
 93
        1
 44
0.0
173
     0
291
     1
 45
0.0
1001
ACAD
1000
AcDbSavedByObjectVersion
1070
     0
  0
VISUALSTYLE
  5
34
102
{ACAD_REACTORS
330
2A
102
}
102
{ACAD_XDICTIONARY
360
52C
102
}
330
2A
100
AcDbVisualStyle
  2
Conceptual
 70
     9
 71
     3
 72
     2
 73
     0
 90
        0
 40
-0.6
 41
-30.0
 62
     5
 63
     7
 74
     2
 91
        2
 64
     7
 65
   257
 75
     1
175
     1
 42
40.0
 92
        8
 66
     7
 43
1.0
 76
     1
 77
     6
 78
     2
 67
     7
 79
     3
170
     0
171
     0
290
     0
174
     0
 93
        1
 44
0.0
173
     0
291
     0
 45
0.0
1001
ACAD
1000
AcDbSavedByObjectVersion
1070
     0
  0
VISUALSTYLE
  5
35
102
{ACAD_REACTORS
330
2A
102
}
102
{ACAD_XDICTIONARY
360
52E
102
}
330
2A
100
AcDbVisualStyle
  2
Dim
 70
    11
 71
     2
 72
     2
 73
     0
 90
        0
 40
-0.6
 41
-30.0
 62
     5
 63
     7
 74
     1
 91
        4
 64
     7
 65
   257
 75
     1
175
     1
 42
1.0
 92
        8
 66
     7
 43
1.0
 76
     1
 77
     6
 78
     2
 67
     7
 79
     5
170
     0
171
     0
290
     0
174
     0
 93
        1
 44
-50.0
173
     0
291
     1
 45
0.0
1001
ACAD
1000
AcDbSavedByObjectVersion
1070
     0
  0
VISUALSTYLE
  5
39
102
{ACAD_REACTORS
330
2A
102
}
102
{ACAD_XDICTIONARY
360
536
102
}
330
2A
100
AcDbVisualStyle
  2
Facepattern
 70
    15
 71
     2
 72
     2
 73
     0
 90
        0
 40
-0.6
 41
-30.0
 62
     5
 63
     7
 74
     1
 91
        4
 64
     7
 65
   257
 75
     1
175
     1
 42
1.0
 92
        8
 66
     7
 43
1.0
 76
     1
 77
     6
 78
     2
 67
     7
 79
     5
170
     0
171
     0
290
     0
174
     0
 93
        1
 44
0.0
173
     0
291
     1
 45
0.0
1001
ACAD
1000
AcDbSavedByObjectVersion
1070
     0
  0
VISUALSTYLE
  5
2B
102
{ACAD_REACTORS
330
2A
102
}
102
{ACAD_XDICTIONARY
360
51A
102
}
330
2A
100
AcDbVisualStyle
  2
Flat
 70
     0
 71
     2
 72
     1
 73
     1
 90
        2
 40
-0.6
 41
30.0
 62
     5
 63
     7
 74
     0
 91
        4
 64
     7
 65
   257
 75
     1
175
     1
 42
1.0
 92
        8
 66
     7
 43
1.0
 76
     1
 77
     6
 78
     2
 67
     7
 79
     5
170
     0
171
     0
290
     0
174
     0
 93
       13
 44
0.0
173
     0
291
     1
 45
0.0
1001
ACAD
1000
AcDbSavedByObjectVersion
1070
     0
  0
VISUALSTYLE
  5
2C
102
{ACAD_REACTORS
330
2A
102
}
102
{ACAD_XDICTIONARY
360
51C
102
}
330
2A
100
AcDbVisualStyle
  2
FlatWithEdges
 70
     1
 71
     2
 72
     1
 73
     1
 90
        2
 40
-0.6
 41
30.0
 62
     5
 63
     7
 74
     1
 91
        4
 64
     7
 65
   257
 75
     1
175
     1
 42
1.0
 92
        0
 66
   257
 43
1.0
 76
     1
 77
     6
 78
     2
 67
     7
 79
     5
170
     0
171
     0
290
     0
174
     0
 93
       13
 44
0.0
173
     0
291
     1
 45
0.0
1001
ACAD
1000
AcDbSavedByObjectVersion
1070
     0
  0
VISUALSTYLE
  5
2D
102
{ACAD_REACTORS
330
2A
102
}
102
{ACAD_XDICTIONARY
360
51E
102
}
330
2A
100
AcDbVisualStyle
  2
Gouraud
 70
     2
 71
     2
 72
     2
 73
     1
 90
        2
 40
-0.6
 41
30.0
 62
     5
 63
     7
 74
     0
 91
        4
 64
     7
 65
   257
 75
     1
175
     1
 42
1.0
 92
        0
 66
     7
 43
1.0
 76
     1
 77
     6
 78
     2
 67
     7
 79
     5
170
     0
171
     0
290
     0
174
     0
 93
       13
 44
0.0
173
     0
291
     1
 45
0.0
1001
ACAD
1000
AcDbSavedByObjectVersion
1070
     0
  0
VISUALSTYLE
  5
2E
102
{ACAD_REACTORS
330
2A
102
}
102
{ACAD_XDICTIONARY
360
520
102
}
330
2A
100
AcDbVisualStyle
  2
GouraudWithEdges
 70
     3
 71
     2
 72
     2
 73
     1
 90
        2
 40
-0.6
 41
30.0
 62
     5
 63
     7
 74
     1
 91
        4
 64
     7
 65
   257
 75
     1
175
     1
 42
1.0
 92
        0
 66
   257
 43
1.0
 76
     1
 77
     6
 78
     2
 67
     7
 79
     5
170
     0
171
     0
290
     0
174
     0
 93
       13
 44
0.0
173
     0
291
     1
 45
0.0
1001
ACAD
1000
AcDbSavedByObjectVersion
1070
     0
  0
VISUALSTYLE
  5
38
102
{ACAD_REACTORS
330
2A
102
}
102
{ACAD_XDICTIONARY
360
534
102
}
330
2A
100
AcDbVisualStyle
  2
Linepattern
 70
    14
 71
     2
 72
     2
 73
     0
 90
        0
 40
-0.6
 41
-30.0
 62
     5
 63
     7
 74
     1
 91
        4
 64
     7
 65
   257
 75
     7
175
     7
 42
1.0
 92
        8
 66
     7
 43
1.0
 76
     1
 77
     6
 78
     2
 67
     7
 79
     5
170
     0
171
     0
290
     0
174
     0
 93
        1
 44
0.0
173
     0
291
     1
 45
0.0
1001
ACAD
1000
AcDbSavedByObjectVersion
1070
     0
  0
VISUALSTYLE
  5
33
102
{ACAD_REACTORS
330
2A
102
}
102
{ACAD_XDICTIONARY
360
52A
102
}
330
2A
100
AcDbVisualStyle
  2
Realistic
 70
     8
 71
     2
 72
     2
 73
     0
 90
        0
 40
-0.6
 41
-30.0
 62
     5
 63
     7
 74
     1
 91
        0
 64
     7
 65
   257
 75
     1
175
     1
 42
1.0
 92
        8
 66
     8
 43
1.0
 76
     1
 77
     6
 78
     2
 67
     7
 79
     5
170
     0
171
     0
290
     0
174
     0
 93
       13
 44
0.0
173
     0
291
     0
 45
0.0
1001
ACAD
1000
AcDbSavedByObjectVersion
1070
     0
  0
VISUALSTYLE
  5
37
102
{ACAD_REACTORS
330
2A
102
}
102
{ACAD_XDICTIONARY
360
532
102
}
330
2A
100
AcDbVisualStyle
  2
Thicken
 70
    13
 71
     2
 72
     2
 73
     0
 90
        0
 40
-0.6
 41
-30.0
 62
     5
 63
     7
 74
     1
 91
        4
 64
     7
 65
   257
 75
     1
175
     1
 42
1.0
 92
       12
 66
     7
 43
1.0
 76
     1
 77
     6
 78
     2
 67
     7
 79
     5
170
     0
171
     0
290
     0
174
     0
 93
        1
 44
0.0
173
     0
291
     1
 45
0.0
1001
ACAD
1000
AcDbSavedByObjectVersion
1070
     0
  0
DICTIONARYVAR
  5
515
102
{ACAD_REACTORS
330
511
102
}
330
511
100
DictionaryVariables
280
     0
  1
1:1
  0
DICTIONARYVAR
  5
516
102
{ACAD_REACTORS
330
511
102
}
330
511
100
DictionaryVariables
280
     0
  1
2
  0
DICTIONARYVAR
  5
517
102
{ACAD_REACTORS
330
511
102
}
330
511
100
DictionaryVariables
280
     0
  1
1
  0
DICTIONARYVAR
  5
514
102
{ACAD_REACTORS
330
511
102
}
330
511
100
DictionaryVariables
280
     0
  1
0
  0
XRECORD
  5
510
102
{ACAD_REACTORS
330
50F
102
}
330
50F
100
AcDbXrecord
280
     1
1000
This DWG file was created in ArchiCAD(TM)®
  0
SPATIAL_FILTER
  5
4E9
102
{ACAD_REACTORS
330
4E8
102
}
330
4E8
100
AcDbFilter
100
AcDbSpatialFilter
 70
     4
 10
20.48385250649914
 20
26.01930474315756
 10
262.7211298404507
 20
26.01930474315756
 10
262.7211298404507
 20
197.643803943156
 10
20.48385250649914
 20
197.643803943156
210
0.0
220
0.0
230
1.0
 11
0.0
 21
0.0
 31
0.0
 71
     1
 72
     0
 73
     0
 40
1.0
 40
0.0
 40
0.0
 40
0.0
 40
0.0
 40
1.0
 40
0.0
 40
0.0
 40
0.0
 40
0.0
 40
1.0
 40
0.0
 40
1.0
 40
0.0
 40
0.0
 40
0.0
 40
0.0
 40
1.0
 40
0.0
 40
0.0
 40
0.0
 40
0.0
 40
1.0
 40
0.0
  0
DICTIONARY
  5
53C
330
3D
100
AcDbDictionary
280
     1
281
     1
  3
ACAD_XREC_ROUNDTRIP
360
53D
  0
DICTIONARY
  5
53A
330
3C
100
AcDbDictionary
280
     1
281
     1
  3
ACAD_XREC_ROUNDTRIP
360
53B
  0
DICTIONARY
  5
53E
330
3E
100
AcDbDictionary
280
     1
281
     1
  3
ACAD_XREC_ROUNDTRIP
360
53F
  0
DICTIONARY
  5
522
330
2F
100
AcDbDictionary
280
     1
281
     1
  3
ACAD_XREC_ROUNDTRIP
360
523
  0
DICTIONARY
  5
526
330
31
100
AcDbDictionary
280
     1
281
     1
  3
ACAD_XREC_ROUNDTRIP
360
527
  0
DICTIONARY
  5
524
330
30
100
AcDbDictionary
280
     1
281
     1
  3
ACAD_XREC_ROUNDTRIP
360
525
  0
DICTIONARY
  5
528
330
32
100
AcDbDictionary
280
     1
281
     1
  3
ACAD_XREC_ROUNDTRIP
360
529
  0
DICTIONARY
  5
530
330
36
100
AcDbDictionary
280
     1
281
     1
  3
ACAD_XREC_ROUNDTRIP
360
531
  0
DICTIONARY
  5
538
330
3A
100
AcDbDictionary
280
     1
281
     1
  3
ACAD_XREC_ROUNDTRIP
360
539
  0
DICTIONARY
  5
52C
330
34
100
AcDbDictionary
280
     1
281
     1
  3
ACAD_XREC_ROUNDTRIP
360
52D
  0
DICTIONARY
  5
52E
330
35
100
AcDbDictionary
280
     1
281
     1
  3
ACAD_XREC_ROUNDTRIP
360
52F
  0
DICTIONARY
  5
536
330
39
100
AcDbDictionary
280
     1
281
     1
  3
ACAD_XREC_ROUNDTRIP
360
537
  0
DICTIONARY
  5
51A
330
2B
100
AcDbDictionary
280
     1
281
     1
  3
ACAD_XREC_ROUNDTRIP
360
51B
  0
DICTIONARY
  5
51C
330
2C
100
AcDbDictionary
280
     1
281
     1
  3
ACAD_XREC_ROUNDTRIP
360
51D
  0
DICTIONARY
  5
51E
330
2D
100
AcDbDictionary
280
     1
281
     1
  3
ACAD_XREC_ROUNDTRIP
360
51F
  0
DICTIONARY
  5
520
330
2E
100
AcDbDictionary
280
     1
281
     1
  3
ACAD_XREC_ROUNDTRIP
360
521
  0
DICTIONARY
  5
534
330
38
100
AcDbDictionary
280
     1
281
     1
  3
ACAD_XREC_ROUNDTRIP
360
535
  0
DICTIONARY
  5
52A
330
33
100
AcDbDictionary
280
     1
281
     1
  3
ACAD_XREC_ROUNDTRIP
360
52B
  0
DICTIONARY
  5
532
330
37
100
AcDbDictionary
280
     1
281
     1
  3
ACAD_XREC_ROUNDTRIP
360
533
  0
XRECORD
  5
53D
102
{ACAD_REACTORS
330
53C
102
}
330
53C
100
AcDbXrecord
280
     1
102
MATERIAL
148
0.0
149
0.0
149
0.0
 93
        0
 94
      127
282
     0
 72
     1
 77
     1
171
     1
175
     1
179
     1
273
     0
  0
XRECORD
  5
53B
102
{ACAD_REACTORS
330
53A
102
}
330
53A
100
AcDbXrecord
280
     1
102
MATERIAL
148
0.0
149
0.0
149
0.0
 93
        0
 94
      127
282
     0
 72
     1
 77
     1
171
     1
175
     1
179
     1
273
     0
  0
XRECORD
  5
53F
102
{ACAD_REACTORS
330
53E
102
}
330
53E
100
AcDbXrecord
280
     1
102
MATERIAL
148
0.0
149
0.0
149
0.0
 93
        0
 94
      127
282
     0
 72
     1
 77
     1
171
     1
175
     1
179
     1
273
     0
  0
XRECORD
  5
523
102
{ACAD_REACTORS
330
522
102
}
330
522
100
AcDbXrecord
280
     1
102
RTVSPropertyOp0
 70
     1
102
RTVSPropertyOp1
 70
     1
102
RTVSPropertyOp2
 70
     1
102
RTVSPropertyOp3
 70
     1
102
RTVSPropertyOp4
 70
     1
102
RTVSPropertyOp5
 70
     1
102
RTVSPropertyOp6
 70
     1
102
RTVSPropertyOp7
 70
     1
102
RTVSPropertyOp8
 70
     1
102
RTVSPropertyOp9
 70
     1
102
RTVSPropertyOp10
 70
     1
102
RTVSPropertyOp11
 70
     1
102
RTVSPropertyOp12
 70
     1
102
RTVSPropertyOp13
 70
     1
102
RTVSPropertyOp14
 70
     1
102
RTVSPropertyOp15
 70
     1
102
RTVSPropertyOp16
 70
     1
102
RTVSPropertyOp17
 70
     1
102
RTVSPropertyOp18
 70
     1
102
RTVSPropertyOp19
 70
     1
102
RTVSPropertyOp20
 70
     1
102
RTVSPropertyOp21
 70
     1
102
RTVSPropertyOp22
 70
     1
102
RTVSPropertyOp23
 70
     1
102
RTVSPropertyOp24
 70
     1
102
RTVSPropertyOp25
 70
     1
102
RTVSPropertyOp26
 70
     1
102
RTVSPropertyOp27
 70
     1
102
RTVSPropertyOp28
 70
     1
102
RTVSPropertyOp29
 70
     1
102
RTVSPropertyOp30
 70
     1
102
RTVSPropertyOp31
 70
     1
102
RTVSPropertyOp32
 70
     1
  0
XRECORD
  5
527
102
{ACAD_REACTORS
330
526
102
}
330
526
100
AcDbXrecord
280
     1
102
RTVSPropertyOp0
 70
     1
102
RTVSPropertyOp1
 70
     1
102
RTVSPropertyOp2
 70
     1
102
RTVSPropertyOp3
 70
     1
102
RTVSPropertyOp4
 70
     1
102
RTVSPropertyOp5
 70
     1
102
RTVSPropertyOp6
 70
     1
102
RTVSPropertyOp7
 70
     1
102
RTVSPropertyOp8
 70
     1
102
RTVSPropertyOp9
 70
     1
102
RTVSPropertyOp10
 70
     1
102
RTVSPropertyOp11
 70
     1
102
RTVSPropertyOp12
 70
     1
102
RTVSPropertyOp13
 70
     1
102
RTVSPropertyOp14
 70
     1
102
RTVSPropertyOp15
 70
     1
102
RTVSPropertyOp16
 70
     1
102
RTVSPropertyOp17
 70
     1
102
RTVSPropertyOp18
 70
     1
102
RTVSPropertyOp19
 70
     1
102
RTVSPropertyOp20
 70
     1
102
RTVSPropertyOp21
 70
     1
102
RTVSPropertyOp22
 70
     1
102
RTVSPropertyOp23
 70
     1
102
RTVSPropertyOp24
 70
     1
102
RTVSPropertyOp25
 70
     1
102
RTVSPropertyOp26
 70
     1
102
RTVSPropertyOp27
 70
     1
102
RTVSPropertyOp28
 70
     1
102
RTVSPropertyOp29
 70
     1
102
RTVSPropertyOp30
 70
     1
102
RTVSPropertyOp31
 70
     1
102
RTVSPropertyOp32
 70
     1
  0
XRECORD
  5
525
102
{ACAD_REACTORS
330
524
102
}
330
524
100
AcDbXrecord
280
     1
102
RTVSPropertyOp0
 70
     1
102
RTVSPropertyOp1
 70
     1
102
RTVSPropertyOp2
 70
     1
102
RTVSPropertyOp3
 70
     1
102
RTVSPropertyOp4
 70
     1
102
RTVSPropertyOp5
 70
     1
102
RTVSPropertyOp6
 70
     1
102
RTVSPropertyOp7
 70
     1
102
RTVSPropertyOp8
 70
     1
102
RTVSPropertyOp9
 70
     1
102
RTVSPropertyOp10
 70
     1
102
RTVSPropertyOp11
 70
     1
102
RTVSPropertyOp12
 70
     1
102
RTVSPropertyOp13
 70
     1
102
RTVSPropertyOp14
 70
     1
102
RTVSPropertyOp15
 70
     1
102
RTVSPropertyOp16
 70
     1
102
RTVSPropertyOp17
 70
     1
102
RTVSPropertyOp18
 70
     1
102
RTVSPropertyOp19
 70
     1
102
RTVSPropertyOp20
 70
     1
102
RTVSPropertyOp21
 70
     1
102
RTVSPropertyOp22
 70
     1
102
RTVSPropertyOp23
 70
     1
102
RTVSPropertyOp24
 70
     1
102
RTVSPropertyOp25
 70
     1
102
RTVSPropertyOp26
 70
     1
102
RTVSPropertyOp27
 70
     1
102
RTVSPropertyOp28
 70
     1
102
RTVSPropertyOp29
 70
     1
102
RTVSPropertyOp30
 70
     1
102
RTVSPropertyOp31
 70
     1
102
RTVSPropertyOp32
 70
     1
  0
XRECORD
  5
529
102
{ACAD_REACTORS
330
528
102
}
330
528
100
AcDbXrecord
280
     1
102
RTVSPropertyOp0
 70
     1
102
RTVSPropertyOp1
 70
     1
102
RTVSPropertyOp2
 70
     1
102
RTVSPropertyOp3
 70
     1
102
RTVSPropertyOp4
 70
     1
102
RTVSPropertyOp5
 70
     1
102
RTVSPropertyOp6
 70
     1
102
RTVSPropertyOp7
 70
     1
102
RTVSPropertyOp8
 70
     1
102
RTVSPropertyOp9
 70
     1
102
RTVSPropertyOp10
 70
     1
102
RTVSPropertyOp11
 70
     1
102
RTVSPropertyOp12
 70
     1
102
RTVSPropertyOp13
 70
     1
102
RTVSPropertyOp14
 70
     1
102
RTVSPropertyOp15
 70
     1
102
RTVSPropertyOp16
 70
     1
102
RTVSPropertyOp17
 70
     1
102
RTVSPropertyOp18
 70
     1
102
RTVSPropertyOp19
 70
     1
102
RTVSPropertyOp20
 70
     1
102
RTVSPropertyOp21
 70
     1
102
RTVSPropertyOp22
 70
     1
102
RTVSPropertyOp23
 70
     1
102
RTVSPropertyOp24
 70
     1
102
RTVSPropertyOp25
 70
     1
102
RTVSPropertyOp26
 70
     1
102
RTVSPropertyOp27
 70
     1
102
RTVSPropertyOp28
 70
     1
102
RTVSPropertyOp29
 70
     1
102
RTVSPropertyOp30
 70
     1
102
RTVSPropertyOp31
 70
     1
102
RTVSPropertyOp32
 70
     1
  0
XRECORD
  5
531
102
{ACAD_REACTORS
330
530
102
}
330
530
100
AcDbXrecord
280
     1
102
RTVSPropertyOp0
 70
     1
102
RTVSPropertyOp1
 70
     1
102
RTVSPropertyOp2
 70
     1
102
RTVSPropertyOp3
 70
     1
102
RTVSPropertyOp4
 70
     1
102
RTVSPropertyOp5
 70
     1
102
RTVSPropertyOp6
 70
     1
102
RTVSPropertyOp7
 70
     1
102
RTVSPropertyOp8
 70
     1
102
RTVSPropertyOp9
 70
     1
102
RTVSPropertyOp10
 70
     1
102
RTVSPropertyOp11
 70
     1
102
RTVSPropertyOp12
 70
     1
102
RTVSPropertyOp13
 70
     1
102
RTVSPropertyOp14
 70
     1
102
RTVSPropertyOp15
 70
     1
102
RTVSPropertyOp16
 70
     1
102
RTVSPropertyOp17
 70
     1
102
RTVSPropertyOp18
 70
     1
102
RTVSPropertyOp19
 70
     1
102
RTVSPropertyOp20
 70
     1
102
RTVSPropertyOp21
 70
     1
102
RTVSPropertyOp22
 70
     1
102
RTVSPropertyOp23
 70
     1
102
RTVSPropertyOp24
 70
     1
102
RTVSPropertyOp25
 70
     1
102
RTVSPropertyOp26
 70
     1
102
RTVSPropertyOp27
 70
     1
102
RTVSPropertyOp28
 70
     1
102
RTVSPropertyOp29
 70
     1
102
RTVSPropertyOp30
 70
     1
102
RTVSPropertyOp31
 70
     1
102
RTVSPropertyOp32
 70
     1
  0
XRECORD
  5
539
102
{ACAD_REACTORS
330
538
102
}
330
538
100
AcDbXrecord
280
     1
102
RTVSPropertyOp0
 70
     1
102
RTVSPropertyOp1
 70
     1
102
RTVSPropertyOp2
 70
     1
102
RTVSPropertyOp3
 70
     1
102
RTVSPropertyOp4
 70
     1
102
RTVSPropertyOp5
 70
     1
102
RTVSPropertyOp6
 70
     1
102
RTVSPropertyOp7
 70
     1
102
RTVSPropertyOp8
 70
     1
102
RTVSPropertyOp9
 70
     1
102
RTVSPropertyOp10
 70
     1
102
RTVSPropertyOp11
 70
     1
102
RTVSPropertyOp12
 70
     1
102
RTVSPropertyOp13
 70
     1
102
RTVSPropertyOp14
 70
     1
102
RTVSPropertyOp15
 70
     1
102
RTVSPropertyOp16
 70
     1
102
RTVSPropertyOp17
 70
     1
102
RTVSPropertyOp18
 70
     1
102
RTVSPropertyOp19
 70
     1
102
RTVSPropertyOp20
 70
     1
102
RTVSPropertyOp21
 70
     1
102
RTVSPropertyOp22
 70
     1
102
RTVSPropertyOp23
 70
     1
102
RTVSPropertyOp24
 70
     1
102
RTVSPropertyOp25
 70
     1
102
RTVSPropertyOp26
 70
     1
102
RTVSPropertyOp27
 70
     1
102
RTVSPropertyOp28
 70
     1
102
RTVSPropertyOp29
 70
     1
102
RTVSPropertyOp30
 70
     1
102
RTVSPropertyOp31
 70
     1
102
RTVSPropertyOp32
 70
     1
  0
XRECORD
  5
52D
102
{ACAD_REACTORS
330
52C
102
}
330
52C
100
AcDbXrecord
280
     1
102
RTVSPropertyOp0
 70
     1
102
RTVSPropertyOp1
 70
     1
102
RTVSPropertyOp2
 70
     1
102
RTVSPropertyOp3
 70
     1
102
RTVSPropertyOp4
 70
     1
102
RTVSPropertyOp5
 70
     1
102
RTVSPropertyOp6
 70
     1
102
RTVSPropertyOp7
 70
     1
102
RTVSPropertyOp8
 70
     1
102
RTVSPropertyOp9
 70
     1
102
RTVSPropertyOp10
 70
     1
102
RTVSPropertyOp11
 70
     1
102
RTVSPropertyOp12
 70
     1
102
RTVSPropertyOp13
 70
     1
102
RTVSPropertyOp14
 70
     1
102
RTVSPropertyOp15
 70
     1
102
RTVSPropertyOp16
 70
     1
102
RTVSPropertyOp17
 70
     1
102
RTVSPropertyOp18
 70
     1
102
RTVSPropertyOp19
 70
     1
102
RTVSPropertyOp20
 70
     1
102
RTVSPropertyOp21
 70
     1
102
RTVSPropertyOp22
 70
     1
102
RTVSPropertyOp23
 70
     1
102
RTVSPropertyOp24
 70
     1
102
RTVSPropertyOp25
 70
     1
102
RTVSPropertyOp26
 70
     1
102
RTVSPropertyOp27
 70
     1
102
RTVSPropertyOp28
 70
     1
102
RTVSPropertyOp29
 70
     1
102
RTVSPropertyOp30
 70
     1
102
RTVSPropertyOp31
 70
     1
102
RTVSPropertyOp32
 70
     1
  0
XRECORD
  5
52F
102
{ACAD_REACTORS
330
52E
102
}
330
52E
100
AcDbXrecord
280
     1
102
RTVSPropertyOp0
 70
     1
102
RTVSPropertyOp1
 70
     1
102
RTVSPropertyOp2
 70
     1
102
RTVSPropertyOp3
 70
     1
102
RTVSPropertyOp4
 70
     1
102
RTVSPropertyOp5
 70
     1
102
RTVSPropertyOp6
 70
     1
102
RTVSPropertyOp7
 70
     1
102
RTVSPropertyOp8
 70
     1
102
RTVSPropertyOp9
 70
     1
102
RTVSPropertyOp10
 70
     1
102
RTVSPropertyOp11
 70
     1
102
RTVSPropertyOp12
 70
     1
102
RTVSPropertyOp13
 70
     1
102
RTVSPropertyOp14
 70
     1
102
RTVSPropertyOp15
 70
     1
102
RTVSPropertyOp16
 70
     1
102
RTVSPropertyOp17
 70
     1
102
RTVSPropertyOp18
 70
     1
102
RTVSPropertyOp19
 70
     1
102
RTVSPropertyOp20
 70
     1
102
RTVSPropertyOp21
 70
     1
102
RTVSPropertyOp22
 70
     1
102
RTVSPropertyOp23
 70
     1
102
RTVSPropertyOp24
 70
     1
102
RTVSPropertyOp25
 70
     1
102
RTVSPropertyOp26
 70
     1
102
RTVSPropertyOp27
 70
     1
102
RTVSPropertyOp28
 70
     1
102
RTVSPropertyOp29
 70
     1
102
RTVSPropertyOp30
 70
     1
102
RTVSPropertyOp31
 70
     1
102
RTVSPropertyOp32
 70
     1
  0
XRECORD
  5
537
102
{ACAD_REACTORS
330
536
102
}
330
536
100
AcDbXrecord
280
     1
102
RTVSPropertyOp0
 70
     1
102
RTVSPropertyOp1
 70
     1
102
RTVSPropertyOp2
 70
     1
102
RTVSPropertyOp3
 70
     1
102
RTVSPropertyOp4
 70
     1
102
RTVSPropertyOp5
 70
     1
102
RTVSPropertyOp6
 70
     1
102
RTVSPropertyOp7
 70
     1
102
RTVSPropertyOp8
 70
     1
102
RTVSPropertyOp9
 70
     1
102
RTVSPropertyOp10
 70
     1
102
RTVSPropertyOp11
 70
     1
102
RTVSPropertyOp12
 70
     1
102
RTVSPropertyOp13
 70
     1
102
RTVSPropertyOp14
 70
     1
102
RTVSPropertyOp15
 70
     1
102
RTVSPropertyOp16
 70
     1
102
RTVSPropertyOp17
 70
     1
102
RTVSPropertyOp18
 70
     1
102
RTVSPropertyOp19
 70
     1
102
RTVSPropertyOp20
 70
     1
102
RTVSPropertyOp21
 70
     1
102
RTVSPropertyOp22
 70
     1
102
RTVSPropertyOp23
 70
     1
102
RTVSPropertyOp24
 70
     1
102
RTVSPropertyOp25
 70
     1
102
RTVSPropertyOp26
 70
     1
102
RTVSPropertyOp27
 70
     1
102
RTVSPropertyOp28
 70
     1
102
RTVSPropertyOp29
 70
     1
102
RTVSPropertyOp30
 70
     1
102
RTVSPropertyOp31
 70
     1
102
RTVSPropertyOp32
 70
     1
  0
XRECORD
  5
51B
102
{ACAD_REACTORS
330
51A
102
}
330
51A
100
AcDbXrecord
280
     1
102
RTVSPropertyOp0
 70
     1
102
RTVSPropertyOp1
 70
     1
102
RTVSPropertyOp2
 70
     1
102
RTVSPropertyOp3
 70
     1
102
RTVSPropertyOp4
 70
     1
102
RTVSPropertyOp5
 70
     1
102
RTVSPropertyOp6
 70
     1
102
RTVSPropertyOp7
 70
     1
102
RTVSPropertyOp8
 70
     1
102
RTVSPropertyOp9
 70
     1
102
RTVSPropertyOp10
 70
     1
102
RTVSPropertyOp11
 70
     1
102
RTVSPropertyOp12
 70
     1
102
RTVSPropertyOp13
 70
     1
102
RTVSPropertyOp14
 70
     1
102
RTVSPropertyOp15
 70
     1
102
RTVSPropertyOp16
 70
     1
102
RTVSPropertyOp17
 70
     1
102
RTVSPropertyOp18
 70
     1
102
RTVSPropertyOp19
 70
     1
102
RTVSPropertyOp20
 70
     1
102
RTVSPropertyOp21
 70
     1
102
RTVSPropertyOp22
 70
     1
102
RTVSPropertyOp23
 70
     1
102
RTVSPropertyOp24
 70
     1
102
RTVSPropertyOp25
 70
     1
102
RTVSPropertyOp26
 70
     1
102
RTVSPropertyOp27
 70
     1
102
RTVSPropertyOp28
 70
     1
102
RTVSPropertyOp29
 70
     1
102
RTVSPropertyOp30
 70
     1
102
RTVSPropertyOp31
 70
     1
102
RTVSPropertyOp32
 70
     1
  0
XRECORD
  5
51D
102
{ACAD_REACTORS
330
51C
102
}
330
51C
100
AcDbXrecord
280
     1
102
RTVSPropertyOp0
 70
     1
102
RTVSPropertyOp1
 70
     1
102
RTVSPropertyOp2
 70
     1
102
RTVSPropertyOp3
 70
     1
102
RTVSPropertyOp4
 70
     1
102
RTVSPropertyOp5
 70
     1
102
RTVSPropertyOp6
 70
     1
102
RTVSPropertyOp7
 70
     1
102
RTVSPropertyOp8
 70
     1
102
RTVSPropertyOp9
 70
     1
102
RTVSPropertyOp10
 70
     1
102
RTVSPropertyOp11
 70
     1
102
RTVSPropertyOp12
 70
     1
102
RTVSPropertyOp13
 70
     1
102
RTVSPropertyOp14
 70
     1
102
RTVSPropertyOp15
 70
     1
102
RTVSPropertyOp16
 70
     1
102
RTVSPropertyOp17
 70
     1
102
RTVSPropertyOp18
 70
     1
102
RTVSPropertyOp19
 70
     1
102
RTVSPropertyOp20
 70
     1
102
RTVSPropertyOp21
 70
     1
102
RTVSPropertyOp22
 70
     1
102
RTVSPropertyOp23
 70
     1
102
RTVSPropertyOp24
 70
     1
102
RTVSPropertyOp25
 70
     1
102
RTVSPropertyOp26
 70
     1
102
RTVSPropertyOp27
 70
     1
102
RTVSPropertyOp28
 70
     1
102
RTVSPropertyOp29
 70
     1
102
RTVSPropertyOp30
 70
     1
102
RTVSPropertyOp31
 70
     1
102
RTVSPropertyOp32
 70
     1
  0
XRECORD
  5
51F
102
{ACAD_REACTORS
330
51E
102
}
330
51E
100
AcDbXrecord
280
     1
102
RTVSPropertyOp0
 70
     1
102
RTVSPropertyOp1
 70
     1
102
RTVSPropertyOp2
 70
     1
102
RTVSPropertyOp3
 70
     1
102
RTVSPropertyOp4
 70
     1
102
RTVSPropertyOp5
 70
     1
102
RTVSPropertyOp6
 70
     1
102
RTVSPropertyOp7
 70
     1
102
RTVSPropertyOp8
 70
     1
102
RTVSPropertyOp9
 70
     1
102
RTVSPropertyOp10
 70
     1
102
RTVSPropertyOp11
 70
     1
102
RTVSPropertyOp12
 70
     1
102
RTVSPropertyOp13
 70
     1
102
RTVSPropertyOp14
 70
     1
102
RTVSPropertyOp15
 70
     1
102
RTVSPropertyOp16
 70
     1
102
RTVSPropertyOp17
 70
     1
102
RTVSPropertyOp18
 70
     1
102
RTVSPropertyOp19
 70
     1
102
RTVSPropertyOp20
 70
     1
102
RTVSPropertyOp21
 70
     1
102
RTVSPropertyOp22
 70
     1
102
RTVSPropertyOp23
 70
     1
102
RTVSPropertyOp24
 70
     1
102
RTVSPropertyOp25
 70
     1
102
RTVSPropertyOp26
 70
     1
102
RTVSPropertyOp27
 70
     1
102
RTVSPropertyOp28
 70
     1
102
RTVSPropertyOp29
 70
     1
102
RTVSPropertyOp30
 70
     1
102
RTVSPropertyOp31
 70
     1
102
RTVSPropertyOp32
 70
     1
  0
XRECORD
  5
521
102
{ACAD_REACTORS
330
520
102
}
330
520
100
AcDbXrecord
280
     1
102
RTVSPropertyOp0
 70
     1
102
RTVSPropertyOp1
 70
     1
102
RTVSPropertyOp2
 70
     1
102
RTVSPropertyOp3
 70
     1
102
RTVSPropertyOp4
 70
     1
102
RTVSPropertyOp5
 70
     1
102
RTVSPropertyOp6
 70
     1
102
RTVSPropertyOp7
 70
     1
102
RTVSPropertyOp8
 70
     1
102
RTVSPropertyOp9
 70
     1
102
RTVSPropertyOp10
 70
     1
102
RTVSPropertyOp11
 70
     1
102
RTVSPropertyOp12
 70
     1
102
RTVSPropertyOp13
 70
     1
102
RTVSPropertyOp14
 70
     1
102
RTVSPropertyOp15
 70
     1
102
RTVSPropertyOp16
 70
     1
102
RTVSPropertyOp17
 70
     1
102
RTVSPropertyOp18
 70
     1
102
RTVSPropertyOp19
 70
     1
102
RTVSPropertyOp20
 70
     1
102
RTVSPropertyOp21
 70
     1
102
RTVSPropertyOp22
 70
     1
102
RTVSPropertyOp23
 70
     1
102
RTVSPropertyOp24
 70
     1
102
RTVSPropertyOp25
 70
     1
102
RTVSPropertyOp26
 70
     1
102
RTVSPropertyOp27
 70
     1
102
RTVSPropertyOp28
 70
     1
102
RTVSPropertyOp29
 70
     1
102
RTVSPropertyOp30
 70
     1
102
RTVSPropertyOp31
 70
     1
102
RTVSPropertyOp32
 70
     1
  0
XRECORD
  5
535
102
{ACAD_REACTORS
330
534
102
}
330
534
100
AcDbXrecord
280
     1
102
RTVSPropertyOp0
 70
     1
102
RTVSPropertyOp1
 70
     1
102
RTVSPropertyOp2
 70
     1
102
RTVSPropertyOp3
 70
     1
102
RTVSPropertyOp4
 70
     1
102
RTVSPropertyOp5
 70
     1
102
RTVSPropertyOp6
 70
     1
102
RTVSPropertyOp7
 70
     1
102
RTVSPropertyOp8
 70
     1
102
RTVSPropertyOp9
 70
     1
102
RTVSPropertyOp10
 70
     1
102
RTVSPropertyOp11
 70
     1
102
RTVSPropertyOp12
 70
     1
102
RTVSPropertyOp13
 70
     1
102
RTVSPropertyOp14
 70
     1
102
RTVSPropertyOp15
 70
     1
102
RTVSPropertyOp16
 70
     1
102
RTVSPropertyOp17
 70
     1
102
RTVSPropertyOp18
 70
     1
102
RTVSPropertyOp19
 70
     1
102
RTVSPropertyOp20
 70
     1
102
RTVSPropertyOp21
 70
     1
102
RTVSPropertyOp22
 70
     1
102
RTVSPropertyOp23
 70
     1
102
RTVSPropertyOp24
 70
     1
102
RTVSPropertyOp25
 70
     1
102
RTVSPropertyOp26
 70
     1
102
RTVSPropertyOp27
 70
     1
102
RTVSPropertyOp28
 70
     1
102
RTVSPropertyOp29
 70
     1
102
RTVSPropertyOp30
 70
     1
102
RTVSPropertyOp31
 70
     1
102
RTVSPropertyOp32
 70
     1
  0
XRECORD
  5
52B
102
{ACAD_REACTORS
330
52A
102
}
330
52A
100
AcDbXrecord
280
     1
102
RTVSPropertyOp0
 70
     1
102
RTVSPropertyOp1
 70
     1
102
RTVSPropertyOp2
 70
     1
102
RTVSPropertyOp3
 70
     1
102
RTVSPropertyOp4
 70
     1
102
RTVSPropertyOp5
 70
     1
102
RTVSPropertyOp6
 70
     1
102
RTVSPropertyOp7
 70
     1
102
RTVSPropertyOp8
 70
     1
102
RTVSPropertyOp9
 70
     1
102
RTVSPropertyOp10
 70
     1
102
RTVSPropertyOp11
 70
     1
102
RTVSPropertyOp12
 70
     1
102
RTVSPropertyOp13
 70
     1
102
RTVSPropertyOp14
 70
     1
102
RTVSPropertyOp15
 70
     1
102
RTVSPropertyOp16
 70
     1
102
RTVSPropertyOp17
 70
     1
102
RTVSPropertyOp18
 70
     1
102
RTVSPropertyOp19
 70
     1
102
RTVSPropertyOp20
 70
     1
102
RTVSPropertyOp21
 70
     1
102
RTVSPropertyOp22
 70
     1
102
RTVSPropertyOp23
 70
     1
102
RTVSPropertyOp24
 70
     1
102
RTVSPropertyOp25
 70
     1
102
RTVSPropertyOp26
 70
     1
102
RTVSPropertyOp27
 70
     1
102
RTVSPropertyOp28
 70
     1
102
RTVSPropertyOp29
 70
     1
102
RTVSPropertyOp30
 70
     1
102
RTVSPropertyOp31
 70
     1
102
RTVSPropertyOp32
 70
     1
  0
XRECORD
  5
533
102
{ACAD_REACTORS
330
532
102
}
330
532
100
AcDbXrecord
280
     1
102
RTVSPropertyOp0
 70
     1
102
RTVSPropertyOp1
 70
     1
102
RTVSPropertyOp2
 70
     1
102
RTVSPropertyOp3
 70
     1
102
RTVSPropertyOp4
 70
     1
102
RTVSPropertyOp5
 70
     1
102
RTVSPropertyOp6
 70
     1
102
RTVSPropertyOp7
 70
     1
102
RTVSPropertyOp8
 70
     1
102
RTVSPropertyOp9
 70
     1
102
RTVSPropertyOp10
 70
     1
102
RTVSPropertyOp11
 70
     1
102
RTVSPropertyOp12
 70
     1
102
RTVSPropertyOp13
 70
     1
102
RTVSPropertyOp14
 70
     1
102
RTVSPropertyOp15
 70
     1
102
RTVSPropertyOp16
 70
     1
102
RTVSPropertyOp17
 70
     1
102
RTVSPropertyOp18
 70
     1
102
RTVSPropertyOp19
 70
     1
102
RTVSPropertyOp20
 70
     1
102
RTVSPropertyOp21
 70
     1
102
RTVSPropertyOp22
 70
     1
102
RTVSPropertyOp23
 70
     1
102
RTVSPropertyOp24
 70
     1
102
RTVSPropertyOp25
 70
     1
102
RTVSPropertyOp26
 70
     1
102
RTVSPropertyOp27
 70
     1
102
RTVSPropertyOp28
 70
     1
102
RTVSPropertyOp29
 70
     1
102
RTVSPropertyOp30
 70
     1
102
RTVSPropertyOp31
 70
     1
102
RTVSPropertyOp32
 70
     1
  0
ENDSEC
  0
EOF
