  0
SECTION
  2
HEADER
  9
$ACADVER
  1
AC1015
  9
$ACADMAINTVER
 70
     6
  9
$DWGCODEPAGE
  3
ANSI_949
  9
$INSBASE
 10
0.0
 20
0.0
 30
0.0
  9
$EXTMIN
 10
1.000000000000000E+20
 20
1.000000000000000E+20
 30
1.000000000000000E+20
  9
$EXTMAX
 10
-1.000000000000000E+20
 20
-1.000000000000000E+20
 30
-1.000000000000000E+20
  9
$LIMMIN
 10
0.0
 20
0.0
  9
$LIMMAX
 10
12.0
 20
9.0
  9
$ORTHOMODE
 70
     0
  9
$REGENMODE
 70
     1
  9
$FILLMODE
 70
     1
  9
$QTEXTMODE
 70
     0
  9
$MIRRTEXT
 70
     1
  9
$LTSCALE
 40
1.0
  9
$ATTMODE
 70
     1
  9
$TEXTSIZE
 40
0.2
  9
$TRACEWID
 40
0.05
  9
$TEXTSTYLE
  7
Standard
  9
$CLAYER
  8
0
  9
$CELTYPE
  6
ByLayer
  9
$CECOLOR
 62
   256
  9
$CELTSCALE
 40
1.0
  9
$DISPSILH
 70
     0
  9
$DIMSCALE
 40
1.0
  9
$DIMASZ
 40
0.18
  9
$DIMEXO
 40
0.0625
  9
$DIMDLI
 40
0.38
  9
$DIMRND
 40
0.0
  9
$DIMDLE
 40
0.0
  9
$DIMEXE
 40
0.18
  9
$DIMTP
 40
0.0
  9
$DIMTM
 40
0.0
  9
$DIMTXT
 40
0.18
  9
$DIMCEN
 40
0.09
  9
$DIMTSZ
 40
0.0
  9
$DIMTOL
 70
     0
  9
$DIMLIM
 70
     0
  9
$DIMTIH
 70
     1
  9
$DIMTOH
 70
     1
  9
$DIMSE1
 70
     0
  9
$DIMSE2
 70
     0
  9
$DIMTAD
 70
     0
  9
$DIMZIN
 70
     0
  9
$DIMBLK
  1

  9
$DIMASO
 70
     1
  9
$DIMSHO
 70
     1
  9
$DIMPOST
  1

  9
$DIMAPOST
  1

  9
$DIMALT
 70
     0
  9
$DIMALTD
 70
     2
  9
$DIMALTF
 40
25.4
  9
$DIMLFAC
 40
1.0
  9
$DIMTOFL
 70
     0
  9
$DIMTVP
 40
0.0
  9
$DIMTIX
 70
     0
  9
$DIMSOXD
 70
     0
  9
$DIMSAH
 70
     0
  9
$DIMBLK1
  1

  9
$DIMBLK2
  1

  9
$DIMSTYLE
  2
Standard
  9
$DIMCLRD
 70
     0
  9
$DIMCLRE
 70
     0
  9
$DIMCLRT
 70
     0
  9
$DIMTFAC
 40
1.0
  9
$DIMGAP
 40
0.09
  9
$DIMJUST
 70
     0
  9
$DIMSD1
 70
     0
  9
$DIMSD2
 70
     0
  9
$DIMTOLJ
 70
     1
  9
$DIMTZIN
 70
     0
  9
$DIMALTZ
 70
     0
  9
$DIMALTTZ
 70
     0
  9
$DIMUPT
 70
     0
  9
$DIMDEC
 70
     4
  9
$DIMTDEC
 70
     4
  9
$DIMALTU
 70
     2
  9
$DIMALTTD
 70
     2
  9
$DIMTXSTY
  7
Standard
  9
$DIMAUNIT
 70
     0
  9
$DIMADEC
 70
     0
  9
$DIMALTRND
 40
0.0
  9
$DIMAZIN
 70
     0
  9
$DIMDSEP
 70
    46
  9
$DIMATFIT
 70
     3
  9
$DIMFRAC
 70
     0
  9
$DIMLDRBLK
  1

  9
$DIMLUNIT
 70
     2
  9
$DIMLWD
 70
    -2
  9
$DIMLWE
 70
    -2
  9
$DIMTMOVE
 70
     0
  9
$LUNITS
 70
     2
  9
$LUPREC
 70
     4
  9
$SKETCHINC
 40
0.1
  9
$FILLETRAD
 40
0.5
  9
$AUNITS
 70
     0
  9
$AUPREC
 70
     0
  9
$MENU
  1
.
  9
$ELEVATION
 40
0.0
  9
$PELEVATION
 40
0.0
  9
$THICKNESS
 40
0.0
  9
$LIMCHECK
 70
     0
  9
$CHAMFERA
 40
0.5
  9
$CHAMFERB
 40
0.5
  9
$CHAMFERC
 40
1.0
  9
$CHAMFERD
 40
0.0
  9
$SKPOLY
 70
     0
  9
$TDCREATE
 40
2456522.535226817
  9
$TDUCREATE
 40
2456522.035226817
  9
$TDUPDATE
 40
2456522.535262639
  9
$TDUUPDATE
 40
2456522.035262639
  9
$TDINDWG
 40
0.0000000116
  9
$TDUSRTIMER
 40
0.0000000116
  9
$USRTIMER
 70
     1
  9
$ANGBASE
 50
0.0
  9
$ANGDIR
 70
     0
  9
$PDMODE
 70
     0
  9
$PDSIZE
 40
0.0
  9
$PLINEWID
 40
0.0
  9
$SPLFRAME
 70
     0
  9
$SPLINETYPE
 70
     6
  9
$SPLINESEGS
 70
     8
  9
$HANDSEED
  5
5C6
  9
$SURFTAB1
 70
     6
  9
$SURFTAB2
 70
     6
  9
$SURFTYPE
 70
     6
  9
$SURFU
 70
     6
  9
$SURFV
 70
     6
  9
$UCSBASE
  2

  9
$UCSNAME
  2

  9
$UCSORG
 10
0.0
 20
0.0
 30
0.0
  9
$UCSXDIR
 10
1.0
 20
0.0
 30
0.0
  9
$UCSYDIR
 10
0.0
 20
1.0
 30
0.0
  9
$UCSORTHOREF
  2

  9
$UCSORTHOVIEW
 70
     0
  9
$UCSORGTOP
 10
0.0
 20
0.0
 30
0.0
  9
$UCSORGBOTTOM
 10
0.0
 20
0.0
 30
0.0
  9
$UCSORGLEFT
 10
0.0
 20
0.0
 30
0.0
  9
$UCSORGRIGHT
 10
0.0
 20
0.0
 30
0.0
  9
$UCSORGFRONT
 10
0.0
 20
0.0
 30
0.0
  9
$UCSORGBACK
 10
0.0
 20
0.0
 30
0.0
  9
$PUCSBASE
  2

  9
$PUCSNAME
  2

  9
$PUCSORG
 10
0.0
 20
0.0
 30
0.0
  9
$PUCSXDIR
 10
1.0
 20
0.0
 30
0.0
  9
$PUCSYDIR
 10
0.0
 20
1.0
 30
0.0
  9
$PUCSORTHOREF
  2

  9
$PUCSORTHOVIEW
 70
     0
  9
$PUCSORGTOP
 10
0.0
 20
0.0
 30
0.0
  9
$PUCSORGBOTTOM
 10
0.0
 20
0.0
 30
0.0
  9
$PUCSORGLEFT
 10
0.0
 20
0.0
 30
0.0
  9
$PUCSORGRIGHT
 10
0.0
 20
0.0
 30
0.0
  9
$PUCSORGFRONT
 10
0.0
 20
0.0
 30
0.0
  9
$PUCSORGBACK
 10
0.0
 20
0.0
 30
0.0
  9
$USERI1
 70
     0
  9
$USERI2
 70
     0
  9
$USERI3
 70
     0
  9
$USERI4
 70
     0
  9
$USERI5
 70
     0
  9
$USERR1
 40
0.0
  9
$USERR2
 40
0.0
  9
$USERR3
 40
0.0
  9
$USERR4
 40
0.0
  9
$USERR5
 40
0.0
  9
$WORLDVIEW
 70
     1
  9
$SHADEDGE
 70
     3
  9
$SHADEDIF
 70
    70
  9
$TILEMODE
 70
     1
  9
$MAXACTVP
 70
    64
  9
$PINSBASE
 10
0.0
 20
0.0
 30
0.0
  9
$PLIMCHECK
 70
     0
  9
$PEXTMIN
 10
1.000000000000000E+20
 20
1.000000000000000E+20
 30
1.000000000000000E+20
  9
$PEXTMAX
 10
-1.000000000000000E+20
 20
-1.000000000000000E+20
 30
-1.000000000000000E+20
  9
$PLIMMIN
 10
0.0
 20
0.0
  9
$PLIMMAX
 10
12.0
 20
9.0
  9
$UNITMODE
 70
     0
  9
$VISRETAIN
 70
     1
  9
$PLINEGEN
 70
     0
  9
$PSLTSCALE
 70
     1
  9
$TREEDEPTH
 70
  3020
  9
$CMLSTYLE
  2
Standard
  9
$CMLJUST
 70
     0
  9
$CMLSCALE
 40
1.0
  9
$PROXYGRAPHICS
 70
     1
  9
$MEASUREMENT
 70
     0
  9
$CELWEIGHT
370
    -1
  9
$ENDCAPS
280
     0
  9
$JOINSTYLE
280
     0
  9
$LWDISPLAY
290
     1
  9
$INSUNITS
 70
     4
  9
$HYPERLINKBASE
  1

  9
$STYLESHEET
  1

  9
$XEDIT
290
     1
  9
$CEPSNTYPE
380
     0
  9
$PSTYLEMODE
290
     1
  9
$FINGERPRINTGUID
  2
{6A2F9B71-6E7B-4A3C-904A-6FA75C448F46}
  9
$VERSIONGUID
  2
{FAEB1C32-E019-11D5-929B-00C0DF256EC4}
  9
$EXTNAMES
290
     1
  9
$PSVPSCALE
 40
0.0
  9
$OLESTARTUP
290
     0
  0
ENDSEC
  0
SECTION
  2
CLASSES
  0
CLASS
  1
ACDBDICTIONARYWDFLT
  2
AcDbDictionaryWithDefault
  3
ObjectDBX Classes
 90
        0
280
     0
281
     0
  0
CLASS
  1
VISUALSTYLE
  2
AcDbVisualStyle
  3
ObjectDBX Classes
 90
     4095
280
     0
281
     0
  0
CLASS
  1
MATERIAL
  2
AcDbMaterial
  3
ObjectDBX Classes
 90
     1153
280
     0
281
     0
  0
CLASS
  1
SPATIAL_FILTER
  2
AcDbSpatialFilter
  3
ObjectDBX Classes
 90
        0
280
     0
281
     0
  0
CLASS
  1
SCALE
  2
AcDbScale
  3
ObjectDBX Classes
 90
     1153
280
     0
281
     0
  0
CLASS
  1
DICTIONARYVAR
  2
AcDbDictionaryVar
  3
ObjectDBX Classes
 90
        0
280
     0
281
     0
  0
CLASS
  1
ACDBPLACEHOLDER
  2
AcDbPlaceHolder
  3
ObjectDBX Classes
 90
        0
280
     0
281
     0
  0
CLASS
  1
LAYOUT
  2
AcDbLayout
  3
ObjectDBX Classes
 90
        0
280
     0
281
     0
  0
ENDSEC
  0
SECTION
  2
TABLES
  0
TABLE
  2
VPORT
  5
8
330
0
100
AcDbSymbolTable
 70
     1
  0
VPORT
  5
29
330
8
100
AcDbSymbolTableRecord
100
AcDbViewportTableRecord
  2
*Active
 70
     0
 10
0.0
 20
0.0
 11
1.0
 21
1.0
 12
148.6203422501967
 22
87.24478158919874
 13
0.0
 23
0.0
 14
0.5
 24
0.5
 15
0.5
 25
0.5
 16
0.0
 26
0.0
 36
1.0
 17
0.0
 27
0.0
 37
0.0
 40
173.8444423285769
 41
1.661862141334405
 42
50.0
 43
0.0
 44
0.0
 50
0.0
 51
0.0
 71
     0
 72
   100
 73
     1
 74
     3
 75
     0
 76
     0
 77
     0
 78
     0
281
     0
 65
     1
110
0.0
120
0.0
130
0.0
111
1.0
121
0.0
131
0.0
112
0.0
122
1.0
132
0.0
 79
     0
146
0.0
  0
ENDTAB
  0
TABLE
  2
LTYPE
  5
5
330
0
100
AcDbSymbolTable
 70
     2
  0
LTYPE
  5
14
330
5
100
AcDbSymbolTableRecord
100
AcDbLinetypeTableRecord
  2
ByBlock
 70
     0
  3

 72
    65
 73
     0
 40
0.0
  0
LTYPE
  5
15
330
5
100
AcDbSymbolTableRecord
100
AcDbLinetypeTableRecord
  2
ByLayer
 70
     0
  3

 72
    65
 73
     0
 40
0.0
  0
LTYPE
  5
16
330
5
100
AcDbSymbolTableRecord
100
AcDbLinetypeTableRecord
  2
Continuous
 70
     0
  3
Solid line
 72
    65
 73
     0
 40
0.0
  0
LTYPE
  5
100
330
5
100
AcDbSymbolTableRecord
100
AcDbLinetypeTableRecord
  2
Dashed
 70
     0
  3
- - - - - 
 72
    65
 73
     2
 40
5.644444465637207
 49
2.822222232818604
 74
     0
 49
-2.822222232818603
 74
     0
  0
ENDTAB
  0
TABLE
  2
LAYER
  5
2
330
0
100
AcDbSymbolTable
 70
     3
  0
LAYER
  5
10
330
2
100
AcDbSymbolTableRecord
100
AcDbLayerTableRecord
  2
0
 70
     0
 62
     7
  6
Continuous
370
    -3
390
F
  0
LAYER
  5
40
330
2
100
AcDbSymbolTableRecord
100
AcDbLayerTableRecord
  2
Doc_ Finishes
 70
     0
 62
     7
  6
Continuous
370
    -3
390
F
  0
LAYER
  5
DB
330
2
100
AcDbSymbolTableRecord
100
AcDbLayerTableRecord
  2
Doc_ Floor
 70
     0
 62
     7
  6
Continuous
370
    -3
390
F
  0
ENDTAB
  0
TABLE
  2
STYLE
  5
3
330
0
100
AcDbSymbolTable
 70
     4
  0
STYLE
  5
11
330
3
100
AcDbSymbolTableRecord
100
AcDbTextStyleTableRecord
  2
Standard
 70
     0
 40
0.0
 41
1.0
 50
0.0
 71
     0
 42
0.2
  3
txt
  4

  0
STYLE
  5
D6
330
3
100
AcDbSymbolTableRecord
100
AcDbTextStyleTableRecord
  2
GENERATED_STYLE_1
 70
     0
 40
0.0
 41
1.0
 50
0.0
 71
     0
 42
0.2
  3

  4

1001
ACAD
1000
Century Gothic
1071
       34
  0
STYLE
  5
D9
330
3
100
AcDbSymbolTableRecord
100
AcDbTextStyleTableRecord
  2
GENERATED_STYLE_2
 70
     0
 40
0.0
 41
1.0
 50
0.0
 71
     0
 42
0.2
  3

  4

1001
ACAD
1000
DilleniaUPC
1071
 33554450
  0
STYLE
  5
55C
330
3
100
AcDbSymbolTableRecord
100
AcDbTextStyleTableRecord
  2
GENERATED_STYLE_3
 70
     0
 40
0.0
 41
1.0
 50
0.0
 71
     0
 42
0.2
  3

  4

1001
ACAD
1000
Arial
1071
       34
  0
ENDTAB
  0
TABLE
  2
VIEW
  5
6
330
0
100
AcDbSymbolTable
 70
     0
  0
ENDTAB
  0
TABLE
  2
UCS
  5
7
330
0
100
AcDbSymbolTable
 70
     0
  0
ENDTAB
  0
TABLE
  2
APPID
  5
9
330
0
100
AcDbSymbolTable
 70
     1
  0
APPID
  5
12
330
9
100
AcDbSymbolTableRecord
100
AcDbRegAppTableRecord
  2
ACAD
 70
     0
  0
ENDTAB
  0
TABLE
  2
DIMSTYLE
  5
A
330
0
100
AcDbSymbolTable
 70
     1
100
AcDbDimStyleTable
  0
DIMSTYLE
105
27
330
A
100
AcDbSymbolTableRecord
100
AcDbDimStyleTableRecord
  2
Standard
 70
     0
178
     0
340
11
  0
ENDTAB
  0
TABLE
  2
BLOCK_RECORD
  5
1
330
0
100
AcDbSymbolTable
 70
     3
  0
BLOCK_RECORD
  5
1F
330
1
100
AcDbSymbolTableRecord
100
AcDbBlockTableRecord
  2
*Model_Space
340
22
  0
BLOCK_RECORD
  5
1B
330
1
100
AcDbSymbolTableRecord
100
AcDbBlockTableRecord
  2
*Paper_Space
340
1E
  0
BLOCK_RECORD
  5
E3
330
1
100
AcDbSymbolTableRecord
100
AcDbBlockTableRecord
  2
Drawing_1_2
340
0
102
{BLKREFS
331
56C
102
}
  0
BLOCK_RECORD
  5
570
330
1
100
AcDbSymbolTableRecord
100
AcDbBlockTableRecord
  2
R-TRSC-15 PIPE PENETRATION DETA_STORY_MARKER
340
0
  0
ENDTAB
  0
ENDSEC
  0
SECTION
  2
BLOCKS
  0
BLOCK
  5
20
330
1F
100
AcDbEntity
  8
0
100
AcDbBlockBegin
  2
*Model_Space
 70
     0
 10
0.0
 20
0.0
 30
0.0
  3
*Model_Space
  1

  0
ENDBLK
  5
21
330
1F
100
AcDbEntity
  8
0
100
AcDbBlockEnd
  0
BLOCK
  5
1C
330
1B
100
AcDbEntity
 67
     1
  8
0
100
AcDbBlockBegin
  2
*Paper_Space
 70
     0
 10
0.0
 20
0.0
 30
0.0
  3
*Paper_Space
  1

  0
ENDBLK
  5
1D
330
1B
100
AcDbEntity
 67
     1
  8
0
100
AcDbBlockEnd
  0
BLOCK
  5
E4
330
E3
100
AcDbEntity
  8
0
100
AcDbBlockBegin
  2
Drawing_1_2
 70
     0
 10
203.9331314616245
 20
-67.40556088284451
 30
0.0
  3
Drawing_1_2
  1

  0
LINE
  5
E6
330
E3
100
AcDbEntity
  8
0
  6
Continuous
100
AcDbLine
 10
243.6343549472296
 20
112.9296935008926
 30
0.0
 11
225.3384739699216
 21
116.1557512444574
 31
0.0
  0
LINE
  5
E7
330
E3
100
AcDbEntity
  8
0
  6
Continuous
100
AcDbLine
 10
225.3384739699216
 20
116.1557512444574
 30
0.0
 11
67.82968442299394
 21
88.3827008845411
 31
0.0
  0
LINE
  5
E8
330
E3
100
AcDbEntity
  8
0
  6
Continuous
100
AcDbLine
 10
243.6343549472296
 20
94.65201423342354
 30
0.0
 11
225.3384739699216
 21
97.87807197698837
 31
0.0
  0
LINE
  5
E9
330
E3
100
AcDbEntity
  8
0
  6
Continuous
100
AcDbLine
 10
225.3384739699216
 20
97.87807197698837
 30
0.0
 11
67.82968442299394
 21
70.10502161707204
 31
0.0
  0
HATCH
  5
EA
330
E3
100
AcDbEntity
  8
0
  6
Continuous
 62
   253
370
    25
100
AcDbHatch
 10
0.0
 20
0.0
 30
0.0
210
0.0
220
0.0
230
1.0
  2
SOLID
 70
     1
 71
     0
 91
        1
 92
        3
 72
     0
 73
     1
 93
        4
 10
230.1119754925099
 20
130.0057084560511
 10
229.4868378837381
 20
126.4604012693807
 10
277.8382426128217
 20
117.9347438872389
 10
277.8382426128217
 20
121.5902789885456
 97
        0
 75
     0
 76
     1
 98
        0
  0
LINE
  5
EB
330
E3
100
AcDbEntity
  8
0
  6
Continuous
100
AcDbLine
 10
229.4868384480278
 20
126.4604010898528
 30
0.0
 11
277.8382410161088
 21
117.9347445597118
 31
0.0
  0
LINE
  5
EC
330
E3
100
AcDbEntity
  8
0
  6
Continuous
100
AcDbLine
 10
277.8382426128217
 20
121.5902789885456
 30
0.0
 11
230.1119754925099
 21
130.0057084560511
 31
0.0
  0
LINE
  5
ED
330
E3
100
AcDbEntity
  8
0
  6
Continuous
100
AcDbLine
 10
230.1119723743169
 20
130.0057085201961
 30
0.0
 11
229.4868413975018
 21
126.4604012345799
 31
0.0
  0
HATCH
  5
EE
330
E3
100
AcDbEntity
  8
0
  6
Continuous
 62
   255
370
     0
100
AcDbHatch
 10
0.0
 20
0.0
 30
0.0
210
0.0
220
0.0
230
1.0
  2
SOLID
 70
     1
 71
     0
 91
        1
 92
        3
 72
     0
 73
     1
 93
        4
 10
259.0767522304357
 20
119.3456220382104
 10
257.5139186314333
 20
110.4823522611005
 10
271.3012271736042
 20
108.0512777737634
 10
272.8640607726066
 20
116.9145475508733
 97
        0
 75
     0
 76
     1
 98
        0
  0
LINE
  5
EF
330
E3
100
AcDbEntity
  8
0
  6
Continuous
100
AcDbLine
 10
257.5139194404512
 20
110.4823504365507
 30
0.0
 11
272.8640617158837
 21
116.91454834101
 31
0.0
  0
LINE
  5
F0
330
E3
100
AcDbEntity
  8
0
  6
Continuous
100
AcDbLine
 10
259.0767506207739
 20
119.3456223888764
 30
0.0
 11
271.301226797276
 21
108.0512763886844
 31
0.0
  0
LINE
  5
F1
330
E3
100
AcDbEntity
  8
0
  6
Continuous
100
AcDbLine
 10
259.0767506207739
 20
119.3456223888764
 30
0.0
 11
257.5139194404512
 21
110.4823504365507
 31
0.0
  0
LINE
  5
F2
330
E3
100
AcDbEntity
  8
0
  6
Continuous
100
AcDbLine
 10
257.5139194404512
 20
110.4823504365507
 30
0.0
 11
271.301226797276
 21
108.0512763886844
 31
0.0
  0
LINE
  5
F3
330
E3
100
AcDbEntity
  8
0
  6
Continuous
100
AcDbLine
 10
271.301226797276
 20
108.0512763886844
 30
0.0
 11
272.8640617158837
 21
116.91454834101
 31
0.0
  0
LINE
  5
F4
330
E3
100
AcDbEntity
  8
0
  6
Continuous
100
AcDbLine
 10
272.8640617158837
 20
116.91454834101
 30
0.0
 11
259.0767506207739
 21
119.3456223888764
 31
0.0
  0
HATCH
  5
F5
330
E3
100
AcDbEntity
  8
0
  6
Continuous
 62
   253
370
    25
100
AcDbHatch
 10
0.0
 20
0.0
 30
0.0
210
0.0
220
0.0
230
1.0
  2
SOLID
 70
     1
 71
     0
 91
        1
 92
        3
 72
     0
 73
     1
 93
        4
 10
26.96642073244031
 20
92.21352267338823
 10
221.1901048773903
 20
126.4604009579089
 10
220.5649710344755
 20
130.0057058064014
 10
26.96642073244031
 20
95.86905784822817
 97
        0
 75
     0
 76
     1
 98
        0
  0
LINE
  5
F6
330
E3
100
AcDbEntity
  8
0
  6
Continuous
100
AcDbLine
 10
220.5649718272412
 20
130.0057085201961
 30
0.0
 11
221.1901065423412
 21
126.4604012345799
 31
0.0
  0
LINE
  5
F7
330
E3
100
AcDbEntity
  8
0
  6
Continuous
100
AcDbLine
 10
26.96642073244031
 20
95.86905784822817
 30
0.0
 11
220.5649710344755
 21
130.0057058064014
 31
0.0
  0
LINE
  5
F8
330
E3
100
AcDbEntity
  8
0
  6
Continuous
100
AcDbLine
 10
221.1901054680606
 20
126.4604004903827
 30
0.0
 11
26.96642075011829
 21
92.21352229975663
 31
0.0
  0
HATCH
  5
F9
330
E3
100
AcDbEntity
  8
0
  6
Continuous
 62
   255
370
     0
100
AcDbHatch
 10
0.0
 20
0.0
 30
0.0
210
0.0
220
0.0
230
1.0
  2
SOLID
 70
     1
 71
     0
 91
        1
 92
        3
 72
     0
 73
     1
 93
        4
 10
191.6001931476744
 20
119.3456220382104
 10
177.8128846055035
 20
116.9145475508733
 10
179.3757182045059
 20
108.0512777737634
 10
193.1630267466768
 20
110.4823522611005
 97
        0
 75
     0
 76
     1
 98
        0
  0
LINE
  5
FA
330
E3
100
AcDbEntity
  8
0
  6
Continuous
100
AcDbLine
 10
193.1630284993919
 20
110.4823504365507
 30
0.0
 11
177.8128862239594
 21
116.91454834101
 31
0.0
  0
LINE
  5
FB
330
E3
100
AcDbEntity
  8
0
  6
Continuous
100
AcDbLine
 10
191.6001935807842
 20
119.3456223888764
 30
0.0
 11
179.375717404282
 21
108.0512763886844
 31
0.0
  0
LINE
  5
FC
330
E3
100
AcDbEntity
  8
0
  6
Continuous
100
AcDbLine
 10
191.6001935807842
 20
119.3456223888764
 30
0.0
 11
193.1630284993919
 21
110.4823504365507
 31
0.0
  0
LINE
  5
FD
330
E3
100
AcDbEntity
  8
0
  6
Continuous
100
AcDbLine
 10
193.1630284993919
 20
110.4823504365507
 30
0.0
 11
179.375717404282
 21
108.0512763886844
 31
0.0
  0
LINE
  5
FE
330
E3
100
AcDbEntity
  8
0
  6
Continuous
100
AcDbLine
 10
179.375717404282
 20
108.0512763886844
 30
0.0
 11
177.8128862239594
 21
116.91454834101
 31
0.0
  0
LINE
  5
FF
330
E3
100
AcDbEntity
  8
0
  6
Continuous
100
AcDbLine
 10
177.8128862239594
 20
116.91454834101
 30
0.0
 11
191.6001935807842
 21
119.3456223888764
 31
0.0
  0
LINE
  5
101
330
E3
100
AcDbEntity
  8
0
  6
Dashed
100
AcDbLine
 10
225.3384742399723
 20
126.4188580534168
 30
0.0
 11
277.8382413410135
 21
117.1617342362138
 31
0.0
  0
LINE
  5
102
330
E3
100
AcDbEntity
  8
0
  6
Dashed
100
AcDbLine
 10
265.8091851495928
 20
124.9546611433229
 30
0.0
 11
268.475857135266
 21
124.4844521749586
 31
0.0
  0
LINE
  5
103
330
E3
100
AcDbEntity
  8
0
  6
Continuous
 62
     9
370
    18
100
AcDbLine
 10
230.1119723743169
 20
130.0057085201961
 30
0.0
 11
231.4185740217205
 21
126.1197836552642
 31
0.0
  0
LINE
  5
104
330
E3
100
AcDbEntity
  8
0
  6
Dashed
100
AcDbLine
 10
225.3384712526405
 20
126.4188583019241
 30
0.0
 11
26.966420391538
 21
91.44051574308779
 31
0.0
  0
LINE
  5
105
330
E3
100
AcDbEntity
  8
0
  6
Dashed
100
AcDbLine
 10
184.8677627902503
 20
124.9546611433229
 30
0.0
 11
182.201087066292
 21
124.4844521749586
 31
0.0
  0
LINE
  5
106
330
E3
100
AcDbEntity
  8
0
  6
Continuous
 62
     9
370
    18
100
AcDbLine
 10
220.5649718272412
 20
130.0057085201961
 30
0.0
 11
219.2583701798376
 21
126.1197836552642
 31
0.0
  0
LINE
  5
107
330
E3
100
AcDbEntity
  8
0
  6
Continuous
100
AcDbLine
 10
225.3384739699216
 20
97.87807197698837
 30
0.0
 11
225.3384739699216
 21
116.1557512444574
 31
0.0
  0
ARC
  5
108
330
E3
100
AcDbEntity
  8
0
  6
Continuous
100
AcDbCircle
 10
225.3037430535217
 20
131.0692540791127
 30
0.0
 40
6.0
100
AcDbArc
 50
0.0
 51
180.0
  0
LWPOLYLINE
  5
109
330
E3
100
AcDbEntity
  8
0
  6
Continuous
100
AcDbPolyline
 90
        5
 70
   128
 43
0.0
 10
271.3511059263766
 20
122.9563525454319
 10
273.7115186161661
 20
122.6176796273476
 10
274.1336523155616
 20
123.0398133267433
 10
273.880458302433
 20
123.5618304299659
 10
231.3037430535217
 20
131.0692540791127
  0
LWPOLYLINE
  5
10A
330
E3
100
AcDbEntity
  8
0
  6
Continuous
100
AcDbPolyline
 90
        7
 70
   128
 43
0.0
 10
273.5628579157012
 20
122.5313579673876
 10
270.9057142157458
 20
122.947258720424
 10
270.9057142157458
 20
121.8112335153704
 10
274.3715538243833
 20
121.2721029095823
 10
274.7566471142318
 20
119.9435310596048
 10
275.7193803388533
 20
118.7689965255664
 10
276.7398775569522
 20
118.345393906733
  0
LWPOLYLINE
  5
10B
330
E3
100
AcDbEntity
  8
0
  6
Continuous
100
AcDbPolyline
 90
        2
 70
   128
 43
0.0
 10
176.796487075677
 20
123.5618304299659
 10
219.3732023245884
 20
131.0692540791127
  0
LWPOLYLINE
  5
10C
330
E3
100
AcDbEntity
  8
0
  6
Continuous
100
AcDbPolyline
 90
        7
 70
   128
 43
0.0
 10
82.77875799210507
 20
105.8980278441095
 10
85.43590169206047
 20
106.3139285971459
 10
85.43590169206047
 20
105.1779033920922
 10
81.970062083423
 20
104.6387727863042
 10
81.58496879357436
 20
103.3102009363267
 10
80.62223556895287
 20
102.1356664022883
 10
79.60173835085406
 20
101.7120637834549
  0
LWPOLYLINE
  5
10D
330
E3
100
AcDbEntity
  8
0
  6
Continuous
100
AcDbPolyline
 90
        5
 70
   128
 43
0.0
 10
84.75170668780531
 20
105.6532672239378
 10
82.39129399801587
 20
105.3145943058536
 10
81.96916029862027
 20
105.7367280052492
 10
82.22235431174893
 20
106.2587451084718
 10
219.5566852141064
 20
130.474493026754
  0
LWPOLYLINE
  5
10E
330
E3
100
AcDbEntity
  8
0
  6
Continuous
100
AcDbPolyline
 90
       18
 70
   129
 43
0.0
 10
104.8796452710047
 20
137.0036699851636
 10
125.6487547422381
 20
137.0036699851636
 10
125.6523398383435
 20
135.4716450316643
 10
126.0867527613339
 20
135.4716450316643
 10
130.7262717519116
 20
128.820482701076
 10
131.6458397278131
 20
128.6847671515292
 10
131.1384918790399
 20
127.3846882890479
 10
136.6937444258581
 20
116.5205726000351
 10
140.4794289006472
 20
117.1312252670444
 10
141.3458578660677
 20
116.6838139801287
 10
92.60766030820575
 20
108.0899547586369
 10
92.85179439249781
 20
108.6807765522953
 10
95.13548733429526
 20
109.1474672464345
 10
101.0067861494627
 20
124.0472701230148
 10
99.66543961296207
 20
124.9941029723093
 10
101.4012998366687
 20
125.4675193969565
 10
104.1980522365632
 20
135.1830827463953
 10
104.8920573391215
 20
135.1597182656677
  0
HATCH
  5
10F
330
E3
100
AcDbEntity
  8
0
  6
Continuous
 62
   255
370
     0
100
AcDbHatch
 10
0.0
 20
0.0
 30
0.0
210
0.0
220
0.0
230
1.0
  2
SOLID
 70
     1
 71
     0
 91
        1
 92
        3
 72
     0
 73
     1
 93
        8
 10
236.0853242327101
 20
112.706682696765
 10
229.8537920109281
 20
111.3936040914713
 10
241.6222607993508
 20
110.0805254861777
 10
235.3907285775688
 20
108.7674518146175
 10
231.7239877904843
 20
87.9723181589928
 10
277.8382419325877
 20
87.9723181589928
 10
277.8382419325877
 20
133.5018114186562
 10
239.7520650197946
 20
133.5018114186562
 97
        0
 75
     0
 76
     1
 98
        0
  0
LINE
  5
110
330
E3
100
AcDbEntity
  8
0
  6
Continuous
100
AcDbLine
 10
239.7520636953524
 20
133.501812498172
 30
0.0
 11
236.0853219586355
 21
112.7066823688011
 31
0.0
  0
LINE
  5
111
330
E3
100
AcDbEntity
  8
0
  6
Continuous
100
AcDbLine
 10
235.3907299075716
 20
108.7674495592596
 30
0.0
 11
231.7239881708546
 21
87.97231942988864
 31
0.0
  0
LINE
  5
112
330
E3
100
AcDbEntity
  8
0
  6
Continuous
100
AcDbLine
 10
235.3907299075716
 20
108.7674495592596
 30
0.0
 11
241.6222604095979
 21
110.0805259163451
 31
0.0
  0
LINE
  5
113
330
E3
100
AcDbEntity
  8
0
  6
Continuous
100
AcDbLine
 10
241.6222604095979
 20
110.0805259163451
 30
0.0
 11
229.8537914566092
 21
111.3936060117156
 31
0.0
  0
LINE
  5
114
330
E3
100
AcDbEntity
  8
0
  6
Continuous
100
AcDbLine
 10
229.8537914566092
 20
111.3936060117156
 30
0.0
 11
236.0853219586355
 21
112.7066823688011
 31
0.0
  0
HATCH
  5
115
330
E3
100
AcDbEntity
  8
0
  6
Continuous
 62
   255
370
     0
100
AcDbHatch
 10
0.0
 20
0.0
 30
0.0
210
0.0
220
0.0
230
1.0
  2
SOLID
 70
     1
 71
     0
 91
        1
 92
        3
 72
     0
 73
     1
 93
        8
 10
26.96641735155497
 20
112.0350284725426
 10
26.96641735155497
 20
53.71234008581452
 10
81.69965089053576
 20
53.71234008581452
 10
76.90501423806155
 20
80.9040681507578
 10
70.67348360535584
 20
82.21714396363747
 10
82.44195280113398
 20
83.53022459471963
 10
76.21042216842827
 20
84.8433004075993
 10
71.41578551595406
 20
112.0350284725426
 97
        0
 75
     0
 76
     1
 98
        0
  0
LINE
  5
116
330
E3
100
AcDbEntity
  8
0
  6
Continuous
100
AcDbLine
 10
71.41578387492007
 20
112.0350284347163
 30
0.0
 11
76.21042228119249
 21
84.84330008928131
 31
0.0
  0
LINE
  5
117
330
E3
100
AcDbEntity
  8
0
  6
Continuous
100
AcDbLine
 10
76.90501433225644
 20
80.9040672797399
 30
0.0
 11
81.69964900024382
 21
53.71233893430488
 31
0.0
  0
LINE
  5
118
330
E3
100
AcDbEntity
  8
0
  6
Continuous
100
AcDbLine
 10
76.90501433225644
 20
80.9040672797399
 30
0.0
 11
70.67348383023011
 21
82.2171473751104
 31
0.0
  0
LINE
  5
119
330
E3
100
AcDbEntity
  8
0
  6
Continuous
100
AcDbLine
 10
70.67348383023011
 20
82.2171473751104
 30
0.0
 11
82.4419527832188
 21
83.53022373219585
 31
0.0
  0
LINE
  5
11A
330
E3
100
AcDbEntity
  8
0
  6
Continuous
100
AcDbLine
 10
82.4419527832188
 20
83.53022373219585
 30
0.0
 11
76.21042228119249
 21
84.84330008928131
 31
0.0
  0
MTEXT
  5
11B
330
E3
100
AcDbEntity
  8
Doc_ Floor
  6
Continuous
100
AcDbMText
 10
193.5292761408645
 20
86.485725256744
 30
0.0
 40
2.5
 41
0.0
 71
     4
 72
     1
  1
{UNDERLAY}
  7
GENERATED_STYLE_1
 73
     1
 44
1.0
  0
LINE
  5
11C
330
E3
100
AcDbEntity
  8
Doc_ Floor
  6
Continuous
100
AcDbLine
 10
173.7073670194586
 20
117.3149037151967
 30
0.0
 11
174.821648854914
 21
113.6153660038613
 31
0.0
  0
LINE
  5
11D
330
E3
100
AcDbEntity
  8
Doc_ Floor
  6
Continuous
100
AcDbLine
 10
173.7073670194586
 20
117.3149037151967
 30
0.0
 11
172.8225934554869
 21
113.5538674767385
 31
0.0
  0
LINE
  5
11E
330
E3
100
AcDbEntity
  8
Doc_ Floor
  6
Continuous
100
AcDbLine
 10
174.821648854914
 20
113.6153660038613
 30
0.0
 11
172.8225934554869
 21
113.5538674767385
 31
0.0
  0
LWPOLYLINE
  5
11F
330
E3
100
AcDbEntity
  8
Doc_ Floor
  6
Continuous
100
AcDbPolyline
 90
       17
 70
   128
 43
0.0
 10
173.8221219133511
 20
113.5846172898256
 10
174.0354076781763
 20
109.9535805973167
 10
174.3490830291076
 20
106.6255377924163
 10
174.7689476655335
 20
103.5910048819604
 10
175.3008012868424
 20
100.840497872785
 10
175.9504435924231
 20
98.36453277172602
 10
176.723674281664
 20
96.15362558561955
 10
177.6262930539536
 20
94.19829232130155
 10
178.6640996086806
 20
92.48904898560806
 10
179.8428936452334
 20
91.01641158537504
 10
181.1684748630006
 20
89.77089612743852
 10
182.6466429613707
 20
88.74301861863448
 10
184.2831976397323
 20
87.92329506579894
 10
186.083938597474
 20
87.30224147576787
 10
188.0546655339842
 20
86.8703738553773
 10
190.2011781486515
 20
86.61820821146324
 10
192.5292761408645
 20
86.53626055086166
  0
MTEXT
  5
120
330
E3
100
AcDbEntity
  8
Doc_ Floor
  6
Continuous
100
AcDbMText
 10
184.9108779781656
 20
72.2537728273413
 30
0.0
 40
2.5
 41
0.0
 71
     4
 72
     1
  1
{ROOF FRAME}
  7
GENERATED_STYLE_1
 73
     1
 44
1.0
  0
LINE
  5
121
330
E3
100
AcDbEntity
  8
Doc_ Floor
  6
Continuous
100
AcDbLine
 10
172.5914552917276
 20
98.34433331635492
 30
0.0
 11
173.8693768163371
 21
94.69808485820388
 31
0.0
  0
LINE
  5
122
330
E3
100
AcDbEntity
  8
Doc_ Floor
  6
Continuous
100
AcDbLine
 10
172.5914552917276
 20
98.34433331635492
 30
0.0
 11
171.8750428709102
 21
94.54763010037081
 31
0.0
  0
LINE
  5
123
330
E3
100
AcDbEntity
  8
Doc_ Floor
  6
Continuous
100
AcDbLine
 10
173.8693768163371
 20
94.69808485820388
 30
0.0
 11
171.8750428709102
 21
94.54763010037081
 31
0.0
  0
LWPOLYLINE
  5
124
330
E3
100
AcDbEntity
  8
Doc_ Floor
  6
Continuous
100
AcDbPolyline
 90
       15
 70
   128
 43
0.0
 10
172.8722088236661
 20
94.62285698111693
 10
173.4788906991054
 20
88.87680926911727
 10
174.2524922165344
 20
84.09859696261177
 10
174.7103223509016
 20
82.05300205950314
 10
175.2200038076543
 20
80.22605357546864
 10
175.7849103907551
 20
78.60998069974178
 10
176.4084159041666
 20
77.19701262155613
 10
177.0938941518515
 20
75.97937853014515
 10
177.8447189377725
 20
74.94930761474242
 10
178.6642640658923
 20
74.09902906458146
 10
179.5559033401734
 20
73.42077206889579
 10
180.5230105645787
 20
72.90676581691893
 10
181.5689595430707
 20
72.54923949788444
 10
182.6971240796121
 20
72.34042230102581
 10
183.9108779781656
 20
72.2725434155766
  0
MTEXT
  5
125
330
E3
100
AcDbEntity
  8
Doc_ Floor
  6
Continuous
100
AcDbMText
 10
69.76999476195684
 20
120.2895092193444
 30
0.0
 40
2.5
 41
35.0246672556786
 71
     6
 72
     1
  1
{SOFT EDGE DRESSED OVER CORRUGATE}
  7
GENERATED_STYLE_1
 73
     1
 44
1.070162922071087
  0
LINE
  5
126
330
E3
100
AcDbEntity
  8
Doc_ Floor
  6
Continuous
100
AcDbLine
 10
84.75170826682056
 20
105.6532674719591
 30
0.0
 11
82.41529133434398
 21
108.7305003499665
 31
0.0
  0
LINE
  5
127
330
E3
100
AcDbEntity
  8
Doc_ Floor
  6
Continuous
100
AcDbLine
 10
84.75170826682056
 20
105.6532674719591
 30
0.0
 11
84.266927463387
 21
109.4864376584668
 31
0.0
  0
LINE
  5
128
330
E3
100
AcDbEntity
  8
Doc_ Floor
  6
Continuous
100
AcDbLine
 10
82.41529133434398
 20
108.7305003499665
 30
0.0
 11
84.266927463387
 21
109.4864376584668
 31
0.0
  0
LWPOLYLINE
  5
129
330
E3
100
AcDbEntity
  8
Doc_ Floor
  6
Continuous
100
AcDbPolyline
 90
        9
 70
   128
 43
0.0
 10
83.34110933003895
 20
109.1084680026587
 10
81.98416806746887
 20
111.977995526677
 10
80.62309648178491
 20
114.367760610723
 10
79.22932429762398
 20
116.3077094510614
 10
77.77428123962298
 20
117.8277882439569
 10
76.22939703241885
 20
118.9579431856742
 10
74.5661014006485
 20
119.7281204724779
 10
72.75582406894885
 20
120.1682663006326
 10
70.76999476195684
 20
120.3083268664032
  0
MTEXT
  5
12A
330
E3
100
AcDbEntity
  8
Doc_ Floor
  6
Continuous
100
AcDbMText
 10
238.9445889461092
 20
141.2622354453956
 30
0.0
 40
2.500000000000001
 41
0.0
 71
     4
 72
     1
  1
{STOPEND}
  7
GENERATED_STYLE_1
 73
     1
 44
1.0
  0
LINE
  5
12B
330
E3
100
AcDbEntity
  8
Doc_ Floor
  6
Continuous
100
AcDbLine
 10
220.302353565196
 20
127.8162323576189
 30
0.0
 11
221.7260046553534
 21
131.4080850302151
 31
0.0
  0
LINE
  5
12C
330
E3
100
AcDbEntity
  8
Doc_ Floor
  6
Continuous
100
AcDbLine
 10
220.302353565196
 20
127.8162323576189
 30
0.0
 11
223.3311980817009
 21
130.2150412673419
 31
0.0
  0
LINE
  5
12D
330
E3
100
AcDbEntity
  8
Doc_ Floor
  6
Continuous
100
AcDbLine
 10
221.7260046553534
 20
131.4080850302151
 30
0.0
 11
223.3311980817009
 21
130.2150412673419
 31
0.0
  0
LWPOLYLINE
  5
12E
330
E3
100
AcDbEntity
  8
Doc_ Floor
  6
Continuous
100
AcDbPolyline
 90
        9
 70
   128
 43
0.0
 10
222.5286011993616
 20
130.8115628238941
 10
224.6949544726274
 20
133.4953197416899
 10
226.7191248008867
 20
135.7298757366639
 10
228.6380101130825
 20
137.5433917678587
 10
230.4885083381576
 20
138.9640287943166
 10
232.307517405055
 20
140.0199477750804
 10
234.1319352427174
 20
140.7393096691923
 10
235.9986597800878
 20
141.150275435695
 10
237.9445889461092
 20
141.2810060336309
  0
MTEXT
  5
12F
330
E3
100
AcDbEntity
  8
Doc_ Floor
  6
Continuous
100
AcDbMText
 10
228.6353772272375
 20
155.0308744182444
 30
0.0
 40
2.500000000000001
 41
0.0
 71
     4
 72
     1
  1
{ROLL TOP RIDGE FLASHING}
  7
GENERATED_STYLE_1
 73
     1
 44
1.0
  0
LINE
  5
130
330
E3
100
AcDbEntity
  8
Doc_ Floor
  6
Continuous
100
AcDbLine
 10
221.3760675314437
 20
135.6050389484048
 30
0.0
 11
220.1057347254568
 21
139.2539378506462
 31
0.0
  0
LINE
  5
131
330
E3
100
AcDbEntity
  8
Doc_ Floor
  6
Continuous
100
AcDbLine
 10
221.3760675314437
 20
135.6050389484048
 30
0.0
 11
222.1003789485417
 21
139.4002431120895
 31
0.0
  0
LINE
  5
132
330
E3
100
AcDbEntity
  8
Doc_ Floor
  6
Continuous
100
AcDbLine
 10
220.1057347254568
 20
139.2539378506462
 30
0.0
 11
222.1003789485417
 21
139.4002431120895
 31
0.0
  0
LWPOLYLINE
  5
133
330
E3
100
AcDbEntity
  8
Doc_ Floor
  6
Continuous
100
AcDbPolyline
 90
       14
 70
   128
 43
0.0
 10
221.1030570639607
 20
139.3270910450659
 10
220.9677159467616
 20
143.3621310115377
 10
221.0767437986386
 20
146.7200916580234
 10
221.4439391547122
 20
149.4438382557596
 10
221.7286616890477
 20
150.5812766836082
 10
222.0831005501025
 20
151.576236075983
 10
222.5089805547665
 20
152.4340745917889
 10
223.0080265199298
 20
153.1601503899302
 10
223.5819632624825
 20
153.7598216293116
 10
224.2325155993146
 20
154.2384464688376
 10
224.9614083473161
 20
154.6013830674129
 10
225.7703663233771
 20
154.8539895839419
 10
226.6611143443875
 20
155.0016241773293
 10
227.6353772272375
 20
155.0496450064797
  0
MTEXT
  5
134
330
E3
100
AcDbEntity
  8
Doc_ Floor
  6
Continuous
100
AcDbMText
 10
75.49643983449012
 20
136.2417490642585
 30
0.0
 40
2.5
 41
39.91102550062586
 71
     6
 72
     1
  1
{COWL FLASHING ALL THE WAY TO RIDGE}
  7
GENERATED_STYLE_1
 73
     1
 44
1.070162922071087
  0
LINE
  5
135
330
E3
100
AcDbEntity
  8
Doc_ Floor
  6
Continuous
100
AcDbLine
 10
89.89965946838996
 20
107.6124615380502
 30
0.0
 11
88.24607768053994
 21
111.1044309727766
 31
0.0
  0
LINE
  5
136
330
E3
100
AcDbEntity
  8
Doc_ Floor
  6
Continuous
100
AcDbLine
 10
89.89965946838996
 20
107.6124615380502
 30
0.0
 11
90.21360064569065
 21
111.4633885784776
 31
0.0
  0
LINE
  5
137
330
E3
100
AcDbEntity
  8
Doc_ Floor
  6
Continuous
100
AcDbLine
 10
88.24607768053994
 20
111.1044309727766
 30
0.0
 11
90.21360064569065
 21
111.4633885784776
 31
0.0
  0
LWPOLYLINE
  5
138
330
E3
100
AcDbEntity
  8
Doc_ Floor
  6
Continuous
100
AcDbPolyline
 90
       14
 70
   128
 43
0.0
 10
89.22983818835147
 20
111.2839100127495
 10
87.91196672216496
 20
117.7084325229906
 10
86.58124564044233
 20
123.0496572969246
 10
85.2049849898022
 20
127.3774559994306
 10
84.48956171570637
 20
129.1831554691729
 10
83.75049481686315
 20
130.761700295388
 10
82.98369804909986
 20
132.1218244361857
 10
82.18508516824383
 20
133.272261849676
 10
81.35056993012235
 20
134.2217464939689
 10
80.4760660905628
 20
134.9790123271741
 10
79.55748740539246
 20
135.5527933074016
 10
78.59074763043868
 20
135.9518233927614
 10
77.5717605215288
 20
136.1848365413634
 10
76.49643983449012
 20
136.2605667113174
  0
HATCH
  5
139
330
E3
100
AcDbEntity
  8
0
  6
Continuous
 62
   255
370
     0
100
AcDbHatch
 10
0.0
 20
0.0
 30
0.0
210
0.0
220
0.0
230
1.0
  2
SOLID
 70
     1
 71
     0
 91
        1
 92
        3
 72
     0
 73
     1
 93
        4
 10
182.5655954269401
 20
125.7879823907674
 10
182.6524195157736
 20
125.2955785142613
 10
184.1296311452919
 20
125.5560507807617
 10
184.0428070564584
 20
126.0484546572678
 97
        0
 75
     0
 76
     1
 98
        0
  0
HATCH
  5
13A
330
E3
100
AcDbEntity
  8
0
  6
Continuous
 62
   255
370
     0
100
AcDbHatch
 10
0.0
 20
0.0
 30
0.0
210
0.0
220
0.0
230
1.0
  2
SOLID
 70
     1
 71
     0
 91
        1
 92
        3
 72
     1
 73
     1
 93
        4
 10
182.8262680466654
 20
125.7493271224331
 42
0.0
 10
182.8841507725544
 20
125.421057871429
 42
0.1666666666666667
 10
183.8689585255666
 20
125.594706049096
 42
0.0
 10
183.8110757996776
 20
125.9229753001
 42
0.1666666666666667
 97
        0
 75
     0
 76
     1
 98
        0
  0
LINE
  5
13B
330
E3
100
AcDbEntity
  8
0
  6
Continuous
100
AcDbLine
 10
182.8841502463058
 20
125.4210570609507
 30
0.0
 11
182.8262666408125
 21
125.7493270847934
 31
0.0
  0
ARC
  5
13C
330
E3
100
AcDbEntity
  8
0
  6
Continuous
100
AcDbCircle
 10
183.1233177232962
 20
126.9440599334053
 30
0.0
 40
1.541666666666643
100
AcDbArc
 50
261.0753555839507
 51
298.924644416054
  0
LINE
  5
13D
330
E3
100
AcDbEntity
  8
0
  6
Continuous
100
AcDbLine
 10
183.8110767123404
 20
125.9229741629881
 30
0.0
 11
183.8689603178337
 21
125.5947078774305
 31
0.0
  0
ARC
  5
13E
330
E3
100
AcDbEntity
  8
0
  6
Continuous
100
AcDbCircle
 10
183.5719088489357
 20
124.3999732381238
 30
0.0
 40
1.541666666666628
100
AcDbArc
 50
81.07535558394747
 51
118.9246444160508
  0
HATCH
  5
13F
330
E3
100
AcDbEntity
  8
0
  6
Continuous
 62
   255
370
     0
100
AcDbHatch
 10
0.0
 20
0.0
 30
0.0
210
0.0
220
0.0
230
1.0
  2
SOLID
 70
     1
 71
     0
 91
        1
 92
        3
 72
     1
 73
     1
 93
        4
 10
182.3338641701593
 20
125.6625030335997
 42
0.0
 10
182.3917468960483
 20
125.3342337825956
 42
0.3333333333333333
 10
182.8841507725544
 20
125.421057871429
 42
0.0
 10
182.8262680466654
 20
125.7493271224331
 42
0.3333333333333333
 97
        0
 75
     0
 76
     1
 98
        0
  0
LINE
  5
140
330
E3
100
AcDbEntity
  8
0
  6
Continuous
100
AcDbLine
 10
182.3917470796844
 20
125.3342353909959
 30
0.0
 11
182.3338634741911
 21
125.6625016765535
 31
0.0
  0
ARC
  5
141
330
E3
100
AcDbEntity
  8
0
  6
Continuous
100
AcDbCircle
 10
182.5800661084124
 20
125.7059150780164
 30
0.0
 40
0.4166666666666328
100
AcDbArc
 50
243.1301023541512
 51
316.8698976458421
  0
LINE
  5
142
330
E3
100
AcDbEntity
  8
0
  6
Continuous
100
AcDbLine
 10
182.8262666408125
 20
125.7493270847934
 30
0.0
 11
182.8841502463058
 21
125.4210570609507
 31
0.0
  0
ARC
  5
143
330
E3
100
AcDbEntity
  8
0
  6
Continuous
100
AcDbCircle
 10
182.6379488343013
 20
125.3776458270124
 30
0.0
 40
0.416666666666645
100
AcDbArc
 50
63.13010235415634
 51
136.8698976458475
  0
HATCH
  5
144
330
E3
100
AcDbEntity
  8
0
  6
Continuous
 62
   255
370
     0
100
AcDbHatch
 10
0.0
 20
0.0
 30
0.0
210
0.0
220
0.0
230
1.0
  2
SOLID
 70
     1
 71
     0
 91
        1
 92
        3
 72
     1
 73
     1
 93
        4
 10
184.3034796761837
 20
126.0097993889335
 42
0.3333333333333333
 10
183.8110757996776
 20
125.9229753001
 42
0.0
 10
183.8689585255666
 20
125.594706049096
 42
0.3333333333333333
 10
184.3613624020727
 20
125.6815301379294
 42
0.0
 97
        0
 75
     0
 76
     1
 98
        0
  0
ARC
  5
145
330
E3
100
AcDbEntity
  8
0
  6
Continuous
100
AcDbCircle
 10
184.1151604638197
 20
125.6381180935127
 30
0.0
 40
0.4166666666666698
100
AcDbArc
 50
63.13010235415805
 51
136.8698976458473
  0
LINE
  5
146
330
E3
100
AcDbEntity
  8
0
  6
Continuous
100
AcDbLine
 10
183.8110767123404
 20
125.9229741629881
 30
0.0
 11
183.8689603178337
 21
125.5947078774305
 31
0.0
  0
ARC
  5
147
330
E3
100
AcDbEntity
  8
0
  6
Continuous
100
AcDbCircle
 10
184.0572777379307
 20
125.9663873445168
 30
0.0
 40
0.4166666666666328
100
AcDbArc
 50
243.1301023541512
 51
316.8698976458421
  0
LINE
  5
148
330
E3
100
AcDbEntity
  8
0
  6
Continuous
100
AcDbLine
 10
184.3613634844551
 20
125.6815295473853
 30
0.0
 11
184.3034798789618
 21
126.009799571228
 31
0.0
  0
HATCH
  5
149
330
E3
100
AcDbEntity
  8
0
  6
Continuous
 62
   255
370
     0
100
AcDbHatch
 10
0.0
 20
0.0
 30
0.0
210
0.0
220
0.0
230
1.0
  2
SOLID
 70
     1
 71
     0
 91
        1
 92
        3
 72
     0
 73
     1
 93
        4
 10
183.7192942532675
 20
125.4836973155177
 10
183.0627564077979
 20
125.3679319795052
 10
183.340593492065
 20
123.7922395746857
 10
183.9971313375347
 20
123.9080049106982
 97
        0
 75
     0
 76
     1
 98
        0
  0
LINE
  5
14A
330
E3
100
AcDbEntity
  8
0
  6
Continuous
100
AcDbLine
 10
183.0627580287429
 20
125.367932292308
 30
0.0
 11
183.7192943381432
 21
125.4836957650095
 31
0.0
  0
LINE
  5
14B
330
E3
100
AcDbEntity
  8
0
  6
Continuous
100
AcDbLine
 10
183.3405948491685
 20
123.7922414114624
 30
0.0
 11
183.0627580287429
 21
125.367932292308
 31
0.0
  0
LINE
  5
14C
330
E3
100
AcDbEntity
  8
0
  6
Continuous
100
AcDbLine
 10
183.9971311585687
 20
123.9080048841639
 30
0.0
 11
183.3405948491685
 21
123.7922414114624
 31
0.0
  0
LINE
  5
14D
330
E3
100
AcDbEntity
  8
0
  6
Continuous
100
AcDbLine
 10
183.7192943381432
 20
125.4836957650095
 30
0.0
 11
183.9971311585687
 21
123.9080048841639
 31
0.0
  0
HATCH
  5
14E
330
E3
100
AcDbEntity
  8
0
  6
Continuous
 62
   255
370
     0
100
AcDbHatch
 10
0.0
 20
0.0
 30
0.0
210
0.0
220
0.0
230
1.0
  2
SOLID
 70
     1
 71
     0
 91
        1
 92
        3
 72
     0
 73
     1
 93
        5
 10
183.9643047407035
 20
123.902216695992
 10
183.3734200888962
 20
123.7980277893919
 10
184.8320647812984
 20
115.5256426640893
 10
185.2316960138022
 20
114.9868524655821
 10
185.4229494331057
 20
115.6298315706895
 97
        0
 75
     0
 76
     1
 98
        0
  0
LINE
  5
14F
330
E3
100
AcDbEntity
  8
0
  6
Continuous
100
AcDbLine
 10
183.3734207300673
 20
123.7980282766977
 30
0.0
 11
183.96430527767
 21
123.9022180189286
 31
0.0
  0
LINE
  5
150
330
E3
100
AcDbEntity
  8
0
  6
Continuous
100
AcDbLine
 10
184.8320659064441
 20
115.5256408719748
 30
0.0
 11
183.3734207300673
 21
123.7980282766977
 31
0.0
  0
LINE
  5
151
330
E3
100
AcDbEntity
  8
0
  6
Continuous
100
AcDbLine
 10
185.2316960533338
 20
114.98685306463
 30
0.0
 11
184.8320659064441
 21
115.5256408719748
 31
0.0
  0
LINE
  5
152
330
E3
100
AcDbEntity
  8
0
  6
Continuous
100
AcDbLine
 10
185.4229504540468
 20
115.6298306142056
 30
0.0
 11
185.2316960533338
 21
114.98685306463
 31
0.0
  0
LINE
  5
153
330
E3
100
AcDbEntity
  8
0
  6
Continuous
100
AcDbLine
 10
183.96430527767
 20
123.9022180189286
 30
0.0
 11
185.4229504540468
 21
115.6298306142056
 31
0.0
  0
LINE
  5
154
330
E3
100
AcDbEntity
  8
0
  6
Continuous
100
AcDbLine
 10
182.565596025271
 20
125.7879809520628
 30
0.0
 11
184.0428055251353
 21
126.0484534384974
 31
0.0
  0
LINE
  5
155
330
E3
100
AcDbEntity
  8
0
  6
Continuous
100
AcDbLine
 10
184.1296309333752
 20
125.556050271876
 30
0.0
 11
182.6524176952259
 21
125.2955777854414
 31
0.0
  0
LINE
  5
156
330
E3
100
AcDbEntity
  8
0
  6
Continuous
100
AcDbLine
 10
184.1612662913059
 20
123.9369463315254
 30
0.0
 11
184.1603362859911
 21
123.9312637236055
 31
0.0
  0
LINE
  5
157
330
E3
100
AcDbEntity
  8
0
  6
Continuous
100
AcDbLine
 10
184.1603362859911
 20
123.9312637236055
 30
0.0
 11
184.1556730501883
 21
123.9249228464254
 31
0.0
  0
LINE
  5
158
330
E3
100
AcDbEntity
  8
0
  6
Continuous
100
AcDbLine
 10
184.1556730501883
 20
123.9249228464254
 30
0.0
 11
184.1473204981643
 21
123.9179300309338
 31
0.0
  0
LINE
  5
159
330
E3
100
AcDbEntity
  8
0
  6
Continuous
100
AcDbLine
 10
184.1473204981643
 20
123.9179300309338
 30
0.0
 11
184.1353467711948
 21
123.9103001911758
 31
0.0
  0
LINE
  5
15A
330
E3
100
AcDbEntity
  8
0
  6
Continuous
100
AcDbLine
 10
184.1353467711948
 20
123.9103001911758
 30
0.0
 11
184.1198515797217
 21
123.902049796102
 31
0.0
  0
LINE
  5
15B
330
E3
100
AcDbEntity
  8
0
  6
Continuous
100
AcDbLine
 10
184.1198515797217
 20
123.902049796102
 30
0.0
 11
184.1009582871511
 21
123.8932012754224
 31
0.0
  0
LINE
  5
15C
330
E3
100
AcDbEntity
  8
0
  6
Continuous
100
AcDbLine
 10
184.1009582871511
 20
123.8932012754224
 30
0.0
 11
184.0788239014545
 21
123.8837770588473
 31
0.0
  0
LINE
  5
15D
330
E3
100
AcDbEntity
  8
0
  6
Continuous
100
AcDbLine
 10
184.0788239014545
 20
123.8837770588473
 30
0.0
 11
184.0536166454586
 21
123.8738145292271
 31
0.0
  0
LINE
  5
15E
330
E3
100
AcDbEntity
  8
0
  6
Continuous
100
AcDbLine
 10
184.0536166454586
 20
123.8738145292271
 30
0.0
 11
184.0255383865553
 21
123.8633473311271
 31
0.0
  0
LINE
  5
15F
330
E3
100
AcDbEntity
  8
0
  6
Continuous
100
AcDbLine
 10
184.0255383865553
 20
123.8633473311271
 30
0.0
 11
183.9948096835616
 21
123.8524091091125
 31
0.0
  0
LINE
  5
160
330
E3
100
AcDbEntity
  8
0
  6
Continuous
100
AcDbLine
 10
183.9948096835616
 20
123.8524091091125
 30
0.0
 11
183.9616735250048
 21
123.8410484608889
 31
0.0
  0
LINE
  5
161
330
E3
100
AcDbEntity
  8
0
  6
Continuous
100
AcDbLine
 10
183.9616735250048
 20
123.8410484608889
 30
0.0
 11
183.9263878525526
 21
123.8293065075917
 31
0.0
  0
LINE
  5
162
330
E3
100
AcDbEntity
  8
0
  6
Continuous
100
AcDbLine
 10
183.9263878525526
 20
123.8293065075917
 30
0.0
 11
183.8892292992974
 21
123.8172355852113
 31
0.0
  0
LINE
  5
163
330
E3
100
AcDbEntity
  8
0
  6
Continuous
100
AcDbLine
 10
183.8892292992974
 20
123.8172355852113
 30
0.0
 11
183.8504857131871
 21
123.8048880297383
 31
0.0
  0
LINE
  5
164
330
E3
100
AcDbEntity
  8
0
  6
Continuous
100
AcDbLine
 10
183.8504857131871
 20
123.8048880297383
 30
0.0
 11
183.8104636335946
 21
123.7923124388781
 31
0.0
  0
LINE
  5
165
330
E3
100
AcDbEntity
  8
0
  6
Continuous
100
AcDbLine
 10
183.8104636335946
 20
123.7923124388781
 30
0.0
 11
183.7694658616077
 21
123.7795648869063
 31
0.0
  0
LINE
  5
166
330
E3
100
AcDbEntity
  8
0
  6
Continuous
100
AcDbLine
 10
183.7694658616077
 20
123.7795648869063
 30
0.0
 11
183.7278213663097
 21
123.7667014480983
 31
0.0
  0
LINE
  5
167
330
E3
100
AcDbEntity
  8
0
  6
Continuous
100
AcDbLine
 10
183.7278213663097
 20
123.7667014480983
 30
0.0
 11
183.6858479019285
 21
123.7537819350148
 31
0.0
  0
LINE
  5
168
330
E3
100
AcDbEntity
  8
0
  6
Continuous
100
AcDbLine
 10
183.6858479019285
 20
123.7537819350148
 30
0.0
 11
183.6438781758323
 21
123.7408624219313
 31
0.0
  0
LINE
  5
169
330
E3
100
AcDbEntity
  8
0
  6
Continuous
100
AcDbLine
 10
183.6438781758323
 20
123.7408624219313
 30
0.0
 11
183.6022336805343
 21
123.7280027214084
 31
0.0
  0
LINE
  5
16A
330
E3
100
AcDbEntity
  8
0
  6
Continuous
100
AcDbLine
 10
183.6022336805343
 20
123.7280027214084
 30
0.0
 11
183.5612359085474
 21
123.7152551694366
 31
0.0
  0
LINE
  5
16B
330
E3
100
AcDbEntity
  8
0
  6
Continuous
100
AcDbLine
 10
183.5612359085474
 20
123.7152551694366
 30
0.0
 11
183.5212138289549
 21
123.7026795785764
 31
0.0
  0
LINE
  5
16C
330
E3
100
AcDbEntity
  8
0
  6
Continuous
100
AcDbLine
 10
183.5212138289549
 20
123.7026795785764
 30
0.0
 11
183.4824702428446
 21
123.6903282848183
 31
0.0
  0
LINE
  5
16D
330
E3
100
AcDbEntity
  8
0
  6
Continuous
100
AcDbLine
 10
183.4824702428446
 20
123.6903282848183
 30
0.0
 11
183.4453116895894
 21
123.678257362438
 31
0.0
  0
LINE
  5
16E
330
E3
100
AcDbEntity
  8
0
  6
Continuous
100
AcDbLine
 10
183.4453116895894
 20
123.678257362438
 30
0.0
 11
183.4100260171372
 21
123.6665154091407
 31
0.0
  0
LINE
  5
16F
330
E3
100
AcDbEntity
  8
0
  6
Continuous
100
AcDbLine
 10
183.4100260171372
 20
123.6665154091407
 30
0.0
 11
183.3768898585804
 21
123.6551547609171
 31
0.0
  0
LINE
  5
170
330
E3
100
AcDbEntity
  8
0
  6
Continuous
100
AcDbLine
 10
183.3768898585804
 20
123.6551547609171
 30
0.0
 11
183.3461611555867
 21
123.6442202771876
 31
0.0
  0
LINE
  5
171
330
E3
100
AcDbEntity
  8
0
  6
Continuous
100
AcDbLine
 10
183.3461611555867
 20
123.6442202771876
 30
0.0
 11
183.3180828966834
 21
123.6337493408025
 31
0.0
  0
LINE
  5
172
330
E3
100
AcDbEntity
  8
0
  6
Continuous
100
AcDbLine
 10
183.3180828966834
 20
123.6337493408025
 30
0.0
 11
183.2928756406874
 21
123.6237868111823
 31
0.0
  0
LINE
  5
173
330
E3
100
AcDbEntity
  8
0
  6
Continuous
100
AcDbLine
 10
183.2928756406874
 20
123.6237868111823
 30
0.0
 11
183.2707412549909
 21
123.6143625946072
 31
0.0
  0
LINE
  5
174
330
E3
100
AcDbEntity
  8
0
  6
Continuous
100
AcDbLine
 10
183.2707412549909
 20
123.6143625946072
 30
0.0
 11
183.2518479624203
 21
123.6055140739277
 31
0.0
  0
LINE
  5
175
330
E3
100
AcDbEntity
  8
0
  6
Continuous
100
AcDbLine
 10
183.2518479624203
 20
123.6055140739277
 30
0.0
 11
183.2363527709472
 21
123.5972636788538
 31
0.0
  0
LINE
  5
176
330
E3
100
AcDbEntity
  8
0
  6
Continuous
100
AcDbLine
 10
183.2363527709472
 20
123.5972636788538
 30
0.0
 11
183.2243790439777
 21
123.5896338390959
 31
0.0
  0
LINE
  5
177
330
E3
100
AcDbEntity
  8
0
  6
Continuous
100
AcDbLine
 10
183.2243790439777
 20
123.5896338390959
 30
0.0
 11
183.2160277152079
 21
123.5826432460791
 31
0.0
  0
LINE
  5
178
330
E3
100
AcDbEntity
  8
0
  6
Continuous
100
AcDbLine
 10
183.2160277152079
 20
123.5826432460791
 30
0.0
 11
183.2113631870652
 21
123.5763009840151
 31
0.0
  0
LINE
  5
179
330
E3
100
AcDbEntity
  8
0
  6
Continuous
100
AcDbLine
 10
183.2113631870652
 20
123.5763009840151
 30
0.0
 11
183.2104331817503
 21
123.5706183760952
 31
0.0
  0
LINE
  5
17A
330
E3
100
AcDbEntity
  8
0
  6
Continuous
100
AcDbLine
 10
184.2292155782191
 20
123.5515867759989
 30
0.0
 11
184.2282855729042
 21
123.545904168079
 31
0.0
  0
LINE
  5
17B
330
E3
100
AcDbEntity
  8
0
  6
Continuous
100
AcDbLine
 10
184.2282855729042
 20
123.545904168079
 30
0.0
 11
184.2236223371015
 21
123.5395632908989
 31
0.0
  0
LINE
  5
17C
330
E3
100
AcDbEntity
  8
0
  6
Continuous
100
AcDbLine
 10
184.2236223371015
 20
123.5395632908989
 30
0.0
 11
184.2152675669737
 21
123.5325726563105
 31
0.0
  0
LINE
  5
17D
330
E3
100
AcDbEntity
  8
0
  6
Continuous
100
AcDbLine
 10
184.2152675669737
 20
123.5325726563105
 30
0.0
 11
184.2032938400042
 21
123.5249428165526
 31
0.0
  0
LINE
  5
17E
330
E3
100
AcDbEntity
  8
0
  6
Continuous
100
AcDbLine
 10
184.2032938400042
 20
123.5249428165526
 30
0.0
 11
184.1877986485312
 21
123.5166924214787
 31
0.0
  0
LINE
  5
17F
330
E3
100
AcDbEntity
  8
0
  6
Continuous
100
AcDbLine
 10
184.1877986485312
 20
123.5166924214787
 30
0.0
 11
184.1689090942456
 21
123.5078401625141
 31
0.0
  0
LINE
  5
180
330
E3
100
AcDbEntity
  8
0
  6
Continuous
100
AcDbLine
 10
184.1689090942456
 20
123.5078401625141
 30
0.0
 11
184.146770970264
 21
123.498419684224
 31
0.0
  0
LINE
  5
181
330
E3
100
AcDbEntity
  8
0
  6
Continuous
100
AcDbLine
 10
184.146770970264
 20
123.498419684224
 30
0.0
 11
184.1215637142681
 21
123.4884571546038
 31
0.0
  0
LINE
  5
182
330
E3
100
AcDbEntity
  8
0
  6
Continuous
100
AcDbLine
 10
184.1215637142681
 20
123.4884571546038
 30
0.0
 11
184.0934891936497
 21
123.4779862182187
 31
0.0
  0
LINE
  5
183
330
E3
100
AcDbEntity
  8
0
  6
Continuous
100
AcDbLine
 10
184.0934891936497
 20
123.4779862182187
 30
0.0
 11
184.062760490656
 21
123.4670517344892
 31
0.0
  0
LINE
  5
184
330
E3
100
AcDbEntity
  8
0
  6
Continuous
100
AcDbLine
 10
184.062760490656
 20
123.4670517344892
 30
0.0
 11
184.0296243320993
 21
123.4556873479806
 31
0.0
  0
LINE
  5
185
330
E3
100
AcDbEntity
  8
0
  6
Continuous
100
AcDbLine
 10
184.0296243320993
 20
123.4556873479806
 30
0.0
 11
183.9943386596471
 21
123.4439491329684
 31
0.0
  0
LINE
  5
186
330
E3
100
AcDbEntity
  8
0
  6
Continuous
100
AcDbLine
 10
183.9943386596471
 20
123.4439491329684
 30
0.0
 11
183.9571801063919
 21
123.431878210588
 31
0.0
  0
LINE
  5
187
330
E3
100
AcDbEntity
  8
0
  6
Continuous
100
AcDbLine
 10
183.9571801063919
 20
123.431878210588
 30
0.0
 11
183.9184365202815
 21
123.41952691683
 31
0.0
  0
LINE
  5
188
330
E3
100
AcDbEntity
  8
0
  6
Continuous
100
AcDbLine
 10
183.9184365202815
 20
123.41952691683
 30
0.0
 11
183.878410702404
 21
123.4069513259698
 31
0.0
  0
LINE
  5
189
330
E3
100
AcDbEntity
  8
0
  6
Continuous
100
AcDbLine
 10
183.878410702404
 20
123.4069513259698
 30
0.0
 11
183.8374166687022
 21
123.3942037739979
 31
0.0
  0
LINE
  5
18A
330
E3
100
AcDbEntity
  8
0
  6
Continuous
100
AcDbLine
 10
183.8374166687022
 20
123.3942037739979
 30
0.0
 11
183.7957721734041
 21
123.381344073475
 31
0.0
  0
LINE
  5
18B
330
E3
100
AcDbEntity
  8
0
  6
Continuous
100
AcDbLine
 10
183.7957721734041
 20
123.381344073475
 30
0.0
 11
183.753798709023
 21
123.3684245603916
 31
0.0
  0
LINE
  5
18C
330
E3
100
AcDbEntity
  8
0
  6
Continuous
100
AcDbLine
 10
183.753798709023
 20
123.3684245603916
 30
0.0
 11
183.7118252446417
 21
123.3555050473081
 31
0.0
  0
LINE
  5
18D
330
E3
100
AcDbEntity
  8
0
  6
Continuous
100
AcDbLine
 10
183.7118252446417
 20
123.3555050473081
 30
0.0
 11
183.6701807493437
 21
123.3426416085001
 31
0.0
  0
LINE
  5
18E
330
E3
100
AcDbEntity
  8
0
  6
Continuous
100
AcDbLine
 10
183.6701807493437
 20
123.3426416085001
 30
0.0
 11
183.6291867156419
 21
123.3298940565283
 31
0.0
  0
LINE
  5
18F
330
E3
100
AcDbEntity
  8
0
  6
Continuous
100
AcDbLine
 10
183.6291867156419
 20
123.3298940565283
 30
0.0
 11
183.5891608977643
 21
123.3173184656681
 31
0.0
  0
LINE
  5
190
330
E3
100
AcDbEntity
  8
0
  6
Continuous
100
AcDbLine
 10
183.5891608977643
 20
123.3173184656681
 30
0.0
 11
183.550417311654
 21
123.30496717191
 31
0.0
  0
LINE
  5
191
330
E3
100
AcDbEntity
  8
0
  6
Continuous
100
AcDbLine
 10
183.550417311654
 20
123.30496717191
 30
0.0
 11
183.5132587583988
 21
123.2928962495296
 31
0.0
  0
LINE
  5
192
330
E3
100
AcDbEntity
  8
0
  6
Continuous
100
AcDbLine
 10
183.5132587583988
 20
123.2928962495296
 30
0.0
 11
183.4779730859466
 21
123.2811580345174
 31
0.0
  0
LINE
  5
193
330
E3
100
AcDbEntity
  8
0
  6
Continuous
100
AcDbLine
 10
183.4779730859466
 20
123.2811580345174
 30
0.0
 11
183.4448369273899
 21
123.2697973862939
 31
0.0
  0
LINE
  5
194
330
E3
100
AcDbEntity
  8
0
  6
Continuous
100
AcDbLine
 10
183.4448369273899
 20
123.2697973862939
 30
0.0
 11
183.4141119626812
 21
123.2588591642793
 31
0.0
  0
LINE
  5
195
330
E3
100
AcDbEntity
  8
0
  6
Continuous
100
AcDbLine
 10
183.4141119626812
 20
123.2588591642793
 30
0.0
 11
183.3860337037779
 21
123.2483882278942
 31
0.0
  0
LINE
  5
196
330
E3
100
AcDbEntity
  8
0
  6
Continuous
100
AcDbLine
 10
183.3860337037779
 20
123.2483882278942
 30
0.0
 11
183.3608264477819
 21
123.238425698274
 31
0.0
  0
LINE
  5
197
330
E3
100
AcDbEntity
  8
0
  6
Continuous
100
AcDbLine
 10
183.3608264477819
 20
123.238425698274
 30
0.0
 11
183.3386883238003
 21
123.229005219984
 31
0.0
  0
LINE
  5
198
330
E3
100
AcDbEntity
  8
0
  6
Continuous
100
AcDbLine
 10
183.3386883238003
 20
123.229005219984
 30
0.0
 11
183.3197987695148
 21
123.2201529610194
 31
0.0
  0
LINE
  5
199
330
E3
100
AcDbEntity
  8
0
  6
Continuous
100
AcDbLine
 10
183.3197987695148
 20
123.2201529610194
 30
0.0
 11
183.3043035780416
 21
123.2119025659455
 31
0.0
  0
LINE
  5
19A
330
E3
100
AcDbEntity
  8
0
  6
Continuous
100
AcDbLine
 10
183.3043035780416
 20
123.2119025659455
 30
0.0
 11
183.2923298510722
 21
123.2042727261876
 31
0.0
  0
LINE
  5
19B
330
E3
100
AcDbEntity
  8
0
  6
Continuous
100
AcDbLine
 10
183.2923298510722
 20
123.2042727261876
 30
0.0
 11
183.2839747840173
 21
123.1972821331708
 31
0.0
  0
LINE
  5
19C
330
E3
100
AcDbEntity
  8
0
  6
Continuous
100
AcDbLine
 10
183.2839747840173
 20
123.1972821331708
 30
0.0
 11
183.2793124739783
 21
123.1909414284886
 31
0.0
  0
LINE
  5
19D
330
E3
100
AcDbEntity
  8
0
  6
Continuous
100
AcDbLine
 10
183.2793124739783
 20
123.1909414284886
 30
0.0
 11
183.2783824686635
 21
123.1852588205687
 31
0.0
  0
LINE
  5
19E
330
E3
100
AcDbEntity
  8
0
  6
Continuous
100
AcDbLine
 10
184.2971648651323
 20
123.1662272204724
 30
0.0
 11
184.2962348598174
 21
123.1605446125525
 31
0.0
  0
LINE
  5
19F
330
E3
100
AcDbEntity
  8
0
  6
Continuous
100
AcDbLine
 10
184.2962348598174
 20
123.1605446125525
 30
0.0
 11
184.2915716240147
 21
123.1542037353724
 31
0.0
  0
LINE
  5
1A0
330
E3
100
AcDbEntity
  8
0
  6
Continuous
100
AcDbLine
 10
184.2915716240147
 20
123.1542037353724
 30
0.0
 11
184.2832183740682
 21
123.1472115434022
 31
0.0
  0
LINE
  5
1A1
330
E3
100
AcDbEntity
  8
0
  6
Continuous
100
AcDbLine
 10
184.2832183740682
 20
123.1472115434022
 30
0.0
 11
184.2712446470987
 21
123.1395817036443
 31
0.0
  0
LINE
  5
1A2
330
E3
100
AcDbEntity
  8
0
  6
Continuous
100
AcDbLine
 10
184.2712446470987
 20
123.1395817036443
 30
0.0
 11
184.2557494556256
 21
123.1313313085704
 31
0.0
  0
LINE
  5
1A3
330
E3
100
AcDbEntity
  8
0
  6
Continuous
100
AcDbLine
 10
184.2557494556256
 20
123.1313313085704
 30
0.0
 11
184.2368561630551
 21
123.1224827878908
 31
0.0
  0
LINE
  5
1A4
330
E3
100
AcDbEntity
  8
0
  6
Continuous
100
AcDbLine
 10
184.2368561630551
 20
123.1224827878908
 30
0.0
 11
184.2147217773585
 21
123.1130585713157
 31
0.0
  0
LINE
  5
1A5
330
E3
100
AcDbEntity
  8
0
  6
Continuous
100
AcDbLine
 10
184.2147217773585
 20
123.1130585713157
 30
0.0
 11
184.1895145213626
 21
123.1030960416955
 31
0.0
  0
LINE
  5
1A6
330
E3
100
AcDbEntity
  8
0
  6
Continuous
100
AcDbLine
 10
184.1895145213626
 20
123.1030960416955
 30
0.0
 11
184.1614362624592
 21
123.0926288435955
 31
0.0
  0
LINE
  5
1A7
330
E3
100
AcDbEntity
  8
0
  6
Continuous
100
AcDbLine
 10
184.1614362624592
 20
123.0926288435955
 30
0.0
 11
184.1307112977505
 21
123.0816906215809
 31
0.0
  0
LINE
  5
1A8
330
E3
100
AcDbEntity
  8
0
  6
Continuous
100
AcDbLine
 10
184.1307112977505
 20
123.0816906215809
 30
0.0
 11
184.0975751391938
 21
123.0703299733573
 31
0.0
  0
LINE
  5
1A9
330
E3
100
AcDbEntity
  8
0
  6
Continuous
100
AcDbLine
 10
184.0975751391938
 20
123.0703299733573
 30
0.0
 11
184.0622894667415
 21
123.0585880200601
 31
0.0
  0
LINE
  5
1AA
330
E3
100
AcDbEntity
  8
0
  6
Continuous
100
AcDbLine
 10
184.0622894667415
 20
123.0585880200601
 30
0.0
 11
184.0251271752013
 21
123.0465170976798
 31
0.0
  0
LINE
  5
1AB
330
E3
100
AcDbEntity
  8
0
  6
Continuous
100
AcDbLine
 10
184.0251271752013
 20
123.0465170976798
 30
0.0
 11
183.986383589091
 21
123.0341695422067
 31
0.0
  0
LINE
  5
1AC
330
E3
100
AcDbEntity
  8
0
  6
Continuous
100
AcDbLine
 10
183.986383589091
 20
123.0341695422067
 30
0.0
 11
183.9463615094985
 21
123.0215902130615
 31
0.0
  0
LINE
  5
1AD
330
E3
100
AcDbEntity
  8
0
  6
Continuous
100
AcDbLine
 10
183.9463615094985
 20
123.0215902130615
 30
0.0
 11
183.9053674757967
 21
123.0088426610896
 31
0.0
  0
LINE
  5
1AE
330
E3
100
AcDbEntity
  8
0
  6
Continuous
100
AcDbLine
 10
183.9053674757967
 20
123.0088426610896
 30
0.0
 11
183.8637192422136
 21
122.9959829605667
 31
0.0
  0
LINE
  5
1AF
330
E3
100
AcDbEntity
  8
0
  6
Continuous
100
AcDbLine
 10
183.8637192422136
 20
122.9959829605667
 30
0.0
 11
183.8217495161174
 21
122.9830634474832
 31
0.0
  0
LINE
  5
1B0
330
E3
100
AcDbEntity
  8
0
  6
Continuous
100
AcDbLine
 10
183.8217495161174
 20
122.9830634474832
 30
0.0
 11
183.7797760517363
 21
122.9701439343998
 31
0.0
  0
LINE
  5
1B1
330
E3
100
AcDbEntity
  8
0
  6
Continuous
100
AcDbLine
 10
183.7797760517363
 20
122.9701439343998
 30
0.0
 11
183.7381315564382
 21
122.9572804955918
 31
0.0
  0
LINE
  5
1B2
330
E3
100
AcDbEntity
  8
0
  6
Continuous
100
AcDbLine
 10
183.7381315564382
 20
122.9572804955918
 30
0.0
 11
183.6971375227364
 21
122.944536681905
 31
0.0
  0
LINE
  5
1B3
330
E3
100
AcDbEntity
  8
0
  6
Continuous
100
AcDbLine
 10
183.6971375227364
 20
122.944536681905
 30
0.0
 11
183.6571117048588
 21
122.9319573527598
 31
0.0
  0
LINE
  5
1B4
330
E3
100
AcDbEntity
  8
0
  6
Continuous
100
AcDbLine
 10
183.6571117048588
 20
122.9319573527598
 30
0.0
 11
183.6183681187485
 21
122.9196097972868
 31
0.0
  0
LINE
  5
1B5
330
E3
100
AcDbEntity
  8
0
  6
Continuous
100
AcDbLine
 10
183.6183681187485
 20
122.9196097972868
 30
0.0
 11
183.5812095654933
 21
122.9075388749064
 31
0.0
  0
LINE
  5
1B6
330
E3
100
AcDbEntity
  8
0
  6
Continuous
100
AcDbLine
 10
183.5812095654933
 20
122.9075388749064
 30
0.0
 11
183.5459238930411
 21
122.8957969216091
 31
0.0
  0
LINE
  5
1B7
330
E3
100
AcDbEntity
  8
0
  6
Continuous
100
AcDbLine
 10
183.5459238930411
 20
122.8957969216091
 30
0.0
 11
183.5127877344844
 21
122.8844362733856
 31
0.0
  0
LINE
  5
1B8
330
E3
100
AcDbEntity
  8
0
  6
Continuous
100
AcDbLine
 10
183.5127877344844
 20
122.8844362733856
 30
0.0
 11
183.4820590314906
 21
122.873498051371
 31
0.0
  0
LINE
  5
1B9
330
E3
100
AcDbEntity
  8
0
  6
Continuous
100
AcDbLine
 10
183.4820590314906
 20
122.873498051371
 30
0.0
 11
183.4539807725873
 21
122.863030853271
 31
0.0
  0
LINE
  5
1BA
330
E3
100
AcDbEntity
  8
0
  6
Continuous
100
AcDbLine
 10
183.4539807725873
 20
122.863030853271
 30
0.0
 11
183.4287772548764
 21
122.8530683236507
 31
0.0
  0
LINE
  5
1BB
330
E3
100
AcDbEntity
  8
0
  6
Continuous
100
AcDbLine
 10
183.4287772548764
 20
122.8530683236507
 30
0.0
 11
183.4066391308948
 21
122.8436441070757
 31
0.0
  0
LINE
  5
1BC
330
E3
100
AcDbEntity
  8
0
  6
Continuous
100
AcDbLine
 10
183.4066391308948
 20
122.8436441070757
 30
0.0
 11
183.3877458383242
 21
122.8347955863961
 31
0.0
  0
LINE
  5
1BD
330
E3
100
AcDbEntity
  8
0
  6
Continuous
100
AcDbLine
 10
183.3877458383242
 20
122.8347955863961
 30
0.0
 11
183.3722506468511
 21
122.8265451913222
 31
0.0
  0
LINE
  5
1BE
330
E3
100
AcDbEntity
  8
0
  6
Continuous
100
AcDbLine
 10
183.3722506468511
 20
122.8265451913222
 30
0.0
 11
183.3602806581667
 21
122.8189153515643
 31
0.0
  0
LINE
  5
1BF
330
E3
100
AcDbEntity
  8
0
  6
Continuous
100
AcDbLine
 10
183.3602806581667
 20
122.8189153515643
 30
0.0
 11
183.3519255911119
 21
122.8119210202624
 31
0.0
  0
LINE
  5
1C0
330
E3
100
AcDbEntity
  8
0
  6
Continuous
100
AcDbLine
 10
183.3519255911119
 20
122.8119210202624
 30
0.0
 11
183.3472617608915
 21
122.8055818729621
 31
0.0
  0
LINE
  5
1C1
330
E3
100
AcDbEntity
  8
0
  6
Continuous
100
AcDbLine
 10
183.3472617608915
 20
122.8055818729621
 30
0.0
 11
183.3463317555766
 21
122.7998992650422
 31
0.0
  0
LINE
  5
1C2
330
E3
100
AcDbEntity
  8
0
  6
Continuous
100
AcDbLine
 10
184.3651141520454
 20
122.7808676649459
 30
0.0
 11
184.3641841467305
 21
122.775185057026
 31
0.0
  0
LINE
  5
1C3
330
E3
100
AcDbEntity
  8
0
  6
Continuous
100
AcDbLine
 10
184.3641841467305
 20
122.775185057026
 30
0.0
 11
184.3595209109278
 21
122.7688441798459
 31
0.0
  0
LINE
  5
1C4
330
E3
100
AcDbEntity
  8
0
  6
Continuous
100
AcDbLine
 10
184.3595209109278
 20
122.7688441798459
 30
0.0
 11
184.3511654428776
 21
122.7618541687789
 31
0.0
  0
LINE
  5
1C5
330
E3
100
AcDbEntity
  8
0
  6
Continuous
100
AcDbLine
 10
184.3511654428776
 20
122.7618541687789
 30
0.0
 11
184.3391917159082
 21
122.754224329021
 31
0.0
  0
LINE
  5
1C6
330
E3
100
AcDbEntity
  8
0
  6
Continuous
100
AcDbLine
 10
184.3391917159082
 20
122.754224329021
 30
0.0
 11
184.3237002627201
 21
122.7459701956621
 31
0.0
  0
LINE
  5
1C7
330
E3
100
AcDbEntity
  8
0
  6
Continuous
100
AcDbLine
 10
184.3237002627201
 20
122.7459701956621
 30
0.0
 11
184.3048069701495
 21
122.7371216749825
 31
0.0
  0
LINE
  5
1C8
330
E3
100
AcDbEntity
  8
0
  6
Continuous
100
AcDbLine
 10
184.3048069701495
 20
122.7371216749825
 30
0.0
 11
184.2826688461679
 21
122.7277011966925
 31
0.0
  0
LINE
  5
1C9
330
E3
100
AcDbEntity
  8
0
  6
Continuous
100
AcDbLine
 10
184.2826688461679
 20
122.7277011966925
 30
0.0
 11
184.257461590172
 21
122.7177386670723
 31
0.0
  0
LINE
  5
1CA
330
E3
100
AcDbEntity
  8
0
  6
Continuous
100
AcDbLine
 10
184.257461590172
 20
122.7177386670723
 30
0.0
 11
184.2293870695536
 21
122.7072677306872
 31
0.0
  0
LINE
  5
1CB
330
E3
100
AcDbEntity
  8
0
  6
Continuous
100
AcDbLine
 10
184.2293870695536
 20
122.7072677306872
 30
0.0
 11
184.1986583665599
 21
122.6963295086726
 31
0.0
  0
LINE
  5
1CC
330
E3
100
AcDbEntity
  8
0
  6
Continuous
100
AcDbLine
 10
184.1986583665599
 20
122.6963295086726
 30
0.0
 11
184.1655222080032
 21
122.684968860449
 31
0.0
  0
LINE
  5
1CD
330
E3
100
AcDbEntity
  8
0
  6
Continuous
100
AcDbLine
 10
184.1655222080032
 20
122.684968860449
 30
0.0
 11
184.130236535551
 21
122.6732306454368
 31
0.0
  0
LINE
  5
1CE
330
E3
100
AcDbEntity
  8
0
  6
Continuous
100
AcDbLine
 10
184.130236535551
 20
122.6732306454368
 30
0.0
 11
184.0930779822958
 21
122.6611597230565
 31
0.0
  0
LINE
  5
1CF
330
E3
100
AcDbEntity
  8
0
  6
Continuous
100
AcDbLine
 10
184.0930779822958
 20
122.6611597230565
 30
0.0
 11
184.0543343961855
 21
122.6488084292984
 31
0.0
  0
LINE
  5
1D0
330
E3
100
AcDbEntity
  8
0
  6
Continuous
100
AcDbLine
 10
184.0543343961855
 20
122.6488084292984
 30
0.0
 11
184.0143085783079
 21
122.6362328384382
 31
0.0
  0
LINE
  5
1D1
330
E3
100
AcDbEntity
  8
0
  6
Continuous
100
AcDbLine
 10
184.0143085783079
 20
122.6362328384382
 30
0.0
 11
183.9733145446061
 21
122.6234852864664
 31
0.0
  0
LINE
  5
1D2
330
E3
100
AcDbEntity
  8
0
  6
Continuous
100
AcDbLine
 10
183.9733145446061
 20
122.6234852864664
 30
0.0
 11
183.9316700493081
 21
122.6106218476584
 31
0.0
  0
LINE
  5
1D3
330
E3
100
AcDbEntity
  8
0
  6
Continuous
100
AcDbLine
 10
183.9316700493081
 20
122.6106218476584
 30
0.0
 11
183.8896965849269
 21
122.5977023345749
 31
0.0
  0
LINE
  5
1D4
330
E3
100
AcDbEntity
  8
0
  6
Continuous
100
AcDbLine
 10
183.8896965849269
 20
122.5977023345749
 30
0.0
 11
183.8477268588307
 21
122.5847828214915
 31
0.0
  0
LINE
  5
1D5
330
E3
100
AcDbEntity
  8
0
  6
Continuous
100
AcDbLine
 10
183.8477268588307
 20
122.5847828214915
 30
0.0
 11
183.8060786252476
 21
122.5719231209685
 31
0.0
  0
LINE
  5
1D6
330
E3
100
AcDbEntity
  8
0
  6
Continuous
100
AcDbLine
 10
183.8060786252476
 20
122.5719231209685
 30
0.0
 11
183.7650845915458
 21
122.5591755689967
 31
0.0
  0
LINE
  5
1D7
330
E3
100
AcDbEntity
  8
0
  6
Continuous
100
AcDbLine
 10
183.7650845915458
 20
122.5591755689967
 30
0.0
 11
183.7250587736683
 21
122.5465999781365
 31
0.0
  0
LINE
  5
1D8
330
E3
100
AcDbEntity
  8
0
  6
Continuous
100
AcDbLine
 10
183.7250587736683
 20
122.5465999781365
 30
0.0
 11
183.686318925843
 21
122.5342486843785
 31
0.0
  0
LINE
  5
1D9
330
E3
100
AcDbEntity
  8
0
  6
Continuous
100
AcDbLine
 10
183.686318925843
 20
122.5342486843785
 30
0.0
 11
183.6491566343028
 21
122.5221777619981
 31
0.0
  0
LINE
  5
1DA
330
E3
100
AcDbEntity
  8
0
  6
Continuous
100
AcDbLine
 10
183.6491566343028
 20
122.5221777619981
 30
0.0
 11
183.6138709618505
 21
122.5104395469859
 31
0.0
  0
LINE
  5
1DB
330
E3
100
AcDbEntity
  8
0
  6
Continuous
100
AcDbLine
 10
183.6138709618505
 20
122.5104395469859
 30
0.0
 11
183.5807348032938
 21
122.4990751604773
 31
0.0
  0
LINE
  5
1DC
330
E3
100
AcDbEntity
  8
0
  6
Continuous
100
AcDbLine
 10
183.5807348032938
 20
122.4990751604773
 30
0.0
 11
183.5500098385851
 21
122.4881406767477
 31
0.0
  0
LINE
  5
1DD
330
E3
100
AcDbEntity
  8
0
  6
Continuous
100
AcDbLine
 10
183.5500098385851
 20
122.4881406767477
 30
0.0
 11
183.5219315796817
 21
122.4776697403627
 31
0.0
  0
LINE
  5
1DE
330
E3
100
AcDbEntity
  8
0
  6
Continuous
100
AcDbLine
 10
183.5219315796817
 20
122.4776697403627
 30
0.0
 11
183.4967243236858
 21
122.4677072107424
 31
0.0
  0
LINE
  5
1DF
330
E3
100
AcDbEntity
  8
0
  6
Continuous
100
AcDbLine
 10
183.4967243236858
 20
122.4677072107424
 30
0.0
 11
183.4745899379893
 21
122.4582867324524
 31
0.0
  0
LINE
  5
1E0
330
E3
100
AcDbEntity
  8
0
  6
Continuous
100
AcDbLine
 10
183.4745899379893
 20
122.4582867324524
 30
0.0
 11
183.4556966454187
 21
122.4494344734878
 31
0.0
  0
LINE
  5
1E1
330
E3
100
AcDbEntity
  8
0
  6
Continuous
100
AcDbLine
 10
183.4556966454187
 20
122.4494344734878
 30
0.0
 11
183.4402014539456
 21
122.4411840784139
 31
0.0
  0
LINE
  5
1E2
330
E3
100
AcDbEntity
  8
0
  6
Continuous
100
AcDbLine
 10
183.4402014539456
 20
122.4411840784139
 30
0.0
 11
183.4282277269761
 21
122.433554238656
 31
0.0
  0
LINE
  5
1E3
330
E3
100
AcDbEntity
  8
0
  6
Continuous
100
AcDbLine
 10
183.4282277269761
 20
122.433554238656
 30
0.0
 11
183.4198726599213
 21
122.4265636456392
 31
0.0
  0
LINE
  5
1E4
330
E3
100
AcDbEntity
  8
0
  6
Continuous
100
AcDbLine
 10
183.4198726599213
 20
122.4265636456392
 30
0.0
 11
183.4152110478046
 21
122.4202223174356
 31
0.0
  0
LINE
  5
1E5
330
E3
100
AcDbEntity
  8
0
  6
Continuous
100
AcDbLine
 10
183.4152110478046
 20
122.4202223174356
 30
0.0
 11
183.4142810424897
 21
122.4145397095157
 31
0.0
  0
LINE
  5
1E6
330
E3
100
AcDbEntity
  8
0
  6
Continuous
100
AcDbLine
 10
184.4330634389586
 20
122.3955081094194
 30
0.0
 11
184.4321334336437
 21
122.3898255014995
 31
0.0
  0
LINE
  5
1E7
330
E3
100
AcDbEntity
  8
0
  6
Continuous
100
AcDbLine
 10
184.4321334336437
 20
122.3898255014995
 30
0.0
 11
184.427470197841
 21
122.3834846243194
 31
0.0
  0
LINE
  5
1E8
330
E3
100
AcDbEntity
  8
0
  6
Continuous
100
AcDbLine
 10
184.427470197841
 20
122.3834846243194
 30
0.0
 11
184.4191162499721
 21
122.3764930558706
 31
0.0
  0
LINE
  5
1E9
330
E3
100
AcDbEntity
  8
0
  6
Continuous
100
AcDbLine
 10
184.4191162499721
 20
122.3764930558706
 30
0.0
 11
184.4071425230026
 21
122.3688632161127
 31
0.0
  0
LINE
  5
1EA
330
E3
100
AcDbEntity
  8
0
  6
Continuous
100
AcDbLine
 10
184.4071425230026
 20
122.3688632161127
 30
0.0
 11
184.3916473315296
 21
122.3606128210388
 31
0.0
  0
LINE
  5
1EB
330
E3
100
AcDbEntity
  8
0
  6
Continuous
100
AcDbLine
 10
184.3916473315296
 20
122.3606128210388
 30
0.0
 11
184.372757777244
 21
122.3517643003592
 31
0.0
  0
LINE
  5
1EC
330
E3
100
AcDbEntity
  8
0
  6
Continuous
100
AcDbLine
 10
184.372757777244
 20
122.3517643003592
 30
0.0
 11
184.3506196532624
 21
122.3423400837842
 31
0.0
  0
LINE
  5
1ED
330
E3
100
AcDbEntity
  8
0
  6
Continuous
100
AcDbLine
 10
184.3506196532624
 20
122.3423400837842
 30
0.0
 11
184.3254123972665
 21
122.332377554164
 31
0.0
  0
LINE
  5
1EE
330
E3
100
AcDbEntity
  8
0
  6
Continuous
100
AcDbLine
 10
184.3254123972665
 20
122.332377554164
 30
0.0
 11
184.2973341383631
 21
122.3219066177789
 31
0.0
  0
LINE
  5
1EF
330
E3
100
AcDbEntity
  8
0
  6
Continuous
100
AcDbLine
 10
184.2973341383631
 20
122.3219066177789
 30
0.0
 11
184.2666091736544
 21
122.3109721340494
 31
0.0
  0
LINE
  5
1F0
330
E3
100
AcDbEntity
  8
0
  6
Continuous
100
AcDbLine
 10
184.2666091736544
 20
122.3109721340494
 30
0.0
 11
184.2334730150977
 21
122.2996114858258
 31
0.0
  0
LINE
  5
1F1
330
E3
100
AcDbEntity
  8
0
  6
Continuous
100
AcDbLine
 10
184.2334730150977
 20
122.2996114858258
 30
0.0
 11
184.1981873426454
 21
122.2878695325285
 31
0.0
  0
LINE
  5
1F2
330
E3
100
AcDbEntity
  8
0
  6
Continuous
100
AcDbLine
 10
184.1981873426454
 20
122.2878695325285
 30
0.0
 11
184.1610287893903
 21
122.2757986101482
 31
0.0
  0
LINE
  5
1F3
330
E3
100
AcDbEntity
  8
0
  6
Continuous
100
AcDbLine
 10
184.1610287893903
 20
122.2757986101482
 30
0.0
 11
184.12228520328
 21
122.2634473163901
 31
0.0
  0
LINE
  5
1F4
330
E3
100
AcDbEntity
  8
0
  6
Continuous
100
AcDbLine
 10
184.12228520328
 20
122.2634473163901
 30
0.0
 11
184.0822593854024
 21
122.2508717255299
 31
0.0
  0
LINE
  5
1F5
330
E3
100
AcDbEntity
  8
0
  6
Continuous
100
AcDbLine
 10
184.0822593854024
 20
122.2508717255299
 30
0.0
 11
184.0412653517006
 21
122.2381241735581
 31
0.0
  0
LINE
  5
1F6
330
E3
100
AcDbEntity
  8
0
  6
Continuous
100
AcDbLine
 10
184.0412653517006
 20
122.2381241735581
 30
0.0
 11
183.9996171181175
 21
122.2252644730352
 31
0.0
  0
LINE
  5
1F7
330
E3
100
AcDbEntity
  8
0
  6
Continuous
100
AcDbLine
 10
183.9996171181175
 20
122.2252644730352
 30
0.0
 11
183.9576473920213
 21
122.2123449599517
 31
0.0
  0
LINE
  5
1F8
330
E3
100
AcDbEntity
  8
0
  6
Continuous
100
AcDbLine
 10
183.9576473920213
 20
122.2123449599517
 30
0.0
 11
183.9156739276402
 21
122.1994254468682
 31
0.0
  0
LINE
  5
1F9
330
E3
100
AcDbEntity
  8
0
  6
Continuous
100
AcDbLine
 10
183.9156739276402
 20
122.1994254468682
 30
0.0
 11
183.8740294323421
 21
122.1865620080602
 31
0.0
  0
LINE
  5
1FA
330
E3
100
AcDbEntity
  8
0
  6
Continuous
100
AcDbLine
 10
183.8740294323421
 20
122.1865620080602
 30
0.0
 11
183.8330353986403
 21
122.1738144560884
 31
0.0
  0
LINE
  5
1FB
330
E3
100
AcDbEntity
  8
0
  6
Continuous
100
AcDbLine
 10
183.8330353986403
 20
122.1738144560884
 30
0.0
 11
183.7930095807627
 21
122.1612388652282
 31
0.0
  0
LINE
  5
1FC
330
E3
100
AcDbEntity
  8
0
  6
Continuous
100
AcDbLine
 10
183.7930095807627
 20
122.1612388652282
 30
0.0
 11
183.7542659946524
 21
122.1488913097552
 31
0.0
  0
LINE
  5
1FD
330
E3
100
AcDbEntity
  8
0
  6
Continuous
100
AcDbLine
 10
183.7542659946524
 20
122.1488913097552
 30
0.0
 11
183.7171074413973
 21
122.1368203873748
 31
0.0
  0
LINE
  5
1FE
330
E3
100
AcDbEntity
  8
0
  6
Continuous
100
AcDbLine
 10
183.7171074413973
 20
122.1368203873748
 30
0.0
 11
183.681821768945
 21
122.1250784340776
 31
0.0
  0
LINE
  5
1FF
330
E3
100
AcDbEntity
  8
0
  6
Continuous
100
AcDbLine
 10
183.681821768945
 20
122.1250784340776
 30
0.0
 11
183.6486856103883
 21
122.113717785854
 31
0.0
  0
LINE
  5
200
330
E3
100
AcDbEntity
  8
0
  6
Continuous
100
AcDbLine
 10
183.6486856103883
 20
122.113717785854
 30
0.0
 11
183.6179569073946
 21
122.1027795638394
 31
0.0
  0
LINE
  5
201
330
E3
100
AcDbEntity
  8
0
  6
Continuous
100
AcDbLine
 10
183.6179569073946
 20
122.1027795638394
 30
0.0
 11
183.5898823867762
 21
122.0923123657394
 31
0.0
  0
LINE
  5
202
330
E3
100
AcDbEntity
  8
0
  6
Continuous
100
AcDbLine
 10
183.5898823867762
 20
122.0923123657394
 30
0.0
 11
183.5646751307803
 21
122.0823460978341
 31
0.0
  0
LINE
  5
203
330
E3
100
AcDbEntity
  8
0
  6
Continuous
100
AcDbLine
 10
183.5646751307803
 20
122.0823460978341
 30
0.0
 11
183.5425370067987
 21
122.0729256195441
 31
0.0
  0
LINE
  5
204
330
E3
100
AcDbEntity
  8
0
  6
Continuous
100
AcDbLine
 10
183.5425370067987
 20
122.0729256195441
 30
0.0
 11
183.5236474525132
 21
122.0640770988645
 31
0.0
  0
LINE
  5
205
330
E3
100
AcDbEntity
  8
0
  6
Continuous
100
AcDbLine
 10
183.5236474525132
 20
122.0640770988645
 30
0.0
 11
183.5081522610401
 21
122.0558267037907
 31
0.0
  0
LINE
  5
206
330
E3
100
AcDbEntity
  8
0
  6
Continuous
100
AcDbLine
 10
183.5081522610401
 20
122.0558267037907
 30
0.0
 11
183.4961785340706
 21
122.0481968640327
 31
0.0
  0
LINE
  5
207
330
E3
100
AcDbEntity
  8
0
  6
Continuous
100
AcDbLine
 10
183.4961785340706
 20
122.0481968640327
 30
0.0
 11
183.4878234670157
 21
122.0412025327309
 31
0.0
  0
LINE
  5
208
330
E3
100
AcDbEntity
  8
0
  6
Continuous
100
AcDbLine
 10
183.4878234670157
 20
122.0412025327309
 30
0.0
 11
183.4831603347178
 21
122.0348627619091
 31
0.0
  0
LINE
  5
209
330
E3
100
AcDbEntity
  8
0
  6
Continuous
100
AcDbLine
 10
183.4831603347178
 20
122.0348627619091
 30
0.0
 11
183.4822303294029
 21
122.0291801539892
 31
0.0
  0
LINE
  5
20A
330
E3
100
AcDbEntity
  8
0
  6
Continuous
100
AcDbLine
 10
184.5010127258717
 20
122.0101485538928
 30
0.0
 11
184.5000827205568
 21
122.004465945973
 31
0.0
  0
LINE
  5
20B
330
E3
100
AcDbEntity
  8
0
  6
Continuous
100
AcDbLine
 10
184.5000827205568
 20
122.004465945973
 30
0.0
 11
184.4954194847541
 21
121.9981250687929
 31
0.0
  0
LINE
  5
20C
330
E3
100
AcDbEntity
  8
0
  6
Continuous
100
AcDbLine
 10
184.4954194847541
 20
121.9981250687929
 30
0.0
 11
184.4870670570666
 21
121.9911319429623
 31
0.0
  0
LINE
  5
20D
330
E3
100
AcDbEntity
  8
0
  6
Continuous
100
AcDbLine
 10
184.4870670570666
 20
121.9911319429623
 30
0.0
 11
184.4750933300971
 21
121.9835021032044
 31
0.0
  0
LINE
  5
20E
330
E3
100
AcDbEntity
  8
0
  6
Continuous
100
AcDbLine
 10
184.4750933300971
 20
121.9835021032044
 30
0.0
 11
184.459598138624
 21
121.9752517081305
 31
0.0
  0
LINE
  5
20F
330
E3
100
AcDbEntity
  8
0
  6
Continuous
100
AcDbLine
 10
184.459598138624
 20
121.9752517081305
 30
0.0
 11
184.4407048460534
 21
121.966403187451
 31
0.0
  0
LINE
  5
210
330
E3
100
AcDbEntity
  8
0
  6
Continuous
100
AcDbLine
 10
184.4407048460534
 20
121.966403187451
 30
0.0
 11
184.4185704603569
 21
121.9569827091609
 31
0.0
  0
LINE
  5
211
330
E3
100
AcDbEntity
  8
0
  6
Continuous
100
AcDbLine
 10
184.4185704603569
 20
121.9569827091609
 30
0.0
 11
184.393363204361
 21
121.9470164412557
 31
0.0
  0
LINE
  5
212
330
E3
100
AcDbEntity
  8
0
  6
Continuous
100
AcDbLine
 10
184.393363204361
 20
121.9470164412557
 30
0.0
 11
184.3652849454576
 21
121.9365492431556
 31
0.0
  0
LINE
  5
213
330
E3
100
AcDbEntity
  8
0
  6
Continuous
100
AcDbLine
 10
184.3652849454576
 20
121.9365492431556
 30
0.0
 11
184.3345562424639
 21
121.9256110211411
 31
0.0
  0
LINE
  5
214
330
E3
100
AcDbEntity
  8
0
  6
Continuous
100
AcDbLine
 10
184.3345562424639
 20
121.9256110211411
 30
0.0
 11
184.3014200839071
 21
121.9142503729175
 31
0.0
  0
LINE
  5
215
330
E3
100
AcDbEntity
  8
0
  6
Continuous
100
AcDbLine
 10
184.3014200839071
 20
121.9142503729175
 30
0.0
 11
184.2661344114549
 21
121.9025084196202
 31
0.0
  0
LINE
  5
216
330
E3
100
AcDbEntity
  8
0
  6
Continuous
100
AcDbLine
 10
184.2661344114549
 20
121.9025084196202
 30
0.0
 11
184.2289758581997
 21
121.8904374972399
 31
0.0
  0
LINE
  5
217
330
E3
100
AcDbEntity
  8
0
  6
Continuous
100
AcDbLine
 10
184.2289758581997
 20
121.8904374972399
 30
0.0
 11
184.1902322720894
 21
121.8780899417668
 31
0.0
  0
LINE
  5
218
330
E3
100
AcDbEntity
  8
0
  6
Continuous
100
AcDbLine
 10
184.1902322720894
 20
121.8780899417668
 30
0.0
 11
184.1502101924969
 21
121.8655143509067
 31
0.0
  0
LINE
  5
219
330
E3
100
AcDbEntity
  8
0
  6
Continuous
100
AcDbLine
 10
184.1502101924969
 20
121.8655143509067
 30
0.0
 11
184.10921242051
 21
121.8527667989348
 31
0.0
  0
LINE
  5
21A
330
E3
100
AcDbEntity
  8
0
  6
Continuous
100
AcDbLine
 10
184.10921242051
 20
121.8527667989348
 30
0.0
 11
184.067567925212
 21
121.8399033601269
 31
0.0
  0
LINE
  5
21B
330
E3
100
AcDbEntity
  8
0
  6
Continuous
100
AcDbLine
 10
184.067567925212
 20
121.8399033601269
 30
0.0
 11
184.0255944608308
 21
121.8269838470434
 31
0.0
  0
LINE
  5
21C
330
E3
100
AcDbEntity
  8
0
  6
Continuous
100
AcDbLine
 10
184.0255944608308
 20
121.8269838470434
 30
0.0
 11
183.9836247347346
 21
121.8140643339599
 31
0.0
  0
LINE
  5
21D
330
E3
100
AcDbEntity
  8
0
  6
Continuous
100
AcDbLine
 10
183.9836247347346
 20
121.8140643339599
 30
0.0
 11
183.9419802394366
 21
121.801204633437
 31
0.0
  0
LINE
  5
21E
330
E3
100
AcDbEntity
  8
0
  6
Continuous
100
AcDbLine
 10
183.9419802394366
 20
121.801204633437
 30
0.0
 11
183.9009824674498
 21
121.7884570814651
 31
0.0
  0
LINE
  5
21F
330
E3
100
AcDbEntity
  8
0
  6
Continuous
100
AcDbLine
 10
183.9009824674498
 20
121.7884570814651
 30
0.0
 11
183.8609603878572
 21
121.7758814906049
 31
0.0
  0
LINE
  5
220
330
E3
100
AcDbEntity
  8
0
  6
Continuous
100
AcDbLine
 10
183.8609603878572
 20
121.7758814906049
 30
0.0
 11
183.8222168017469
 21
121.7635301968469
 31
0.0
  0
LINE
  5
221
330
E3
100
AcDbEntity
  8
0
  6
Continuous
100
AcDbLine
 10
183.8222168017469
 20
121.7635301968469
 30
0.0
 11
183.7850582484917
 21
121.7514592744665
 31
0.0
  0
LINE
  5
222
330
E3
100
AcDbEntity
  8
0
  6
Continuous
100
AcDbLine
 10
183.7850582484917
 20
121.7514592744665
 30
0.0
 11
183.7497725760395
 21
121.7397173211693
 31
0.0
  0
LINE
  5
223
330
E3
100
AcDbEntity
  8
0
  6
Continuous
100
AcDbLine
 10
183.7497725760395
 20
121.7397173211693
 30
0.0
 11
183.7166364174828
 21
121.7283566729457
 31
0.0
  0
LINE
  5
224
330
E3
100
AcDbEntity
  8
0
  6
Continuous
100
AcDbLine
 10
183.7166364174828
 20
121.7283566729457
 30
0.0
 11
183.685907714489
 21
121.7174221892162
 31
0.0
  0
LINE
  5
225
330
E3
100
AcDbEntity
  8
0
  6
Continuous
100
AcDbLine
 10
183.685907714489
 20
121.7174221892162
 30
0.0
 11
183.6578294555857
 21
121.7069512528311
 31
0.0
  0
LINE
  5
226
330
E3
100
AcDbEntity
  8
0
  6
Continuous
100
AcDbLine
 10
183.6578294555857
 20
121.7069512528311
 30
0.0
 11
183.6326221995897
 21
121.6969887232109
 31
0.0
  0
LINE
  5
227
330
E3
100
AcDbEntity
  8
0
  6
Continuous
100
AcDbLine
 10
183.6326221995897
 20
121.6969887232109
 30
0.0
 11
183.6104878138932
 21
121.6875645066358
 31
0.0
  0
LINE
  5
228
330
E3
100
AcDbEntity
  8
0
  6
Continuous
100
AcDbLine
 10
183.6104878138932
 20
121.6875645066358
 30
0.0
 11
183.5915945213226
 21
121.6787159859562
 31
0.0
  0
LINE
  5
229
330
E3
100
AcDbEntity
  8
0
  6
Continuous
100
AcDbLine
 10
183.5915945213226
 20
121.6787159859562
 30
0.0
 11
183.5760993298495
 21
121.6704655908824
 31
0.0
  0
LINE
  5
22A
330
E3
100
AcDbEntity
  8
0
  6
Continuous
100
AcDbLine
 10
183.5760993298495
 20
121.6704655908824
 30
0.0
 11
183.5641256028801
 21
121.6628357511244
 31
0.0
  0
LINE
  5
22B
330
E3
100
AcDbEntity
  8
0
  6
Continuous
100
AcDbLine
 10
183.5641256028801
 20
121.6628357511244
 30
0.0
 11
183.5557742741102
 21
121.6558451581076
 31
0.0
  0
LINE
  5
22C
330
E3
100
AcDbEntity
  8
0
  6
Continuous
100
AcDbLine
 10
183.5557742741102
 20
121.6558451581076
 30
0.0
 11
183.5511096216309
 21
121.6495032063826
 31
0.0
  0
LINE
  5
22D
330
E3
100
AcDbEntity
  8
0
  6
Continuous
100
AcDbLine
 10
183.5511096216309
 20
121.6495032063826
 30
0.0
 11
183.5501796163161
 21
121.6438205984627
 31
0.0
  0
LINE
  5
22E
330
E3
100
AcDbEntity
  8
0
  6
Continuous
100
AcDbLine
 10
184.5689620127848
 20
121.6247889983663
 30
0.0
 11
184.56803200747
 21
121.6191063904464
 31
0.0
  0
LINE
  5
22F
330
E3
100
AcDbEntity
  8
0
  6
Continuous
100
AcDbLine
 10
184.56803200747
 20
121.6191063904464
 30
0.0
 11
184.5633687716672
 21
121.6127655132663
 31
0.0
  0
LINE
  5
230
330
E3
100
AcDbEntity
  8
0
  6
Continuous
100
AcDbLine
 10
184.5633687716672
 20
121.6127655132663
 30
0.0
 11
184.555014125876
 21
121.6057745683391
 31
0.0
  0
LINE
  5
231
330
E3
100
AcDbEntity
  8
0
  6
Continuous
100
AcDbLine
 10
184.555014125876
 20
121.6057745683391
 30
0.0
 11
184.5430403989066
 21
121.5981447285811
 31
0.0
  0
LINE
  5
232
330
E3
100
AcDbEntity
  8
0
  6
Continuous
100
AcDbLine
 10
184.5430403989066
 20
121.5981447285811
 30
0.0
 11
184.5275452074335
 21
121.5898943335073
 31
0.0
  0
LINE
  5
233
330
E3
100
AcDbEntity
  8
0
  6
Continuous
100
AcDbLine
 10
184.5275452074335
 20
121.5898943335073
 30
0.0
 11
184.5086556531479
 21
121.5810420745427
 31
0.0
  0
LINE
  5
234
330
E3
100
AcDbEntity
  8
0
  6
Continuous
100
AcDbLine
 10
184.5086556531479
 20
121.5810420745427
 30
0.0
 11
184.4865175291663
 21
121.5716215962526
 31
0.0
  0
LINE
  5
235
330
E3
100
AcDbEntity
  8
0
  6
Continuous
100
AcDbLine
 10
184.4865175291663
 20
121.5716215962526
 30
0.0
 11
184.4613102731704
 21
121.5616590666324
 31
0.0
  0
LINE
  5
236
330
E3
100
AcDbEntity
  8
0
  6
Continuous
100
AcDbLine
 10
184.4613102731704
 20
121.5616590666324
 30
0.0
 11
184.433235752552
 21
121.5511881302473
 31
0.0
  0
LINE
  5
237
330
E3
100
AcDbEntity
  8
0
  6
Continuous
100
AcDbLine
 10
184.433235752552
 20
121.5511881302473
 30
0.0
 11
184.4025070495584
 21
121.5402536465178
 31
0.0
  0
LINE
  5
238
330
E3
100
AcDbEntity
  8
0
  6
Continuous
100
AcDbLine
 10
184.4025070495584
 20
121.5402536465178
 30
0.0
 11
184.3693708910016
 21
121.5288892600092
 31
0.0
  0
LINE
  5
239
330
E3
100
AcDbEntity
  8
0
  6
Continuous
100
AcDbLine
 10
184.3693708910016
 20
121.5288892600092
 30
0.0
 11
184.3340852185494
 21
121.517151044997
 31
0.0
  0
LINE
  5
23A
330
E3
100
AcDbEntity
  8
0
  6
Continuous
100
AcDbLine
 10
184.3340852185494
 20
121.517151044997
 30
0.0
 11
184.2969266652942
 21
121.5050801226166
 31
0.0
  0
LINE
  5
23B
330
E3
100
AcDbEntity
  8
0
  6
Continuous
100
AcDbLine
 10
184.2969266652942
 20
121.5050801226166
 30
0.0
 11
184.2581830791839
 21
121.4927288288585
 31
0.0
  0
LINE
  5
23C
330
E3
100
AcDbEntity
  8
0
  6
Continuous
100
AcDbLine
 10
184.2581830791839
 20
121.4927288288585
 30
0.0
 11
184.2181572613063
 21
121.4801532379984
 31
0.0
  0
LINE
  5
23D
330
E3
100
AcDbEntity
  8
0
  6
Continuous
100
AcDbLine
 10
184.2181572613063
 20
121.4801532379984
 30
0.0
 11
184.1771632276045
 21
121.4674056860265
 31
0.0
  0
LINE
  5
23E
330
E3
100
AcDbEntity
  8
0
  6
Continuous
100
AcDbLine
 10
184.1771632276045
 20
121.4674056860265
 30
0.0
 11
184.1355187323064
 21
121.4545459855036
 31
0.0
  0
LINE
  5
23F
330
E3
100
AcDbEntity
  8
0
  6
Continuous
100
AcDbLine
 10
184.1355187323064
 20
121.4545459855036
 30
0.0
 11
184.0935452679253
 21
121.4416264724201
 31
0.0
  0
LINE
  5
240
330
E3
100
AcDbEntity
  8
0
  6
Continuous
100
AcDbLine
 10
184.0935452679253
 20
121.4416264724201
 30
0.0
 11
184.051571803544
 21
121.4287069593366
 31
0.0
  0
LINE
  5
241
330
E3
100
AcDbEntity
  8
0
  6
Continuous
100
AcDbLine
 10
184.051571803544
 20
121.4287069593366
 30
0.0
 11
184.009927308246
 21
121.4158435205287
 31
0.0
  0
LINE
  5
242
330
E3
100
AcDbEntity
  8
0
  6
Continuous
100
AcDbLine
 10
184.009927308246
 20
121.4158435205287
 30
0.0
 11
183.9689332745442
 21
121.4030959685568
 31
0.0
  0
LINE
  5
243
330
E3
100
AcDbEntity
  8
0
  6
Continuous
100
AcDbLine
 10
183.9689332745442
 20
121.4030959685568
 30
0.0
 11
183.9289074566666
 21
121.3905203776966
 31
0.0
  0
LINE
  5
244
330
E3
100
AcDbEntity
  8
0
  6
Continuous
100
AcDbLine
 10
183.9289074566666
 20
121.3905203776966
 30
0.0
 11
183.8901638705563
 21
121.3781690839386
 31
0.0
  0
LINE
  5
245
330
E3
100
AcDbEntity
  8
0
  6
Continuous
100
AcDbLine
 10
183.8901638705563
 20
121.3781690839386
 30
0.0
 11
183.8530053173012
 21
121.3660981615582
 31
0.0
  0
LINE
  5
246
330
E3
100
AcDbEntity
  8
0
  6
Continuous
100
AcDbLine
 10
183.8530053173012
 20
121.3660981615582
 30
0.0
 11
183.8177196448489
 21
121.354359946546
 31
0.0
  0
LINE
  5
247
330
E3
100
AcDbEntity
  8
0
  6
Continuous
100
AcDbLine
 10
183.8177196448489
 20
121.354359946546
 30
0.0
 11
183.7845834862922
 21
121.3429992983224
 31
0.0
  0
LINE
  5
248
330
E3
100
AcDbEntity
  8
0
  6
Continuous
100
AcDbLine
 10
183.7845834862922
 20
121.3429992983224
 30
0.0
 11
183.7538585215835
 21
121.3320610763079
 31
0.0
  0
LINE
  5
249
330
E3
100
AcDbEntity
  8
0
  6
Continuous
100
AcDbLine
 10
183.7538585215835
 20
121.3320610763079
 30
0.0
 11
183.7257802626802
 21
121.3215901399228
 31
0.0
  0
LINE
  5
24A
330
E3
100
AcDbEntity
  8
0
  6
Continuous
100
AcDbLine
 10
183.7257802626802
 20
121.3215901399228
 30
0.0
 11
183.7005730066842
 21
121.3116276103026
 31
0.0
  0
LINE
  5
24B
330
E3
100
AcDbEntity
  8
0
  6
Continuous
100
AcDbLine
 10
183.7005730066842
 20
121.3116276103026
 30
0.0
 11
183.6784348827026
 21
121.3022071320125
 31
0.0
  0
LINE
  5
24C
330
E3
100
AcDbEntity
  8
0
  6
Continuous
100
AcDbLine
 10
183.6784348827026
 20
121.3022071320125
 30
0.0
 11
183.6595453284171
 21
121.293358611333
 31
0.0
  0
LINE
  5
24D
330
E3
100
AcDbEntity
  8
0
  6
Continuous
100
AcDbLine
 10
183.6595453284171
 20
121.293358611333
 30
0.0
 11
183.6440501369439
 21
121.2851044779741
 31
0.0
  0
LINE
  5
24E
330
E3
100
AcDbEntity
  8
0
  6
Continuous
100
AcDbLine
 10
183.6440501369439
 20
121.2851044779741
 30
0.0
 11
183.6320764099745
 21
121.2774746382161
 31
0.0
  0
LINE
  5
24F
330
E3
100
AcDbEntity
  8
0
  6
Continuous
100
AcDbLine
 10
183.6320764099745
 20
121.2774746382161
 30
0.0
 11
183.6237213429197
 21
121.2704840451993
 31
0.0
  0
LINE
  5
250
330
E3
100
AcDbEntity
  8
0
  6
Continuous
100
AcDbLine
 10
183.6237213429197
 20
121.2704840451993
 30
0.0
 11
183.6190589085441
 21
121.2641436508561
 31
0.0
  0
LINE
  5
251
330
E3
100
AcDbEntity
  8
0
  6
Continuous
100
AcDbLine
 10
183.6190589085441
 20
121.2641436508561
 30
0.0
 11
183.6181289032292
 21
121.2584610429361
 31
0.0
  0
LINE
  5
252
330
E3
100
AcDbEntity
  8
0
  6
Continuous
100
AcDbLine
 10
184.636911299698
 20
121.2394294428398
 30
0.0
 11
184.6359812943831
 21
121.2337468349199
 31
0.0
  0
LINE
  5
253
330
E3
100
AcDbEntity
  8
0
  6
Continuous
100
AcDbLine
 10
184.6359812943831
 20
121.2337468349199
 30
0.0
 11
184.6313180585804
 21
121.2274059577398
 31
0.0
  0
LINE
  5
254
330
E3
100
AcDbEntity
  8
0
  6
Continuous
100
AcDbLine
 10
184.6313180585804
 20
121.2274059577398
 30
0.0
 11
184.6229649329705
 21
121.2204134554307
 31
0.0
  0
LINE
  5
255
330
E3
100
AcDbEntity
  8
0
  6
Continuous
100
AcDbLine
 10
184.6229649329705
 20
121.2204134554307
 30
0.0
 11
184.610991206001
 21
121.2127836156728
 31
0.0
  0
LINE
  5
256
330
E3
100
AcDbEntity
  8
0
  6
Continuous
100
AcDbLine
 10
184.610991206001
 20
121.2127836156728
 30
0.0
 11
184.5954960145279
 21
121.204533220599
 31
0.0
  0
LINE
  5
257
330
E3
100
AcDbEntity
  8
0
  6
Continuous
100
AcDbLine
 10
184.5954960145279
 20
121.204533220599
 30
0.0
 11
184.5766027219574
 21
121.1956846999194
 31
0.0
  0
LINE
  5
258
330
E3
100
AcDbEntity
  8
0
  6
Continuous
100
AcDbLine
 10
184.5766027219574
 20
121.1956846999194
 30
0.0
 11
184.5544683362608
 21
121.1862604833443
 31
0.0
  0
LINE
  5
259
330
E3
100
AcDbEntity
  8
0
  6
Continuous
100
AcDbLine
 10
184.5544683362608
 20
121.1862604833443
 30
0.0
 11
184.5292610802649
 21
121.1762979537241
 31
0.0
  0
LINE
  5
25A
330
E3
100
AcDbEntity
  8
0
  6
Continuous
100
AcDbLine
 10
184.5292610802649
 20
121.1762979537241
 30
0.0
 11
184.5011828213615
 21
121.165830755624
 31
0.0
  0
LINE
  5
25B
330
E3
100
AcDbEntity
  8
0
  6
Continuous
100
AcDbLine
 10
184.5011828213615
 20
121.165830755624
 30
0.0
 11
184.4704541183678
 21
121.1548925336095
 31
0.0
  0
LINE
  5
25C
330
E3
100
AcDbEntity
  8
0
  6
Continuous
100
AcDbLine
 10
184.4704541183678
 20
121.1548925336095
 30
0.0
 11
184.4373179598111
 21
121.1435318853859
 31
0.0
  0
LINE
  5
25D
330
E3
100
AcDbEntity
  8
0
  6
Continuous
100
AcDbLine
 10
184.4373179598111
 20
121.1435318853859
 30
0.0
 11
184.4020360256438
 21
121.1317899320887
 31
0.0
  0
LINE
  5
25E
330
E3
100
AcDbEntity
  8
0
  6
Continuous
100
AcDbLine
 10
184.4020360256438
 20
121.1317899320887
 30
0.0
 11
184.3648737341036
 21
121.1197190097083
 31
0.0
  0
LINE
  5
25F
330
E3
100
AcDbEntity
  8
0
  6
Continuous
100
AcDbLine
 10
184.3648737341036
 20
121.1197190097083
 30
0.0
 11
184.3261301479933
 21
121.1073714542353
 31
0.0
  0
LINE
  5
260
330
E3
100
AcDbEntity
  8
0
  6
Continuous
100
AcDbLine
 10
184.3261301479933
 20
121.1073714542353
 30
0.0
 11
184.2861080684008
 21
121.09479212509
 31
0.0
  0
LINE
  5
261
330
E3
100
AcDbEntity
  8
0
  6
Continuous
100
AcDbLine
 10
184.2861080684008
 20
121.09479212509
 30
0.0
 11
184.245114034699
 21
121.0820483114032
 31
0.0
  0
LINE
  5
262
330
E3
100
AcDbEntity
  8
0
  6
Continuous
100
AcDbLine
 10
184.245114034699
 20
121.0820483114032
 30
0.0
 11
184.2034658011159
 21
121.0691848725953
 31
0.0
  0
LINE
  5
263
330
E3
100
AcDbEntity
  8
0
  6
Continuous
100
AcDbLine
 10
184.2034658011159
 20
121.0691848725953
 30
0.0
 11
184.1614960750198
 21
121.0562653595118
 31
0.0
  0
LINE
  5
264
330
E3
100
AcDbEntity
  8
0
  6
Continuous
100
AcDbLine
 10
184.1614960750198
 20
121.0562653595118
 30
0.0
 11
184.1195226106386
 21
121.0433458464283
 31
0.0
  0
LINE
  5
265
330
E3
100
AcDbEntity
  8
0
  6
Continuous
100
AcDbLine
 10
184.1195226106386
 20
121.0433458464283
 30
0.0
 11
184.0778781153405
 21
121.0304824076204
 31
0.0
  0
LINE
  5
266
330
E3
100
AcDbEntity
  8
0
  6
Continuous
100
AcDbLine
 10
184.0778781153405
 20
121.0304824076204
 30
0.0
 11
184.0368840816387
 21
121.0177385939336
 31
0.0
  0
LINE
  5
267
330
E3
100
AcDbEntity
  8
0
  6
Continuous
100
AcDbLine
 10
184.0368840816387
 20
121.0177385939336
 30
0.0
 11
183.9968582637611
 21
121.0051592647883
 31
0.0
  0
LINE
  5
268
330
E3
100
AcDbEntity
  8
0
  6
Continuous
100
AcDbLine
 10
183.9968582637611
 20
121.0051592647883
 30
0.0
 11
183.9581146776508
 21
120.9928117093153
 31
0.0
  0
LINE
  5
269
330
E3
100
AcDbEntity
  8
0
  6
Continuous
100
AcDbLine
 10
183.9581146776508
 20
120.9928117093153
 30
0.0
 11
183.9209561243956
 21
120.9807407869349
 31
0.0
  0
LINE
  5
26A
330
E3
100
AcDbEntity
  8
0
  6
Continuous
100
AcDbLine
 10
183.9209561243956
 20
120.9807407869349
 30
0.0
 11
183.8856704519434
 21
120.9689988336377
 31
0.0
  0
LINE
  5
26B
330
E3
100
AcDbEntity
  8
0
  6
Continuous
100
AcDbLine
 10
183.8856704519434
 20
120.9689988336377
 30
0.0
 11
183.8525342933867
 21
120.9576381854141
 31
0.0
  0
LINE
  5
26C
330
E3
100
AcDbEntity
  8
0
  6
Continuous
100
AcDbLine
 10
183.8525342933867
 20
120.9576381854141
 30
0.0
 11
183.821805590393
 21
120.9466999633996
 31
0.0
  0
LINE
  5
26D
330
E3
100
AcDbEntity
  8
0
  6
Continuous
100
AcDbLine
 10
183.821805590393
 20
120.9466999633996
 30
0.0
 11
183.7937273314896
 21
120.9362327652995
 31
0.0
  0
LINE
  5
26E
330
E3
100
AcDbEntity
  8
0
  6
Continuous
100
AcDbLine
 10
183.7937273314896
 20
120.9362327652995
 30
0.0
 11
183.7685238137787
 21
120.9262702356793
 31
0.0
  0
LINE
  5
26F
330
E3
100
AcDbEntity
  8
0
  6
Continuous
100
AcDbLine
 10
183.7685238137787
 20
120.9262702356793
 30
0.0
 11
183.7463856897971
 21
120.9168460191042
 31
0.0
  0
LINE
  5
270
330
E3
100
AcDbEntity
  8
0
  6
Continuous
100
AcDbLine
 10
183.7463856897971
 20
120.9168460191042
 30
0.0
 11
183.7274923972265
 21
120.9079974984246
 31
0.0
  0
LINE
  5
271
330
E3
100
AcDbEntity
  8
0
  6
Continuous
100
AcDbLine
 10
183.7274923972265
 20
120.9079974984246
 30
0.0
 11
183.7119972057534
 21
120.8997471033508
 31
0.0
  0
LINE
  5
272
330
E3
100
AcDbEntity
  8
0
  6
Continuous
100
AcDbLine
 10
183.7119972057534
 20
120.8997471033508
 30
0.0
 11
183.700023478784
 21
120.8921172635929
 31
0.0
  0
LINE
  5
273
330
E3
100
AcDbEntity
  8
0
  6
Continuous
100
AcDbLine
 10
183.700023478784
 20
120.8921172635929
 30
0.0
 11
183.6916721500141
 21
120.8851266705761
 31
0.0
  0
LINE
  5
274
330
E3
100
AcDbEntity
  8
0
  6
Continuous
100
AcDbLine
 10
183.6916721500141
 20
120.8851266705761
 30
0.0
 11
183.6870081954573
 21
120.8787840953295
 31
0.0
  0
LINE
  5
275
330
E3
100
AcDbEntity
  8
0
  6
Continuous
100
AcDbLine
 10
183.6870081954573
 20
120.8787840953295
 30
0.0
 11
183.6860781901424
 21
120.8731014874096
 31
0.0
  0
LINE
  5
276
330
E3
100
AcDbEntity
  8
0
  6
Continuous
100
AcDbLine
 10
184.7048605866111
 20
120.8540698873133
 30
0.0
 11
184.7039305812962
 21
120.8483872793934
 31
0.0
  0
LINE
  5
277
330
E3
100
AcDbEntity
  8
0
  6
Continuous
100
AcDbLine
 10
184.7039305812962
 20
120.8483872793934
 30
0.0
 11
184.6992673454935
 21
120.8420464022133
 31
0.0
  0
LINE
  5
278
330
E3
100
AcDbEntity
  8
0
  6
Continuous
100
AcDbLine
 10
184.6992673454935
 20
120.8420464022133
 30
0.0
 11
184.6909120017799
 21
120.8350560808075
 31
0.0
  0
LINE
  5
279
330
E3
100
AcDbEntity
  8
0
  6
Continuous
100
AcDbLine
 10
184.6909120017799
 20
120.8350560808075
 30
0.0
 11
184.6789382748105
 21
120.8274262410496
 31
0.0
  0
LINE
  5
27A
330
E3
100
AcDbEntity
  8
0
  6
Continuous
100
AcDbLine
 10
184.6789382748105
 20
120.8274262410496
 30
0.0
 11
184.6634430833374
 21
120.8191758459757
 31
0.0
  0
LINE
  5
27B
330
E3
100
AcDbEntity
  8
0
  6
Continuous
100
AcDbLine
 10
184.6634430833374
 20
120.8191758459757
 30
0.0
 11
184.6445535290518
 21
120.8103235870111
 31
0.0
  0
LINE
  5
27C
330
E3
100
AcDbEntity
  8
0
  6
Continuous
100
AcDbLine
 10
184.6445535290518
 20
120.8103235870111
 30
0.0
 11
184.6224154050702
 21
120.800903108721
 31
0.0
  0
LINE
  5
27D
330
E3
100
AcDbEntity
  8
0
  6
Continuous
100
AcDbLine
 10
184.6224154050702
 20
120.800903108721
 30
0.0
 11
184.5972081490743
 21
120.7909405791008
 31
0.0
  0
LINE
  5
27E
330
E3
100
AcDbEntity
  8
0
  6
Continuous
100
AcDbLine
 10
184.5972081490743
 20
120.7909405791008
 30
0.0
 11
184.5691336284559
 21
120.7804696427157
 31
0.0
  0
LINE
  5
27F
330
E3
100
AcDbEntity
  8
0
  6
Continuous
100
AcDbLine
 10
184.5691336284559
 20
120.7804696427157
 30
0.0
 11
184.5384049254623
 21
120.7695314207012
 31
0.0
  0
LINE
  5
280
330
E3
100
AcDbEntity
  8
0
  6
Continuous
100
AcDbLine
 10
184.5384049254623
 20
120.7695314207012
 30
0.0
 11
184.5052687669055
 21
120.7581707724776
 31
0.0
  0
LINE
  5
281
330
E3
100
AcDbEntity
  8
0
  6
Continuous
100
AcDbLine
 10
184.5052687669055
 20
120.7581707724776
 30
0.0
 11
184.4699830944533
 21
120.7464325574654
 31
0.0
  0
LINE
  5
282
330
E3
100
AcDbEntity
  8
0
  6
Continuous
100
AcDbLine
 10
184.4699830944533
 20
120.7464325574654
 30
0.0
 11
184.4328245411981
 21
120.734361635085
 31
0.0
  0
LINE
  5
283
330
E3
100
AcDbEntity
  8
0
  6
Continuous
100
AcDbLine
 10
184.4328245411981
 20
120.734361635085
 30
0.0
 11
184.3940809550878
 21
120.722010341327
 31
0.0
  0
LINE
  5
284
330
E3
100
AcDbEntity
  8
0
  6
Continuous
100
AcDbLine
 10
184.3940809550878
 20
120.722010341327
 30
0.0
 11
184.3540551372102
 21
120.7094347504668
 31
0.0
  0
LINE
  5
285
330
E3
100
AcDbEntity
  8
0
  6
Continuous
100
AcDbLine
 10
184.3540551372102
 20
120.7094347504668
 30
0.0
 11
184.3130611035084
 21
120.6966871984949
 31
0.0
  0
LINE
  5
286
330
E3
100
AcDbEntity
  8
0
  6
Continuous
100
AcDbLine
 10
184.3130611035084
 20
120.6966871984949
 30
0.0
 11
184.2714166082104
 21
120.683823759687
 31
0.0
  0
LINE
  5
287
330
E3
100
AcDbEntity
  8
0
  6
Continuous
100
AcDbLine
 10
184.2714166082104
 20
120.683823759687
 30
0.0
 11
184.2294431438292
 21
120.6709042466035
 31
0.0
  0
LINE
  5
288
330
E3
100
AcDbEntity
  8
0
  6
Continuous
100
AcDbLine
 10
184.2294431438292
 20
120.6709042466035
 30
0.0
 11
184.187473417733
 21
120.65798473352
 31
0.0
  0
LINE
  5
289
330
E3
100
AcDbEntity
  8
0
  6
Continuous
100
AcDbLine
 10
184.187473417733
 20
120.65798473352
 30
0.0
 11
184.14582518415
 21
120.6451250329971
 31
0.0
  0
LINE
  5
28A
330
E3
100
AcDbEntity
  8
0
  6
Continuous
100
AcDbLine
 10
184.14582518415
 20
120.6451250329971
 30
0.0
 11
184.1048311504481
 21
120.6323774810253
 31
0.0
  0
LINE
  5
28B
330
E3
100
AcDbEntity
  8
0
  6
Continuous
100
AcDbLine
 10
184.1048311504481
 20
120.6323774810253
 30
0.0
 11
184.0648053325706
 21
120.6198018901651
 31
0.0
  0
LINE
  5
28C
330
E3
100
AcDbEntity
  8
0
  6
Continuous
100
AcDbLine
 10
184.0648053325706
 20
120.6198018901651
 30
0.0
 11
184.0260654847453
 21
120.607450596407
 31
0.0
  0
LINE
  5
28D
330
E3
100
AcDbEntity
  8
0
  6
Continuous
100
AcDbLine
 10
184.0260654847453
 20
120.607450596407
 30
0.0
 11
183.9889031932051
 21
120.5953796740266
 31
0.0
  0
LINE
  5
28E
330
E3
100
AcDbEntity
  8
0
  6
Continuous
100
AcDbLine
 10
183.9889031932051
 20
120.5953796740266
 30
0.0
 11
183.9536175207528
 21
120.5836414590144
 31
0.0
  0
LINE
  5
28F
330
E3
100
AcDbEntity
  8
0
  6
Continuous
100
AcDbLine
 10
183.9536175207528
 20
120.5836414590144
 30
0.0
 11
183.9204813621961
 21
120.5722770725058
 31
0.0
  0
LINE
  5
290
330
E3
100
AcDbEntity
  8
0
  6
Continuous
100
AcDbLine
 10
183.9204813621961
 20
120.5722770725058
 30
0.0
 11
183.8897563974874
 21
120.5613425887763
 31
0.0
  0
LINE
  5
291
330
E3
100
AcDbEntity
  8
0
  6
Continuous
100
AcDbLine
 10
183.8897563974874
 20
120.5613425887763
 30
0.0
 11
183.8616781385841
 21
120.5508716523912
 31
0.0
  0
LINE
  5
292
330
E3
100
AcDbEntity
  8
0
  6
Continuous
100
AcDbLine
 10
183.8616781385841
 20
120.5508716523912
 30
0.0
 11
183.8364708825881
 21
120.540909122771
 31
0.0
  0
LINE
  5
293
330
E3
100
AcDbEntity
  8
0
  6
Continuous
100
AcDbLine
 10
183.8364708825881
 20
120.540909122771
 30
0.0
 11
183.8143364968916
 21
120.531488644481
 31
0.0
  0
LINE
  5
294
330
E3
100
AcDbEntity
  8
0
  6
Continuous
100
AcDbLine
 10
183.8143364968916
 20
120.531488644481
 30
0.0
 11
183.795443204321
 21
120.5226363855164
 31
0.0
  0
LINE
  5
295
330
E3
100
AcDbEntity
  8
0
  6
Continuous
100
AcDbLine
 10
183.795443204321
 20
120.5226363855164
 30
0.0
 11
183.7799480128479
 21
120.5143859904425
 31
0.0
  0
LINE
  5
296
330
E3
100
AcDbEntity
  8
0
  6
Continuous
100
AcDbLine
 10
183.7799480128479
 20
120.5143859904425
 30
0.0
 11
183.7679742858784
 21
120.5067561506846
 31
0.0
  0
LINE
  5
297
330
E3
100
AcDbEntity
  8
0
  6
Continuous
100
AcDbLine
 10
183.7679742858784
 20
120.5067561506846
 30
0.0
 11
183.7596192188236
 21
120.4997655576677
 31
0.0
  0
LINE
  5
298
330
E3
100
AcDbEntity
  8
0
  6
Continuous
100
AcDbLine
 10
183.7596192188236
 20
120.4997655576677
 30
0.0
 11
183.7549574823704
 21
120.493424539803
 31
0.0
  0
LINE
  5
299
330
E3
100
AcDbEntity
  8
0
  6
Continuous
100
AcDbLine
 10
183.7549574823704
 20
120.493424539803
 30
0.0
 11
183.7540274770555
 21
120.4877419318831
 31
0.0
  0
LINE
  5
29A
330
E3
100
AcDbEntity
  8
0
  6
Continuous
100
AcDbLine
 10
184.7728098735243
 20
120.4687103317868
 30
0.0
 11
184.7718798682094
 21
120.4630277238669
 31
0.0
  0
LINE
  5
29B
330
E3
100
AcDbEntity
  8
0
  6
Continuous
100
AcDbLine
 10
184.7718798682094
 20
120.4630277238669
 30
0.0
 11
184.7672166324067
 21
120.4566868466868
 31
0.0
  0
LINE
  5
29C
330
E3
100
AcDbEntity
  8
0
  6
Continuous
100
AcDbLine
 10
184.7672166324067
 20
120.4566868466868
 30
0.0
 11
184.7588628088744
 21
120.4496949678992
 31
0.0
  0
LINE
  5
29D
330
E3
100
AcDbEntity
  8
0
  6
Continuous
100
AcDbLine
 10
184.7588628088744
 20
120.4496949678992
 30
0.0
 11
184.746889081905
 21
120.4420651281413
 31
0.0
  0
LINE
  5
29E
330
E3
100
AcDbEntity
  8
0
  6
Continuous
100
AcDbLine
 10
184.746889081905
 20
120.4420651281413
 30
0.0
 11
184.7313938904319
 21
120.4338147330674
 31
0.0
  0
LINE
  5
29F
330
E3
100
AcDbEntity
  8
0
  6
Continuous
100
AcDbLine
 10
184.7313938904319
 20
120.4338147330674
 30
0.0
 11
184.7125043361463
 21
120.4249662123878
 31
0.0
  0
LINE
  5
2A0
330
E3
100
AcDbEntity
  8
0
  6
Continuous
100
AcDbLine
 10
184.7125043361463
 20
120.4249662123878
 30
0.0
 11
184.6903662121647
 21
120.4155419958127
 31
0.0
  0
LINE
  5
2A1
330
E3
100
AcDbEntity
  8
0
  6
Continuous
100
AcDbLine
 10
184.6903662121647
 20
120.4155419958127
 30
0.0
 11
184.6651589561688
 21
120.4055794661925
 31
0.0
  0
LINE
  5
2A2
330
E3
100
AcDbEntity
  8
0
  6
Continuous
100
AcDbLine
 10
184.6651589561688
 20
120.4055794661925
 30
0.0
 11
184.6370806972654
 21
120.3951085298074
 31
0.0
  0
LINE
  5
2A3
330
E3
100
AcDbEntity
  8
0
  6
Continuous
100
AcDbLine
 10
184.6370806972654
 20
120.3951085298074
 30
0.0
 11
184.6063557325568
 21
120.3841740460779
 31
0.0
  0
LINE
  5
2A4
330
E3
100
AcDbEntity
  8
0
  6
Continuous
100
AcDbLine
 10
184.6063557325568
 20
120.3841740460779
 30
0.0
 11
184.573219574
 21
120.3728133978543
 31
0.0
  0
LINE
  5
2A5
330
E3
100
AcDbEntity
  8
0
  6
Continuous
100
AcDbLine
 10
184.573219574
 20
120.3728133978543
 30
0.0
 11
184.5379339015477
 21
120.3610714445571
 31
0.0
  0
LINE
  5
2A6
330
E3
100
AcDbEntity
  8
0
  6
Continuous
100
AcDbLine
 10
184.5379339015477
 20
120.3610714445571
 30
0.0
 11
184.5007753482926
 21
120.3490005221767
 31
0.0
  0
LINE
  5
2A7
330
E3
100
AcDbEntity
  8
0
  6
Continuous
100
AcDbLine
 10
184.5007753482926
 20
120.3490005221767
 30
0.0
 11
184.4620317621823
 21
120.3366492284187
 31
0.0
  0
LINE
  5
2A8
330
E3
100
AcDbEntity
  8
0
  6
Continuous
100
AcDbLine
 10
184.4620317621823
 20
120.3366492284187
 30
0.0
 11
184.4220059443047
 21
120.3240736375585
 31
0.0
  0
LINE
  5
2A9
330
E3
100
AcDbEntity
  8
0
  6
Continuous
100
AcDbLine
 10
184.4220059443047
 20
120.3240736375585
 30
0.0
 11
184.3810119106029
 21
120.3113260855866
 31
0.0
  0
LINE
  5
2AA
330
E3
100
AcDbEntity
  8
0
  6
Continuous
100
AcDbLine
 10
184.3810119106029
 20
120.3113260855866
 30
0.0
 11
184.3393636770198
 21
120.2984663850637
 31
0.0
  0
LINE
  5
2AB
330
E3
100
AcDbEntity
  8
0
  6
Continuous
100
AcDbLine
 10
184.3393636770198
 20
120.2984663850637
 30
0.0
 11
184.2973939509237
 21
120.2855468719802
 31
0.0
  0
LINE
  5
2AC
330
E3
100
AcDbEntity
  8
0
  6
Continuous
100
AcDbLine
 10
184.2973939509237
 20
120.2855468719802
 30
0.0
 11
184.2554204865425
 21
120.2726273588968
 31
0.0
  0
LINE
  5
2AD
330
E3
100
AcDbEntity
  8
0
  6
Continuous
100
AcDbLine
 10
184.2554204865425
 20
120.2726273588968
 30
0.0
 11
184.2137759912444
 21
120.2597639200888
 31
0.0
  0
LINE
  5
2AE
330
E3
100
AcDbEntity
  8
0
  6
Continuous
100
AcDbLine
 10
184.2137759912444
 20
120.2597639200888
 30
0.0
 11
184.1727819575426
 21
120.247016368117
 31
0.0
  0
LINE
  5
2AF
330
E3
100
AcDbEntity
  8
0
  6
Continuous
100
AcDbLine
 10
184.1727819575426
 20
120.247016368117
 30
0.0
 11
184.132756139665
 21
120.2344407772568
 31
0.0
  0
LINE
  5
2B0
330
E3
100
AcDbEntity
  8
0
  6
Continuous
100
AcDbLine
 10
184.132756139665
 20
120.2344407772568
 30
0.0
 11
184.0940125535547
 21
120.2220932217838
 31
0.0
  0
LINE
  5
2B1
330
E3
100
AcDbEntity
  8
0
  6
Continuous
100
AcDbLine
 10
184.0940125535547
 20
120.2220932217838
 30
0.0
 11
184.0568540002996
 21
120.2100222994034
 31
0.0
  0
LINE
  5
2B2
330
E3
100
AcDbEntity
  8
0
  6
Continuous
100
AcDbLine
 10
184.0568540002996
 20
120.2100222994034
 30
0.0
 11
184.0215683278473
 21
120.1982803461061
 31
0.0
  0
LINE
  5
2B3
330
E3
100
AcDbEntity
  8
0
  6
Continuous
100
AcDbLine
 10
184.0215683278473
 20
120.1982803461061
 30
0.0
 11
183.9884321692906
 21
120.1869196978826
 31
0.0
  0
LINE
  5
2B4
330
E3
100
AcDbEntity
  8
0
  6
Continuous
100
AcDbLine
 10
183.9884321692906
 20
120.1869196978826
 30
0.0
 11
183.9577034662969
 21
120.175981475868
 31
0.0
  0
LINE
  5
2B5
330
E3
100
AcDbEntity
  8
0
  6
Continuous
100
AcDbLine
 10
183.9577034662969
 20
120.175981475868
 30
0.0
 11
183.9296289456786
 21
120.165514277768
 31
0.0
  0
LINE
  5
2B6
330
E3
100
AcDbEntity
  8
0
  6
Continuous
100
AcDbLine
 10
183.9296289456786
 20
120.165514277768
 30
0.0
 11
183.9044216896826
 21
120.1555480098627
 31
0.0
  0
LINE
  5
2B7
330
E3
100
AcDbEntity
  8
0
  6
Continuous
100
AcDbLine
 10
183.9044216896826
 20
120.1555480098627
 30
0.0
 11
183.882283565701
 21
120.1461275315726
 31
0.0
  0
LINE
  5
2B8
330
E3
100
AcDbEntity
  8
0
  6
Continuous
100
AcDbLine
 10
183.882283565701
 20
120.1461275315726
 30
0.0
 11
183.8633940114155
 21
120.1372790108931
 31
0.0
  0
LINE
  5
2B9
330
E3
100
AcDbEntity
  8
0
  6
Continuous
100
AcDbLine
 10
183.8633940114155
 20
120.1372790108931
 30
0.0
 11
183.8478988199424
 21
120.1290286158192
 31
0.0
  0
LINE
  5
2BA
330
E3
100
AcDbEntity
  8
0
  6
Continuous
100
AcDbLine
 10
183.8478988199424
 20
120.1290286158192
 30
0.0
 11
183.8359250929729
 21
120.1213987760613
 31
0.0
  0
LINE
  5
2BB
330
E3
100
AcDbEntity
  8
0
  6
Continuous
100
AcDbLine
 10
183.8359250929729
 20
120.1213987760613
 30
0.0
 11
183.8275700259181
 21
120.1144044447594
 31
0.0
  0
LINE
  5
2BC
330
E3
100
AcDbEntity
  8
0
  6
Continuous
100
AcDbLine
 10
183.8275700259181
 20
120.1144044447594
 30
0.0
 11
183.8229067692835
 21
120.1080649842765
 31
0.0
  0
LINE
  5
2BD
330
E3
100
AcDbEntity
  8
0
  6
Continuous
100
AcDbLine
 10
183.8229067692835
 20
120.1080649842765
 30
0.0
 11
183.8219767639686
 21
120.1023823763566
 31
0.0
  0
LINE
  5
2BE
330
E3
100
AcDbEntity
  8
0
  6
Continuous
100
AcDbLine
 10
184.8407591604374
 20
120.0833507762603
 30
0.0
 11
184.8398291551225
 21
120.0776681683404
 31
0.0
  0
LINE
  5
2BF
330
E3
100
AcDbEntity
  8
0
  6
Continuous
100
AcDbLine
 10
184.8398291551225
 20
120.0776681683404
 30
0.0
 11
184.8351659193198
 21
120.0713272911603
 31
0.0
  0
LINE
  5
2C0
330
E3
100
AcDbEntity
  8
0
  6
Continuous
100
AcDbLine
 10
184.8351659193198
 20
120.0713272911603
 30
0.0
 11
184.8268136159689
 21
120.0643338549909
 31
0.0
  0
LINE
  5
2C1
330
E3
100
AcDbEntity
  8
0
  6
Continuous
100
AcDbLine
 10
184.8268136159689
 20
120.0643338549909
 30
0.0
 11
184.8148398889994
 21
120.0567040152329
 31
0.0
  0
LINE
  5
2C2
330
E3
100
AcDbEntity
  8
0
  6
Continuous
100
AcDbLine
 10
184.8148398889994
 20
120.0567040152329
 30
0.0
 11
184.7993446975264
 21
120.0484536201591
 31
0.0
  0
LINE
  5
2C3
330
E3
100
AcDbEntity
  8
0
  6
Continuous
100
AcDbLine
 10
184.7993446975264
 20
120.0484536201591
 30
0.0
 11
184.7804514049558
 21
120.0396050994795
 31
0.0
  0
LINE
  5
2C4
330
E3
100
AcDbEntity
  8
0
  6
Continuous
100
AcDbLine
 10
184.7804514049558
 20
120.0396050994795
 30
0.0
 11
184.7583132809742
 21
120.0301846211895
 31
0.0
  0
LINE
  5
2C5
330
E3
100
AcDbEntity
  8
0
  6
Continuous
100
AcDbLine
 10
184.7583132809742
 20
120.0301846211895
 30
0.0
 11
184.7331097632633
 21
120.0202183532842
 31
0.0
  0
LINE
  5
2C6
330
E3
100
AcDbEntity
  8
0
  6
Continuous
100
AcDbLine
 10
184.7331097632633
 20
120.0202183532842
 30
0.0
 11
184.7050315043599
 21
120.0097511551842
 31
0.0
  0
LINE
  5
2C7
330
E3
100
AcDbEntity
  8
0
  6
Continuous
100
AcDbLine
 10
184.7050315043599
 20
120.0097511551842
 30
0.0
 11
184.6743028013662
 21
119.9988129331696
 31
0.0
  0
LINE
  5
2C8
330
E3
100
AcDbEntity
  8
0
  6
Continuous
100
AcDbLine
 10
184.6743028013662
 20
119.9988129331696
 30
0.0
 11
184.6411666428095
 21
119.987452284946
 31
0.0
  0
LINE
  5
2C9
330
E3
100
AcDbEntity
  8
0
  6
Continuous
100
AcDbLine
 10
184.6411666428095
 20
119.987452284946
 30
0.0
 11
184.6058809703572
 21
119.9757103316488
 31
0.0
  0
LINE
  5
2CA
330
E3
100
AcDbEntity
  8
0
  6
Continuous
100
AcDbLine
 10
184.6058809703572
 20
119.9757103316488
 30
0.0
 11
184.568722417102
 21
119.9636431475535
 31
0.0
  0
LINE
  5
2CB
330
E3
100
AcDbEntity
  8
0
  6
Continuous
100
AcDbLine
 10
184.568722417102
 20
119.9636431475535
 30
0.0
 11
184.5299788309917
 21
119.9512918537954
 31
0.0
  0
LINE
  5
2CC
330
E3
100
AcDbEntity
  8
0
  6
Continuous
100
AcDbLine
 10
184.5299788309917
 20
119.9512918537954
 30
0.0
 11
184.4899567513992
 21
119.9387162629352
 31
0.0
  0
LINE
  5
2CD
330
E3
100
AcDbEntity
  8
0
  6
Continuous
100
AcDbLine
 10
184.4899567513992
 20
119.9387162629352
 30
0.0
 11
184.4489589794123
 21
119.9259687109634
 31
0.0
  0
LINE
  5
2CE
330
E3
100
AcDbEntity
  8
0
  6
Continuous
100
AcDbLine
 10
184.4489589794123
 20
119.9259687109634
 30
0.0
 11
184.4073144841143
 21
119.9131052721554
 31
0.0
  0
LINE
  5
2CF
330
E3
100
AcDbEntity
  8
0
  6
Continuous
100
AcDbLine
 10
184.4073144841143
 20
119.9131052721554
 30
0.0
 11
184.3653410197331
 21
119.9001857590719
 31
0.0
  0
LINE
  5
2D0
330
E3
100
AcDbEntity
  8
0
  6
Continuous
100
AcDbLine
 10
184.3653410197331
 20
119.9001857590719
 30
0.0
 11
184.323371293637
 21
119.8872662459884
 31
0.0
  0
LINE
  5
2D1
330
E3
100
AcDbEntity
  8
0
  6
Continuous
100
AcDbLine
 10
184.323371293637
 20
119.8872662459884
 30
0.0
 11
184.2817267983389
 21
119.8744065454655
 31
0.0
  0
LINE
  5
2D2
330
E3
100
AcDbEntity
  8
0
  6
Continuous
100
AcDbLine
 10
184.2817267983389
 20
119.8744065454655
 30
0.0
 11
184.2407290263521
 21
119.8616589934937
 31
0.0
  0
LINE
  5
2D3
330
E3
100
AcDbEntity
  8
0
  6
Continuous
100
AcDbLine
 10
184.2407290263521
 20
119.8616589934937
 30
0.0
 11
184.2007069467595
 21
119.8490834026335
 31
0.0
  0
LINE
  5
2D4
330
E3
100
AcDbEntity
  8
0
  6
Continuous
100
AcDbLine
 10
184.2007069467595
 20
119.8490834026335
 30
0.0
 11
184.1619633606492
 21
119.8367321088754
 31
0.0
  0
LINE
  5
2D5
330
E3
100
AcDbEntity
  8
0
  6
Continuous
100
AcDbLine
 10
184.1619633606492
 20
119.8367321088754
 30
0.0
 11
184.124804807394
 21
119.8246611864951
 31
0.0
  0
LINE
  5
2D6
330
E3
100
AcDbEntity
  8
0
  6
Continuous
100
AcDbLine
 10
184.124804807394
 20
119.8246611864951
 30
0.0
 11
184.0895191349418
 21
119.8129192331978
 31
0.0
  0
LINE
  5
2D7
330
E3
100
AcDbEntity
  8
0
  6
Continuous
100
AcDbLine
 10
184.0895191349418
 20
119.8129192331978
 30
0.0
 11
184.0563829763851
 21
119.8015585849742
 31
0.0
  0
LINE
  5
2D8
330
E3
100
AcDbEntity
  8
0
  6
Continuous
100
AcDbLine
 10
184.0563829763851
 20
119.8015585849742
 30
0.0
 11
184.0256542733914
 21
119.7906241012447
 31
0.0
  0
LINE
  5
2D9
330
E3
100
AcDbEntity
  8
0
  6
Continuous
100
AcDbLine
 10
184.0256542733914
 20
119.7906241012447
 30
0.0
 11
183.997576014488
 21
119.7801531648597
 31
0.0
  0
LINE
  5
2DA
330
E3
100
AcDbEntity
  8
0
  6
Continuous
100
AcDbLine
 10
183.997576014488
 20
119.7801531648597
 30
0.0
 11
183.9723687584921
 21
119.7701906352394
 31
0.0
  0
LINE
  5
2DB
330
E3
100
AcDbEntity
  8
0
  6
Continuous
100
AcDbLine
 10
183.9723687584921
 20
119.7701906352394
 30
0.0
 11
183.9502343727955
 21
119.7607701569494
 31
0.0
  0
LINE
  5
2DC
330
E3
100
AcDbEntity
  8
0
  6
Continuous
100
AcDbLine
 10
183.9502343727955
 20
119.7607701569494
 30
0.0
 11
183.9313410802249
 21
119.7519178979848
 31
0.0
  0
LINE
  5
2DD
330
E3
100
AcDbEntity
  8
0
  6
Continuous
100
AcDbLine
 10
183.9313410802249
 20
119.7519178979848
 30
0.0
 11
183.9158458887518
 21
119.7436675029109
 31
0.0
  0
LINE
  5
2DE
330
E3
100
AcDbEntity
  8
0
  6
Continuous
100
AcDbLine
 10
183.9158458887518
 20
119.7436675029109
 30
0.0
 11
183.9038721617824
 21
119.736037663153
 31
0.0
  0
LINE
  5
2DF
330
E3
100
AcDbEntity
  8
0
  6
Continuous
100
AcDbLine
 10
183.9038721617824
 20
119.736037663153
 30
0.0
 11
183.8955208330125
 21
119.7290470701362
 31
0.0
  0
LINE
  5
2E0
330
E3
100
AcDbEntity
  8
0
  6
Continuous
100
AcDbLine
 10
183.8955208330125
 20
119.7290470701362
 30
0.0
 11
183.8908560561967
 21
119.72270542875
 31
0.0
  0
LINE
  5
2E1
330
E3
100
AcDbEntity
  8
0
  6
Continuous
100
AcDbLine
 10
183.8908560561967
 20
119.72270542875
 30
0.0
 11
183.8899260508818
 21
119.7170228208301
 31
0.0
  0
LINE
  5
2E2
330
E3
100
AcDbEntity
  8
0
  6
Continuous
100
AcDbLine
 10
184.9087084473506
 20
119.6979912207338
 30
0.0
 11
184.9077784420357
 21
119.6923086128139
 31
0.0
  0
LINE
  5
2E3
330
E3
100
AcDbEntity
  8
0
  6
Continuous
100
AcDbLine
 10
184.9077784420357
 20
119.6923086128139
 30
0.0
 11
184.903115206233
 21
119.6859677356338
 31
0.0
  0
LINE
  5
2E4
330
E3
100
AcDbEntity
  8
0
  6
Continuous
100
AcDbLine
 10
184.903115206233
 20
119.6859677356338
 30
0.0
 11
184.8947606847783
 21
119.6789764803676
 31
0.0
  0
LINE
  5
2E5
330
E3
100
AcDbEntity
  8
0
  6
Continuous
100
AcDbLine
 10
184.8947606847783
 20
119.6789764803676
 30
0.0
 11
184.8827869578089
 21
119.6713466406097
 31
0.0
  0
LINE
  5
2E6
330
E3
100
AcDbEntity
  8
0
  6
Continuous
100
AcDbLine
 10
184.8827869578089
 20
119.6713466406097
 30
0.0
 11
184.8672917663358
 21
119.6630962455358
 31
0.0
  0
LINE
  5
2E7
330
E3
100
AcDbEntity
  8
0
  6
Continuous
100
AcDbLine
 10
184.8672917663358
 20
119.6630962455358
 30
0.0
 11
184.8484022120502
 21
119.6542439865712
 31
0.0
  0
LINE
  5
2E8
330
E3
100
AcDbEntity
  8
0
  6
Continuous
100
AcDbLine
 10
184.8484022120502
 20
119.6542439865712
 30
0.0
 11
184.8262640880687
 21
119.6448235082812
 31
0.0
  0
LINE
  5
2E9
330
E3
100
AcDbEntity
  8
0
  6
Continuous
100
AcDbLine
 10
184.8262640880687
 20
119.6448235082812
 30
0.0
 11
184.8010568320727
 21
119.634860978661
 31
0.0
  0
LINE
  5
2EA
330
E3
100
AcDbEntity
  8
0
  6
Continuous
100
AcDbLine
 10
184.8010568320727
 20
119.634860978661
 30
0.0
 11
184.7729785731693
 21
119.6243900422759
 31
0.0
  0
LINE
  5
2EB
330
E3
100
AcDbEntity
  8
0
  6
Continuous
100
AcDbLine
 10
184.7729785731693
 20
119.6243900422759
 30
0.0
 11
184.7422536084607
 21
119.6134555585463
 31
0.0
  0
LINE
  5
2EC
330
E3
100
AcDbEntity
  8
0
  6
Continuous
100
AcDbLine
 10
184.7422536084607
 20
119.6134555585463
 30
0.0
 11
184.7091174499039
 21
119.6020911720377
 31
0.0
  0
LINE
  5
2ED
330
E3
100
AcDbEntity
  8
0
  6
Continuous
100
AcDbLine
 10
184.7091174499039
 20
119.6020911720377
 30
0.0
 11
184.6738317774517
 21
119.5903529570255
 31
0.0
  0
LINE
  5
2EE
330
E3
100
AcDbEntity
  8
0
  6
Continuous
100
AcDbLine
 10
184.6738317774517
 20
119.5903529570255
 30
0.0
 11
184.6366732241965
 21
119.5782820346452
 31
0.0
  0
LINE
  5
2EF
330
E3
100
AcDbEntity
  8
0
  6
Continuous
100
AcDbLine
 10
184.6366732241965
 20
119.5782820346452
 30
0.0
 11
184.5979296380862
 21
119.5659307408871
 31
0.0
  0
LINE
  5
2F0
330
E3
100
AcDbEntity
  8
0
  6
Continuous
100
AcDbLine
 10
184.5979296380862
 20
119.5659307408871
 30
0.0
 11
184.5579038202087
 21
119.5533551500269
 31
0.0
  0
LINE
  5
2F1
330
E3
100
AcDbEntity
  8
0
  6
Continuous
100
AcDbLine
 10
184.5579038202087
 20
119.5533551500269
 30
0.0
 11
184.5169097865068
 21
119.5406075980551
 31
0.0
  0
LINE
  5
2F2
330
E3
100
AcDbEntity
  8
0
  6
Continuous
100
AcDbLine
 10
184.5169097865068
 20
119.5406075980551
 30
0.0
 11
184.4752652912088
 21
119.5277478975322
 31
0.0
  0
LINE
  5
2F3
330
E3
100
AcDbEntity
  8
0
  6
Continuous
100
AcDbLine
 10
184.4752652912088
 20
119.5277478975322
 30
0.0
 11
184.4332918268276
 21
119.5148283844487
 31
0.0
  0
LINE
  5
2F4
330
E3
100
AcDbEntity
  8
0
  6
Continuous
100
AcDbLine
 10
184.4332918268276
 20
119.5148283844487
 30
0.0
 11
184.3913183624464
 21
119.5019088713652
 31
0.0
  0
LINE
  5
2F5
330
E3
100
AcDbEntity
  8
0
  6
Continuous
100
AcDbLine
 10
184.3913183624464
 20
119.5019088713652
 30
0.0
 11
184.3496738671483
 21
119.4890454325572
 31
0.0
  0
LINE
  5
2F6
330
E3
100
AcDbEntity
  8
0
  6
Continuous
100
AcDbLine
 10
184.3496738671483
 20
119.4890454325572
 30
0.0
 11
184.3086798334465
 21
119.4762978805854
 31
0.0
  0
LINE
  5
2F7
330
E3
100
AcDbEntity
  8
0
  6
Continuous
100
AcDbLine
 10
184.3086798334465
 20
119.4762978805854
 30
0.0
 11
184.268654015569
 21
119.4637222897252
 31
0.0
  0
LINE
  5
2F8
330
E3
100
AcDbEntity
  8
0
  6
Continuous
100
AcDbLine
 10
184.268654015569
 20
119.4637222897252
 30
0.0
 11
184.2299104294587
 21
119.4513709959671
 31
0.0
  0
LINE
  5
2F9
330
E3
100
AcDbEntity
  8
0
  6
Continuous
100
AcDbLine
 10
184.2299104294587
 20
119.4513709959671
 30
0.0
 11
184.1927518762035
 21
119.4393000735868
 31
0.0
  0
LINE
  5
2FA
330
E3
100
AcDbEntity
  8
0
  6
Continuous
100
AcDbLine
 10
184.1927518762035
 20
119.4393000735868
 30
0.0
 11
184.1574662037512
 21
119.4275618585746
 31
0.0
  0
LINE
  5
2FB
330
E3
100
AcDbEntity
  8
0
  6
Continuous
100
AcDbLine
 10
184.1574662037512
 20
119.4275618585746
 30
0.0
 11
184.1243300451945
 21
119.416201210351
 31
0.0
  0
LINE
  5
2FC
330
E3
100
AcDbEntity
  8
0
  6
Continuous
100
AcDbLine
 10
184.1243300451945
 20
119.416201210351
 30
0.0
 11
184.0936050804858
 21
119.4052629883364
 31
0.0
  0
LINE
  5
2FD
330
E3
100
AcDbEntity
  8
0
  6
Continuous
100
AcDbLine
 10
184.0936050804858
 20
119.4052629883364
 30
0.0
 11
184.0655268215825
 21
119.3947957902364
 31
0.0
  0
LINE
  5
2FE
330
E3
100
AcDbEntity
  8
0
  6
Continuous
100
AcDbLine
 10
184.0655268215825
 20
119.3947957902364
 30
0.0
 11
184.0403195655865
 21
119.3848295223311
 31
0.0
  0
LINE
  5
2FF
330
E3
100
AcDbEntity
  8
0
  6
Continuous
100
AcDbLine
 10
184.0403195655865
 20
119.3848295223311
 30
0.0
 11
184.0181814416049
 21
119.3754090440411
 31
0.0
  0
LINE
  5
300
330
E3
100
AcDbEntity
  8
0
  6
Continuous
100
AcDbLine
 10
184.0181814416049
 20
119.3754090440411
 30
0.0
 11
183.9992918873194
 21
119.3665605233615
 31
0.0
  0
LINE
  5
301
330
E3
100
AcDbEntity
  8
0
  6
Continuous
100
AcDbLine
 10
183.9992918873194
 20
119.3665605233615
 30
0.0
 11
183.9837966958463
 21
119.3583101282877
 31
0.0
  0
LINE
  5
302
330
E3
100
AcDbEntity
  8
0
  6
Continuous
100
AcDbLine
 10
183.9837966958463
 20
119.3583101282877
 30
0.0
 11
183.9718229688768
 21
119.3506765502447
 31
0.0
  0
LINE
  5
303
330
E3
100
AcDbEntity
  8
0
  6
Continuous
100
AcDbLine
 10
183.9718229688768
 20
119.3506765502447
 30
0.0
 11
183.963467901822
 21
119.3436859572279
 31
0.0
  0
LINE
  5
304
330
E3
100
AcDbEntity
  8
0
  6
Continuous
100
AcDbLine
 10
183.963467901822
 20
119.3436859572279
 30
0.0
 11
183.9588053431098
 21
119.3373458732235
 31
0.0
  0
LINE
  5
305
330
E3
100
AcDbEntity
  8
0
  6
Continuous
100
AcDbLine
 10
183.9588053431098
 20
119.3373458732235
 30
0.0
 11
183.9578753377949
 21
119.3316632653036
 31
0.0
  0
LINE
  5
306
330
E3
100
AcDbEntity
  8
0
  6
Continuous
100
AcDbLine
 10
184.9766577342637
 20
119.3126316652073
 30
0.0
 11
184.9757277289488
 21
119.3069490572874
 31
0.0
  0
LINE
  5
307
330
E3
100
AcDbEntity
  8
0
  6
Continuous
100
AcDbLine
 10
184.9757277289488
 20
119.3069490572874
 30
0.0
 11
184.9710644931461
 21
119.3006081801072
 31
0.0
  0
LINE
  5
308
330
E3
100
AcDbEntity
  8
0
  6
Continuous
100
AcDbLine
 10
184.9710644931461
 20
119.3006081801072
 30
0.0
 11
184.9627114918728
 21
119.2936153674593
 31
0.0
  0
LINE
  5
309
330
E3
100
AcDbEntity
  8
0
  6
Continuous
100
AcDbLine
 10
184.9627114918728
 20
119.2936153674593
 30
0.0
 11
184.9507377649034
 21
119.2859855277014
 31
0.0
  0
LINE
  5
30A
330
E3
100
AcDbEntity
  8
0
  6
Continuous
100
AcDbLine
 10
184.9507377649034
 20
119.2859855277014
 30
0.0
 11
184.9352425734303
 21
119.2777351326275
 31
0.0
  0
LINE
  5
30B
330
E3
100
AcDbEntity
  8
0
  6
Continuous
100
AcDbLine
 10
184.9352425734303
 20
119.2777351326275
 30
0.0
 11
184.9163492808597
 21
119.2688866119479
 31
0.0
  0
LINE
  5
30C
330
E3
100
AcDbEntity
  8
0
  6
Continuous
100
AcDbLine
 10
184.9163492808597
 20
119.2688866119479
 30
0.0
 11
184.8942148951631
 21
119.2594623953729
 31
0.0
  0
LINE
  5
30D
330
E3
100
AcDbEntity
  8
0
  6
Continuous
100
AcDbLine
 10
184.8942148951631
 20
119.2594623953729
 30
0.0
 11
184.8690076391672
 21
119.2494998657526
 31
0.0
  0
LINE
  5
30E
330
E3
100
AcDbEntity
  8
0
  6
Continuous
100
AcDbLine
 10
184.8690076391672
 20
119.2494998657526
 30
0.0
 11
184.8409293802638
 21
119.2390326676526
 31
0.0
  0
LINE
  5
30F
330
E3
100
AcDbEntity
  8
0
  6
Continuous
100
AcDbLine
 10
184.8409293802638
 20
119.2390326676526
 30
0.0
 11
184.8102006772701
 21
119.228094445638
 31
0.0
  0
LINE
  5
310
330
E3
100
AcDbEntity
  8
0
  6
Continuous
100
AcDbLine
 10
184.8102006772701
 20
119.228094445638
 30
0.0
 11
184.7770645187134
 21
119.2167337974145
 31
0.0
  0
LINE
  5
311
330
E3
100
AcDbEntity
  8
0
  6
Continuous
100
AcDbLine
 10
184.7770645187134
 20
119.2167337974145
 30
0.0
 11
184.7417788462611
 21
119.2049918441172
 31
0.0
  0
LINE
  5
312
330
E3
100
AcDbEntity
  8
0
  6
Continuous
100
AcDbLine
 10
184.7417788462611
 20
119.2049918441172
 30
0.0
 11
184.704620293006
 21
119.1929209217369
 31
0.0
  0
LINE
  5
313
330
E3
100
AcDbEntity
  8
0
  6
Continuous
100
AcDbLine
 10
184.704620293006
 20
119.1929209217369
 30
0.0
 11
184.6658767068957
 21
119.1805733662638
 31
0.0
  0
LINE
  5
314
330
E3
100
AcDbEntity
  8
0
  6
Continuous
100
AcDbLine
 10
184.6658767068957
 20
119.1805733662638
 30
0.0
 11
184.6258546273031
 21
119.1679977754036
 31
0.0
  0
LINE
  5
315
330
E3
100
AcDbEntity
  8
0
  6
Continuous
100
AcDbLine
 10
184.6258546273031
 20
119.1679977754036
 30
0.0
 11
184.5848605936013
 21
119.1552502234318
 31
0.0
  0
LINE
  5
316
330
E3
100
AcDbEntity
  8
0
  6
Continuous
100
AcDbLine
 10
184.5848605936013
 20
119.1552502234318
 30
0.0
 11
184.5432123600182
 21
119.1423867846239
 31
0.0
  0
LINE
  5
317
330
E3
100
AcDbEntity
  8
0
  6
Continuous
100
AcDbLine
 10
184.5432123600182
 20
119.1423867846239
 30
0.0
 11
184.5012426339221
 21
119.1294672715404
 31
0.0
  0
LINE
  5
318
330
E3
100
AcDbEntity
  8
0
  6
Continuous
100
AcDbLine
 10
184.5012426339221
 20
119.1294672715404
 30
0.0
 11
184.4592691695409
 21
119.1165477584569
 31
0.0
  0
LINE
  5
319
330
E3
100
AcDbEntity
  8
0
  6
Continuous
100
AcDbLine
 10
184.4592691695409
 20
119.1165477584569
 30
0.0
 11
184.4176246742428
 21
119.103688057934
 31
0.0
  0
LINE
  5
31A
330
E3
100
AcDbEntity
  8
0
  6
Continuous
100
AcDbLine
 10
184.4176246742428
 20
119.103688057934
 30
0.0
 11
184.376630640541
 21
119.0909405059621
 31
0.0
  0
LINE
  5
31B
330
E3
100
AcDbEntity
  8
0
  6
Continuous
100
AcDbLine
 10
184.376630640541
 20
119.0909405059621
 30
0.0
 11
184.3366048226634
 21
119.0783649151019
 31
0.0
  0
LINE
  5
31C
330
E3
100
AcDbEntity
  8
0
  6
Continuous
100
AcDbLine
 10
184.3366048226634
 20
119.0783649151019
 30
0.0
 11
184.2978612365531
 21
119.0660136213439
 31
0.0
  0
LINE
  5
31D
330
E3
100
AcDbEntity
  8
0
  6
Continuous
100
AcDbLine
 10
184.2978612365531
 20
119.0660136213439
 30
0.0
 11
184.260702683298
 21
119.0539426989635
 31
0.0
  0
LINE
  5
31E
330
E3
100
AcDbEntity
  8
0
  6
Continuous
100
AcDbLine
 10
184.260702683298
 20
119.0539426989635
 30
0.0
 11
184.2254170108457
 21
119.0422007456663
 31
0.0
  0
LINE
  5
31F
330
E3
100
AcDbEntity
  8
0
  6
Continuous
100
AcDbLine
 10
184.2254170108457
 20
119.0422007456663
 30
0.0
 11
184.192280852289
 21
119.0308400974427
 31
0.0
  0
LINE
  5
320
330
E3
100
AcDbEntity
  8
0
  6
Continuous
100
AcDbLine
 10
184.192280852289
 20
119.0308400974427
 30
0.0
 11
184.1615521492953
 21
119.0199056137132
 31
0.0
  0
LINE
  5
321
330
E3
100
AcDbEntity
  8
0
  6
Continuous
100
AcDbLine
 10
184.1615521492953
 20
119.0199056137132
 30
0.0
 11
184.1334738903919
 21
119.0094346773281
 31
0.0
  0
LINE
  5
322
330
E3
100
AcDbEntity
  8
0
  6
Continuous
100
AcDbLine
 10
184.1334738903919
 20
119.0094346773281
 30
0.0
 11
184.108270372681
 21
118.9994721477078
 31
0.0
  0
LINE
  5
323
330
E3
100
AcDbEntity
  8
0
  6
Continuous
100
AcDbLine
 10
184.108270372681
 20
118.9994721477078
 30
0.0
 11
184.0861322486994
 21
118.9900479311328
 31
0.0
  0
LINE
  5
324
330
E3
100
AcDbEntity
  8
0
  6
Continuous
100
AcDbLine
 10
184.0861322486994
 20
118.9900479311328
 30
0.0
 11
184.0672389561288
 21
118.9811994104532
 31
0.0
  0
LINE
  5
325
330
E3
100
AcDbEntity
  8
0
  6
Continuous
100
AcDbLine
 10
184.0672389561288
 20
118.9811994104532
 30
0.0
 11
184.0517437646557
 21
118.9729490153794
 31
0.0
  0
LINE
  5
326
330
E3
100
AcDbEntity
  8
0
  6
Continuous
100
AcDbLine
 10
184.0517437646557
 20
118.9729490153794
 30
0.0
 11
184.0397700376863
 21
118.9653191756214
 31
0.0
  0
LINE
  5
327
330
E3
100
AcDbEntity
  8
0
  6
Continuous
100
AcDbLine
 10
184.0397700376863
 20
118.9653191756214
 30
0.0
 11
184.0314187089164
 21
118.9583285826046
 31
0.0
  0
LINE
  5
328
330
E3
100
AcDbEntity
  8
0
  6
Continuous
100
AcDbLine
 10
184.0314187089164
 20
118.9583285826046
 30
0.0
 11
184.026754630023
 21
118.9519863176969
 31
0.0
  0
LINE
  5
329
330
E3
100
AcDbEntity
  8
0
  6
Continuous
100
AcDbLine
 10
184.026754630023
 20
118.9519863176969
 30
0.0
 11
184.0258246247081
 21
118.9463037097771
 31
0.0
  0
LINE
  5
32A
330
E3
100
AcDbEntity
  8
0
  6
Continuous
100
AcDbLine
 10
185.0446070211769
 20
118.9272721096807
 30
0.0
 11
185.043677015862
 21
118.9215895017608
 31
0.0
  0
LINE
  5
32B
330
E3
100
AcDbEntity
  8
0
  6
Continuous
100
AcDbLine
 10
185.043677015862
 20
118.9215895017608
 30
0.0
 11
185.0390137800593
 21
118.9152486245807
 31
0.0
  0
LINE
  5
32C
330
E3
100
AcDbEntity
  8
0
  6
Continuous
100
AcDbLine
 10
185.0390137800593
 20
118.9152486245807
 30
0.0
 11
185.0306585606822
 21
118.908257992836
 31
0.0
  0
LINE
  5
32D
330
E3
100
AcDbEntity
  8
0
  6
Continuous
100
AcDbLine
 10
185.0306585606822
 20
118.908257992836
 30
0.0
 11
185.0186848337128
 21
118.9006281530781
 31
0.0
  0
LINE
  5
32E
330
E3
100
AcDbEntity
  8
0
  6
Continuous
100
AcDbLine
 10
185.0186848337128
 20
118.9006281530781
 30
0.0
 11
185.0031896422397
 21
118.8923777580042
 31
0.0
  0
LINE
  5
32F
330
E3
100
AcDbEntity
  8
0
  6
Continuous
100
AcDbLine
 10
185.0031896422397
 20
118.8923777580042
 30
0.0
 11
184.9843000879542
 21
118.8835254990396
 31
0.0
  0
LINE
  5
330
330
E3
100
AcDbEntity
  8
0
  6
Continuous
100
AcDbLine
 10
184.9843000879542
 20
118.8835254990396
 30
0.0
 11
184.9621619639726
 21
118.8741050207496
 31
0.0
  0
LINE
  5
331
330
E3
100
AcDbEntity
  8
0
  6
Continuous
100
AcDbLine
 10
184.9621619639726
 20
118.8741050207496
 30
0.0
 11
184.9369547079766
 21
118.8641424911294
 31
0.0
  0
LINE
  5
332
330
E3
100
AcDbEntity
  8
0
  6
Continuous
100
AcDbLine
 10
184.9369547079766
 20
118.8641424911294
 30
0.0
 11
184.9088801873583
 21
118.8536715547443
 31
0.0
  0
LINE
  5
333
330
E3
100
AcDbEntity
  8
0
  6
Continuous
100
AcDbLine
 10
184.9088801873583
 20
118.8536715547443
 30
0.0
 11
184.8781514843646
 21
118.8427370710148
 31
0.0
  0
LINE
  5
334
330
E3
100
AcDbEntity
  8
0
  6
Continuous
100
AcDbLine
 10
184.8781514843646
 20
118.8427370710148
 30
0.0
 11
184.8450153258079
 21
118.8313726845061
 31
0.0
  0
LINE
  5
335
330
E3
100
AcDbEntity
  8
0
  6
Continuous
100
AcDbLine
 10
184.8450153258079
 20
118.8313726845061
 30
0.0
 11
184.8097296533556
 21
118.819634469494
 31
0.0
  0
LINE
  5
336
330
E3
100
AcDbEntity
  8
0
  6
Continuous
100
AcDbLine
 10
184.8097296533556
 20
118.819634469494
 30
0.0
 11
184.7725711001004
 21
118.8075635471136
 31
0.0
  0
LINE
  5
337
330
E3
100
AcDbEntity
  8
0
  6
Continuous
100
AcDbLine
 10
184.7725711001004
 20
118.8075635471136
 30
0.0
 11
184.7338275139901
 21
118.7952122533555
 31
0.0
  0
LINE
  5
338
330
E3
100
AcDbEntity
  8
0
  6
Continuous
100
AcDbLine
 10
184.7338275139901
 20
118.7952122533555
 30
0.0
 11
184.6938016961126
 21
118.7826366624953
 31
0.0
  0
LINE
  5
339
330
E3
100
AcDbEntity
  8
0
  6
Continuous
100
AcDbLine
 10
184.6938016961126
 20
118.7826366624953
 30
0.0
 11
184.6528076624107
 21
118.7698891105235
 31
0.0
  0
LINE
  5
33A
330
E3
100
AcDbEntity
  8
0
  6
Continuous
100
AcDbLine
 10
184.6528076624107
 20
118.7698891105235
 30
0.0
 11
184.6111631671127
 21
118.7570294100006
 31
0.0
  0
LINE
  5
33B
330
E3
100
AcDbEntity
  8
0
  6
Continuous
100
AcDbLine
 10
184.6111631671127
 20
118.7570294100006
 30
0.0
 11
184.5691897027315
 21
118.7441098969171
 31
0.0
  0
LINE
  5
33C
330
E3
100
AcDbEntity
  8
0
  6
Continuous
100
AcDbLine
 10
184.5691897027315
 20
118.7441098969171
 30
0.0
 11
184.5272199766353
 21
118.7311903838336
 31
0.0
  0
LINE
  5
33D
330
E3
100
AcDbEntity
  8
0
  6
Continuous
100
AcDbLine
 10
184.5272199766353
 20
118.7311903838336
 30
0.0
 11
184.4855717430523
 21
118.7183269450257
 31
0.0
  0
LINE
  5
33E
330
E3
100
AcDbEntity
  8
0
  6
Continuous
100
AcDbLine
 10
184.4855717430523
 20
118.7183269450257
 30
0.0
 11
184.4445777093504
 21
118.7055793930538
 31
0.0
  0
LINE
  5
33F
330
E3
100
AcDbEntity
  8
0
  6
Continuous
100
AcDbLine
 10
184.4445777093504
 20
118.7055793930538
 30
0.0
 11
184.4045518914729
 21
118.6930038021936
 31
0.0
  0
LINE
  5
340
330
E3
100
AcDbEntity
  8
0
  6
Continuous
100
AcDbLine
 10
184.4045518914729
 20
118.6930038021936
 30
0.0
 11
184.3658120436476
 21
118.6806525084356
 31
0.0
  0
LINE
  5
341
330
E3
100
AcDbEntity
  8
0
  6
Continuous
100
AcDbLine
 10
184.3658120436476
 20
118.6806525084356
 30
0.0
 11
184.3286497521074
 21
118.6685815860552
 31
0.0
  0
LINE
  5
342
330
E3
100
AcDbEntity
  8
0
  6
Continuous
100
AcDbLine
 10
184.3286497521074
 20
118.6685815860552
 30
0.0
 11
184.2933640796551
 21
118.656843371043
 31
0.0
  0
LINE
  5
343
330
E3
100
AcDbEntity
  8
0
  6
Continuous
100
AcDbLine
 10
184.2933640796551
 20
118.656843371043
 30
0.0
 11
184.2602279210984
 21
118.6454827228194
 31
0.0
  0
LINE
  5
344
330
E3
100
AcDbEntity
  8
0
  6
Continuous
100
AcDbLine
 10
184.2602279210984
 20
118.6454827228194
 30
0.0
 11
184.2295029563898
 21
118.6345445008049
 31
0.0
  0
LINE
  5
345
330
E3
100
AcDbEntity
  8
0
  6
Continuous
100
AcDbLine
 10
184.2295029563898
 20
118.6345445008049
 30
0.0
 11
184.2014246974864
 21
118.6240735644198
 31
0.0
  0
LINE
  5
346
330
E3
100
AcDbEntity
  8
0
  6
Continuous
100
AcDbLine
 10
184.2014246974864
 20
118.6240735644198
 30
0.0
 11
184.1762174414905
 21
118.6141110347996
 31
0.0
  0
LINE
  5
347
330
E3
100
AcDbEntity
  8
0
  6
Continuous
100
AcDbLine
 10
184.1762174414905
 20
118.6141110347996
 30
0.0
 11
184.1540793175089
 21
118.6046905565095
 31
0.0
  0
LINE
  5
348
330
E3
100
AcDbEntity
  8
0
  6
Continuous
100
AcDbLine
 10
184.1540793175089
 20
118.6046905565095
 30
0.0
 11
184.1351897632233
 21
118.5958382975449
 31
0.0
  0
LINE
  5
349
330
E3
100
AcDbEntity
  8
0
  6
Continuous
100
AcDbLine
 10
184.1351897632233
 20
118.5958382975449
 30
0.0
 11
184.1196945717502
 21
118.5875879024711
 31
0.0
  0
LINE
  5
34A
330
E3
100
AcDbEntity
  8
0
  6
Continuous
100
AcDbLine
 10
184.1196945717502
 20
118.5875879024711
 30
0.0
 11
184.1077208447807
 21
118.5799580627131
 31
0.0
  0
LINE
  5
34B
330
E3
100
AcDbEntity
  8
0
  6
Continuous
100
AcDbLine
 10
184.1077208447807
 20
118.5799580627131
 30
0.0
 11
184.0993657777259
 21
118.5729674696963
 31
0.0
  0
LINE
  5
34C
330
E3
100
AcDbEntity
  8
0
  6
Continuous
100
AcDbLine
 10
184.0993657777259
 20
118.5729674696963
 30
0.0
 11
184.0947039169361
 21
118.5666267621704
 31
0.0
  0
LINE
  5
34D
330
E3
100
AcDbEntity
  8
0
  6
Continuous
100
AcDbLine
 10
184.0947039169361
 20
118.5666267621704
 30
0.0
 11
184.0937739116212
 21
118.5609441542505
 31
0.0
  0
LINE
  5
34E
330
E3
100
AcDbEntity
  8
0
  6
Continuous
100
AcDbLine
 10
185.11255630809
 20
118.5419125541542
 30
0.0
 11
185.1116263027751
 21
118.5362299462343
 31
0.0
  0
LINE
  5
34F
330
E3
100
AcDbEntity
  8
0
  6
Continuous
100
AcDbLine
 10
185.1116263027751
 20
118.5362299462343
 30
0.0
 11
185.1069630669724
 21
118.5298890690542
 31
0.0
  0
LINE
  5
350
330
E3
100
AcDbEntity
  8
0
  6
Continuous
100
AcDbLine
 10
185.1069630669724
 20
118.5298890690542
 30
0.0
 11
185.0986093677768
 21
118.5228968799277
 31
0.0
  0
LINE
  5
351
330
E3
100
AcDbEntity
  8
0
  6
Continuous
100
AcDbLine
 10
185.0986093677768
 20
118.5228968799277
 30
0.0
 11
185.0866356408073
 21
118.5152670401698
 31
0.0
  0
LINE
  5
352
330
E3
100
AcDbEntity
  8
0
  6
Continuous
100
AcDbLine
 10
185.0866356408073
 20
118.5152670401698
 30
0.0
 11
185.0711404493342
 21
118.5070166450959
 31
0.0
  0
LINE
  5
353
330
E3
100
AcDbEntity
  8
0
  6
Continuous
100
AcDbLine
 10
185.0711404493342
 20
118.5070166450959
 30
0.0
 11
185.0522508950486
 21
118.4981681244164
 31
0.0
  0
LINE
  5
354
330
E3
100
AcDbEntity
  8
0
  6
Continuous
100
AcDbLine
 10
185.0522508950486
 20
118.4981681244164
 30
0.0
 11
185.030112771067
 21
118.4887439078413
 31
0.0
  0
LINE
  5
355
330
E3
100
AcDbEntity
  8
0
  6
Continuous
100
AcDbLine
 10
185.030112771067
 20
118.4887439078413
 30
0.0
 11
185.0049055150711
 21
118.4787813782211
 31
0.0
  0
LINE
  5
356
330
E3
100
AcDbEntity
  8
0
  6
Continuous
100
AcDbLine
 10
185.0049055150711
 20
118.4787813782211
 30
0.0
 11
184.9768272561677
 21
118.468314180121
 31
0.0
  0
LINE
  5
357
330
E3
100
AcDbEntity
  8
0
  6
Continuous
100
AcDbLine
 10
184.9768272561677
 20
118.468314180121
 30
0.0
 11
184.9461022914591
 21
118.4573759581065
 31
0.0
  0
LINE
  5
358
330
E3
100
AcDbEntity
  8
0
  6
Continuous
100
AcDbLine
 10
184.9461022914591
 20
118.4573759581065
 30
0.0
 11
184.9129661329023
 21
118.4460153098829
 31
0.0
  0
LINE
  5
359
330
E3
100
AcDbEntity
  8
0
  6
Continuous
100
AcDbLine
 10
184.9129661329023
 20
118.4460153098829
 30
0.0
 11
184.8776804604501
 21
118.4342733565857
 31
0.0
  0
LINE
  5
35A
330
E3
100
AcDbEntity
  8
0
  6
Continuous
100
AcDbLine
 10
184.8776804604501
 20
118.4342733565857
 30
0.0
 11
184.8405181689099
 21
118.4222024342053
 31
0.0
  0
LINE
  5
35B
330
E3
100
AcDbEntity
  8
0
  6
Continuous
100
AcDbLine
 10
184.8405181689099
 20
118.4222024342053
 30
0.0
 11
184.8017783210846
 21
118.4098548787323
 31
0.0
  0
LINE
  5
35C
330
E3
100
AcDbEntity
  8
0
  6
Continuous
100
AcDbLine
 10
184.8017783210846
 20
118.4098548787323
 30
0.0
 11
184.761752503207
 21
118.397275549587
 31
0.0
  0
LINE
  5
35D
330
E3
100
AcDbEntity
  8
0
  6
Continuous
100
AcDbLine
 10
184.761752503207
 20
118.397275549587
 30
0.0
 11
184.7207584695052
 21
118.3845279976152
 31
0.0
  0
LINE
  5
35E
330
E3
100
AcDbEntity
  8
0
  6
Continuous
100
AcDbLine
 10
184.7207584695052
 20
118.3845279976152
 30
0.0
 11
184.6791102359221
 21
118.3716682970923
 31
0.0
  0
LINE
  5
35F
330
E3
100
AcDbEntity
  8
0
  6
Continuous
100
AcDbLine
 10
184.6791102359221
 20
118.3716682970923
 30
0.0
 11
184.637140509826
 21
118.3587487840088
 31
0.0
  0
LINE
  5
360
330
E3
100
AcDbEntity
  8
0
  6
Continuous
100
AcDbLine
 10
184.637140509826
 20
118.3587487840088
 30
0.0
 11
184.5951670454448
 21
118.3458292709253
 31
0.0
  0
LINE
  5
361
330
E3
100
AcDbEntity
  8
0
  6
Continuous
100
AcDbLine
 10
184.5951670454448
 20
118.3458292709253
 30
0.0
 11
184.5535225501468
 21
118.3329658321174
 31
0.0
  0
LINE
  5
362
330
E3
100
AcDbEntity
  8
0
  6
Continuous
100
AcDbLine
 10
184.5535225501468
 20
118.3329658321174
 30
0.0
 11
184.5125285164449
 21
118.3202220184306
 31
0.0
  0
LINE
  5
363
330
E3
100
AcDbEntity
  8
0
  6
Continuous
100
AcDbLine
 10
184.5125285164449
 20
118.3202220184306
 30
0.0
 11
184.4725026985674
 21
118.3076426892853
 31
0.0
  0
LINE
  5
364
330
E3
100
AcDbEntity
  8
0
  6
Continuous
100
AcDbLine
 10
184.4725026985674
 20
118.3076426892853
 30
0.0
 11
184.433759112457
 21
118.2952951338123
 31
0.0
  0
LINE
  5
365
330
E3
100
AcDbEntity
  8
0
  6
Continuous
100
AcDbLine
 10
184.433759112457
 20
118.2952951338123
 30
0.0
 11
184.3966005592019
 21
118.2832242114319
 31
0.0
  0
LINE
  5
366
330
E3
100
AcDbEntity
  8
0
  6
Continuous
100
AcDbLine
 10
184.3966005592019
 20
118.2832242114319
 30
0.0
 11
184.3613148867497
 21
118.2714822581347
 31
0.0
  0
LINE
  5
367
330
E3
100
AcDbEntity
  8
0
  6
Continuous
100
AcDbLine
 10
184.3613148867497
 20
118.2714822581347
 30
0.0
 11
184.3281787281929
 21
118.2601216099111
 31
0.0
  0
LINE
  5
368
330
E3
100
AcDbEntity
  8
0
  6
Continuous
100
AcDbLine
 10
184.3281787281929
 20
118.2601216099111
 30
0.0
 11
184.2974500251992
 21
118.2491833878966
 31
0.0
  0
LINE
  5
369
330
E3
100
AcDbEntity
  8
0
  6
Continuous
100
AcDbLine
 10
184.2974500251992
 20
118.2491833878966
 30
0.0
 11
184.2693755045809
 21
118.2387161897965
 31
0.0
  0
LINE
  5
36A
330
E3
100
AcDbEntity
  8
0
  6
Continuous
100
AcDbLine
 10
184.2693755045809
 20
118.2387161897965
 30
0.0
 11
184.2441682485849
 21
118.2287536601763
 31
0.0
  0
LINE
  5
36B
330
E3
100
AcDbEntity
  8
0
  6
Continuous
100
AcDbLine
 10
184.2441682485849
 20
118.2287536601763
 30
0.0
 11
184.2220301246034
 21
118.2193294436012
 31
0.0
  0
LINE
  5
36C
330
E3
100
AcDbEntity
  8
0
  6
Continuous
100
AcDbLine
 10
184.2220301246034
 20
118.2193294436012
 30
0.0
 11
184.2031405703178
 21
118.2104809229216
 31
0.0
  0
LINE
  5
36D
330
E3
100
AcDbEntity
  8
0
  6
Continuous
100
AcDbLine
 10
184.2031405703178
 20
118.2104809229216
 30
0.0
 11
184.1876453788447
 21
118.2022305278478
 31
0.0
  0
LINE
  5
36E
330
E3
100
AcDbEntity
  8
0
  6
Continuous
100
AcDbLine
 10
184.1876453788447
 20
118.2022305278478
 30
0.0
 11
184.1756716518753
 21
118.1946006880899
 31
0.0
  0
LINE
  5
36F
330
E3
100
AcDbEntity
  8
0
  6
Continuous
100
AcDbLine
 10
184.1756716518753
 20
118.1946006880899
 30
0.0
 11
184.1673165848204
 21
118.187606356788
 31
0.0
  0
LINE
  5
370
330
E3
100
AcDbEntity
  8
0
  6
Continuous
100
AcDbLine
 10
184.1673165848204
 20
118.187606356788
 30
0.0
 11
184.1626532038493
 21
118.1812672066439
 31
0.0
  0
LINE
  5
371
330
E3
100
AcDbEntity
  8
0
  6
Continuous
100
AcDbLine
 10
184.1626532038493
 20
118.1812672066439
 30
0.0
 11
184.1617231985344
 21
118.175584598724
 31
0.0
  0
LINE
  5
372
330
E3
100
AcDbEntity
  8
0
  6
Continuous
100
AcDbLine
 10
185.1805055950032
 20
118.1565529986277
 30
0.0
 11
185.1795755896883
 21
118.1508703907078
 31
0.0
  0
LINE
  5
373
330
E3
100
AcDbEntity
  8
0
  6
Continuous
100
AcDbLine
 10
185.1795755896883
 20
118.1508703907078
 30
0.0
 11
185.1749123538856
 21
118.1445295135277
 31
0.0
  0
LINE
  5
374
330
E3
100
AcDbEntity
  8
0
  6
Continuous
100
AcDbLine
 10
185.1749123538856
 20
118.1445295135277
 30
0.0
 11
185.1665601748712
 21
118.1375395053045
 31
0.0
  0
LINE
  5
375
330
E3
100
AcDbEntity
  8
0
  6
Continuous
100
AcDbLine
 10
185.1665601748712
 20
118.1375395053045
 30
0.0
 11
185.1545864479017
 21
118.1299096655465
 31
0.0
  0
LINE
  5
376
330
E3
100
AcDbEntity
  8
0
  6
Continuous
100
AcDbLine
 10
185.1545864479017
 20
118.1299096655465
 30
0.0
 11
185.1390912564287
 21
118.1216555321876
 31
0.0
  0
LINE
  5
377
330
E3
100
AcDbEntity
  8
0
  6
Continuous
100
AcDbLine
 10
185.1390912564287
 20
118.1216555321876
 30
0.0
 11
185.1201979638581
 21
118.1128070115081
 31
0.0
  0
LINE
  5
378
330
E3
100
AcDbEntity
  8
0
  6
Continuous
100
AcDbLine
 10
185.1201979638581
 20
118.1128070115081
 30
0.0
 11
185.0980598398765
 21
118.103386533218
 31
0.0
  0
LINE
  5
379
330
E3
100
AcDbEntity
  8
0
  6
Continuous
100
AcDbLine
 10
185.0980598398765
 20
118.103386533218
 30
0.0
 11
185.0728563221656
 21
118.0934240035978
 31
0.0
  0
LINE
  5
37A
330
E3
100
AcDbEntity
  8
0
  6
Continuous
100
AcDbLine
 10
185.0728563221656
 20
118.0934240035978
 30
0.0
 11
185.0447780632622
 21
118.0829530672127
 31
0.0
  0
LINE
  5
37B
330
E3
100
AcDbEntity
  8
0
  6
Continuous
100
AcDbLine
 10
185.0447780632622
 20
118.0829530672127
 30
0.0
 11
185.0140493602685
 21
118.0720148451982
 31
0.0
  0
LINE
  5
37C
330
E3
100
AcDbEntity
  8
0
  6
Continuous
100
AcDbLine
 10
185.0140493602685
 20
118.0720148451982
 30
0.0
 11
184.9809132017118
 21
118.0606541969746
 31
0.0
  0
LINE
  5
37D
330
E3
100
AcDbEntity
  8
0
  6
Continuous
100
AcDbLine
 10
184.9809132017118
 20
118.0606541969746
 30
0.0
 11
184.9456275292595
 21
118.0489159819624
 31
0.0
  0
LINE
  5
37E
330
E3
100
AcDbEntity
  8
0
  6
Continuous
100
AcDbLine
 10
184.9456275292595
 20
118.0489159819624
 30
0.0
 11
184.9084689760043
 21
118.036845059582
 31
0.0
  0
LINE
  5
37F
330
E3
100
AcDbEntity
  8
0
  6
Continuous
100
AcDbLine
 10
184.9084689760043
 20
118.036845059582
 30
0.0
 11
184.8697253898941
 21
118.024493765824
 31
0.0
  0
LINE
  5
380
330
E3
100
AcDbEntity
  8
0
  6
Continuous
100
AcDbLine
 10
184.8697253898941
 20
118.024493765824
 30
0.0
 11
184.8296995720165
 21
118.0119181749638
 31
0.0
  0
LINE
  5
381
330
E3
100
AcDbEntity
  8
0
  6
Continuous
100
AcDbLine
 10
184.8296995720165
 20
118.0119181749638
 30
0.0
 11
184.7887055383147
 21
117.9991706229919
 31
0.0
  0
LINE
  5
382
330
E3
100
AcDbEntity
  8
0
  6
Continuous
100
AcDbLine
 10
184.7887055383147
 20
117.9991706229919
 30
0.0
 11
184.7470610430166
 21
117.986307184184
 31
0.0
  0
LINE
  5
383
330
E3
100
AcDbEntity
  8
0
  6
Continuous
100
AcDbLine
 10
184.7470610430166
 20
117.986307184184
 30
0.0
 11
184.7050875786354
 21
117.9733876711005
 31
0.0
  0
LINE
  5
384
330
E3
100
AcDbEntity
  8
0
  6
Continuous
100
AcDbLine
 10
184.7050875786354
 20
117.9733876711005
 30
0.0
 11
184.6631178525393
 21
117.960468158017
 31
0.0
  0
LINE
  5
385
330
E3
100
AcDbEntity
  8
0
  6
Continuous
100
AcDbLine
 10
184.6631178525393
 20
117.960468158017
 30
0.0
 11
184.6214696189562
 21
117.9476084574941
 31
0.0
  0
LINE
  5
386
330
E3
100
AcDbEntity
  8
0
  6
Continuous
100
AcDbLine
 10
184.6214696189562
 20
117.9476084574941
 30
0.0
 11
184.5804755852544
 21
117.9348609055223
 31
0.0
  0
LINE
  5
387
330
E3
100
AcDbEntity
  8
0
  6
Continuous
100
AcDbLine
 10
184.5804755852544
 20
117.9348609055223
 30
0.0
 11
184.5404535056618
 21
117.922285314662
 31
0.0
  0
LINE
  5
388
330
E3
100
AcDbEntity
  8
0
  6
Continuous
100
AcDbLine
 10
184.5404535056618
 20
117.922285314662
 30
0.0
 11
184.5017099195515
 21
117.909934020904
 31
0.0
  0
LINE
  5
389
330
E3
100
AcDbEntity
  8
0
  6
Continuous
100
AcDbLine
 10
184.5017099195515
 20
117.909934020904
 30
0.0
 11
184.4645513662963
 21
117.8978630985236
 31
0.0
  0
LINE
  5
38A
330
E3
100
AcDbEntity
  8
0
  6
Continuous
100
AcDbLine
 10
184.4645513662963
 20
117.8978630985236
 30
0.0
 11
184.4292656938441
 21
117.8861248835114
 31
0.0
  0
LINE
  5
38B
330
E3
100
AcDbEntity
  8
0
  6
Continuous
100
AcDbLine
 10
184.4292656938441
 20
117.8861248835114
 30
0.0
 11
184.3961295352874
 21
117.8747604970028
 31
0.0
  0
LINE
  5
38C
330
E3
100
AcDbEntity
  8
0
  6
Continuous
100
AcDbLine
 10
184.3961295352874
 20
117.8747604970028
 30
0.0
 11
184.3654008322937
 21
117.8638260132733
 31
0.0
  0
LINE
  5
38D
330
E3
100
AcDbEntity
  8
0
  6
Continuous
100
AcDbLine
 10
184.3654008322937
 20
117.8638260132733
 30
0.0
 11
184.3373225733903
 21
117.8533550768882
 31
0.0
  0
LINE
  5
38E
330
E3
100
AcDbEntity
  8
0
  6
Continuous
100
AcDbLine
 10
184.3373225733903
 20
117.8533550768882
 30
0.0
 11
184.3121153173944
 21
117.843392547268
 31
0.0
  0
LINE
  5
38F
330
E3
100
AcDbEntity
  8
0
  6
Continuous
100
AcDbLine
 10
184.3121153173944
 20
117.843392547268
 30
0.0
 11
184.2899809316978
 21
117.8339720689779
 31
0.0
  0
LINE
  5
390
330
E3
100
AcDbEntity
  8
0
  6
Continuous
100
AcDbLine
 10
184.2899809316978
 20
117.8339720689779
 30
0.0
 11
184.2710876391272
 21
117.8251198100133
 31
0.0
  0
LINE
  5
391
330
E3
100
AcDbEntity
  8
0
  6
Continuous
100
AcDbLine
 10
184.2710876391272
 20
117.8251198100133
 30
0.0
 11
184.2555924476541
 21
117.8168694149395
 31
0.0
  0
LINE
  5
392
330
E3
100
AcDbEntity
  8
0
  6
Continuous
100
AcDbLine
 10
184.2555924476541
 20
117.8168694149395
 30
0.0
 11
184.2436187206847
 21
117.8092395751816
 31
0.0
  0
LINE
  5
393
330
E3
100
AcDbEntity
  8
0
  6
Continuous
100
AcDbLine
 10
184.2436187206847
 20
117.8092395751816
 30
0.0
 11
184.2352673919148
 21
117.8022489821647
 31
0.0
  0
LINE
  5
394
330
E3
100
AcDbEntity
  8
0
  6
Continuous
100
AcDbLine
 10
184.2352673919148
 20
117.8022489821647
 30
0.0
 11
184.2306024907624
 21
117.7959076511174
 31
0.0
  0
LINE
  5
395
330
E3
100
AcDbEntity
  8
0
  6
Continuous
100
AcDbLine
 10
184.2306024907624
 20
117.7959076511174
 30
0.0
 11
184.2296724854475
 21
117.7902250431975
 31
0.0
  0
LINE
  5
396
330
E3
100
AcDbEntity
  8
0
  6
Continuous
100
AcDbLine
 10
185.2484548819163
 20
117.7711934431012
 30
0.0
 11
185.2475248766014
 21
117.7655108351813
 31
0.0
  0
LINE
  5
397
330
E3
100
AcDbEntity
  8
0
  6
Continuous
100
AcDbLine
 10
185.2475248766014
 20
117.7655108351813
 30
0.0
 11
185.2428616407987
 21
117.7591699580012
 31
0.0
  0
LINE
  5
398
330
E3
100
AcDbEntity
  8
0
  6
Continuous
100
AcDbLine
 10
185.2428616407987
 20
117.7591699580012
 30
0.0
 11
185.2345072436806
 21
117.7521783923962
 31
0.0
  0
LINE
  5
399
330
E3
100
AcDbEntity
  8
0
  6
Continuous
100
AcDbLine
 10
185.2345072436806
 20
117.7521783923962
 30
0.0
 11
185.2225335167112
 21
117.7445485526382
 31
0.0
  0
LINE
  5
39A
330
E3
100
AcDbEntity
  8
0
  6
Continuous
100
AcDbLine
 10
185.2225335167112
 20
117.7445485526382
 30
0.0
 11
185.2070383252381
 21
117.7362981575644
 31
0.0
  0
LINE
  5
39B
330
E3
100
AcDbEntity
  8
0
  6
Continuous
100
AcDbLine
 10
185.2070383252381
 20
117.7362981575644
 30
0.0
 11
185.1881487709526
 21
117.7274496368848
 31
0.0
  0
LINE
  5
39C
330
E3
100
AcDbEntity
  8
0
  6
Continuous
100
AcDbLine
 10
185.1881487709526
 20
117.7274496368848
 30
0.0
 11
185.166010646971
 21
117.7180254203097
 31
0.0
  0
LINE
  5
39D
330
E3
100
AcDbEntity
  8
0
  6
Continuous
100
AcDbLine
 10
185.166010646971
 20
117.7180254203097
 30
0.0
 11
185.140803390975
 21
117.7080628906895
 31
0.0
  0
LINE
  5
39E
330
E3
100
AcDbEntity
  8
0
  6
Continuous
100
AcDbLine
 10
185.140803390975
 20
117.7080628906895
 30
0.0
 11
185.1127251320716
 21
117.6975919543044
 31
0.0
  0
LINE
  5
39F
330
E3
100
AcDbEntity
  8
0
  6
Continuous
100
AcDbLine
 10
185.1127251320716
 20
117.6975919543044
 30
0.0
 11
185.082000167363
 21
117.6866574705749
 31
0.0
  0
LINE
  5
3A0
330
E3
100
AcDbEntity
  8
0
  6
Continuous
100
AcDbLine
 10
185.082000167363
 20
117.6866574705749
 30
0.0
 11
185.0488640088063
 21
117.6752968223513
 31
0.0
  0
LINE
  5
3A1
330
E3
100
AcDbEntity
  8
0
  6
Continuous
100
AcDbLine
 10
185.0488640088063
 20
117.6752968223513
 30
0.0
 11
185.013578336354
 21
117.6635548690541
 31
0.0
  0
LINE
  5
3A2
330
E3
100
AcDbEntity
  8
0
  6
Continuous
100
AcDbLine
 10
185.013578336354
 20
117.6635548690541
 30
0.0
 11
184.9764197830988
 21
117.6514839466737
 31
0.0
  0
LINE
  5
3A3
330
E3
100
AcDbEntity
  8
0
  6
Continuous
100
AcDbLine
 10
184.9764197830988
 20
117.6514839466737
 30
0.0
 11
184.9376761969885
 21
117.6391326529157
 31
0.0
  0
LINE
  5
3A4
330
E3
100
AcDbEntity
  8
0
  6
Continuous
100
AcDbLine
 10
184.9376761969885
 20
117.6391326529157
 30
0.0
 11
184.897650379111
 21
117.6265570620555
 31
0.0
  0
LINE
  5
3A5
330
E3
100
AcDbEntity
  8
0
  6
Continuous
100
AcDbLine
 10
184.897650379111
 20
117.6265570620555
 30
0.0
 11
184.8566563454091
 21
117.6138095100836
 31
0.0
  0
LINE
  5
3A6
330
E3
100
AcDbEntity
  8
0
  6
Continuous
100
AcDbLine
 10
184.8566563454091
 20
117.6138095100836
 30
0.0
 11
184.8150118501111
 21
117.6009498095607
 31
0.0
  0
LINE
  5
3A7
330
E3
100
AcDbEntity
  8
0
  6
Continuous
100
AcDbLine
 10
184.8150118501111
 20
117.6009498095607
 30
0.0
 11
184.7730383857299
 21
117.5880302964772
 31
0.0
  0
LINE
  5
3A8
330
E3
100
AcDbEntity
  8
0
  6
Continuous
100
AcDbLine
 10
184.7730383857299
 20
117.5880302964772
 30
0.0
 11
184.7310649213487
 21
117.5751107833937
 31
0.0
  0
LINE
  5
3A9
330
E3
100
AcDbEntity
  8
0
  6
Continuous
100
AcDbLine
 10
184.7310649213487
 20
117.5751107833937
 30
0.0
 11
184.6894204260507
 21
117.5622473445858
 31
0.0
  0
LINE
  5
3AA
330
E3
100
AcDbEntity
  8
0
  6
Continuous
100
AcDbLine
 10
184.6894204260507
 20
117.5622473445858
 30
0.0
 11
184.6484263923489
 21
117.5494997926139
 31
0.0
  0
LINE
  5
3AB
330
E3
100
AcDbEntity
  8
0
  6
Continuous
100
AcDbLine
 10
184.6484263923489
 20
117.5494997926139
 30
0.0
 11
184.6084005744713
 21
117.5369242017537
 31
0.0
  0
LINE
  5
3AC
330
E3
100
AcDbEntity
  8
0
  6
Continuous
100
AcDbLine
 10
184.6084005744713
 20
117.5369242017537
 30
0.0
 11
184.5696569883609
 21
117.5245766462807
 31
0.0
  0
LINE
  5
3AD
330
E3
100
AcDbEntity
  8
0
  6
Continuous
100
AcDbLine
 10
184.5696569883609
 20
117.5245766462807
 30
0.0
 11
184.5324984351058
 21
117.5125057239004
 31
0.0
  0
LINE
  5
3AE
330
E3
100
AcDbEntity
  8
0
  6
Continuous
100
AcDbLine
 10
184.5324984351058
 20
117.5125057239004
 30
0.0
 11
184.4972127626535
 21
117.5007637706031
 31
0.0
  0
LINE
  5
3AF
330
E3
100
AcDbEntity
  8
0
  6
Continuous
100
AcDbLine
 10
184.4972127626535
 20
117.5007637706031
 30
0.0
 11
184.4640766040968
 21
117.4894031223795
 31
0.0
  0
LINE
  5
3B0
330
E3
100
AcDbEntity
  8
0
  6
Continuous
100
AcDbLine
 10
184.4640766040968
 20
117.4894031223795
 30
0.0
 11
184.4333516393881
 21
117.478464900365
 31
0.0
  0
LINE
  5
3B1
330
E3
100
AcDbEntity
  8
0
  6
Continuous
100
AcDbLine
 10
184.4333516393881
 20
117.478464900365
 30
0.0
 11
184.4052733804848
 21
117.4679977022649
 31
0.0
  0
LINE
  5
3B2
330
E3
100
AcDbEntity
  8
0
  6
Continuous
100
AcDbLine
 10
184.4052733804848
 20
117.4679977022649
 30
0.0
 11
184.3800661244888
 21
117.4580314343597
 31
0.0
  0
LINE
  5
3B3
330
E3
100
AcDbEntity
  8
0
  6
Continuous
100
AcDbLine
 10
184.3800661244888
 20
117.4580314343597
 30
0.0
 11
184.3579280005072
 21
117.4486109560696
 31
0.0
  0
LINE
  5
3B4
330
E3
100
AcDbEntity
  8
0
  6
Continuous
100
AcDbLine
 10
184.3579280005072
 20
117.4486109560696
 30
0.0
 11
184.3390384462217
 21
117.4397624353901
 31
0.0
  0
LINE
  5
3B5
330
E3
100
AcDbEntity
  8
0
  6
Continuous
100
AcDbLine
 10
184.3390384462217
 20
117.4397624353901
 30
0.0
 11
184.3235432547486
 21
117.4315120403162
 31
0.0
  0
LINE
  5
3B6
330
E3
100
AcDbEntity
  8
0
  6
Continuous
100
AcDbLine
 10
184.3235432547486
 20
117.4315120403162
 30
0.0
 11
184.3115695277792
 21
117.4238822005583
 31
0.0
  0
LINE
  5
3B7
330
E3
100
AcDbEntity
  8
0
  6
Continuous
100
AcDbLine
 10
184.3115695277792
 20
117.4238822005583
 30
0.0
 11
184.3032144607243
 21
117.4168878692564
 31
0.0
  0
LINE
  5
3B8
330
E3
100
AcDbEntity
  8
0
  6
Continuous
100
AcDbLine
 10
184.3032144607243
 20
117.4168878692564
 30
0.0
 11
184.2985517776756
 21
117.4105480955909
 31
0.0
  0
LINE
  5
3B9
330
E3
100
AcDbEntity
  8
0
  6
Continuous
100
AcDbLine
 10
184.2985517776756
 20
117.4105480955909
 30
0.0
 11
184.2976217723607
 21
117.404865487671
 31
0.0
  0
LINE
  5
3BA
330
E3
100
AcDbEntity
  8
0
  6
Continuous
100
AcDbLine
 10
185.3164041688295
 20
117.3858338875747
 30
0.0
 11
185.3154741635146
 21
117.3801512796548
 31
0.0
  0
LINE
  5
3BB
330
E3
100
AcDbEntity
  8
0
  6
Continuous
100
AcDbLine
 10
185.3154741635146
 20
117.3801512796548
 30
0.0
 11
185.3108109277119
 21
117.3738104024747
 31
0.0
  0
LINE
  5
3BC
330
E3
100
AcDbEntity
  8
0
  6
Continuous
100
AcDbLine
 10
185.3108109277119
 20
117.3738104024747
 30
0.0
 11
185.3024580507751
 21
117.3668172794879
 31
0.0
  0
LINE
  5
3BD
330
E3
100
AcDbEntity
  8
0
  6
Continuous
100
AcDbLine
 10
185.3024580507751
 20
117.3668172794879
 30
0.0
 11
185.2904843238057
 21
117.3591874397299
 31
0.0
  0
LINE
  5
3BE
330
E3
100
AcDbEntity
  8
0
  6
Continuous
100
AcDbLine
 10
185.2904843238057
 20
117.3591874397299
 30
0.0
 11
185.2749891323326
 21
117.3509370446561
 31
0.0
  0
LINE
  5
3BF
330
E3
100
AcDbEntity
  8
0
  6
Continuous
100
AcDbLine
 10
185.2749891323326
 20
117.3509370446561
 30
0.0
 11
185.256095839762
 21
117.3420885239765
 31
0.0
  0
LINE
  5
3C0
330
E3
100
AcDbEntity
  8
0
  6
Continuous
100
AcDbLine
 10
185.256095839762
 20
117.3420885239765
 30
0.0
 11
185.2339614540654
 21
117.3326680456865
 31
0.0
  0
LINE
  5
3C1
330
E3
100
AcDbEntity
  8
0
  6
Continuous
100
AcDbLine
 10
185.2339614540654
 20
117.3326680456865
 30
0.0
 11
185.2087541980695
 21
117.3227017777812
 31
0.0
  0
LINE
  5
3C2
330
E3
100
AcDbEntity
  8
0
  6
Continuous
100
AcDbLine
 10
185.2087541980695
 20
117.3227017777812
 30
0.0
 11
185.1806759391661
 21
117.3122345796811
 31
0.0
  0
LINE
  5
3C3
330
E3
100
AcDbEntity
  8
0
  6
Continuous
100
AcDbLine
 10
185.1806759391661
 20
117.3122345796811
 30
0.0
 11
185.1499472361724
 21
117.3012963576666
 31
0.0
  0
LINE
  5
3C4
330
E3
100
AcDbEntity
  8
0
  6
Continuous
100
AcDbLine
 10
185.1499472361724
 20
117.3012963576666
 30
0.0
 11
185.1168110776157
 21
117.289935709443
 31
0.0
  0
LINE
  5
3C5
330
E3
100
AcDbEntity
  8
0
  6
Continuous
100
AcDbLine
 10
185.1168110776157
 20
117.289935709443
 30
0.0
 11
185.0815254051634
 21
117.2781937561458
 31
0.0
  0
LINE
  5
3C6
330
E3
100
AcDbEntity
  8
0
  6
Continuous
100
AcDbLine
 10
185.0815254051634
 20
117.2781937561458
 30
0.0
 11
185.0443668519083
 21
117.2661228337654
 31
0.0
  0
LINE
  5
3C7
330
E3
100
AcDbEntity
  8
0
  6
Continuous
100
AcDbLine
 10
185.0443668519083
 20
117.2661228337654
 30
0.0
 11
185.005623265798
 21
117.2537752782924
 31
0.0
  0
LINE
  5
3C8
330
E3
100
AcDbEntity
  8
0
  6
Continuous
100
AcDbLine
 10
185.005623265798
 20
117.2537752782924
 30
0.0
 11
184.9656011862054
 21
117.2411996874322
 31
0.0
  0
LINE
  5
3C9
330
E3
100
AcDbEntity
  8
0
  6
Continuous
100
AcDbLine
 10
184.9656011862054
 20
117.2411996874322
 30
0.0
 11
184.9246034142186
 21
117.2284521354604
 31
0.0
  0
LINE
  5
3CA
330
E3
100
AcDbEntity
  8
0
  6
Continuous
100
AcDbLine
 10
184.9246034142186
 20
117.2284521354604
 30
0.0
 11
184.8829589189205
 21
117.2155886966524
 31
0.0
  0
LINE
  5
3CB
330
E3
100
AcDbEntity
  8
0
  6
Continuous
100
AcDbLine
 10
184.8829589189205
 20
117.2155886966524
 30
0.0
 11
184.8409891928244
 21
117.2026691835689
 31
0.0
  0
LINE
  5
3CC
330
E3
100
AcDbEntity
  8
0
  6
Continuous
100
AcDbLine
 10
184.8409891928244
 20
117.2026691835689
 30
0.0
 11
184.7990157284432
 21
117.1897496704854
 31
0.0
  0
LINE
  5
3CD
330
E3
100
AcDbEntity
  8
0
  6
Continuous
100
AcDbLine
 10
184.7990157284432
 20
117.1897496704854
 30
0.0
 11
184.7573712331452
 21
117.1768899699625
 31
0.0
  0
LINE
  5
3CE
330
E3
100
AcDbEntity
  8
0
  6
Continuous
100
AcDbLine
 10
184.7573712331452
 20
117.1768899699625
 30
0.0
 11
184.7163771994433
 21
117.1641424179907
 31
0.0
  0
LINE
  5
3CF
330
E3
100
AcDbEntity
  8
0
  6
Continuous
100
AcDbLine
 10
184.7163771994433
 20
117.1641424179907
 30
0.0
 11
184.6763513815658
 21
117.1515668271305
 31
0.0
  0
LINE
  5
3D0
330
E3
100
AcDbEntity
  8
0
  6
Continuous
100
AcDbLine
 10
184.6763513815658
 20
117.1515668271305
 30
0.0
 11
184.6376077954555
 21
117.1392155333724
 31
0.0
  0
LINE
  5
3D1
330
E3
100
AcDbEntity
  8
0
  6
Continuous
100
AcDbLine
 10
184.6376077954555
 20
117.1392155333724
 30
0.0
 11
184.6004492422003
 21
117.127144610992
 31
0.0
  0
LINE
  5
3D2
330
E3
100
AcDbEntity
  8
0
  6
Continuous
100
AcDbLine
 10
184.6004492422003
 20
117.127144610992
 30
0.0
 11
184.565163569748
 21
117.1154026576948
 31
0.0
  0
LINE
  5
3D3
330
E3
100
AcDbEntity
  8
0
  6
Continuous
100
AcDbLine
 10
184.565163569748
 20
117.1154026576948
 30
0.0
 11
184.5320274111913
 21
117.1040420094712
 31
0.0
  0
LINE
  5
3D4
330
E3
100
AcDbEntity
  8
0
  6
Continuous
100
AcDbLine
 10
184.5320274111913
 20
117.1040420094712
 30
0.0
 11
184.5012987081976
 21
117.0931075257417
 31
0.0
  0
LINE
  5
3D5
330
E3
100
AcDbEntity
  8
0
  6
Continuous
100
AcDbLine
 10
184.5012987081976
 20
117.0931075257417
 30
0.0
 11
184.4732204492942
 21
117.0826365893567
 31
0.0
  0
LINE
  5
3D6
330
E3
100
AcDbEntity
  8
0
  6
Continuous
100
AcDbLine
 10
184.4732204492942
 20
117.0826365893567
 30
0.0
 11
184.4480169315833
 21
117.0726740597364
 31
0.0
  0
LINE
  5
3D7
330
E3
100
AcDbEntity
  8
0
  6
Continuous
100
AcDbLine
 10
184.4480169315833
 20
117.0726740597364
 30
0.0
 11
184.4258788076017
 21
117.0632498431614
 31
0.0
  0
LINE
  5
3D8
330
E3
100
AcDbEntity
  8
0
  6
Continuous
100
AcDbLine
 10
184.4258788076017
 20
117.0632498431614
 30
0.0
 11
184.4069855150312
 21
117.0544013224818
 31
0.0
  0
LINE
  5
3D9
330
E3
100
AcDbEntity
  8
0
  6
Continuous
100
AcDbLine
 10
184.4069855150312
 20
117.0544013224818
 30
0.0
 11
184.3914903235581
 21
117.0461509274079
 31
0.0
  0
LINE
  5
3DA
330
E3
100
AcDbEntity
  8
0
  6
Continuous
100
AcDbLine
 10
184.3914903235581
 20
117.0461509274079
 30
0.0
 11
184.3795165965886
 21
117.03852108765
 31
0.0
  0
LINE
  5
3DB
330
E3
100
AcDbEntity
  8
0
  6
Continuous
100
AcDbLine
 10
184.3795165965886
 20
117.03852108765
 30
0.0
 11
184.3711652678188
 21
117.0315304946332
 31
0.0
  0
LINE
  5
3DC
330
E3
100
AcDbEntity
  8
0
  6
Continuous
100
AcDbLine
 10
184.3711652678188
 20
117.0315304946332
 30
0.0
 11
184.3665010645887
 21
117.0251885400644
 31
0.0
  0
LINE
  5
3DD
330
E3
100
AcDbEntity
  8
0
  6
Continuous
100
AcDbLine
 10
184.3665010645887
 20
117.0251885400644
 30
0.0
 11
184.3655710592738
 21
117.0195059321445
 31
0.0
  0
LINE
  5
3DE
330
E3
100
AcDbEntity
  8
0
  6
Continuous
100
AcDbLine
 10
185.3843534557426
 20
117.0004743320481
 30
0.0
 11
185.3834234504277
 21
116.9947917241282
 31
0.0
  0
LINE
  5
3DF
330
E3
100
AcDbEntity
  8
0
  6
Continuous
100
AcDbLine
 10
185.3834234504277
 20
116.9947917241282
 30
0.0
 11
185.378760214625
 21
116.9884508469481
 31
0.0
  0
LINE
  5
3E0
330
E3
100
AcDbEntity
  8
0
  6
Continuous
100
AcDbLine
 10
185.378760214625
 20
116.9884508469481
 30
0.0
 11
185.3704051195846
 21
116.9814599048646
 31
0.0
  0
LINE
  5
3E1
330
E3
100
AcDbEntity
  8
0
  6
Continuous
100
AcDbLine
 10
185.3704051195846
 20
116.9814599048646
 30
0.0
 11
185.3584313926151
 21
116.9738300651067
 31
0.0
  0
LINE
  5
3E2
330
E3
100
AcDbEntity
  8
0
  6
Continuous
100
AcDbLine
 10
185.3584313926151
 20
116.9738300651067
 30
0.0
 11
185.342936201142
 21
116.9655796700328
 31
0.0
  0
LINE
  5
3E3
330
E3
100
AcDbEntity
  8
0
  6
Continuous
100
AcDbLine
 10
185.342936201142
 20
116.9655796700328
 30
0.0
 11
185.3240466468565
 21
116.9567274110682
 31
0.0
  0
LINE
  5
3E4
330
E3
100
AcDbEntity
  8
0
  6
Continuous
100
AcDbLine
 10
185.3240466468565
 20
116.9567274110682
 30
0.0
 11
185.3019085228749
 21
116.9473069327781
 31
0.0
  0
LINE
  5
3E5
330
E3
100
AcDbEntity
  8
0
  6
Continuous
100
AcDbLine
 10
185.3019085228749
 20
116.9473069327781
 30
0.0
 11
185.2767012668789
 21
116.9373444031579
 31
0.0
  0
LINE
  5
3E6
330
E3
100
AcDbEntity
  8
0
  6
Continuous
100
AcDbLine
 10
185.2767012668789
 20
116.9373444031579
 30
0.0
 11
185.2486267462606
 21
116.9268734667729
 31
0.0
  0
LINE
  5
3E7
330
E3
100
AcDbEntity
  8
0
  6
Continuous
100
AcDbLine
 10
185.2486267462606
 20
116.9268734667729
 30
0.0
 11
185.2178980432669
 21
116.9159389830433
 31
0.0
  0
LINE
  5
3E8
330
E3
100
AcDbEntity
  8
0
  6
Continuous
100
AcDbLine
 10
185.2178980432669
 20
116.9159389830433
 30
0.0
 11
185.1847618847102
 21
116.9045745965347
 31
0.0
  0
LINE
  5
3E9
330
E3
100
AcDbEntity
  8
0
  6
Continuous
100
AcDbLine
 10
185.1847618847102
 20
116.9045745965347
 30
0.0
 11
185.1494762122579
 21
116.8928363815225
 31
0.0
  0
LINE
  5
3EA
330
E3
100
AcDbEntity
  8
0
  6
Continuous
100
AcDbLine
 10
185.1494762122579
 20
116.8928363815225
 30
0.0
 11
185.1123176590027
 21
116.8807654591422
 31
0.0
  0
LINE
  5
3EB
330
E3
100
AcDbEntity
  8
0
  6
Continuous
100
AcDbLine
 10
185.1123176590027
 20
116.8807654591422
 30
0.0
 11
185.0735740728924
 21
116.8684141653841
 31
0.0
  0
LINE
  5
3EC
330
E3
100
AcDbEntity
  8
0
  6
Continuous
100
AcDbLine
 10
185.0735740728924
 20
116.8684141653841
 30
0.0
 11
185.0335482550149
 21
116.8558385745239
 31
0.0
  0
LINE
  5
3ED
330
E3
100
AcDbEntity
  8
0
  6
Continuous
100
AcDbLine
 10
185.0335482550149
 20
116.8558385745239
 30
0.0
 11
184.992554221313
 21
116.8430910225521
 31
0.0
  0
LINE
  5
3EE
330
E3
100
AcDbEntity
  8
0
  6
Continuous
100
AcDbLine
 10
184.992554221313
 20
116.8430910225521
 30
0.0
 11
184.950909726015
 21
116.8302313220291
 31
0.0
  0
LINE
  5
3EF
330
E3
100
AcDbEntity
  8
0
  6
Continuous
100
AcDbLine
 10
184.950909726015
 20
116.8302313220291
 30
0.0
 11
184.9089362616338
 21
116.8173118089456
 31
0.0
  0
LINE
  5
3F0
330
E3
100
AcDbEntity
  8
0
  6
Continuous
100
AcDbLine
 10
184.9089362616338
 20
116.8173118089456
 30
0.0
 11
184.8669665355377
 21
116.8043922958622
 31
0.0
  0
LINE
  5
3F1
330
E3
100
AcDbEntity
  8
0
  6
Continuous
100
AcDbLine
 10
184.8669665355377
 20
116.8043922958622
 30
0.0
 11
184.8253183019546
 21
116.7915288570542
 31
0.0
  0
LINE
  5
3F2
330
E3
100
AcDbEntity
  8
0
  6
Continuous
100
AcDbLine
 10
184.8253183019546
 20
116.7915288570542
 30
0.0
 11
184.7843242682528
 21
116.7787813050824
 31
0.0
  0
LINE
  5
3F3
330
E3
100
AcDbEntity
  8
0
  6
Continuous
100
AcDbLine
 10
184.7843242682528
 20
116.7787813050824
 30
0.0
 11
184.7442984503752
 21
116.7662057142222
 31
0.0
  0
LINE
  5
3F4
330
E3
100
AcDbEntity
  8
0
  6
Continuous
100
AcDbLine
 10
184.7442984503752
 20
116.7662057142222
 30
0.0
 11
184.7055548642649
 21
116.7538544204641
 31
0.0
  0
LINE
  5
3F5
330
E3
100
AcDbEntity
  8
0
  6
Continuous
100
AcDbLine
 10
184.7055548642649
 20
116.7538544204641
 30
0.0
 11
184.6683963110097
 21
116.7417834980838
 31
0.0
  0
LINE
  5
3F6
330
E3
100
AcDbEntity
  8
0
  6
Continuous
100
AcDbLine
 10
184.6683963110097
 20
116.7417834980838
 30
0.0
 11
184.6331106385574
 21
116.7300452830716
 31
0.0
  0
LINE
  5
3F7
330
E3
100
AcDbEntity
  8
0
  6
Continuous
100
AcDbLine
 10
184.6331106385574
 20
116.7300452830716
 30
0.0
 11
184.5999744800007
 21
116.718684634848
 31
0.0
  0
LINE
  5
3F8
330
E3
100
AcDbEntity
  8
0
  6
Continuous
100
AcDbLine
 10
184.5999744800007
 20
116.718684634848
 30
0.0
 11
184.5692495152921
 21
116.7077464128334
 31
0.0
  0
LINE
  5
3F9
330
E3
100
AcDbEntity
  8
0
  6
Continuous
100
AcDbLine
 10
184.5692495152921
 20
116.7077464128334
 30
0.0
 11
184.5411712563887
 21
116.6972754764483
 31
0.0
  0
LINE
  5
3FA
330
E3
100
AcDbEntity
  8
0
  6
Continuous
100
AcDbLine
 10
184.5411712563887
 20
116.6972754764483
 30
0.0
 11
184.5159640003928
 21
116.6873129468281
 31
0.0
  0
LINE
  5
3FB
330
E3
100
AcDbEntity
  8
0
  6
Continuous
100
AcDbLine
 10
184.5159640003928
 20
116.6873129468281
 30
0.0
 11
184.4938258764112
 21
116.6778924685381
 31
0.0
  0
LINE
  5
3FC
330
E3
100
AcDbEntity
  8
0
  6
Continuous
100
AcDbLine
 10
184.4938258764112
 20
116.6778924685381
 30
0.0
 11
184.4749363221256
 21
116.6690439478585
 31
0.0
  0
LINE
  5
3FD
330
E3
100
AcDbEntity
  8
0
  6
Continuous
100
AcDbLine
 10
184.4749363221256
 20
116.6690439478585
 30
0.0
 11
184.4594411306525
 21
116.6607898144996
 31
0.0
  0
LINE
  5
3FE
330
E3
100
AcDbEntity
  8
0
  6
Continuous
100
AcDbLine
 10
184.4594411306525
 20
116.6607898144996
 30
0.0
 11
184.447467403683
 21
116.6531599747417
 31
0.0
  0
LINE
  5
3FF
330
E3
100
AcDbEntity
  8
0
  6
Continuous
100
AcDbLine
 10
184.447467403683
 20
116.6531599747417
 30
0.0
 11
184.4391123366282
 21
116.6461693817249
 31
0.0
  0
LINE
  5
400
330
E3
100
AcDbEntity
  8
0
  6
Continuous
100
AcDbLine
 10
184.4391123366282
 20
116.6461693817249
 30
0.0
 11
184.4344503515019
 21
116.6398289845379
 31
0.0
  0
LINE
  5
401
330
E3
100
AcDbEntity
  8
0
  6
Continuous
100
AcDbLine
 10
184.4344503515019
 20
116.6398289845379
 30
0.0
 11
184.433520346187
 21
116.634146376618
 31
0.0
  0
LINE
  5
402
330
E3
100
AcDbEntity
  8
0
  6
Continuous
100
AcDbLine
 10
185.4523027426557
 20
116.6151147765216
 30
0.0
 11
185.4513727373409
 21
116.6094321686017
 31
0.0
  0
LINE
  5
403
330
E3
100
AcDbEntity
  8
0
  6
Continuous
100
AcDbLine
 10
185.4513727373409
 20
116.6094321686017
 30
0.0
 11
185.4467095015382
 21
116.6030912914216
 31
0.0
  0
LINE
  5
404
330
E3
100
AcDbEntity
  8
0
  6
Continuous
100
AcDbLine
 10
185.4467095015382
 20
116.6030912914216
 30
0.0
 11
185.438355926679
 21
116.5960987919563
 31
0.0
  0
LINE
  5
405
330
E3
100
AcDbEntity
  8
0
  6
Continuous
100
AcDbLine
 10
185.438355926679
 20
116.5960987919563
 30
0.0
 11
185.4263821997096
 21
116.5884689521984
 31
0.0
  0
LINE
  5
406
330
E3
100
AcDbEntity
  8
0
  6
Continuous
100
AcDbLine
 10
185.4263821997096
 20
116.5884689521984
 30
0.0
 11
185.4108870082365
 21
116.5802185571245
 31
0.0
  0
LINE
  5
407
330
E3
100
AcDbEntity
  8
0
  6
Continuous
100
AcDbLine
 10
185.4108870082365
 20
116.5802185571245
 30
0.0
 11
185.3919937156659
 21
116.5713700364449
 31
0.0
  0
LINE
  5
408
330
E3
100
AcDbEntity
  8
0
  6
Continuous
100
AcDbLine
 10
185.3919937156659
 20
116.5713700364449
 30
0.0
 11
185.3698593299694
 21
116.5619458198698
 31
0.0
  0
LINE
  5
409
330
E3
100
AcDbEntity
  8
0
  6
Continuous
100
AcDbLine
 10
185.3698593299694
 20
116.5619458198698
 30
0.0
 11
185.3446520739734
 21
116.5519832902496
 31
0.0
  0
LINE
  5
40A
330
E3
100
AcDbEntity
  8
0
  6
Continuous
100
AcDbLine
 10
185.3446520739734
 20
116.5519832902496
 30
0.0
 11
185.3165738150701
 21
116.5415160921496
 31
0.0
  0
LINE
  5
40B
330
E3
100
AcDbEntity
  8
0
  6
Continuous
100
AcDbLine
 10
185.3165738150701
 20
116.5415160921496
 30
0.0
 11
185.2858488503614
 21
116.530577870135
 31
0.0
  0
LINE
  5
40C
330
E3
100
AcDbEntity
  8
0
  6
Continuous
100
AcDbLine
 10
185.2858488503614
 20
116.530577870135
 30
0.0
 11
185.2527126918046
 21
116.5192172219114
 31
0.0
  0
LINE
  5
40D
330
E3
100
AcDbEntity
  8
0
  6
Continuous
100
AcDbLine
 10
185.2527126918046
 20
116.5192172219114
 30
0.0
 11
185.2174270193524
 21
116.5074752686142
 31
0.0
  0
LINE
  5
40E
330
E3
100
AcDbEntity
  8
0
  6
Continuous
100
AcDbLine
 10
185.2174270193524
 20
116.5074752686142
 30
0.0
 11
185.1802647278122
 21
116.4954043462339
 31
0.0
  0
LINE
  5
40F
330
E3
100
AcDbEntity
  8
0
  6
Continuous
100
AcDbLine
 10
185.1802647278122
 20
116.4954043462339
 30
0.0
 11
185.1415248799869
 21
116.4830567907608
 31
0.0
  0
LINE
  5
410
330
E3
100
AcDbEntity
  8
0
  6
Continuous
100
AcDbLine
 10
185.1415248799869
 20
116.4830567907608
 30
0.0
 11
185.1014990621094
 21
116.4704774616156
 31
0.0
  0
LINE
  5
411
330
E3
100
AcDbEntity
  8
0
  6
Continuous
100
AcDbLine
 10
185.1014990621094
 20
116.4704774616156
 30
0.0
 11
185.0605050284075
 21
116.4577336479288
 31
0.0
  0
LINE
  5
412
330
E3
100
AcDbEntity
  8
0
  6
Continuous
100
AcDbLine
 10
185.0605050284075
 20
116.4577336479288
 30
0.0
 11
185.0188567948244
 21
116.4448702091209
 31
0.0
  0
LINE
  5
413
330
E3
100
AcDbEntity
  8
0
  6
Continuous
100
AcDbLine
 10
185.0188567948244
 20
116.4448702091209
 30
0.0
 11
184.9768870687283
 21
116.4319506960374
 31
0.0
  0
LINE
  5
414
330
E3
100
AcDbEntity
  8
0
  6
Continuous
100
AcDbLine
 10
184.9768870687283
 20
116.4319506960374
 30
0.0
 11
184.9349136043471
 21
116.4190311829539
 31
0.0
  0
LINE
  5
415
330
E3
100
AcDbEntity
  8
0
  6
Continuous
100
AcDbLine
 10
184.9349136043471
 20
116.4190311829539
 30
0.0
 11
184.8932691090491
 21
116.4061677441459
 31
0.0
  0
LINE
  5
416
330
E3
100
AcDbEntity
  8
0
  6
Continuous
100
AcDbLine
 10
184.8932691090491
 20
116.4061677441459
 30
0.0
 11
184.8522750753473
 21
116.3934239304591
 31
0.0
  0
LINE
  5
417
330
E3
100
AcDbEntity
  8
0
  6
Continuous
100
AcDbLine
 10
184.8522750753473
 20
116.3934239304591
 30
0.0
 11
184.8122492574697
 21
116.3808446013139
 31
0.0
  0
LINE
  5
418
330
E3
100
AcDbEntity
  8
0
  6
Continuous
100
AcDbLine
 10
184.8122492574697
 20
116.3808446013139
 30
0.0
 11
184.7735056713594
 21
116.3684970458409
 31
0.0
  0
LINE
  5
419
330
E3
100
AcDbEntity
  8
0
  6
Continuous
100
AcDbLine
 10
184.7735056713594
 20
116.3684970458409
 30
0.0
 11
184.7363471181042
 21
116.3564261234605
 31
0.0
  0
LINE
  5
41A
330
E3
100
AcDbEntity
  8
0
  6
Continuous
100
AcDbLine
 10
184.7363471181042
 20
116.3564261234605
 30
0.0
 11
184.701061445652
 21
116.3446841701633
 31
0.0
  0
LINE
  5
41B
330
E3
100
AcDbEntity
  8
0
  6
Continuous
100
AcDbLine
 10
184.701061445652
 20
116.3446841701633
 30
0.0
 11
184.6679252870952
 21
116.3333235219397
 31
0.0
  0
LINE
  5
41C
330
E3
100
AcDbEntity
  8
0
  6
Continuous
100
AcDbLine
 10
184.6679252870952
 20
116.3333235219397
 30
0.0
 11
184.6371965841015
 21
116.3223852999251
 31
0.0
  0
LINE
  5
41D
330
E3
100
AcDbEntity
  8
0
  6
Continuous
100
AcDbLine
 10
184.6371965841015
 20
116.3223852999251
 30
0.0
 11
184.6091220634832
 21
116.3119181018251
 31
0.0
  0
LINE
  5
41E
330
E3
100
AcDbEntity
  8
0
  6
Continuous
100
AcDbLine
 10
184.6091220634832
 20
116.3119181018251
 30
0.0
 11
184.5839148074872
 21
116.3019555722048
 31
0.0
  0
LINE
  5
41F
330
E3
100
AcDbEntity
  8
0
  6
Continuous
100
AcDbLine
 10
184.5839148074872
 20
116.3019555722048
 30
0.0
 11
184.5617766835057
 21
116.2925313556298
 31
0.0
  0
LINE
  5
420
330
E3
100
AcDbEntity
  8
0
  6
Continuous
100
AcDbLine
 10
184.5617766835057
 20
116.2925313556298
 30
0.0
 11
184.5428871292201
 21
116.2836828349502
 31
0.0
  0
LINE
  5
421
330
E3
100
AcDbEntity
  8
0
  6
Continuous
100
AcDbLine
 10
184.5428871292201
 20
116.2836828349502
 30
0.0
 11
184.527391937747
 21
116.2754324398764
 31
0.0
  0
LINE
  5
422
330
E3
100
AcDbEntity
  8
0
  6
Continuous
100
AcDbLine
 10
184.527391937747
 20
116.2754324398764
 30
0.0
 11
184.5154182107776
 21
116.2678026001184
 31
0.0
  0
LINE
  5
423
330
E3
100
AcDbEntity
  8
0
  6
Continuous
100
AcDbLine
 10
184.5154182107776
 20
116.2678026001184
 30
0.0
 11
184.5070631437227
 21
116.2608120071016
 31
0.0
  0
LINE
  5
424
330
E3
100
AcDbEntity
  8
0
  6
Continuous
100
AcDbLine
 10
184.5070631437227
 20
116.2608120071016
 30
0.0
 11
184.502399638415
 21
116.2544694290113
 31
0.0
  0
LINE
  5
425
330
E3
100
AcDbEntity
  8
0
  6
Continuous
100
AcDbLine
 10
184.502399638415
 20
116.2544694290113
 30
0.0
 11
184.5014696331001
 21
116.2487868210915
 31
0.0
  0
LINE
  5
426
330
E3
100
AcDbEntity
  8
0
  6
Continuous
100
AcDbLine
 10
185.5202520295689
 20
116.2297552209951
 30
0.0
 11
185.519322024254
 21
116.2240726130752
 31
0.0
  0
LINE
  5
427
330
E3
100
AcDbEntity
  8
0
  6
Continuous
100
AcDbLine
 10
185.519322024254
 20
116.2240726130752
 30
0.0
 11
185.5146587884513
 21
116.2177317358951
 31
0.0
  0
LINE
  5
428
330
E3
100
AcDbEntity
  8
0
  6
Continuous
100
AcDbLine
 10
185.5146587884513
 20
116.2177317358951
 30
0.0
 11
185.5063067337735
 21
116.210741417333
 31
0.0
  0
LINE
  5
429
330
E3
100
AcDbEntity
  8
0
  6
Continuous
100
AcDbLine
 10
185.5063067337735
 20
116.210741417333
 30
0.0
 11
185.4943330068041
 21
116.2031115775751
 31
0.0
  0
LINE
  5
42A
330
E3
100
AcDbEntity
  8
0
  6
Continuous
100
AcDbLine
 10
185.4943330068041
 20
116.2031115775751
 30
0.0
 11
185.478837815331
 21
116.1948611825012
 31
0.0
  0
LINE
  5
42B
330
E3
100
AcDbEntity
  8
0
  6
Continuous
100
AcDbLine
 10
185.478837815331
 20
116.1948611825012
 30
0.0
 11
185.4599445227604
 21
116.1860089235366
 31
0.0
  0
LINE
  5
42C
330
E3
100
AcDbEntity
  8
0
  6
Continuous
100
AcDbLine
 10
185.4599445227604
 20
116.1860089235366
 30
0.0
 11
185.4378063987788
 21
116.1765884452466
 31
0.0
  0
LINE
  5
42D
330
E3
100
AcDbEntity
  8
0
  6
Continuous
100
AcDbLine
 10
185.4378063987788
 20
116.1765884452466
 30
0.0
 11
185.4126028810679
 21
116.1666259156264
 31
0.0
  0
LINE
  5
42E
330
E3
100
AcDbEntity
  8
0
  6
Continuous
100
AcDbLine
 10
185.4126028810679
 20
116.1666259156264
 30
0.0
 11
185.3845246221645
 21
116.1561549792413
 31
0.0
  0
LINE
  5
42F
330
E3
100
AcDbEntity
  8
0
  6
Continuous
100
AcDbLine
 10
185.3845246221645
 20
116.1561549792413
 30
0.0
 11
185.3537959191708
 21
116.1452167572267
 31
0.0
  0
LINE
  5
430
330
E3
100
AcDbEntity
  8
0
  6
Continuous
100
AcDbLine
 10
185.3537959191708
 20
116.1452167572267
 30
0.0
 11
185.3206597606141
 21
116.1338561090031
 31
0.0
  0
LINE
  5
431
330
E3
100
AcDbEntity
  8
0
  6
Continuous
100
AcDbLine
 10
185.3206597606141
 20
116.1338561090031
 30
0.0
 11
185.2853740881618
 21
116.122117893991
 31
0.0
  0
LINE
  5
432
330
E3
100
AcDbEntity
  8
0
  6
Continuous
100
AcDbLine
 10
185.2853740881618
 20
116.122117893991
 30
0.0
 11
185.2482155349067
 21
116.1100469716106
 31
0.0
  0
LINE
  5
433
330
E3
100
AcDbEntity
  8
0
  6
Continuous
100
AcDbLine
 10
185.2482155349067
 20
116.1100469716106
 30
0.0
 11
185.2094719487964
 21
116.0976956778525
 31
0.0
  0
LINE
  5
434
330
E3
100
AcDbEntity
  8
0
  6
Continuous
100
AcDbLine
 10
185.2094719487964
 20
116.0976956778525
 30
0.0
 11
185.1694461309188
 21
116.0851200869923
 31
0.0
  0
LINE
  5
435
330
E3
100
AcDbEntity
  8
0
  6
Continuous
100
AcDbLine
 10
185.1694461309188
 20
116.0851200869923
 30
0.0
 11
185.128452097217
 21
116.0723725350205
 31
0.0
  0
LINE
  5
436
330
E3
100
AcDbEntity
  8
0
  6
Continuous
100
AcDbLine
 10
185.128452097217
 20
116.0723725350205
 30
0.0
 11
185.0868076019189
 21
116.0595090962125
 31
0.0
  0
LINE
  5
437
330
E3
100
AcDbEntity
  8
0
  6
Continuous
100
AcDbLine
 10
185.0868076019189
 20
116.0595090962125
 30
0.0
 11
185.0448341375377
 21
116.0465895831291
 31
0.0
  0
LINE
  5
438
330
E3
100
AcDbEntity
  8
0
  6
Continuous
100
AcDbLine
 10
185.0448341375377
 20
116.0465895831291
 30
0.0
 11
185.0028644114416
 21
116.0336700700456
 31
0.0
  0
LINE
  5
439
330
E3
100
AcDbEntity
  8
0
  6
Continuous
100
AcDbLine
 10
185.0028644114416
 20
116.0336700700456
 30
0.0
 11
184.9612161778585
 21
116.0208103695226
 31
0.0
  0
LINE
  5
43A
330
E3
100
AcDbEntity
  8
0
  6
Continuous
100
AcDbLine
 10
184.9612161778585
 20
116.0208103695226
 30
0.0
 11
184.9202221441567
 21
116.0080628175508
 31
0.0
  0
LINE
  5
43B
330
E3
100
AcDbEntity
  8
0
  6
Continuous
100
AcDbLine
 10
184.9202221441567
 20
116.0080628175508
 30
0.0
 11
184.8802000645642
 21
115.9954872266906
 31
0.0
  0
LINE
  5
43C
330
E3
100
AcDbEntity
  8
0
  6
Continuous
100
AcDbLine
 10
184.8802000645642
 20
115.9954872266906
 30
0.0
 11
184.8414564784538
 21
115.9831359329326
 31
0.0
  0
LINE
  5
43D
330
E3
100
AcDbEntity
  8
0
  6
Continuous
100
AcDbLine
 10
184.8414564784538
 20
115.9831359329326
 30
0.0
 11
184.8042941869137
 21
115.9710650105522
 31
0.0
  0
LINE
  5
43E
330
E3
100
AcDbEntity
  8
0
  6
Continuous
100
AcDbLine
 10
184.8042941869137
 20
115.9710650105522
 30
0.0
 11
184.7690122527464
 21
115.95932679554
 31
0.0
  0
LINE
  5
43F
330
E3
100
AcDbEntity
  8
0
  6
Continuous
100
AcDbLine
 10
184.7690122527464
 20
115.95932679554
 30
0.0
 11
184.7358760941897
 21
115.9479624090314
 31
0.0
  0
LINE
  5
440
330
E3
100
AcDbEntity
  8
0
  6
Continuous
100
AcDbLine
 10
184.7358760941897
 20
115.9479624090314
 30
0.0
 11
184.705147391196
 21
115.9370279253018
 31
0.0
  0
LINE
  5
441
330
E3
100
AcDbEntity
  8
0
  6
Continuous
100
AcDbLine
 10
184.705147391196
 20
115.9370279253018
 30
0.0
 11
184.6770691322926
 21
115.9265569889168
 31
0.0
  0
LINE
  5
442
330
E3
100
AcDbEntity
  8
0
  6
Continuous
100
AcDbLine
 10
184.6770691322926
 20
115.9265569889168
 30
0.0
 11
184.6518618762967
 21
115.9165944592966
 31
0.0
  0
LINE
  5
443
330
E3
100
AcDbEntity
  8
0
  6
Continuous
100
AcDbLine
 10
184.6518618762967
 20
115.9165944592966
 30
0.0
 11
184.6297274906001
 21
115.9071739810065
 31
0.0
  0
LINE
  5
444
330
E3
100
AcDbEntity
  8
0
  6
Continuous
100
AcDbLine
 10
184.6297274906001
 20
115.9071739810065
 30
0.0
 11
184.6108341980296
 21
115.8983217220419
 31
0.0
  0
LINE
  5
445
330
E3
100
AcDbEntity
  8
0
  6
Continuous
100
AcDbLine
 10
184.6108341980296
 20
115.8983217220419
 30
0.0
 11
184.5953390065565
 21
115.890071326968
 31
0.0
  0
LINE
  5
446
330
E3
100
AcDbEntity
  8
0
  6
Continuous
100
AcDbLine
 10
184.5953390065565
 20
115.890071326968
 30
0.0
 11
184.583365279587
 21
115.8824414872101
 31
0.0
  0
LINE
  5
447
330
E3
100
AcDbEntity
  8
0
  6
Continuous
100
AcDbLine
 10
184.583365279587
 20
115.8824414872101
 30
0.0
 11
184.5750139508172
 21
115.8754508941933
 31
0.0
  0
LINE
  5
448
330
E3
100
AcDbEntity
  8
0
  6
Continuous
100
AcDbLine
 10
184.5750139508172
 20
115.8754508941933
 30
0.0
 11
184.5703489253281
 21
115.8691098734848
 31
0.0
  0
LINE
  5
449
330
E3
100
AcDbEntity
  8
0
  6
Continuous
100
AcDbLine
 10
184.5703489253281
 20
115.8691098734848
 30
0.0
 11
184.5694189200133
 21
115.8634272655649
 31
0.0
  0
LINE
  5
44A
330
E3
100
AcDbEntity
  8
0
  6
Continuous
100
AcDbLine
 10
185.588201316482
 20
115.8443956654686
 30
0.0
 11
185.5872713111672
 21
115.8387130575487
 31
0.0
  0
LINE
  5
44B
330
E3
100
AcDbEntity
  8
0
  6
Continuous
100
AcDbLine
 10
185.5872713111672
 20
115.8387130575487
 30
0.0
 11
185.5826080753644
 21
115.8323721803686
 31
0.0
  0
LINE
  5
44C
330
E3
100
AcDbEntity
  8
0
  6
Continuous
100
AcDbLine
 10
185.5826080753644
 20
115.8323721803686
 30
0.0
 11
185.574253802583
 21
115.8253803044247
 31
0.0
  0
LINE
  5
44D
330
E3
100
AcDbEntity
  8
0
  6
Continuous
100
AcDbLine
 10
185.574253802583
 20
115.8253803044247
 30
0.0
 11
185.5622800756135
 21
115.8177504646668
 31
0.0
  0
LINE
  5
44E
330
E3
100
AcDbEntity
  8
0
  6
Continuous
100
AcDbLine
 10
185.5622800756135
 20
115.8177504646668
 30
0.0
 11
185.5467848841404
 21
115.8095000695929
 31
0.0
  0
LINE
  5
44F
330
E3
100
AcDbEntity
  8
0
  6
Continuous
100
AcDbLine
 10
185.5467848841404
 20
115.8095000695929
 30
0.0
 11
185.5278953298549
 21
115.8006515489134
 31
0.0
  0
LINE
  5
450
330
E3
100
AcDbEntity
  8
0
  6
Continuous
100
AcDbLine
 10
185.5278953298549
 20
115.8006515489134
 30
0.0
 11
185.5057572058733
 21
115.7912273323383
 31
0.0
  0
LINE
  5
451
330
E3
100
AcDbEntity
  8
0
  6
Continuous
100
AcDbLine
 10
185.5057572058733
 20
115.7912273323383
 30
0.0
 11
185.4805499498773
 21
115.7812648027181
 31
0.0
  0
LINE
  5
452
330
E3
100
AcDbEntity
  8
0
  6
Continuous
100
AcDbLine
 10
185.4805499498773
 20
115.7812648027181
 30
0.0
 11
185.452471690974
 21
115.770793866333
 31
0.0
  0
LINE
  5
453
330
E3
100
AcDbEntity
  8
0
  6
Continuous
100
AcDbLine
 10
185.452471690974
 20
115.770793866333
 30
0.0
 11
185.4217467262653
 21
115.7598593826035
 31
0.0
  0
LINE
  5
454
330
E3
100
AcDbEntity
  8
0
  6
Continuous
100
AcDbLine
 10
185.4217467262653
 20
115.7598593826035
 30
0.0
 11
185.3886105677086
 21
115.7484987343799
 31
0.0
  0
LINE
  5
455
330
E3
100
AcDbEntity
  8
0
  6
Continuous
100
AcDbLine
 10
185.3886105677086
 20
115.7484987343799
 30
0.0
 11
185.3533248952563
 21
115.7367567810826
 31
0.0
  0
LINE
  5
456
330
E3
100
AcDbEntity
  8
0
  6
Continuous
100
AcDbLine
 10
185.3533248952563
 20
115.7367567810826
 30
0.0
 11
185.3161663420012
 21
115.7246858587023
 31
0.0
  0
LINE
  5
457
330
E3
100
AcDbEntity
  8
0
  6
Continuous
100
AcDbLine
 10
185.3161663420012
 20
115.7246858587023
 30
0.0
 11
185.2774227558909
 21
115.7123345649442
 31
0.0
  0
LINE
  5
458
330
E3
100
AcDbEntity
  8
0
  6
Continuous
100
AcDbLine
 10
185.2774227558909
 20
115.7123345649442
 30
0.0
 11
185.2373969380133
 21
115.699758974084
 31
0.0
  0
LINE
  5
459
330
E3
100
AcDbEntity
  8
0
  6
Continuous
100
AcDbLine
 10
185.2373969380133
 20
115.699758974084
 30
0.0
 11
185.1964029043114
 21
115.6870114221122
 31
0.0
  0
LINE
  5
45A
330
E3
100
AcDbEntity
  8
0
  6
Continuous
100
AcDbLine
 10
185.1964029043114
 20
115.6870114221122
 30
0.0
 11
185.1547584090134
 21
115.6741517215893
 31
0.0
  0
LINE
  5
45B
330
E3
100
AcDbEntity
  8
0
  6
Continuous
100
AcDbLine
 10
185.1547584090134
 20
115.6741517215893
 30
0.0
 11
185.1127849446322
 21
115.6612322085058
 31
0.0
  0
LINE
  5
45C
330
E3
100
AcDbEntity
  8
0
  6
Continuous
100
AcDbLine
 10
185.1127849446322
 20
115.6612322085058
 30
0.0
 11
185.070811480251
 21
115.6483126954223
 31
0.0
  0
LINE
  5
45D
330
E3
100
AcDbEntity
  8
0
  6
Continuous
100
AcDbLine
 10
185.070811480251
 20
115.6483126954223
 30
0.0
 11
185.029166984953
 21
115.6354492566144
 31
0.0
  0
LINE
  5
45E
330
E3
100
AcDbEntity
  8
0
  6
Continuous
100
AcDbLine
 10
185.029166984953
 20
115.6354492566144
 30
0.0
 11
184.9881729512512
 21
115.6227017046425
 31
0.0
  0
LINE
  5
45F
330
E3
100
AcDbEntity
  8
0
  6
Continuous
100
AcDbLine
 10
184.9881729512512
 20
115.6227017046425
 30
0.0
 11
184.9481471333736
 21
115.6101261137823
 31
0.0
  0
LINE
  5
460
330
E3
100
AcDbEntity
  8
0
  6
Continuous
100
AcDbLine
 10
184.9481471333736
 20
115.6101261137823
 30
0.0
 11
184.9094035472633
 21
115.5977785583093
 31
0.0
  0
LINE
  5
461
330
E3
100
AcDbEntity
  8
0
  6
Continuous
100
AcDbLine
 10
184.9094035472633
 20
115.5977785583093
 30
0.0
 11
184.8722449940081
 21
115.5857076359289
 31
0.0
  0
LINE
  5
462
330
E3
100
AcDbEntity
  8
0
  6
Continuous
100
AcDbLine
 10
184.8722449940081
 20
115.5857076359289
 30
0.0
 11
184.8369593215559
 21
115.5739656826317
 31
0.0
  0
LINE
  5
463
330
E3
100
AcDbEntity
  8
0
  6
Continuous
100
AcDbLine
 10
184.8369593215559
 20
115.5739656826317
 30
0.0
 11
184.8038231629992
 21
115.5626050344081
 31
0.0
  0
LINE
  5
464
330
E3
100
AcDbEntity
  8
0
  6
Continuous
100
AcDbLine
 10
184.8038231629992
 20
115.5626050344081
 30
0.0
 11
184.7730944600054
 21
115.5516668123935
 31
0.0
  0
LINE
  5
465
330
E3
100
AcDbEntity
  8
0
  6
Continuous
100
AcDbLine
 10
184.7730944600054
 20
115.5516668123935
 30
0.0
 11
184.7450199393871
 21
115.5411996142935
 31
0.0
  0
LINE
  5
466
330
E3
100
AcDbEntity
  8
0
  6
Continuous
100
AcDbLine
 10
184.7450199393871
 20
115.5411996142935
 30
0.0
 11
184.7198126833912
 21
115.5312333463882
 31
0.0
  0
LINE
  5
467
330
E3
100
AcDbEntity
  8
0
  6
Continuous
100
AcDbLine
 10
184.7198126833912
 20
115.5312333463882
 30
0.0
 11
184.6976745594096
 21
115.5218128680982
 31
0.0
  0
LINE
  5
468
330
E3
100
AcDbEntity
  8
0
  6
Continuous
100
AcDbLine
 10
184.6976745594096
 20
115.5218128680982
 30
0.0
 11
184.678785005124
 21
115.5129643474186
 31
0.0
  0
LINE
  5
469
330
E3
100
AcDbEntity
  8
0
  6
Continuous
100
AcDbLine
 10
184.678785005124
 20
115.5129643474186
 30
0.0
 11
184.6632898136509
 21
115.5047139523448
 31
0.0
  0
LINE
  5
46A
330
E3
100
AcDbEntity
  8
0
  6
Continuous
100
AcDbLine
 10
184.6632898136509
 20
115.5047139523448
 30
0.0
 11
184.6513160866815
 21
115.4970841125869
 31
0.0
  0
HATCH
  5
46B
330
E3
100
AcDbEntity
  8
Doc_ Finishes
  6
Continuous
 62
   255
370
    18
100
AcDbHatch
 10
0.0
 20
0.0
 30
0.0
210
0.0
220
0.0
230
1.0
  2
SOLID
 70
     1
 71
     0
 91
        1
 92
        3
 72
     0
 73
     1
 93
        4
 10
105.3203630852323
 20
150.6818569733981
 10
105.3203630852323
 20
69.22475134647311
 10
125.3203630852323
 20
69.22475134647311
 10
125.3203630852323
 20
150.6818569733981
 97
        0
 75
     0
 76
     1
 98
        0
  0
LINE
  5
46C
330
E3
100
AcDbEntity
  8
Doc_ Finishes
  6
Continuous
 62
   254
370
    25
100
AcDbLine
 10
105.3203618738719
 20
150.6818565134498
 30
0.0
 11
105.3203618738719
 21
69.22475268656838
 31
0.0
  0
LINE
  5
46D
330
E3
100
AcDbEntity
  8
Doc_ Finishes
  6
Continuous
 62
   254
370
    25
100
AcDbLine
 10
105.3203618738719
 20
69.22475268656838
 30
0.0
 11
125.320362514428
 21
69.22475268656838
 31
0.0
  0
LINE
  5
46E
330
E3
100
AcDbEntity
  8
Doc_ Finishes
  6
Continuous
 62
   254
370
    25
100
AcDbLine
 10
125.320362514428
 20
69.22475268656838
 30
0.0
 11
125.320362514428
 21
150.6818565134498
 31
0.0
  0
LINE
  5
46F
330
E3
100
AcDbEntity
  8
Doc_ Finishes
  6
Continuous
 62
   254
370
    25
100
AcDbLine
 10
125.320362514428
 20
150.6818565134498
 30
0.0
 11
105.3203618738719
 21
150.6818565134498
 31
0.0
  0
HATCH
  5
470
330
E3
100
AcDbEntity
  8
0
  6
Continuous
 62
   255
370
     0
100
AcDbHatch
 10
0.0
 20
0.0
 30
0.0
210
0.0
220
0.0
230
1.0
  2
SOLID
 70
     1
 71
     0
 91
        1
 92
        3
 72
     0
 73
     1
 93
        8
 10
145.192982638948
 20
126.595068334265
 10
155.4768462233164
 20
68.27237975280755
 10
164.2737356562274
 20
68.27237975280755
 10
159.479100219377
 20
95.46410853751188
 10
153.2475693158212
 20
96.77718554152815
 10
165.0160384122653
 20
98.09026254554442
 10
158.7845075087093
 20
99.4033395495607
 10
153.989872071859
 20
126.595068334265
 97
        0
 75
     0
 76
     1
 98
        0
  0
LINE
  5
471
330
E3
100
AcDbEntity
  8
0
  6
Continuous
100
AcDbLine
 10
153.9898723173377
 20
126.595069214707
 30
0.0
 11
158.7845069853251
 21
99.40334086927197
 31
0.0
  0
LINE
  5
472
330
E3
100
AcDbEntity
  8
0
  6
Continuous
100
AcDbLine
 10
159.479099036389
 20
95.46410805973058
 30
0.0
 11
164.2737374426615
 21
68.27237971429555
 31
0.0
  0
LINE
  5
473
330
E3
100
AcDbEntity
  8
0
  6
Continuous
100
AcDbLine
 10
159.479099036389
 20
95.46410805973058
 30
0.0
 11
153.2475685343628
 21
96.77718441681603
 31
0.0
  0
LINE
  5
474
330
E3
100
AcDbEntity
  8
0
  6
Continuous
100
AcDbLine
 10
153.2475685343628
 20
96.77718441681603
 30
0.0
 11
165.0160374873514
 21
98.09026077390148
 31
0.0
  0
LINE
  5
475
330
E3
100
AcDbEntity
  8
0
  6
Continuous
100
AcDbLine
 10
165.0160374873514
 20
98.09026077390148
 30
0.0
 11
158.7845069853251
 21
99.40334086927197
 31
0.0
  0
HATCH
  5
476
330
E3
100
AcDbEntity
  8
0
  6
Continuous
 62
   255
370
     0
100
AcDbHatch
 10
0.0
 20
0.0
 30
0.0
210
0.0
220
0.0
230
1.0
  2
SOLID
 70
     1
 71
     0
 91
        1
 92
        3
 72
     0
 73
     1
 93
       39
 10
105.3203630852323
 20
168.3969947601565
 10
105.3203630852323
 20
150.6818569733981
 10
105.3584161043148
 20
151.1312915286736
 10
105.4722855551102
 20
151.5670702424119
 10
105.6611048223416
 20
151.9759521989107
 10
105.9234368773732
 20
152.3455137268261
 10
106.2572852148658
 20
152.6645258861396
 10
106.6601090473879
 20
152.9232956538183
 10
107.1288426423424
 20
153.1139604414151
 10
107.6599186540425
 20
153.2307269958399
 10
108.2492952733668
 20
153.2700474244234
 10
108.8924869883669
 20
153.2307269958399
 10
109.5845987217218
 20
153.1139604414151
 10
110.3203630852323
 20
152.9232956538183
 10
111.0941804678253
 20
152.6645258861396
 10
111.9001616519756
 20
152.3455137268261
 10
112.7321726342071
 20
151.9759521989107
 10
113.583881308563
 20
151.5670702424119
 10
114.4488056577557
 20
151.1312915286736
 10
115.3203630852323
 20
150.6818569733981
 10
116.1919205127089
 20
150.2324224181227
 10
117.0568448619016
 20
149.7966437043844
 10
117.9085535362575
 20
149.3877617478855
 10
118.740564518489
 20
149.0182002199701
 10
119.5465457026393
 20
148.6991880606567
 10
120.3203630852323
 20
148.440418292978
 10
121.0561274487428
 20
148.2497535053812
 10
121.7482391820977
 20
148.1329869509564
 10
122.3914308970978
 20
148.0936665223729
 10
122.9808075164221
 20
148.1329869509564
 10
123.5118835281222
 20
148.2497535053812
 10
123.9806171230767
 20
148.440418292978
 10
124.3834409555988
 20
148.6991880606567
 10
124.7172892930914
 20
149.0182002199701
 10
124.979621348123
 20
149.3877617478855
 10
125.1684406153544
 20
149.7966437043844
 10
125.2823100661498
 20
150.2324224181227
 10
125.3203630852323
 20
150.6818569733981
 10
125.3203630852323
 20
168.3969947601565
 97
        0
 75
     0
 76
     1
 98
        0
  0
HATCH
  5
477
330
E3
100
AcDbEntity
  8
0
  6
Continuous
 62
   255
370
    18
100
AcDbHatch
 10
0.0
 20
0.0
 30
0.0
210
0.0
220
0.0
230
1.0
  2
SOLID
 70
     1
 71
     0
 91
        1
 92
        3
 72
     0
 73
     1
 93
       36
 10
115.3203630852323
 20
150.6818569733981
 10
116.1919205127089
 20
150.2324224181227
 10
117.0568448619016
 20
149.7966437043844
 10
117.9085535362575
 20
149.3877617478855
 10
118.740564518489
 20
149.0182002199701
 10
119.5465457026393
 20
148.6991880606567
 10
120.3203630852323
 20
148.440418292978
 10
121.0561274487428
 20
148.2497535053812
 10
121.7482391820977
 20
148.1329869509564
 10
122.3914308970978
 20
148.0936665223729
 10
122.9808075164221
 20
148.1329869509564
 10
123.5118835281222
 20
148.2497535053812
 10
123.9806171230767
 20
148.440418292978
 10
124.3834409555988
 20
148.6991880606567
 10
124.7172892930914
 20
149.0182002199701
 10
124.979621348123
 20
149.3877617478855
 10
125.1684406153544
 20
149.7966437043844
 10
125.2823100661498
 20
150.2324224181227
 10
125.3203630852323
 20
150.6818569733981
 10
125.2823100661498
 20
151.1312915286736
 10
125.1684406153544
 20
151.5670702424119
 10
124.979621348123
 20
151.9759521989107
 10
124.7172892930914
 20
152.3455137268261
 10
124.3834409555988
 20
152.6645258861396
 10
123.9806171230767
 20
152.9232956538183
 10
123.5118835281222
 20
153.1139604414151
 10
122.9808075164221
 20
153.2307269958399
 10
122.3914308970978
 20
153.2700474244234
 10
121.7482391820977
 20
153.2307269958399
 10
121.0561274487428
 20
153.1139604414151
 10
120.3203630852323
 20
152.9232956538183
 10
119.5465457026393
 20
152.6645258861396
 10
118.740564518489
 20
152.3455137268261
 10
117.9085535362575
 20
151.9759521989107
 10
117.0568448619016
 20
151.5670702424119
 10
116.1919205127089
 20
151.1312915286736
 97
        0
 75
     0
 76
     1
 98
        0
  0
LINE
  5
478
330
E3
100
AcDbEntity
  8
0
  6
Continuous
100
AcDbLine
 10
115.3203640632924
 20
150.6818565134498
 30
0.0
 11
116.1919190513778
 21
150.2324211950291
 31
0.0
  0
LINE
  5
479
330
E3
100
AcDbEntity
  8
0
  6
Continuous
100
AcDbLine
 10
116.1919190513778
 20
150.2324211950291
 30
0.0
 11
117.0568460600948
 21
149.796645570129
 31
0.0
  0
LINE
  5
47A
330
E3
100
AcDbEntity
  8
0
  6
Continuous
100
AcDbLine
 10
117.0568460600948
 20
149.796645570129
 30
0.0
 11
117.9085544929255
 21
149.3877631677758
 31
0.0
  0
LINE
  5
47B
330
E3
100
AcDbEntity
  8
0
  6
Continuous
100
AcDbLine
 10
117.9085544929255
 20
149.3877631677758
 30
0.0
 11
118.7405659019029
 21
149.0182000474285
 31
0.0
  0
LINE
  5
47C
330
E3
100
AcDbEntity
  8
0
  6
Continuous
100
AcDbLine
 10
118.7405659019029
 20
149.0182000474285
 30
0.0
 11
119.5465438938915
 21
148.6991897556194
 31
0.0
  0
LINE
  5
47D
330
E3
100
AcDbEntity
  8
0
  6
Continuous
100
AcDbLine
 10
119.5465438938915
 20
148.6991897556194
 30
0.0
 11
120.3203614197177
 21
148.440418188876
 31
0.0
  0
LINE
  5
47E
330
E3
100
AcDbEntity
  8
0
  6
Continuous
100
AcDbLine
 10
120.3203614197177
 20
148.440418188876
 30
0.0
 11
121.0561269421652
 21
148.2497544371987
 31
0.0
  0
LINE
  5
47F
330
E3
100
AcDbEntity
  8
0
  6
Continuous
100
AcDbLine
 10
121.0561269421652
 20
148.2497544371987
 30
0.0
 11
121.7482405102504
 21
148.1329853658226
 31
0.0
  0
LINE
  5
480
330
E3
100
AcDbEntity
  8
0
  6
Continuous
100
AcDbLine
 10
121.7482405102504
 20
148.1329853658226
 30
0.0
 11
122.3914311420731
 21
148.0936660838168
 31
0.0
  0
LINE
  5
481
330
E3
100
AcDbEntity
  8
0
  6
Continuous
100
AcDbLine
 10
122.3914311420731
 20
148.0936660838168
 30
0.0
 11
122.9808091608064
 21
148.1329853658226
 31
0.0
  0
LINE
  5
482
330
E3
100
AcDbEntity
  8
0
  6
Continuous
100
AcDbLine
 10
122.9808091608064
 20
148.1329853658226
 30
0.0
 11
123.5118848861224
 21
148.2497544371987
 31
0.0
  0
LINE
  5
483
330
E3
100
AcDbEntity
  8
0
  6
Continuous
100
AcDbLine
 10
123.5118848861224
 20
148.2497544371987
 30
0.0
 11
123.9806172318976
 21
148.440418188876
 31
0.0
  0
LINE
  5
484
330
E3
100
AcDbEntity
  8
0
  6
Continuous
100
AcDbLine
 10
123.9806172318976
 20
148.440418188876
 30
0.0
 11
124.3834398742078
 21
148.6991897556194
 31
0.0
  0
LINE
  5
485
330
E3
100
AcDbEntity
  8
0
  6
Continuous
100
AcDbLine
 10
124.3834398742078
 20
148.6991897556194
 30
0.0
 11
124.7172911576088
 21
149.0182000474285
 31
0.0
  0
LINE
  5
486
330
E3
100
AcDbEntity
  8
0
  6
Continuous
100
AcDbLine
 10
124.7172911576088
 20
149.0182000474285
 30
0.0
 11
124.9796215717061
 21
149.3877631677758
 31
0.0
  0
LINE
  5
487
330
E3
100
AcDbEntity
  8
0
  6
Continuous
100
AcDbLine
 10
124.9796215717061
 20
149.3877631677758
 30
0.0
 11
125.1684423488609
 21
149.796645570129
 31
0.0
  0
LINE
  5
488
330
E3
100
AcDbEntity
  8
0
  6
Continuous
100
AcDbLine
 10
125.1684423488609
 20
149.796645570129
 30
0.0
 11
125.2823105110493
 21
150.2324211950291
 31
0.0
  0
LINE
  5
489
330
E3
100
AcDbEntity
  8
0
  6
Continuous
100
AcDbLine
 10
125.2823105110493
 20
150.2324211950291
 30
0.0
 11
125.320362514428
 21
150.6818565134498
 31
0.0
  0
LINE
  5
48A
330
E3
100
AcDbEntity
  8
0
  6
Continuous
100
AcDbLine
 10
125.320362514428
 20
150.6818565134498
 30
0.0
 11
125.2823105110493
 21
151.1312918318706
 31
0.0
  0
LINE
  5
48B
330
E3
100
AcDbEntity
  8
0
  6
Continuous
100
AcDbLine
 10
125.2823105110493
 20
151.1312918318706
 30
0.0
 11
125.1684423488609
 21
151.5670711950557
 31
0.0
  0
LINE
  5
48C
330
E3
100
AcDbEntity
  8
0
  6
Continuous
100
AcDbLine
 10
125.1684423488609
 20
151.5670711950557
 30
0.0
 11
124.9796215717061
 21
151.9759535974089
 31
0.0
  0
LINE
  5
48D
330
E3
100
AcDbEntity
  8
0
  6
Continuous
100
AcDbLine
 10
124.9796215717061
 20
151.9759535974089
 30
0.0
 11
124.7172911576088
 21
152.3455129794711
 31
0.0
  0
LINE
  5
48E
330
E3
100
AcDbEntity
  8
0
  6
Continuous
100
AcDbLine
 10
124.7172911576088
 20
152.3455129794711
 30
0.0
 11
124.3834398742078
 21
152.6645270095653
 31
0.0
  0
LINE
  5
48F
330
E3
100
AcDbEntity
  8
0
  6
Continuous
100
AcDbLine
 10
124.3834398742078
 20
152.6645270095653
 30
0.0
 11
123.9806172318976
 21
152.9232948380236
 31
0.0
  0
LINE
  5
490
330
E3
100
AcDbEntity
  8
0
  6
Continuous
100
AcDbLine
 10
123.9806172318976
 20
152.9232948380236
 30
0.0
 11
123.5118848861224
 21
153.113958589701
 31
0.0
  0
LINE
  5
491
330
E3
100
AcDbEntity
  8
0
  6
Continuous
100
AcDbLine
 10
123.5118848861224
 20
153.113958589701
 30
0.0
 11
122.9808091608064
 21
153.2307276610771
 31
0.0
  0
LINE
  5
492
330
E3
100
AcDbEntity
  8
0
  6
Continuous
100
AcDbLine
 10
122.9808091608064
 20
153.2307276610771
 30
0.0
 11
122.3914311420731
 21
153.2700469430829
 31
0.0
  0
LINE
  5
493
330
E3
100
AcDbEntity
  8
0
  6
Continuous
100
AcDbLine
 10
122.3914311420731
 20
153.2700469430829
 30
0.0
 11
121.7482405102504
 21
153.2307276610771
 31
0.0
  0
LINE
  5
494
330
E3
100
AcDbEntity
  8
0
  6
Continuous
100
AcDbLine
 10
121.7482405102504
 20
153.2307276610771
 30
0.0
 11
121.0561269421652
 21
153.113958589701
 31
0.0
  0
LINE
  5
495
330
E3
100
AcDbEntity
  8
0
  6
Continuous
100
AcDbLine
 10
121.0561269421652
 20
153.113958589701
 30
0.0
 11
120.3203614197177
 21
152.9232948380236
 31
0.0
  0
LINE
  5
496
330
E3
100
AcDbEntity
  8
0
  6
Continuous
100
AcDbLine
 10
120.3203614197177
 20
152.9232948380236
 30
0.0
 11
119.5465438938915
 21
152.6645270095653
 31
0.0
  0
LINE
  5
497
330
E3
100
AcDbEntity
  8
0
  6
Continuous
100
AcDbLine
 10
119.5465438938915
 20
152.6645270095653
 30
0.0
 11
118.7405659019029
 21
152.3455129794711
 31
0.0
  0
LINE
  5
498
330
E3
100
AcDbEntity
  8
0
  6
Continuous
100
AcDbLine
 10
118.7405659019029
 20
152.3455129794711
 30
0.0
 11
117.9085544929255
 21
151.9759535974089
 31
0.0
  0
LINE
  5
499
330
E3
100
AcDbEntity
  8
0
  6
Continuous
100
AcDbLine
 10
117.9085544929255
 20
151.9759535974089
 30
0.0
 11
117.0568460600948
 21
151.5670711950557
 31
0.0
  0
LINE
  5
49A
330
E3
100
AcDbEntity
  8
0
  6
Continuous
100
AcDbLine
 10
117.0568460600948
 20
151.5670711950557
 30
0.0
 11
116.1919190513778
 21
151.1312918318706
 31
0.0
  0
LINE
  5
49B
330
E3
100
AcDbEntity
  8
0
  6
Continuous
100
AcDbLine
 10
116.1919190513778
 20
151.1312918318706
 30
0.0
 11
115.3203640632924
 21
150.6818565134498
 31
0.0
  0
HATCH
  5
49C
330
E3
100
AcDbEntity
  8
0
  6
Continuous
 62
   255
370
    18
100
AcDbHatch
 10
0.0
 20
0.0
 30
0.0
210
0.0
220
0.0
230
1.0
  2
SOLID
 70
     1
 71
     0
 91
        1
 92
        3
 72
     0
 73
     1
 93
       36
 10
115.3203630852323
 20
150.6818569733981
 10
116.1047647699612
 20
150.2773658736502
 10
116.8831966842347
 20
149.8851650312857
 10
117.649734491155
 20
149.5171712704368
 10
118.3985443751633
 20
149.1845658953129
 10
119.1239274408986
 20
148.8974549519308
 10
119.8203630852323
 20
148.66456216102
 10
120.4825510123917
 20
148.4929638521829
 10
121.1054515724112
 20
148.3878739532005
 10
121.6843241159112
 20
148.3524855674754
 10
122.2147630733031
 20
148.3878739532005
 10
122.6927314838332
 20
148.4929638521829
 10
123.1145917192923
 20
148.66456216102
 10
123.4771331685622
 20
148.8974549519308
 10
123.7775966723055
 20
149.1845658953129
 10
124.0136955218339
 20
149.5171712704368
 10
124.1836328623422
 20
149.8851650312857
 10
124.286115368058
 20
150.2773658736502
 10
124.3203630852323
 20
150.6818569733981
 10
124.286115368058
 20
151.0863480731461
 10
124.1836328623422
 20
151.4785489155105
 10
124.0136955218339
 20
151.8465426763595
 10
123.7775966723055
 20
152.1791480514834
 10
123.4771331685622
 20
152.4662589948655
 10
123.1145917192923
 20
152.6991517857763
 10
122.6927314838332
 20
152.8707500946134
 10
122.2147630733031
 20
152.9758399935958
 10
121.6843241159112
 20
153.0112283793208
 10
121.1054515724112
 20
152.9758399935958
 10
120.4825510123917
 20
152.8707500946134
 10
119.8203630852323
 20
152.6991517857763
 10
119.1239274408986
 20
152.4662589948655
 10
118.3985443751633
 20
152.1791480514834
 10
117.649734491155
 20
151.8465426763595
 10
116.8831966842347
 20
151.4785489155105
 10
116.1047647699612
 20
151.0863480731461
 97
        0
 75
     0
 76
     1
 98
        0
  0
LINE
  5
49D
330
E3
100
AcDbEntity
  8
0
  6
Continuous
100
AcDbLine
 10
115.3203640632924
 20
150.6818565134498
 30
0.0
 11
116.1047646740548
 21
150.2773665960137
 31
0.0
  0
LINE
  5
49E
330
E3
100
AcDbEntity
  8
0
  6
Continuous
100
AcDbLine
 10
116.1047646740548
 20
150.2773665960137
 30
0.0
 11
116.8831952436151
 21
149.88516442149
 31
0.0
  0
LINE
  5
49F
330
E3
100
AcDbEntity
  8
0
  6
Continuous
100
AcDbLine
 10
116.8831952436151
 20
149.88516442149
 30
0.0
 11
117.6497343284767
 21
149.5171713808577
 31
0.0
  0
LINE
  5
4A0
330
E3
100
AcDbEntity
  8
0
  6
Continuous
100
AcDbLine
 10
117.6497343284767
 20
149.5171713808577
 30
0.0
 11
118.3985427274138
 21
149.1845649463736
 31
0.0
  0
LINE
  5
4A1
330
E3
100
AcDbEntity
  8
0
  6
Continuous
100
AcDbLine
 10
118.3985427274138
 20
149.1845649463736
 30
0.0
 11
119.1239270323171
 21
148.8974534407744
 31
0.0
  0
LINE
  5
4A2
330
E3
100
AcDbEntity
  8
0
  6
Continuous
100
AcDbLine
 10
119.1239270323171
 20
148.8974534407744
 30
0.0
 11
119.8203620579037
 21
148.6645620213334
 31
0.0
  0
LINE
  5
4A3
330
E3
100
AcDbEntity
  8
0
  6
Continuous
100
AcDbLine
 10
119.8203620579037
 20
148.6645620213334
 30
0.0
 11
120.4825506542779
 21
148.4929635233383
 31
0.0
  0
LINE
  5
4A4
330
E3
100
AcDbEntity
  8
0
  6
Continuous
100
AcDbLine
 10
120.4825506542779
 20
148.4929635233383
 30
0.0
 11
121.1054498749266
 21
148.3878728544138
 31
0.0
  0
LINE
  5
4A5
330
E3
100
AcDbEntity
  8
0
  6
Continuous
100
AcDbLine
 10
121.1054498749266
 20
148.3878728544138
 30
0.0
 11
121.6843233127095
 21
148.3524862482656
 31
0.0
  0
LINE
  5
4A6
330
E3
100
AcDbEntity
  8
0
  6
Continuous
100
AcDbLine
 10
121.6843233127095
 20
148.3524862482656
 30
0.0
 11
122.2147635295695
 21
148.3878728544138
 31
0.0
  0
LINE
  5
4A7
330
E3
100
AcDbEntity
  8
0
  6
Continuous
100
AcDbLine
 10
122.2147635295695
 20
148.3878728544138
 30
0.0
 11
122.692733177668
 21
148.4929635233383
 31
0.0
  0
LINE
  5
4A8
330
E3
100
AcDbEntity
  8
0
  6
Continuous
100
AcDbLine
 10
122.692733177668
 20
148.4929635233383
 30
0.0
 11
123.1145911673801
 21
148.6645620213334
 31
0.0
  0
LINE
  5
4A9
330
E3
100
AcDbEntity
  8
0
  6
Continuous
100
AcDbLine
 10
123.1145911673801
 20
148.6645620213334
 30
0.0
 11
123.4771337884303
 21
148.8974534407744
 31
0.0
  0
LINE
  5
4AA
330
E3
100
AcDbEntity
  8
0
  6
Continuous
100
AcDbLine
 10
123.4771337884303
 20
148.8974534407744
 30
0.0
 11
123.7775984481771
 21
149.1845649463736
 31
0.0
  0
LINE
  5
4AB
330
E3
100
AcDbEntity
  8
0
  6
Continuous
100
AcDbLine
 10
123.7775984481771
 20
149.1845649463736
 30
0.0
 11
124.0136973161788
 21
149.5171713808577
 31
0.0
  0
LINE
  5
4AC
330
E3
100
AcDbEntity
  8
0
  6
Continuous
100
AcDbLine
 10
124.0136973161788
 20
149.5171713808577
 30
0.0
 11
124.183632277333
 21
149.88516442149
 31
0.0
  0
LINE
  5
4AD
330
E3
100
AcDbEntity
  8
0
  6
Continuous
100
AcDbLine
 10
124.183632277333
 20
149.88516442149
 30
0.0
 11
124.2861136233026
 21
150.2773665960137
 31
0.0
  0
LINE
  5
4AE
330
E3
100
AcDbEntity
  8
0
  6
Continuous
100
AcDbLine
 10
124.2861136233026
 20
150.2773665960137
 30
0.0
 11
124.3203637907999
 21
150.6818565134498
 31
0.0
  0
LINE
  5
4AF
330
E3
100
AcDbEntity
  8
0
  6
Continuous
100
AcDbLine
 10
124.3203637907999
 20
150.6818565134498
 30
0.0
 11
124.2861136233026
 21
151.086346430886
 31
0.0
  0
LINE
  5
4B0
330
E3
100
AcDbEntity
  8
0
  6
Continuous
100
AcDbLine
 10
124.2861136233026
 20
151.086346430886
 30
0.0
 11
124.183632277333
 21
151.4785486054097
 31
0.0
  0
LINE
  5
4B1
330
E3
100
AcDbEntity
  8
0
  6
Continuous
100
AcDbLine
 10
124.183632277333
 20
151.4785486054097
 30
0.0
 11
124.0136973161788
 21
151.8465416460419
 31
0.0
  0
LINE
  5
4B2
330
E3
100
AcDbEntity
  8
0
  6
Continuous
100
AcDbLine
 10
124.0136973161788
 20
151.8465416460419
 30
0.0
 11
123.7775984481771
 21
152.179148080526
 31
0.0
  0
LINE
  5
4B3
330
E3
100
AcDbEntity
  8
0
  6
Continuous
100
AcDbLine
 10
123.7775984481771
 20
152.179148080526
 30
0.0
 11
123.4771337884303
 21
152.4662595861253
 31
0.0
  0
LINE
  5
4B4
330
E3
100
AcDbEntity
  8
0
  6
Continuous
100
AcDbLine
 10
123.4771337884303
 20
152.4662595861253
 30
0.0
 11
123.1145911673801
 21
152.6991510055663
 31
0.0
  0
LINE
  5
4B5
330
E3
100
AcDbEntity
  8
0
  6
Continuous
100
AcDbLine
 10
123.1145911673801
 20
152.6991510055663
 30
0.0
 11
122.692733177668
 21
152.8707495035614
 31
0.0
  0
LINE
  5
4B6
330
E3
100
AcDbEntity
  8
0
  6
Continuous
100
AcDbLine
 10
122.692733177668
 20
152.8707495035614
 30
0.0
 11
122.2147635295695
 21
152.9758401724858
 31
0.0
  0
LINE
  5
4B7
330
E3
100
AcDbEntity
  8
0
  6
Continuous
100
AcDbLine
 10
122.2147635295695
 20
152.9758401724858
 30
0.0
 11
121.6843233127095
 21
153.0112267786341
 31
0.0
  0
LINE
  5
4B8
330
E3
100
AcDbEntity
  8
0
  6
Continuous
100
AcDbLine
 10
121.6843233127095
 20
153.0112267786341
 30
0.0
 11
121.1054498749266
 21
152.9758401724858
 31
0.0
  0
LINE
  5
4B9
330
E3
100
AcDbEntity
  8
0
  6
Continuous
100
AcDbLine
 10
121.1054498749266
 20
152.9758401724858
 30
0.0
 11
120.4825506542779
 21
152.8707495035614
 31
0.0
  0
LINE
  5
4BA
330
E3
100
AcDbEntity
  8
0
  6
Continuous
100
AcDbLine
 10
120.4825506542779
 20
152.8707495035614
 30
0.0
 11
119.8203620579037
 21
152.6991510055663
 31
0.0
  0
LINE
  5
4BB
330
E3
100
AcDbEntity
  8
0
  6
Continuous
100
AcDbLine
 10
119.8203620579037
 20
152.6991510055663
 30
0.0
 11
119.1239270323171
 21
152.4662595861253
 31
0.0
  0
LINE
  5
4BC
330
E3
100
AcDbEntity
  8
0
  6
Continuous
100
AcDbLine
 10
119.1239270323171
 20
152.4662595861253
 30
0.0
 11
118.3985427274138
 21
152.179148080526
 31
0.0
  0
LINE
  5
4BD
330
E3
100
AcDbEntity
  8
0
  6
Continuous
100
AcDbLine
 10
118.3985427274138
 20
152.179148080526
 30
0.0
 11
117.6497343284767
 21
151.8465416460419
 31
0.0
  0
LINE
  5
4BE
330
E3
100
AcDbEntity
  8
0
  6
Continuous
100
AcDbLine
 10
117.6497343284767
 20
151.8465416460419
 30
0.0
 11
116.8831952436151
 21
151.4785486054097
 31
0.0
  0
LINE
  5
4BF
330
E3
100
AcDbEntity
  8
0
  6
Continuous
100
AcDbLine
 10
116.8831952436151
 20
151.4785486054097
 30
0.0
 11
116.1047646740548
 21
151.086346430886
 31
0.0
  0
LINE
  5
4C0
330
E3
100
AcDbEntity
  8
0
  6
Continuous
100
AcDbLine
 10
116.1047646740548
 20
151.086346430886
 30
0.0
 11
115.3203640632924
 21
150.6818565134498
 31
0.0
  0
LINE
  5
4C1
330
E3
100
AcDbEntity
  8
0
  6
Continuous
100
AcDbLine
 10
105.3203618738719
 20
150.6818565134498
 30
0.0
 11
105.3584176155356
 21
151.1312918318706
 31
0.0
  0
LINE
  5
4C2
330
E3
100
AcDbEntity
  8
0
  6
Continuous
100
AcDbLine
 10
105.3584176155356
 20
151.1312918318706
 30
0.0
 11
105.472285777724
 21
151.5670711950557
 31
0.0
  0
LINE
  5
4C3
330
E3
100
AcDbEntity
  8
0
  6
Continuous
100
AcDbLine
 10
105.472285777724
 20
151.5670711950557
 30
0.0
 11
105.6611065548787
 21
151.9759535974089
 31
0.0
  0
LINE
  5
4C4
330
E3
100
AcDbEntity
  8
0
  6
Continuous
100
AcDbLine
 10
105.6611065548787
 20
151.9759535974089
 30
0.0
 11
105.9234369689761
 21
152.3455129794711
 31
0.0
  0
LINE
  5
4C5
330
E3
100
AcDbEntity
  8
0
  6
Continuous
100
AcDbLine
 10
105.9234369689761
 20
152.3455129794711
 30
0.0
 11
106.257284514092
 21
152.6645270095653
 31
0.0
  0
LINE
  5
4C6
330
E3
100
AcDbEntity
  8
0
  6
Continuous
100
AcDbLine
 10
106.257284514092
 20
152.6645270095653
 30
0.0
 11
106.6601108946873
 21
152.9232948380236
 31
0.0
  0
LINE
  5
4C7
330
E3
100
AcDbEntity
  8
0
  6
Continuous
100
AcDbLine
 10
106.6601108946873
 20
152.9232948380236
 30
0.0
 11
107.1288432404624
 21
153.113958589701
 31
0.0
  0
LINE
  5
4C8
330
E3
100
AcDbEntity
  8
0
  6
Continuous
100
AcDbLine
 10
107.1288432404624
 20
153.113958589701
 30
0.0
 11
107.6599189657785
 21
153.2307276610771
 31
0.0
  0
LINE
  5
4C9
330
E3
100
AcDbEntity
  8
0
  6
Continuous
100
AcDbLine
 10
107.6599189657785
 20
153.2307276610771
 30
0.0
 11
108.2492969845118
 21
153.2700469430829
 31
0.0
  0
LINE
  5
4CA
330
E3
100
AcDbEntity
  8
0
  6
Continuous
100
AcDbLine
 10
108.2492969845118
 20
153.2700469430829
 30
0.0
 11
108.8924876163344
 21
153.2307276610771
 31
0.0
  0
LINE
  5
4CB
330
E3
100
AcDbEntity
  8
0
  6
Continuous
100
AcDbLine
 10
108.8924876163344
 20
153.2307276610771
 30
0.0
 11
109.5845974461347
 21
153.113958589701
 31
0.0
  0
LINE
  5
4CC
330
E3
100
AcDbEntity
  8
0
  6
Continuous
100
AcDbLine
 10
109.5845974461347
 20
153.113958589701
 30
0.0
 11
110.3203629685822
 21
152.9232948380236
 31
0.0
  0
LINE
  5
4CD
330
E3
100
AcDbEntity
  8
0
  6
Continuous
100
AcDbLine
 10
110.3203629685822
 20
152.9232948380236
 30
0.0
 11
111.0941804944083
 21
152.6645270095653
 31
0.0
  0
LINE
  5
4CE
330
E3
100
AcDbEntity
  8
0
  6
Continuous
100
AcDbLine
 10
111.0941804944083
 20
152.6645270095653
 30
0.0
 11
111.900162224682
 21
152.3455129794711
 31
0.0
  0
LINE
  5
4CF
330
E3
100
AcDbEntity
  8
0
  6
Continuous
100
AcDbLine
 10
111.900162224682
 20
152.3455129794711
 30
0.0
 11
112.7321736336594
 21
151.9759535974089
 31
0.0
  0
LINE
  5
4D0
330
E3
100
AcDbEntity
  8
0
  6
Continuous
100
AcDbLine
 10
112.7321736336594
 20
151.9759535974089
 30
0.0
 11
113.5838820664901
 21
151.5670711950557
 31
0.0
  0
LINE
  5
4D1
330
E3
100
AcDbEntity
  8
0
  6
Continuous
100
AcDbLine
 10
113.5838820664901
 20
151.5670711950557
 30
0.0
 11
114.448805336922
 21
151.1312918318706
 31
0.0
  0
LINE
  5
4D2
330
E3
100
AcDbEntity
  8
0
  6
Continuous
100
AcDbLine
 10
114.448805336922
 20
151.1312918318706
 30
0.0
 11
115.3203640632924
 21
150.6818565134498
 31
0.0
  0
LINE
  5
4D3
330
E3
100
AcDbEntity
  8
0
  6
Continuous
100
AcDbLine
 10
115.3203640632924
 20
150.6818565134498
 30
0.0
 11
116.1919190513778
 21
150.2324211950291
 31
0.0
  0
LINE
  5
4D4
330
E3
100
AcDbEntity
  8
0
  6
Continuous
100
AcDbLine
 10
116.1919190513778
 20
150.2324211950291
 30
0.0
 11
117.0568460600948
 21
149.796645570129
 31
0.0
  0
LINE
  5
4D5
330
E3
100
AcDbEntity
  8
0
  6
Continuous
100
AcDbLine
 10
117.0568460600948
 20
149.796645570129
 30
0.0
 11
117.9085544929255
 21
149.3877631677758
 31
0.0
  0
LINE
  5
4D6
330
E3
100
AcDbEntity
  8
0
  6
Continuous
100
AcDbLine
 10
117.9085544929255
 20
149.3877631677758
 30
0.0
 11
118.7405659019029
 21
149.0182000474285
 31
0.0
  0
LINE
  5
4D7
330
E3
100
AcDbEntity
  8
0
  6
Continuous
100
AcDbLine
 10
118.7405659019029
 20
149.0182000474285
 30
0.0
 11
119.5465438938915
 21
148.6991897556194
 31
0.0
  0
LINE
  5
4D8
330
E3
100
AcDbEntity
  8
0
  6
Continuous
100
AcDbLine
 10
119.5465438938915
 20
148.6991897556194
 30
0.0
 11
120.3203614197177
 21
148.440418188876
 31
0.0
  0
LINE
  5
4D9
330
E3
100
AcDbEntity
  8
0
  6
Continuous
100
AcDbLine
 10
120.3203614197177
 20
148.440418188876
 30
0.0
 11
121.0561269421652
 21
148.2497544371987
 31
0.0
  0
LINE
  5
4DA
330
E3
100
AcDbEntity
  8
0
  6
Continuous
100
AcDbLine
 10
121.0561269421652
 20
148.2497544371987
 30
0.0
 11
121.7482405102504
 21
148.1329853658226
 31
0.0
  0
LINE
  5
4DB
330
E3
100
AcDbEntity
  8
0
  6
Continuous
100
AcDbLine
 10
121.7482405102504
 20
148.1329853658226
 30
0.0
 11
122.3914311420731
 21
148.0936660838168
 31
0.0
  0
LINE
  5
4DC
330
E3
100
AcDbEntity
  8
0
  6
Continuous
100
AcDbLine
 10
122.3914311420731
 20
148.0936660838168
 30
0.0
 11
122.9808091608064
 21
148.1329853658226
 31
0.0
  0
LINE
  5
4DD
330
E3
100
AcDbEntity
  8
0
  6
Continuous
100
AcDbLine
 10
122.9808091608064
 20
148.1329853658226
 30
0.0
 11
123.5118848861224
 21
148.2497544371987
 31
0.0
  0
LINE
  5
4DE
330
E3
100
AcDbEntity
  8
0
  6
Continuous
100
AcDbLine
 10
123.5118848861224
 20
148.2497544371987
 30
0.0
 11
123.9806172318976
 21
148.440418188876
 31
0.0
  0
LINE
  5
4DF
330
E3
100
AcDbEntity
  8
0
  6
Continuous
100
AcDbLine
 10
123.9806172318976
 20
148.440418188876
 30
0.0
 11
124.3834398742078
 21
148.6991897556194
 31
0.0
  0
LINE
  5
4E0
330
E3
100
AcDbEntity
  8
0
  6
Continuous
100
AcDbLine
 10
124.3834398742078
 20
148.6991897556194
 30
0.0
 11
124.7172911576088
 21
149.0182000474285
 31
0.0
  0
LINE
  5
4E1
330
E3
100
AcDbEntity
  8
0
  6
Continuous
100
AcDbLine
 10
124.7172911576088
 20
149.0182000474285
 30
0.0
 11
124.9796215717061
 21
149.3877631677758
 31
0.0
  0
LINE
  5
4E2
330
E3
100
AcDbEntity
  8
0
  6
Continuous
100
AcDbLine
 10
124.9796215717061
 20
149.3877631677758
 30
0.0
 11
125.1684423488609
 21
149.796645570129
 31
0.0
  0
LINE
  5
4E3
330
E3
100
AcDbEntity
  8
0
  6
Continuous
100
AcDbLine
 10
125.1684423488609
 20
149.796645570129
 30
0.0
 11
125.2823105110493
 21
150.2324211950291
 31
0.0
  0
LINE
  5
4E4
330
E3
100
AcDbEntity
  8
0
  6
Continuous
100
AcDbLine
 10
125.2823105110493
 20
150.2324211950291
 30
0.0
 11
125.320362514428
 21
150.6818565134498
 31
0.0
  0
HATCH
  5
4E5
330
E3
100
AcDbEntity
  8
0
  6
Continuous
 62
   255
370
     0
100
AcDbHatch
 10
0.0
 20
0.0
 30
0.0
210
0.0
220
0.0
230
1.0
  2
SOLID
 70
     1
 71
     0
 91
        1
 92
        3
 72
     0
 73
     1
 93
       39
 10
105.3203618738719
 20
53.01315626921706
 10
125.320362514428
 20
53.01315626921706
 10
125.320362514428
 20
69.22475268656838
 10
125.2823105110493
 20
69.67418426670407
 10
125.1684423488609
 20
70.10996362988928
 10
124.9796215717061
 20
70.5188460322424
 10
124.7172911576088
 20
70.8884091525897
 10
124.3834398742078
 20
71.20741944439882
 10
123.9806172318976
 20
71.46619101114217
 10
123.5118848861224
 20
71.65685476281955
 10
122.9808091608064
 20
71.7736200959106
 10
122.3914311420731
 20
71.81294311620144
 10
121.7482405102504
 20
71.7736200959106
 10
121.0561269421652
 20
71.65685476281955
 10
120.3203614197177
 20
71.46619101114217
 10
119.5465438938915
 20
71.20741944439882
 10
118.7405659019029
 20
70.8884091525897
 10
117.9085544929255
 20
70.5188460322424
 10
117.0568460600948
 20
70.10996362988928
 10
116.1919190513778
 20
69.67418426670407
 10
115.3203640632924
 20
69.22475268656838
 10
114.448805336922
 20
68.77531736814765
 10
113.5838820664901
 20
68.33953800496245
 10
112.7321736336594
 20
67.93065560260933
 10
111.900162224682
 20
67.56109622054707
 10
111.0941804944083
 20
67.24208219045292
 10
110.3203629685822
 20
66.98331436199459
 10
109.5845974461347
 20
66.79264687203218
 10
108.8924876163344
 20
66.67588153894114
 10
108.2492969845118
 20
66.63656225693532
 10
107.6599189657785
 20
66.67588153894114
 10
107.1288432404624
 20
66.79264687203218
 10
106.6601108946873
 20
66.98331436199459
 10
106.257284514092
 20
67.24208219045292
 10
105.9234369689761
 20
67.56109622054707
 10
105.6611065548787
 20
67.93065560260933
 10
105.472285777724
 20
68.33953800496245
 10
105.3584176155356
 20
68.77531736814765
 10
105.3203618738719
 20
69.22475268656838
 97
        0
 75
     0
 76
     1
 98
        0
  0
HATCH
  5
4E6
330
E3
100
AcDbEntity
  8
0
  6
Continuous
 62
   255
370
    18
100
AcDbHatch
 10
0.0
 20
0.0
 30
0.0
210
0.0
220
0.0
230
1.0
  2
SOLID
 70
     1
 71
     0
 91
        1
 92
        3
 72
     0
 73
     1
 93
       36
 10
115.3203630852323
 20
69.22475134647311
 10
116.1919205127089
 20
68.77531679119765
 10
117.0568448619016
 20
68.33953807745937
 10
117.9085535362575
 20
67.9306561209605
 10
118.740564518489
 20
67.56109459304511
 10
119.5465457026393
 20
67.24208243373165
 10
120.3203630852323
 20
66.983312666053
 10
121.0561274487428
 20
66.7926478784562
 10
121.7482391820977
 20
66.67588132403134
 10
122.3914308970977
 20
66.63656089544791
 10
122.9808075164221
 20
66.67588132403134
 10
123.5118835281222
 20
66.7926478784562
 10
123.9806171230767
 20
66.983312666053
 10
124.3834409555988
 20
67.24208243373165
 10
124.7172892930914
 20
67.56109459304511
 10
124.979621348123
 20
67.9306561209605
 10
125.1684406153544
 20
68.33953807745937
 10
125.2823100661498
 20
68.77531679119765
 10
125.3203630852323
 20
69.22475134647311
 10
125.2823100661498
 20
69.6741859017486
 10
125.1684406153544
 20
70.10996461548689
 10
124.979621348123
 20
70.51884657198572
 10
124.7172892930914
 20
70.88840809990114
 10
124.3834409555988
 20
71.20742025921457
 10
123.9806171230767
 20
71.46619002689326
 10
123.5118835281222
 20
71.65685481449006
 10
122.9808075164221
 20
71.77362136891492
 10
122.3914308970977
 20
71.81294179749833
 10
121.7482391820977
 20
71.77362136891492
 10
121.0561274487428
 20
71.65685481449006
 10
120.3203630852323
 20
71.46619002689326
 10
119.5465457026393
 20
71.20742025921457
 10
118.740564518489
 20
70.88840809990114
 10
117.9085535362575
 20
70.51884657198572
 10
117.0568448619016
 20
70.10996461548689
 10
116.1919205127089
 20
69.6741859017486
 97
        0
 75
     0
 76
     1
 98
        0
  0
LINE
  5
4E7
330
E3
100
AcDbEntity
  8
0
  6
Continuous
100
AcDbLine
 10
116.1919190513778
 20
68.77531736814765
 30
0.0
 11
115.3203640632924
 21
69.22475268656838
 31
0.0
  0
LINE
  5
4E8
330
E3
100
AcDbEntity
  8
0
  6
Continuous
100
AcDbLine
 10
117.0568460600948
 20
68.33953800496245
 30
0.0
 11
116.1919190513778
 21
68.77531736814765
 31
0.0
  0
LINE
  5
4E9
330
E3
100
AcDbEntity
  8
0
  6
Continuous
100
AcDbLine
 10
117.9085544929255
 20
67.93065560260933
 30
0.0
 11
117.0568460600948
 21
68.33953800496245
 31
0.0
  0
LINE
  5
4EA
330
E3
100
AcDbEntity
  8
0
  6
Continuous
100
AcDbLine
 10
118.7405659019029
 20
67.56109622054707
 30
0.0
 11
117.9085544929255
 21
67.93065560260933
 31
0.0
  0
LINE
  5
4EB
330
E3
100
AcDbEntity
  8
0
  6
Continuous
100
AcDbLine
 10
119.5465438938915
 20
67.24208219045292
 30
0.0
 11
118.7405659019029
 21
67.56109622054707
 31
0.0
  0
LINE
  5
4EC
330
E3
100
AcDbEntity
  8
0
  6
Continuous
100
AcDbLine
 10
120.3203614197177
 20
66.98331436199459
 30
0.0
 11
119.5465438938915
 21
67.24208219045292
 31
0.0
  0
LINE
  5
4ED
330
E3
100
AcDbEntity
  8
0
  6
Continuous
100
AcDbLine
 10
121.0561269421652
 20
66.79264687203218
 30
0.0
 11
120.3203614197177
 21
66.98331436199459
 31
0.0
  0
LINE
  5
4EE
330
E3
100
AcDbEntity
  8
0
  6
Continuous
100
AcDbLine
 10
121.7482405102504
 20
66.67588153894114
 30
0.0
 11
121.0561269421652
 21
66.79264687203218
 31
0.0
  0
LINE
  5
4EF
330
E3
100
AcDbEntity
  8
0
  6
Continuous
100
AcDbLine
 10
122.3914311420731
 20
66.63656225693532
 30
0.0
 11
121.7482405102504
 21
66.67588153894114
 31
0.0
  0
LINE
  5
4F0
330
E3
100
AcDbEntity
  8
0
  6
Continuous
100
AcDbLine
 10
122.9808091608064
 20
66.67588153894114
 30
0.0
 11
122.3914311420731
 21
66.63656225693532
 31
0.0
  0
LINE
  5
4F1
330
E3
100
AcDbEntity
  8
0
  6
Continuous
100
AcDbLine
 10
123.5118848861224
 20
66.79264687203218
 30
0.0
 11
122.9808091608064
 21
66.67588153894114
 31
0.0
  0
LINE
  5
4F2
330
E3
100
AcDbEntity
  8
0
  6
Continuous
100
AcDbLine
 10
123.9806172318976
 20
66.98331436199459
 30
0.0
 11
123.5118848861224
 21
66.79264687203218
 31
0.0
  0
LINE
  5
4F3
330
E3
100
AcDbEntity
  8
0
  6
Continuous
100
AcDbLine
 10
124.3834398742078
 20
67.24208219045292
 30
0.0
 11
123.9806172318976
 21
66.98331436199459
 31
0.0
  0
LINE
  5
4F4
330
E3
100
AcDbEntity
  8
0
  6
Continuous
100
AcDbLine
 10
124.7172911576088
 20
67.56109622054707
 30
0.0
 11
124.3834398742078
 21
67.24208219045292
 31
0.0
  0
LINE
  5
4F5
330
E3
100
AcDbEntity
  8
0
  6
Continuous
100
AcDbLine
 10
124.9796215717061
 20
67.93065560260933
 30
0.0
 11
124.7172911576088
 21
67.56109622054707
 31
0.0
  0
LINE
  5
4F6
330
E3
100
AcDbEntity
  8
0
  6
Continuous
100
AcDbLine
 10
125.1684423488609
 20
68.33953800496245
 30
0.0
 11
124.9796215717061
 21
67.93065560260933
 31
0.0
  0
LINE
  5
4F7
330
E3
100
AcDbEntity
  8
0
  6
Continuous
100
AcDbLine
 10
125.2823105110493
 20
68.77531736814765
 30
0.0
 11
125.1684423488609
 21
68.33953800496245
 31
0.0
  0
LINE
  5
4F8
330
E3
100
AcDbEntity
  8
0
  6
Continuous
100
AcDbLine
 10
125.320362514428
 20
69.22475268656838
 30
0.0
 11
125.2823105110493
 21
68.77531736814765
 31
0.0
  0
LINE
  5
4F9
330
E3
100
AcDbEntity
  8
0
  6
Continuous
100
AcDbLine
 10
125.2823105110493
 20
69.67418426670407
 30
0.0
 11
125.320362514428
 21
69.22475268656838
 31
0.0
  0
LINE
  5
4FA
330
E3
100
AcDbEntity
  8
0
  6
Continuous
100
AcDbLine
 10
125.1684423488609
 20
70.10996362988928
 30
0.0
 11
125.2823105110493
 21
69.67418426670407
 31
0.0
  0
LINE
  5
4FB
330
E3
100
AcDbEntity
  8
0
  6
Continuous
100
AcDbLine
 10
124.9796215717061
 20
70.5188460322424
 30
0.0
 11
125.1684423488609
 21
70.10996362988928
 31
0.0
  0
LINE
  5
4FC
330
E3
100
AcDbEntity
  8
0
  6
Continuous
100
AcDbLine
 10
124.7172911576088
 20
70.8884091525897
 30
0.0
 11
124.9796215717061
 21
70.5188460322424
 31
0.0
  0
LINE
  5
4FD
330
E3
100
AcDbEntity
  8
0
  6
Continuous
100
AcDbLine
 10
124.3834398742078
 20
71.20741944439882
 30
0.0
 11
124.7172911576088
 21
70.8884091525897
 31
0.0
  0
LINE
  5
4FE
330
E3
100
AcDbEntity
  8
0
  6
Continuous
100
AcDbLine
 10
123.9806172318976
 20
71.46619101114217
 30
0.0
 11
124.3834398742078
 21
71.20741944439882
 31
0.0
  0
LINE
  5
4FF
330
E3
100
AcDbEntity
  8
0
  6
Continuous
100
AcDbLine
 10
123.5118848861224
 20
71.65685476281955
 30
0.0
 11
123.9806172318976
 21
71.46619101114217
 31
0.0
  0
LINE
  5
500
330
E3
100
AcDbEntity
  8
0
  6
Continuous
100
AcDbLine
 10
122.9808091608064
 20
71.7736200959106
 30
0.0
 11
123.5118848861224
 21
71.65685476281955
 31
0.0
  0
LINE
  5
501
330
E3
100
AcDbEntity
  8
0
  6
Continuous
100
AcDbLine
 10
122.3914311420731
 20
71.81294311620144
 30
0.0
 11
122.9808091608064
 21
71.7736200959106
 31
0.0
  0
LINE
  5
502
330
E3
100
AcDbEntity
  8
0
  6
Continuous
100
AcDbLine
 10
121.7482405102504
 20
71.7736200959106
 30
0.0
 11
122.3914311420731
 21
71.81294311620144
 31
0.0
  0
LINE
  5
503
330
E3
100
AcDbEntity
  8
0
  6
Continuous
100
AcDbLine
 10
121.0561269421652
 20
71.65685476281955
 30
0.0
 11
121.7482405102504
 21
71.7736200959106
 31
0.0
  0
LINE
  5
504
330
E3
100
AcDbEntity
  8
0
  6
Continuous
100
AcDbLine
 10
120.3203614197177
 20
71.46619101114217
 30
0.0
 11
121.0561269421652
 21
71.65685476281955
 31
0.0
  0
LINE
  5
505
330
E3
100
AcDbEntity
  8
0
  6
Continuous
100
AcDbLine
 10
119.5465438938915
 20
71.20741944439882
 30
0.0
 11
120.3203614197177
 21
71.46619101114217
 31
0.0
  0
LINE
  5
506
330
E3
100
AcDbEntity
  8
0
  6
Continuous
100
AcDbLine
 10
118.7405659019029
 20
70.8884091525897
 30
0.0
 11
119.5465438938915
 21
71.20741944439882
 31
0.0
  0
LINE
  5
507
330
E3
100
AcDbEntity
  8
0
  6
Continuous
100
AcDbLine
 10
117.9085544929255
 20
70.5188460322424
 30
0.0
 11
118.7405659019029
 21
70.8884091525897
 31
0.0
  0
LINE
  5
508
330
E3
100
AcDbEntity
  8
0
  6
Continuous
100
AcDbLine
 10
117.0568460600948
 20
70.10996362988928
 30
0.0
 11
117.9085544929255
 21
70.5188460322424
 31
0.0
  0
LINE
  5
509
330
E3
100
AcDbEntity
  8
0
  6
Continuous
100
AcDbLine
 10
116.1919190513778
 20
69.67418426670407
 30
0.0
 11
117.0568460600948
 21
70.10996362988928
 31
0.0
  0
LINE
  5
50A
330
E3
100
AcDbEntity
  8
0
  6
Continuous
100
AcDbLine
 10
115.3203640632924
 20
69.22475268656838
 30
0.0
 11
116.1919190513778
 21
69.67418426670407
 31
0.0
  0
HATCH
  5
50B
330
E3
100
AcDbEntity
  8
0
  6
Continuous
 62
   255
370
    18
100
AcDbHatch
 10
0.0
 20
0.0
 30
0.0
210
0.0
220
0.0
230
1.0
  2
SOLID
 70
     1
 71
     0
 91
        1
 92
        3
 72
     0
 73
     1
 93
       36
 10
115.3203630852323
 20
69.22475134647311
 10
116.1047647699612
 20
68.82026024672517
 10
116.8831966842347
 20
68.42805940436074
 10
117.649734491155
 20
68.06006564351176
 10
118.3985443751633
 20
67.7274602683879
 10
119.1239274408986
 20
67.4403493250058
 10
119.8203630852323
 20
67.207456534095
 10
120.4825510123917
 20
67.03585822525788
 10
121.1054515724112
 20
66.93076832627553
 10
121.6843241159112
 20
66.89537994055043
 10
122.2147630733031
 20
66.93076832627553
 10
122.6927314838332
 20
67.03585822525788
 10
123.1145917192922
 20
67.207456534095
 10
123.4771331685621
 20
67.4403493250058
 10
123.7775966723055
 20
67.7274602683879
 10
124.0136955218339
 20
68.06006564351176
 10
124.1836328623422
 20
68.42805940436074
 10
124.286115368058
 20
68.82026024672517
 10
124.3203630852323
 20
69.22475134647311
 10
124.286115368058
 20
69.62924244622106
 10
124.1836328623422
 20
70.02144328858552
 10
124.0136955218339
 20
70.38943704943446
 10
123.7775966723055
 20
70.72204242455834
 10
123.4771331685621
 20
71.00915336794046
 10
123.1145917192922
 20
71.24204615885122
 10
122.6927314838332
 20
71.41364446768837
 10
122.2147630733031
 20
71.51873436667074
 10
121.6843241159112
 20
71.55412275239583
 10
121.1054515724112
 20
71.51873436667074
 10
120.4825510123917
 20
71.41364446768837
 10
119.8203630852323
 20
71.24204615885122
 10
119.1239274408986
 20
71.00915336794046
 10
118.3985443751633
 20
70.72204242455835
 10
117.649734491155
 20
70.38943704943446
 10
116.8831966842347
 20
70.02144328858552
 10
116.1047647699612
 20
69.62924244622106
 97
        0
 75
     0
 76
     1
 98
        0
  0
LINE
  5
50C
330
E3
100
AcDbEntity
  8
0
  6
Continuous
100
AcDbLine
 10
116.1047646740548
 20
68.82025903084721
 30
0.0
 11
115.3203640632924
 21
69.22475268656838
 31
0.0
  0
LINE
  5
50D
330
E3
100
AcDbEntity
  8
0
  6
Continuous
100
AcDbLine
 10
116.8831952436151
 20
68.42806059460855
 30
0.0
 11
116.1047646740548
 21
68.82025903084721
 31
0.0
  0
LINE
  5
50E
330
E3
100
AcDbEntity
  8
0
  6
Continuous
100
AcDbLine
 10
117.6497343284767
 20
68.06006381569121
 30
0.0
 11
116.8831952436151
 21
68.42806059460855
 31
0.0
  0
LINE
  5
50F
330
E3
100
AcDbEntity
  8
0
  6
Continuous
100
AcDbLine
 10
118.3985427274138
 20
67.72746111949218
 30
0.0
 11
117.6497343284767
 21
68.06006381569121
 31
0.0
  0
LINE
  5
510
330
E3
100
AcDbEntity
  8
0
  6
Continuous
100
AcDbLine
 10
119.1239270323171
 20
67.44034961389296
 30
0.0
 11
118.3985427274138
 21
67.72746111949218
 31
0.0
  0
LINE
  5
511
330
E3
100
AcDbEntity
  8
0
  6
Continuous
100
AcDbLine
 10
119.8203620579037
 20
67.20745819445196
 30
0.0
 11
119.1239270323171
 21
67.44034961389296
 31
0.0
  0
LINE
  5
512
330
E3
100
AcDbEntity
  8
0
  6
Continuous
100
AcDbLine
 10
120.4825506542779
 20
67.03585969645682
 30
0.0
 11
119.8203620579037
 21
67.20745819445196
 31
0.0
  0
LINE
  5
513
330
E3
100
AcDbEntity
  8
0
  6
Continuous
100
AcDbLine
 10
121.1054498749266
 20
66.93076902753236
 30
0.0
 11
120.4825506542779
 21
67.03585969645682
 31
0.0
  0
LINE
  5
514
330
E3
100
AcDbEntity
  8
0
  6
Continuous
100
AcDbLine
 10
121.6843233127095
 20
66.8953786830991
 30
0.0
 11
121.1054498749266
 21
66.93076902753236
 31
0.0
  0
LINE
  5
515
330
E3
100
AcDbEntity
  8
0
  6
Continuous
100
AcDbLine
 10
122.2147635295695
 20
66.93076902753236
 30
0.0
 11
121.6843233127095
 21
66.8953786830991
 31
0.0
  0
LINE
  5
516
330
E3
100
AcDbEntity
  8
0
  6
Continuous
100
AcDbLine
 10
122.692733177668
 20
67.03585969645682
 30
0.0
 11
122.2147635295695
 21
66.93076902753236
 31
0.0
  0
LINE
  5
517
330
E3
100
AcDbEntity
  8
0
  6
Continuous
100
AcDbLine
 10
123.1145911673801
 20
67.20745819445196
 30
0.0
 11
122.692733177668
 21
67.03585969645682
 31
0.0
  0
LINE
  5
518
330
E3
100
AcDbEntity
  8
0
  6
Continuous
100
AcDbLine
 10
123.4771337884303
 20
67.44034961389296
 30
0.0
 11
123.1145911673801
 21
67.20745819445196
 31
0.0
  0
LINE
  5
519
330
E3
100
AcDbEntity
  8
0
  6
Continuous
100
AcDbLine
 10
123.7775984481771
 20
67.72746111949218
 30
0.0
 11
123.4771337884303
 21
67.44034961389296
 31
0.0
  0
LINE
  5
51A
330
E3
100
AcDbEntity
  8
0
  6
Continuous
100
AcDbLine
 10
124.0136973161788
 20
68.06006381569121
 30
0.0
 11
123.7775984481771
 21
67.72746111949218
 31
0.0
  0
LINE
  5
51B
330
E3
100
AcDbEntity
  8
0
  6
Continuous
100
AcDbLine
 10
124.183632277333
 20
68.42806059460855
 30
0.0
 11
124.0136973161788
 21
68.06006381569121
 31
0.0
  0
LINE
  5
51C
330
E3
100
AcDbEntity
  8
0
  6
Continuous
100
AcDbLine
 10
124.2861136233026
 20
68.82025903084721
 30
0.0
 11
124.183632277333
 21
68.42806059460855
 31
0.0
  0
LINE
  5
51D
330
E3
100
AcDbEntity
  8
0
  6
Continuous
100
AcDbLine
 10
124.3203637907999
 20
69.22475268656838
 30
0.0
 11
124.2861136233026
 21
68.82025903084721
 31
0.0
  0
LINE
  5
51E
330
E3
100
AcDbEntity
  8
0
  6
Continuous
100
AcDbLine
 10
124.2861136233026
 20
69.62924260400452
 30
0.0
 11
124.3203637907999
 21
69.22475268656838
 31
0.0
  0
LINE
  5
51F
330
E3
100
AcDbEntity
  8
0
  6
Continuous
100
AcDbLine
 10
124.183632277333
 20
70.0214447785282
 30
0.0
 11
124.2861136233026
 21
69.62924260400452
 31
0.0
  0
LINE
  5
520
330
E3
100
AcDbEntity
  8
0
  6
Continuous
100
AcDbLine
 10
124.0136973161788
 20
70.3894378191605
 30
0.0
 11
124.183632277333
 21
70.0214447785282
 31
0.0
  0
LINE
  5
521
330
E3
100
AcDbEntity
  8
0
  6
Continuous
100
AcDbLine
 10
123.7775984481771
 20
70.72204425364457
 30
0.0
 11
124.0136973161788
 21
70.3894378191605
 31
0.0
  0
LINE
  5
522
330
E3
100
AcDbEntity
  8
0
  6
Continuous
100
AcDbLine
 10
123.4771337884303
 20
71.00915202095877
 30
0.0
 11
123.7775984481771
 21
70.72204425364457
 31
0.0
  0
LINE
  5
523
330
E3
100
AcDbEntity
  8
0
  6
Continuous
100
AcDbLine
 10
123.1145911673801
 20
71.24204717868479
 30
0.0
 11
123.4771337884303
 21
71.00915202095877
 31
0.0
  0
LINE
  5
524
330
E3
100
AcDbEntity
  8
0
  6
Continuous
100
AcDbLine
 10
122.692733177668
 20
71.41364567667993
 30
0.0
 11
123.1145911673801
 21
71.24204717868479
 31
0.0
  0
LINE
  5
525
330
E3
100
AcDbEntity
  8
0
  6
Continuous
100
AcDbLine
 10
122.2147635295695
 20
71.51873260731936
 30
0.0
 11
122.692733177668
 21
71.41364567667993
 31
0.0
  0
LINE
  5
526
330
E3
100
AcDbEntity
  8
0
  6
Continuous
100
AcDbLine
 10
121.6843233127095
 20
71.55412295175263
 30
0.0
 11
122.2147635295695
 21
71.51873260731936
 31
0.0
  0
LINE
  5
527
330
E3
100
AcDbEntity
  8
0
  6
Continuous
100
AcDbLine
 10
121.1054498749266
 20
71.51873260731936
 30
0.0
 11
121.6843233127095
 21
71.55412295175263
 31
0.0
  0
LINE
  5
528
330
E3
100
AcDbEntity
  8
0
  6
Continuous
100
AcDbLine
 10
120.4825506542779
 20
71.41364567667993
 30
0.0
 11
121.1054498749266
 21
71.51873260731936
 31
0.0
  0
LINE
  5
529
330
E3
100
AcDbEntity
  8
0
  6
Continuous
100
AcDbLine
 10
119.8203620579037
 20
71.24204717868479
 30
0.0
 11
120.4825506542779
 21
71.41364567667993
 31
0.0
  0
LINE
  5
52A
330
E3
100
AcDbEntity
  8
0
  6
Continuous
100
AcDbLine
 10
119.1239270323171
 20
71.00915202095877
 30
0.0
 11
119.8203620579037
 21
71.24204717868479
 31
0.0
  0
LINE
  5
52B
330
E3
100
AcDbEntity
  8
0
  6
Continuous
100
AcDbLine
 10
118.3985427274138
 20
70.72204425364457
 30
0.0
 11
119.1239270323171
 21
71.00915202095877
 31
0.0
  0
LINE
  5
52C
330
E3
100
AcDbEntity
  8
0
  6
Continuous
100
AcDbLine
 10
117.6497343284767
 20
70.3894378191605
 30
0.0
 11
118.3985427274138
 21
70.72204425364457
 31
0.0
  0
LINE
  5
52D
330
E3
100
AcDbEntity
  8
0
  6
Continuous
100
AcDbLine
 10
116.8831952436151
 20
70.0214447785282
 30
0.0
 11
117.6497343284767
 21
70.3894378191605
 31
0.0
  0
LINE
  5
52E
330
E3
100
AcDbEntity
  8
0
  6
Continuous
100
AcDbLine
 10
116.1047646740548
 20
69.62924260400452
 30
0.0
 11
116.8831952436151
 21
70.0214447785282
 31
0.0
  0
LINE
  5
52F
330
E3
100
AcDbEntity
  8
0
  6
Continuous
100
AcDbLine
 10
115.3203640632924
 20
69.22475268656838
 30
0.0
 11
116.1047646740548
 21
69.62924260400452
 31
0.0
  0
LINE
  5
530
330
E3
100
AcDbEntity
  8
0
  6
Continuous
100
AcDbLine
 10
105.3203618738719
 20
69.22475268656838
 30
0.0
 11
105.3584176155356
 21
68.77531736814765
 31
0.0
  0
LINE
  5
531
330
E3
100
AcDbEntity
  8
0
  6
Continuous
100
AcDbLine
 10
105.3584176155356
 20
68.77531736814765
 30
0.0
 11
105.472285777724
 21
68.33953800496245
 31
0.0
  0
LINE
  5
532
330
E3
100
AcDbEntity
  8
0
  6
Continuous
100
AcDbLine
 10
105.472285777724
 20
68.33953800496245
 30
0.0
 11
105.6611065548787
 21
67.93065560260933
 31
0.0
  0
LINE
  5
533
330
E3
100
AcDbEntity
  8
0
  6
Continuous
100
AcDbLine
 10
105.6611065548787
 20
67.93065560260933
 30
0.0
 11
105.9234369689761
 21
67.56109622054707
 31
0.0
  0
LINE
  5
534
330
E3
100
AcDbEntity
  8
0
  6
Continuous
100
AcDbLine
 10
105.9234369689761
 20
67.56109622054707
 30
0.0
 11
106.257284514092
 21
67.24208219045292
 31
0.0
  0
LINE
  5
535
330
E3
100
AcDbEntity
  8
0
  6
Continuous
100
AcDbLine
 10
106.257284514092
 20
67.24208219045292
 30
0.0
 11
106.6601108946873
 21
66.98331436199459
 31
0.0
  0
LINE
  5
536
330
E3
100
AcDbEntity
  8
0
  6
Continuous
100
AcDbLine
 10
106.6601108946873
 20
66.98331436199459
 30
0.0
 11
107.1288432404624
 21
66.79264687203218
 31
0.0
  0
LINE
  5
537
330
E3
100
AcDbEntity
  8
0
  6
Continuous
100
AcDbLine
 10
107.1288432404624
 20
66.79264687203218
 30
0.0
 11
107.6599189657785
 21
66.67588153894114
 31
0.0
  0
LINE
  5
538
330
E3
100
AcDbEntity
  8
0
  6
Continuous
100
AcDbLine
 10
107.6599189657785
 20
66.67588153894114
 30
0.0
 11
108.2492969845118
 21
66.63656225693532
 31
0.0
  0
LINE
  5
539
330
E3
100
AcDbEntity
  8
0
  6
Continuous
100
AcDbLine
 10
108.2492969845118
 20
66.63656225693532
 30
0.0
 11
108.8924876163344
 21
66.67588153894114
 31
0.0
  0
LINE
  5
53A
330
E3
100
AcDbEntity
  8
0
  6
Continuous
100
AcDbLine
 10
108.8924876163344
 20
66.67588153894114
 30
0.0
 11
109.5845974461347
 21
66.79264687203218
 31
0.0
  0
LINE
  5
53B
330
E3
100
AcDbEntity
  8
0
  6
Continuous
100
AcDbLine
 10
109.5845974461347
 20
66.79264687203218
 30
0.0
 11
110.3203629685822
 21
66.98331436199459
 31
0.0
  0
LINE
  5
53C
330
E3
100
AcDbEntity
  8
0
  6
Continuous
100
AcDbLine
 10
110.3203629685822
 20
66.98331436199459
 30
0.0
 11
111.0941804944083
 21
67.24208219045292
 31
0.0
  0
LINE
  5
53D
330
E3
100
AcDbEntity
  8
0
  6
Continuous
100
AcDbLine
 10
111.0941804944083
 20
67.24208219045292
 30
0.0
 11
111.900162224682
 21
67.56109622054707
 31
0.0
  0
LINE
  5
53E
330
E3
100
AcDbEntity
  8
0
  6
Continuous
100
AcDbLine
 10
111.900162224682
 20
67.56109622054707
 30
0.0
 11
112.7321736336594
 21
67.93065560260933
 31
0.0
  0
LINE
  5
53F
330
E3
100
AcDbEntity
  8
0
  6
Continuous
100
AcDbLine
 10
112.7321736336594
 20
67.93065560260933
 30
0.0
 11
113.5838820664901
 21
68.33953800496245
 31
0.0
  0
LINE
  5
540
330
E3
100
AcDbEntity
  8
0
  6
Continuous
100
AcDbLine
 10
113.5838820664901
 20
68.33953800496245
 30
0.0
 11
114.448805336922
 21
68.77531736814765
 31
0.0
  0
LINE
  5
541
330
E3
100
AcDbEntity
  8
0
  6
Continuous
100
AcDbLine
 10
114.448805336922
 20
68.77531736814765
 30
0.0
 11
115.3203640632924
 21
69.22475268656838
 31
0.0
  0
LINE
  5
542
330
E3
100
AcDbEntity
  8
0
  6
Continuous
100
AcDbLine
 10
115.3203640632924
 20
69.22475268656838
 30
0.0
 11
116.1919190513778
 21
69.67418426670407
 31
0.0
  0
LINE
  5
543
330
E3
100
AcDbEntity
  8
0
  6
Continuous
100
AcDbLine
 10
116.1919190513778
 20
69.67418426670407
 30
0.0
 11
117.0568460600948
 21
70.10996362988928
 31
0.0
  0
LINE
  5
544
330
E3
100
AcDbEntity
  8
0
  6
Continuous
100
AcDbLine
 10
117.0568460600948
 20
70.10996362988928
 30
0.0
 11
117.9085544929255
 21
70.5188460322424
 31
0.0
  0
LINE
  5
545
330
E3
100
AcDbEntity
  8
0
  6
Continuous
100
AcDbLine
 10
117.9085544929255
 20
70.5188460322424
 30
0.0
 11
118.7405659019029
 21
70.8884091525897
 31
0.0
  0
LINE
  5
546
330
E3
100
AcDbEntity
  8
0
  6
Continuous
100
AcDbLine
 10
118.7405659019029
 20
70.8884091525897
 30
0.0
 11
119.5465438938915
 21
71.20741944439882
 31
0.0
  0
LINE
  5
547
330
E3
100
AcDbEntity
  8
0
  6
Continuous
100
AcDbLine
 10
119.5465438938915
 20
71.20741944439882
 30
0.0
 11
120.3203614197177
 21
71.46619101114217
 31
0.0
  0
LINE
  5
548
330
E3
100
AcDbEntity
  8
0
  6
Continuous
100
AcDbLine
 10
120.3203614197177
 20
71.46619101114217
 30
0.0
 11
121.0561269421652
 21
71.65685476281955
 31
0.0
  0
LINE
  5
549
330
E3
100
AcDbEntity
  8
0
  6
Continuous
100
AcDbLine
 10
121.0561269421652
 20
71.65685476281955
 30
0.0
 11
121.7482405102504
 21
71.7736200959106
 31
0.0
  0
LINE
  5
54A
330
E3
100
AcDbEntity
  8
0
  6
Continuous
100
AcDbLine
 10
121.7482405102504
 20
71.7736200959106
 30
0.0
 11
122.3914311420731
 21
71.81294311620144
 31
0.0
  0
LINE
  5
54B
330
E3
100
AcDbEntity
  8
0
  6
Continuous
100
AcDbLine
 10
122.3914311420731
 20
71.81294311620144
 30
0.0
 11
122.9808091608064
 21
71.7736200959106
 31
0.0
  0
LINE
  5
54C
330
E3
100
AcDbEntity
  8
0
  6
Continuous
100
AcDbLine
 10
122.9808091608064
 20
71.7736200959106
 30
0.0
 11
123.5118848861224
 21
71.65685476281955
 31
0.0
  0
LINE
  5
54D
330
E3
100
AcDbEntity
  8
0
  6
Continuous
100
AcDbLine
 10
123.5118848861224
 20
71.65685476281955
 30
0.0
 11
123.9806172318976
 21
71.46619101114217
 31
0.0
  0
LINE
  5
54E
330
E3
100
AcDbEntity
  8
0
  6
Continuous
100
AcDbLine
 10
123.9806172318976
 20
71.46619101114217
 30
0.0
 11
124.3834398742078
 21
71.20741944439882
 31
0.0
  0
LINE
  5
54F
330
E3
100
AcDbEntity
  8
0
  6
Continuous
100
AcDbLine
 10
124.3834398742078
 20
71.20741944439882
 30
0.0
 11
124.7172911576088
 21
70.8884091525897
 31
0.0
  0
LINE
  5
550
330
E3
100
AcDbEntity
  8
0
  6
Continuous
100
AcDbLine
 10
124.7172911576088
 20
70.8884091525897
 30
0.0
 11
124.9796215717061
 21
70.5188460322424
 31
0.0
  0
LINE
  5
551
330
E3
100
AcDbEntity
  8
0
  6
Continuous
100
AcDbLine
 10
124.9796215717061
 20
70.5188460322424
 30
0.0
 11
125.1684423488609
 21
70.10996362988928
 31
0.0
  0
LINE
  5
552
330
E3
100
AcDbEntity
  8
0
  6
Continuous
100
AcDbLine
 10
125.1684423488609
 20
70.10996362988928
 30
0.0
 11
125.2823105110493
 21
69.67418426670407
 31
0.0
  0
LINE
  5
553
330
E3
100
AcDbEntity
  8
0
  6
Continuous
100
AcDbLine
 10
125.2823105110493
 20
69.67418426670407
 30
0.0
 11
125.320362514428
 21
69.22475268656838
 31
0.0
  0
HATCH
  5
554
330
E3
100
AcDbEntity
  8
0
  6
Continuous
 62
   255
370
     0
100
AcDbHatch
 10
0.0
 20
0.0
 30
0.0
210
0.0
220
0.0
230
1.0
  2
SOLID
 70
     1
 71
     0
 91
        1
 92
        3
 72
     0
 73
     1
 93
        8
 10
141.28120078914
 20
125.7658680070877
 10
146.0758362259903
 20
98.57413922238338
 10
152.3073671295462
 20
97.2610622183671
 10
140.5388980331021
 20
95.94798521435081
 10
146.770428936658
 20
94.63490821033453
 10
151.5650643735084
 20
67.44317942563023
 10
158.0123666566892
 20
67.44317942563023
 10
147.7285030723207
 20
125.7658680070877
 97
        0
 75
     0
 76
     1
 98
        0
  0
LINE
  5
555
330
E3
100
AcDbEntity
  8
0
  6
Continuous
100
AcDbLine
 10
141.2812022481525
 20
125.7658689960764
 30
0.0
 11
146.0758369161399
 21
98.57414065064144
 31
0.0
  0
LINE
  5
556
330
E3
100
AcDbEntity
  8
0
  6
Continuous
100
AcDbLine
 10
146.7704289672039
 20
94.63490784110003
 30
0.0
 11
151.5650636351913
 21
67.443179495665
 31
0.0
  0
LINE
  5
557
330
E3
100
AcDbEntity
  8
0
  6
Continuous
100
AcDbLine
 10
146.7704289672039
 20
94.63490784110003
 30
0.0
 11
140.5388984651776
 21
95.94798419818548
 31
0.0
  0
LINE
  5
558
330
E3
100
AcDbEntity
  8
0
  6
Continuous
100
AcDbLine
 10
140.5388984651776
 20
95.94798419818548
 30
0.0
 11
152.3073674181663
 21
97.26106055527094
 31
0.0
  0
LINE
  5
559
330
E3
100
AcDbEntity
  8
0
  6
Continuous
100
AcDbLine
 10
152.3073674181663
 20
97.26106055527094
 30
0.0
 11
146.0758369161399
 21
98.57414065064144
 31
0.0
  0
LINE
  5
55A
330
E3
100
AcDbEntity
  8
0
  6
Continuous
100
AcDbLine
 10
105.3203618738719
 20
150.6818565134498
 30
0.0
 11
105.3203618738719
 21
69.22475268656838
 31
0.0
  0
LINE
  5
55B
330
E3
100
AcDbEntity
  8
0
  6
Continuous
100
AcDbLine
 10
125.320362514428
 20
150.6818565134498
 30
0.0
 11
125.320362514428
 21
69.22475268656838
 31
0.0
  0
MTEXT
  5
55D
330
E3
100
AcDbEntity
  8
Doc_ Floor
  6
Continuous
100
AcDbMText
 10
178.8671380140328
 20
147.8255792909582
 30
0.0
 40
2.5
 41
37.16984108392926
 71
     4
 72
     1
  1
\A1;{\fCentury Gothic|b0|i0|c0|p34;TRS CORRUGATE\PMIN. ROOF PITCH 8\fArial|b0|i0|c0|p34;\H1.029412x;\U+00B0}
  7
GENERATED_STYLE_1
 73
     1
 44
1.056356172275314
  0
LINE
  5
55E
330
E3
100
AcDbEntity
  8
Doc_ Floor
  6
Continuous
100
AcDbLine
 10
164.7285970126691
 20
119.0279018054046
 30
0.0
 11
164.3762972926168
 21
122.8755092487202
 31
0.0
  0
LINE
  5
55F
330
E3
100
AcDbEntity
  8
Doc_ Floor
  6
Continuous
100
AcDbLine
 10
164.7285970126691
 20
119.0279018054046
 30
0.0
 11
166.3473006011357
 21
122.5361776394569
 31
0.0
  0
LINE
  5
560
330
E3
100
AcDbEntity
  8
Doc_ Floor
  6
Continuous
100
AcDbLine
 10
164.3762972926168
 20
122.8755092487202
 30
0.0
 11
166.3473006011357
 21
122.5361776394569
 31
0.0
  0
LWPOLYLINE
  5
561
330
E3
100
AcDbEntity
  8
Doc_ Floor
  6
Continuous
100
AcDbPolyline
 90
       14
 70
   128
 43
0.0
 10
165.3617972137537
 20
122.7058441957207
 10
166.6206378643984
 20
129.1721270371639
 10
167.9022886561189
 20
134.5480281032848
 10
169.2388197968615
 20
138.9038863176507
 10
169.9376874380993
 20
140.7212802690404
 10
170.6623014945727
 20
142.3100406038292
 10
171.4166707422748
 20
143.6789596874629
 10
172.2048039571989
 20
144.8368298853875
 10
173.0307099153385
 20
145.792443563049
 10
173.8983973926867
 20
146.5545930858934
 10
174.811875165237
 20
147.1320708193664
 10
175.7751520089826
 20
147.533669128914
 10
176.7922366999167
 20
147.7681803799823
 10
177.8671380140328
 20
147.844396938017
  0
MTEXT
  5
562
330
E3
100
AcDbEntity
  8
Doc_ Floor
  6
Continuous
100
AcDbMText
 10
133.1378905173744
 20
169.2012217500074
 30
0.0
 40
2.5
 41
0.0
 71
     4
 72
     1
  1
{PIPE PENETRATION}
  7
GENERATED_STYLE_1
 73
     1
 44
1.0
  0
LINE
  5
563
330
E3
100
AcDbEntity
  8
Doc_ Floor
  6
Continuous
100
AcDbLine
 10
118.8661947088137
 20
151.6163866512471
 30
0.0
 11
118.9676031669779
 21
155.4787603204539
 31
0.0
  0
LINE
  5
564
330
E3
100
AcDbEntity
  8
Doc_ Floor
  6
Continuous
100
AcDbLine
 10
118.8661947088137
 20
151.6163866512471
 30
0.0
 11
120.8852013354765
 21
154.9105970692984
 31
0.0
  0
LINE
  5
565
330
E3
100
AcDbEntity
  8
Doc_ Floor
  6
Continuous
100
AcDbLine
 10
118.9676031669779
 20
155.4787603204539
 30
0.0
 11
120.8852013354765
 21
154.9105970692984
 31
0.0
  0
LWPOLYLINE
  5
566
330
E3
100
AcDbEntity
  8
Doc_ Floor
  6
Continuous
100
AcDbPolyline
 90
       12
 70
   128
 43
0.0
 10
119.9264027344981
 20
155.194677314375
 10
121.1656092169787
 20
158.7925550149367
 10
122.4295167331018
 20
161.7872833192084
 10
123.7468075503862
 20
164.2169064506812
 10
125.1461639363502
 20
166.1194686328458
 10
125.8855799261867
 20
166.8849906877785
 10
126.6562681585125
 20
167.5330140891934
 10
127.4618139167675
 20
168.0682943650266
 10
128.3058024843916
 20
168.4955870432147
 10
129.1918191448245
 20
168.819647651694
 10
130.123449181506
 20
169.0452317184008
 10
132.1378905173744
 20
169.2199923382426
  0
MTEXT
  5
567
330
E3
100
AcDbEntity
  8
Doc_ Floor
  6
Continuous
100
AcDbMText
 10
143.5855990277058
 20
159.7638025678286
 30
0.0
 40
2.5
 41
0.0
 71
     4
 72
     1
  1
{EPDM FLEXIBLE CONE SLEEVE}
  7
GENERATED_STYLE_1
 73
     1
 44
1.0
  0
LINE
  5
568
330
E3
100
AcDbEntity
  8
Doc_ Floor
  6
Continuous
100
AcDbLine
 10
130.7262703366029
 20
128.8204815113326
 30
0.0
 11
130.1725181742601
 21
132.6442947703958
 31
0.0
  0
LINE
  5
569
330
E3
100
AcDbEntity
  8
Doc_ Floor
  6
Continuous
100
AcDbLine
 10
130.7262703366029
 20
128.8204815113326
 30
0.0
 11
132.1586129394684
 21
132.4088800085557
 31
0.0
  0
LINE
  5
56A
330
E3
100
AcDbEntity
  8
Doc_ Floor
  6
Continuous
100
AcDbLine
 10
130.1725181742601
 20
132.6442947703958
 30
0.0
 11
132.1586129394684
 21
132.4088800085557
 31
0.0
  0
LWPOLYLINE
  5
56B
330
E3
100
AcDbEntity
  8
Doc_ Floor
  6
Continuous
100
AcDbPolyline
 90
       14
 70
   128
 43
0.0
 10
131.1655645708317
 20
132.5265883517005
 10
132.1395850853193
 20
139.539448508558
 10
133.184570272296
 20
145.3690651264688
 10
134.3298211944633
 20
150.0919368240046
 10
134.9492028883376
 20
152.0622491459355
 10
135.6046389145225
 20
153.7845622197369
 10
136.2997919058558
 20
155.2684383727304
 10
137.038324495175
 20
156.5234399322374
 10
137.8238993153179
 20
157.5591292255793
 10
138.6601789991221
 20
158.3850685800776
 10
139.5508261794254
 20
159.0108203230538
 10
140.4995034890653
 20
159.4459467818293
 10
141.5098735608796
 20
159.7000102837255
 10
142.5855990277058
 20
159.7825731560639
  0
ENDBLK
  5
E5
330
E3
100
AcDbEntity
  8
0
100
AcDbBlockEnd
  0
BLOCK
  5
571
330
570
100
AcDbEntity
  8
0
100
AcDbBlockBegin
  2
R-TRSC-15 PIPE PENETRATION DETA_STORY_MARKER
 70
     0
 10
0.0
 20
0.0
 30
0.0
  3
R-TRSC-15 PIPE PENETRATION DETA_STORY_MARKER
  1

  0
ENDBLK
  5
572
330
570
100
AcDbEntity
  8
0
100
AcDbBlockEnd
  0
ENDSEC
  0
SECTION
  2
ENTITIES
  0
HATCH
  5
3F
330
1F
100
AcDbEntity
  8
Doc_ Finishes
  6
Continuous
100
AcDbHatch
 10
0.0
 20
0.0
 30
0.0
210
0.0
220
0.0
230
1.0
  2
SOLID
 70
     1
 71
     0
 91
        1
 92
        3
 72
     0
 73
     1
 93
       54
 10
27.4117749414874
 20
16.87044408857867
 10
26.89356552397386
 20
16.5825499677378
 10
26.5480925789648
 20
16.29465584689693
 10
26.12584786839819
 20
16.02595466744544
 10
25.76118198199976
 20
15.60370995687884
 10
25.39651609560134
 20
15.33500877742737
 10
25.07023609198168
 20
14.89357112547136
 10
24.49444785029994
 20
14.45213347351537
 10
23.93785255000758
 20
14.02988876294876
 10
23.43883607388344
 20
13.81876640766546
 10
22.74789018386533
 20
13.39652169709885
 10
22.09533017662603
 20
12.99346992792163
 10
21.63469958328064
 20
12.55203227596564
 10
20.90536781048376
 20
12.12978756539902
 10
20.59828074825351
 20
11.7459287376112
 10
20.04168544796116
 20
11.28529814426581
 10
19.36993249933246
 20
10.8630534336992
 10
18.73656543348255
 20
10.42161578174319
 10
18.04561954346447
 20
10.15291460229172
 10
17.1051654153843
 20
9.692284008946325
 10
16.39502658397681
 20
9.020531060317637
 10
15.83843128368446
 20
8.598286349751023
 10
15.12829245227699
 20
8.137655756405634
 10
14.84039833143612
 20
7.98411222529051
 10
14.37976773809073
 20
7.81137575278599
 10
14.07268067586046
 20
7.523481631945121
 10
14.0151018516923
 20
7.216394569714853
 10
14.14945244141803
 20
6.890114566095209
 10
14.4373465622589
 20
6.563834562475543
 10
14.8787842142149
 20
6.659799269422514
 10
15.51215128006482
 20
7.06285103859973
 10
16.01116775618899
 20
7.389131042219374
 10
16.33744775980864
 20
7.696218104449641
 10
16.51018423231316
 20
7.907340459732938
 10
17.01303929671522
 20
8.421711288968723
 10
17.33548071205699
 20
8.652026585641417
 10
17.75004824606785
 20
8.99749953065046
 10
18.14158425041142
 20
9.204783297655894
 10
19.24709767444037
 20
9.75754000967037
 10
20.23745345013295
 20
10.47151742935572
 10
21.4120614631637
 20
11.1624633193738
 10
21.84966052684182
 20
11.64612544238645
 10
22.49454335752537
 20
12.06069297639732
 10
23.78430901889248
 20
12.9819541630881
 10
24.3600972605742
 20
13.25833251909534
 10
25.6498629219413
 20
14.24868829478776
 10
25.85714668894673
 20
14.64022429913134
 10
26.68628175696843
 20
15.23904407048036
 10
27.28510152831745
 20
15.72270619349301
 10
27.81482671066464
 20
16.1142421978366
 10
28.27545730401003
 20
16.52880973184745
 10
28.22939424467549
 20
16.7821565581874
 10
28.09120506667188
 20
16.89731420652375
 10
27.56147988432467
 20
16.89731420652375
 97
        0
 75
     0
 76
     1
 98
        0
  0
LINE
  5
41
330
1F
100
AcDbEntity
  8
Doc_ Finishes
  6
Continuous
100
AcDbLine
 10
27.41177566876475
 20
16.87044600708104
 30
0.0
 11
26.89356756490952
 21
16.58254868214004
 31
0.0
  0
LINE
  5
42
330
1F
100
AcDbEntity
  8
Doc_ Finishes
  6
Continuous
100
AcDbLine
 10
26.89356756490952
 20
16.58254868214004
 30
0.0
 11
26.54809254523997
 21
16.29465578284815
 31
0.0
  0
LINE
  5
43
330
1F
100
AcDbEntity
  8
Doc_ Finishes
  6
Continuous
100
AcDbLine
 10
26.54809254523997
 20
16.29465578284815
 30
0.0
 11
26.12584579071597
 21
16.02595249803305
 31
0.0
  0
LINE
  5
44
330
1F
100
AcDbEntity
  8
Doc_ Finishes
  6
Continuous
100
AcDbLine
 10
26.12584579071597
 20
16.02595249803305
 30
0.0
 11
25.76118115656963
 21
15.60371016915814
 31
0.0
  0
LINE
  5
45
330
1F
100
AcDbEntity
  8
Doc_ Finishes
  6
Continuous
100
AcDbLine
 10
25.76118115656963
 20
15.60371016915814
 30
0.0
 11
25.39651652242329
 21
15.33500688434304
 31
0.0
  0
LINE
  5
46
330
1F
100
AcDbEntity
  8
Doc_ Finishes
  6
Continuous
100
AcDbLine
 10
25.39651652242329
 20
15.33500688434304
 30
0.0
 11
25.07023554287962
 21
14.89357051534225
 31
0.0
  0
LINE
  5
47
330
1F
100
AcDbEntity
  8
Doc_ Finishes
  6
Continuous
100
AcDbLine
 10
25.07023554287962
 20
14.89357051534225
 30
0.0
 11
24.49444974429583
 21
14.45213414634146
 31
0.0
  0
LINE
  5
48
330
1F
100
AcDbEntity
  8
Doc_ Finishes
  6
Continuous
100
AcDbLine
 10
24.49444974429583
 20
14.45213414634146
 30
0.0
 11
23.93785356018882
 21
14.02988739181747
 31
0.0
  0
LINE
  5
49
330
1F
100
AcDbEntity
  8
Doc_ Finishes
  6
Continuous
100
AcDbLine
 10
23.93785356018882
 20
14.02988739181747
 30
0.0
 11
23.43883507081038
 21
13.81876622738001
 31
0.0
  0
LINE
  5
4A
330
1F
100
AcDbEntity
  8
Doc_ Finishes
  6
Continuous
100
AcDbLine
 10
23.43883507081038
 20
13.81876622738001
 30
0.0
 11
22.74788945712038
 21
13.39652389850511
 31
0.0
  0
LINE
  5
4B
330
1F
100
AcDbEntity
  8
Doc_ Finishes
  6
Continuous
100
AcDbLine
 10
22.74788945712038
 20
13.39652389850511
 30
0.0
 11
22.09533192368214
 21
12.993471184107
 31
0.0
  0
LINE
  5
4C
330
1F
100
AcDbEntity
  8
Doc_ Finishes
  6
Continuous
100
AcDbLine
 10
22.09533192368214
 20
12.993471184107
 30
0.0
 11
21.63470151455547
 21
12.55203038945712
 31
0.0
  0
LINE
  5
4D
330
1F
100
AcDbEntity
  8
Doc_ Finishes
  6
Continuous
100
AcDbLine
 10
21.63470151455547
 20
12.55203038945712
 30
0.0
 11
20.90536782061369
 21
12.12978806058222
 31
0.0
  0
LINE
  5
4E
330
1F
100
AcDbEntity
  8
Doc_ Finishes
  6
Continuous
100
AcDbLine
 10
20.90536782061369
 20
12.12978806058222
 30
0.0
 11
20.59828088119591
 21
11.74592938630999
 31
0.0
  0
LINE
  5
4F
330
1F
100
AcDbEntity
  8
Doc_ Finishes
  6
Continuous
100
AcDbLine
 10
20.59828088119591
 20
11.74592938630999
 30
0.0
 11
20.0416846970889
 21
11.28529897718332
 31
0.0
  0
LINE
  5
50
330
1F
100
AcDbEntity
  8
Doc_ Finishes
  6
Continuous
100
AcDbLine
 10
20.0416846970889
 20
11.28529897718332
 30
0.0
 11
19.36993312352478
 21
10.86305222265932
 31
0.0
  0
LINE
  5
51
330
1F
100
AcDbEntity
  8
Doc_ Finishes
  6
Continuous
100
AcDbLine
 10
19.36993312352478
 20
10.86305222265932
 30
0.0
 11
18.73656520456333
 21
10.42161585365854
 31
0.0
  0
LINE
  5
52
330
1F
100
AcDbEntity
  8
Doc_ Finishes
  6
Continuous
100
AcDbLine
 10
18.73656520456333
 20
10.42161585365854
 30
0.0
 11
18.04561959087333
 21
10.15291256884343
 31
0.0
  0
LINE
  5
53
330
1F
100
AcDbEntity
  8
Doc_ Finishes
  6
Continuous
100
AcDbLine
 10
18.04561959087333
 20
10.15291256884343
 30
0.0
 11
17.1051647324941
 21
9.692282159716758
 31
0.0
  0
LINE
  5
54
330
1F
100
AcDbEntity
  8
Doc_ Finishes
  6
Continuous
100
AcDbLine
 10
17.1051647324941
 20
9.692282159716758
 30
0.0
 11
16.3950250786782
 21
9.020530586152635
 31
0.0
  0
LINE
  5
55
330
1F
100
AcDbEntity
  8
Doc_ Finishes
  6
Continuous
100
AcDbLine
 10
16.3950250786782
 20
9.020530586152635
 30
0.0
 11
15.8384333202203
 21
8.598288257277733
 31
0.0
  0
LINE
  5
56
330
1F
100
AcDbEntity
  8
Doc_ Finishes
  6
Continuous
100
AcDbLine
 10
15.8384333202203
 20
8.598288257277733
 30
0.0
 11
15.1282936664044
 21
8.137657848151063
 31
0.0
  0
LINE
  5
57
330
1F
100
AcDbEntity
  8
Doc_ Finishes
  6
Continuous
100
AcDbLine
 10
15.1282936664044
 20
8.137657848151063
 30
0.0
 11
14.84039634146341
 21
7.984114378442171
 31
0.0
  0
LINE
  5
58
330
1F
100
AcDbEntity
  8
Doc_ Finishes
  6
Continuous
100
AcDbLine
 10
14.84039634146341
 20
7.984114378442171
 30
0.0
 11
14.37976593233674
 21
7.811376868607396
 31
0.0
  0
LINE
  5
59
330
1F
100
AcDbEntity
  8
Doc_ Finishes
  6
Continuous
100
AcDbLine
 10
14.37976593233674
 20
7.811376868607396
 30
0.0
 11
14.07267899291896
 21
7.523479543666405
 31
0.0
  0
LINE
  5
5A
330
1F
100
AcDbEntity
  8
Doc_ Finishes
  6
Continuous
100
AcDbLine
 10
14.07267899291896
 20
7.523479543666405
 30
0.0
 11
14.0151012981904
 21
7.216392604248622
 31
0.0
  0
LINE
  5
5B
330
1F
100
AcDbEntity
  8
Doc_ Finishes
  6
Continuous
100
AcDbLine
 10
14.0151012981904
 20
7.216392604248622
 30
0.0
 11
14.14945072777341
 21
6.890116050354051
 31
0.0
  0
LINE
  5
5C
330
1F
100
AcDbEntity
  8
Doc_ Finishes
  6
Continuous
100
AcDbLine
 10
14.14945072777341
 20
6.890116050354051
 30
0.0
 11
14.4373480527144
 21
6.563835070810386
 31
0.0
  0
LINE
  5
5D
330
1F
100
AcDbEntity
  8
Doc_ Finishes
  6
Continuous
100
AcDbLine
 10
14.4373480527144
 20
6.563835070810386
 30
0.0
 11
14.87878442171519
 21
6.659800845790715
 31
0.0
  0
LINE
  5
5E
330
1F
100
AcDbEntity
  8
Doc_ Finishes
  6
Continuous
100
AcDbLine
 10
14.87878442171519
 20
6.659800845790715
 30
0.0
 11
15.51215234067663
 21
7.062849134539732
 31
0.0
  0
LINE
  5
5F
330
1F
100
AcDbEntity
  8
Doc_ Finishes
  6
Continuous
100
AcDbLine
 10
15.51215234067663
 20
7.062849134539732
 30
0.0
 11
16.01116640440598
 21
7.389130114083398
 31
0.0
  0
LINE
  5
60
330
1F
100
AcDbEntity
  8
Doc_ Finishes
  6
Continuous
100
AcDbLine
 10
16.01116640440598
 20
7.389130114083398
 30
0.0
 11
16.33744738394964
 21
7.69621705350118
 31
0.0
  0
LINE
  5
61
330
1F
100
AcDbEntity
  8
Doc_ Finishes
  6
Continuous
100
AcDbLine
 10
16.33744738394964
 20
7.69621705350118
 30
0.0
 11
16.51018489378442
 21
7.907342643587726
 31
0.0
  0
LINE
  5
62
330
1F
100
AcDbEntity
  8
Doc_ Finishes
  6
Continuous
100
AcDbLine
 10
16.51018489378442
 20
7.907342643587726
 30
0.0
 11
17.0130404209284
 21
8.421709284028323
 31
0.0
  0
LINE
  5
63
330
1F
100
AcDbEntity
  8
Doc_ Finishes
  6
Continuous
100
AcDbLine
 10
17.0130404209284
 20
8.421709284028323
 30
0.0
 11
17.33547993705743
 21
8.65202448859166
 31
0.0
  0
LINE
  5
64
330
1F
100
AcDbEntity
  8
Doc_ Finishes
  6
Continuous
100
AcDbLine
 10
17.33547993705743
 20
8.65202448859166
 30
0.0
 11
17.75004819040126
 21
8.997499508261212
 31
0.0
  0
LINE
  5
65
330
1F
100
AcDbEntity
  8
Doc_ Finishes
  6
Continuous
100
AcDbLine
 10
17.75004819040126
 20
8.997499508261212
 30
0.0
 11
18.14158536585366
 21
9.204783634933122
 31
0.0
  0
LINE
  5
66
330
1F
100
AcDbEntity
  8
Doc_ Finishes
  6
Continuous
100
AcDbLine
 10
18.14158536585366
 20
9.204783634933122
 30
0.0
 11
19.24709923288749
 21
9.75753835562549
 31
0.0
  0
LINE
  5
67
330
1F
100
AcDbEntity
  8
Doc_ Finishes
  6
Continuous
100
AcDbLine
 10
19.24709923288749
 20
9.75753835562549
 30
0.0
 11
20.23745328481511
 21
10.47151947285602
 31
0.0
  0
LINE
  5
68
330
1F
100
AcDbEntity
  8
Doc_ Finishes
  6
Continuous
100
AcDbLine
 10
20.23745328481511
 20
10.47151947285602
 30
0.0
 11
21.41206038552321
 21
11.16246508654602
 31
0.0
  0
LINE
  5
69
330
1F
100
AcDbEntity
  8
Doc_ Finishes
  6
Continuous
100
AcDbLine
 10
21.41206038552321
 20
11.16246508654602
 30
0.0
 11
21.84965971675846
 21
11.64612657356412
 31
0.0
  0
LINE
  5
6A
330
1F
100
AcDbEntity
  8
Doc_ Finishes
  6
Continuous
100
AcDbLine
 10
21.84965971675846
 20
11.64612657356412
 30
0.0
 11
22.49454317466562
 21
12.06069482690795
 31
0.0
  0
LINE
  5
6B
330
1F
100
AcDbEntity
  8
Doc_ Finishes
  6
Continuous
100
AcDbLine
 10
22.49454317466562
 20
12.06069482690795
 30
0.0
 11
23.78431009047993
 21
12.98195564516129
 31
0.0
  0
LINE
  5
6C
330
1F
100
AcDbEntity
  8
Doc_ Finishes
  6
Continuous
100
AcDbLine
 10
23.78431009047993
 20
12.98195564516129
 30
0.0
 11
24.36009588906373
 21
13.25833300550747
 31
0.0
  0
LINE
  5
6D
330
1F
100
AcDbEntity
  8
Doc_ Finishes
  6
Continuous
100
AcDbLine
 10
24.36009588906373
 20
13.25833300550747
 30
0.0
 11
25.64986280487805
 21
14.24868705743509
 31
0.0
  0
LINE
  5
6E
330
1F
100
AcDbEntity
  8
Doc_ Finishes
  6
Continuous
100
AcDbLine
 10
25.64986280487805
 20
14.24868705743509
 30
0.0
 11
25.85714693154996
 21
14.64022423288749
 31
0.0
  0
LINE
  5
6F
330
1F
100
AcDbEntity
  8
Doc_ Finishes
  6
Continuous
100
AcDbLine
 10
25.85714693154996
 20
14.64022423288749
 30
0.0
 11
26.68628343823761
 21
15.2390455350118
 31
0.0
  0
LINE
  5
70
330
1F
100
AcDbEntity
  8
Doc_ Finishes
  6
Continuous
100
AcDbLine
 10
26.68628343823761
 20
15.2390455350118
 30
0.0
 11
27.28510031471282
 21
15.7227070220299
 31
0.0
  0
LINE
  5
71
330
1F
100
AcDbEntity
  8
Doc_ Finishes
  6
Continuous
100
AcDbLine
 10
27.28510031471282
 20
15.7227070220299
 30
0.0
 11
27.81482838316287
 21
16.1142441974823
 31
0.0
  0
LINE
  5
72
330
1F
100
AcDbEntity
  8
Doc_ Finishes
  6
Continuous
100
AcDbLine
 10
27.81482838316287
 20
16.1142441974823
 30
0.0
 11
28.27545879228953
 21
16.52880802517702
 31
0.0
  0
LINE
  5
73
330
1F
100
AcDbEntity
  8
Doc_ Finishes
  6
Continuous
100
AcDbLine
 10
28.27545879228953
 20
16.52880802517702
 30
0.0
 11
28.22939221085759
 21
16.78215873328088
 31
0.0
  0
LINE
  5
74
330
1F
100
AcDbEntity
  8
Doc_ Finishes
  6
Continuous
100
AcDbLine
 10
28.22939221085759
 20
16.78215873328088
 30
0.0
 11
28.09120574350905
 21
16.897314122738
 31
0.0
  0
LINE
  5
75
330
1F
100
AcDbEntity
  8
Doc_ Finishes
  6
Continuous
100
AcDbLine
 10
28.09120574350905
 20
16.897314122738
 30
0.0
 11
27.56147767505901
 21
16.897314122738
 31
0.0
  0
LINE
  5
76
330
1F
100
AcDbEntity
  8
Doc_ Finishes
  6
Continuous
100
AcDbLine
 10
27.56147767505901
 20
16.897314122738
 30
0.0
 11
27.41177566876475
 21
16.87044600708104
 31
0.0
  0
HATCH
  5
77
330
1F
100
AcDbEntity
  8
Doc_ Finishes
  6
Continuous
100
AcDbHatch
 10
0.0
 20
0.0
 30
0.0
210
0.0
220
0.0
230
1.0
  2
SOLID
 70
     1
 71
     0
 91
        1
 92
        3
 72
     0
 73
     1
 93
       39
 10
27.65360600299377
 20
13.12014334109181
 10
27.21600693931564
 20
12.77467039608275
 10
26.54809257896482
 20
12.24494521373555
 10
25.92624127794851
 20
11.85340920939199
 10
25.32742150659951
 20
11.32368402704478
 10
24.72860173525052
 20
11.04730567103754
 10
24.08371890456698
 20
10.56364354802488
 10
23.62308831122158
 20
10.33332825135219
 10
23.231552306878
 20
10.03391836567767
 10
22.81698477286715
 20
9.619350831666825
 10
22.40241723885631
 20
9.38903553499415
 10
21.91875511584363
 20
9.043562589985086
 10
21.66540828950367
 20
8.859310352646935
 10
21.25084075549282
 20
8.582931996639696
 10
20.09926427212933
 20
7.753796928618002
 10
19.75379132712029
 20
7.477418572610764
 10
19.2931607337749
 20
7.316197864939873
 10
19.22406614477309
 20
6.993756449598113
 10
19.3622553227767
 20
6.717378093590874
 10
19.63863367878394
 20
6.602220445254527
 10
20.00713815346026
 20
6.8325357419272
 10
20.26048497980021
 20
7.131945627601722
 10
20.55989486547472
 20
7.362260924274415
 10
21.31993534449462
 20
7.707733869283458
 10
21.84966052684182
 20
8.122301403294307
 10
22.88607936186895
 20
8.882341882314256
 10
23.20852077721072
 20
9.342972475659646
 10
24.01462431556515
 20
9.734508480003234
 10
24.5673810275796
 20
10.05694989534501
 10
25.46561068460312
 20
10.60970660735953
 10
25.88017821861399
 20
11.07033720070492
 10
26.31777728229212
 20
11.34671555671216
 10
26.70931328663569
 20
11.30065249737762
 10
27.21600693931562
 20
11.55399932371759
 10
28.0681735370046
 20
12.17585062473387
 10
28.41364648201364
 20
12.49829204007566
 10
28.39061495234636
 20
12.77467039608289
 10
28.22939424467547
 20
13.00498569275559
 10
28.04514200733732
 20
13.05104875209013
 97
        0
 75
     0
 76
     1
 98
        0
  0
LINE
  5
78
330
1F
100
AcDbEntity
  8
Doc_ Finishes
  6
Continuous
100
AcDbLine
 10
27.6536064122738
 20
13.12014211250983
 30
0.0
 11
27.21600708103855
 21
12.77467151848938
 31
0.0
  0
LINE
  5
79
330
1F
100
AcDbEntity
  8
Doc_ Finishes
  6
Continuous
100
AcDbLine
 10
27.21600708103855
 20
12.77467151848938
 30
0.0
 11
26.54809254523997
 21
12.24494345003934
 31
0.0
  0
LINE
  5
7A
330
1F
100
AcDbEntity
  8
Doc_ Finishes
  6
Continuous
100
AcDbLine
 10
26.54809254523997
 20
12.24494345003934
 30
0.0
 11
25.92624016522423
 21
11.85341070023603
 31
0.0
  0
LINE
  5
7B
330
1F
100
AcDbEntity
  8
Doc_ Finishes
  6
Continuous
100
AcDbLine
 10
25.92624016522423
 20
11.85341070023603
 30
0.0
 11
25.32742328874902
 21
11.32368263178599
 31
0.0
  0
LINE
  5
7C
330
1F
100
AcDbEntity
  8
Doc_ Finishes
  6
Continuous
100
AcDbLine
 10
25.32742328874902
 20
11.32368263178599
 30
0.0
 11
24.72860198662471
 21
11.04730527143981
 31
0.0
  0
LINE
  5
7D
330
1F
100
AcDbEntity
  8
Doc_ Finishes
  6
Continuous
100
AcDbLine
 10
24.72860198662471
 20
11.04730527143981
 30
0.0
 11
24.08371852871754
 21
10.56364378442171
 31
0.0
  0
LINE
  5
7E
330
1F
100
AcDbEntity
  8
Doc_ Finishes
  6
Continuous
100
AcDbLine
 10
24.08371852871754
 20
10.56364378442171
 30
0.0
 11
23.62308811959087
 21
10.33332857985838
 31
0.0
  0
LINE
  5
7F
330
1F
100
AcDbEntity
  8
Doc_ Finishes
  6
Continuous
100
AcDbLine
 10
23.62308811959087
 20
10.33332857985838
 30
0.0
 11
23.23155094413847
 21
10.03392014162077
 31
0.0
  0
LINE
  5
80
330
1F
100
AcDbEntity
  8
Doc_ Finishes
  6
Continuous
100
AcDbLine
 10
23.23155094413847
 20
10.03392014162077
 30
0.0
 11
22.81698269079465
 21
9.619351888276947
 31
0.0
  0
LINE
  5
81
330
1F
100
AcDbEntity
  8
Doc_ Finishes
  6
Continuous
100
AcDbLine
 10
22.81698269079465
 20
9.619351888276947
 30
0.0
 11
22.40241886309992
 21
9.389036683713611
 31
0.0
  0
LINE
  5
82
330
1F
100
AcDbEntity
  8
Doc_ Finishes
  6
Continuous
100
AcDbLine
 10
22.40241886309992
 20
9.389036683713611
 30
0.0
 11
21.91875295043273
 21
9.04356166404406
 31
0.0
  0
LINE
  5
83
330
1F
100
AcDbEntity
  8
Doc_ Finishes
  6
Continuous
100
AcDbLine
 10
21.91875295043273
 20
9.04356166404406
 30
0.0
 11
21.66540666797797
 21
8.859308615263572
 31
0.0
  0
LINE
  5
84
330
1F
100
AcDbEntity
  8
Doc_ Finishes
  6
Continuous
100
AcDbLine
 10
21.66540666797797
 20
8.859308615263572
 30
0.0
 11
21.25084284028324
 21
8.582931254917387
 31
0.0
  0
LINE
  5
85
330
1F
100
AcDbEntity
  8
Doc_ Finishes
  6
Continuous
100
AcDbLine
 10
21.25084284028324
 20
8.582931254917387
 30
0.0
 11
20.09926239181747
 21
7.75379474822974
 31
0.0
  0
LINE
  5
86
330
1F
100
AcDbEntity
  8
Doc_ Finishes
  6
Continuous
100
AcDbLine
 10
20.09926239181747
 20
7.75379474822974
 30
0.0
 11
19.75379179779701
 21
7.477417387883556
 31
0.0
  0
LINE
  5
87
330
1F
100
AcDbEntity
  8
Doc_ Finishes
  6
Continuous
100
AcDbLine
 10
19.75379179779701
 20
7.477417387883556
 30
0.0
 11
19.29316138867033
 21
7.316199842643588
 31
0.0
  0
LINE
  5
88
330
1F
100
AcDbEntity
  8
Doc_ Finishes
  6
Continuous
100
AcDbLine
 10
19.29316138867033
 20
7.316199842643588
 30
0.0
 11
19.22406815499606
 21
6.993755900865461
 31
0.0
  0
LINE
  5
89
330
1F
100
AcDbEntity
  8
Doc_ Finishes
  6
Continuous
100
AcDbLine
 10
19.22406815499606
 20
6.993755900865461
 30
0.0
 11
19.36225462234461
 21
6.717378540519276
 31
0.0
  0
LINE
  5
8A
330
1F
100
AcDbEntity
  8
Doc_ Finishes
  6
Continuous
100
AcDbLine
 10
19.36225462234461
 20
6.717378540519276
 30
0.0
 11
19.63863198269079
 21
6.602218725413059
 31
0.0
  0
LINE
  5
8B
330
1F
100
AcDbEntity
  8
Doc_ Finishes
  6
Continuous
100
AcDbLine
 10
19.63863198269079
 20
6.602218725413059
 30
0.0
 11
20.00713808025177
 21
6.832533929976396
 31
0.0
  0
LINE
  5
8C
330
1F
100
AcDbEntity
  8
Doc_ Finishes
  6
Continuous
100
AcDbLine
 10
20.00713808025177
 20
6.832533929976396
 30
0.0
 11
20.26048436270653
 21
7.1319467938631
 31
0.0
  0
LINE
  5
8D
330
1F
100
AcDbEntity
  8
Doc_ Finishes
  6
Continuous
100
AcDbLine
 10
20.26048436270653
 20
7.1319467938631
 30
0.0
 11
20.55989280094414
 21
7.362261998426435
 31
0.0
  0
LINE
  5
8E
330
1F
100
AcDbEntity
  8
Doc_ Finishes
  6
Continuous
100
AcDbLine
 10
20.55989280094414
 20
7.362261998426435
 30
0.0
 11
21.31993607395751
 21
7.707732592446892
 31
0.0
  0
LINE
  5
8F
330
1F
100
AcDbEntity
  8
Doc_ Finishes
  6
Continuous
100
AcDbLine
 10
21.31993607395751
 20
7.707732592446892
 30
0.0
 11
21.84965971675846
 21
8.122300845790717
 31
0.0
  0
LINE
  5
90
330
1F
100
AcDbEntity
  8
Doc_ Finishes
  6
Continuous
100
AcDbLine
 10
21.84965971675846
 20
8.122300845790717
 30
0.0
 11
22.88608035011802
 21
8.882339693154996
 31
0.0
  0
LINE
  5
91
330
1F
100
AcDbEntity
  8
Doc_ Finishes
  6
Continuous
100
AcDbLine
 10
22.88608035011802
 20
8.882339693154996
 30
0.0
 11
23.20851986624705
 21
9.342974527930762
 31
0.0
  0
LINE
  5
92
330
1F
100
AcDbEntity
  8
Doc_ Finishes
  6
Continuous
100
AcDbLine
 10
23.20851986624705
 20
9.342974527930762
 30
0.0
 11
24.01462529504327
 21
9.734507277734066
 31
0.0
  0
LINE
  5
93
330
1F
100
AcDbEntity
  8
Doc_ Finishes
  6
Continuous
100
AcDbLine
 10
24.01462529504327
 20
9.734507277734066
 30
0.0
 11
24.56738001573564
 21
10.05695121951219
 31
0.0
  0
LINE
  5
94
330
1F
100
AcDbEntity
  8
Doc_ Finishes
  6
Continuous
100
AcDbLine
 10
24.56738001573564
 20
10.05695121951219
 30
0.0
 11
25.46560975609756
 21
10.60970594020456
 31
0.0
  0
LINE
  5
95
330
1F
100
AcDbEntity
  8
Doc_ Finishes
  6
Continuous
100
AcDbLine
 10
25.46560975609756
 20
10.60970594020456
 30
0.0
 11
25.88017800944139
 21
11.07033634933124
 31
0.0
  0
LINE
  5
96
330
1F
100
AcDbEntity
  8
Doc_ Finishes
  6
Continuous
100
AcDbLine
 10
25.88017800944139
 20
11.07033634933124
 30
0.0
 11
26.31777734067663
 21
11.34671370967742
 31
0.0
  0
LINE
  5
97
330
1F
100
AcDbEntity
  8
Doc_ Finishes
  6
Continuous
100
AcDbLine
 10
26.31777734067663
 20
11.34671370967742
 30
0.0
 11
26.70931451612903
 21
11.30065155389457
 31
0.0
  0
LINE
  5
98
330
1F
100
AcDbEntity
  8
Doc_ Finishes
  6
Continuous
100
AcDbLine
 10
26.70931451612903
 20
11.30065155389457
 30
0.0
 11
27.21600708103855
 21
11.55399783634933
 31
0.0
  0
LINE
  5
99
330
1F
100
AcDbEntity
  8
Doc_ Finishes
  6
Continuous
100
AcDbLine
 10
27.21600708103855
 20
11.55399783634933
 30
0.0
 11
28.06817466561763
 21
12.17585021636507
 31
0.0
  0
LINE
  5
9A
330
1F
100
AcDbEntity
  8
Doc_ Finishes
  6
Continuous
100
AcDbLine
 10
28.06817466561763
 20
12.17585021636507
 30
0.0
 11
28.41364525963808
 21
12.49829415814319
 31
0.0
  0
LINE
  5
9B
330
1F
100
AcDbEntity
  8
Doc_ Finishes
  6
Continuous
100
AcDbLine
 10
28.41364525963808
 20
12.49829415814319
 30
0.0
 11
28.39061418174666
 21
12.77467151848938
 31
0.0
  0
LINE
  5
9C
330
1F
100
AcDbEntity
  8
Doc_ Finishes
  6
Continuous
100
AcDbLine
 10
28.39061418174666
 20
12.77467151848938
 30
0.0
 11
28.22939221085759
 21
13.00498672305271
 31
0.0
  0
LINE
  5
9D
330
1F
100
AcDbEntity
  8
Doc_ Finishes
  6
Continuous
100
AcDbLine
 10
28.22939221085759
 20
13.00498672305271
 30
0.0
 11
28.04514358772619
 21
13.05104887883556
 31
0.0
  0
LINE
  5
9E
330
1F
100
AcDbEntity
  8
Doc_ Finishes
  6
Continuous
100
AcDbLine
 10
28.04514358772619
 20
13.05104887883556
 30
0.0
 11
27.6536064122738
 21
13.12014211250983
 31
0.0
  0
HATCH
  5
9F
330
1F
100
AcDbEntity
  8
Doc_ Finishes
  6
Continuous
100
AcDbHatch
 10
0.0
 20
0.0
 30
0.0
210
0.0
220
0.0
230
1.0
  2
SOLID
 70
     1
 71
     0
 91
        1
 92
        3
 72
     0
 73
     1
 93
       47
 10
28.06817353700456
 20
15.74573772316067
 10
28.30309513961077
 20
15.62136746295728
 10
28.4412843176144
 20
15.4002647781515
 10
28.93876535842742
 20
15.17916209334572
 10
29.82317609765057
 20
14.40530269652538
 10
30.92868952167951
 20
13.74199464210799
 10
31.59199757609689
 20
13.3827027792986
 10
32.20002995931279
 20
13.07868658769064
 10
33.55428390374828
 20
12.08372450606458
 10
34.07940278016201
 20
11.69679480765445
 10
34.88090001258301
 20
11.08876242443854
 10
35.59948373820179
 20
10.50836787682334
 10
36.5668079842271
 20
9.817421986805197
 10
37.06428902504012
 20
9.458130123995785
 10
37.81051058625966
 20
8.933011247582023
 10
38.61200781868061
 20
8.407892371168286
 10
38.77783483228498
 20
8.186789686362482
 10
39.38586721550092
 20
7.744584316750918
 10
40.18736444792187
 20
6.915449248729224
 10
40.7953968311378
 20
6.44560604351692
 10
41.56925622795804
 20
6.169227687509681
 10
42.23256428237543
 20
6.086314180707507
 10
42.48130480278193
 20
6.30741686551329
 10
42.14965077557326
 20
6.611433057121246
 10
41.48634272115586
 20
6.998362755531397
 10
40.76775899553709
 20
7.357654618340788
 10
40.18736444792187
 20
8.048600508358874
 10
38.99893751709079
 20
8.822459905179112
 10
38.47381864067705
 20
9.319940945992132
 10
38.22507812027052
 20
9.734508480003
 10
37.17484036744301
 20
10.31490302761817
 10
36.73263499783144
 20
10.78474623283046
 10
36.2351539570184
 20
11.17167593124059
 10
35.48893239579888
 20
11.61388130085215
 10
34.85326217698223
 20
12.16663801286669
 10
34.35578113616919
 20
12.58120554687754
 10
33.69247308175183
 20
12.99577308088841
 10
33.22262987653953
 20
13.32742710809708
 10
32.7251488357265
 20
13.5761676285036
 10
31.93747052110588
 20
14.06443605744977
 10
31.43077686842594
 20
14.38687747279155
 10
30.92408321574601
 20
14.70931888813342
 10
30.62467333007151
 20
15.100854892477
 10
29.95675896972068
 20
15.67664313415887
 10
29.47309684670803
 20
15.9530214901661
 10
28.82821401602447
 20
16.36758902417695
 10
28.50577260068269
 20
16.22939984617334
 97
        0
 75
     0
 76
     1
 98
        0
  0
LINE
  5
A0
330
1F
100
AcDbEntity
  8
Doc_ Finishes
  6
Continuous
100
AcDbLine
 10
28.30309697088906
 20
15.62136850904799
 30
0.0
 11
28.06817466561763
 21
15.74573809992132
 31
0.0
  0
LINE
  5
A1
330
1F
100
AcDbEntity
  8
Doc_ Finishes
  6
Continuous
100
AcDbLine
 10
28.44128343823761
 20
15.40026308025177
 30
0.0
 11
28.30309697088906
 21
15.62136850904799
 31
0.0
  0
LINE
  5
A2
330
1F
100
AcDbEntity
  8
Doc_ Finishes
  6
Continuous
100
AcDbLine
 10
28.93876622738001
 20
15.17916207710464
 30
0.0
 11
28.44128343823761
 21
15.40026308025177
 31
0.0
  0
LINE
  5
A3
330
1F
100
AcDbEntity
  8
Doc_ Finishes
  6
Continuous
100
AcDbLine
 10
29.82317466561762
 20
14.40530192761605
 30
0.0
 11
28.93876622738001
 21
15.17916207710464
 31
0.0
  0
LINE
  5
A4
330
1F
100
AcDbEntity
  8
Doc_ Finishes
  6
Continuous
100
AcDbLine
 10
30.92868853265146
 20
13.74199449252557
 30
0.0
 11
29.82317466561762
 21
14.40530192761605
 31
0.0
  0
LINE
  5
A5
330
1F
100
AcDbEntity
  8
Doc_ Finishes
  6
Continuous
100
AcDbLine
 10
31.59199596774193
 20
13.3827025963808
 30
0.0
 11
30.92868853265146
 21
13.74199449252557
 31
0.0
  0
LINE
  5
A6
330
1F
100
AcDbEntity
  8
Doc_ Finishes
  6
Continuous
100
AcDbLine
 10
32.20003147128246
 20
13.07868705743509
 30
0.0
 11
31.59199596774193
 21
13.3827025963808
 31
0.0
  0
LINE
  5
A7
330
1F
100
AcDbEntity
  8
Doc_ Finishes
  6
Continuous
100
AcDbLine
 10
33.55428452006294
 20
12.08372590479937
 30
0.0
 11
32.20003147128246
 21
13.07868705743509
 31
0.0
  0
LINE
  5
A8
330
1F
100
AcDbEntity
  8
Doc_ Finishes
  6
Continuous
100
AcDbLine
 10
34.07940106215578
 20
11.69679583005508
 30
0.0
 11
33.55428452006294
 21
12.08372590479937
 31
0.0
  0
LINE
  5
A9
330
1F
100
AcDbEntity
  8
Doc_ Finishes
  6
Continuous
100
AcDbLine
 10
34.8808993902439
 20
11.08876032651456
 30
0.0
 11
34.07940106215578
 21
11.69679583005508
 31
0.0
  0
LINE
  5
AA
330
1F
100
AcDbEntity
  8
Doc_ Finishes
  6
Continuous
100
AcDbLine
 10
35.59948318253343
 20
10.50836742722266
 30
0.0
 11
34.8808993902439
 21
11.08876032651456
 31
0.0
  0
LINE
  5
AB
330
1F
100
AcDbEntity
  8
Doc_ Finishes
  6
Continuous
100
AcDbLine
 10
36.56680615656963
 20
9.817421813532652
 30
0.0
 11
35.59948318253343
 21
10.50836742722266
 31
0.0
  0
LINE
  5
AC
330
1F
100
AcDbEntity
  8
Doc_ Finishes
  6
Continuous
100
AcDbLine
 10
37.06428894571204
 20
9.458129917387884
 30
0.0
 11
36.56680615656963
 21
9.817421813532652
 31
0.0
  0
LINE
  5
AD
330
1F
100
AcDbEntity
  8
Doc_ Finishes
  6
Continuous
100
AcDbLine
 10
37.8105109166011
 20
8.933013375295044
 30
0.0
 11
37.06428894571204
 21
9.458129917387884
 31
0.0
  0
LINE
  5
AE
330
1F
100
AcDbEntity
  8
Doc_ Finishes
  6
Continuous
100
AcDbLine
 10
38.61200924468922
 20
8.407892407553108
 30
0.0
 11
37.8105109166011
 21
8.933013375295044
 31
0.0
  0
LINE
  5
AF
330
1F
100
AcDbEntity
  8
Doc_ Finishes
  6
Continuous
100
AcDbLine
 10
38.77783389063729
 20
8.18679140440598
 30
0.0
 11
38.61200924468922
 21
8.407892407553108
 31
0.0
  0
LINE
  5
B0
330
1F
100
AcDbEntity
  8
Doc_ Finishes
  6
Continuous
100
AcDbLine
 10
39.3858693941778
 20
7.744584972462627
 30
0.0
 11
38.77783389063729
 21
8.18679140440598
 31
0.0
  0
LINE
  5
B1
330
1F
100
AcDbEntity
  8
Doc_ Finishes
  6
Continuous
100
AcDbLine
 10
40.18736329661684
 20
6.915448465774981
 30
0.0
 11
39.3858693941778
 21
7.744584972462627
 31
0.0
  0
LINE
  5
B2
330
1F
100
AcDbEntity
  8
Doc_ Finishes
  6
Continuous
100
AcDbLine
 10
40.79539880015735
 20
6.4456038552321
 30
0.0
 11
40.18736329661684
 21
6.915448465774981
 31
0.0
  0
LINE
  5
B3
330
1F
100
AcDbEntity
  8
Doc_ Finishes
  6
Continuous
100
AcDbLine
 10
41.56925452399685
 20
6.169226494885916
 30
0.0
 11
40.79539880015735
 21
6.4456038552321
 31
0.0
  0
LINE
  5
B4
330
1F
100
AcDbEntity
  8
Doc_ Finishes
  6
Continuous
100
AcDbLine
 10
42.23256638473643
 20
6.086316384736428
 30
0.0
 11
41.56925452399685
 21
6.169226494885916
 31
0.0
  0
LINE
  5
B5
330
1F
100
AcDbEntity
  8
Doc_ Finishes
  6
Continuous
100
AcDbLine
 10
42.48130556648308
 20
6.307417387883556
 30
0.0
 11
42.23256638473643
 21
6.086316384736428
 31
0.0
  0
LINE
  5
B6
330
1F
100
AcDbEntity
  8
Doc_ Finishes
  6
Continuous
100
AcDbLine
 10
42.14965184893784
 20
6.611432926829268
 30
0.0
 11
42.48130556648308
 21
6.307417387883556
 31
0.0
  0
LINE
  5
B7
330
1F
100
AcDbEntity
  8
Doc_ Finishes
  6
Continuous
100
AcDbLine
 10
41.48634441384736
 20
6.998363001573564
 30
0.0
 11
42.14965184893784
 21
6.611432926829268
 31
0.0
  0
LINE
  5
B8
330
1F
100
AcDbEntity
  8
Doc_ Finishes
  6
Continuous
100
AcDbLine
 10
40.76776062155783
 20
7.357654897718332
 30
0.0
 11
41.48634441384736
 21
6.998363001573564
 31
0.0
  0
LINE
  5
B9
330
1F
100
AcDbEntity
  8
Doc_ Finishes
  6
Continuous
100
AcDbLine
 10
40.18736329661684
 20
8.048600511408338
 30
0.0
 11
40.76776062155783
 21
7.357654897718332
 31
0.0
  0
LINE
  5
BA
330
1F
100
AcDbEntity
  8
Doc_ Finishes
  6
Continuous
100
AcDbLine
 10
38.99893931943352
 20
8.822460660896931
 30
0.0
 11
40.18736329661684
 21
8.048600511408338
 31
0.0
  0
LINE
  5
BB
330
1F
100
AcDbEntity
  8
Doc_ Finishes
  6
Continuous
100
AcDbLine
 10
38.47381835169158
 20
9.319939024390242
 30
0.0
 11
38.99893931943352
 21
8.822460660896931
 31
0.0
  0
LINE
  5
BC
330
1F
100
AcDbEntity
  8
Doc_ Finishes
  6
Continuous
100
AcDbLine
 10
38.22507916994492
 20
9.734507277734066
 30
0.0
 11
38.47381835169158
 21
9.319939024390242
 31
0.0
  0
LINE
  5
BD
330
1F
100
AcDbEntity
  8
Doc_ Finishes
  6
Continuous
100
AcDbLine
 10
37.17484166011014
 20
10.31490460267506
 30
0.0
 11
38.22507916994492
 21
9.734507277734066
 31
0.0
  0
LINE
  5
BE
330
1F
100
AcDbEntity
  8
Doc_ Finishes
  6
Continuous
100
AcDbLine
 10
36.7326352281668
 20
10.78474478756884
 30
0.0
 11
37.17484166011014
 21
10.31490460267506
 31
0.0
  0
LINE
  5
BF
330
1F
100
AcDbEntity
  8
Doc_ Finishes
  6
Continuous
100
AcDbLine
 10
36.23515243902439
 20
11.17167486231314
 30
0.0
 11
36.7326352281668
 21
10.78474478756884
 31
0.0
  0
LINE
  5
C0
330
1F
100
AcDbEntity
  8
Doc_ Finishes
  6
Continuous
100
AcDbLine
 10
35.48893046813532
 20
11.61388129425649
 30
0.0
 11
36.23515243902439
 21
11.17167486231314
 31
0.0
  0
LINE
  5
C1
330
1F
100
AcDbEntity
  8
Doc_ Finishes
  6
Continuous
100
AcDbLine
 10
34.85326121164437
 20
12.16663601494886
 30
0.0
 11
35.48893046813532
 21
11.61388129425649
 31
0.0
  0
LINE
  5
C2
330
1F
100
AcDbEntity
  8
Doc_ Finishes
  6
Continuous
100
AcDbLine
 10
34.35578284815106
 20
12.58120426829268
 30
0.0
 11
34.85326121164437
 21
12.16663601494886
 31
0.0
  0
LINE
  5
C3
330
1F
100
AcDbEntity
  8
Doc_ Finishes
  6
Continuous
100
AcDbLine
 10
33.69247098741149
 20
12.99577252163651
 30
0.0
 11
34.35578284815106
 21
12.58120426829268
 31
0.0
  0
LINE
  5
C4
330
1F
100
AcDbEntity
  8
Doc_ Finishes
  6
Continuous
100
AcDbLine
 10
33.2226308025177
 20
13.32742623918175
 30
0.0
 11
33.69247098741149
 21
12.99577252163651
 31
0.0
  0
LINE
  5
C5
330
1F
100
AcDbEntity
  8
Doc_ Finishes
  6
Continuous
100
AcDbLine
 10
32.7251480133753
 20
13.5761654209284
 30
0.0
 11
33.2226308025177
 21
13.32742623918175
 31
0.0
  0
LINE
  5
C6
330
1F
100
AcDbEntity
  8
Doc_ Finishes
  6
Continuous
100
AcDbLine
 10
31.93747098741148
 20
14.0644340086546
 30
0.0
 11
32.7251480133753
 21
13.5761654209284
 31
0.0
  0
LINE
  5
C7
330
1F
100
AcDbEntity
  8
Doc_ Finishes
  6
Continuous
100
AcDbLine
 10
31.43077842250197
 20
14.38687795043273
 30
0.0
 11
31.93747098741148
 21
14.0644340086546
 31
0.0
  0
LINE
  5
C8
330
1F
100
AcDbEntity
  8
Doc_ Finishes
  6
Continuous
100
AcDbLine
 10
30.92408143194335
 20
14.70931746656176
 30
0.0
 11
31.43077842250197
 21
14.38687795043273
 31
0.0
  0
LINE
  5
C9
330
1F
100
AcDbEntity
  8
Doc_ Finishes
  6
Continuous
100
AcDbLine
 10
30.62467299370574
 20
15.10085464201416
 30
0.0
 11
30.92408143194335
 21
14.70931746656176
 31
0.0
  0
LINE
  5
CA
330
1F
100
AcDbEntity
  8
Doc_ Finishes
  6
Continuous
100
AcDbLine
 10
29.95675845790716
 20
15.67664486624705
 30
0.0
 11
30.62467299370574
 21
15.10085464201416
 31
0.0
  0
LINE
  5
CB
330
1F
100
AcDbEntity
  8
Doc_ Finishes
  6
Continuous
100
AcDbLine
 10
29.47309697088906
 20
15.95302222659323
 30
0.0
 11
29.95675845790716
 21
15.67664486624705
 31
0.0
  0
LINE
  5
CC
330
1F
100
AcDbEntity
  8
Doc_ Finishes
  6
Continuous
100
AcDbLine
 10
28.8282135129819
 20
16.36759047993706
 30
0.0
 11
29.47309697088906
 21
15.95302222659323
 31
0.0
  0
LINE
  5
CD
330
1F
100
AcDbEntity
  8
Doc_ Finishes
  6
Continuous
100
AcDbLine
 10
28.50577399685287
 20
16.22939958693942
 30
0.0
 11
28.8282135129819
 21
16.36759047993706
 31
0.0
  0
LINE
  5
CE
330
1F
100
AcDbEntity
  8
Doc_ Finishes
  6
Continuous
100
AcDbLine
 10
28.06817466561763
 20
15.74573809992132
 30
0.0
 11
28.50577399685287
 21
16.22939958693942
 31
0.0
  0
LINE
  5
CF
330
1F
100
AcDbEntity
  8
Doc_ Finishes
  6
Continuous
 62
   254
370
    18
100
AcDbLine
 10
97.43333792289535
 20
5.093360051140834
 30
0.0
 11
97.43333792289535
 21
20.69901750590086
 31
0.0
  0
LINE
  5
D0
330
1F
100
AcDbEntity
  8
Doc_ Finishes
  6
Continuous
 62
   254
370
    18
100
AcDbLine
 10
7.000000491738787
 20
20.69901750590086
 30
0.0
 11
290.2406840086546
 21
20.69901750590086
 31
0.0
  0
LINE
  5
D1
330
1F
100
AcDbEntity
  8
Doc_ Finishes
  6
Continuous
 62
   254
370
    18
100
AcDbLine
 10
290.2406840086546
 20
20.69901750590086
 30
0.0
 11
290.2406840086546
 21
5.000000983477577
 31
0.0
  0
LINE
  5
D2
330
1F
100
AcDbEntity
  8
Doc_ Finishes
  6
Continuous
 62
   254
370
    18
100
AcDbLine
 10
290.2406840086546
 20
5.000000983477577
 30
0.0
 11
7.000000491738787
 21
5.000000983477577
 31
0.0
  0
LINE
  5
D3
330
1F
100
AcDbEntity
  8
Doc_ Finishes
  6
Continuous
 62
   254
370
    18
100
AcDbLine
 10
7.000000491738787
 20
20.69901750590086
 30
0.0
 11
7.000000491738787
 21
5.000000983477577
 31
0.0
  0
LINE
  5
D4
330
1F
100
AcDbEntity
  8
Doc_ Finishes
  6
Continuous
 62
   254
370
    18
100
AcDbLine
 10
190.2919443351691
 20
5.093360051140834
 30
0.0
 11
190.2919443351691
 21
20.69901750590086
 31
0.0
  0
LINE
  5
D5
330
1F
100
AcDbEntity
  8
Doc_ Finishes
  6
Continuous
 62
   254
370
    18
100
AcDbLine
 10
190.2919443351691
 20
12.8961909913454
 30
0.0
 11
290.2406840086546
 21
12.8961909913454
 31
0.0
  0
MTEXT
  5
D7
330
1F
100
AcDbEntity
  8
0
  6
Continuous
100
AcDbMText
 10
210.3494767103412
 20
15.00230533707754
 30
0.0
 40
2.25
 41
0.0
 71
     7
 72
     1
  1
{R-TRSC-15}
  7
GENERATED_STYLE_1
 73
     1
 44
1.0
  0
MTEXT
  5
D8
330
1F
100
AcDbEntity
  8
0
  6
Continuous
100
AcDbMText
 10
210.3494767103412
 20
11.03300550383743
 30
0.0
 40
3.0
 41
0.0
 71
     1
 72
     1
  1
{PIPE PENETRATION DETAIL - SIDE}
  7
GENERATED_STYLE_1
 73
     1
 44
1.0
  0
MTEXT
  5
DA
330
1F
100
AcDbEntity
  8
Doc_ Floor
  6
Continuous
100
AcDbMText
 10
29.78353726544612
 20
13.33283672870609
 30
0.0
 40
5.603347280334726
 41
0.0
 71
     1
 72
     1
  1
{The Roofing Store}
  7
GENERATED_STYLE_2
 73
     1
 44
1.0
  0
MTEXT
  5
DC
102
{ACAD_XDICTIONARY
360
59E
102
}
330
1F
100
AcDbEntity
  8
0
  6
Continuous
100
AcDbMText
 10
102.7389238446655
 20
6.378784417288157
 30
0.0
 40
1.5
 41
0.0
 71
     7
 72
     1
  1
{P: HEAD OFFICE              09 277 2717\P    ALBANY             09 972 0060\P    KATIKAIT            07 549 5190\P    WELLINGTON              04 974 5792\P    CHRISTCHURCH          03 348 6528}
  7
GENERATED_STYLE_1
 73
     1
 44
1.062946161486498
  0
MTEXT
  5
DD
330
1F
100
AcDbEntity
  8
0
  6
Continuous
100
AcDbMText
 10
149.4184566143587
 20
9.199084231526156
 30
0.0
 40
1.5
 41
0.0
 71
     7
 72
     1
  1
{WEB: www.theroofingstore.co.nz}
  7
GENERATED_STYLE_1
 73
     1
 44
1.0
  0
MTEXT
  5
DE
330
1F
100
AcDbEntity
  8
0
  6
Continuous
100
AcDbMText
 10
149.4184566143587
 20
6.620946023411263
 30
0.0
 40
1.5
 41
0.0
 71
     7
 72
     1
  1
{Copyright \U+00A9 The Roofing Store 2013}
  7
GENERATED_STYLE_1
 73
     1
 44
1.0
  0
MTEXT
  5
DF
330
1F
100
AcDbEntity
  8
0
  6
Continuous
100
AcDbMText
 10
273.9546684065315
 20
15.01597367092287
 30
0.0
 40
2.25
 41
0.0
 71
     7
 72
     1
  1
{1:5}
  7
GENERATED_STYLE_1
 73
     1
 44
1.0
  0
MTEXT
  5
E0
330
1F
100
AcDbEntity
  8
0
  6
Continuous
100
AcDbMText
 10
264.8396605309016
 20
15.51746459162148
 30
0.0
 40
1.5
 41
0.0
 71
     7
 72
     1
  1
{SCALE:}
  7
GENERATED_STYLE_1
 73
     1
 44
1.0
  0
MTEXT
  5
E1
330
1F
100
AcDbEntity
  8
0
  6
Continuous
100
AcDbMText
 10
191.5066235617487
 20
15.48695559872207
 30
0.0
 40
1.5
 41
0.0
 71
     7
 72
     1
  1
{DETAIL NUMBER:}
  7
GENERATED_STYLE_1
 73
     1
 44
1.0
  0
MTEXT
  5
E2
330
1F
100
AcDbEntity
  8
0
  6
Continuous
100
AcDbMText
 10
191.5066235617487
 20
9.005462392315325
 30
0.0
 40
1.5
 41
0.0
 71
     7
 72
     1
  1
{TITLE:}
  7
GENERATED_STYLE_1
 73
     1
 44
1.0
  0
INSERT
  5
56C
102
{ACAD_XDICTIONARY
360
56D
102
}
330
1F
100
AcDbEntity
  8
0
  6
Continuous
100
AcDbBlockReference
  2
Drawing_1_2
 10
203.9331314616245
 20
-67.40556088284451
 30
0.0
  0
ENDSEC
  0
SECTION
  2
OBJECTS
  0
DICTIONARY
  5
C
330
0
100
AcDbDictionary
281
     1
  3
ACAD_GROUP
350
D
  3
ACAD_LAYOUT
350
1A
  3
ACAD_MATERIAL
350
3B
  3
ACAD_MLEADERSTYLE
350
599
  3
ACAD_MLINESTYLE
350
17
  3
ACAD_PLOTSETTINGS
350
19
  3
ACAD_PLOTSTYLENAME
350
E
  3
ACAD_SCALELIST
350
573
  3
ACAD_VISUALSTYLE
350
2A
  3
AcDbVariableDictionary
350
597
  3
WATERMARKS
350
595
  0
DICTIONARY
  5
59E
330
DC
100
AcDbDictionary
280
     1
281
     1
  3
ACAD_MTEXT_RT
360
59F
  0
DICTIONARY
  5
56D
330
56C
100
AcDbDictionary
280
     1
281
     1
  3
ACAD_FILTER
360
56E
  0
DICTIONARY
  5
D
102
{ACAD_REACTORS
330
C
102
}
330
C
100
AcDbDictionary
281
     1
  0
DICTIONARY
  5
1A
102
{ACAD_REACTORS
330
C
102
}
330
C
100
AcDbDictionary
281
     1
  3
Layout1
350
1E
  3
Model
350
22
  0
DICTIONARY
  5
3B
102
{ACAD_REACTORS
330
C
102
}
330
C
100
AcDbDictionary
281
     1
  3
ByBlock
350
3D
  3
ByLayer
350
3C
  3
Global
350
3E
  0
DICTIONARY
  5
599
102
{ACAD_REACTORS
330
C
102
}
330
C
100
AcDbDictionary
281
     1
  0
DICTIONARY
  5
17
102
{ACAD_REACTORS
330
C
102
}
330
C
100
AcDbDictionary
281
     1
  3
Standard
350
18
  0
DICTIONARY
  5
19
102
{ACAD_REACTORS
330
C
102
}
330
C
100
AcDbDictionary
281
     1
  0
ACDBDICTIONARYWDFLT
  5
E
102
{ACAD_REACTORS
330
C
102
}
330
C
100
AcDbDictionary
281
     1
  3
Normal
350
F
100
AcDbDictionaryWithDefault
340
F
  0
DICTIONARY
  5
573
102
{ACAD_REACTORS
330
C
102
}
330
C
100
AcDbDictionary
281
     1
  3
A0
350
574
  3
A1
350
575
  3
A2
350
576
  3
A3
350
577
  3
A4
350
578
  3
A5
350
579
  3
A6
350
57A
  3
A7
350
57B
  3
A8
350
57C
  3
A9
350
57D
  3
B0
350
57E
  3
B1
350
57F
  3
B2
350
580
  3
B3
350
581
  3
B4
350
582
  3
B5
350
583
  3
B6
350
584
  3
B7
350
585
  3
B8
350
586
  3
B9
350
587
  3
C0
350
588
  3
C1
350
589
  3
C2
350
58A
  3
C3
350
58B
  3
C4
350
58C
  3
C5
350
58D
  3
C6
350
58E
  3
C7
350
58F
  3
C8
350
590
  3
C9
350
591
  3
D0
350
592
  3
D1
350
593
  3
D2
350
594
  0
DICTIONARY
  5
2A
102
{ACAD_REACTORS
330
C
102
}
330
C
100
AcDbDictionary
281
     1
  3
2dWireframe
350
2F
  3
3D Hidden
350
31
  3
3dWireframe
350
30
  3
Basic
350
32
  3
Brighten
350
36
  3
ColorChange
350
3A
  3
Conceptual
350
34
  3
Dim
350
35
  3
Facepattern
350
39
  3
Flat
350
2B
  3
FlatWithEdges
350
2C
  3
Gouraud
350
2D
  3
GouraudWithEdges
350
2E
  3
Linepattern
350
38
  3
Realistic
350
33
  3
Thicken
350
37
  0
DICTIONARY
  5
597
102
{ACAD_REACTORS
330
C
102
}
330
C
100
AcDbDictionary
281
     1
  3
CANNOSCALE
350
59B
  3
DIMASSOC
350
59C
  3
HIDETEXT
350
59D
  3
XCLIPFRAME
350
59A
  0
DICTIONARY
  5
595
102
{ACAD_REACTORS
330
C
102
}
330
C
100
AcDbDictionary
281
     1
  3
AC_WATERMARK
350
596
  0
XRECORD
  5
59F
102
{ACAD_REACTORS
330
59E
102
}
330
59E
100
AcDbXrecord
280
     1
 40
956118.0
  1
{P: HEAD OFFICE ^I^I09 277 2717\P    ALBANY ^I^I09 972 0060\P    KATIKAIT^I^I07 549 5190\P    WELLINGTON^I^I04 974 5792\P    CHRISTCHURCH^I^I03 348 6528}
  0
DICTIONARY
  5
56E
102
{ACAD_REACTORS
330
56D
102
}
330
56D
100
AcDbDictionary
280
     1
281
     1
  3
SPATIAL
360
56F
  0
LAYOUT
  5
1E
102
{ACAD_REACTORS
330
1A
102
}
330
1A
100
AcDbPlotSettings
  1

  2
none_device
  4

  6

 40
0.0
 41
0.0
 42
0.0
 43
0.0
 44
0.0
 45
0.0
 46
0.0
 47
0.0
 48
0.0
 49
0.0
140
0.0
141
0.0
142
1.0
143
1.0
 70
   688
 72
     0
 73
     0
 74
     5
  7

 75
    16
147
1.0
148
0.0
149
0.0
100
AcDbLayout
  1
Layout1
 70
     1
 71
     1
 10
0.0
 20
0.0
 11
12.0
 21
9.0
 12
0.0
 22
0.0
 32
0.0
 14
1.000000000000000E+20
 24
1.000000000000000E+20
 34
1.000000000000000E+20
 15
-1.000000000000000E+20
 25
-1.000000000000000E+20
 35
-1.000000000000000E+20
146
0.0
 13
0.0
 23
0.0
 33
0.0
 16
1.0
 26
0.0
 36
0.0
 17
0.0
 27
1.0
 37
0.0
 76
     0
330
1B
  0
LAYOUT
  5
22
102
{ACAD_REACTORS
330
1A
102
}
330
1A
100
AcDbPlotSettings
  1

  2
none_device
  4

  6

 40
0.0
 41
0.0
 42
0.0
 43
0.0
 44
0.0
 45
0.0
 46
0.0
 47
0.0
 48
0.0
 49
0.0
140
0.0
141
0.0
142
1.0
143
1.0
 70
  1712
 72
     0
 73
     0
 74
     0
  7

 75
     0
147
1.0
148
0.0
149
0.0
100
AcDbLayout
  1
Model
 70
     1
 71
     0
 10
0.0
 20
0.0
 11
12.0
 21
9.0
 12
0.0
 22
0.0
 32
0.0
 14
1.000000000000000E+20
 24
1.000000000000000E+20
 34
1.000000000000000E+20
 15
-1.000000000000000E+20
 25
-1.000000000000000E+20
 35
-1.000000000000000E+20
146
0.0
 13
0.0
 23
0.0
 33
0.0
 16
1.0
 26
0.0
 36
0.0
 17
0.0
 27
1.0
 37
0.0
 76
     0
330
1F
331
29
  0
MATERIAL
  5
3D
102
{ACAD_REACTORS
330
3B
102
}
102
{ACAD_XDICTIONARY
360
5C2
102
}
330
3B
100
AcDbMaterial
  1
ByBlock
  0
MATERIAL
  5
3C
102
{ACAD_REACTORS
330
3B
102
}
102
{ACAD_XDICTIONARY
360
5C0
102
}
330
3B
100
AcDbMaterial
  1
ByLayer
  0
MATERIAL
  5
3E
102
{ACAD_REACTORS
330
3B
102
}
102
{ACAD_XDICTIONARY
360
5C4
102
}
330
3B
100
AcDbMaterial
  1
Global
  0
MLINESTYLE
  5
18
102
{ACAD_REACTORS
330
17
102
}
330
17
100
AcDbMlineStyle
  2
Standard
 70
     0
  3

 62
   256
 51
90.0
 52
90.0
 71
     2
 49
0.5
 62
   256
  6
BYLAYER
 49
-0.5
 62
   256
  6
BYLAYER
  0
ACDBPLACEHOLDER
  5
F
102
{ACAD_REACTORS
330
E
102
}
330
E
  0
SCALE
  5
574
102
{ACAD_REACTORS
330
573
102
}
330
573
100
AcDbScale
 70
     0
300
1:1
140
1.0
141
1.0
290
     1
  0
SCALE
  5
575
102
{ACAD_REACTORS
330
573
102
}
330
573
100
AcDbScale
 70
     0
300
1:2
140
1.0
141
2.0
290
     0
  0
SCALE
  5
576
102
{ACAD_REACTORS
330
573
102
}
330
573
100
AcDbScale
 70
     0
300
1:4
140
1.0
141
4.0
290
     0
  0
SCALE
  5
577
102
{ACAD_REACTORS
330
573
102
}
330
573
100
AcDbScale
 70
     0
300
1:5
140
1.0
141
5.0
290
     0
  0
SCALE
  5
578
102
{ACAD_REACTORS
330
573
102
}
330
573
100
AcDbScale
 70
     0
300
1:8
140
1.0
141
8.0
290
     0
  0
SCALE
  5
579
102
{ACAD_REACTORS
330
573
102
}
330
573
100
AcDbScale
 70
     0
300
1:10
140
1.0
141
10.0
290
     0
  0
SCALE
  5
57A
102
{ACAD_REACTORS
330
573
102
}
330
573
100
AcDbScale
 70
     0
300
1:16
140
1.0
141
16.0
290
     0
  0
SCALE
  5
57B
102
{ACAD_REACTORS
330
573
102
}
330
573
100
AcDbScale
 70
     0
300
1:20
140
1.0
141
20.0
290
     0
  0
SCALE
  5
57C
102
{ACAD_REACTORS
330
573
102
}
330
573
100
AcDbScale
 70
     0
300
1:30
140
1.0
141
30.0
290
     0
  0
SCALE
  5
57D
102
{ACAD_REACTORS
330
573
102
}
330
573
100
AcDbScale
 70
     0
300
1:40
140
1.0
141
40.0
290
     0
  0
SCALE
  5
57E
102
{ACAD_REACTORS
330
573
102
}
330
573
100
AcDbScale
 70
     0
300
1:50
140
1.0
141
50.0
290
     0
  0
SCALE
  5
57F
102
{ACAD_REACTORS
330
573
102
}
330
573
100
AcDbScale
 70
     0
300
1:100
140
1.0
141
100.0
290
     0
  0
SCALE
  5
580
102
{ACAD_REACTORS
330
573
102
}
330
573
100
AcDbScale
 70
     0
300
2:1
140
2.0
141
1.0
290
     0
  0
SCALE
  5
581
102
{ACAD_REACTORS
330
573
102
}
330
573
100
AcDbScale
 70
     0
300
4:1
140
4.0
141
1.0
290
     0
  0
SCALE
  5
582
102
{ACAD_REACTORS
330
573
102
}
330
573
100
AcDbScale
 70
     0
300
8:1
140
8.0
141
1.0
290
     0
  0
SCALE
  5
583
102
{ACAD_REACTORS
330
573
102
}
330
573
100
AcDbScale
 70
     0
300
10:1
140
10.0
141
1.0
290
     0
  0
SCALE
  5
584
102
{ACAD_REACTORS
330
573
102
}
330
573
100
AcDbScale
 70
     0
300
100:1
140
100.0
141
1.0
290
     0
  0
SCALE
  5
585
102
{ACAD_REACTORS
330
573
102
}
330
573
100
AcDbScale
 70
     0
300
1/128" = 1'-0"
140
0.0078125
141
12.0
290
     0
  0
SCALE
  5
586
102
{ACAD_REACTORS
330
573
102
}
330
573
100
AcDbScale
 70
     0
300
1/64" = 1'-0"
140
0.015625
141
12.0
290
     0
  0
SCALE
  5
587
102
{ACAD_REACTORS
330
573
102
}
330
573
100
AcDbScale
 70
     0
300
1/32" = 1'-0"
140
0.03125
141
12.0
290
     0
  0
SCALE
  5
588
102
{ACAD_REACTORS
330
573
102
}
330
573
100
AcDbScale
 70
     0
300
1/16" = 1'-0"
140
0.0625
141
12.0
290
     0
  0
SCALE
  5
589
102
{ACAD_REACTORS
330
573
102
}
330
573
100
AcDbScale
 70
     0
300
3/32" = 1'-0"
140
0.09375
141
12.0
290
     0
  0
SCALE
  5
58A
102
{ACAD_REACTORS
330
573
102
}
330
573
100
AcDbScale
 70
     0
300
1/8" = 1'-0"
140
0.125
141
12.0
290
     0
  0
SCALE
  5
58B
102
{ACAD_REACTORS
330
573
102
}
330
573
100
AcDbScale
 70
     0
300
3/16" = 1'-0"
140
0.1875
141
12.0
290
     0
  0
SCALE
  5
58C
102
{ACAD_REACTORS
330
573
102
}
330
573
100
AcDbScale
 70
     0
300
1/4" = 1'-0"
140
0.25
141
12.0
290
     0
  0
SCALE
  5
58D
102
{ACAD_REACTORS
330
573
102
}
330
573
100
AcDbScale
 70
     0
300
3/8" = 1'-0"
140
0.375
141
12.0
290
     0
  0
SCALE
  5
58E
102
{ACAD_REACTORS
330
573
102
}
330
573
100
AcDbScale
 70
     0
300
1/2" = 1'-0"
140
0.5
141
12.0
290
     0
  0
SCALE
  5
58F
102
{ACAD_REACTORS
330
573
102
}
330
573
100
AcDbScale
 70
     0
300
3/4" = 1'-0"
140
0.75
141
12.0
290
     0
  0
SCALE
  5
590
102
{ACAD_REACTORS
330
573
102
}
330
573
100
AcDbScale
 70
     0
300
1" = 1'-0"
140
1.0
141
12.0
290
     0
  0
SCALE
  5
591
102
{ACAD_REACTORS
330
573
102
}
330
573
100
AcDbScale
 70
     0
300
1-1/2" = 1'-0"
140
1.5
141
12.0
290
     0
  0
SCALE
  5
592
102
{ACAD_REACTORS
330
573
102
}
330
573
100
AcDbScale
 70
     0
300
3" = 1'-0"
140
3.0
141
12.0
290
     0
  0
SCALE
  5
593
102
{ACAD_REACTORS
330
573
102
}
330
573
100
AcDbScale
 70
     0
300
6" = 1'-0"
140
6.0
141
12.0
290
     0
  0
SCALE
  5
594
102
{ACAD_REACTORS
330
573
102
}
330
573
100
AcDbScale
 70
     0
300
1'-0" = 1'-0"
140
12.0
141
12.0
290
     0
  0
VISUALSTYLE
  5
2F
102
{ACAD_REACTORS
330
2A
102
}
102
{ACAD_XDICTIONARY
360
5A8
102
}
330
2A
100
AcDbVisualStyle
  2
2dWireframe
 70
     4
 71
     0
 72
     2
 73
     0
 90
        0
 40
-0.6
 41
-30.0
 62
     5
 63
     7
 74
     1
 91
        4
 64
     7
 65
   257
 75
     1
175
     1
 42
1.0
 92
        0
 66
   257
 43
1.0
 76
     1
 77
     6
 78
     2
 67
     7
 79
     5
170
     0
171
     0
290
     0
174
     0
 93
        1
 44
0.0
173
     0
291
     0
 45
0.0
1001
ACAD
1000
AcDbSavedByObjectVersion
1070
     0
  0
VISUALSTYLE
  5
31
102
{ACAD_REACTORS
330
2A
102
}
102
{ACAD_XDICTIONARY
360
5AC
102
}
330
2A
100
AcDbVisualStyle
  2
3D Hidden
 70
     6
 71
     1
 72
     2
 73
     2
 90
        0
 40
-0.6
 41
-30.0
 62
     5
 63
     7
 74
     2
 91
        2
 64
     7
 65
   257
 75
     2
175
     1
 42
40.0
 92
        0
 66
   257
 43
1.0
 76
     1
 77
     6
 78
     2
 67
     7
 79
     3
170
     0
171
     0
290
     0
174
     0
 93
        1
 44
0.0
173
     0
291
     0
 45
0.0
1001
ACAD
1000
AcDbSavedByObjectVersion
1070
     0
  0
VISUALSTYLE
  5
30
102
{ACAD_REACTORS
330
2A
102
}
102
{ACAD_XDICTIONARY
360
5AA
102
}
330
2A
100
AcDbVisualStyle
  2
3dWireframe
 70
     5
 71
     0
 72
     2
 73
     0
 90
        0
 40
-0.6
 41
-30.0
 62
     5
 63
     7
 74
     1
 91
        4
 64
     7
 65
   257
 75
     1
175
     1
 42
1.0
 92
        0
 66
   257
 43
1.0
 76
     1
 77
     6
 78
     2
 67
     7
 79
     5
170
     0
171
     0
290
     0
174
     0
 93
        1
 44
0.0
173
     0
291
     0
 45
0.0
1001
ACAD
1000
AcDbSavedByObjectVersion
1070
     0
  0
VISUALSTYLE
  5
32
102
{ACAD_REACTORS
330
2A
102
}
102
{ACAD_XDICTIONARY
360
5AE
102
}
330
2A
100
AcDbVisualStyle
  2
Basic
 70
     7
 71
     1
 72
     0
 73
     1
 90
        0
 40
-0.6
 41
-30.0
 62
     5
 63
     7
 74
     0
 91
        4
 64
     7
 65
   257
 75
     1
175
     1
 42
1.0
 92
        8
 66
     7
 43
1.0
 76
     1
 77
     6
 78
     2
 67
     7
 79
     5
170
     0
171
     0
290
     0
174
     0
 93
        1
 44
0.0
173
     0
291
     1
 45
0.0
1001
ACAD
1000
AcDbSavedByObjectVersion
1070
     0
  0
VISUALSTYLE
  5
36
102
{ACAD_REACTORS
330
2A
102
}
102
{ACAD_XDICTIONARY
360
5B6
102
}
330
2A
100
AcDbVisualStyle
  2
Brighten
 70
    12
 71
     2
 72
     2
 73
     0
 90
        0
 40
-0.6
 41
-30.0
 62
     5
 63
     7
 74
     1
 91
        4
 64
     7
 65
   257
 75
     1
175
     1
 42
1.0
 92
        8
 66
     7
 43
1.0
 76
     1
 77
     6
 78
     2
 67
     7
 79
     5
170
     0
171
     0
290
     0
174
     0
 93
        1
 44
50.0
173
     0
291
     1
 45
0.0
1001
ACAD
1000
AcDbSavedByObjectVersion
1070
     0
  0
VISUALSTYLE
  5
3A
102
{ACAD_REACTORS
330
2A
102
}
102
{ACAD_XDICTIONARY
360
5BE
102
}
330
2A
100
AcDbVisualStyle
  2
ColorChange
 70
    16
 71
     2
 72
     2
 73
     3
 90
        0
 40
-0.6
 41
-30.0
 62
     5
 63
     8
 74
     1
 91
        4
 64
     7
 65
   257
 75
     1
175
     1
 42
1.0
 92
        8
 66
     8
 43
1.0
 76
     1
 77
     6
 78
     2
 67
     7
 79
     5
170
     0
171
     0
290
     0
174
     0
 93
        1
 44
0.0
173
     0
291
     1
 45
0.0
1001
ACAD
1000
AcDbSavedByObjectVersion
1070
     0
  0
VISUALSTYLE
  5
34
102
{ACAD_REACTORS
330
2A
102
}
102
{ACAD_XDICTIONARY
360
5B2
102
}
330
2A
100
AcDbVisualStyle
  2
Conceptual
 70
     9
 71
     3
 72
     2
 73
     0
 90
        0
 40
-0.6
 41
-30.0
 62
     5
 63
     7
 74
     2
 91
        2
 64
     7
 65
   257
 75
     1
175
     1
 42
40.0
 92
        8
 66
     7
 43
1.0
 76
     1
 77
     6
 78
     2
 67
     7
 79
     3
170
     0
171
     0
290
     0
174
     0
 93
        1
 44
0.0
173
     0
291
     0
 45
0.0
1001
ACAD
1000
AcDbSavedByObjectVersion
1070
     0
  0
VISUALSTYLE
  5
35
102
{ACAD_REACTORS
330
2A
102
}
102
{ACAD_XDICTIONARY
360
5B4
102
}
330
2A
100
AcDbVisualStyle
  2
Dim
 70
    11
 71
     2
 72
     2
 73
     0
 90
        0
 40
-0.6
 41
-30.0
 62
     5
 63
     7
 74
     1
 91
        4
 64
     7
 65
   257
 75
     1
175
     1
 42
1.0
 92
        8
 66
     7
 43
1.0
 76
     1
 77
     6
 78
     2
 67
     7
 79
     5
170
     0
171
     0
290
     0
174
     0
 93
        1
 44
-50.0
173
     0
291
     1
 45
0.0
1001
ACAD
1000
AcDbSavedByObjectVersion
1070
     0
  0
VISUALSTYLE
  5
39
102
{ACAD_REACTORS
330
2A
102
}
102
{ACAD_XDICTIONARY
360
5BC
102
}
330
2A
100
AcDbVisualStyle
  2
Facepattern
 70
    15
 71
     2
 72
     2
 73
     0
 90
        0
 40
-0.6
 41
-30.0
 62
     5
 63
     7
 74
     1
 91
        4
 64
     7
 65
   257
 75
     1
175
     1
 42
1.0
 92
        8
 66
     7
 43
1.0
 76
     1
 77
     6
 78
     2
 67
     7
 79
     5
170
     0
171
     0
290
     0
174
     0
 93
        1
 44
0.0
173
     0
291
     1
 45
0.0
1001
ACAD
1000
AcDbSavedByObjectVersion
1070
     0
  0
VISUALSTYLE
  5
2B
102
{ACAD_REACTORS
330
2A
102
}
102
{ACAD_XDICTIONARY
360
5A0
102
}
330
2A
100
AcDbVisualStyle
  2
Flat
 70
     0
 71
     2
 72
     1
 73
     1
 90
        2
 40
-0.6
 41
30.0
 62
     5
 63
     7
 74
     0
 91
        4
 64
     7
 65
   257
 75
     1
175
     1
 42
1.0
 92
        8
 66
     7
 43
1.0
 76
     1
 77
     6
 78
     2
 67
     7
 79
     5
170
     0
171
     0
290
     0
174
     0
 93
       13
 44
0.0
173
     0
291
     1
 45
0.0
1001
ACAD
1000
AcDbSavedByObjectVersion
1070
     0
  0
VISUALSTYLE
  5
2C
102
{ACAD_REACTORS
330
2A
102
}
102
{ACAD_XDICTIONARY
360
5A2
102
}
330
2A
100
AcDbVisualStyle
  2
FlatWithEdges
 70
     1
 71
     2
 72
     1
 73
     1
 90
        2
 40
-0.6
 41
30.0
 62
     5
 63
     7
 74
     1
 91
        4
 64
     7
 65
   257
 75
     1
175
     1
 42
1.0
 92
        0
 66
   257
 43
1.0
 76
     1
 77
     6
 78
     2
 67
     7
 79
     5
170
     0
171
     0
290
     0
174
     0
 93
       13
 44
0.0
173
     0
291
     1
 45
0.0
1001
ACAD
1000
AcDbSavedByObjectVersion
1070
     0
  0
VISUALSTYLE
  5
2D
102
{ACAD_REACTORS
330
2A
102
}
102
{ACAD_XDICTIONARY
360
5A4
102
}
330
2A
100
AcDbVisualStyle
  2
Gouraud
 70
     2
 71
     2
 72
     2
 73
     1
 90
        2
 40
-0.6
 41
30.0
 62
     5
 63
     7
 74
     0
 91
        4
 64
     7
 65
   257
 75
     1
175
     1
 42
1.0
 92
        0
 66
     7
 43
1.0
 76
     1
 77
     6
 78
     2
 67
     7
 79
     5
170
     0
171
     0
290
     0
174
     0
 93
       13
 44
0.0
173
     0
291
     1
 45
0.0
1001
ACAD
1000
AcDbSavedByObjectVersion
1070
     0
  0
VISUALSTYLE
  5
2E
102
{ACAD_REACTORS
330
2A
102
}
102
{ACAD_XDICTIONARY
360
5A6
102
}
330
2A
100
AcDbVisualStyle
  2
GouraudWithEdges
 70
     3
 71
     2
 72
     2
 73
     1
 90
        2
 40
-0.6
 41
30.0
 62
     5
 63
     7
 74
     1
 91
        4
 64
     7
 65
   257
 75
     1
175
     1
 42
1.0
 92
        0
 66
   257
 43
1.0
 76
     1
 77
     6
 78
     2
 67
     7
 79
     5
170
     0
171
     0
290
     0
174
     0
 93
       13
 44
0.0
173
     0
291
     1
 45
0.0
1001
ACAD
1000
AcDbSavedByObjectVersion
1070
     0
  0
VISUALSTYLE
  5
38
102
{ACAD_REACTORS
330
2A
102
}
102
{ACAD_XDICTIONARY
360
5BA
102
}
330
2A
100
AcDbVisualStyle
  2
Linepattern
 70
    14
 71
     2
 72
     2
 73
     0
 90
        0
 40
-0.6
 41
-30.0
 62
     5
 63
     7
 74
     1
 91
        4
 64
     7
 65
   257
 75
     7
175
     7
 42
1.0
 92
        8
 66
     7
 43
1.0
 76
     1
 77
     6
 78
     2
 67
     7
 79
     5
170
     0
171
     0
290
     0
174
     0
 93
        1
 44
0.0
173
     0
291
     1
 45
0.0
1001
ACAD
1000
AcDbSavedByObjectVersion
1070
     0
  0
VISUALSTYLE
  5
33
102
{ACAD_REACTORS
330
2A
102
}
102
{ACAD_XDICTIONARY
360
5B0
102
}
330
2A
100
AcDbVisualStyle
  2
Realistic
 70
     8
 71
     2
 72
     2
 73
     0
 90
        0
 40
-0.6
 41
-30.0
 62
     5
 63
     7
 74
     1
 91
        0
 64
     7
 65
   257
 75
     1
175
     1
 42
1.0
 92
        8
 66
     8
 43
1.0
 76
     1
 77
     6
 78
     2
 67
     7
 79
     5
170
     0
171
     0
290
     0
174
     0
 93
       13
 44
0.0
173
     0
291
     0
 45
0.0
1001
ACAD
1000
AcDbSavedByObjectVersion
1070
     0
  0
VISUALSTYLE
  5
37
102
{ACAD_REACTORS
330
2A
102
}
102
{ACAD_XDICTIONARY
360
5B8
102
}
330
2A
100
AcDbVisualStyle
  2
Thicken
 70
    13
 71
     2
 72
     2
 73
     0
 90
        0
 40
-0.6
 41
-30.0
 62
     5
 63
     7
 74
     1
 91
        4
 64
     7
 65
   257
 75
     1
175
     1
 42
1.0
 92
       12
 66
     7
 43
1.0
 76
     1
 77
     6
 78
     2
 67
     7
 79
     5
170
     0
171
     0
290
     0
174
     0
 93
        1
 44
0.0
173
     0
291
     1
 45
0.0
1001
ACAD
1000
AcDbSavedByObjectVersion
1070
     0
  0
DICTIONARYVAR
  5
59B
102
{ACAD_REACTORS
330
597
102
}
330
597
100
DictionaryVariables
280
     0
  1
1:1
  0
DICTIONARYVAR
  5
59C
102
{ACAD_REACTORS
330
597
102
}
330
597
100
DictionaryVariables
280
     0
  1
2
  0
DICTIONARYVAR
  5
59D
102
{ACAD_REACTORS
330
597
102
}
330
597
100
DictionaryVariables
280
     0
  1
1
  0
DICTIONARYVAR
  5
59A
102
{ACAD_REACTORS
330
597
102
}
330
597
100
DictionaryVariables
280
     0
  1
0
  0
XRECORD
  5
596
102
{ACAD_REACTORS
330
595
102
}
330
595
100
AcDbXrecord
280
     1
1000
This DWG file was created in ArchiCAD(TM)®
  0
SPATIAL_FILTER
  5
56F
102
{ACAD_REACTORS
330
56E
102
}
330
56E
100
AcDbFilter
100
AcDbSpatialFilter
 70
     4
 10
277.8382424758522
 20
172.462645475756
 10
26.96641967000562
 20
172.462645475756
 10
26.96641967000562
 20
53.01315626921706
 10
277.8382424758522
 20
53.01315626921706
210
0.0
220
0.0
230
1.0
 11
0.0
 21
0.0
 31
0.0
 71
     1
 72
     0
 73
     0
 40
1.0
 40
0.0
 40
0.0
 40
0.0
 40
0.0
 40
1.0
 40
0.0
 40
0.0
 40
0.0
 40
0.0
 40
1.0
 40
0.0
 40
1.0
 40
0.0
 40
0.0
 40
0.0
 40
0.0
 40
1.0
 40
0.0
 40
0.0
 40
0.0
 40
0.0
 40
1.0
 40
0.0
  0
DICTIONARY
  5
5C2
330
3D
100
AcDbDictionary
280
     1
281
     1
  3
ACAD_XREC_ROUNDTRIP
360
5C3
  0
DICTIONARY
  5
5C0
330
3C
100
AcDbDictionary
280
     1
281
     1
  3
ACAD_XREC_ROUNDTRIP
360
5C1
  0
DICTIONARY
  5
5C4
330
3E
100
AcDbDictionary
280
     1
281
     1
  3
ACAD_XREC_ROUNDTRIP
360
5C5
  0
DICTIONARY
  5
5A8
330
2F
100
AcDbDictionary
280
     1
281
     1
  3
ACAD_XREC_ROUNDTRIP
360
5A9
  0
DICTIONARY
  5
5AC
330
31
100
AcDbDictionary
280
     1
281
     1
  3
ACAD_XREC_ROUNDTRIP
360
5AD
  0
DICTIONARY
  5
5AA
330
30
100
AcDbDictionary
280
     1
281
     1
  3
ACAD_XREC_ROUNDTRIP
360
5AB
  0
DICTIONARY
  5
5AE
330
32
100
AcDbDictionary
280
     1
281
     1
  3
ACAD_XREC_ROUNDTRIP
360
5AF
  0
DICTIONARY
  5
5B6
330
36
100
AcDbDictionary
280
     1
281
     1
  3
ACAD_XREC_ROUNDTRIP
360
5B7
  0
DICTIONARY
  5
5BE
330
3A
100
AcDbDictionary
280
     1
281
     1
  3
ACAD_XREC_ROUNDTRIP
360
5BF
  0
DICTIONARY
  5
5B2
330
34
100
AcDbDictionary
280
     1
281
     1
  3
ACAD_XREC_ROUNDTRIP
360
5B3
  0
DICTIONARY
  5
5B4
330
35
100
AcDbDictionary
280
     1
281
     1
  3
ACAD_XREC_ROUNDTRIP
360
5B5
  0
DICTIONARY
  5
5BC
330
39
100
AcDbDictionary
280
     1
281
     1
  3
ACAD_XREC_ROUNDTRIP
360
5BD
  0
DICTIONARY
  5
5A0
330
2B
100
AcDbDictionary
280
     1
281
     1
  3
ACAD_XREC_ROUNDTRIP
360
5A1
  0
DICTIONARY
  5
5A2
330
2C
100
AcDbDictionary
280
     1
281
     1
  3
ACAD_XREC_ROUNDTRIP
360
5A3
  0
DICTIONARY
  5
5A4
330
2D
100
AcDbDictionary
280
     1
281
     1
  3
ACAD_XREC_ROUNDTRIP
360
5A5
  0
DICTIONARY
  5
5A6
330
2E
100
AcDbDictionary
280
     1
281
     1
  3
ACAD_XREC_ROUNDTRIP
360
5A7
  0
DICTIONARY
  5
5BA
330
38
100
AcDbDictionary
280
     1
281
     1
  3
ACAD_XREC_ROUNDTRIP
360
5BB
  0
DICTIONARY
  5
5B0
330
33
100
AcDbDictionary
280
     1
281
     1
  3
ACAD_XREC_ROUNDTRIP
360
5B1
  0
DICTIONARY
  5
5B8
330
37
100
AcDbDictionary
280
     1
281
     1
  3
ACAD_XREC_ROUNDTRIP
360
5B9
  0
XRECORD
  5
5C3
102
{ACAD_REACTORS
330
5C2
102
}
330
5C2
100
AcDbXrecord
280
     1
102
MATERIAL
148
0.0
149
0.0
149
0.0
 93
        0
 94
      127
282
     0
 72
     1
 77
     1
171
     1
175
     1
179
     1
273
     0
  0
XRECORD
  5
5C1
102
{ACAD_REACTORS
330
5C0
102
}
330
5C0
100
AcDbXrecord
280
     1
102
MATERIAL
148
0.0
149
0.0
149
0.0
 93
        0
 94
      127
282
     0
 72
     1
 77
     1
171
     1
175
     1
179
     1
273
     0
  0
XRECORD
  5
5C5
102
{ACAD_REACTORS
330
5C4
102
}
330
5C4
100
AcDbXrecord
280
     1
102
MATERIAL
148
0.0
149
0.0
149
0.0
 93
        0
 94
      127
282
     0
 72
     1
 77
     1
171
     1
175
     1
179
     1
273
     0
  0
XRECORD
  5
5A9
102
{ACAD_REACTORS
330
5A8
102
}
330
5A8
100
AcDbXrecord
280
     1
102
RTVSPropertyOp0
 70
     1
102
RTVSPropertyOp1
 70
     1
102
RTVSPropertyOp2
 70
     1
102
RTVSPropertyOp3
 70
     1
102
RTVSPropertyOp4
 70
     1
102
RTVSPropertyOp5
 70
     1
102
RTVSPropertyOp6
 70
     1
102
RTVSPropertyOp7
 70
     1
102
RTVSPropertyOp8
 70
     1
102
RTVSPropertyOp9
 70
     1
102
RTVSPropertyOp10
 70
     1
102
RTVSPropertyOp11
 70
     1
102
RTVSPropertyOp12
 70
     1
102
RTVSPropertyOp13
 70
     1
102
RTVSPropertyOp14
 70
     1
102
RTVSPropertyOp15
 70
     1
102
RTVSPropertyOp16
 70
     1
102
RTVSPropertyOp17
 70
     1
102
RTVSPropertyOp18
 70
     1
102
RTVSPropertyOp19
 70
     1
102
RTVSPropertyOp20
 70
     1
102
RTVSPropertyOp21
 70
     1
102
RTVSPropertyOp22
 70
     1
102
RTVSPropertyOp23
 70
     1
102
RTVSPropertyOp24
 70
     1
102
RTVSPropertyOp25
 70
     1
102
RTVSPropertyOp26
 70
     1
102
RTVSPropertyOp27
 70
     1
102
RTVSPropertyOp28
 70
     1
102
RTVSPropertyOp29
 70
     1
102
RTVSPropertyOp30
 70
     1
102
RTVSPropertyOp31
 70
     1
102
RTVSPropertyOp32
 70
     1
  0
XRECORD
  5
5AD
102
{ACAD_REACTORS
330
5AC
102
}
330
5AC
100
AcDbXrecord
280
     1
102
RTVSPropertyOp0
 70
     1
102
RTVSPropertyOp1
 70
     1
102
RTVSPropertyOp2
 70
     1
102
RTVSPropertyOp3
 70
     1
102
RTVSPropertyOp4
 70
     1
102
RTVSPropertyOp5
 70
     1
102
RTVSPropertyOp6
 70
     1
102
RTVSPropertyOp7
 70
     1
102
RTVSPropertyOp8
 70
     1
102
RTVSPropertyOp9
 70
     1
102
RTVSPropertyOp10
 70
     1
102
RTVSPropertyOp11
 70
     1
102
RTVSPropertyOp12
 70
     1
102
RTVSPropertyOp13
 70
     1
102
RTVSPropertyOp14
 70
     1
102
RTVSPropertyOp15
 70
     1
102
RTVSPropertyOp16
 70
     1
102
RTVSPropertyOp17
 70
     1
102
RTVSPropertyOp18
 70
     1
102
RTVSPropertyOp19
 70
     1
102
RTVSPropertyOp20
 70
     1
102
RTVSPropertyOp21
 70
     1
102
RTVSPropertyOp22
 70
     1
102
RTVSPropertyOp23
 70
     1
102
RTVSPropertyOp24
 70
     1
102
RTVSPropertyOp25
 70
     1
102
RTVSPropertyOp26
 70
     1
102
RTVSPropertyOp27
 70
     1
102
RTVSPropertyOp28
 70
     1
102
RTVSPropertyOp29
 70
     1
102
RTVSPropertyOp30
 70
     1
102
RTVSPropertyOp31
 70
     1
102
RTVSPropertyOp32
 70
     1
  0
XRECORD
  5
5AB
102
{ACAD_REACTORS
330
5AA
102
}
330
5AA
100
AcDbXrecord
280
     1
102
RTVSPropertyOp0
 70
     1
102
RTVSPropertyOp1
 70
     1
102
RTVSPropertyOp2
 70
     1
102
RTVSPropertyOp3
 70
     1
102
RTVSPropertyOp4
 70
     1
102
RTVSPropertyOp5
 70
     1
102
RTVSPropertyOp6
 70
     1
102
RTVSPropertyOp7
 70
     1
102
RTVSPropertyOp8
 70
     1
102
RTVSPropertyOp9
 70
     1
102
RTVSPropertyOp10
 70
     1
102
RTVSPropertyOp11
 70
     1
102
RTVSPropertyOp12
 70
     1
102
RTVSPropertyOp13
 70
     1
102
RTVSPropertyOp14
 70
     1
102
RTVSPropertyOp15
 70
     1
102
RTVSPropertyOp16
 70
     1
102
RTVSPropertyOp17
 70
     1
102
RTVSPropertyOp18
 70
     1
102
RTVSPropertyOp19
 70
     1
102
RTVSPropertyOp20
 70
     1
102
RTVSPropertyOp21
 70
     1
102
RTVSPropertyOp22
 70
     1
102
RTVSPropertyOp23
 70
     1
102
RTVSPropertyOp24
 70
     1
102
RTVSPropertyOp25
 70
     1
102
RTVSPropertyOp26
 70
     1
102
RTVSPropertyOp27
 70
     1
102
RTVSPropertyOp28
 70
     1
102
RTVSPropertyOp29
 70
     1
102
RTVSPropertyOp30
 70
     1
102
RTVSPropertyOp31
 70
     1
102
RTVSPropertyOp32
 70
     1
  0
XRECORD
  5
5AF
102
{ACAD_REACTORS
330
5AE
102
}
330
5AE
100
AcDbXrecord
280
     1
102
RTVSPropertyOp0
 70
     1
102
RTVSPropertyOp1
 70
     1
102
RTVSPropertyOp2
 70
     1
102
RTVSPropertyOp3
 70
     1
102
RTVSPropertyOp4
 70
     1
102
RTVSPropertyOp5
 70
     1
102
RTVSPropertyOp6
 70
     1
102
RTVSPropertyOp7
 70
     1
102
RTVSPropertyOp8
 70
     1
102
RTVSPropertyOp9
 70
     1
102
RTVSPropertyOp10
 70
     1
102
RTVSPropertyOp11
 70
     1
102
RTVSPropertyOp12
 70
     1
102
RTVSPropertyOp13
 70
     1
102
RTVSPropertyOp14
 70
     1
102
RTVSPropertyOp15
 70
     1
102
RTVSPropertyOp16
 70
     1
102
RTVSPropertyOp17
 70
     1
102
RTVSPropertyOp18
 70
     1
102
RTVSPropertyOp19
 70
     1
102
RTVSPropertyOp20
 70
     1
102
RTVSPropertyOp21
 70
     1
102
RTVSPropertyOp22
 70
     1
102
RTVSPropertyOp23
 70
     1
102
RTVSPropertyOp24
 70
     1
102
RTVSPropertyOp25
 70
     1
102
RTVSPropertyOp26
 70
     1
102
RTVSPropertyOp27
 70
     1
102
RTVSPropertyOp28
 70
     1
102
RTVSPropertyOp29
 70
     1
102
RTVSPropertyOp30
 70
     1
102
RTVSPropertyOp31
 70
     1
102
RTVSPropertyOp32
 70
     1
  0
XRECORD
  5
5B7
102
{ACAD_REACTORS
330
5B6
102
}
330
5B6
100
AcDbXrecord
280
     1
102
RTVSPropertyOp0
 70
     1
102
RTVSPropertyOp1
 70
     1
102
RTVSPropertyOp2
 70
     1
102
RTVSPropertyOp3
 70
     1
102
RTVSPropertyOp4
 70
     1
102
RTVSPropertyOp5
 70
     1
102
RTVSPropertyOp6
 70
     1
102
RTVSPropertyOp7
 70
     1
102
RTVSPropertyOp8
 70
     1
102
RTVSPropertyOp9
 70
     1
102
RTVSPropertyOp10
 70
     1
102
RTVSPropertyOp11
 70
     1
102
RTVSPropertyOp12
 70
     1
102
RTVSPropertyOp13
 70
     1
102
RTVSPropertyOp14
 70
     1
102
RTVSPropertyOp15
 70
     1
102
RTVSPropertyOp16
 70
     1
102
RTVSPropertyOp17
 70
     1
102
RTVSPropertyOp18
 70
     1
102
RTVSPropertyOp19
 70
     1
102
RTVSPropertyOp20
 70
     1
102
RTVSPropertyOp21
 70
     1
102
RTVSPropertyOp22
 70
     1
102
RTVSPropertyOp23
 70
     1
102
RTVSPropertyOp24
 70
     1
102
RTVSPropertyOp25
 70
     1
102
RTVSPropertyOp26
 70
     1
102
RTVSPropertyOp27
 70
     1
102
RTVSPropertyOp28
 70
     1
102
RTVSPropertyOp29
 70
     1
102
RTVSPropertyOp30
 70
     1
102
RTVSPropertyOp31
 70
     1
102
RTVSPropertyOp32
 70
     1
  0
XRECORD
  5
5BF
102
{ACAD_REACTORS
330
5BE
102
}
330
5BE
100
AcDbXrecord
280
     1
102
RTVSPropertyOp0
 70
     1
102
RTVSPropertyOp1
 70
     1
102
RTVSPropertyOp2
 70
     1
102
RTVSPropertyOp3
 70
     1
102
RTVSPropertyOp4
 70
     1
102
RTVSPropertyOp5
 70
     1
102
RTVSPropertyOp6
 70
     1
102
RTVSPropertyOp7
 70
     1
102
RTVSPropertyOp8
 70
     1
102
RTVSPropertyOp9
 70
     1
102
RTVSPropertyOp10
 70
     1
102
RTVSPropertyOp11
 70
     1
102
RTVSPropertyOp12
 70
     1
102
RTVSPropertyOp13
 70
     1
102
RTVSPropertyOp14
 70
     1
102
RTVSPropertyOp15
 70
     1
102
RTVSPropertyOp16
 70
     1
102
RTVSPropertyOp17
 70
     1
102
RTVSPropertyOp18
 70
     1
102
RTVSPropertyOp19
 70
     1
102
RTVSPropertyOp20
 70
     1
102
RTVSPropertyOp21
 70
     1
102
RTVSPropertyOp22
 70
     1
102
RTVSPropertyOp23
 70
     1
102
RTVSPropertyOp24
 70
     1
102
RTVSPropertyOp25
 70
     1
102
RTVSPropertyOp26
 70
     1
102
RTVSPropertyOp27
 70
     1
102
RTVSPropertyOp28
 70
     1
102
RTVSPropertyOp29
 70
     1
102
RTVSPropertyOp30
 70
     1
102
RTVSPropertyOp31
 70
     1
102
RTVSPropertyOp32
 70
     1
  0
XRECORD
  5
5B3
102
{ACAD_REACTORS
330
5B2
102
}
330
5B2
100
AcDbXrecord
280
     1
102
RTVSPropertyOp0
 70
     1
102
RTVSPropertyOp1
 70
     1
102
RTVSPropertyOp2
 70
     1
102
RTVSPropertyOp3
 70
     1
102
RTVSPropertyOp4
 70
     1
102
RTVSPropertyOp5
 70
     1
102
RTVSPropertyOp6
 70
     1
102
RTVSPropertyOp7
 70
     1
102
RTVSPropertyOp8
 70
     1
102
RTVSPropertyOp9
 70
     1
102
RTVSPropertyOp10
 70
     1
102
RTVSPropertyOp11
 70
     1
102
RTVSPropertyOp12
 70
     1
102
RTVSPropertyOp13
 70
     1
102
RTVSPropertyOp14
 70
     1
102
RTVSPropertyOp15
 70
     1
102
RTVSPropertyOp16
 70
     1
102
RTVSPropertyOp17
 70
     1
102
RTVSPropertyOp18
 70
     1
102
RTVSPropertyOp19
 70
     1
102
RTVSPropertyOp20
 70
     1
102
RTVSPropertyOp21
 70
     1
102
RTVSPropertyOp22
 70
     1
102
RTVSPropertyOp23
 70
     1
102
RTVSPropertyOp24
 70
     1
102
RTVSPropertyOp25
 70
     1
102
RTVSPropertyOp26
 70
     1
102
RTVSPropertyOp27
 70
     1
102
RTVSPropertyOp28
 70
     1
102
RTVSPropertyOp29
 70
     1
102
RTVSPropertyOp30
 70
     1
102
RTVSPropertyOp31
 70
     1
102
RTVSPropertyOp32
 70
     1
  0
XRECORD
  5
5B5
102
{ACAD_REACTORS
330
5B4
102
}
330
5B4
100
AcDbXrecord
280
     1
102
RTVSPropertyOp0
 70
     1
102
RTVSPropertyOp1
 70
     1
102
RTVSPropertyOp2
 70
     1
102
RTVSPropertyOp3
 70
     1
102
RTVSPropertyOp4
 70
     1
102
RTVSPropertyOp5
 70
     1
102
RTVSPropertyOp6
 70
     1
102
RTVSPropertyOp7
 70
     1
102
RTVSPropertyOp8
 70
     1
102
RTVSPropertyOp9
 70
     1
102
RTVSPropertyOp10
 70
     1
102
RTVSPropertyOp11
 70
     1
102
RTVSPropertyOp12
 70
     1
102
RTVSPropertyOp13
 70
     1
102
RTVSPropertyOp14
 70
     1
102
RTVSPropertyOp15
 70
     1
102
RTVSPropertyOp16
 70
     1
102
RTVSPropertyOp17
 70
     1
102
RTVSPropertyOp18
 70
     1
102
RTVSPropertyOp19
 70
     1
102
RTVSPropertyOp20
 70
     1
102
RTVSPropertyOp21
 70
     1
102
RTVSPropertyOp22
 70
     1
102
RTVSPropertyOp23
 70
     1
102
RTVSPropertyOp24
 70
     1
102
RTVSPropertyOp25
 70
     1
102
RTVSPropertyOp26
 70
     1
102
RTVSPropertyOp27
 70
     1
102
RTVSPropertyOp28
 70
     1
102
RTVSPropertyOp29
 70
     1
102
RTVSPropertyOp30
 70
     1
102
RTVSPropertyOp31
 70
     1
102
RTVSPropertyOp32
 70
     1
  0
XRECORD
  5
5BD
102
{ACAD_REACTORS
330
5BC
102
}
330
5BC
100
AcDbXrecord
280
     1
102
RTVSPropertyOp0
 70
     1
102
RTVSPropertyOp1
 70
     1
102
RTVSPropertyOp2
 70
     1
102
RTVSPropertyOp3
 70
     1
102
RTVSPropertyOp4
 70
     1
102
RTVSPropertyOp5
 70
     1
102
RTVSPropertyOp6
 70
     1
102
RTVSPropertyOp7
 70
     1
102
RTVSPropertyOp8
 70
     1
102
RTVSPropertyOp9
 70
     1
102
RTVSPropertyOp10
 70
     1
102
RTVSPropertyOp11
 70
     1
102
RTVSPropertyOp12
 70
     1
102
RTVSPropertyOp13
 70
     1
102
RTVSPropertyOp14
 70
     1
102
RTVSPropertyOp15
 70
     1
102
RTVSPropertyOp16
 70
     1
102
RTVSPropertyOp17
 70
     1
102
RTVSPropertyOp18
 70
     1
102
RTVSPropertyOp19
 70
     1
102
RTVSPropertyOp20
 70
     1
102
RTVSPropertyOp21
 70
     1
102
RTVSPropertyOp22
 70
     1
102
RTVSPropertyOp23
 70
     1
102
RTVSPropertyOp24
 70
     1
102
RTVSPropertyOp25
 70
     1
102
RTVSPropertyOp26
 70
     1
102
RTVSPropertyOp27
 70
     1
102
RTVSPropertyOp28
 70
     1
102
RTVSPropertyOp29
 70
     1
102
RTVSPropertyOp30
 70
     1
102
RTVSPropertyOp31
 70
     1
102
RTVSPropertyOp32
 70
     1
  0
XRECORD
  5
5A1
102
{ACAD_REACTORS
330
5A0
102
}
330
5A0
100
AcDbXrecord
280
     1
102
RTVSPropertyOp0
 70
     1
102
RTVSPropertyOp1
 70
     1
102
RTVSPropertyOp2
 70
     1
102
RTVSPropertyOp3
 70
     1
102
RTVSPropertyOp4
 70
     1
102
RTVSPropertyOp5
 70
     1
102
RTVSPropertyOp6
 70
     1
102
RTVSPropertyOp7
 70
     1
102
RTVSPropertyOp8
 70
     1
102
RTVSPropertyOp9
 70
     1
102
RTVSPropertyOp10
 70
     1
102
RTVSPropertyOp11
 70
     1
102
RTVSPropertyOp12
 70
     1
102
RTVSPropertyOp13
 70
     1
102
RTVSPropertyOp14
 70
     1
102
RTVSPropertyOp15
 70
     1
102
RTVSPropertyOp16
 70
     1
102
RTVSPropertyOp17
 70
     1
102
RTVSPropertyOp18
 70
     1
102
RTVSPropertyOp19
 70
     1
102
RTVSPropertyOp20
 70
     1
102
RTVSPropertyOp21
 70
     1
102
RTVSPropertyOp22
 70
     1
102
RTVSPropertyOp23
 70
     1
102
RTVSPropertyOp24
 70
     1
102
RTVSPropertyOp25
 70
     1
102
RTVSPropertyOp26
 70
     1
102
RTVSPropertyOp27
 70
     1
102
RTVSPropertyOp28
 70
     1
102
RTVSPropertyOp29
 70
     1
102
RTVSPropertyOp30
 70
     1
102
RTVSPropertyOp31
 70
     1
102
RTVSPropertyOp32
 70
     1
  0
XRECORD
  5
5A3
102
{ACAD_REACTORS
330
5A2
102
}
330
5A2
100
AcDbXrecord
280
     1
102
RTVSPropertyOp0
 70
     1
102
RTVSPropertyOp1
 70
     1
102
RTVSPropertyOp2
 70
     1
102
RTVSPropertyOp3
 70
     1
102
RTVSPropertyOp4
 70
     1
102
RTVSPropertyOp5
 70
     1
102
RTVSPropertyOp6
 70
     1
102
RTVSPropertyOp7
 70
     1
102
RTVSPropertyOp8
 70
     1
102
RTVSPropertyOp9
 70
     1
102
RTVSPropertyOp10
 70
     1
102
RTVSPropertyOp11
 70
     1
102
RTVSPropertyOp12
 70
     1
102
RTVSPropertyOp13
 70
     1
102
RTVSPropertyOp14
 70
     1
102
RTVSPropertyOp15
 70
     1
102
RTVSPropertyOp16
 70
     1
102
RTVSPropertyOp17
 70
     1
102
RTVSPropertyOp18
 70
     1
102
RTVSPropertyOp19
 70
     1
102
RTVSPropertyOp20
 70
     1
102
RTVSPropertyOp21
 70
     1
102
RTVSPropertyOp22
 70
     1
102
RTVSPropertyOp23
 70
     1
102
RTVSPropertyOp24
 70
     1
102
RTVSPropertyOp25
 70
     1
102
RTVSPropertyOp26
 70
     1
102
RTVSPropertyOp27
 70
     1
102
RTVSPropertyOp28
 70
     1
102
RTVSPropertyOp29
 70
     1
102
RTVSPropertyOp30
 70
     1
102
RTVSPropertyOp31
 70
     1
102
RTVSPropertyOp32
 70
     1
  0
XRECORD
  5
5A5
102
{ACAD_REACTORS
330
5A4
102
}
330
5A4
100
AcDbXrecord
280
     1
102
RTVSPropertyOp0
 70
     1
102
RTVSPropertyOp1
 70
     1
102
RTVSPropertyOp2
 70
     1
102
RTVSPropertyOp3
 70
     1
102
RTVSPropertyOp4
 70
     1
102
RTVSPropertyOp5
 70
     1
102
RTVSPropertyOp6
 70
     1
102
RTVSPropertyOp7
 70
     1
102
RTVSPropertyOp8
 70
     1
102
RTVSPropertyOp9
 70
     1
102
RTVSPropertyOp10
 70
     1
102
RTVSPropertyOp11
 70
     1
102
RTVSPropertyOp12
 70
     1
102
RTVSPropertyOp13
 70
     1
102
RTVSPropertyOp14
 70
     1
102
RTVSPropertyOp15
 70
     1
102
RTVSPropertyOp16
 70
     1
102
RTVSPropertyOp17
 70
     1
102
RTVSPropertyOp18
 70
     1
102
RTVSPropertyOp19
 70
     1
102
RTVSPropertyOp20
 70
     1
102
RTVSPropertyOp21
 70
     1
102
RTVSPropertyOp22
 70
     1
102
RTVSPropertyOp23
 70
     1
102
RTVSPropertyOp24
 70
     1
102
RTVSPropertyOp25
 70
     1
102
RTVSPropertyOp26
 70
     1
102
RTVSPropertyOp27
 70
     1
102
RTVSPropertyOp28
 70
     1
102
RTVSPropertyOp29
 70
     1
102
RTVSPropertyOp30
 70
     1
102
RTVSPropertyOp31
 70
     1
102
RTVSPropertyOp32
 70
     1
  0
XRECORD
  5
5A7
102
{ACAD_REACTORS
330
5A6
102
}
330
5A6
100
AcDbXrecord
280
     1
102
RTVSPropertyOp0
 70
     1
102
RTVSPropertyOp1
 70
     1
102
RTVSPropertyOp2
 70
     1
102
RTVSPropertyOp3
 70
     1
102
RTVSPropertyOp4
 70
     1
102
RTVSPropertyOp5
 70
     1
102
RTVSPropertyOp6
 70
     1
102
RTVSPropertyOp7
 70
     1
102
RTVSPropertyOp8
 70
     1
102
RTVSPropertyOp9
 70
     1
102
RTVSPropertyOp10
 70
     1
102
RTVSPropertyOp11
 70
     1
102
RTVSPropertyOp12
 70
     1
102
RTVSPropertyOp13
 70
     1
102
RTVSPropertyOp14
 70
     1
102
RTVSPropertyOp15
 70
     1
102
RTVSPropertyOp16
 70
     1
102
RTVSPropertyOp17
 70
     1
102
RTVSPropertyOp18
 70
     1
102
RTVSPropertyOp19
 70
     1
102
RTVSPropertyOp20
 70
     1
102
RTVSPropertyOp21
 70
     1
102
RTVSPropertyOp22
 70
     1
102
RTVSPropertyOp23
 70
     1
102
RTVSPropertyOp24
 70
     1
102
RTVSPropertyOp25
 70
     1
102
RTVSPropertyOp26
 70
     1
102
RTVSPropertyOp27
 70
     1
102
RTVSPropertyOp28
 70
     1
102
RTVSPropertyOp29
 70
     1
102
RTVSPropertyOp30
 70
     1
102
RTVSPropertyOp31
 70
     1
102
RTVSPropertyOp32
 70
     1
  0
XRECORD
  5
5BB
102
{ACAD_REACTORS
330
5BA
102
}
330
5BA
100
AcDbXrecord
280
     1
102
RTVSPropertyOp0
 70
     1
102
RTVSPropertyOp1
 70
     1
102
RTVSPropertyOp2
 70
     1
102
RTVSPropertyOp3
 70
     1
102
RTVSPropertyOp4
 70
     1
102
RTVSPropertyOp5
 70
     1
102
RTVSPropertyOp6
 70
     1
102
RTVSPropertyOp7
 70
     1
102
RTVSPropertyOp8
 70
     1
102
RTVSPropertyOp9
 70
     1
102
RTVSPropertyOp10
 70
     1
102
RTVSPropertyOp11
 70
     1
102
RTVSPropertyOp12
 70
     1
102
RTVSPropertyOp13
 70
     1
102
RTVSPropertyOp14
 70
     1
102
RTVSPropertyOp15
 70
     1
102
RTVSPropertyOp16
 70
     1
102
RTVSPropertyOp17
 70
     1
102
RTVSPropertyOp18
 70
     1
102
RTVSPropertyOp19
 70
     1
102
RTVSPropertyOp20
 70
     1
102
RTVSPropertyOp21
 70
     1
102
RTVSPropertyOp22
 70
     1
102
RTVSPropertyOp23
 70
     1
102
RTVSPropertyOp24
 70
     1
102
RTVSPropertyOp25
 70
     1
102
RTVSPropertyOp26
 70
     1
102
RTVSPropertyOp27
 70
     1
102
RTVSPropertyOp28
 70
     1
102
RTVSPropertyOp29
 70
     1
102
RTVSPropertyOp30
 70
     1
102
RTVSPropertyOp31
 70
     1
102
RTVSPropertyOp32
 70
     1
  0
XRECORD
  5
5B1
102
{ACAD_REACTORS
330
5B0
102
}
330
5B0
100
AcDbXrecord
280
     1
102
RTVSPropertyOp0
 70
     1
102
RTVSPropertyOp1
 70
     1
102
RTVSPropertyOp2
 70
     1
102
RTVSPropertyOp3
 70
     1
102
RTVSPropertyOp4
 70
     1
102
RTVSPropertyOp5
 70
     1
102
RTVSPropertyOp6
 70
     1
102
RTVSPropertyOp7
 70
     1
102
RTVSPropertyOp8
 70
     1
102
RTVSPropertyOp9
 70
     1
102
RTVSPropertyOp10
 70
     1
102
RTVSPropertyOp11
 70
     1
102
RTVSPropertyOp12
 70
     1
102
RTVSPropertyOp13
 70
     1
102
RTVSPropertyOp14
 70
     1
102
RTVSPropertyOp15
 70
     1
102
RTVSPropertyOp16
 70
     1
102
RTVSPropertyOp17
 70
     1
102
RTVSPropertyOp18
 70
     1
102
RTVSPropertyOp19
 70
     1
102
RTVSPropertyOp20
 70
     1
102
RTVSPropertyOp21
 70
     1
102
RTVSPropertyOp22
 70
     1
102
RTVSPropertyOp23
 70
     1
102
RTVSPropertyOp24
 70
     1
102
RTVSPropertyOp25
 70
     1
102
RTVSPropertyOp26
 70
     1
102
RTVSPropertyOp27
 70
     1
102
RTVSPropertyOp28
 70
     1
102
RTVSPropertyOp29
 70
     1
102
RTVSPropertyOp30
 70
     1
102
RTVSPropertyOp31
 70
     1
102
RTVSPropertyOp32
 70
     1
  0
XRECORD
  5
5B9
102
{ACAD_REACTORS
330
5B8
102
}
330
5B8
100
AcDbXrecord
280
     1
102
RTVSPropertyOp0
 70
     1
102
RTVSPropertyOp1
 70
     1
102
RTVSPropertyOp2
 70
     1
102
RTVSPropertyOp3
 70
     1
102
RTVSPropertyOp4
 70
     1
102
RTVSPropertyOp5
 70
     1
102
RTVSPropertyOp6
 70
     1
102
RTVSPropertyOp7
 70
     1
102
RTVSPropertyOp8
 70
     1
102
RTVSPropertyOp9
 70
     1
102
RTVSPropertyOp10
 70
     1
102
RTVSPropertyOp11
 70
     1
102
RTVSPropertyOp12
 70
     1
102
RTVSPropertyOp13
 70
     1
102
RTVSPropertyOp14
 70
     1
102
RTVSPropertyOp15
 70
     1
102
RTVSPropertyOp16
 70
     1
102
RTVSPropertyOp17
 70
     1
102
RTVSPropertyOp18
 70
     1
102
RTVSPropertyOp19
 70
     1
102
RTVSPropertyOp20
 70
     1
102
RTVSPropertyOp21
 70
     1
102
RTVSPropertyOp22
 70
     1
102
RTVSPropertyOp23
 70
     1
102
RTVSPropertyOp24
 70
     1
102
RTVSPropertyOp25
 70
     1
102
RTVSPropertyOp26
 70
     1
102
RTVSPropertyOp27
 70
     1
102
RTVSPropertyOp28
 70
     1
102
RTVSPropertyOp29
 70
     1
102
RTVSPropertyOp30
 70
     1
102
RTVSPropertyOp31
 70
     1
102
RTVSPropertyOp32
 70
     1
  0
ENDSEC
  0
EOF
