  0
SECTION
  2
HEADER
  9
$ACADVER
  1
AC1015
  9
$ACADMAINTVER
 70
     6
  9
$DWGCODEPAGE
  3
ANSI_949
  9
$INSBASE
 10
0.0
 20
0.0
 30
0.0
  9
$EXTMIN
 10
1.000000000000000E+20
 20
1.000000000000000E+20
 30
1.000000000000000E+20
  9
$EXTMAX
 10
-1.000000000000000E+20
 20
-1.000000000000000E+20
 30
-1.000000000000000E+20
  9
$LIMMIN
 10
0.0
 20
0.0
  9
$LIMMAX
 10
12.0
 20
9.0
  9
$ORTHOMODE
 70
     0
  9
$REGENMODE
 70
     1
  9
$FILLMODE
 70
     1
  9
$QTEXTMODE
 70
     0
  9
$MIRRTEXT
 70
     1
  9
$LTSCALE
 40
1.0
  9
$ATTMODE
 70
     1
  9
$TEXTSIZE
 40
0.2
  9
$TRACEWID
 40
0.05
  9
$TEXTSTYLE
  7
Standard
  9
$CLAYER
  8
0
  9
$CELTYPE
  6
ByLayer
  9
$CECOLOR
 62
   256
  9
$CELTSCALE
 40
1.0
  9
$DISPSILH
 70
     0
  9
$DIMSCALE
 40
1.0
  9
$DIMASZ
 40
0.18
  9
$DIMEXO
 40
0.0625
  9
$DIMDLI
 40
0.38
  9
$DIMRND
 40
0.0
  9
$DIMDLE
 40
0.0
  9
$DIMEXE
 40
0.18
  9
$DIMTP
 40
0.0
  9
$DIMTM
 40
0.0
  9
$DIMTXT
 40
0.18
  9
$DIMCEN
 40
0.09
  9
$DIMTSZ
 40
0.0
  9
$DIMTOL
 70
     0
  9
$DIMLIM
 70
     0
  9
$DIMTIH
 70
     1
  9
$DIMTOH
 70
     1
  9
$DIMSE1
 70
     0
  9
$DIMSE2
 70
     0
  9
$DIMTAD
 70
     0
  9
$DIMZIN
 70
     0
  9
$DIMBLK
  1

  9
$DIMASO
 70
     1
  9
$DIMSHO
 70
     1
  9
$DIMPOST
  1

  9
$DIMAPOST
  1

  9
$DIMALT
 70
     0
  9
$DIMALTD
 70
     2
  9
$DIMALTF
 40
25.4
  9
$DIMLFAC
 40
1.0
  9
$DIMTOFL
 70
     0
  9
$DIMTVP
 40
0.0
  9
$DIMTIX
 70
     0
  9
$DIMSOXD
 70
     0
  9
$DIMSAH
 70
     0
  9
$DIMBLK1
  1

  9
$DIMBLK2
  1

  9
$DIMSTYLE
  2
Standard
  9
$DIMCLRD
 70
     0
  9
$DIMCLRE
 70
     0
  9
$DIMCLRT
 70
     0
  9
$DIMTFAC
 40
1.0
  9
$DIMGAP
 40
0.09
  9
$DIMJUST
 70
     0
  9
$DIMSD1
 70
     0
  9
$DIMSD2
 70
     0
  9
$DIMTOLJ
 70
     1
  9
$DIMTZIN
 70
     0
  9
$DIMALTZ
 70
     0
  9
$DIMALTTZ
 70
     0
  9
$DIMUPT
 70
     0
  9
$DIMDEC
 70
     4
  9
$DIMTDEC
 70
     4
  9
$DIMALTU
 70
     2
  9
$DIMALTTD
 70
     2
  9
$DIMTXSTY
  7
Standard
  9
$DIMAUNIT
 70
     0
  9
$DIMADEC
 70
     0
  9
$DIMALTRND
 40
0.0
  9
$DIMAZIN
 70
     0
  9
$DIMDSEP
 70
    46
  9
$DIMATFIT
 70
     3
  9
$DIMFRAC
 70
     0
  9
$DIMLDRBLK
  1

  9
$DIMLUNIT
 70
     2
  9
$DIMLWD
 70
    -2
  9
$DIMLWE
 70
    -2
  9
$DIMTMOVE
 70
     0
  9
$LUNITS
 70
     2
  9
$LUPREC
 70
     4
  9
$SKETCHINC
 40
0.1
  9
$FILLETRAD
 40
0.5
  9
$AUNITS
 70
     0
  9
$AUPREC
 70
     0
  9
$MENU
  1
.
  9
$ELEVATION
 40
0.0
  9
$PELEVATION
 40
0.0
  9
$THICKNESS
 40
0.0
  9
$LIMCHECK
 70
     0
  9
$CHAMFERA
 40
0.5
  9
$CHAMFERB
 40
0.5
  9
$CHAMFERC
 40
1.0
  9
$CHAMFERD
 40
0.0
  9
$SKPOLY
 70
     0
  9
$TDCREATE
 40
2456522.590878831
  9
$TDUCREATE
 40
2456522.090878831
  9
$TDUPDATE
 40
2456522.590905035
  9
$TDUUPDATE
 40
2456522.090905035
  9
$TDINDWG
 40
0.0000000116
  9
$TDUSRTIMER
 40
0.0000000116
  9
$USRTIMER
 70
     1
  9
$ANGBASE
 50
0.0
  9
$ANGDIR
 70
     0
  9
$PDMODE
 70
     0
  9
$PDSIZE
 40
0.0
  9
$PLINEWID
 40
0.0
  9
$SPLFRAME
 70
     0
  9
$SPLINETYPE
 70
     6
  9
$SPLINESEGS
 70
     8
  9
$HANDSEED
  5
3BE
  9
$SURFTAB1
 70
     6
  9
$SURFTAB2
 70
     6
  9
$SURFTYPE
 70
     6
  9
$SURFU
 70
     6
  9
$SURFV
 70
     6
  9
$UCSBASE
  2

  9
$UCSNAME
  2

  9
$UCSORG
 10
0.0
 20
0.0
 30
0.0
  9
$UCSXDIR
 10
1.0
 20
0.0
 30
0.0
  9
$UCSYDIR
 10
0.0
 20
1.0
 30
0.0
  9
$UCSORTHOREF
  2

  9
$UCSORTHOVIEW
 70
     0
  9
$UCSORGTOP
 10
0.0
 20
0.0
 30
0.0
  9
$UCSORGBOTTOM
 10
0.0
 20
0.0
 30
0.0
  9
$UCSORGLEFT
 10
0.0
 20
0.0
 30
0.0
  9
$UCSORGRIGHT
 10
0.0
 20
0.0
 30
0.0
  9
$UCSORGFRONT
 10
0.0
 20
0.0
 30
0.0
  9
$UCSORGBACK
 10
0.0
 20
0.0
 30
0.0
  9
$PUCSBASE
  2

  9
$PUCSNAME
  2

  9
$PUCSORG
 10
0.0
 20
0.0
 30
0.0
  9
$PUCSXDIR
 10
1.0
 20
0.0
 30
0.0
  9
$PUCSYDIR
 10
0.0
 20
1.0
 30
0.0
  9
$PUCSORTHOREF
  2

  9
$PUCSORTHOVIEW
 70
     0
  9
$PUCSORGTOP
 10
0.0
 20
0.0
 30
0.0
  9
$PUCSORGBOTTOM
 10
0.0
 20
0.0
 30
0.0
  9
$PUCSORGLEFT
 10
0.0
 20
0.0
 30
0.0
  9
$PUCSORGRIGHT
 10
0.0
 20
0.0
 30
0.0
  9
$PUCSORGFRONT
 10
0.0
 20
0.0
 30
0.0
  9
$PUCSORGBACK
 10
0.0
 20
0.0
 30
0.0
  9
$USERI1
 70
     0
  9
$USERI2
 70
     0
  9
$USERI3
 70
     0
  9
$USERI4
 70
     0
  9
$USERI5
 70
     0
  9
$USERR1
 40
0.0
  9
$USERR2
 40
0.0
  9
$USERR3
 40
0.0
  9
$USERR4
 40
0.0
  9
$USERR5
 40
0.0
  9
$WORLDVIEW
 70
     1
  9
$SHADEDGE
 70
     3
  9
$SHADEDIF
 70
    70
  9
$TILEMODE
 70
     1
  9
$MAXACTVP
 70
    64
  9
$PINSBASE
 10
0.0
 20
0.0
 30
0.0
  9
$PLIMCHECK
 70
     0
  9
$PEXTMIN
 10
1.000000000000000E+20
 20
1.000000000000000E+20
 30
1.000000000000000E+20
  9
$PEXTMAX
 10
-1.000000000000000E+20
 20
-1.000000000000000E+20
 30
-1.000000000000000E+20
  9
$PLIMMIN
 10
0.0
 20
0.0
  9
$PLIMMAX
 10
12.0
 20
9.0
  9
$UNITMODE
 70
     0
  9
$VISRETAIN
 70
     1
  9
$PLINEGEN
 70
     0
  9
$PSLTSCALE
 70
     1
  9
$TREEDEPTH
 70
  3020
  9
$CMLSTYLE
  2
Standard
  9
$CMLJUST
 70
     0
  9
$CMLSCALE
 40
1.0
  9
$PROXYGRAPHICS
 70
     1
  9
$MEASUREMENT
 70
     0
  9
$CELWEIGHT
370
    -1
  9
$ENDCAPS
280
     0
  9
$JOINSTYLE
280
     0
  9
$LWDISPLAY
290
     1
  9
$INSUNITS
 70
     4
  9
$HYPERLINKBASE
  1

  9
$STYLESHEET
  1

  9
$XEDIT
290
     1
  9
$CEPSNTYPE
380
     0
  9
$PSTYLEMODE
290
     1
  9
$FINGERPRINTGUID
  2
{1E638FD2-1011-4966-A4EE-2F17A143F537}
  9
$VERSIONGUID
  2
{FAEB1C32-E019-11D5-929B-00C0DF256EC4}
  9
$EXTNAMES
290
     1
  9
$PSVPSCALE
 40
0.0
  9
$OLESTARTUP
290
     0
  0
ENDSEC
  0
SECTION
  2
CLASSES
  0
CLASS
  1
ACDBDICTIONARYWDFLT
  2
AcDbDictionaryWithDefault
  3
ObjectDBX Classes
 90
        0
280
     0
281
     0
  0
CLASS
  1
VISUALSTYLE
  2
AcDbVisualStyle
  3
ObjectDBX Classes
 90
     4095
280
     0
281
     0
  0
CLASS
  1
MATERIAL
  2
AcDbMaterial
  3
ObjectDBX Classes
 90
     1153
280
     0
281
     0
  0
CLASS
  1
SPATIAL_FILTER
  2
AcDbSpatialFilter
  3
ObjectDBX Classes
 90
        0
280
     0
281
     0
  0
CLASS
  1
SCALE
  2
AcDbScale
  3
ObjectDBX Classes
 90
     1153
280
     0
281
     0
  0
CLASS
  1
DICTIONARYVAR
  2
AcDbDictionaryVar
  3
ObjectDBX Classes
 90
        0
280
     0
281
     0
  0
CLASS
  1
ACDBPLACEHOLDER
  2
AcDbPlaceHolder
  3
ObjectDBX Classes
 90
        0
280
     0
281
     0
  0
CLASS
  1
LAYOUT
  2
AcDbLayout
  3
ObjectDBX Classes
 90
        0
280
     0
281
     0
  0
ENDSEC
  0
SECTION
  2
TABLES
  0
TABLE
  2
VPORT
  5
8
330
0
100
AcDbSymbolTable
 70
     1
  0
VPORT
  5
29
330
8
100
AcDbSymbolTableRecord
100
AcDbViewportTableRecord
  2
*Active
 70
     0
 10
0.0
 20
0.0
 11
1.0
 21
1.0
 12
148.6203422501967
 22
103.5134588513207
 13
0.0
 23
0.0
 14
0.5
 24
0.5
 15
0.5
 25
0.5
 16
0.0
 26
0.0
 36
1.0
 17
0.0
 27
0.0
 37
0.0
 40
207.0325439433057
 41
1.395459340278255
 42
50.0
 43
0.0
 44
0.0
 50
0.0
 51
0.0
 71
     0
 72
   100
 73
     1
 74
     3
 75
     0
 76
     0
 77
     0
 78
     0
281
     0
 65
     1
110
0.0
120
0.0
130
0.0
111
1.0
121
0.0
131
0.0
112
0.0
122
1.0
132
0.0
 79
     0
146
0.0
  0
ENDTAB
  0
TABLE
  2
LTYPE
  5
5
330
0
100
AcDbSymbolTable
 70
     2
  0
LTYPE
  5
14
330
5
100
AcDbSymbolTableRecord
100
AcDbLinetypeTableRecord
  2
ByBlock
 70
     0
  3

 72
    65
 73
     0
 40
0.0
  0
LTYPE
  5
15
330
5
100
AcDbSymbolTableRecord
100
AcDbLinetypeTableRecord
  2
ByLayer
 70
     0
  3

 72
    65
 73
     0
 40
0.0
  0
LTYPE
  5
16
330
5
100
AcDbSymbolTableRecord
100
AcDbLinetypeTableRecord
  2
Continuous
 70
     0
  3
Solid line
 72
    65
 73
     0
 40
0.0
  0
LTYPE
  5
32C
330
5
100
AcDbSymbolTableRecord
100
AcDbLinetypeTableRecord
  2
Dashed
 70
     0
  3
- - - - - 
 72
    65
 73
     2
 40
5.644444465637207
 49
2.822222232818604
 74
     0
 49
-2.822222232818603
 74
     0
  0
ENDTAB
  0
TABLE
  2
LAYER
  5
2
330
0
100
AcDbSymbolTable
 70
     3
  0
LAYER
  5
10
330
2
100
AcDbSymbolTableRecord
100
AcDbLayerTableRecord
  2
0
 70
     0
 62
     7
  6
Continuous
370
    -3
390
F
  0
LAYER
  5
40
330
2
100
AcDbSymbolTableRecord
100
AcDbLayerTableRecord
  2
Doc_ Finishes
 70
     0
 62
     7
  6
Continuous
370
    -3
390
F
  0
LAYER
  5
DB
330
2
100
AcDbSymbolTableRecord
100
AcDbLayerTableRecord
  2
Doc_ Floor
 70
     0
 62
     7
  6
Continuous
370
    -3
390
F
  0
ENDTAB
  0
TABLE
  2
STYLE
  5
3
330
0
100
AcDbSymbolTable
 70
     3
  0
STYLE
  5
11
330
3
100
AcDbSymbolTableRecord
100
AcDbTextStyleTableRecord
  2
Standard
 70
     0
 40
0.0
 41
1.0
 50
0.0
 71
     0
 42
0.2
  3
txt
  4

  0
STYLE
  5
D6
330
3
100
AcDbSymbolTableRecord
100
AcDbTextStyleTableRecord
  2
GENERATED_STYLE_1
 70
     0
 40
0.0
 41
1.0
 50
0.0
 71
     0
 42
0.2
  3

  4

1001
ACAD
1000
Century Gothic
1071
       34
  0
STYLE
  5
D9
330
3
100
AcDbSymbolTableRecord
100
AcDbTextStyleTableRecord
  2
GENERATED_STYLE_2
 70
     0
 40
0.0
 41
1.0
 50
0.0
 71
     0
 42
0.2
  3

  4

1001
ACAD
1000
DilleniaUPC
1071
 33554450
  0
ENDTAB
  0
TABLE
  2
VIEW
  5
6
330
0
100
AcDbSymbolTable
 70
     0
  0
ENDTAB
  0
TABLE
  2
UCS
  5
7
330
0
100
AcDbSymbolTable
 70
     0
  0
ENDTAB
  0
TABLE
  2
APPID
  5
9
330
0
100
AcDbSymbolTable
 70
     1
  0
APPID
  5
12
330
9
100
AcDbSymbolTableRecord
100
AcDbRegAppTableRecord
  2
ACAD
 70
     0
  0
ENDTAB
  0
TABLE
  2
DIMSTYLE
  5
A
330
0
100
AcDbSymbolTable
 70
     1
100
AcDbDimStyleTable
  0
DIMSTYLE
105
27
330
A
100
AcDbSymbolTableRecord
100
AcDbDimStyleTableRecord
  2
Standard
 70
     0
178
     0
340
11
  0
ENDTAB
  0
TABLE
  2
BLOCK_RECORD
  5
1
330
0
100
AcDbSymbolTable
 70
     3
  0
BLOCK_RECORD
  5
1F
330
1
100
AcDbSymbolTableRecord
100
AcDbBlockTableRecord
  2
*Model_Space
340
22
  0
BLOCK_RECORD
  5
1B
330
1
100
AcDbSymbolTableRecord
100
AcDbBlockTableRecord
  2
*Paper_Space
340
1E
  0
BLOCK_RECORD
  5
E3
330
1
100
AcDbSymbolTableRecord
100
AcDbBlockTableRecord
  2
Drawing_1_2
340
0
102
{BLKREFS
331
362
102
}
  0
BLOCK_RECORD
  5
366
330
1
100
AcDbSymbolTableRecord
100
AcDbBlockTableRecord
  2
R-TRSS-01 TYPICAL ROOF LAYOUT_STORY_MARKER
340
0
  0
ENDTAB
  0
ENDSEC
  0
SECTION
  2
BLOCKS
  0
BLOCK
  5
20
330
1F
100
AcDbEntity
  8
0
100
AcDbBlockBegin
  2
*Model_Space
 70
     0
 10
0.0
 20
0.0
 30
0.0
  3
*Model_Space
  1

  0
ENDBLK
  5
21
330
1F
100
AcDbEntity
  8
0
100
AcDbBlockEnd
  0
BLOCK
  5
1C
330
1B
100
AcDbEntity
 67
     1
  8
0
100
AcDbBlockBegin
  2
*Paper_Space
 70
     0
 10
0.0
 20
0.0
 30
0.0
  3
*Paper_Space
  1

  0
ENDBLK
  5
1D
330
1B
100
AcDbEntity
 67
     1
  8
0
100
AcDbBlockEnd
  0
BLOCK
  5
E4
330
E3
100
AcDbEntity
  8
0
100
AcDbBlockBegin
  2
Drawing_1_2
 70
     0
 10
-643.6738228358003
 20
301.9330324462474
 30
0.0
  3
Drawing_1_2
  1

  0
HATCH
  5
E6
330
E3
100
AcDbEntity
  8
0
  6
Continuous
 62
   255
370
     0
100
AcDbHatch
 10
0.0
 20
0.0
 30
0.0
210
0.0
220
0.0
230
1.0
  2
SOLID
 70
     1
 71
     0
 91
        1
 92
        3
 72
     0
 73
     1
 93
        4
 10
43.82847972647797
 20
128.4842110758557
 10
45.39131332548041
 20
119.6209412987458
 10
59.17862186765122
 20
122.0520157860828
 10
57.61578826864888
 20
130.9152855631927
 97
        0
 75
     0
 76
     1
 98
        0
  0
LINE
  5
E7
330
E3
100
AcDbEntity
  8
0
  6
Continuous
100
AcDbLine
 10
45.39131361371323
 20
119.6209402335143
 30
0.0
 11
57.61579020646599
 21
130.9152856943204
 31
0.0
  0
LINE
  5
E8
330
E3
100
AcDbEntity
  8
0
  6
Continuous
100
AcDbLine
 10
43.82847937561259
 20
128.4842120830677
 30
0.0
 11
59.17862023653299
 21
122.052013844767
 31
0.0
  0
LINE
  5
E9
330
E3
100
AcDbEntity
  8
0
  6
Continuous
100
AcDbLine
 10
43.82847937561259
 20
128.4842120830677
 30
0.0
 11
45.39131361371323
 21
119.6209402335143
 31
0.0
  0
LINE
  5
EA
330
E3
100
AcDbEntity
  8
0
  6
Continuous
100
AcDbLine
 10
45.39131361371323
 20
119.6209402335143
 30
0.0
 11
59.17862023653299
 21
122.052013844767
 31
0.0
  0
LINE
  5
EB
330
E3
100
AcDbEntity
  8
0
  6
Continuous
100
AcDbLine
 10
59.17862023653299
 20
122.052013844767
 30
0.0
 11
57.61579020646599
 21
130.9152856943204
 31
0.0
  0
LINE
  5
EC
330
E3
100
AcDbEntity
  8
0
  6
Continuous
100
AcDbLine
 10
57.61579020646599
 20
130.9152856943204
 30
0.0
 11
43.82847937561259
 21
128.4842120830677
 31
0.0
  0
HATCH
  5
ED
330
E3
100
AcDbEntity
  8
0
  6
Continuous
 62
   255
370
     0
100
AcDbHatch
 10
0.0
 20
0.0
 30
0.0
210
0.0
220
0.0
230
1.0
  2
SOLID
 70
     1
 71
     0
 91
        1
 92
        3
 72
     0
 73
     1
 93
        4
 10
221.0938752686755
 20
159.7408830559031
 10
222.6567088676778
 20
150.8776132787933
 10
236.4440174098488
 20
153.3086877661303
 10
234.8811838108466
 20
162.1719575432402
 97
        0
 75
     0
 76
     1
 98
        0
  0
LINE
  5
EE
330
E3
100
AcDbEntity
  8
0
  6
Continuous
100
AcDbLine
 10
222.6567085244452
 20
150.8776123714262
 30
0.0
 11
234.881185117198
 21
162.1719578322324
 31
0.0
  0
LINE
  5
EF
330
E3
100
AcDbEntity
  8
0
  6
Continuous
100
AcDbLine
 10
221.0938742863446
 20
159.7408842209796
 30
0.0
 11
236.4440193552986
 21
153.308685982679
 31
0.0
  0
LINE
  5
F0
330
E3
100
AcDbEntity
  8
0
  6
Continuous
100
AcDbLine
 10
221.0938742863446
 20
159.7408842209796
 30
0.0
 11
222.6567085244452
 21
150.8776123714262
 31
0.0
  0
LINE
  5
F1
330
E3
100
AcDbEntity
  8
0
  6
Continuous
100
AcDbLine
 10
222.6567085244452
 20
150.8776123714262
 30
0.0
 11
236.4440193552986
 21
153.308685982679
 31
0.0
  0
LINE
  5
F2
330
E3
100
AcDbEntity
  8
0
  6
Continuous
100
AcDbLine
 10
236.4440193552986
 20
153.308685982679
 30
0.0
 11
234.881185117198
 21
162.1719578322324
 31
0.0
  0
LINE
  5
F3
330
E3
100
AcDbEntity
  8
0
  6
Continuous
100
AcDbLine
 10
234.881185117198
 20
162.1719578322324
 30
0.0
 11
221.0938742863446
 21
159.7408842209796
 31
0.0
  0
HATCH
  5
F4
330
E3
100
AcDbEntity
  8
0
  6
Continuous
 62
   255
370
     0
100
AcDbHatch
 10
0.0
 20
0.0
 30
0.0
210
0.0
220
0.0
230
1.0
  2
SOLID
 70
     1
 71
     0
 91
        1
 92
        3
 72
     0
 73
     1
 93
        4
 10
289.3998676963678
 20
162.6462331096941
 10
7.003778369293737
 20
112.8521832725068
 10
7.003778369293737
 20
94.57450341317869
 10
289.3998676963678
 20
144.3685532503659
 97
        0
 75
     0
 76
     1
 98
        0
  0
LINE
  5
F5
330
E3
100
AcDbEntity
  8
0
  6
Continuous
100
AcDbLine
 10
7.003781038130782
 20
94.57450240864156
 30
0.0
 11
289.3998676000762
 21
144.3685533145305
 31
0.0
  0
LINE
  5
F6
330
E3
100
AcDbEntity
  8
0
  6
Continuous
100
AcDbLine
 10
289.3998686153169
 20
162.6462342437272
 30
0.0
 11
7.003777568339415
 21
112.8521833378382
 31
0.0
  0
HATCH
  5
F7
330
E3
100
AcDbEntity
  8
0
  6
Continuous
 62
   255
370
     0
100
AcDbHatch
 10
0.0
 20
0.0
 30
0.0
210
0.0
220
0.0
230
1.0
  2
SOLID
 70
     1
 71
     0
 91
        1
 92
        3
 72
     0
 73
     1
 93
        4
 10
289.399868709936
 20
74.42210450570916
 10
7.003780249644485
 20
74.42210450570916
 10
7.003780249644485
 20
56.42210632935122
 10
289.399868709936
 20
56.42210632935122
 97
        0
 75
     0
 76
     1
 98
        0
  0
LINE
  5
F8
330
E3
100
AcDbEntity
  8
0
  6
Continuous
100
AcDbLine
 10
7.003780249644485
 20
56.42210632935122
 30
0.0
 11
289.399868709936
 21
56.42210632935122
 31
0.0
  0
LINE
  5
F9
330
E3
100
AcDbEntity
  8
0
  6
Continuous
100
AcDbLine
 10
289.399868709936
 20
74.42210450570916
 30
0.0
 11
7.003780249644485
 21
74.42210450570916
 31
0.0
  0
HATCH
  5
FA
330
E3
100
AcDbEntity
  8
0
  6
Continuous
 62
   255
370
     0
100
AcDbHatch
 10
0.0
 20
0.0
 30
0.0
210
0.0
220
0.0
230
1.0
  2
SOLID
 70
     1
 71
     0
 91
        1
 92
        3
 72
     0
 73
     1
 93
        4
 10
281.7403532873554
 20
56.35239901145496
 10
281.7403532873554
 20
49.35239752958995
 10
289.3998656761827
 20
49.35239752958995
 10
289.3998656761827
 20
56.35239901145496
 97
        0
 75
     0
 76
     1
 98
        0
  0
LINE
  5
FB
330
E3
100
AcDbEntity
  8
0
  6
Continuous
100
AcDbLine
 10
289.3998656761827
 20
53.18215587526073
 30
0.0
 11
281.7403532873554
 21
49.35239752958995
 31
0.0
  0
LINE
  5
FC
330
E3
100
AcDbEntity
  8
0
  6
Continuous
100
AcDbLine
 10
289.3998656761827
 20
52.52264066578417
 30
0.0
 11
281.7403532873554
 21
56.35239901145496
 31
0.0
  0
LINE
  5
FD
330
E3
100
AcDbEntity
  8
0
  6
Continuous
100
AcDbLine
 10
289.3998656761827
 20
56.35239901145496
 30
0.0
 11
281.7403532873554
 21
56.35239901145496
 31
0.0
  0
LINE
  5
FE
330
E3
100
AcDbEntity
  8
0
  6
Continuous
100
AcDbLine
 10
281.7403532873554
 20
56.35239901145496
 30
0.0
 11
281.7403538934922
 21
49.35240035866842
 31
0.0
  0
LINE
  5
FF
330
E3
100
AcDbEntity
  8
0
  6
Continuous
100
AcDbLine
 10
281.7403538934922
 20
49.35240035866842
 30
0.0
 11
289.3998656761827
 21
49.35239752958995
 31
0.0
  0
LINE
  5
100
330
E3
100
AcDbEntity
  8
0
  6
Continuous
 62
   251
370
    35
100
AcDbLine
 10
10.31010277247199
 20
49.64687013681127
 30
0.0
 11
8.113345098461384
 21
50.3690486622778
 31
0.0
  0
LINE
  5
101
330
E3
100
AcDbEntity
  8
0
  6
Continuous
 62
   251
370
    35
100
AcDbLine
 10
8.113345098461384
 20
50.3690486622778
 30
0.0
 11
7.00377812381722
 21
51.54307853951887
 31
0.0
  0
LINE
  5
102
330
E3
100
AcDbEntity
  8
0
  6
Continuous
 62
   251
370
    35
100
AcDbLine
 10
7.003779798277991
 20
57.23210426652661
 30
0.0
 11
9.127233345651767
 21
60.28992064455992
 31
0.0
  0
LINE
  5
103
330
E3
100
AcDbEntity
  8
0
  6
Continuous
 62
   251
370
    35
100
AcDbLine
 10
9.127233345651767
 20
60.28992064455992
 30
0.0
 11
10.31010277247199
 21
63.0843713391066
 31
0.0
  0
LINE
  5
104
330
E3
100
AcDbEntity
  8
0
  6
Continuous
 62
   251
370
    35
100
AcDbLine
 10
10.31010277247199
 20
63.0843713391066
 30
0.0
 11
9.634178952789359
 21
65.28551378417133
 31
0.0
  0
LINE
  5
105
330
E3
100
AcDbEntity
  8
0
  6
Continuous
 62
   251
370
    35
100
AcDbLine
 10
9.634178952789359
 20
65.28551378417133
 30
0.0
 11
7.944363091532316
 21
67.02457626313115
 31
0.0
  0
LINE
  5
106
330
E3
100
AcDbEntity
  8
0
  6
Continuous
 62
   251
370
    35
100
AcDbLine
 10
7.944363091532316
 20
67.02457626313115
 30
0.0
 11
7.003777118489984
 21
67.37612814432701
 31
0.0
  0
LINE
  5
107
330
E3
100
AcDbEntity
  8
0
  6
Continuous
 62
   251
370
    35
100
AcDbLine
 10
10.31010277247199
 20
49.64687013681127
 30
0.0
 11
12.5068604464826
 21
50.3690486622778
 31
0.0
  0
LINE
  5
108
330
E3
100
AcDbEntity
  8
0
  6
Continuous
 62
   251
370
    35
100
AcDbLine
 10
12.5068604464826
 20
50.3690486622778
 30
0.0
 11
14.19667630773964
 21
52.1570379483837
 31
0.0
  0
LINE
  5
109
330
E3
100
AcDbEntity
  8
0
  6
Continuous
 62
   251
370
    35
100
AcDbLine
 10
14.19667630773964
 20
52.1570379483837
 30
0.0
 11
14.87260433545592
 21
54.40813396080294
 31
0.0
  0
LINE
  5
10A
330
E3
100
AcDbEntity
  8
0
  6
Continuous
 62
   251
370
    35
100
AcDbLine
 10
14.87260433545592
 20
54.40813396080294
 30
0.0
 11
13.68973449498608
 21
57.12654473317669
 31
0.0
  0
LINE
  5
10B
330
E3
100
AcDbEntity
  8
0
  6
Continuous
 62
   251
370
    35
100
AcDbLine
 10
13.68973449498608
 20
57.12654473317669
 30
0.0
 11
11.49297261294183
 21
60.28992139883663
 31
0.0
  0
LINE
  5
10C
330
E3
100
AcDbEntity
  8
0
  6
Continuous
 62
   251
370
    35
100
AcDbLine
 10
11.49297261294183
 20
60.28992139883663
 30
0.0
 11
10.31010277247199
 21
63.0843713391066
 31
0.0
  0
LINE
  5
10D
330
E3
100
AcDbEntity
  8
0
  6
Continuous
 62
   251
370
    35
100
AcDbLine
 10
10.31010277247199
 20
63.0843713391066
 30
0.0
 11
10.98603080018826
 21
65.28551378417133
 31
0.0
  0
LINE
  5
10E
330
E3
100
AcDbEntity
  8
0
  6
Continuous
 62
   251
370
    35
100
AcDbLine
 10
10.98603080018826
 20
65.28551378417133
 30
0.0
 11
12.67584245341166
 21
67.02457626313115
 31
0.0
  0
LINE
  5
10F
330
E3
100
AcDbEntity
  8
0
  6
Continuous
 62
   251
370
    35
100
AcDbLine
 10
12.67584245341166
 20
67.02457626313115
 30
0.0
 11
14.87260433545592
 21
67.84563516309827
 31
0.0
  0
LINE
  5
110
330
E3
100
AcDbEntity
  8
0
  6
Continuous
 62
   251
370
    35
100
AcDbLine
 10
19.4351016904062
 20
50.43024609552156
 30
0.0
 11
17.23834401639559
 21
50.7781831491093
 31
0.0
  0
LINE
  5
111
330
E3
100
AcDbEntity
  8
0
  6
Continuous
 62
   251
370
    35
100
AcDbLine
 10
17.23834401639559
 20
50.7781831491093
 30
0.0
 11
15.54852815513855
 21
52.27421906118978
 31
0.0
  0
LINE
  5
112
330
E3
100
AcDbEntity
  8
0
  6
Continuous
 62
   251
370
    35
100
AcDbLine
 10
15.54852815513855
 20
52.27421906118978
 30
0.0
 11
14.87260433545592
 21
54.40813396080294
 31
0.0
  0
LINE
  5
113
330
E3
100
AcDbEntity
  8
0
  6
Continuous
 62
   251
370
    35
100
AcDbLine
 10
14.87260433545592
 20
54.40813396080294
 30
0.0
 11
16.05547417592575
 21
57.33151805183881
 31
0.0
  0
LINE
  5
114
330
E3
100
AcDbEntity
  8
0
  6
Continuous
 62
   251
370
    35
100
AcDbLine
 10
16.05547417592575
 20
57.33151805183881
 30
0.0
 11
18.25223184993636
 21
60.8727887625781
 31
0.0
  0
LINE
  5
115
330
E3
100
AcDbEntity
  8
0
  6
Continuous
 62
   251
370
    35
100
AcDbLine
 10
18.25223184993636
 20
60.8727887625781
 30
0.0
 11
19.4351016904062
 21
63.86774729781688
 31
0.0
  0
LINE
  5
116
330
E3
100
AcDbEntity
  8
0
  6
Continuous
 62
   251
370
    35
100
AcDbLine
 10
19.4351016904062
 20
63.86774729781688
 30
0.0
 11
18.75917787072357
 21
65.95464162952344
 31
0.0
  0
LINE
  5
117
330
E3
100
AcDbEntity
  8
0
  6
Continuous
 62
   251
370
    35
100
AcDbLine
 10
18.75917787072357
 20
65.95464162952344
 30
0.0
 11
17.06936200946652
 21
67.40462482143478
 31
0.0
  0
LINE
  5
118
330
E3
100
AcDbEntity
  8
0
  6
Continuous
 62
   251
370
    35
100
AcDbLine
 10
17.06936200946652
 20
67.40462482143478
 30
0.0
 11
14.87260433545592
 21
67.84563516309827
 31
0.0
  0
LINE
  5
119
330
E3
100
AcDbEntity
  8
0
  6
Continuous
 62
   251
370
    35
100
AcDbLine
 10
19.4351016904062
 20
50.43024609552156
 30
0.0
 11
21.63186357245045
 21
51.51596085528372
 31
0.0
  0
LINE
  5
11A
330
E3
100
AcDbEntity
  8
0
  6
Continuous
 62
   251
370
    35
100
AcDbLine
 10
21.63186357245045
 20
51.51596085528372
 30
0.0
 11
23.32167943370749
 21
53.57318013375263
 31
0.0
  0
LINE
  5
11B
330
E3
100
AcDbEntity
  8
0
  6
Continuous
 62
   251
370
    35
100
AcDbLine
 10
23.32167943370749
 20
53.57318013375263
 30
0.0
 11
23.99760325339012
 21
55.92887523839079
 31
0.0
  0
LINE
  5
11C
330
E3
100
AcDbEntity
  8
0
  6
Continuous
 62
   251
370
    35
100
AcDbLine
 10
23.99760325339012
 20
55.92887523839079
 30
0.0
 11
22.81473341292029
 21
58.4630204256507
 31
0.0
  0
LINE
  5
11D
330
E3
100
AcDbEntity
  8
0
  6
Continuous
 62
   251
370
    35
100
AcDbLine
 10
22.81473341292029
 20
58.4630204256507
 30
0.0
 11
20.61797573890968
 21
61.27070042368855
 31
0.0
  0
LINE
  5
11E
330
E3
100
AcDbEntity
  8
0
  6
Continuous
 62
   251
370
    35
100
AcDbLine
 10
20.61797573890968
 20
61.27070042368855
 30
0.0
 11
19.4351016904062
 21
63.86774729781688
 31
0.0
  0
LINE
  5
11F
330
E3
100
AcDbEntity
  8
0
  6
Continuous
 62
   251
370
    35
100
AcDbLine
 10
19.4351016904062
 20
63.86774729781688
 30
0.0
 11
20.11102971812247
 21
66.18211951209862
 31
0.0
  0
LINE
  5
120
330
E3
100
AcDbEntity
  8
0
  6
Continuous
 62
   251
370
    35
100
AcDbLine
 10
20.11102971812247
 20
66.18211951209862
 30
0.0
 11
21.80084557937952
 21
68.19886592300661
 31
0.0
  0
LINE
  5
121
330
E3
100
AcDbEntity
  8
0
  6
Continuous
 62
   251
370
    35
100
AcDbLine
 10
21.80084557937952
 20
68.19886592300661
 30
0.0
 11
23.99760325339012
 21
69.36637644068614
 31
0.0
  0
LINE
  5
122
330
E3
100
AcDbEntity
  8
0
  6
Continuous
 62
   251
370
    35
100
AcDbLine
 10
28.56010481637405
 20
52.59904559402013
 30
0.0
 11
26.3633429343298
 21
52.64865831064971
 31
0.0
  0
LINE
  5
123
330
E3
100
AcDbEntity
  8
0
  6
Continuous
 62
   251
370
    35
100
AcDbLine
 10
26.3633429343298
 20
52.64865831064971
 30
0.0
 11
24.6735312811064
 21
53.89759427928615
 31
0.0
  0
LINE
  5
124
330
E3
100
AcDbEntity
  8
0
  6
Continuous
 62
   251
370
    35
100
AcDbLine
 10
24.6735312811064
 20
53.89759427928615
 30
0.0
 11
23.99760325339012
 21
55.92887523839079
 31
0.0
  0
LINE
  5
125
330
E3
100
AcDbEntity
  8
0
  6
Continuous
 62
   251
370
    35
100
AcDbLine
 10
23.99760325339012
 20
55.92887523839079
 30
0.0
 11
25.18047309385996
 21
59.03049480233271
 31
0.0
  0
LINE
  5
126
330
E3
100
AcDbEntity
  8
0
  6
Continuous
 62
   251
370
    35
100
AcDbLine
 10
25.18047309385996
 20
59.03049480233271
 30
0.0
 11
27.37723497590421
 21
62.88438454030928
 31
0.0
  0
LINE
  5
127
330
E3
100
AcDbEntity
  8
0
  6
Continuous
 62
   251
370
    35
100
AcDbLine
 10
27.37723497590421
 20
62.88438454030928
 30
0.0
 11
28.56010481637405
 21
66.03654258828182
 31
0.0
  0
LINE
  5
128
330
E3
100
AcDbEntity
  8
0
  6
Continuous
 62
   251
370
    35
100
AcDbLine
 10
28.56010481637405
 20
66.03654258828182
 30
0.0
 11
27.88417678865778
 21
68.03462216195751
 31
0.0
  0
LINE
  5
129
330
E3
100
AcDbEntity
  8
0
  6
Continuous
 62
   251
370
    35
100
AcDbLine
 10
27.88417678865778
 20
68.03462216195751
 30
0.0
 11
26.19436092740073
 21
69.25104265464853
 31
0.0
  0
LINE
  5
12A
330
E3
100
AcDbEntity
  8
0
  6
Continuous
 62
   251
370
    35
100
AcDbLine
 10
26.19436092740073
 20
69.25104265464853
 30
0.0
 11
23.99760325339012
 21
69.36637644068614
 31
0.0
  0
LINE
  5
12B
330
E3
100
AcDbEntity
  8
0
  6
Continuous
 62
   251
370
    35
100
AcDbLine
 10
28.56010481637405
 20
52.59904559402013
 30
0.0
 11
30.75686249038466
 21
53.95343909373832
 31
0.0
  0
LINE
  5
12C
330
E3
100
AcDbEntity
  8
0
  6
Continuous
 62
   251
370
    35
100
AcDbLine
 10
30.75686249038466
 20
53.95343909373832
 30
0.0
 11
32.4466783516417
 21
56.1948440046819
 31
0.0
  0
LINE
  5
12D
330
E3
100
AcDbEntity
  8
0
  6
Continuous
 62
   251
370
    35
100
AcDbLine
 10
32.4466783516417
 20
56.1948440046819
 30
0.0
 11
33.12260217132433
 21
58.61835157144776
 31
0.0
  0
LINE
  5
12E
330
E3
100
AcDbEntity
  8
0
  6
Continuous
 62
   251
370
    35
100
AcDbLine
 10
33.12260217132433
 20
58.61835157144776
 30
0.0
 11
31.93973233085449
 21
61.03159153612913
 31
0.0
  0
LINE
  5
12F
330
E3
100
AcDbEntity
  8
0
  6
Continuous
 62
   251
370
    35
100
AcDbLine
 10
31.93973233085449
 20
61.03159153612913
 30
0.0
 11
29.74297465684389
 21
63.5880982141583
 31
0.0
  0
LINE
  5
130
330
E3
100
AcDbEntity
  8
0
  6
Continuous
 62
   251
370
    35
100
AcDbLine
 10
29.74297465684389
 20
63.5880982141583
 30
0.0
 11
28.56010481637405
 21
66.03654258828182
 31
0.0
  0
LINE
  5
131
330
E3
100
AcDbEntity
  8
0
  6
Continuous
 62
   251
370
    35
100
AcDbLine
 10
28.56010481637405
 20
66.03654258828182
 30
0.0
 11
29.23602863605668
 21
68.43692280215575
 31
0.0
  0
LINE
  5
132
330
E3
100
AcDbEntity
  8
0
  6
Continuous
 62
   251
370
    35
100
AcDbLine
 10
29.23602863605668
 20
68.43692280215575
 30
0.0
 11
30.92584449731373
 21
70.65567586800881
 31
0.0
  0
LINE
  5
133
330
E3
100
AcDbEntity
  8
0
  6
Continuous
 62
   251
370
    35
100
AcDbLine
 10
30.92584449731373
 20
70.65567586800881
 30
0.0
 11
33.12260217132433
 21
72.0558527737431
 31
0.0
  0
LINE
  5
134
330
E3
100
AcDbEntity
  8
0
  6
Continuous
 62
   251
370
    35
100
AcDbLine
 10
37.68510373430826
 20
55.65124180284634
 30
0.0
 11
35.48834606029764
 21
55.54751377359111
 31
0.0
  0
LINE
  5
135
330
E3
100
AcDbEntity
  8
0
  6
Continuous
 62
   251
370
    35
100
AcDbLine
 10
35.48834606029764
 20
55.54751377359111
 30
0.0
 11
33.79853019904061
 21
56.65139882261591
 31
0.0
  0
LINE
  5
136
330
E3
100
AcDbEntity
  8
0
  6
Continuous
 62
   251
370
    35
100
AcDbLine
 10
33.79853019904061
 20
56.65139882261591
 30
0.0
 11
33.12260217132433
 21
58.61835157144776
 31
0.0
  0
LINE
  5
137
330
E3
100
AcDbEntity
  8
0
  6
Continuous
 62
   251
370
    35
100
AcDbLine
 10
33.12260217132433
 20
58.61835157144776
 30
0.0
 11
34.30547201179417
 21
61.83021320072145
 31
0.0
  0
LINE
  5
138
330
E3
100
AcDbEntity
  8
0
  6
Continuous
 62
   251
370
    35
100
AcDbLine
 10
34.30547201179417
 20
61.83021320072145
 30
0.0
 11
36.50223389383842
 21
65.85907718553213
 31
0.0
  0
LINE
  5
139
330
E3
100
AcDbEntity
  8
0
  6
Continuous
 62
   251
370
    35
100
AcDbLine
 10
36.50223389383842
 20
65.85907718553213
 30
0.0
 11
37.68510373430826
 21
69.08874300514167
 31
0.0
  0
LINE
  5
13A
330
E3
100
AcDbEntity
  8
0
  6
Continuous
 62
   251
370
    35
100
AcDbLine
 10
37.68510373430826
 20
69.08874300514167
 30
0.0
 11
37.00917570659198
 21
71.04399742045102
 31
0.0
  0
LINE
  5
13B
330
E3
100
AcDbEntity
  8
0
  6
Continuous
 62
   251
370
    35
100
AcDbLine
 10
37.00917570659198
 20
71.04399742045102
 30
0.0
 11
35.31936405336858
 21
72.1364282019045
 31
0.0
  0
LINE
  5
13C
330
E3
100
AcDbEntity
  8
0
  6
Continuous
 62
   251
370
    35
100
AcDbLine
 10
35.31936405336858
 20
72.1364282019045
 30
0.0
 11
33.12260217132433
 21
72.0558527737431
 31
0.0
  0
LINE
  5
13D
330
E3
100
AcDbEntity
  8
0
  6
Continuous
 62
   251
370
    35
100
AcDbLine
 10
37.68510373430826
 20
55.65124180284634
 30
0.0
 11
39.88186140831886
 21
57.11395008848861
 31
0.0
  0
LINE
  5
13E
330
E3
100
AcDbEntity
  8
0
  6
Continuous
 62
   251
370
    35
100
AcDbLine
 10
39.88186140831886
 20
57.11395008848861
 30
0.0
 11
41.57167726957591
 21
59.32033574347026
 31
0.0
  0
LINE
  5
13F
330
E3
100
AcDbEntity
  8
0
  6
Continuous
 62
   251
370
    35
100
AcDbLine
 10
41.57167726957591
 20
59.32033574347026
 30
0.0
 11
42.24760529729218
 21
61.70613091274382
 31
0.0
  0
LINE
  5
140
330
E3
100
AcDbEntity
  8
0
  6
Continuous
 62
   251
370
    35
100
AcDbLine
 10
42.24760529729218
 20
61.70613091274382
 30
0.0
 11
41.0647312487887
 21
64.17482013671508
 31
0.0
  0
LINE
  5
141
330
E3
100
AcDbEntity
  8
0
  6
Continuous
 62
   251
370
    35
100
AcDbLine
 10
41.0647312487887
 20
64.17482013671508
 30
0.0
 11
38.86797357477809
 21
66.70569988986944
 31
0.0
  0
LINE
  5
142
330
E3
100
AcDbEntity
  8
0
  6
Continuous
 62
   251
370
    35
100
AcDbLine
 10
38.86797357477809
 20
66.70569988986944
 30
0.0
 11
37.68510373430826
 21
69.08874300514167
 31
0.0
  0
LINE
  5
143
330
E3
100
AcDbEntity
  8
0
  6
Continuous
 62
   251
370
    35
100
AcDbLine
 10
37.68510373430826
 20
69.08874300514167
 30
0.0
 11
38.36102755399089
 21
71.52799703379284
 31
0.0
  0
LINE
  5
144
330
E3
100
AcDbEntity
  8
0
  6
Continuous
 62
   251
370
    35
100
AcDbLine
 10
38.36102755399089
 20
71.52799703379284
 30
0.0
 11
40.05084341524793
 21
73.81515168648338
 31
0.0
  0
LINE
  5
145
330
E3
100
AcDbEntity
  8
0
  6
Continuous
 62
   251
370
    35
100
AcDbLine
 10
40.05084341524793
 20
73.81515168648338
 30
0.0
 11
42.24760529729218
 21
75.14362790700551
 31
0.0
  0
LINE
  5
146
330
E3
100
AcDbEntity
  8
0
  6
Continuous
 62
   251
370
    35
100
AcDbLine
 10
46.81010265224247
 20
57.8154840009115
 30
0.0
 11
44.61334497823186
 21
58.32472340003316
 31
0.0
  0
LINE
  5
147
330
E3
100
AcDbEntity
  8
0
  6
Continuous
 62
   251
370
    35
100
AcDbLine
 10
44.61334497823186
 20
58.32472340003316
 30
0.0
 11
42.92352911697481
 21
59.68168380027246
 31
0.0
  0
LINE
  5
148
330
E3
100
AcDbEntity
  8
0
  6
Continuous
 62
   251
370
    35
100
AcDbLine
 10
42.92352911697481
 20
59.68168380027246
 30
0.0
 11
42.24760529729218
 21
61.70613091274382
 31
0.0
  0
LINE
  5
149
330
E3
100
AcDbEntity
  8
0
  6
Continuous
 62
   251
370
    35
100
AcDbLine
 10
42.24760529729218
 20
61.70613091274382
 30
0.0
 11
43.43047513776202
 21
64.80217904014481
 31
0.0
  0
LINE
  5
14A
330
E3
100
AcDbEntity
  8
0
  6
Continuous
 62
   251
370
    35
100
AcDbLine
 10
43.43047513776202
 20
64.80217904014481
 30
0.0
 11
45.62723281177263
 21
68.39607962763439
 31
0.0
  0
LINE
  5
14B
330
E3
100
AcDbEntity
  8
0
  6
Continuous
 62
   251
370
    35
100
AcDbLine
 10
45.62723281177263
 20
68.39607962763439
 30
0.0
 11
46.81010265224247
 21
71.25298099517319
 31
0.0
  0
LINE
  5
14C
330
E3
100
AcDbEntity
  8
0
  6
Continuous
 62
   251
370
    35
100
AcDbLine
 10
46.81010265224247
 20
71.25298099517319
 30
0.0
 11
46.13417883255984
 21
73.43366818870811
 31
0.0
  0
LINE
  5
14D
330
E3
100
AcDbEntity
  8
0
  6
Continuous
 62
   251
370
    35
100
AcDbLine
 10
46.13417883255984
 20
73.43366818870811
 30
0.0
 11
44.44436297130278
 21
74.94686867001097
 31
0.0
  0
LINE
  5
14E
330
E3
100
AcDbEntity
  8
0
  6
Continuous
 62
   251
370
    35
100
AcDbLine
 10
44.44436297130278
 20
74.94686867001097
 30
0.0
 11
42.24760529729218
 21
75.14362790700551
 31
0.0
  0
LINE
  5
14F
330
E3
100
AcDbEntity
  8
0
  6
Continuous
 62
   251
370
    35
100
AcDbLine
 10
46.81010265224247
 20
57.8154840009115
 30
0.0
 11
49.21751028229715
 21
58.35685594491724
 31
0.0
  0
LINE
  5
150
330
E3
100
AcDbEntity
  8
0
  6
Continuous
 62
   251
370
    35
100
AcDbLine
 10
49.21751028229715
 20
58.35685594491724
 30
0.0
 11
51.06936068694167
 21
59.81584012078709
 31
0.0
  0
LINE
  5
151
330
E3
100
AcDbEntity
  8
0
  6
Continuous
 62
   251
370
    35
100
AcDbLine
 10
51.06936068694167
 20
59.81584012078709
 30
0.0
 11
51.81010505683312
 21
62.02292010131952
 31
0.0
  0
LINE
  5
152
330
E3
100
AcDbEntity
  8
0
  6
Continuous
 62
   251
370
    35
100
AcDbLine
 10
51.81010505683312
 20
62.02292010131952
 30
0.0
 11
50.51380766956514
 21
64.98879270803043
 31
0.0
  0
LINE
  5
153
330
E3
100
AcDbEntity
  8
0
  6
Continuous
 62
   251
370
    35
100
AcDbLine
 10
50.51380766956514
 20
64.98879270803043
 30
0.0
 11
48.10640003951045
 21
68.12703899678523
 31
0.0
  0
LINE
  5
154
330
E3
100
AcDbEntity
  8
0
  6
Continuous
 62
   251
370
    35
100
AcDbLine
 10
48.10640003951045
 20
68.12703899678523
 30
0.0
 11
46.81010265224247
 21
70.8154843616001
 31
0.0
  0
LINE
  5
155
330
E3
100
AcDbEntity
  8
0
  6
Continuous
 62
   251
370
    35
100
AcDbLine
 10
46.81010265224247
 20
70.8154843616001
 30
0.0
 11
47.55084281410027
 21
73.20359394937631
 31
0.0
  0
LINE
  5
156
330
E3
100
AcDbEntity
  8
0
  6
Continuous
 62
   251
370
    35
100
AcDbLine
 10
47.55084281410027
 20
73.20359394937631
 30
0.0
 11
49.40269742677842
 21
74.84442409101632
 31
0.0
  0
LINE
  5
157
330
E3
100
AcDbEntity
  8
0
  6
Continuous
 62
   251
370
    35
100
AcDbLine
 10
49.40269742677842
 20
74.84442409101632
 30
0.0
 11
51.81010505683312
 21
75.02292046200812
 31
0.0
  0
LINE
  5
158
330
E3
100
AcDbEntity
  8
0
  6
Continuous
 62
   251
370
    35
100
AcDbLine
 10
56.81010325339013
 20
55.41927815640965
 30
0.0
 11
54.40269562333544
 21
56.95879988813812
 31
0.0
  0
LINE
  5
159
330
E3
100
AcDbEntity
  8
0
  6
Continuous
 62
   251
370
    35
100
AcDbLine
 10
54.40269562333544
 20
56.95879988813812
 30
0.0
 11
52.55084521869092
 21
59.39843684785065
 31
0.0
  0
LINE
  5
15A
330
E3
100
AcDbEntity
  8
0
  6
Continuous
 62
   251
370
    35
100
AcDbLine
 10
52.55084521869092
 20
59.39843684785065
 30
0.0
 11
51.81010505683312
 21
62.02292010131952
 31
0.0
  0
LINE
  5
15B
330
E3
100
AcDbEntity
  8
0
  6
Continuous
 62
   251
370
    35
100
AcDbLine
 10
51.81010505683312
 20
62.02292010131952
 30
0.0
 11
53.10639823606746
 21
64.2652676117987
 31
0.0
  0
LINE
  5
15C
330
E3
100
AcDbEntity
  8
0
  6
Continuous
 62
   251
370
    35
100
AcDbLine
 10
53.10639823606746
 20
64.2652676117987
 30
0.0
 11
55.51380586612215
 21
66.21880094134883
 31
0.0
  0
LINE
  5
15D
330
E3
100
AcDbEntity
  8
0
  6
Continuous
 62
   251
370
    35
100
AcDbLine
 10
55.51380586612215
 20
66.21880094134883
 30
0.0
 11
56.81010325339013
 21
68.41927851709825
 31
0.0
  0
LINE
  5
15E
330
E3
100
AcDbEntity
  8
0
  6
Continuous
 62
   251
370
    35
100
AcDbLine
 10
56.81010325339013
 20
68.41927851709825
 30
0.0
 11
56.06936309153232
 21
71.07155583276715
 31
0.0
  0
LINE
  5
15F
330
E3
100
AcDbEntity
  8
0
  6
Continuous
 62
   251
370
    35
100
AcDbLine
 10
56.06936309153232
 20
71.07155583276715
 30
0.0
 11
54.21751268688781
 21
73.53900368681427
 31
0.0
  0
LINE
  5
160
330
E3
100
AcDbEntity
  8
0
  6
Continuous
 62
   251
370
    35
100
AcDbLine
 10
54.21751268688781
 20
73.53900368681427
 30
0.0
 11
51.81010505683312
 21
75.02292046200812
 31
0.0
  0
LINE
  5
161
330
E3
100
AcDbEntity
  8
0
  6
Continuous
 62
   251
370
    35
100
AcDbLine
 10
56.81010325339013
 20
55.41927815640965
 30
0.0
 11
59.21751088344482
 21
55.3743069008863
 31
0.0
  0
LINE
  5
162
330
E3
100
AcDbEntity
  8
0
  6
Continuous
 62
   251
370
    35
100
AcDbLine
 10
59.21751088344482
 20
55.3743069008863
 30
0.0
 11
61.06936128808934
 21
56.63714200463958
 31
0.0
  0
LINE
  5
163
330
E3
100
AcDbEntity
  8
0
  6
Continuous
 62
   251
370
    35
100
AcDbLine
 10
61.06936128808934
 20
56.63714200463958
 30
0.0
 11
61.81010144994714
 21
58.8138441903163
 31
0.0
  0
LINE
  5
164
330
E3
100
AcDbEntity
  8
0
  6
Continuous
 62
   251
370
    35
100
AcDbLine
 10
61.81010144994714
 20
58.8138441903163
 30
0.0
 11
60.5138082707128
 21
61.84915776817405
 31
0.0
  0
LINE
  5
165
330
E3
100
AcDbEntity
  8
0
  6
Continuous
 62
   251
370
    35
100
AcDbLine
 10
60.5138082707128
 20
61.84915776817405
 30
0.0
 11
58.10640064065812
 21
65.3642881739343
 31
0.0
  0
LINE
  5
166
330
E3
100
AcDbEntity
  8
0
  6
Continuous
 62
   251
370
    35
100
AcDbLine
 10
58.10640064065812
 20
65.3642881739343
 30
0.0
 11
56.81010325339013
 21
68.41927851709825
 31
0.0
  0
LINE
  5
167
330
E3
100
AcDbEntity
  8
0
  6
Continuous
 62
   251
370
    35
100
AcDbLine
 10
56.81010325339013
 20
68.41927851709825
 30
0.0
 11
57.55084341524794
 21
70.58305362342925
 31
0.0
  0
LINE
  5
168
330
E3
100
AcDbEntity
  8
0
  6
Continuous
 62
   251
370
    35
100
AcDbLine
 10
57.55084341524794
 20
70.58305362342925
 30
0.0
 11
59.40269381989246
 21
71.8332267539562
 31
0.0
  0
LINE
  5
169
330
E3
100
AcDbEntity
  8
0
  6
Continuous
 62
   251
370
    35
100
AcDbLine
 10
59.40269381989246
 20
71.8332267539562
 30
0.0
 11
61.81010144994714
 21
71.81384455100489
 31
0.0
  0
LINE
  5
16A
330
E3
100
AcDbEntity
  8
0
  6
Continuous
 62
   251
370
    35
100
AcDbLine
 10
66.8101038545378
 20
52.35508484367244
 30
0.0
 11
64.40269622448311
 21
53.77443355067594
 31
0.0
  0
LINE
  5
16B
330
E3
100
AcDbEntity
  8
0
  6
Continuous
 62
   251
370
    35
100
AcDbLine
 10
64.40269622448311
 20
53.77443355067594
 30
0.0
 11
62.55084581983858
 21
56.17896709375371
 31
0.0
  0
LINE
  5
16C
330
E3
100
AcDbEntity
  8
0
  6
Continuous
 62
   251
370
    35
100
AcDbLine
 10
62.55084581983858
 20
56.17896709375371
 30
0.0
 11
61.81010144994714
 21
58.8138441903163
 31
0.0
  0
LINE
  5
16D
330
E3
100
AcDbEntity
  8
0
  6
Continuous
 62
   251
370
    35
100
AcDbLine
 10
61.81010144994714
 20
58.8138441903163
 30
0.0
 11
63.10639883721512
 21
61.04769568087395
 31
0.0
  0
LINE
  5
16E
330
E3
100
AcDbEntity
  8
0
  6
Continuous
 62
   251
370
    35
100
AcDbLine
 10
63.10639883721512
 20
61.04769568087395
 30
0.0
 11
65.51380646726982
 21
63.08479214247072
 31
0.0
  0
LINE
  5
16F
330
E3
100
AcDbEntity
  8
0
  6
Continuous
 62
   251
370
    35
100
AcDbLine
 10
65.51380646726982
 20
63.08479214247072
 30
0.0
 11
66.8101038545378
 21
65.35508520436103
 31
0.0
  0
LINE
  5
170
330
E3
100
AcDbEntity
  8
0
  6
Continuous
 62
   251
370
    35
100
AcDbLine
 10
66.8101038545378
 20
65.35508520436103
 30
0.0
 11
66.06936369267999
 21
67.96602279753893
 31
0.0
  0
LINE
  5
171
330
E3
100
AcDbEntity
  8
0
  6
Continuous
 62
   251
370
    35
100
AcDbLine
 10
66.06936369267999
 20
67.96602279753893
 30
0.0
 11
64.21750908000183
 21
70.347109177168
 31
0.0
  0
LINE
  5
172
330
E3
100
AcDbEntity
  8
0
  6
Continuous
 62
   251
370
    35
100
AcDbLine
 10
64.21750908000183
 20
70.347109177168
 30
0.0
 11
61.81010144994714
 21
71.81384455100489
 31
0.0
  0
LINE
  5
173
330
E3
100
AcDbEntity
  8
0
  6
Continuous
 62
   251
370
    35
100
AcDbLine
 10
66.8101038545378
 20
52.35508484367244
 30
0.0
 11
69.21751148459249
 21
52.47047333414736
 31
0.0
  0
LINE
  5
174
330
E3
100
AcDbEntity
  8
0
  6
Continuous
 62
   251
370
    35
100
AcDbLine
 10
69.21751148459249
 20
52.47047333414736
 30
0.0
 11
71.06936188923702
 21
53.88271046429728
 31
0.0
  0
LINE
  5
175
330
E3
100
AcDbEntity
  8
0
  6
Continuous
 62
   251
370
    35
100
AcDbLine
 10
71.06936188923702
 20
53.88271046429728
 30
0.0
 11
71.81010205109482
 21
56.12523471218942
 31
0.0
  0
LINE
  5
176
330
E3
100
AcDbEntity
  8
0
  6
Continuous
 62
   251
370
    35
100
AcDbLine
 10
71.81010205109482
 20
56.12523471218942
 30
0.0
 11
70.51380887186046
 21
59.04760466711777
 31
0.0
  0
LINE
  5
177
330
E3
100
AcDbEntity
  8
0
  6
Continuous
 62
   251
370
    35
100
AcDbLine
 10
70.51380887186046
 20
59.04760466711777
 30
0.0
 11
68.10640124180578
 21
62.38157080855772
 31
0.0
  0
LINE
  5
178
330
E3
100
AcDbEntity
  8
0
  6
Continuous
 62
   251
370
    35
100
AcDbLine
 10
68.10640124180578
 20
62.38157080855772
 30
0.0
 11
66.8101038545378
 21
65.35508520436103
 31
0.0
  0
LINE
  5
179
330
E3
100
AcDbEntity
  8
0
  6
Continuous
 62
   251
370
    35
100
AcDbLine
 10
66.8101038545378
 20
65.35508520436103
 30
0.0
 11
67.5508440163956
 21
67.5640083036283
 31
0.0
  0
LINE
  5
17A
330
E3
100
AcDbEntity
  8
0
  6
Continuous
 62
   251
370
    35
100
AcDbLine
 10
67.5508440163956
 20
67.5640083036283
 30
0.0
 11
69.40269442104011
 21
68.9433344026705
 31
0.0
  0
LINE
  5
17B
330
E3
100
AcDbEntity
  8
0
  6
Continuous
 62
   251
370
    35
100
AcDbLine
 10
69.40269442104011
 20
68.9433344026705
 30
0.0
 11
71.81010205109482
 21
69.12523507287801
 31
0.0
  0
LINE
  5
17C
330
E3
100
AcDbEntity
  8
0
  6
Continuous
 62
   251
370
    35
100
AcDbLine
 10
76.81010445568545
 20
50.19363257191137
 30
0.0
 11
74.40269682563077
 21
51.34194183208615
 31
0.0
  0
LINE
  5
17D
330
E3
100
AcDbEntity
  8
0
  6
Continuous
 62
   251
370
    35
100
AcDbLine
 10
74.40269682563077
 20
51.34194183208615
 30
0.0
 11
72.5508422129526
 21
53.55952085655334
 31
0.0
  0
LINE
  5
17E
330
E3
100
AcDbEntity
  8
0
  6
Continuous
 62
   251
370
    35
100
AcDbLine
 10
72.5508422129526
 20
53.55952085655334
 30
0.0
 11
71.81010205109482
 21
56.12523471218942
 31
0.0
  0
LINE
  5
17F
330
E3
100
AcDbEntity
  8
0
  6
Continuous
 62
   251
370
    35
100
AcDbLine
 10
71.81010205109482
 20
56.12523471218942
 30
0.0
 11
73.10639943836279
 21
58.4822595554582
 31
0.0
  0
LINE
  5
180
330
E3
100
AcDbEntity
  8
0
  6
Continuous
 62
   251
370
    35
100
AcDbLine
 10
73.10639943836279
 20
58.4822595554582
 30
0.0
 11
75.51380706841748
 21
60.77363907392449
 31
0.0
  0
LINE
  5
181
330
E3
100
AcDbEntity
  8
0
  6
Continuous
 62
   251
370
    35
100
AcDbLine
 10
75.51380706841748
 20
60.77363907392449
 30
0.0
 11
76.81010445568545
 21
63.19363293259997
 31
0.0
  0
LINE
  5
182
330
E3
100
AcDbEntity
  8
0
  6
Continuous
 62
   251
370
    35
100
AcDbLine
 10
76.81010445568545
 20
63.19363293259997
 30
0.0
 11
76.06936429382766
 21
65.71798181754318
 31
0.0
  0
LINE
  5
183
330
E3
100
AcDbEntity
  8
0
  6
Continuous
 62
   251
370
    35
100
AcDbLine
 10
76.06936429382766
 20
65.71798181754318
 30
0.0
 11
74.21750968114948
 21
67.89504589411305
 31
0.0
  0
LINE
  5
184
330
E3
100
AcDbEntity
  8
0
  6
Continuous
 62
   251
370
    35
100
AcDbLine
 10
74.21750968114948
 20
67.89504589411305
 30
0.0
 11
71.81010205109482
 21
69.12523507287801
 31
0.0
  0
LINE
  5
185
330
E3
100
AcDbEntity
  8
0
  6
Continuous
 62
   251
370
    35
100
AcDbLine
 10
76.81010445568545
 20
50.19363257191137
 30
0.0
 11
79.21751208574015
 21
50.60841844792298
 31
0.0
  0
LINE
  5
186
330
E3
100
AcDbEntity
  8
0
  6
Continuous
 62
   251
370
    35
100
AcDbLine
 10
79.21751208574015
 20
50.60841844792298
 30
0.0
 11
81.06936249038466
 21
52.26779760185334
 31
0.0
  0
LINE
  5
187
330
E3
100
AcDbEntity
  8
0
  6
Continuous
 62
   251
370
    35
100
AcDbLine
 10
81.06936249038466
 20
52.26779760185334
 30
0.0
 11
81.81010265224248
 21
54.61280009300924
 31
0.0
  0
LINE
  5
188
330
E3
100
AcDbEntity
  8
0
  6
Continuous
 62
   251
370
    35
100
AcDbLine
 10
81.81010265224248
 20
54.61280009300924
 30
0.0
 11
80.51380526497448
 21
57.35714076867998
 31
0.0
  0
LINE
  5
189
330
E3
100
AcDbEntity
  8
0
  6
Continuous
 62
   251
370
    35
100
AcDbLine
 10
80.51380526497448
 20
57.35714076867998
 30
0.0
 11
78.1063976349198
 21
60.37805024738396
 31
0.0
  0
LINE
  5
18A
330
E3
100
AcDbEntity
  8
0
  6
Continuous
 62
   251
370
    35
100
AcDbLine
 10
78.1063976349198
 20
60.37805024738396
 30
0.0
 11
76.81010445568545
 21
63.19363293259997
 31
0.0
  0
LINE
  5
18B
330
E3
100
AcDbEntity
  8
0
  6
Continuous
 62
   251
370
    35
100
AcDbLine
 10
76.81010445568545
 20
63.19363293259997
 30
0.0
 11
77.55084461754328
 21
65.49183367359862
 31
0.0
  0
LINE
  5
18C
330
E3
100
AcDbEntity
  8
0
  6
Continuous
 62
   251
370
    35
100
AcDbLine
 10
77.55084461754328
 20
65.49183367359862
 30
0.0
 11
79.40269502218777
 21
67.10537471707555
 31
0.0
  0
LINE
  5
18D
330
E3
100
AcDbEntity
  8
0
  6
Continuous
 62
   251
370
    35
100
AcDbLine
 10
79.40269502218777
 20
67.10537471707555
 30
0.0
 11
81.81010265224248
 21
67.61280045369786
 31
0.0
  0
LINE
  5
18E
330
E3
100
AcDbEntity
  8
0
  6
Continuous
 62
   251
370
    35
100
AcDbLine
 10
86.81010505683312
 20
49.41548299098343
 30
0.0
 11
84.40269742677845
 21
50.20213279986656
 31
0.0
  0
LINE
  5
18F
330
E3
100
AcDbEntity
  8
0
  6
Continuous
 62
   251
370
    35
100
AcDbLine
 10
84.40269742677845
 20
50.20213279986656
 30
0.0
 11
82.55084281410028
 21
52.15144547167456
 31
0.0
  0
LINE
  5
190
330
E3
100
AcDbEntity
  8
0
  6
Continuous
 62
   251
370
    35
100
AcDbLine
 10
82.55084281410028
 20
52.15144547167456
 30
0.0
 11
81.81010265224248
 21
54.61280009300924
 31
0.0
  0
LINE
  5
191
330
E3
100
AcDbEntity
  8
0
  6
Continuous
 62
   251
370
    35
100
AcDbLine
 10
81.81010265224248
 20
54.61280009300924
 30
0.0
 11
83.10640003951045
 21
57.15361080555679
 31
0.0
  0
LINE
  5
192
330
E3
100
AcDbEntity
  8
0
  6
Continuous
 62
   251
370
    35
100
AcDbLine
 10
83.10640003951045
 20
57.15361080555679
 30
0.0
 11
85.51380766956515
 21
59.79917209953435
 31
0.0
  0
LINE
  5
193
330
E3
100
AcDbEntity
  8
0
  6
Continuous
 62
   251
370
    35
100
AcDbLine
 10
85.51380766956515
 20
59.79917209953435
 30
0.0
 11
86.81010505683312
 21
62.41548335167202
 31
0.0
  0
LINE
  5
194
330
E3
100
AcDbEntity
  8
0
  6
Continuous
 62
   251
370
    35
100
AcDbLine
 10
86.81010505683312
 20
62.41548335167202
 30
0.0
 11
86.06936068694168
 21
64.82724208851171
 31
0.0
  0
LINE
  5
195
330
E3
100
AcDbEntity
  8
0
  6
Continuous
 62
   251
370
    35
100
AcDbLine
 10
86.06936068694168
 20
64.82724208851171
 30
0.0
 11
84.21751028229716
 21
66.72797721996588
 31
0.0
  0
LINE
  5
196
330
E3
100
AcDbEntity
  8
0
  6
Continuous
 62
   251
370
    35
100
AcDbLine
 10
84.21751028229716
 20
66.72797721996588
 30
0.0
 11
81.81010265224248
 21
67.61280045369786
 31
0.0
  0
LINE
  5
197
330
E3
100
AcDbEntity
  8
0
  6
Continuous
 62
   251
370
    35
100
AcDbLine
 10
86.81010505683312
 20
49.41548299098343
 30
0.0
 11
89.21751268688783
 21
50.20213279986656
 31
0.0
  0
LINE
  5
198
330
E3
100
AcDbEntity
  8
0
  6
Continuous
 62
   251
370
    35
100
AcDbLine
 10
89.21751268688783
 20
50.20213279986656
 30
0.0
 11
91.06936309153232
 21
52.15144547167456
 31
0.0
  0
LINE
  5
199
330
E3
100
AcDbEntity
  8
0
  6
Continuous
 62
   251
370
    35
100
AcDbLine
 10
91.06936309153232
 20
52.15144547167456
 30
0.0
 11
91.81010325339012
 21
54.61280009300924
 31
0.0
  0
LINE
  5
19A
330
E3
100
AcDbEntity
  8
0
  6
Continuous
 62
   251
370
    35
100
AcDbLine
 10
91.81010325339012
 20
54.61280009300924
 30
0.0
 11
90.51380586612215
 21
57.15361080555679
 31
0.0
  0
LINE
  5
19B
330
E3
100
AcDbEntity
  8
0
  6
Continuous
 62
   251
370
    35
100
AcDbLine
 10
90.51380586612215
 20
57.15361080555679
 30
0.0
 11
88.10639823606745
 21
59.79917209953435
 31
0.0
  0
LINE
  5
19C
330
E3
100
AcDbEntity
  8
0
  6
Continuous
 62
   251
370
    35
100
AcDbLine
 10
88.10639823606745
 20
59.79917209953435
 30
0.0
 11
86.81010505683312
 21
62.41548335167202
 31
0.0
  0
LINE
  5
19D
330
E3
100
AcDbEntity
  8
0
  6
Continuous
 62
   251
370
    35
100
AcDbLine
 10
86.81010505683312
 20
62.41548335167202
 30
0.0
 11
87.55084521869091
 21
64.82724208851171
 31
0.0
  0
LINE
  5
19E
330
E3
100
AcDbEntity
  8
0
  6
Continuous
 62
   251
370
    35
100
AcDbLine
 10
87.55084521869091
 20
64.82724208851171
 30
0.0
 11
89.40269562333545
 21
66.72797721996588
 31
0.0
  0
LINE
  5
19F
330
E3
100
AcDbEntity
  8
0
  6
Continuous
 62
   251
370
    35
100
AcDbLine
 10
89.40269562333545
 20
66.72797721996588
 30
0.0
 11
91.81010325339012
 21
67.61280045369786
 31
0.0
  0
LINE
  5
1A0
330
E3
100
AcDbEntity
  8
0
  6
Continuous
 62
   251
370
    35
100
AcDbLine
 10
96.81010144994714
 20
50.19363257191137
 30
0.0
 11
94.40269381989246
 21
50.60841844792298
 31
0.0
  0
LINE
  5
1A1
330
E3
100
AcDbEntity
  8
0
  6
Continuous
 62
   251
370
    35
100
AcDbLine
 10
94.40269381989246
 20
50.60841844792298
 30
0.0
 11
92.55084341524794
 21
52.26779760185334
 31
0.0
  0
LINE
  5
1A2
330
E3
100
AcDbEntity
  8
0
  6
Continuous
 62
   251
370
    35
100
AcDbLine
 10
92.55084341524794
 20
52.26779760185334
 30
0.0
 11
91.81010325339012
 21
54.61280009300924
 31
0.0
  0
LINE
  5
1A3
330
E3
100
AcDbEntity
  8
0
  6
Continuous
 62
   251
370
    35
100
AcDbLine
 10
91.81010325339012
 20
54.61280009300924
 30
0.0
 11
93.10640064065811
 21
57.35714076867998
 31
0.0
  0
LINE
  5
1A4
330
E3
100
AcDbEntity
  8
0
  6
Continuous
 62
   251
370
    35
100
AcDbLine
 10
93.10640064065811
 20
57.35714076867998
 30
0.0
 11
95.51380827071281
 21
60.37805024738396
 31
0.0
  0
LINE
  5
1A5
330
E3
100
AcDbEntity
  8
0
  6
Continuous
 62
   251
370
    35
100
AcDbLine
 10
95.51380827071281
 20
60.37805024738396
 30
0.0
 11
96.81010144994714
 21
63.19363293259997
 31
0.0
  0
LINE
  5
1A6
330
E3
100
AcDbEntity
  8
0
  6
Continuous
 62
   251
370
    35
100
AcDbLine
 10
96.81010144994714
 20
63.19363293259997
 30
0.0
 11
96.06936128808935
 21
65.49183367359862
 31
0.0
  0
LINE
  5
1A7
330
E3
100
AcDbEntity
  8
0
  6
Continuous
 62
   251
370
    35
100
AcDbLine
 10
96.06936128808935
 20
65.49183367359862
 30
0.0
 11
94.21751088344482
 21
67.10537471707555
 31
0.0
  0
LINE
  5
1A8
330
E3
100
AcDbEntity
  8
0
  6
Continuous
 62
   251
370
    35
100
AcDbLine
 10
94.21751088344482
 20
67.10537471707555
 30
0.0
 11
91.81010325339012
 21
67.61280045369786
 31
0.0
  0
LINE
  5
1A9
330
E3
100
AcDbEntity
  8
0
  6
Continuous
 62
   251
370
    35
100
AcDbLine
 10
96.81010144994714
 20
50.19363257191137
 30
0.0
 11
99.21750908000185
 21
51.34194183208615
 31
0.0
  0
LINE
  5
1AA
330
E3
100
AcDbEntity
  8
0
  6
Continuous
 62
   251
370
    35
100
AcDbLine
 10
99.21750908000185
 20
51.34194183208615
 30
0.0
 11
101.06936369268
 21
53.55952085655334
 31
0.0
  0
LINE
  5
1AB
330
E3
100
AcDbEntity
  8
0
  6
Continuous
 62
   251
370
    35
100
AcDbLine
 10
101.06936369268
 20
53.55952085655334
 30
0.0
 11
101.8101038545378
 21
56.12523471218942
 31
0.0
  0
LINE
  5
1AC
330
E3
100
AcDbEntity
  8
0
  6
Continuous
 62
   251
370
    35
100
AcDbLine
 10
101.8101038545378
 20
56.12523471218942
 30
0.0
 11
100.5138064672698
 21
58.4822595554582
 31
0.0
  0
LINE
  5
1AD
330
E3
100
AcDbEntity
  8
0
  6
Continuous
 62
   251
370
    35
100
AcDbLine
 10
100.5138064672698
 20
58.4822595554582
 30
0.0
 11
98.10639883721514
 21
60.77363907392449
 31
0.0
  0
LINE
  5
1AE
330
E3
100
AcDbEntity
  8
0
  6
Continuous
 62
   251
370
    35
100
AcDbLine
 10
98.10639883721514
 20
60.77363907392449
 30
0.0
 11
96.81010144994714
 21
63.19363293259997
 31
0.0
  0
LINE
  5
1AF
330
E3
100
AcDbEntity
  8
0
  6
Continuous
 62
   251
370
    35
100
AcDbLine
 10
96.81010144994714
 20
63.19363293259997
 30
0.0
 11
97.55084581983859
 21
65.71798181754318
 31
0.0
  0
LINE
  5
1B0
330
E3
100
AcDbEntity
  8
0
  6
Continuous
 62
   251
370
    35
100
AcDbLine
 10
97.55084581983859
 20
65.71798181754318
 30
0.0
 11
99.40269622448311
 21
67.89504589411305
 31
0.0
  0
LINE
  5
1B1
330
E3
100
AcDbEntity
  8
0
  6
Continuous
 62
   251
370
    35
100
AcDbLine
 10
99.40269622448311
 20
67.89504589411305
 30
0.0
 11
101.8101038545378
 21
69.12523507287801
 31
0.0
  0
LINE
  5
1B2
330
E3
100
AcDbEntity
  8
0
  6
Continuous
 62
   251
370
    35
100
AcDbLine
 10
106.8101020510948
 20
52.35508484367244
 30
0.0
 11
104.4026944210401
 21
52.47047333414736
 31
0.0
  0
LINE
  5
1B3
330
E3
100
AcDbEntity
  8
0
  6
Continuous
 62
   251
370
    35
100
AcDbLine
 10
104.4026944210401
 20
52.47047333414736
 30
0.0
 11
102.5508440163956
 21
53.88271046429728
 31
0.0
  0
LINE
  5
1B4
330
E3
100
AcDbEntity
  8
0
  6
Continuous
 62
   251
370
    35
100
AcDbLine
 10
102.5508440163956
 20
53.88271046429728
 30
0.0
 11
101.8101038545378
 21
56.12523471218942
 31
0.0
  0
LINE
  5
1B5
330
E3
100
AcDbEntity
  8
0
  6
Continuous
 62
   251
370
    35
100
AcDbLine
 10
101.8101038545378
 20
56.12523471218942
 30
0.0
 11
103.1064012418058
 21
59.04760466711777
 31
0.0
  0
LINE
  5
1B6
330
E3
100
AcDbEntity
  8
0
  6
Continuous
 62
   251
370
    35
100
AcDbLine
 10
103.1064012418058
 20
59.04760466711777
 30
0.0
 11
105.5138088718605
 21
62.38157080855772
 31
0.0
  0
LINE
  5
1B7
330
E3
100
AcDbEntity
  8
0
  6
Continuous
 62
   251
370
    35
100
AcDbLine
 10
105.5138088718605
 20
62.38157080855772
 30
0.0
 11
106.8101020510948
 21
65.35508520436103
 31
0.0
  0
LINE
  5
1B8
330
E3
100
AcDbEntity
  8
0
  6
Continuous
 62
   251
370
    35
100
AcDbLine
 10
106.8101020510948
 20
65.35508520436103
 30
0.0
 11
106.069361889237
 21
67.5640083036283
 31
0.0
  0
LINE
  5
1B9
330
E3
100
AcDbEntity
  8
0
  6
Continuous
 62
   251
370
    35
100
AcDbLine
 10
106.069361889237
 20
67.5640083036283
 30
0.0
 11
104.2175114845925
 21
68.9433344026705
 31
0.0
  0
LINE
  5
1BA
330
E3
100
AcDbEntity
  8
0
  6
Continuous
 62
   251
370
    35
100
AcDbLine
 10
104.2175114845925
 20
68.9433344026705
 30
0.0
 11
101.8101038545378
 21
69.12523507287801
 31
0.0
  0
LINE
  5
1BB
330
E3
100
AcDbEntity
  8
0
  6
Continuous
 62
   251
370
    35
100
AcDbLine
 10
106.8101020510948
 20
52.35508484367244
 30
0.0
 11
109.2175096811495
 21
53.77443355067594
 31
0.0
  0
LINE
  5
1BC
330
E3
100
AcDbEntity
  8
0
  6
Continuous
 62
   251
370
    35
100
AcDbLine
 10
109.2175096811495
 20
53.77443355067594
 30
0.0
 11
111.0693642938277
 21
56.17896709375371
 31
0.0
  0
LINE
  5
1BD
330
E3
100
AcDbEntity
  8
0
  6
Continuous
 62
   251
370
    35
100
AcDbLine
 10
111.0693642938277
 20
56.17896709375371
 30
0.0
 11
111.8101044556855
 21
58.8138441903163
 31
0.0
  0
LINE
  5
1BE
330
E3
100
AcDbEntity
  8
0
  6
Continuous
 62
   251
370
    35
100
AcDbLine
 10
111.8101044556855
 20
58.8138441903163
 30
0.0
 11
110.5138070684175
 21
61.04769568087395
 31
0.0
  0
LINE
  5
1BF
330
E3
100
AcDbEntity
  8
0
  6
Continuous
 62
   251
370
    35
100
AcDbLine
 10
110.5138070684175
 20
61.04769568087395
 30
0.0
 11
108.1063994383628
 21
63.08479214247072
 31
0.0
  0
LINE
  5
1C0
330
E3
100
AcDbEntity
  8
0
  6
Continuous
 62
   251
370
    35
100
AcDbLine
 10
108.1063994383628
 20
63.08479214247072
 30
0.0
 11
106.8101020510948
 21
65.35508520436103
 31
0.0
  0
LINE
  5
1C1
330
E3
100
AcDbEntity
  8
0
  6
Continuous
 62
   251
370
    35
100
AcDbLine
 10
106.8101020510948
 20
65.35508520436103
 30
0.0
 11
107.5508422129526
 21
67.96602279753893
 31
0.0
  0
LINE
  5
1C2
330
E3
100
AcDbEntity
  8
0
  6
Continuous
 62
   251
370
    35
100
AcDbLine
 10
107.5508422129526
 20
67.96602279753893
 30
0.0
 11
109.4026968256308
 21
70.347109177168
 31
0.0
  0
LINE
  5
1C3
330
E3
100
AcDbEntity
  8
0
  6
Continuous
 62
   251
370
    35
100
AcDbLine
 10
109.4026968256308
 20
70.347109177168
 30
0.0
 11
111.8101044556855
 21
71.81384455100489
 31
0.0
  0
LINE
  5
1C4
330
E3
100
AcDbEntity
  8
0
  6
Continuous
 62
   251
370
    35
100
AcDbLine
 10
116.8101026522425
 20
55.41927815640965
 30
0.0
 11
114.4026950221878
 21
55.3743069008863
 31
0.0
  0
LINE
  5
1C5
330
E3
100
AcDbEntity
  8
0
  6
Continuous
 62
   251
370
    35
100
AcDbLine
 10
114.4026950221878
 20
55.3743069008863
 30
0.0
 11
112.5508446175433
 21
56.63714200463958
 31
0.0
  0
LINE
  5
1C6
330
E3
100
AcDbEntity
  8
0
  6
Continuous
 62
   251
370
    35
100
AcDbLine
 10
112.5508446175433
 20
56.63714200463958
 30
0.0
 11
111.8101044556855
 21
58.8138441903163
 31
0.0
  0
LINE
  5
1C7
330
E3
100
AcDbEntity
  8
0
  6
Continuous
 62
   251
370
    35
100
AcDbLine
 10
111.8101044556855
 20
58.8138441903163
 30
0.0
 11
113.1063976349198
 21
61.84915776817405
 31
0.0
  0
LINE
  5
1C8
330
E3
100
AcDbEntity
  8
0
  6
Continuous
 62
   251
370
    35
100
AcDbLine
 10
113.1063976349198
 20
61.84915776817405
 30
0.0
 11
115.5138052649745
 21
65.3642881739343
 31
0.0
  0
LINE
  5
1C9
330
E3
100
AcDbEntity
  8
0
  6
Continuous
 62
   251
370
    35
100
AcDbLine
 10
115.5138052649745
 20
65.3642881739343
 30
0.0
 11
116.8101026522425
 21
68.41927851709825
 31
0.0
  0
LINE
  5
1CA
330
E3
100
AcDbEntity
  8
0
  6
Continuous
 62
   251
370
    35
100
AcDbLine
 10
116.8101026522425
 20
68.41927851709825
 30
0.0
 11
116.0693624903847
 21
70.58305362342925
 31
0.0
  0
LINE
  5
1CB
330
E3
100
AcDbEntity
  8
0
  6
Continuous
 62
   251
370
    35
100
AcDbLine
 10
116.0693624903847
 20
70.58305362342925
 30
0.0
 11
114.2175120857402
 21
71.8332267539562
 31
0.0
  0
LINE
  5
1CC
330
E3
100
AcDbEntity
  8
0
  6
Continuous
 62
   251
370
    35
100
AcDbLine
 10
114.2175120857402
 20
71.8332267539562
 30
0.0
 11
111.8101044556855
 21
71.81384455100489
 31
0.0
  0
LINE
  5
1CD
330
E3
100
AcDbEntity
  8
0
  6
Continuous
 62
   251
370
    35
100
AcDbLine
 10
116.8101026522425
 20
55.41927815640965
 30
0.0
 11
119.2175102822972
 21
56.95879988813812
 31
0.0
  0
LINE
  5
1CE
330
E3
100
AcDbEntity
  8
0
  6
Continuous
 62
   251
370
    35
100
AcDbLine
 10
119.2175102822972
 20
56.95879988813812
 30
0.0
 11
121.0693606869417
 21
59.39843684785065
 31
0.0
  0
LINE
  5
1CF
330
E3
100
AcDbEntity
  8
0
  6
Continuous
 62
   251
370
    35
100
AcDbLine
 10
121.0693606869417
 20
59.39843684785065
 30
0.0
 11
121.8101050568331
 21
62.02292010131952
 31
0.0
  0
LINE
  5
1D0
330
E3
100
AcDbEntity
  8
0
  6
Continuous
 62
   251
370
    35
100
AcDbLine
 10
121.8101050568331
 20
62.02292010131952
 30
0.0
 11
120.5138076695652
 21
64.2652676117987
 31
0.0
  0
LINE
  5
1D1
330
E3
100
AcDbEntity
  8
0
  6
Continuous
 62
   251
370
    35
100
AcDbLine
 10
120.5138076695652
 20
64.2652676117987
 30
0.0
 11
118.1064000395104
 21
66.21880094134883
 31
0.0
  0
LINE
  5
1D2
330
E3
100
AcDbEntity
  8
0
  6
Continuous
 62
   251
370
    35
100
AcDbLine
 10
118.1064000395104
 20
66.21880094134883
 30
0.0
 11
116.8101026522425
 21
68.41927851709825
 31
0.0
  0
LINE
  5
1D3
330
E3
100
AcDbEntity
  8
0
  6
Continuous
 62
   251
370
    35
100
AcDbLine
 10
116.8101026522425
 20
68.41927851709825
 30
0.0
 11
117.5508428141003
 21
71.07155583276715
 31
0.0
  0
LINE
  5
1D4
330
E3
100
AcDbEntity
  8
0
  6
Continuous
 62
   251
370
    35
100
AcDbLine
 10
117.5508428141003
 20
71.07155583276715
 30
0.0
 11
119.4026974267784
 21
73.53900368681427
 31
0.0
  0
LINE
  5
1D5
330
E3
100
AcDbEntity
  8
0
  6
Continuous
 62
   251
370
    35
100
AcDbLine
 10
119.4026974267784
 20
73.53900368681427
 30
0.0
 11
121.8101050568331
 21
75.02292046200812
 31
0.0
  0
LINE
  5
1D6
330
E3
100
AcDbEntity
  8
0
  6
Continuous
 62
   251
370
    35
100
AcDbLine
 10
126.8101032533902
 20
57.8154840009115
 30
0.0
 11
124.4026956233354
 21
58.35685594491724
 31
0.0
  0
LINE
  5
1D7
330
E3
100
AcDbEntity
  8
0
  6
Continuous
 62
   251
370
    35
100
AcDbLine
 10
124.4026956233354
 20
58.35685594491724
 30
0.0
 11
122.550845218691
 21
59.81584012078709
 31
0.0
  0
LINE
  5
1D8
330
E3
100
AcDbEntity
  8
0
  6
Continuous
 62
   251
370
    35
100
AcDbLine
 10
122.550845218691
 20
59.81584012078709
 30
0.0
 11
121.8101050568331
 21
62.02292010131952
 31
0.0
  0
LINE
  5
1D9
330
E3
100
AcDbEntity
  8
0
  6
Continuous
 62
   251
370
    35
100
AcDbLine
 10
121.8101050568331
 20
62.02292010131952
 30
0.0
 11
123.1063982360675
 21
64.98879270803043
 31
0.0
  0
LINE
  5
1DA
330
E3
100
AcDbEntity
  8
0
  6
Continuous
 62
   251
370
    35
100
AcDbLine
 10
123.1063982360675
 20
64.98879270803043
 30
0.0
 11
125.5138058661222
 21
68.12703899678523
 31
0.0
  0
LINE
  5
1DB
330
E3
100
AcDbEntity
  8
0
  6
Continuous
 62
   251
370
    35
100
AcDbLine
 10
125.5138058661222
 20
68.12703899678523
 30
0.0
 11
126.8101032533902
 21
70.8154843616001
 31
0.0
  0
LINE
  5
1DC
330
E3
100
AcDbEntity
  8
0
  6
Continuous
 62
   251
370
    35
100
AcDbLine
 10
126.8101032533902
 20
70.8154843616001
 30
0.0
 11
126.0693630915323
 21
73.20359394937631
 31
0.0
  0
LINE
  5
1DD
330
E3
100
AcDbEntity
  8
0
  6
Continuous
 62
   251
370
    35
100
AcDbLine
 10
126.0693630915323
 20
73.20359394937631
 30
0.0
 11
124.2175126868878
 21
74.84442409101632
 31
0.0
  0
LINE
  5
1DE
330
E3
100
AcDbEntity
  8
0
  6
Continuous
 62
   251
370
    35
100
AcDbLine
 10
124.2175126868878
 20
74.84442409101632
 30
0.0
 11
121.8101050568331
 21
75.02292046200812
 31
0.0
  0
LINE
  5
1DF
330
E3
100
AcDbEntity
  8
0
  6
Continuous
 62
   251
370
    35
100
AcDbLine
 10
126.8101032533902
 20
57.8154840009115
 30
0.0
 11
129.2175108834448
 21
58.35685594491724
 31
0.0
  0
LINE
  5
1E0
330
E3
100
AcDbEntity
  8
0
  6
Continuous
 62
   251
370
    35
100
AcDbLine
 10
129.2175108834448
 20
58.35685594491724
 30
0.0
 11
131.0693612880893
 21
59.81584012078709
 31
0.0
  0
LINE
  5
1E1
330
E3
100
AcDbEntity
  8
0
  6
Continuous
 62
   251
370
    35
100
AcDbLine
 10
131.0693612880893
 20
59.81584012078709
 30
0.0
 11
131.8101014499472
 21
62.02292010131952
 31
0.0
  0
LINE
  5
1E2
330
E3
100
AcDbEntity
  8
0
  6
Continuous
 62
   251
370
    35
100
AcDbLine
 10
131.8101014499472
 20
62.02292010131952
 30
0.0
 11
130.5138082707128
 21
64.98879270803043
 31
0.0
  0
LINE
  5
1E3
330
E3
100
AcDbEntity
  8
0
  6
Continuous
 62
   251
370
    35
100
AcDbLine
 10
130.5138082707128
 20
64.98879270803043
 30
0.0
 11
128.1064006406581
 21
68.12703899678523
 31
0.0
  0
LINE
  5
1E4
330
E3
100
AcDbEntity
  8
0
  6
Continuous
 62
   251
370
    35
100
AcDbLine
 10
128.1064006406581
 20
68.12703899678523
 30
0.0
 11
126.8101032533902
 21
70.8154843616001
 31
0.0
  0
LINE
  5
1E5
330
E3
100
AcDbEntity
  8
0
  6
Continuous
 62
   251
370
    35
100
AcDbLine
 10
126.8101032533902
 20
70.8154843616001
 30
0.0
 11
127.5508434152479
 21
73.20359394937631
 31
0.0
  0
LINE
  5
1E6
330
E3
100
AcDbEntity
  8
0
  6
Continuous
 62
   251
370
    35
100
AcDbLine
 10
127.5508434152479
 20
73.20359394937631
 30
0.0
 11
129.4026938198925
 21
74.84442409101632
 31
0.0
  0
LINE
  5
1E7
330
E3
100
AcDbEntity
  8
0
  6
Continuous
 62
   251
370
    35
100
AcDbLine
 10
129.4026938198925
 20
74.84442409101632
 30
0.0
 11
131.8101014499472
 21
75.02292046200812
 31
0.0
  0
LINE
  5
1E8
330
E3
100
AcDbEntity
  8
0
  6
Continuous
 62
   251
370
    35
100
AcDbLine
 10
136.8101038545378
 20
55.41927815640965
 30
0.0
 11
134.4026962244831
 21
56.95879988813812
 31
0.0
  0
LINE
  5
1E9
330
E3
100
AcDbEntity
  8
0
  6
Continuous
 62
   251
370
    35
100
AcDbLine
 10
134.4026962244831
 20
56.95879988813812
 30
0.0
 11
132.5508458198386
 21
59.39843684785065
 31
0.0
  0
LINE
  5
1EA
330
E3
100
AcDbEntity
  8
0
  6
Continuous
 62
   251
370
    35
100
AcDbLine
 10
132.5508458198386
 20
59.39843684785065
 30
0.0
 11
131.8101014499472
 21
62.02292010131952
 31
0.0
  0
LINE
  5
1EB
330
E3
100
AcDbEntity
  8
0
  6
Continuous
 62
   251
370
    35
100
AcDbLine
 10
131.8101014499472
 20
62.02292010131952
 30
0.0
 11
133.1063988372151
 21
64.2652676117987
 31
0.0
  0
LINE
  5
1EC
330
E3
100
AcDbEntity
  8
0
  6
Continuous
 62
   251
370
    35
100
AcDbLine
 10
133.1063988372151
 20
64.2652676117987
 30
0.0
 11
135.5138064672698
 21
66.21880094134883
 31
0.0
  0
LINE
  5
1ED
330
E3
100
AcDbEntity
  8
0
  6
Continuous
 62
   251
370
    35
100
AcDbLine
 10
135.5138064672698
 20
66.21880094134883
 30
0.0
 11
136.8101038545378
 21
68.41927851709825
 31
0.0
  0
LINE
  5
1EE
330
E3
100
AcDbEntity
  8
0
  6
Continuous
 62
   251
370
    35
100
AcDbLine
 10
136.8101038545378
 20
68.41927851709825
 30
0.0
 11
136.06936369268
 21
71.07155583276715
 31
0.0
  0
LINE
  5
1EF
330
E3
100
AcDbEntity
  8
0
  6
Continuous
 62
   251
370
    35
100
AcDbLine
 10
136.06936369268
 20
71.07155583276715
 30
0.0
 11
134.2175090800019
 21
73.53900368681427
 31
0.0
  0
LINE
  5
1F0
330
E3
100
AcDbEntity
  8
0
  6
Continuous
 62
   251
370
    35
100
AcDbLine
 10
134.2175090800019
 20
73.53900368681427
 30
0.0
 11
131.8101014499472
 21
75.02292046200812
 31
0.0
  0
LINE
  5
1F1
330
E3
100
AcDbEntity
  8
0
  6
Continuous
 62
   251
370
    35
100
AcDbLine
 10
136.8101038545378
 20
55.41927815640965
 30
0.0
 11
139.2175114845925
 21
55.3743069008863
 31
0.0
  0
LINE
  5
1F2
330
E3
100
AcDbEntity
  8
0
  6
Continuous
 62
   251
370
    35
100
AcDbLine
 10
139.2175114845925
 20
55.3743069008863
 30
0.0
 11
141.069361889237
 21
56.63714200463958
 31
0.0
  0
LINE
  5
1F3
330
E3
100
AcDbEntity
  8
0
  6
Continuous
 62
   251
370
    35
100
AcDbLine
 10
141.069361889237
 20
56.63714200463958
 30
0.0
 11
141.8101020510948
 21
58.8138441903163
 31
0.0
  0
LINE
  5
1F4
330
E3
100
AcDbEntity
  8
0
  6
Continuous
 62
   251
370
    35
100
AcDbLine
 10
141.8101020510948
 20
58.8138441903163
 30
0.0
 11
140.5138088718605
 21
61.84915776817405
 31
0.0
  0
LINE
  5
1F5
330
E3
100
AcDbEntity
  8
0
  6
Continuous
 62
   251
370
    35
100
AcDbLine
 10
140.5138088718605
 20
61.84915776817405
 30
0.0
 11
138.1064012418058
 21
65.3642881739343
 31
0.0
  0
LINE
  5
1F6
330
E3
100
AcDbEntity
  8
0
  6
Continuous
 62
   251
370
    35
100
AcDbLine
 10
138.1064012418058
 20
65.3642881739343
 30
0.0
 11
136.8101038545378
 21
68.41927851709825
 31
0.0
  0
LINE
  5
1F7
330
E3
100
AcDbEntity
  8
0
  6
Continuous
 62
   251
370
    35
100
AcDbLine
 10
136.8101038545378
 20
68.41927851709825
 30
0.0
 11
137.5508440163956
 21
70.58305362342925
 31
0.0
  0
LINE
  5
1F8
330
E3
100
AcDbEntity
  8
0
  6
Continuous
 62
   251
370
    35
100
AcDbLine
 10
137.5508440163956
 20
70.58305362342925
 30
0.0
 11
139.4026944210401
 21
71.8332267539562
 31
0.0
  0
LINE
  5
1F9
330
E3
100
AcDbEntity
  8
0
  6
Continuous
 62
   251
370
    35
100
AcDbLine
 10
139.4026944210401
 20
71.8332267539562
 30
0.0
 11
141.8101020510948
 21
71.81384455100489
 31
0.0
  0
LINE
  5
1FA
330
E3
100
AcDbEntity
  8
0
  6
Continuous
 62
   251
370
    35
100
AcDbLine
 10
146.8101044556855
 20
52.35508484367244
 30
0.0
 11
144.4026968256308
 21
53.77443355067594
 31
0.0
  0
LINE
  5
1FB
330
E3
100
AcDbEntity
  8
0
  6
Continuous
 62
   251
370
    35
100
AcDbLine
 10
144.4026968256308
 20
53.77443355067594
 30
0.0
 11
142.5508422129526
 21
56.17896709375371
 31
0.0
  0
LINE
  5
1FC
330
E3
100
AcDbEntity
  8
0
  6
Continuous
 62
   251
370
    35
100
AcDbLine
 10
142.5508422129526
 20
56.17896709375371
 30
0.0
 11
141.8101020510948
 21
58.8138441903163
 31
0.0
  0
LINE
  5
1FD
330
E3
100
AcDbEntity
  8
0
  6
Continuous
 62
   251
370
    35
100
AcDbLine
 10
141.8101020510948
 20
58.8138441903163
 30
0.0
 11
143.1063994383628
 21
61.04769568087395
 31
0.0
  0
LINE
  5
1FE
330
E3
100
AcDbEntity
  8
0
  6
Continuous
 62
   251
370
    35
100
AcDbLine
 10
143.1063994383628
 20
61.04769568087395
 30
0.0
 11
145.5138070684175
 21
63.08479214247072
 31
0.0
  0
LINE
  5
1FF
330
E3
100
AcDbEntity
  8
0
  6
Continuous
 62
   251
370
    35
100
AcDbLine
 10
145.5138070684175
 20
63.08479214247072
 30
0.0
 11
146.8101044556855
 21
65.35508520436103
 31
0.0
  0
LINE
  5
200
330
E3
100
AcDbEntity
  8
0
  6
Continuous
 62
   251
370
    35
100
AcDbLine
 10
146.8101044556855
 20
65.35508520436103
 30
0.0
 11
146.0693642938277
 21
67.96602279753893
 31
0.0
  0
LINE
  5
201
330
E3
100
AcDbEntity
  8
0
  6
Continuous
 62
   251
370
    35
100
AcDbLine
 10
146.0693642938277
 20
67.96602279753893
 30
0.0
 11
144.2175096811495
 21
70.347109177168
 31
0.0
  0
LINE
  5
202
330
E3
100
AcDbEntity
  8
0
  6
Continuous
 62
   251
370
    35
100
AcDbLine
 10
144.2175096811495
 20
70.347109177168
 30
0.0
 11
141.8101020510948
 21
71.81384455100489
 31
0.0
  0
LINE
  5
203
330
E3
100
AcDbEntity
  8
0
  6
Continuous
 62
   251
370
    35
100
AcDbLine
 10
146.8101044556855
 20
52.35508484367244
 30
0.0
 11
149.2175120857401
 21
52.47047333414736
 31
0.0
  0
LINE
  5
204
330
E3
100
AcDbEntity
  8
0
  6
Continuous
 62
   251
370
    35
100
AcDbLine
 10
149.2175120857401
 20
52.47047333414736
 30
0.0
 11
151.0693624903847
 21
53.88271046429728
 31
0.0
  0
LINE
  5
205
330
E3
100
AcDbEntity
  8
0
  6
Continuous
 62
   251
370
    35
100
AcDbLine
 10
151.0693624903847
 20
53.88271046429728
 30
0.0
 11
151.8101026522425
 21
56.12523471218942
 31
0.0
  0
LINE
  5
206
330
E3
100
AcDbEntity
  8
0
  6
Continuous
 62
   251
370
    35
100
AcDbLine
 10
151.8101026522425
 20
56.12523471218942
 30
0.0
 11
150.5138052649745
 21
59.04760466711777
 31
0.0
  0
LINE
  5
207
330
E3
100
AcDbEntity
  8
0
  6
Continuous
 62
   251
370
    35
100
AcDbLine
 10
150.5138052649745
 20
59.04760466711777
 30
0.0
 11
148.1063976349198
 21
62.38157080855772
 31
0.0
  0
LINE
  5
208
330
E3
100
AcDbEntity
  8
0
  6
Continuous
 62
   251
370
    35
100
AcDbLine
 10
148.1063976349198
 20
62.38157080855772
 30
0.0
 11
146.8101044556855
 21
65.35508520436103
 31
0.0
  0
LINE
  5
209
330
E3
100
AcDbEntity
  8
0
  6
Continuous
 62
   251
370
    35
100
AcDbLine
 10
146.8101044556855
 20
65.35508520436103
 30
0.0
 11
147.5508446175433
 21
67.5640083036283
 31
0.0
  0
LINE
  5
20A
330
E3
100
AcDbEntity
  8
0
  6
Continuous
 62
   251
370
    35
100
AcDbLine
 10
147.5508446175433
 20
67.5640083036283
 30
0.0
 11
149.4026950221878
 21
68.9433344026705
 31
0.0
  0
LINE
  5
20B
330
E3
100
AcDbEntity
  8
0
  6
Continuous
 62
   251
370
    35
100
AcDbLine
 10
149.4026950221878
 20
68.9433344026705
 30
0.0
 11
151.8101026522425
 21
69.12523507287801
 31
0.0
  0
LINE
  5
20C
330
E3
100
AcDbEntity
  8
0
  6
Continuous
 62
   251
370
    35
100
AcDbLine
 10
156.8101050568331
 20
50.19363257191137
 30
0.0
 11
154.4026974267784
 21
51.34194183208615
 31
0.0
  0
LINE
  5
20D
330
E3
100
AcDbEntity
  8
0
  6
Continuous
 62
   251
370
    35
100
AcDbLine
 10
154.4026974267784
 20
51.34194183208615
 30
0.0
 11
152.5508428141003
 21
53.55952085655334
 31
0.0
  0
LINE
  5
20E
330
E3
100
AcDbEntity
  8
0
  6
Continuous
 62
   251
370
    35
100
AcDbLine
 10
152.5508428141003
 20
53.55952085655334
 30
0.0
 11
151.8101026522425
 21
56.12523471218942
 31
0.0
  0
LINE
  5
20F
330
E3
100
AcDbEntity
  8
0
  6
Continuous
 62
   251
370
    35
100
AcDbLine
 10
151.8101026522425
 20
56.12523471218942
 30
0.0
 11
153.1064000395104
 21
58.4822595554582
 31
0.0
  0
LINE
  5
210
330
E3
100
AcDbEntity
  8
0
  6
Continuous
 62
   251
370
    35
100
AcDbLine
 10
153.1064000395104
 20
58.4822595554582
 30
0.0
 11
155.5138076695652
 21
60.77363907392449
 31
0.0
  0
LINE
  5
211
330
E3
100
AcDbEntity
  8
0
  6
Continuous
 62
   251
370
    35
100
AcDbLine
 10
155.5138076695652
 20
60.77363907392449
 30
0.0
 11
156.8101050568331
 21
63.19363293259997
 31
0.0
  0
LINE
  5
212
330
E3
100
AcDbEntity
  8
0
  6
Continuous
 62
   251
370
    35
100
AcDbLine
 10
156.8101050568331
 20
63.19363293259997
 30
0.0
 11
156.0693606869417
 21
65.71798181754318
 31
0.0
  0
LINE
  5
213
330
E3
100
AcDbEntity
  8
0
  6
Continuous
 62
   251
370
    35
100
AcDbLine
 10
156.0693606869417
 20
65.71798181754318
 30
0.0
 11
154.2175102822972
 21
67.89504589411305
 31
0.0
  0
LINE
  5
214
330
E3
100
AcDbEntity
  8
0
  6
Continuous
 62
   251
370
    35
100
AcDbLine
 10
154.2175102822972
 20
67.89504589411305
 30
0.0
 11
151.8101026522425
 21
69.12523507287801
 31
0.0
  0
LINE
  5
215
330
E3
100
AcDbEntity
  8
0
  6
Continuous
 62
   251
370
    35
100
AcDbLine
 10
156.8101050568331
 20
50.19363257191137
 30
0.0
 11
159.2175126868878
 21
50.60841844792298
 31
0.0
  0
LINE
  5
216
330
E3
100
AcDbEntity
  8
0
  6
Continuous
 62
   251
370
    35
100
AcDbLine
 10
159.2175126868878
 20
50.60841844792298
 30
0.0
 11
161.0693630915323
 21
52.26779760185334
 31
0.0
  0
LINE
  5
217
330
E3
100
AcDbEntity
  8
0
  6
Continuous
 62
   251
370
    35
100
AcDbLine
 10
161.0693630915323
 20
52.26779760185334
 30
0.0
 11
161.8101032533901
 21
54.61280009300924
 31
0.0
  0
LINE
  5
218
330
E3
100
AcDbEntity
  8
0
  6
Continuous
 62
   251
370
    35
100
AcDbLine
 10
161.8101032533901
 20
54.61280009300924
 30
0.0
 11
160.5138058661222
 21
57.35714076867998
 31
0.0
  0
LINE
  5
219
330
E3
100
AcDbEntity
  8
0
  6
Continuous
 62
   251
370
    35
100
AcDbLine
 10
160.5138058661222
 20
57.35714076867998
 30
0.0
 11
158.1063982360675
 21
60.37805024738396
 31
0.0
  0
LINE
  5
21A
330
E3
100
AcDbEntity
  8
0
  6
Continuous
 62
   251
370
    35
100
AcDbLine
 10
158.1063982360675
 20
60.37805024738396
 30
0.0
 11
156.8101050568331
 21
63.19363293259997
 31
0.0
  0
LINE
  5
21B
330
E3
100
AcDbEntity
  8
0
  6
Continuous
 62
   251
370
    35
100
AcDbLine
 10
156.8101050568331
 20
63.19363293259997
 30
0.0
 11
157.5508452186909
 21
65.49183367359862
 31
0.0
  0
LINE
  5
21C
330
E3
100
AcDbEntity
  8
0
  6
Continuous
 62
   251
370
    35
100
AcDbLine
 10
157.5508452186909
 20
65.49183367359862
 30
0.0
 11
159.4026956233355
 21
67.10537471707555
 31
0.0
  0
LINE
  5
21D
330
E3
100
AcDbEntity
  8
0
  6
Continuous
 62
   251
370
    35
100
AcDbLine
 10
159.4026956233355
 20
67.10537471707555
 30
0.0
 11
161.8101032533901
 21
67.61280045369786
 31
0.0
  0
LINE
  5
21E
330
E3
100
AcDbEntity
  8
0
  6
Continuous
 62
   251
370
    35
100
AcDbLine
 10
166.8101014499472
 20
49.41548299098343
 30
0.0
 11
164.4026938198925
 21
50.20213279986656
 31
0.0
  0
LINE
  5
21F
330
E3
100
AcDbEntity
  8
0
  6
Continuous
 62
   251
370
    35
100
AcDbLine
 10
164.4026938198925
 20
50.20213279986656
 30
0.0
 11
162.550843415248
 21
52.15144547167456
 31
0.0
  0
LINE
  5
220
330
E3
100
AcDbEntity
  8
0
  6
Continuous
 62
   251
370
    35
100
AcDbLine
 10
162.550843415248
 20
52.15144547167456
 30
0.0
 11
161.8101032533901
 21
54.61280009300924
 31
0.0
  0
LINE
  5
221
330
E3
100
AcDbEntity
  8
0
  6
Continuous
 62
   251
370
    35
100
AcDbLine
 10
161.8101032533901
 20
54.61280009300924
 30
0.0
 11
163.1064006406581
 21
57.15361080555679
 31
0.0
  0
LINE
  5
222
330
E3
100
AcDbEntity
  8
0
  6
Continuous
 62
   251
370
    35
100
AcDbLine
 10
163.1064006406581
 20
57.15361080555679
 30
0.0
 11
165.5138082707128
 21
59.79917209953435
 31
0.0
  0
LINE
  5
223
330
E3
100
AcDbEntity
  8
0
  6
Continuous
 62
   251
370
    35
100
AcDbLine
 10
165.5138082707128
 20
59.79917209953435
 30
0.0
 11
166.8101014499472
 21
62.41548335167202
 31
0.0
  0
LINE
  5
224
330
E3
100
AcDbEntity
  8
0
  6
Continuous
 62
   251
370
    35
100
AcDbLine
 10
166.8101014499472
 20
62.41548335167202
 30
0.0
 11
166.0693612880893
 21
64.82724208851171
 31
0.0
  0
LINE
  5
225
330
E3
100
AcDbEntity
  8
0
  6
Continuous
 62
   251
370
    35
100
AcDbLine
 10
166.0693612880893
 20
64.82724208851171
 30
0.0
 11
164.2175108834448
 21
66.72797721996588
 31
0.0
  0
LINE
  5
226
330
E3
100
AcDbEntity
  8
0
  6
Continuous
 62
   251
370
    35
100
AcDbLine
 10
164.2175108834448
 20
66.72797721996588
 30
0.0
 11
161.8101032533901
 21
67.61280045369786
 31
0.0
  0
LINE
  5
227
330
E3
100
AcDbEntity
  8
0
  6
Continuous
 62
   251
370
    35
100
AcDbLine
 10
166.8101014499472
 20
49.41548299098343
 30
0.0
 11
169.2175090800019
 21
50.20213279986656
 31
0.0
  0
LINE
  5
228
330
E3
100
AcDbEntity
  8
0
  6
Continuous
 62
   251
370
    35
100
AcDbLine
 10
169.2175090800019
 20
50.20213279986656
 30
0.0
 11
171.06936369268
 21
52.15144547167456
 31
0.0
  0
LINE
  5
229
330
E3
100
AcDbEntity
  8
0
  6
Continuous
 62
   251
370
    35
100
AcDbLine
 10
171.06936369268
 20
52.15144547167456
 30
0.0
 11
171.8101038545378
 21
54.61280009300924
 31
0.0
  0
LINE
  5
22A
330
E3
100
AcDbEntity
  8
0
  6
Continuous
 62
   251
370
    35
100
AcDbLine
 10
171.8101038545378
 20
54.61280009300924
 30
0.0
 11
170.5138064672698
 21
57.15361080555679
 31
0.0
  0
LINE
  5
22B
330
E3
100
AcDbEntity
  8
0
  6
Continuous
 62
   251
370
    35
100
AcDbLine
 10
170.5138064672698
 20
57.15361080555679
 30
0.0
 11
168.1063988372151
 21
59.79917209953435
 31
0.0
  0
LINE
  5
22C
330
E3
100
AcDbEntity
  8
0
  6
Continuous
 62
   251
370
    35
100
AcDbLine
 10
168.1063988372151
 20
59.79917209953435
 30
0.0
 11
166.8101014499472
 21
62.41548335167202
 31
0.0
  0
LINE
  5
22D
330
E3
100
AcDbEntity
  8
0
  6
Continuous
 62
   251
370
    35
100
AcDbLine
 10
166.8101014499472
 20
62.41548335167202
 30
0.0
 11
167.5508458198386
 21
64.82724208851171
 31
0.0
  0
LINE
  5
22E
330
E3
100
AcDbEntity
  8
0
  6
Continuous
 62
   251
370
    35
100
AcDbLine
 10
167.5508458198386
 20
64.82724208851171
 30
0.0
 11
169.4026962244831
 21
66.72797721996588
 31
0.0
  0
LINE
  5
22F
330
E3
100
AcDbEntity
  8
0
  6
Continuous
 62
   251
370
    35
100
AcDbLine
 10
169.4026962244831
 20
66.72797721996588
 30
0.0
 11
171.8101038545378
 21
67.61280045369786
 31
0.0
  0
LINE
  5
230
330
E3
100
AcDbEntity
  8
0
  6
Continuous
 62
   251
370
    35
100
AcDbLine
 10
176.8101020510948
 20
50.19363257191137
 30
0.0
 11
174.4026944210401
 21
50.60841844792298
 31
0.0
  0
LINE
  5
231
330
E3
100
AcDbEntity
  8
0
  6
Continuous
 62
   251
370
    35
100
AcDbLine
 10
174.4026944210401
 20
50.60841844792298
 30
0.0
 11
172.5508440163956
 21
52.26779760185334
 31
0.0
  0
LINE
  5
232
330
E3
100
AcDbEntity
  8
0
  6
Continuous
 62
   251
370
    35
100
AcDbLine
 10
172.5508440163956
 20
52.26779760185334
 30
0.0
 11
171.8101038545378
 21
54.61280009300924
 31
0.0
  0
LINE
  5
233
330
E3
100
AcDbEntity
  8
0
  6
Continuous
 62
   251
370
    35
100
AcDbLine
 10
171.8101038545378
 20
54.61280009300924
 30
0.0
 11
173.1064012418058
 21
57.35714076867998
 31
0.0
  0
LINE
  5
234
330
E3
100
AcDbEntity
  8
0
  6
Continuous
 62
   251
370
    35
100
AcDbLine
 10
173.1064012418058
 20
57.35714076867998
 30
0.0
 11
175.5138088718605
 21
60.37805024738396
 31
0.0
  0
LINE
  5
235
330
E3
100
AcDbEntity
  8
0
  6
Continuous
 62
   251
370
    35
100
AcDbLine
 10
175.5138088718605
 20
60.37805024738396
 30
0.0
 11
176.8101020510948
 21
63.19363293259997
 31
0.0
  0
LINE
  5
236
330
E3
100
AcDbEntity
  8
0
  6
Continuous
 62
   251
370
    35
100
AcDbLine
 10
176.8101020510948
 20
63.19363293259997
 30
0.0
 11
176.069361889237
 21
65.49183367359862
 31
0.0
  0
LINE
  5
237
330
E3
100
AcDbEntity
  8
0
  6
Continuous
 62
   251
370
    35
100
AcDbLine
 10
176.069361889237
 20
65.49183367359862
 30
0.0
 11
174.2175114845925
 21
67.10537471707555
 31
0.0
  0
LINE
  5
238
330
E3
100
AcDbEntity
  8
0
  6
Continuous
 62
   251
370
    35
100
AcDbLine
 10
174.2175114845925
 20
67.10537471707555
 30
0.0
 11
171.8101038545378
 21
67.61280045369786
 31
0.0
  0
LINE
  5
239
330
E3
100
AcDbEntity
  8
0
  6
Continuous
 62
   251
370
    35
100
AcDbLine
 10
176.8101020510948
 20
50.19363257191137
 30
0.0
 11
179.2175096811495
 21
51.34194183208615
 31
0.0
  0
LINE
  5
23A
330
E3
100
AcDbEntity
  8
0
  6
Continuous
 62
   251
370
    35
100
AcDbLine
 10
179.2175096811495
 20
51.34194183208615
 30
0.0
 11
181.0693642938276
 21
53.55952085655334
 31
0.0
  0
LINE
  5
23B
330
E3
100
AcDbEntity
  8
0
  6
Continuous
 62
   251
370
    35
100
AcDbLine
 10
181.0693642938276
 20
53.55952085655334
 30
0.0
 11
181.8101044556855
 21
56.12523471218942
 31
0.0
  0
LINE
  5
23C
330
E3
100
AcDbEntity
  8
0
  6
Continuous
 62
   251
370
    35
100
AcDbLine
 10
181.8101044556855
 20
56.12523471218942
 30
0.0
 11
180.5138070684175
 21
58.4822595554582
 31
0.0
  0
LINE
  5
23D
330
E3
100
AcDbEntity
  8
0
  6
Continuous
 62
   251
370
    35
100
AcDbLine
 10
180.5138070684175
 20
58.4822595554582
 30
0.0
 11
178.1063994383628
 21
60.77363907392449
 31
0.0
  0
LINE
  5
23E
330
E3
100
AcDbEntity
  8
0
  6
Continuous
 62
   251
370
    35
100
AcDbLine
 10
178.1063994383628
 20
60.77363907392449
 30
0.0
 11
176.8101020510948
 21
63.19363293259997
 31
0.0
  0
LINE
  5
23F
330
E3
100
AcDbEntity
  8
0
  6
Continuous
 62
   251
370
    35
100
AcDbLine
 10
176.8101020510948
 20
63.19363293259997
 30
0.0
 11
177.5508422129526
 21
65.71798181754318
 31
0.0
  0
LINE
  5
240
330
E3
100
AcDbEntity
  8
0
  6
Continuous
 62
   251
370
    35
100
AcDbLine
 10
177.5508422129526
 20
65.71798181754318
 30
0.0
 11
179.4026968256308
 21
67.89504589411305
 31
0.0
  0
LINE
  5
241
330
E3
100
AcDbEntity
  8
0
  6
Continuous
 62
   251
370
    35
100
AcDbLine
 10
179.4026968256308
 20
67.89504589411305
 30
0.0
 11
181.8101044556855
 21
69.12523507287801
 31
0.0
  0
LINE
  5
242
330
E3
100
AcDbEntity
  8
0
  6
Continuous
 62
   251
370
    35
100
AcDbLine
 10
186.8101026522425
 20
52.35508484367244
 30
0.0
 11
184.4026950221878
 21
52.47047333414736
 31
0.0
  0
LINE
  5
243
330
E3
100
AcDbEntity
  8
0
  6
Continuous
 62
   251
370
    35
100
AcDbLine
 10
184.4026950221878
 20
52.47047333414736
 30
0.0
 11
182.5508446175432
 21
53.88271046429728
 31
0.0
  0
LINE
  5
244
330
E3
100
AcDbEntity
  8
0
  6
Continuous
 62
   251
370
    35
100
AcDbLine
 10
182.5508446175432
 20
53.88271046429728
 30
0.0
 11
181.8101044556855
 21
56.12523471218942
 31
0.0
  0
LINE
  5
245
330
E3
100
AcDbEntity
  8
0
  6
Continuous
 62
   251
370
    35
100
AcDbLine
 10
181.8101044556855
 20
56.12523471218942
 30
0.0
 11
183.1063976349198
 21
59.04760466711777
 31
0.0
  0
LINE
  5
246
330
E3
100
AcDbEntity
  8
0
  6
Continuous
 62
   251
370
    35
100
AcDbLine
 10
183.1063976349198
 20
59.04760466711777
 30
0.0
 11
185.5138052649745
 21
62.38157080855772
 31
0.0
  0
LINE
  5
247
330
E3
100
AcDbEntity
  8
0
  6
Continuous
 62
   251
370
    35
100
AcDbLine
 10
185.5138052649745
 20
62.38157080855772
 30
0.0
 11
186.8101026522425
 21
65.35508520436103
 31
0.0
  0
LINE
  5
248
330
E3
100
AcDbEntity
  8
0
  6
Continuous
 62
   251
370
    35
100
AcDbLine
 10
186.8101026522425
 20
65.35508520436103
 30
0.0
 11
186.0693624903847
 21
67.5640083036283
 31
0.0
  0
LINE
  5
249
330
E3
100
AcDbEntity
  8
0
  6
Continuous
 62
   251
370
    35
100
AcDbLine
 10
186.0693624903847
 20
67.5640083036283
 30
0.0
 11
184.2175120857402
 21
68.9433344026705
 31
0.0
  0
LINE
  5
24A
330
E3
100
AcDbEntity
  8
0
  6
Continuous
 62
   251
370
    35
100
AcDbLine
 10
184.2175120857402
 20
68.9433344026705
 30
0.0
 11
181.8101044556855
 21
69.12523507287801
 31
0.0
  0
LINE
  5
24B
330
E3
100
AcDbEntity
  8
0
  6
Continuous
 62
   251
370
    35
100
AcDbLine
 10
186.8101026522425
 20
52.35508484367244
 30
0.0
 11
189.2175102822972
 21
53.77443355067594
 31
0.0
  0
LINE
  5
24C
330
E3
100
AcDbEntity
  8
0
  6
Continuous
 62
   251
370
    35
100
AcDbLine
 10
189.2175102822972
 20
53.77443355067594
 30
0.0
 11
191.0693606869417
 21
56.17896709375371
 31
0.0
  0
LINE
  5
24D
330
E3
100
AcDbEntity
  8
0
  6
Continuous
 62
   251
370
    35
100
AcDbLine
 10
191.0693606869417
 20
56.17896709375371
 30
0.0
 11
191.8101050568331
 21
58.8138441903163
 31
0.0
  0
LINE
  5
24E
330
E3
100
AcDbEntity
  8
0
  6
Continuous
 62
   251
370
    35
100
AcDbLine
 10
191.8101050568331
 20
58.8138441903163
 30
0.0
 11
190.5138076695651
 21
61.04769568087395
 31
0.0
  0
LINE
  5
24F
330
E3
100
AcDbEntity
  8
0
  6
Continuous
 62
   251
370
    35
100
AcDbLine
 10
190.5138076695651
 20
61.04769568087395
 30
0.0
 11
188.1064000395105
 21
63.08479214247072
 31
0.0
  0
LINE
  5
250
330
E3
100
AcDbEntity
  8
0
  6
Continuous
 62
   251
370
    35
100
AcDbLine
 10
188.1064000395105
 20
63.08479214247072
 30
0.0
 11
186.8101026522425
 21
65.35508520436103
 31
0.0
  0
LINE
  5
251
330
E3
100
AcDbEntity
  8
0
  6
Continuous
 62
   251
370
    35
100
AcDbLine
 10
186.8101026522425
 20
65.35508520436103
 30
0.0
 11
187.5508428141003
 21
67.96602279753893
 31
0.0
  0
LINE
  5
252
330
E3
100
AcDbEntity
  8
0
  6
Continuous
 62
   251
370
    35
100
AcDbLine
 10
187.5508428141003
 20
67.96602279753893
 30
0.0
 11
189.4026974267784
 21
70.347109177168
 31
0.0
  0
LINE
  5
253
330
E3
100
AcDbEntity
  8
0
  6
Continuous
 62
   251
370
    35
100
AcDbLine
 10
189.4026974267784
 20
70.347109177168
 30
0.0
 11
191.8101050568331
 21
71.81384455100489
 31
0.0
  0
LINE
  5
254
330
E3
100
AcDbEntity
  8
0
  6
Continuous
 62
   251
370
    35
100
AcDbLine
 10
196.8101032533902
 20
55.41927815640965
 30
0.0
 11
194.4026956233355
 21
55.3743069008863
 31
0.0
  0
LINE
  5
255
330
E3
100
AcDbEntity
  8
0
  6
Continuous
 62
   251
370
    35
100
AcDbLine
 10
194.4026956233355
 20
55.3743069008863
 30
0.0
 11
192.550845218691
 21
56.63714200463958
 31
0.0
  0
LINE
  5
256
330
E3
100
AcDbEntity
  8
0
  6
Continuous
 62
   251
370
    35
100
AcDbLine
 10
192.550845218691
 20
56.63714200463958
 30
0.0
 11
191.8101050568331
 21
58.8138441903163
 31
0.0
  0
LINE
  5
257
330
E3
100
AcDbEntity
  8
0
  6
Continuous
 62
   251
370
    35
100
AcDbLine
 10
191.8101050568331
 20
58.8138441903163
 30
0.0
 11
193.1063982360675
 21
61.84915776817405
 31
0.0
  0
LINE
  5
258
330
E3
100
AcDbEntity
  8
0
  6
Continuous
 62
   251
370
    35
100
AcDbLine
 10
193.1063982360675
 20
61.84915776817405
 30
0.0
 11
195.5138058661222
 21
65.3642881739343
 31
0.0
  0
LINE
  5
259
330
E3
100
AcDbEntity
  8
0
  6
Continuous
 62
   251
370
    35
100
AcDbLine
 10
195.5138058661222
 20
65.3642881739343
 30
0.0
 11
196.8101032533902
 21
68.41927851709825
 31
0.0
  0
LINE
  5
25A
330
E3
100
AcDbEntity
  8
0
  6
Continuous
 62
   251
370
    35
100
AcDbLine
 10
196.8101032533902
 20
68.41927851709825
 30
0.0
 11
196.0693630915324
 21
70.58305362342925
 31
0.0
  0
LINE
  5
25B
330
E3
100
AcDbEntity
  8
0
  6
Continuous
 62
   251
370
    35
100
AcDbLine
 10
196.0693630915324
 20
70.58305362342925
 30
0.0
 11
194.2175126868878
 21
71.8332267539562
 31
0.0
  0
LINE
  5
25C
330
E3
100
AcDbEntity
  8
0
  6
Continuous
 62
   251
370
    35
100
AcDbLine
 10
194.2175126868878
 20
71.8332267539562
 30
0.0
 11
191.8101050568331
 21
71.81384455100489
 31
0.0
  0
LINE
  5
25D
330
E3
100
AcDbEntity
  8
0
  6
Continuous
 62
   251
370
    35
100
AcDbLine
 10
196.8101032533902
 20
55.41927815640965
 30
0.0
 11
199.2175108834448
 21
56.95879988813812
 31
0.0
  0
LINE
  5
25E
330
E3
100
AcDbEntity
  8
0
  6
Continuous
 62
   251
370
    35
100
AcDbLine
 10
199.2175108834448
 20
56.95879988813812
 30
0.0
 11
201.0693612880894
 21
59.39843684785065
 31
0.0
  0
LINE
  5
25F
330
E3
100
AcDbEntity
  8
0
  6
Continuous
 62
   251
370
    35
100
AcDbLine
 10
201.0693612880894
 20
59.39843684785065
 30
0.0
 11
201.8101014499472
 21
62.02292010131952
 31
0.0
  0
LINE
  5
260
330
E3
100
AcDbEntity
  8
0
  6
Continuous
 62
   251
370
    35
100
AcDbLine
 10
201.8101014499472
 20
62.02292010131952
 30
0.0
 11
200.5138082707128
 21
64.2652676117987
 31
0.0
  0
LINE
  5
261
330
E3
100
AcDbEntity
  8
0
  6
Continuous
 62
   251
370
    35
100
AcDbLine
 10
200.5138082707128
 20
64.2652676117987
 30
0.0
 11
198.1064006406582
 21
66.21880094134883
 31
0.0
  0
LINE
  5
262
330
E3
100
AcDbEntity
  8
0
  6
Continuous
 62
   251
370
    35
100
AcDbLine
 10
198.1064006406582
 20
66.21880094134883
 30
0.0
 11
196.8101032533902
 21
68.41927851709825
 31
0.0
  0
LINE
  5
263
330
E3
100
AcDbEntity
  8
0
  6
Continuous
 62
   251
370
    35
100
AcDbLine
 10
196.8101032533902
 20
68.41927851709825
 30
0.0
 11
197.550843415248
 21
71.07155583276715
 31
0.0
  0
LINE
  5
264
330
E3
100
AcDbEntity
  8
0
  6
Continuous
 62
   251
370
    35
100
AcDbLine
 10
197.550843415248
 20
71.07155583276715
 30
0.0
 11
199.4026938198924
 21
73.53900368681427
 31
0.0
  0
LINE
  5
265
330
E3
100
AcDbEntity
  8
0
  6
Continuous
 62
   251
370
    35
100
AcDbLine
 10
199.4026938198924
 20
73.53900368681427
 30
0.0
 11
201.8101014499472
 21
75.02292046200812
 31
0.0
  0
LINE
  5
266
330
E3
100
AcDbEntity
  8
0
  6
Continuous
 62
   251
370
    35
100
AcDbLine
 10
206.8101038545378
 20
57.8154840009115
 30
0.0
 11
204.4026962244831
 21
58.35685594491724
 31
0.0
  0
LINE
  5
267
330
E3
100
AcDbEntity
  8
0
  6
Continuous
 62
   251
370
    35
100
AcDbLine
 10
204.4026962244831
 20
58.35685594491724
 30
0.0
 11
202.5508458198386
 21
59.81584012078709
 31
0.0
  0
LINE
  5
268
330
E3
100
AcDbEntity
  8
0
  6
Continuous
 62
   251
370
    35
100
AcDbLine
 10
202.5508458198386
 20
59.81584012078709
 30
0.0
 11
201.8101014499472
 21
62.02292010131952
 31
0.0
  0
LINE
  5
269
330
E3
100
AcDbEntity
  8
0
  6
Continuous
 62
   251
370
    35
100
AcDbLine
 10
201.8101014499472
 20
62.02292010131952
 30
0.0
 11
203.1063988372152
 21
64.98879270803043
 31
0.0
  0
LINE
  5
26A
330
E3
100
AcDbEntity
  8
0
  6
Continuous
 62
   251
370
    35
100
AcDbLine
 10
203.1063988372152
 20
64.98879270803043
 30
0.0
 11
205.5138064672699
 21
68.12703899678523
 31
0.0
  0
LINE
  5
26B
330
E3
100
AcDbEntity
  8
0
  6
Continuous
 62
   251
370
    35
100
AcDbLine
 10
205.5138064672699
 20
68.12703899678523
 30
0.0
 11
206.8101038545378
 21
70.8154843616001
 31
0.0
  0
LINE
  5
26C
330
E3
100
AcDbEntity
  8
0
  6
Continuous
 62
   251
370
    35
100
AcDbLine
 10
206.8101038545378
 20
70.8154843616001
 30
0.0
 11
206.06936369268
 21
73.20359394937631
 31
0.0
  0
LINE
  5
26D
330
E3
100
AcDbEntity
  8
0
  6
Continuous
 62
   251
370
    35
100
AcDbLine
 10
206.06936369268
 20
73.20359394937631
 30
0.0
 11
204.2175090800019
 21
74.84442409101632
 31
0.0
  0
LINE
  5
26E
330
E3
100
AcDbEntity
  8
0
  6
Continuous
 62
   251
370
    35
100
AcDbLine
 10
204.2175090800019
 20
74.84442409101632
 30
0.0
 11
201.8101014499472
 21
75.02292046200812
 31
0.0
  0
LINE
  5
26F
330
E3
100
AcDbEntity
  8
0
  6
Continuous
 62
   251
370
    35
100
AcDbLine
 10
206.8101038545378
 20
57.8154840009115
 30
0.0
 11
209.2175114845925
 21
58.35685594491724
 31
0.0
  0
LINE
  5
270
330
E3
100
AcDbEntity
  8
0
  6
Continuous
 62
   251
370
    35
100
AcDbLine
 10
209.2175114845925
 20
58.35685594491724
 30
0.0
 11
211.069361889237
 21
59.81584012078709
 31
0.0
  0
LINE
  5
271
330
E3
100
AcDbEntity
  8
0
  6
Continuous
 62
   251
370
    35
100
AcDbLine
 10
211.069361889237
 20
59.81584012078709
 30
0.0
 11
211.8101020510948
 21
62.02292010131952
 31
0.0
  0
LINE
  5
272
330
E3
100
AcDbEntity
  8
0
  6
Continuous
 62
   251
370
    35
100
AcDbLine
 10
211.8101020510948
 20
62.02292010131952
 30
0.0
 11
210.5138088718605
 21
64.98879270803043
 31
0.0
  0
LINE
  5
273
330
E3
100
AcDbEntity
  8
0
  6
Continuous
 62
   251
370
    35
100
AcDbLine
 10
210.5138088718605
 20
64.98879270803043
 30
0.0
 11
208.1064012418058
 21
68.12703899678523
 31
0.0
  0
LINE
  5
274
330
E3
100
AcDbEntity
  8
0
  6
Continuous
 62
   251
370
    35
100
AcDbLine
 10
208.1064012418058
 20
68.12703899678523
 30
0.0
 11
206.8101038545378
 21
70.8154843616001
 31
0.0
  0
LINE
  5
275
330
E3
100
AcDbEntity
  8
0
  6
Continuous
 62
   251
370
    35
100
AcDbLine
 10
206.8101038545378
 20
70.8154843616001
 30
0.0
 11
207.5508440163956
 21
73.20359394937631
 31
0.0
  0
LINE
  5
276
330
E3
100
AcDbEntity
  8
0
  6
Continuous
 62
   251
370
    35
100
AcDbLine
 10
207.5508440163956
 20
73.20359394937631
 30
0.0
 11
209.4026944210401
 21
74.84442409101632
 31
0.0
  0
LINE
  5
277
330
E3
100
AcDbEntity
  8
0
  6
Continuous
 62
   251
370
    35
100
AcDbLine
 10
209.4026944210401
 20
74.84442409101632
 30
0.0
 11
211.8101020510948
 21
75.02292046200812
 31
0.0
  0
LINE
  5
278
330
E3
100
AcDbEntity
  8
0
  6
Continuous
 62
   251
370
    35
100
AcDbLine
 10
216.8101044556855
 20
55.41927815640965
 30
0.0
 11
214.4026968256308
 21
56.95879988813812
 31
0.0
  0
LINE
  5
279
330
E3
100
AcDbEntity
  8
0
  6
Continuous
 62
   251
370
    35
100
AcDbLine
 10
214.4026968256308
 20
56.95879988813812
 30
0.0
 11
212.5508422129527
 21
59.39843684785065
 31
0.0
  0
LINE
  5
27A
330
E3
100
AcDbEntity
  8
0
  6
Continuous
 62
   251
370
    35
100
AcDbLine
 10
212.5508422129527
 20
59.39843684785065
 30
0.0
 11
211.8101020510948
 21
62.02292010131952
 31
0.0
  0
LINE
  5
27B
330
E3
100
AcDbEntity
  8
0
  6
Continuous
 62
   251
370
    35
100
AcDbLine
 10
211.8101020510948
 20
62.02292010131952
 30
0.0
 11
213.1063994383628
 21
64.2652676117987
 31
0.0
  0
LINE
  5
27C
330
E3
100
AcDbEntity
  8
0
  6
Continuous
 62
   251
370
    35
100
AcDbLine
 10
213.1063994383628
 20
64.2652676117987
 30
0.0
 11
215.5138070684175
 21
66.21880094134883
 31
0.0
  0
LINE
  5
27D
330
E3
100
AcDbEntity
  8
0
  6
Continuous
 62
   251
370
    35
100
AcDbLine
 10
215.5138070684175
 20
66.21880094134883
 30
0.0
 11
216.8101044556855
 21
68.41927851709825
 31
0.0
  0
LINE
  5
27E
330
E3
100
AcDbEntity
  8
0
  6
Continuous
 62
   251
370
    35
100
AcDbLine
 10
216.8101044556855
 20
68.41927851709825
 30
0.0
 11
216.0693642938277
 21
71.07155583276715
 31
0.0
  0
LINE
  5
27F
330
E3
100
AcDbEntity
  8
0
  6
Continuous
 62
   251
370
    35
100
AcDbLine
 10
216.0693642938277
 20
71.07155583276715
 30
0.0
 11
214.2175096811495
 21
73.53900368681427
 31
0.0
  0
LINE
  5
280
330
E3
100
AcDbEntity
  8
0
  6
Continuous
 62
   251
370
    35
100
AcDbLine
 10
214.2175096811495
 20
73.53900368681427
 30
0.0
 11
211.8101020510948
 21
75.02292046200812
 31
0.0
  0
LINE
  5
281
330
E3
100
AcDbEntity
  8
0
  6
Continuous
 62
   251
370
    35
100
AcDbLine
 10
216.8101044556855
 20
55.41927815640965
 30
0.0
 11
219.2175120857402
 21
55.3743069008863
 31
0.0
  0
LINE
  5
282
330
E3
100
AcDbEntity
  8
0
  6
Continuous
 62
   251
370
    35
100
AcDbLine
 10
219.2175120857402
 20
55.3743069008863
 30
0.0
 11
221.0693624903847
 21
56.63714200463958
 31
0.0
  0
LINE
  5
283
330
E3
100
AcDbEntity
  8
0
  6
Continuous
 62
   251
370
    35
100
AcDbLine
 10
221.0693624903847
 20
56.63714200463958
 30
0.0
 11
221.8101026522425
 21
58.8138441903163
 31
0.0
  0
LINE
  5
284
330
E3
100
AcDbEntity
  8
0
  6
Continuous
 62
   251
370
    35
100
AcDbLine
 10
221.8101026522425
 20
58.8138441903163
 30
0.0
 11
220.5138052649745
 21
61.84915776817405
 31
0.0
  0
LINE
  5
285
330
E3
100
AcDbEntity
  8
0
  6
Continuous
 62
   251
370
    35
100
AcDbLine
 10
220.5138052649745
 20
61.84915776817405
 30
0.0
 11
218.1063976349198
 21
65.3642881739343
 31
0.0
  0
LINE
  5
286
330
E3
100
AcDbEntity
  8
0
  6
Continuous
 62
   251
370
    35
100
AcDbLine
 10
218.1063976349198
 20
65.3642881739343
 30
0.0
 11
216.8101044556855
 21
68.41927851709825
 31
0.0
  0
LINE
  5
287
330
E3
100
AcDbEntity
  8
0
  6
Continuous
 62
   251
370
    35
100
AcDbLine
 10
216.8101044556855
 20
68.41927851709825
 30
0.0
 11
217.5508446175433
 21
70.58305362342925
 31
0.0
  0
LINE
  5
288
330
E3
100
AcDbEntity
  8
0
  6
Continuous
 62
   251
370
    35
100
AcDbLine
 10
217.5508446175433
 20
70.58305362342925
 30
0.0
 11
219.4026950221878
 21
71.8332267539562
 31
0.0
  0
LINE
  5
289
330
E3
100
AcDbEntity
  8
0
  6
Continuous
 62
   251
370
    35
100
AcDbLine
 10
219.4026950221878
 20
71.8332267539562
 30
0.0
 11
221.8101026522425
 21
71.81384455100489
 31
0.0
  0
LINE
  5
28A
330
E3
100
AcDbEntity
  8
0
  6
Continuous
 62
   251
370
    35
100
AcDbLine
 10
226.8101050568331
 20
52.35508484367244
 30
0.0
 11
224.4026974267784
 21
53.77443355067594
 31
0.0
  0
LINE
  5
28B
330
E3
100
AcDbEntity
  8
0
  6
Continuous
 62
   251
370
    35
100
AcDbLine
 10
224.4026974267784
 20
53.77443355067594
 30
0.0
 11
222.5508428141003
 21
56.17896709375371
 31
0.0
  0
LINE
  5
28C
330
E3
100
AcDbEntity
  8
0
  6
Continuous
 62
   251
370
    35
100
AcDbLine
 10
222.5508428141003
 20
56.17896709375371
 30
0.0
 11
221.8101026522425
 21
58.8138441903163
 31
0.0
  0
LINE
  5
28D
330
E3
100
AcDbEntity
  8
0
  6
Continuous
 62
   251
370
    35
100
AcDbLine
 10
221.8101026522425
 20
58.8138441903163
 30
0.0
 11
223.1064000395105
 21
61.04769568087395
 31
0.0
  0
LINE
  5
28E
330
E3
100
AcDbEntity
  8
0
  6
Continuous
 62
   251
370
    35
100
AcDbLine
 10
223.1064000395105
 20
61.04769568087395
 30
0.0
 11
225.5138076695652
 21
63.08479214247072
 31
0.0
  0
LINE
  5
28F
330
E3
100
AcDbEntity
  8
0
  6
Continuous
 62
   251
370
    35
100
AcDbLine
 10
225.5138076695652
 20
63.08479214247072
 30
0.0
 11
226.8101050568331
 21
65.35508520436103
 31
0.0
  0
LINE
  5
290
330
E3
100
AcDbEntity
  8
0
  6
Continuous
 62
   251
370
    35
100
AcDbLine
 10
226.8101050568331
 20
65.35508520436103
 30
0.0
 11
226.0693606869417
 21
67.96602279753893
 31
0.0
  0
LINE
  5
291
330
E3
100
AcDbEntity
  8
0
  6
Continuous
 62
   251
370
    35
100
AcDbLine
 10
226.0693606869417
 20
67.96602279753893
 30
0.0
 11
224.2175102822972
 21
70.347109177168
 31
0.0
  0
LINE
  5
292
330
E3
100
AcDbEntity
  8
0
  6
Continuous
 62
   251
370
    35
100
AcDbLine
 10
224.2175102822972
 20
70.347109177168
 30
0.0
 11
221.8101026522425
 21
71.81384455100489
 31
0.0
  0
LINE
  5
293
330
E3
100
AcDbEntity
  8
0
  6
Continuous
 62
   251
370
    35
100
AcDbLine
 10
226.8101050568331
 20
52.35508484367244
 30
0.0
 11
229.2175126868878
 21
52.47047333414736
 31
0.0
  0
LINE
  5
294
330
E3
100
AcDbEntity
  8
0
  6
Continuous
 62
   251
370
    35
100
AcDbLine
 10
229.2175126868878
 20
52.47047333414736
 30
0.0
 11
231.0693630915324
 21
53.88271046429728
 31
0.0
  0
LINE
  5
295
330
E3
100
AcDbEntity
  8
0
  6
Continuous
 62
   251
370
    35
100
AcDbLine
 10
231.0693630915324
 20
53.88271046429728
 30
0.0
 11
231.8101032533901
 21
56.12523471218942
 31
0.0
  0
LINE
  5
296
330
E3
100
AcDbEntity
  8
0
  6
Continuous
 62
   251
370
    35
100
AcDbLine
 10
231.8101032533901
 20
56.12523471218942
 30
0.0
 11
230.5138058661222
 21
59.04760466711777
 31
0.0
  0
LINE
  5
297
330
E3
100
AcDbEntity
  8
0
  6
Continuous
 62
   251
370
    35
100
AcDbLine
 10
230.5138058661222
 20
59.04760466711777
 30
0.0
 11
228.1063982360675
 21
62.38157080855772
 31
0.0
  0
LINE
  5
298
330
E3
100
AcDbEntity
  8
0
  6
Continuous
 62
   251
370
    35
100
AcDbLine
 10
228.1063982360675
 20
62.38157080855772
 30
0.0
 11
226.8101050568331
 21
65.35508520436103
 31
0.0
  0
LINE
  5
299
330
E3
100
AcDbEntity
  8
0
  6
Continuous
 62
   251
370
    35
100
AcDbLine
 10
226.8101050568331
 20
65.35508520436103
 30
0.0
 11
227.550845218691
 21
67.5640083036283
 31
0.0
  0
LINE
  5
29A
330
E3
100
AcDbEntity
  8
0
  6
Continuous
 62
   251
370
    35
100
AcDbLine
 10
227.550845218691
 20
67.5640083036283
 30
0.0
 11
229.4026956233355
 21
68.9433344026705
 31
0.0
  0
LINE
  5
29B
330
E3
100
AcDbEntity
  8
0
  6
Continuous
 62
   251
370
    35
100
AcDbLine
 10
229.4026956233355
 20
68.9433344026705
 30
0.0
 11
231.8101032533901
 21
69.12523507287801
 31
0.0
  0
LINE
  5
29C
330
E3
100
AcDbEntity
  8
0
  6
Continuous
 62
   251
370
    35
100
AcDbLine
 10
236.8101014499472
 20
50.19363257191137
 30
0.0
 11
234.4026938198925
 21
51.34194183208615
 31
0.0
  0
LINE
  5
29D
330
E3
100
AcDbEntity
  8
0
  6
Continuous
 62
   251
370
    35
100
AcDbLine
 10
234.4026938198925
 20
51.34194183208615
 30
0.0
 11
232.550843415248
 21
53.55952085655334
 31
0.0
  0
LINE
  5
29E
330
E3
100
AcDbEntity
  8
0
  6
Continuous
 62
   251
370
    35
100
AcDbLine
 10
232.550843415248
 20
53.55952085655334
 30
0.0
 11
231.8101032533901
 21
56.12523471218942
 31
0.0
  0
LINE
  5
29F
330
E3
100
AcDbEntity
  8
0
  6
Continuous
 62
   251
370
    35
100
AcDbLine
 10
231.8101032533901
 20
56.12523471218942
 30
0.0
 11
233.1064006406581
 21
58.4822595554582
 31
0.0
  0
LINE
  5
2A0
330
E3
100
AcDbEntity
  8
0
  6
Continuous
 62
   251
370
    35
100
AcDbLine
 10
233.1064006406581
 20
58.4822595554582
 30
0.0
 11
235.5138082707128
 21
60.77363907392449
 31
0.0
  0
LINE
  5
2A1
330
E3
100
AcDbEntity
  8
0
  6
Continuous
 62
   251
370
    35
100
AcDbLine
 10
235.5138082707128
 20
60.77363907392449
 30
0.0
 11
236.8101014499472
 21
63.19363293259997
 31
0.0
  0
LINE
  5
2A2
330
E3
100
AcDbEntity
  8
0
  6
Continuous
 62
   251
370
    35
100
AcDbLine
 10
236.8101014499472
 20
63.19363293259997
 30
0.0
 11
236.0693612880894
 21
65.71798181754318
 31
0.0
  0
LINE
  5
2A3
330
E3
100
AcDbEntity
  8
0
  6
Continuous
 62
   251
370
    35
100
AcDbLine
 10
236.0693612880894
 20
65.71798181754318
 30
0.0
 11
234.2175108834448
 21
67.89504589411305
 31
0.0
  0
LINE
  5
2A4
330
E3
100
AcDbEntity
  8
0
  6
Continuous
 62
   251
370
    35
100
AcDbLine
 10
234.2175108834448
 20
67.89504589411305
 30
0.0
 11
231.8101032533901
 21
69.12523507287801
 31
0.0
  0
LINE
  5
2A5
330
E3
100
AcDbEntity
  8
0
  6
Continuous
 62
   251
370
    35
100
AcDbLine
 10
236.8101014499472
 20
50.19363257191137
 30
0.0
 11
239.2175090800019
 21
50.60841844792298
 31
0.0
  0
LINE
  5
2A6
330
E3
100
AcDbEntity
  8
0
  6
Continuous
 62
   251
370
    35
100
AcDbLine
 10
239.2175090800019
 20
50.60841844792298
 30
0.0
 11
241.06936369268
 21
52.26779760185334
 31
0.0
  0
LINE
  5
2A7
330
E3
100
AcDbEntity
  8
0
  6
Continuous
 62
   251
370
    35
100
AcDbLine
 10
241.06936369268
 20
52.26779760185334
 30
0.0
 11
241.8101038545378
 21
54.61280009300924
 31
0.0
  0
LINE
  5
2A8
330
E3
100
AcDbEntity
  8
0
  6
Continuous
 62
   251
370
    35
100
AcDbLine
 10
241.8101038545378
 20
54.61280009300924
 30
0.0
 11
240.5138064672698
 21
57.35714076867998
 31
0.0
  0
LINE
  5
2A9
330
E3
100
AcDbEntity
  8
0
  6
Continuous
 62
   251
370
    35
100
AcDbLine
 10
240.5138064672698
 20
57.35714076867998
 30
0.0
 11
238.1063988372152
 21
60.37805024738396
 31
0.0
  0
LINE
  5
2AA
330
E3
100
AcDbEntity
  8
0
  6
Continuous
 62
   251
370
    35
100
AcDbLine
 10
238.1063988372152
 20
60.37805024738396
 30
0.0
 11
236.8101014499472
 21
63.19363293259997
 31
0.0
  0
LINE
  5
2AB
330
E3
100
AcDbEntity
  8
0
  6
Continuous
 62
   251
370
    35
100
AcDbLine
 10
236.8101014499472
 20
63.19363293259997
 30
0.0
 11
237.5508458198386
 21
65.49183367359862
 31
0.0
  0
LINE
  5
2AC
330
E3
100
AcDbEntity
  8
0
  6
Continuous
 62
   251
370
    35
100
AcDbLine
 10
237.5508458198386
 20
65.49183367359862
 30
0.0
 11
239.4026962244832
 21
67.10537471707555
 31
0.0
  0
LINE
  5
2AD
330
E3
100
AcDbEntity
  8
0
  6
Continuous
 62
   251
370
    35
100
AcDbLine
 10
239.4026962244832
 20
67.10537471707555
 30
0.0
 11
241.8101038545378
 21
67.61280045369786
 31
0.0
  0
LINE
  5
2AE
330
E3
100
AcDbEntity
  8
0
  6
Continuous
 62
   251
370
    35
100
AcDbLine
 10
246.8101020510948
 20
49.41548299098343
 30
0.0
 11
244.4026944210401
 21
50.20213279986656
 31
0.0
  0
LINE
  5
2AF
330
E3
100
AcDbEntity
  8
0
  6
Continuous
 62
   251
370
    35
100
AcDbLine
 10
244.4026944210401
 20
50.20213279986656
 30
0.0
 11
242.5508440163956
 21
52.15144547167456
 31
0.0
  0
LINE
  5
2B0
330
E3
100
AcDbEntity
  8
0
  6
Continuous
 62
   251
370
    35
100
AcDbLine
 10
242.5508440163956
 20
52.15144547167456
 30
0.0
 11
241.8101038545378
 21
54.61280009300924
 31
0.0
  0
LINE
  5
2B1
330
E3
100
AcDbEntity
  8
0
  6
Continuous
 62
   251
370
    35
100
AcDbLine
 10
241.8101038545378
 20
54.61280009300924
 30
0.0
 11
243.1064012418058
 21
57.15361080555679
 31
0.0
  0
LINE
  5
2B2
330
E3
100
AcDbEntity
  8
0
  6
Continuous
 62
   251
370
    35
100
AcDbLine
 10
243.1064012418058
 20
57.15361080555679
 30
0.0
 11
245.5138088718605
 21
59.79917209953435
 31
0.0
  0
LINE
  5
2B3
330
E3
100
AcDbEntity
  8
0
  6
Continuous
 62
   251
370
    35
100
AcDbLine
 10
245.5138088718605
 20
59.79917209953435
 30
0.0
 11
246.8101020510948
 21
62.41548335167202
 31
0.0
  0
LINE
  5
2B4
330
E3
100
AcDbEntity
  8
0
  6
Continuous
 62
   251
370
    35
100
AcDbLine
 10
246.8101020510948
 20
62.41548335167202
 30
0.0
 11
246.069361889237
 21
64.82724208851171
 31
0.0
  0
LINE
  5
2B5
330
E3
100
AcDbEntity
  8
0
  6
Continuous
 62
   251
370
    35
100
AcDbLine
 10
246.069361889237
 20
64.82724208851171
 30
0.0
 11
244.2175114845925
 21
66.72797721996588
 31
0.0
  0
LINE
  5
2B6
330
E3
100
AcDbEntity
  8
0
  6
Continuous
 62
   251
370
    35
100
AcDbLine
 10
244.2175114845925
 20
66.72797721996588
 30
0.0
 11
241.8101038545378
 21
67.61280045369786
 31
0.0
  0
LINE
  5
2B7
330
E3
100
AcDbEntity
  8
0
  6
Continuous
 62
   251
370
    35
100
AcDbLine
 10
246.8101020510948
 20
49.41548299098343
 30
0.0
 11
249.2175096811495
 21
50.20213279986656
 31
0.0
  0
LINE
  5
2B8
330
E3
100
AcDbEntity
  8
0
  6
Continuous
 62
   251
370
    35
100
AcDbLine
 10
249.2175096811495
 20
50.20213279986656
 30
0.0
 11
251.0693642938277
 21
52.15144547167456
 31
0.0
  0
LINE
  5
2B9
330
E3
100
AcDbEntity
  8
0
  6
Continuous
 62
   251
370
    35
100
AcDbLine
 10
251.0693642938277
 20
52.15144547167456
 30
0.0
 11
251.8101044556855
 21
54.61280009300924
 31
0.0
  0
LINE
  5
2BA
330
E3
100
AcDbEntity
  8
0
  6
Continuous
 62
   251
370
    35
100
AcDbLine
 10
251.8101044556855
 20
54.61280009300924
 30
0.0
 11
250.5138070684175
 21
57.15361080555679
 31
0.0
  0
LINE
  5
2BB
330
E3
100
AcDbEntity
  8
0
  6
Continuous
 62
   251
370
    35
100
AcDbLine
 10
250.5138070684175
 20
57.15361080555679
 30
0.0
 11
248.1063994383628
 21
59.79917209953435
 31
0.0
  0
LINE
  5
2BC
330
E3
100
AcDbEntity
  8
0
  6
Continuous
 62
   251
370
    35
100
AcDbLine
 10
248.1063994383628
 20
59.79917209953435
 30
0.0
 11
246.8101020510948
 21
62.41548335167202
 31
0.0
  0
LINE
  5
2BD
330
E3
100
AcDbEntity
  8
0
  6
Continuous
 62
   251
370
    35
100
AcDbLine
 10
246.8101020510948
 20
62.41548335167202
 30
0.0
 11
247.5508422129527
 21
64.82724208851171
 31
0.0
  0
LINE
  5
2BE
330
E3
100
AcDbEntity
  8
0
  6
Continuous
 62
   251
370
    35
100
AcDbLine
 10
247.5508422129527
 20
64.82724208851171
 30
0.0
 11
249.4026968256308
 21
66.72797721996588
 31
0.0
  0
LINE
  5
2BF
330
E3
100
AcDbEntity
  8
0
  6
Continuous
 62
   251
370
    35
100
AcDbLine
 10
249.4026968256308
 20
66.72797721996588
 30
0.0
 11
251.8101044556855
 21
67.61280045369786
 31
0.0
  0
LINE
  5
2C0
330
E3
100
AcDbEntity
  8
0
  6
Continuous
 62
   251
370
    35
100
AcDbLine
 10
256.8101026522425
 20
50.19363257191137
 30
0.0
 11
254.4026950221878
 21
50.60841844792298
 31
0.0
  0
LINE
  5
2C1
330
E3
100
AcDbEntity
  8
0
  6
Continuous
 62
   251
370
    35
100
AcDbLine
 10
254.4026950221878
 20
50.60841844792298
 30
0.0
 11
252.5508446175433
 21
52.26779760185334
 31
0.0
  0
LINE
  5
2C2
330
E3
100
AcDbEntity
  8
0
  6
Continuous
 62
   251
370
    35
100
AcDbLine
 10
252.5508446175433
 20
52.26779760185334
 30
0.0
 11
251.8101044556855
 21
54.61280009300924
 31
0.0
  0
LINE
  5
2C3
330
E3
100
AcDbEntity
  8
0
  6
Continuous
 62
   251
370
    35
100
AcDbLine
 10
251.8101044556855
 20
54.61280009300924
 30
0.0
 11
253.1063976349198
 21
57.35714076867998
 31
0.0
  0
LINE
  5
2C4
330
E3
100
AcDbEntity
  8
0
  6
Continuous
 62
   251
370
    35
100
AcDbLine
 10
253.1063976349198
 20
57.35714076867998
 30
0.0
 11
255.5138052649745
 21
60.37805024738396
 31
0.0
  0
LINE
  5
2C5
330
E3
100
AcDbEntity
  8
0
  6
Continuous
 62
   251
370
    35
100
AcDbLine
 10
255.5138052649745
 20
60.37805024738396
 30
0.0
 11
256.8101026522425
 21
63.19363293259997
 31
0.0
  0
LINE
  5
2C6
330
E3
100
AcDbEntity
  8
0
  6
Continuous
 62
   251
370
    35
100
AcDbLine
 10
256.8101026522425
 20
63.19363293259997
 30
0.0
 11
256.0693624903847
 21
65.49183367359862
 31
0.0
  0
LINE
  5
2C7
330
E3
100
AcDbEntity
  8
0
  6
Continuous
 62
   251
370
    35
100
AcDbLine
 10
256.0693624903847
 20
65.49183367359862
 30
0.0
 11
254.2175120857402
 21
67.10537471707555
 31
0.0
  0
LINE
  5
2C8
330
E3
100
AcDbEntity
  8
0
  6
Continuous
 62
   251
370
    35
100
AcDbLine
 10
254.2175120857402
 20
67.10537471707555
 30
0.0
 11
251.8101044556855
 21
67.61280045369786
 31
0.0
  0
LINE
  5
2C9
330
E3
100
AcDbEntity
  8
0
  6
Continuous
 62
   251
370
    35
100
AcDbLine
 10
256.8101026522425
 20
50.19363257191137
 30
0.0
 11
259.2175102822972
 21
51.34194183208615
 31
0.0
  0
LINE
  5
2CA
330
E3
100
AcDbEntity
  8
0
  6
Continuous
 62
   251
370
    35
100
AcDbLine
 10
259.2175102822972
 20
51.34194183208615
 30
0.0
 11
261.0693606869417
 21
53.55952085655334
 31
0.0
  0
LINE
  5
2CB
330
E3
100
AcDbEntity
  8
0
  6
Continuous
 62
   251
370
    35
100
AcDbLine
 10
261.0693606869417
 20
53.55952085655334
 30
0.0
 11
261.8101050568332
 21
56.12523471218942
 31
0.0
  0
LINE
  5
2CC
330
E3
100
AcDbEntity
  8
0
  6
Continuous
 62
   251
370
    35
100
AcDbLine
 10
261.8101050568332
 20
56.12523471218942
 30
0.0
 11
260.5138076695652
 21
58.4822595554582
 31
0.0
  0
LINE
  5
2CD
330
E3
100
AcDbEntity
  8
0
  6
Continuous
 62
   251
370
    35
100
AcDbLine
 10
260.5138076695652
 20
58.4822595554582
 30
0.0
 11
258.1064000395105
 21
60.77363907392449
 31
0.0
  0
LINE
  5
2CE
330
E3
100
AcDbEntity
  8
0
  6
Continuous
 62
   251
370
    35
100
AcDbLine
 10
258.1064000395105
 20
60.77363907392449
 30
0.0
 11
256.8101026522425
 21
63.19363293259997
 31
0.0
  0
LINE
  5
2CF
330
E3
100
AcDbEntity
  8
0
  6
Continuous
 62
   251
370
    35
100
AcDbLine
 10
256.8101026522425
 20
63.19363293259997
 30
0.0
 11
257.5508428141003
 21
65.71798181754318
 31
0.0
  0
LINE
  5
2D0
330
E3
100
AcDbEntity
  8
0
  6
Continuous
 62
   251
370
    35
100
AcDbLine
 10
257.5508428141003
 20
65.71798181754318
 30
0.0
 11
259.4026974267785
 21
67.89504589411305
 31
0.0
  0
LINE
  5
2D1
330
E3
100
AcDbEntity
  8
0
  6
Continuous
 62
   251
370
    35
100
AcDbLine
 10
259.4026974267785
 20
67.89504589411305
 30
0.0
 11
261.8101050568332
 21
69.12523507287801
 31
0.0
  0
LINE
  5
2D2
330
E3
100
AcDbEntity
  8
0
  6
Continuous
 62
   251
370
    35
100
AcDbLine
 10
266.8101032533902
 20
52.35508484367244
 30
0.0
 11
264.4026956233355
 21
52.47047333414736
 31
0.0
  0
LINE
  5
2D3
330
E3
100
AcDbEntity
  8
0
  6
Continuous
 62
   251
370
    35
100
AcDbLine
 10
264.4026956233355
 20
52.47047333414736
 30
0.0
 11
262.550845218691
 21
53.88271046429728
 31
0.0
  0
LINE
  5
2D4
330
E3
100
AcDbEntity
  8
0
  6
Continuous
 62
   251
370
    35
100
AcDbLine
 10
262.550845218691
 20
53.88271046429728
 30
0.0
 11
261.8101050568332
 21
56.12523471218942
 31
0.0
  0
LINE
  5
2D5
330
E3
100
AcDbEntity
  8
0
  6
Continuous
 62
   251
370
    35
100
AcDbLine
 10
261.8101050568332
 20
56.12523471218942
 30
0.0
 11
263.1063982360675
 21
59.04760466711777
 31
0.0
  0
LINE
  5
2D6
330
E3
100
AcDbEntity
  8
0
  6
Continuous
 62
   251
370
    35
100
AcDbLine
 10
263.1063982360675
 20
59.04760466711777
 30
0.0
 11
265.5138058661222
 21
62.38157080855772
 31
0.0
  0
LINE
  5
2D7
330
E3
100
AcDbEntity
  8
0
  6
Continuous
 62
   251
370
    35
100
AcDbLine
 10
265.5138058661222
 20
62.38157080855772
 30
0.0
 11
266.8101032533902
 21
65.35508520436103
 31
0.0
  0
LINE
  5
2D8
330
E3
100
AcDbEntity
  8
0
  6
Continuous
 62
   251
370
    35
100
AcDbLine
 10
266.8101032533902
 20
65.35508520436103
 30
0.0
 11
266.0693630915324
 21
67.5640083036283
 31
0.0
  0
LINE
  5
2D9
330
E3
100
AcDbEntity
  8
0
  6
Continuous
 62
   251
370
    35
100
AcDbLine
 10
266.0693630915324
 20
67.5640083036283
 30
0.0
 11
264.2175126868879
 21
68.9433344026705
 31
0.0
  0
LINE
  5
2DA
330
E3
100
AcDbEntity
  8
0
  6
Continuous
 62
   251
370
    35
100
AcDbLine
 10
264.2175126868879
 20
68.9433344026705
 30
0.0
 11
261.8101050568332
 21
69.12523507287801
 31
0.0
  0
LINE
  5
2DB
330
E3
100
AcDbEntity
  8
0
  6
Continuous
 62
   251
370
    35
100
AcDbLine
 10
266.8101032533902
 20
52.35508484367244
 30
0.0
 11
269.2175108834449
 21
53.77443355067594
 31
0.0
  0
LINE
  5
2DC
330
E3
100
AcDbEntity
  8
0
  6
Continuous
 62
   251
370
    35
100
AcDbLine
 10
269.2175108834449
 20
53.77443355067594
 30
0.0
 11
271.0693612880894
 21
56.17896709375371
 31
0.0
  0
LINE
  5
2DD
330
E3
100
AcDbEntity
  8
0
  6
Continuous
 62
   251
370
    35
100
AcDbLine
 10
271.0693612880894
 20
56.17896709375371
 30
0.0
 11
271.8101014499472
 21
58.8138441903163
 31
0.0
  0
LINE
  5
2DE
330
E3
100
AcDbEntity
  8
0
  6
Continuous
 62
   251
370
    35
100
AcDbLine
 10
271.8101014499472
 20
58.8138441903163
 30
0.0
 11
270.5138082707128
 21
61.04769568087395
 31
0.0
  0
LINE
  5
2DF
330
E3
100
AcDbEntity
  8
0
  6
Continuous
 62
   251
370
    35
100
AcDbLine
 10
270.5138082707128
 20
61.04769568087395
 30
0.0
 11
268.1064006406581
 21
63.08479214247072
 31
0.0
  0
LINE
  5
2E0
330
E3
100
AcDbEntity
  8
0
  6
Continuous
 62
   251
370
    35
100
AcDbLine
 10
268.1064006406581
 20
63.08479214247072
 30
0.0
 11
266.8101032533902
 21
65.35508520436103
 31
0.0
  0
LINE
  5
2E1
330
E3
100
AcDbEntity
  8
0
  6
Continuous
 62
   251
370
    35
100
AcDbLine
 10
266.8101032533902
 20
65.35508520436103
 30
0.0
 11
267.550843415248
 21
67.96602279753893
 31
0.0
  0
LINE
  5
2E2
330
E3
100
AcDbEntity
  8
0
  6
Continuous
 62
   251
370
    35
100
AcDbLine
 10
267.550843415248
 20
67.96602279753893
 30
0.0
 11
269.4026938198925
 21
70.347109177168
 31
0.0
  0
LINE
  5
2E3
330
E3
100
AcDbEntity
  8
0
  6
Continuous
 62
   251
370
    35
100
AcDbLine
 10
269.4026938198925
 20
70.347109177168
 30
0.0
 11
271.8101014499472
 21
71.81384455100489
 31
0.0
  0
LINE
  5
2E4
330
E3
100
AcDbEntity
  8
0
  6
Continuous
 62
   251
370
    35
100
AcDbLine
 10
276.8101038545379
 20
55.41927815640965
 30
0.0
 11
274.4026962244832
 21
55.3743069008863
 31
0.0
  0
LINE
  5
2E5
330
E3
100
AcDbEntity
  8
0
  6
Continuous
 62
   251
370
    35
100
AcDbLine
 10
274.4026962244832
 20
55.3743069008863
 30
0.0
 11
272.5508458198386
 21
56.63714200463958
 31
0.0
  0
LINE
  5
2E6
330
E3
100
AcDbEntity
  8
0
  6
Continuous
 62
   251
370
    35
100
AcDbLine
 10
272.5508458198386
 20
56.63714200463958
 30
0.0
 11
271.8101014499472
 21
58.8138441903163
 31
0.0
  0
LINE
  5
2E7
330
E3
100
AcDbEntity
  8
0
  6
Continuous
 62
   251
370
    35
100
AcDbLine
 10
271.8101014499472
 20
58.8138441903163
 30
0.0
 11
273.1063988372152
 21
61.84915776817405
 31
0.0
  0
LINE
  5
2E8
330
E3
100
AcDbEntity
  8
0
  6
Continuous
 62
   251
370
    35
100
AcDbLine
 10
273.1063988372152
 20
61.84915776817405
 30
0.0
 11
275.5138064672699
 21
65.3642881739343
 31
0.0
  0
LINE
  5
2E9
330
E3
100
AcDbEntity
  8
0
  6
Continuous
 62
   251
370
    35
100
AcDbLine
 10
275.5138064672699
 20
65.3642881739343
 30
0.0
 11
276.8101038545379
 21
68.41927851709825
 31
0.0
  0
LINE
  5
2EA
330
E3
100
AcDbEntity
  8
0
  6
Continuous
 62
   251
370
    35
100
AcDbLine
 10
276.8101038545379
 20
68.41927851709825
 30
0.0
 11
276.06936369268
 21
70.58305362342925
 31
0.0
  0
LINE
  5
2EB
330
E3
100
AcDbEntity
  8
0
  6
Continuous
 62
   251
370
    35
100
AcDbLine
 10
276.06936369268
 20
70.58305362342925
 30
0.0
 11
274.2175090800019
 21
71.8332267539562
 31
0.0
  0
LINE
  5
2EC
330
E3
100
AcDbEntity
  8
0
  6
Continuous
 62
   251
370
    35
100
AcDbLine
 10
274.2175090800019
 20
71.8332267539562
 30
0.0
 11
271.8101014499472
 21
71.81384455100489
 31
0.0
  0
LINE
  5
2ED
330
E3
100
AcDbEntity
  8
0
  6
Continuous
 62
   251
370
    35
100
AcDbLine
 10
276.8101038545379
 20
55.41927815640965
 30
0.0
 11
279.2175114845925
 21
56.95879988813812
 31
0.0
  0
LINE
  5
2EE
330
E3
100
AcDbEntity
  8
0
  6
Continuous
 62
   251
370
    35
100
AcDbLine
 10
279.2175114845925
 20
56.95879988813812
 30
0.0
 11
281.069361889237
 21
59.39843684785065
 31
0.0
  0
LINE
  5
2EF
330
E3
100
AcDbEntity
  8
0
  6
Continuous
 62
   251
370
    35
100
AcDbLine
 10
281.069361889237
 20
59.39843684785065
 30
0.0
 11
281.8101020510949
 21
62.02292010131952
 31
0.0
  0
LINE
  5
2F0
330
E3
100
AcDbEntity
  8
0
  6
Continuous
 62
   251
370
    35
100
AcDbLine
 10
281.8101020510949
 20
62.02292010131952
 30
0.0
 11
280.5138088718605
 21
64.2652676117987
 31
0.0
  0
LINE
  5
2F1
330
E3
100
AcDbEntity
  8
0
  6
Continuous
 62
   251
370
    35
100
AcDbLine
 10
280.5138088718605
 20
64.2652676117987
 30
0.0
 11
278.1064012418058
 21
66.21880094134883
 31
0.0
  0
LINE
  5
2F2
330
E3
100
AcDbEntity
  8
0
  6
Continuous
 62
   251
370
    35
100
AcDbLine
 10
278.1064012418058
 20
66.21880094134883
 30
0.0
 11
276.8101038545379
 21
68.41927851709825
 31
0.0
  0
LINE
  5
2F3
330
E3
100
AcDbEntity
  8
0
  6
Continuous
 62
   251
370
    35
100
AcDbLine
 10
276.8101038545379
 20
68.41927851709825
 30
0.0
 11
277.5508440163956
 21
71.07155583276715
 31
0.0
  0
LINE
  5
2F4
330
E3
100
AcDbEntity
  8
0
  6
Continuous
 62
   251
370
    35
100
AcDbLine
 10
277.5508440163956
 20
71.07155583276715
 30
0.0
 11
279.4026944210402
 21
73.53900368681427
 31
0.0
  0
LINE
  5
2F5
330
E3
100
AcDbEntity
  8
0
  6
Continuous
 62
   251
370
    35
100
AcDbLine
 10
279.4026944210402
 20
73.53900368681427
 30
0.0
 11
281.8101020510949
 21
75.02292046200812
 31
0.0
  0
LINE
  5
2F6
330
E3
100
AcDbEntity
  8
0
  6
Continuous
 62
   251
370
    35
100
AcDbLine
 10
286.8101044556855
 20
57.8154840009115
 30
0.0
 11
284.4026968256309
 21
58.35685594491724
 31
0.0
  0
LINE
  5
2F7
330
E3
100
AcDbEntity
  8
0
  6
Continuous
 62
   251
370
    35
100
AcDbLine
 10
284.4026968256309
 20
58.35685594491724
 30
0.0
 11
282.5508422129527
 21
59.81584012078709
 31
0.0
  0
LINE
  5
2F8
330
E3
100
AcDbEntity
  8
0
  6
Continuous
 62
   251
370
    35
100
AcDbLine
 10
282.5508422129527
 20
59.81584012078709
 30
0.0
 11
281.8101020510949
 21
62.02292010131952
 31
0.0
  0
LINE
  5
2F9
330
E3
100
AcDbEntity
  8
0
  6
Continuous
 62
   251
370
    35
100
AcDbLine
 10
281.8101020510949
 20
62.02292010131952
 30
0.0
 11
283.1063994383629
 21
64.98879270803043
 31
0.0
  0
LINE
  5
2FA
330
E3
100
AcDbEntity
  8
0
  6
Continuous
 62
   251
370
    35
100
AcDbLine
 10
283.1063994383629
 20
64.98879270803043
 30
0.0
 11
285.5138070684175
 21
68.12703899678523
 31
0.0
  0
LINE
  5
2FB
330
E3
100
AcDbEntity
  8
0
  6
Continuous
 62
   251
370
    35
100
AcDbLine
 10
285.5138070684175
 20
68.12703899678523
 30
0.0
 11
286.8101044556855
 21
70.8154843616001
 31
0.0
  0
LINE
  5
2FC
330
E3
100
AcDbEntity
  8
0
  6
Continuous
 62
   251
370
    35
100
AcDbLine
 10
286.8101044556855
 20
70.8154843616001
 30
0.0
 11
286.0693642938277
 21
73.20359394937631
 31
0.0
  0
LINE
  5
2FD
330
E3
100
AcDbEntity
  8
0
  6
Continuous
 62
   251
370
    35
100
AcDbLine
 10
286.0693642938277
 20
73.20359394937631
 30
0.0
 11
284.2175096811496
 21
74.84442409101632
 31
0.0
  0
LINE
  5
2FE
330
E3
100
AcDbEntity
  8
0
  6
Continuous
 62
   251
370
    35
100
AcDbLine
 10
284.2175096811496
 20
74.84442409101632
 30
0.0
 11
281.8101020510949
 21
75.02292046200812
 31
0.0
  0
LINE
  5
2FF
330
E3
100
AcDbEntity
  8
0
  6
Continuous
 62
   251
370
    35
100
AcDbLine
 10
286.8101044556855
 20
57.8154840009115
 30
0.0
 11
289.0068621296961
 21
58.32472340003316
 31
0.0
  0
LINE
  5
300
330
E3
100
AcDbEntity
  8
0
  6
Continuous
 62
   251
370
    35
100
AcDbLine
 10
289.0068621296961
 20
58.32472340003316
 30
0.0
 11
289.3998677711801
 21
58.64031395887234
 31
0.0
  0
LINE
  5
301
330
E3
100
AcDbEntity
  8
0
  6
Continuous
 62
   251
370
    35
100
AcDbLine
 10
289.3998658677215
 20
66.09440284612752
 30
0.0
 11
287.9929749183879
 21
68.3960820431364
 31
0.0
  0
LINE
  5
302
330
E3
100
AcDbEntity
  8
0
  6
Continuous
 62
   251
370
    35
100
AcDbLine
 10
287.9929749183879
 20
68.3960820431364
 30
0.0
 11
286.8101044556855
 21
71.25298099517319
 31
0.0
  0
LINE
  5
303
330
E3
100
AcDbEntity
  8
0
  6
Continuous
 62
   251
370
    35
100
AcDbLine
 10
286.8101044556855
 20
71.25298099517319
 30
0.0
 11
287.4860282753681
 21
73.43366818870811
 31
0.0
  0
LINE
  5
304
330
E3
100
AcDbEntity
  8
0
  6
Continuous
 62
   251
370
    35
100
AcDbLine
 10
287.4860282753681
 20
73.43366818870811
 30
0.0
 11
289.1758441366252
 21
74.94686867001097
 31
0.0
  0
LINE
  5
305
330
E3
100
AcDbEntity
  8
0
  6
Continuous
 62
   251
370
    35
100
AcDbLine
 10
289.1758441366252
 20
74.94686867001097
 30
0.0
 11
289.3998678802796
 21
74.96693331542073
 31
0.0
  0
HATCH
  5
306
330
E3
100
AcDbEntity
  8
0
  6
Continuous
 62
   255
370
     0
100
AcDbHatch
 10
0.0
 20
0.0
 30
0.0
210
0.0
220
0.0
230
1.0
  2
SOLID
 70
     1
 71
     0
 91
        1
 92
        3
 72
     0
 73
     1
 93
        4
 10
289.3998679704787
 20
49.41548134420315
 10
7.003776846810903
 20
49.41548134420315
 10
7.003776846810903
 20
47.41548134420315
 10
289.3998679704787
 20
47.41548134420315
 97
        0
 75
     0
 76
     1
 98
        0
  0
HATCH
  5
307
330
E3
100
AcDbEntity
  8
0
  6
Continuous
 62
     9
370
    13
100
AcDbHatch
 10
0.0
 20
0.0
 30
0.0
210
0.0
220
0.0
230
1.0
  2
Gypsum_0002
 70
     0
 71
     0
 91
        1
 92
        3
 72
     0
 73
     1
 93
        4
 10
289.3998679704787
 20
49.41548134420315
 10
7.003776846810903
 20
49.41548134420315
 10
7.003776846810903
 20
47.41548134420315
 10
289.3998679704787
 20
47.41548134420315
 97
        0
 75
     0
 76
     2
 52
0.0
 41
1.0
 77
     0
 78
     1
 53
0.0
 43
-643.6738228358003
 44
301.9330324462474
 45
0.0
 46
0.75
 79
     2
 49
0.0
 49
-0.75
 98
        0
  0
LINE
  5
308
330
E3
100
AcDbEntity
  8
0
  6
Continuous
100
AcDbLine
 10
7.003776846810903
 20
47.41548134420315
 30
0.0
 11
289.3998679704787
 21
47.41548134420315
 31
0.0
  0
LINE
  5
309
330
E3
100
AcDbEntity
  8
0
  6
Continuous
100
AcDbLine
 10
289.3998679704787
 20
49.41548134420315
 30
0.0
 11
7.003776846810903
 21
49.41548134420315
 31
0.0
  0
HATCH
  5
30A
330
E3
100
AcDbEntity
  8
0
  6
Continuous
 62
   255
370
     0
100
AcDbHatch
 10
0.0
 20
0.0
 30
0.0
210
0.0
220
0.0
230
1.0
  2
SOLID
 70
     1
 71
     0
 91
        1
 92
        3
 72
     0
 73
     1
 93
        4
 10
39.81010328984069
 20
49.41548226343379
 10
53.81010328984082
 20
49.41548226343379
 10
53.81010328984082
 20
56.41548226343374
 10
39.81010328984069
 20
56.41548226343374
 97
        0
 75
     0
 76
     1
 98
        0
  0
LINE
  5
30B
330
E3
100
AcDbEntity
  8
0
  6
Continuous
100
AcDbLine
 10
39.81010181063574
 20
49.41548299098343
 30
0.0
 11
53.8101034938492
 21
49.41548299098343
 31
0.0
  0
LINE
  5
30C
330
E3
100
AcDbEntity
  8
0
  6
Continuous
100
AcDbLine
 10
53.8101034938492
 20
49.41548299098343
 30
0.0
 11
53.8101034938492
 21
56.41548383259016
 31
0.0
  0
LINE
  5
30D
330
E3
100
AcDbEntity
  8
0
  6
Continuous
100
AcDbLine
 10
53.8101034938492
 20
56.41548383259016
 30
0.0
 11
39.81010181063574
 21
56.41548383259016
 31
0.0
  0
LINE
  5
30E
330
E3
100
AcDbEntity
  8
0
  6
Continuous
100
AcDbLine
 10
39.81010181063574
 20
56.41548383259016
 30
0.0
 11
39.81010181063574
 21
49.41548299098343
 31
0.0
  0
HATCH
  5
30F
330
E3
100
AcDbEntity
  8
0
  6
Continuous
 62
   255
370
     0
100
AcDbHatch
 10
0.0
 20
0.0
 30
0.0
210
0.0
220
0.0
230
1.0
  2
SOLID
 70
     1
 71
     0
 91
        1
 92
        3
 72
     0
 73
     1
 93
        4
 10
119.8101032898408
 20
49.41548226343373
 10
133.8101032898408
 20
49.41548226343373
 10
133.8101032898408
 20
56.41548226343371
 10
119.8101032898408
 20
56.41548226343374
 97
        0
 75
     0
 76
     1
 98
        0
  0
LINE
  5
310
330
E3
100
AcDbEntity
  8
0
  6
Continuous
100
AcDbLine
 10
119.8101024117834
 20
49.41548299098343
 30
0.0
 11
133.8101040949969
 21
49.41548299098343
 31
0.0
  0
LINE
  5
311
330
E3
100
AcDbEntity
  8
0
  6
Continuous
100
AcDbLine
 10
133.8101040949969
 20
49.41548299098343
 30
0.0
 11
133.8101040949969
 21
56.41548383259016
 31
0.0
  0
LINE
  5
312
330
E3
100
AcDbEntity
  8
0
  6
Continuous
100
AcDbLine
 10
133.8101040949969
 20
56.41548383259016
 30
0.0
 11
119.8101024117834
 21
56.41548383259016
 31
0.0
  0
LINE
  5
313
330
E3
100
AcDbEntity
  8
0
  6
Continuous
100
AcDbLine
 10
119.8101024117834
 20
56.41548383259016
 30
0.0
 11
119.8101024117834
 21
49.41548299098343
 31
0.0
  0
HATCH
  5
314
330
E3
100
AcDbEntity
  8
0
  6
Continuous
 62
   255
370
     0
100
AcDbHatch
 10
0.0
 20
0.0
 30
0.0
210
0.0
220
0.0
230
1.0
  2
SOLID
 70
     1
 71
     0
 91
        1
 92
        3
 72
     0
 73
     1
 93
        4
 10
199.8101032898408
 20
49.41548226343373
 10
213.8101032898407
 20
49.41548226343373
 10
213.8101032898407
 20
56.41548226343371
 10
199.8101032898408
 20
56.41548226343371
 97
        0
 75
     0
 76
     1
 98
        0
  0
LINE
  5
315
330
E3
100
AcDbEntity
  8
0
  6
Continuous
100
AcDbLine
 10
199.8101030129311
 20
49.41548299098343
 30
0.0
 11
213.8101046961445
 21
49.41548299098343
 31
0.0
  0
LINE
  5
316
330
E3
100
AcDbEntity
  8
0
  6
Continuous
100
AcDbLine
 10
213.8101046961445
 20
49.41548299098343
 30
0.0
 11
213.8101046961445
 21
56.41548383259016
 31
0.0
  0
LINE
  5
317
330
E3
100
AcDbEntity
  8
0
  6
Continuous
100
AcDbLine
 10
213.8101046961445
 20
56.41548383259016
 30
0.0
 11
199.8101030129311
 21
56.41548383259016
 31
0.0
  0
LINE
  5
318
330
E3
100
AcDbEntity
  8
0
  6
Continuous
100
AcDbLine
 10
199.8101030129311
 20
56.41548383259016
 30
0.0
 11
199.8101030129311
 21
49.41548299098343
 31
0.0
  0
HATCH
  5
319
330
E3
100
AcDbEntity
  8
0
  6
Continuous
 62
   255
370
     0
100
AcDbHatch
 10
0.0
 20
0.0
 30
0.0
210
0.0
220
0.0
230
1.0
  2
SOLID
 70
     1
 71
     0
 91
        1
 92
        3
 72
     0
 73
     1
 93
        4
 10
279.8101016311926
 20
56.41548164127616
 10
279.8101016311926
 20
49.41548294882771
 10
289.3998654245858
 20
49.41548294882771
 10
289.3998654245858
 20
56.41548164127616
 97
        0
 75
     0
 76
     1
 98
        0
  0
LINE
  5
31A
330
E3
100
AcDbEntity
  8
0
  6
Continuous
100
AcDbLine
 10
279.8101016311926
 20
49.41548294882771
 30
0.0
 11
289.3998654245858
 21
49.41548294882771
 31
0.0
  0
LINE
  5
31B
330
E3
100
AcDbEntity
  8
0
  6
Continuous
100
AcDbLine
 10
289.3998654245858
 20
56.41548164127616
 30
0.0
 11
279.8101016311926
 21
56.41548164127616
 31
0.0
  0
LINE
  5
31C
330
E3
100
AcDbEntity
  8
0
  6
Continuous
100
AcDbLine
 10
279.8101036140788
 20
56.41548383259016
 30
0.0
 11
279.8101036140788
 21
49.41548299098343
 31
0.0
  0
LINE
  5
31D
330
E3
100
AcDbEntity
  8
0
  6
Continuous
100
AcDbLine
 10
39.81010181063574
 20
49.41548299098343
 30
0.0
 11
53.8101034938492
 21
56.41548383259016
 31
0.0
  0
LINE
  5
31E
330
E3
100
AcDbEntity
  8
0
  6
Continuous
100
AcDbLine
 10
53.8101034938492
 20
49.41548299098343
 30
0.0
 11
39.81010181063574
 21
56.41548383259016
 31
0.0
  0
LINE
  5
31F
330
E3
100
AcDbEntity
  8
0
  6
Continuous
100
AcDbLine
 10
119.8101024117834
 20
49.41548299098343
 30
0.0
 11
133.8101040949969
 21
56.41548383259016
 31
0.0
  0
LINE
  5
320
330
E3
100
AcDbEntity
  8
0
  6
Continuous
100
AcDbLine
 10
133.8101040949969
 20
49.41548299098343
 30
0.0
 11
119.8101024117834
 21
56.41548383259016
 31
0.0
  0
LINE
  5
321
330
E3
100
AcDbEntity
  8
0
  6
Continuous
100
AcDbLine
 10
199.8101030129311
 20
49.41548299098343
 30
0.0
 11
213.8101046961445
 21
56.41548383259016
 31
0.0
  0
LINE
  5
322
330
E3
100
AcDbEntity
  8
0
  6
Continuous
100
AcDbLine
 10
213.8101046961445
 20
49.41548299098343
 30
0.0
 11
199.8101030129311
 21
56.41548383259016
 31
0.0
  0
LINE
  5
323
330
E3
100
AcDbEntity
  8
0
  6
Continuous
100
AcDbLine
 10
279.8101016311926
 20
49.41548294882771
 30
0.0
 11
289.3998654245858
 21
54.21036270864867
 31
0.0
  0
LINE
  5
324
330
E3
100
AcDbEntity
  8
0
  6
Continuous
100
AcDbLine
 10
289.3998654245858
 20
51.6206018814552
 30
0.0
 11
279.8101016311926
 21
56.41548164127616
 31
0.0
  0
HATCH
  5
325
330
E3
100
AcDbEntity
  8
0
  6
Continuous
 62
   253
370
    25
100
AcDbHatch
 10
0.0
 20
0.0
 30
0.0
210
0.0
220
0.0
230
1.0
  2
SOLID
 70
     1
 71
     0
 91
        1
 92
        3
 72
     0
 73
     1
 93
        4
 10
289.3998687853822
 20
181.5625672841524
 10
7.003779882806869
 20
131.7685219874794
 10
7.003779882806869
 20
126.4883009040894
 10
289.3998687853822
 20
176.2823506992499
 97
        0
 75
     0
 76
     1
 98
        0
  0
LINE
  5
326
330
E3
100
AcDbEntity
  8
0
  6
Continuous
100
AcDbLine
 10
7.00377883919978
 20
126.4883000507203
 30
0.0
 11
289.3998654011452
 21
176.2823509566093
 31
0.0
  0
LINE
  5
327
330
E3
100
AcDbEntity
  8
0
  6
Continuous
100
AcDbLine
 10
289.3998663921087
 20
181.5625702903801
 30
0.0
 11
7.003779830163149
 21
131.7685193844911
 31
0.0
  0
HATCH
  5
328
330
E3
100
AcDbEntity
  8
0
  6
Continuous
 62
   255
370
     0
100
AcDbHatch
 10
0.0
 20
0.0
 30
0.0
210
0.0
220
0.0
230
1.0
  2
SOLID
 70
     1
 71
     0
 91
        1
 92
        3
 72
     0
 73
     1
 93
        4
 10
289.3998691757258
 20
174.8313497941403
 10
7.003778606022244
 20
125.0373007131749
 10
7.003778606022244
 20
121.991024100546
 10
289.3998691757258
 20
171.7850731815114
 97
        0
 75
     0
 76
     1
 98
        0
  0
HATCH
  5
329
330
E3
100
AcDbEntity
  8
0
  6
Continuous
100
AcDbHatch
 10
0.0
 20
0.0
 30
0.0
210
0.0
220
0.0
230
1.0
  2
Wood_0002
 70
     0
 71
     0
 91
        1
 92
        3
 72
     0
 73
     1
 93
        4
 10
289.3998691757258
 20
174.8313497941403
 10
7.003778606022244
 20
125.0373007131749
 10
7.003778606022244
 20
121.991024100546
 10
289.3998691757258
 20
171.7850731815114
 97
        0
 75
     0
 76
     2
 52
0.0
 41
1.0
 77
     0
 78
     1
 53
9.999999999999996
 43
-643.6738228358003
 44
301.9330324462474
 45
-0.1562833557601421
 46
0.8863269542313407
 79
     0
 98
        0
  0
LINE
  5
32A
330
E3
100
AcDbEntity
  8
0
  6
Continuous
100
AcDbLine
 10
7.003778713823185
 20
121.9910193174044
 30
0.0
 11
289.3998652757686
 21
171.7850702232934
 31
0.0
  0
LINE
  5
32B
330
E3
100
AcDbEntity
  8
0
  6
Continuous
100
AcDbLine
 10
289.3998661924808
 20
174.831353368181
 30
0.0
 11
7.003779630535241
 21
125.037302462292
 31
0.0
  0
LINE
  5
32D
330
E3
100
AcDbEntity
  8
0
  6
Dashed
100
AcDbLine
 10
16.13064228085824
 20
127.3883812104322
 30
0.0
 11
254.1249395536678
 21
169.3531944747313
 31
0.0
  0
HATCH
  5
32E
330
E3
100
AcDbEntity
  8
0
  6
Continuous
 62
   255
370
     0
100
AcDbHatch
 10
0.0
 20
0.0
 30
0.0
210
0.0
220
0.0
230
1.0
  2
SOLID
 70
     1
 71
     0
 91
        1
 92
        3
 72
     0
 73
     1
 93
        8
 10
250.9691806189691
 20
187.2504049689701
 10
263.4213847310837
 20
116.63045823268
 10
269.6529148467924
 20
115.3173831546278
 10
257.884444589088
 20
114.0043024748629
 10
264.1159747047967
 20
112.6912273968107
 10
276.5681788169113
 20
42.07128066052059
 10
289.3998653573237
 20
42.07128066052059
 10
289.3998653573237
 20
187.2504049689701
 97
        0
 75
     0
 76
     1
 98
        0
  0
LINE
  5
32F
330
E3
100
AcDbEntity
  8
0
  6
Continuous
100
AcDbLine
 10
250.9691794288983
 20
187.2504033942237
 30
0.0
 11
263.4213821782112
 21
116.6304590460697
 31
0.0
  0
LINE
  5
330
330
E3
100
AcDbEntity
  8
0
  6
Continuous
100
AcDbLine
 10
264.1159770431598
 20
112.6912261778163
 30
0.0
 11
276.5681755844388
 21
42.07128182966233
 31
0.0
  0
LINE
  5
331
330
E3
100
AcDbEntity
  8
0
  6
Continuous
100
AcDbLine
 10
264.1159770431598
 20
112.6912261778163
 30
0.0
 11
257.8844430970726
 21
114.0043052032453
 31
0.0
  0
LINE
  5
332
330
E3
100
AcDbEntity
  8
0
  6
Continuous
100
AcDbLine
 10
257.8844430970726
 20
114.0043052032453
 30
0.0
 11
269.6529119162647
 21
115.3173800206407
 31
0.0
  0
LINE
  5
333
330
E3
100
AcDbEntity
  8
0
  6
Continuous
100
AcDbLine
 10
269.6529119162647
 20
115.3173800206407
 30
0.0
 11
263.4213821782112
 21
116.6304590460697
 31
0.0
  0
MTEXT
  5
334
102
{ACAD_XDICTIONARY
360
396
102
}
330
E3
100
AcDbEntity
  8
Doc_ Floor
  6
Continuous
100
AcDbMText
 10
109.0161133959493
 20
174.2705391812188
 30
0.0
 40
2.5
 41
65.96961070836282
 71
     6
 72
     1
  1
{TRS SEAM\PMIN. ROOF PITCH 5° FOR ANGLE SEAM\PMIN. ROOF PITCH 3° FOR DOUBLE\PSTANDING SEAM}
  7
GENERATED_STYLE_1
 73
     1
 44
1.06374321355081
  0
LINE
  5
335
330
E3
100
AcDbEntity
  8
Doc_ Floor
  6
Continuous
100
AcDbLine
 10
139.2930625205863
 20
155.1449582467838
 30
0.0
 11
136.6355251628659
 21
157.9495453400954
 31
0.0
  0
LINE
  5
336
330
E3
100
AcDbEntity
  8
Doc_ Floor
  6
Continuous
100
AcDbLine
 10
139.2930625205863
 20
155.1449582467838
 30
0.0
 11
138.3938604359024
 21
158.90256817505
 31
0.0
  0
LINE
  5
337
330
E3
100
AcDbEntity
  8
Doc_ Floor
  6
Continuous
100
AcDbLine
 10
136.6355251628659
 20
157.9495453400954
 30
0.0
 11
138.3938604359024
 21
158.90256817505
 31
0.0
  0
LWPOLYLINE
  5
338
330
E3
100
AcDbEntity
  8
Doc_ Floor
  6
Continuous
100
AcDbPolyline
 90
       17
 70
   128
 43
0.0
 10
137.5146945238644
 20
158.4260566345675
 10
136.2321132305528
 20
160.5514413670016
 10
134.9302945413046
 20
162.5001942977781
 10
133.6009013259008
 20
164.2777671318817
 10
132.2355964541228
 20
165.8896115742967
 10
130.8260427957517
 20
167.3411793300077
 10
129.3639032205687
 20
168.6379221039992
 10
127.8408405983551
 20
169.7852916012556
 10
126.2485177988919
 20
170.7887395267614
 10
124.5785976919605
 20
171.6537175855011
 10
122.8227431473419
 20
172.3856774824591
 10
120.9726170348175
 20
172.99007092262
 10
119.0198822241685
 20
173.4723496109683
 10
116.9562015851759
 20
173.8379652524885
 10
114.773237987621
 20
174.0923695521649
 10
112.4626543012851
 20
174.2410142149821
 10
110.0161133959493
 20
174.2893509459247
  0
MTEXT
  5
339
330
E3
100
AcDbEntity
  8
Doc_ Floor
  6
Continuous
100
AcDbMText
 10
153.7795275100512
 20
179.673229732155
 30
0.0
 40
2.5
 41
0.0
 71
     6
 72
     1
  1
{UNDERLAY}
  7
GENERATED_STYLE_1
 73
     1
 44
1.0
  0
LINE
  5
33A
330
E3
100
AcDbEntity
  8
Doc_ Floor
  6
Continuous
100
AcDbLine
 10
190.0823032758971
 20
158.060751045131
 30
0.0
 11
187.0408712171251
 21
160.4435879667548
 31
0.0
  0
LINE
  5
33B
330
E3
100
AcDbEntity
  8
Doc_ Floor
  6
Continuous
100
AcDbLine
 10
190.0823032758971
 20
158.060751045131
 30
0.0
 11
188.639764095497
 21
161.6450615239523
 31
0.0
  0
LINE
  5
33C
330
E3
100
AcDbEntity
  8
Doc_ Floor
  6
Continuous
100
AcDbLine
 10
187.0408712171251
 20
160.4435879667548
 30
0.0
 11
188.639764095497
 21
161.6450615239523
 31
0.0
  0
LWPOLYLINE
  5
33D
330
E3
100
AcDbEntity
  8
Doc_ Floor
  6
Continuous
100
AcDbPolyline
 90
       17
 70
   128
 43
0.0
 10
187.840318016657
 20
161.0443236913093
 10
185.8415522319246
 20
163.5503158516138
 10
183.8832706727387
 20
165.8474697362817
 10
181.9548686158555
 20
167.9422927736101
 10
180.0457413380313
 20
169.8412923918966
 10
178.1452841160225
 20
171.5509760194383
 10
176.2428922265855
 20
173.0778510845326
 10
174.3279609464765
 20
174.4284250154768
 10
172.3898855524518
 20
175.6092052405681
 10
170.4180613212678
 20
176.6266991881039
 10
168.4018835296809
 20
177.4874142863814
 10
166.3307474544473
 20
178.1978579636981
 10
164.1940483723234
 20
178.7645376483511
 10
161.9811815600655
 20
179.1939607686377
 10
159.6815422944299
 20
179.4926347528553
 10
157.284525852173
 20
179.6670670293012
 10
154.7795275100511
 20
179.7237650262726
  0
MTEXT
  5
33E
330
E3
100
AcDbEntity
  8
Doc_ Floor
  6
Continuous
100
AcDbMText
 10
73.38302843249289
 20
151.5624010444894
 30
0.0
 40
2.499999999999999
 41
0.0
 71
     4
 72
     1
  1
{PURLIN}
  7
GENERATED_STYLE_1
 73
     1
 44
1.0
  0
LINE
  5
33F
330
E3
100
AcDbEntity
  8
Doc_ Floor
  6
Continuous
100
AcDbLine
 10
55.55844889502148
 20
129.1096984115271
 30
0.0
 11
55.3797084580785
 21
132.9692647868856
 31
0.0
  0
LINE
  5
340
330
E3
100
AcDbEntity
  8
Doc_ Floor
  6
Continuous
100
AcDbLine
 10
55.55844889502148
 20
129.1096984115271
 30
0.0
 11
57.33343535717611
 21
132.5415518315283
 31
0.0
  0
LINE
  5
341
330
E3
100
AcDbEntity
  8
Doc_ Floor
  6
Continuous
100
AcDbLine
 10
55.3797084580785
 20
132.9692647868856
 30
0.0
 11
57.33343535717611
 21
132.5415518315283
 31
0.0
  0
LWPOLYLINE
  5
342
330
E3
100
AcDbEntity
  8
Doc_ Floor
  6
Continuous
100
AcDbPolyline
 90
       15
 70
   128
 43
0.0
 10
56.35657227225288
 20
132.7554073894658
 10
57.64856323773255
 20
137.6001823414578
 10
59.06596295414911
 20
141.6301272338308
 10
59.83385115763154
 20
143.3558027547725
 10
60.64768362525557
 20
144.8972879773442
 10
61.51232438249035
 20
146.2610886403911
 10
62.43263745480498
 20
147.4537104827579
 10
63.41348686766862
 20
148.4816592432897
 10
64.45973664655038
 20
149.3514406608314
 10
65.5762508169194
 20
150.0695604742279
 10
66.7678934042448
 20
150.6425244223243
 10
68.03952843399573
 20
151.0768382439655
 10
69.39601993164129
 20
151.3790076779963
 10
70.84223192265064
 20
151.5555384632619
 10
72.38302843249289
 20
151.6129363386071
  0
MTEXT
  5
343
330
E3
100
AcDbEntity
  8
Doc_ Floor
  6
Continuous
100
AcDbMText
 10
169.3388208799863
 20
112.2472749061247
 30
0.0
 40
2.499999999999999
 41
0.0
 71
     4
 72
     1
  1
{ROOF FRAME}
  7
GENERATED_STYLE_1
 73
     1
 44
1.0
  0
LINE
  5
344
330
E3
100
AcDbEntity
  8
Doc_ Floor
  6
Continuous
100
AcDbLine
 10
137.3839576102199
 20
126.6242780457985
 30
0.0
 11
140.164836641997
 21
123.9419427458306
 31
0.0
  0
LINE
  5
345
330
E3
100
AcDbEntity
  8
Doc_ Floor
  6
Continuous
100
AcDbLine
 10
137.3839576102199
 20
126.6242780457985
 30
0.0
 11
138.4511023175234
 21
122.9108693028992
 31
0.0
  0
LINE
  5
346
330
E3
100
AcDbEntity
  8
Doc_ Floor
  6
Continuous
100
AcDbLine
 10
140.164836641997
 20
123.9419427458306
 30
0.0
 11
138.4511023175234
 21
122.9108693028992
 31
0.0
  0
LWPOLYLINE
  5
347
330
E3
100
AcDbEntity
  8
Doc_ Floor
  6
Continuous
100
AcDbPolyline
 90
       15
 70
   128
 43
0.0
 10
139.3079707087527
 20
123.4264062166804
 10
140.3896757996631
 20
121.9342568038327
 10
141.5313291244526
 20
120.565566908837
 10
142.7410195771412
 20
119.3165845455165
 10
144.0268360517488
 20
118.1835577276944
 10
145.3968674422955
 20
117.162734469194
 10
146.859202642801
 20
116.2503627838385
 10
148.4219305472855
 20
115.4426906854511
 10
150.0931400497687
 20
114.7359661878549
 10
151.8809200442707
 20
114.1264373048734
 10
153.7933594248115
 20
113.6103520503295
 10
155.8385470854109
 20
113.1839584380467
 10
158.024571920089
 20
112.8435044818481
 10
162.8514886877607
 20
112.4054075929963
 10
168.3388208799863
 20
112.26604549436
  0
MTEXT
  5
348
330
E3
100
AcDbEntity
  8
Doc_ Floor
  6
Continuous
100
AcDbMText
 10
172.5766978672387
 20
92.28036681806783
 30
0.0
 40
2.499999999999999
 41
0.0
 71
     4
 72
     1
  1
{INSULAITON}
  7
GENERATED_STYLE_1
 73
     1
 44
1.0
  0
LINE
  5
349
330
E3
100
AcDbEntity
  8
Doc_ Floor
  6
Continuous
100
AcDbLine
 10
135.6421851575951
 20
65.79874239918482
 30
0.0
 11
136.408724773707
 21
69.58564444962735
 31
0.0
  0
LINE
  5
34A
330
E3
100
AcDbEntity
  8
Doc_ Floor
  6
Continuous
100
AcDbLine
 10
135.6421851575951
 20
65.79874239918482
 30
0.0
 11
138.1994787379152
 21
68.69502675357145
 31
0.0
  0
LINE
  5
34B
330
E3
100
AcDbEntity
  8
Doc_ Floor
  6
Continuous
100
AcDbLine
 10
136.408724773707
 20
69.58564444962735
 30
0.0
 11
138.1994787379152
 21
68.69502675357145
 31
0.0
  0
LWPOLYLINE
  5
34C
330
E3
100
AcDbEntity
  8
Doc_ Floor
  6
Continuous
100
AcDbPolyline
 90
       17
 70
   128
 43
0.0
 10
137.3041001537838
 20
69.14033404363082
 10
138.9819673442059
 20
72.24864985288596
 10
140.6704368381164
 20
75.09769124889564
 10
142.3804987181009
 20
77.6955630173814
 10
144.1231430667456
 20
80.0503699440647
 10
145.9093599666363
 20
82.17021681466707
 10
147.7501395003588
 20
84.06320841491002
 10
149.6564717504992
 20
85.73744953051506
 10
151.6393467996433
 20
87.20104494720371
 10
153.709754730377
 20
88.46209945069745
 10
155.8786856252863
 20
89.5287178267178
 10
158.1571295669569
 20
90.40900486098627
 10
160.5560766379749
 20
91.11106533922437
 10
163.0865169209262
 20
91.64300404715358
 10
165.7594404983967
 20
92.01292577049544
 10
168.5858374529722
 20
92.22893529497146
 10
171.5766978672387
 20
92.29913740630313
  0
MTEXT
  5
34D
330
E3
100
AcDbEntity
  8
Doc_ Floor
  6
Continuous
100
AcDbMText
 10
159.8950130004998
 20
38.85539652840225
 30
0.0
 40
2.499999999999999
 41
0.0
 71
     4
 72
     1
  1
{CEILING BATTENS}
  7
GENERATED_STYLE_1
 73
     1
 44
1.0
  0
LINE
  5
34E
330
E3
100
AcDbEntity
  8
Doc_ Floor
  6
Continuous
100
AcDbLine
 10
126.7380238451503
 20
52.03776544285795
 30
0.0
 11
129.7759506118992
 21
49.65046800557449
 31
0.0
  0
LINE
  5
34F
330
E3
100
AcDbEntity
  8
Doc_ Floor
  6
Continuous
100
AcDbLine
 10
126.7380238451503
 20
52.03776544285795
 30
0.0
 11
128.1752987754653
 21
48.45134253114875
 31
0.0
  0
LINE
  5
350
330
E3
100
AcDbEntity
  8
Doc_ Floor
  6
Continuous
100
AcDbLine
 10
129.7759506118992
 20
49.65046800557449
 30
0.0
 11
128.1752987754653
 21
48.45134253114875
 31
0.0
  0
LWPOLYLINE
  5
351
330
E3
100
AcDbEntity
  8
Doc_ Floor
  6
Continuous
100
AcDbPolyline
 90
       14
 70
   128
 43
0.0
 10
128.9756242696491
 20
49.05090441563921
 10
130.1810427157242
 20
47.69050537032078
 10
131.4361365312216
 20
46.44262304628418
 10
132.7492479469681
 20
45.30384251651561
 10
134.1287191937904
 20
44.27074885400129
 10
135.5828925025152
 20
43.33992713172741
 10
137.1201101039693
 20
42.50796242268019
 10
138.7487142289794
 20
41.7714397998458
 10
140.4770471083722
 20
41.12694433621046
 10
142.3134509729744
 20
40.57106110476037
 10
144.2662680536128
 20
40.10037517848172
 10
148.5545107863051
 20
39.40093553338359
 10
153.4085131530629
 20
39.00130598480566
 10
158.8950130004999
 20
38.87416711663755
  0
MTEXT
  5
352
330
E3
100
AcDbEntity
  8
Doc_ Floor
  6
Continuous
100
AcDbMText
 10
99.45464257178737
 20
34.82405434248786
 30
0.0
 40
2.499999999999999
 41
0.0
 71
     4
 72
     1
  1
{CEILING LINING}
  7
GENERATED_STYLE_1
 73
     1
 44
1.0
  0
LINE
  5
353
330
E3
100
AcDbEntity
  8
Doc_ Floor
  6
Continuous
100
AcDbLine
 10
66.29765372574792
 20
48.00642292623261
 30
0.0
 11
69.33558049249686
 21
45.61912548894914
 31
0.0
  0
LINE
  5
354
330
E3
100
AcDbEntity
  8
Doc_ Floor
  6
Continuous
100
AcDbLine
 10
66.29765372574792
 20
48.00642292623261
 30
0.0
 11
67.73492865606289
 21
44.4200000145234
 31
0.0
  0
LINE
  5
355
330
E3
100
AcDbEntity
  8
Doc_ Floor
  6
Continuous
100
AcDbLine
 10
69.33558049249686
 20
45.61912548894914
 30
0.0
 11
67.73492865606289
 21
44.4200000145234
 31
0.0
  0
LWPOLYLINE
  5
356
330
E3
100
AcDbEntity
  8
Doc_ Floor
  6
Continuous
100
AcDbPolyline
 90
       14
 70
   128
 43
0.0
 10
68.53525384093656
 20
45.0195622297248
 10
69.74067228701168
 20
43.65916318440637
 10
70.99576610250912
 20
42.41128086036976
 10
72.30887751825563
 20
41.27250033060121
 10
73.68834876507793
 20
40.2394066680869
 10
75.14252207380275
 20
39.30858494581302
 10
76.67973967525684
 20
38.47662023676579
 10
78.30834380026691
 20
37.7400976139314
 10
80.03667667965969
 20
37.09560215029607
 10
81.87308054426191
 20
36.53971891884597
 10
83.82589762490032
 20
36.06903299256734
 10
88.11414035759259
 20
35.3695933474692
 10
92.96814272435032
 20
34.96996379889127
 10
98.45464257178737
 20
34.84282493072316
  0
MTEXT
  5
357
330
E3
100
AcDbEntity
  8
Doc_ Floor
  6
Continuous
100
AcDbMText
 10
208.6909975275731
 20
185.8529963287979
 30
0.0
 40
2.5
 41
0.0
 71
     6
 72
     1
  1
{15MM PLY SUBSTRATE}
  7
GENERATED_STYLE_1
 73
     1
 44
1.0
  0
LINE
  5
358
330
E3
100
AcDbEntity
  8
Doc_ Floor
  6
Continuous
100
AcDbLine
 10
228.2390649126731
 20
162.4165455795926
 30
0.0
 11
227.3026091061638
 21
166.1650451150257
 31
0.0
  0
LINE
  5
359
330
E3
100
AcDbEntity
  8
Doc_ Floor
  6
Continuous
100
AcDbLine
 10
228.2390649126731
 20
162.4165455795926
 30
0.0
 11
229.3023213968923
 21
166.1310694514068
 31
0.0
  0
LINE
  5
35A
330
E3
100
AcDbEntity
  8
Doc_ Floor
  6
Continuous
100
AcDbLine
 10
227.3026091061638
 20
166.1650451150257
 30
0.0
 11
229.3023213968923
 21
166.1310694514068
 31
0.0
  0
LWPOLYLINE
  5
35B
330
E3
100
AcDbEntity
  8
Doc_ Floor
  6
Continuous
100
AcDbPolyline
 90
       17
 70
   128
 43
0.0
 10
228.3024668018135
 20
166.1480573607888
 10
228.2222795988208
 20
168.7919499110625
 10
228.022829437743
 20
171.2158953067417
 10
227.6987289631227
 20
173.4267062037249
 10
227.2445908195026
 20
175.4311952579107
 10
226.6550276514251
 20
177.2361751251978
 10
225.924652103433
 20
178.8484584614846
 10
225.0480768200687
 20
180.2748579226698
 10
224.0199144458749
 20
181.5221861646521
 10
222.8347776253943
 20
182.5972558433299
 10
221.4872790031692
 20
183.5068796146019
 10
219.9720312237424
 20
184.2578701343667
 10
218.2836469316565
 20
184.8570400585229
 10
216.416738771454
 20
185.311202042969
 10
214.3659193876776
 20
185.6271687436037
 10
212.1258014248698
 20
185.8117528163256
 10
209.6909975275731
 20
185.8717669170332
  0
HATCH
  5
35C
330
E3
100
AcDbEntity
  8
0
  6
Continuous
 62
   255
370
     0
100
AcDbHatch
 10
0.0
 20
0.0
 30
0.0
210
0.0
220
0.0
230
1.0
  2
SOLID
 70
     1
 71
     0
 91
        1
 92
        3
 72
     0
 73
     1
 93
        8
 10
7.003781431459729
 20
31.85192485086696
 10
32.97629783130706
 20
31.85192485086696
 10
22.81873078672415
 20
89.45834519313183
 10
16.58719822706051
 20
90.77142206503976
 10
28.35566747538332
 20
92.08449893694767
 10
22.12414007045825
 20
93.39757580885558
 10
11.96657302587534
 20
151.0039909963818
 10
7.003781431459729
 20
151.0039909963818
 97
        0
 75
     0
 76
     1
 98
        0
  0
LINE
  5
35D
330
E3
100
AcDbEntity
  8
0
  6
Continuous
100
AcDbLine
 10
11.96657417515628
 20
151.0039922457719
 30
0.0
 11
22.12414038796448
 21
93.39757287842934
 31
0.0
  0
LINE
  5
35E
330
E3
100
AcDbEntity
  8
0
  6
Continuous
100
AcDbLine
 10
22.81873104487941
 20
89.45834421820956
 30
0.0
 11
32.97629725768761
 21
31.85192485086696
 31
0.0
  0
LINE
  5
35F
330
E3
100
AcDbEntity
  8
0
  6
Continuous
100
AcDbLine
 10
22.81873104487941
 20
89.45834421820956
 30
0.0
 11
16.5872013068259
 21
90.77141903560494
 31
0.0
  0
LINE
  5
360
330
E3
100
AcDbEntity
  8
0
  6
Continuous
100
AcDbLine
 10
16.5872013068259
 20
90.77141903560494
 30
0.0
 11
28.35567012601799
 21
92.08449806103397
 31
0.0
  0
LINE
  5
361
330
E3
100
AcDbEntity
  8
0
  6
Continuous
100
AcDbLine
 10
28.35567012601799
 20
92.08449806103397
 30
0.0
 11
22.12414038796448
 21
93.39757287842934
 31
0.0
  0
ENDBLK
  5
E5
330
E3
100
AcDbEntity
  8
0
100
AcDbBlockEnd
  0
BLOCK
  5
367
330
366
100
AcDbEntity
  8
0
100
AcDbBlockBegin
  2
R-TRSS-01 TYPICAL ROOF LAYOUT_STORY_MARKER
 70
     0
 10
0.0
 20
0.0
 30
0.0
  3
R-TRSS-01 TYPICAL ROOF LAYOUT_STORY_MARKER
  1

  0
ENDBLK
  5
368
330
366
100
AcDbEntity
  8
0
100
AcDbBlockEnd
  0
ENDSEC
  0
SECTION
  2
ENTITIES
  0
HATCH
  5
3F
330
1F
100
AcDbEntity
  8
Doc_ Finishes
  6
Continuous
100
AcDbHatch
 10
0.0
 20
0.0
 30
0.0
210
0.0
220
0.0
230
1.0
  2
SOLID
 70
     1
 71
     0
 91
        1
 92
        3
 72
     0
 73
     1
 93
       54
 10
27.4117749414874
 20
16.87044408857867
 10
26.89356552397386
 20
16.5825499677378
 10
26.5480925789648
 20
16.29465584689693
 10
26.12584786839819
 20
16.02595466744544
 10
25.76118198199976
 20
15.60370995687884
 10
25.39651609560134
 20
15.33500877742737
 10
25.07023609198168
 20
14.89357112547136
 10
24.49444785029994
 20
14.45213347351537
 10
23.93785255000758
 20
14.02988876294876
 10
23.43883607388344
 20
13.81876640766546
 10
22.74789018386533
 20
13.39652169709885
 10
22.09533017662603
 20
12.99346992792163
 10
21.63469958328064
 20
12.55203227596564
 10
20.90536781048376
 20
12.12978756539902
 10
20.59828074825351
 20
11.7459287376112
 10
20.04168544796116
 20
11.28529814426581
 10
19.36993249933246
 20
10.8630534336992
 10
18.73656543348255
 20
10.42161578174319
 10
18.04561954346447
 20
10.15291460229172
 10
17.1051654153843
 20
9.692284008946325
 10
16.39502658397681
 20
9.020531060317637
 10
15.83843128368446
 20
8.598286349751023
 10
15.12829245227699
 20
8.137655756405634
 10
14.84039833143612
 20
7.98411222529051
 10
14.37976773809073
 20
7.81137575278599
 10
14.07268067586046
 20
7.523481631945121
 10
14.0151018516923
 20
7.216394569714853
 10
14.14945244141803
 20
6.890114566095209
 10
14.4373465622589
 20
6.563834562475543
 10
14.8787842142149
 20
6.659799269422514
 10
15.51215128006482
 20
7.06285103859973
 10
16.01116775618899
 20
7.389131042219374
 10
16.33744775980864
 20
7.696218104449641
 10
16.51018423231316
 20
7.907340459732938
 10
17.01303929671522
 20
8.421711288968723
 10
17.33548071205699
 20
8.652026585641417
 10
17.75004824606785
 20
8.99749953065046
 10
18.14158425041142
 20
9.204783297655894
 10
19.24709767444037
 20
9.75754000967037
 10
20.23745345013295
 20
10.47151742935572
 10
21.4120614631637
 20
11.1624633193738
 10
21.84966052684182
 20
11.64612544238645
 10
22.49454335752537
 20
12.06069297639732
 10
23.78430901889248
 20
12.9819541630881
 10
24.3600972605742
 20
13.25833251909534
 10
25.6498629219413
 20
14.24868829478776
 10
25.85714668894673
 20
14.64022429913134
 10
26.68628175696843
 20
15.23904407048036
 10
27.28510152831745
 20
15.72270619349301
 10
27.81482671066464
 20
16.1142421978366
 10
28.27545730401003
 20
16.52880973184745
 10
28.22939424467549
 20
16.7821565581874
 10
28.09120506667188
 20
16.89731420652375
 10
27.56147988432467
 20
16.89731420652375
 97
        0
 75
     0
 76
     1
 98
        0
  0
LINE
  5
41
330
1F
100
AcDbEntity
  8
Doc_ Finishes
  6
Continuous
100
AcDbLine
 10
27.41177566876475
 20
16.87044600708104
 30
0.0
 11
26.89356756490952
 21
16.58254868214004
 31
0.0
  0
LINE
  5
42
330
1F
100
AcDbEntity
  8
Doc_ Finishes
  6
Continuous
100
AcDbLine
 10
26.89356756490952
 20
16.58254868214004
 30
0.0
 11
26.54809254523997
 21
16.29465578284815
 31
0.0
  0
LINE
  5
43
330
1F
100
AcDbEntity
  8
Doc_ Finishes
  6
Continuous
100
AcDbLine
 10
26.54809254523997
 20
16.29465578284815
 30
0.0
 11
26.12584579071597
 21
16.02595249803305
 31
0.0
  0
LINE
  5
44
330
1F
100
AcDbEntity
  8
Doc_ Finishes
  6
Continuous
100
AcDbLine
 10
26.12584579071597
 20
16.02595249803305
 30
0.0
 11
25.76118115656963
 21
15.60371016915814
 31
0.0
  0
LINE
  5
45
330
1F
100
AcDbEntity
  8
Doc_ Finishes
  6
Continuous
100
AcDbLine
 10
25.76118115656963
 20
15.60371016915814
 30
0.0
 11
25.39651652242329
 21
15.33500688434304
 31
0.0
  0
LINE
  5
46
330
1F
100
AcDbEntity
  8
Doc_ Finishes
  6
Continuous
100
AcDbLine
 10
25.39651652242329
 20
15.33500688434304
 30
0.0
 11
25.07023554287962
 21
14.89357051534225
 31
0.0
  0
LINE
  5
47
330
1F
100
AcDbEntity
  8
Doc_ Finishes
  6
Continuous
100
AcDbLine
 10
25.07023554287962
 20
14.89357051534225
 30
0.0
 11
24.49444974429583
 21
14.45213414634146
 31
0.0
  0
LINE
  5
48
330
1F
100
AcDbEntity
  8
Doc_ Finishes
  6
Continuous
100
AcDbLine
 10
24.49444974429583
 20
14.45213414634146
 30
0.0
 11
23.93785356018882
 21
14.02988739181747
 31
0.0
  0
LINE
  5
49
330
1F
100
AcDbEntity
  8
Doc_ Finishes
  6
Continuous
100
AcDbLine
 10
23.93785356018882
 20
14.02988739181747
 30
0.0
 11
23.43883507081038
 21
13.81876622738001
 31
0.0
  0
LINE
  5
4A
330
1F
100
AcDbEntity
  8
Doc_ Finishes
  6
Continuous
100
AcDbLine
 10
23.43883507081038
 20
13.81876622738001
 30
0.0
 11
22.74788945712038
 21
13.39652389850511
 31
0.0
  0
LINE
  5
4B
330
1F
100
AcDbEntity
  8
Doc_ Finishes
  6
Continuous
100
AcDbLine
 10
22.74788945712038
 20
13.39652389850511
 30
0.0
 11
22.09533192368214
 21
12.993471184107
 31
0.0
  0
LINE
  5
4C
330
1F
100
AcDbEntity
  8
Doc_ Finishes
  6
Continuous
100
AcDbLine
 10
22.09533192368214
 20
12.993471184107
 30
0.0
 11
21.63470151455547
 21
12.55203038945712
 31
0.0
  0
LINE
  5
4D
330
1F
100
AcDbEntity
  8
Doc_ Finishes
  6
Continuous
100
AcDbLine
 10
21.63470151455547
 20
12.55203038945712
 30
0.0
 11
20.90536782061369
 21
12.12978806058222
 31
0.0
  0
LINE
  5
4E
330
1F
100
AcDbEntity
  8
Doc_ Finishes
  6
Continuous
100
AcDbLine
 10
20.90536782061369
 20
12.12978806058222
 30
0.0
 11
20.59828088119591
 21
11.74592938630999
 31
0.0
  0
LINE
  5
4F
330
1F
100
AcDbEntity
  8
Doc_ Finishes
  6
Continuous
100
AcDbLine
 10
20.59828088119591
 20
11.74592938630999
 30
0.0
 11
20.0416846970889
 21
11.28529897718332
 31
0.0
  0
LINE
  5
50
330
1F
100
AcDbEntity
  8
Doc_ Finishes
  6
Continuous
100
AcDbLine
 10
20.0416846970889
 20
11.28529897718332
 30
0.0
 11
19.36993312352478
 21
10.86305222265932
 31
0.0
  0
LINE
  5
51
330
1F
100
AcDbEntity
  8
Doc_ Finishes
  6
Continuous
100
AcDbLine
 10
19.36993312352478
 20
10.86305222265932
 30
0.0
 11
18.73656520456333
 21
10.42161585365854
 31
0.0
  0
LINE
  5
52
330
1F
100
AcDbEntity
  8
Doc_ Finishes
  6
Continuous
100
AcDbLine
 10
18.73656520456333
 20
10.42161585365854
 30
0.0
 11
18.04561959087333
 21
10.15291256884343
 31
0.0
  0
LINE
  5
53
330
1F
100
AcDbEntity
  8
Doc_ Finishes
  6
Continuous
100
AcDbLine
 10
18.04561959087333
 20
10.15291256884343
 30
0.0
 11
17.1051647324941
 21
9.692282159716758
 31
0.0
  0
LINE
  5
54
330
1F
100
AcDbEntity
  8
Doc_ Finishes
  6
Continuous
100
AcDbLine
 10
17.1051647324941
 20
9.692282159716758
 30
0.0
 11
16.3950250786782
 21
9.020530586152635
 31
0.0
  0
LINE
  5
55
330
1F
100
AcDbEntity
  8
Doc_ Finishes
  6
Continuous
100
AcDbLine
 10
16.3950250786782
 20
9.020530586152635
 30
0.0
 11
15.8384333202203
 21
8.598288257277733
 31
0.0
  0
LINE
  5
56
330
1F
100
AcDbEntity
  8
Doc_ Finishes
  6
Continuous
100
AcDbLine
 10
15.8384333202203
 20
8.598288257277733
 30
0.0
 11
15.1282936664044
 21
8.137657848151063
 31
0.0
  0
LINE
  5
57
330
1F
100
AcDbEntity
  8
Doc_ Finishes
  6
Continuous
100
AcDbLine
 10
15.1282936664044
 20
8.137657848151063
 30
0.0
 11
14.84039634146341
 21
7.984114378442171
 31
0.0
  0
LINE
  5
58
330
1F
100
AcDbEntity
  8
Doc_ Finishes
  6
Continuous
100
AcDbLine
 10
14.84039634146341
 20
7.984114378442171
 30
0.0
 11
14.37976593233674
 21
7.811376868607396
 31
0.0
  0
LINE
  5
59
330
1F
100
AcDbEntity
  8
Doc_ Finishes
  6
Continuous
100
AcDbLine
 10
14.37976593233674
 20
7.811376868607396
 30
0.0
 11
14.07267899291896
 21
7.523479543666405
 31
0.0
  0
LINE
  5
5A
330
1F
100
AcDbEntity
  8
Doc_ Finishes
  6
Continuous
100
AcDbLine
 10
14.07267899291896
 20
7.523479543666405
 30
0.0
 11
14.0151012981904
 21
7.216392604248622
 31
0.0
  0
LINE
  5
5B
330
1F
100
AcDbEntity
  8
Doc_ Finishes
  6
Continuous
100
AcDbLine
 10
14.0151012981904
 20
7.216392604248622
 30
0.0
 11
14.14945072777341
 21
6.890116050354051
 31
0.0
  0
LINE
  5
5C
330
1F
100
AcDbEntity
  8
Doc_ Finishes
  6
Continuous
100
AcDbLine
 10
14.14945072777341
 20
6.890116050354051
 30
0.0
 11
14.4373480527144
 21
6.563835070810386
 31
0.0
  0
LINE
  5
5D
330
1F
100
AcDbEntity
  8
Doc_ Finishes
  6
Continuous
100
AcDbLine
 10
14.4373480527144
 20
6.563835070810386
 30
0.0
 11
14.87878442171519
 21
6.659800845790715
 31
0.0
  0
LINE
  5
5E
330
1F
100
AcDbEntity
  8
Doc_ Finishes
  6
Continuous
100
AcDbLine
 10
14.87878442171519
 20
6.659800845790715
 30
0.0
 11
15.51215234067663
 21
7.062849134539732
 31
0.0
  0
LINE
  5
5F
330
1F
100
AcDbEntity
  8
Doc_ Finishes
  6
Continuous
100
AcDbLine
 10
15.51215234067663
 20
7.062849134539732
 30
0.0
 11
16.01116640440598
 21
7.389130114083398
 31
0.0
  0
LINE
  5
60
330
1F
100
AcDbEntity
  8
Doc_ Finishes
  6
Continuous
100
AcDbLine
 10
16.01116640440598
 20
7.389130114083398
 30
0.0
 11
16.33744738394964
 21
7.69621705350118
 31
0.0
  0
LINE
  5
61
330
1F
100
AcDbEntity
  8
Doc_ Finishes
  6
Continuous
100
AcDbLine
 10
16.33744738394964
 20
7.69621705350118
 30
0.0
 11
16.51018489378442
 21
7.907342643587726
 31
0.0
  0
LINE
  5
62
330
1F
100
AcDbEntity
  8
Doc_ Finishes
  6
Continuous
100
AcDbLine
 10
16.51018489378442
 20
7.907342643587726
 30
0.0
 11
17.0130404209284
 21
8.421709284028323
 31
0.0
  0
LINE
  5
63
330
1F
100
AcDbEntity
  8
Doc_ Finishes
  6
Continuous
100
AcDbLine
 10
17.0130404209284
 20
8.421709284028323
 30
0.0
 11
17.33547993705743
 21
8.65202448859166
 31
0.0
  0
LINE
  5
64
330
1F
100
AcDbEntity
  8
Doc_ Finishes
  6
Continuous
100
AcDbLine
 10
17.33547993705743
 20
8.65202448859166
 30
0.0
 11
17.75004819040126
 21
8.997499508261212
 31
0.0
  0
LINE
  5
65
330
1F
100
AcDbEntity
  8
Doc_ Finishes
  6
Continuous
100
AcDbLine
 10
17.75004819040126
 20
8.997499508261212
 30
0.0
 11
18.14158536585366
 21
9.204783634933122
 31
0.0
  0
LINE
  5
66
330
1F
100
AcDbEntity
  8
Doc_ Finishes
  6
Continuous
100
AcDbLine
 10
18.14158536585366
 20
9.204783634933122
 30
0.0
 11
19.24709923288749
 21
9.75753835562549
 31
0.0
  0
LINE
  5
67
330
1F
100
AcDbEntity
  8
Doc_ Finishes
  6
Continuous
100
AcDbLine
 10
19.24709923288749
 20
9.75753835562549
 30
0.0
 11
20.23745328481511
 21
10.47151947285602
 31
0.0
  0
LINE
  5
68
330
1F
100
AcDbEntity
  8
Doc_ Finishes
  6
Continuous
100
AcDbLine
 10
20.23745328481511
 20
10.47151947285602
 30
0.0
 11
21.41206038552321
 21
11.16246508654602
 31
0.0
  0
LINE
  5
69
330
1F
100
AcDbEntity
  8
Doc_ Finishes
  6
Continuous
100
AcDbLine
 10
21.41206038552321
 20
11.16246508654602
 30
0.0
 11
21.84965971675846
 21
11.64612657356412
 31
0.0
  0
LINE
  5
6A
330
1F
100
AcDbEntity
  8
Doc_ Finishes
  6
Continuous
100
AcDbLine
 10
21.84965971675846
 20
11.64612657356412
 30
0.0
 11
22.49454317466562
 21
12.06069482690795
 31
0.0
  0
LINE
  5
6B
330
1F
100
AcDbEntity
  8
Doc_ Finishes
  6
Continuous
100
AcDbLine
 10
22.49454317466562
 20
12.06069482690795
 30
0.0
 11
23.78431009047993
 21
12.98195564516129
 31
0.0
  0
LINE
  5
6C
330
1F
100
AcDbEntity
  8
Doc_ Finishes
  6
Continuous
100
AcDbLine
 10
23.78431009047993
 20
12.98195564516129
 30
0.0
 11
24.36009588906373
 21
13.25833300550747
 31
0.0
  0
LINE
  5
6D
330
1F
100
AcDbEntity
  8
Doc_ Finishes
  6
Continuous
100
AcDbLine
 10
24.36009588906373
 20
13.25833300550747
 30
0.0
 11
25.64986280487805
 21
14.24868705743509
 31
0.0
  0
LINE
  5
6E
330
1F
100
AcDbEntity
  8
Doc_ Finishes
  6
Continuous
100
AcDbLine
 10
25.64986280487805
 20
14.24868705743509
 30
0.0
 11
25.85714693154996
 21
14.64022423288749
 31
0.0
  0
LINE
  5
6F
330
1F
100
AcDbEntity
  8
Doc_ Finishes
  6
Continuous
100
AcDbLine
 10
25.85714693154996
 20
14.64022423288749
 30
0.0
 11
26.68628343823761
 21
15.2390455350118
 31
0.0
  0
LINE
  5
70
330
1F
100
AcDbEntity
  8
Doc_ Finishes
  6
Continuous
100
AcDbLine
 10
26.68628343823761
 20
15.2390455350118
 30
0.0
 11
27.28510031471282
 21
15.7227070220299
 31
0.0
  0
LINE
  5
71
330
1F
100
AcDbEntity
  8
Doc_ Finishes
  6
Continuous
100
AcDbLine
 10
27.28510031471282
 20
15.7227070220299
 30
0.0
 11
27.81482838316287
 21
16.1142441974823
 31
0.0
  0
LINE
  5
72
330
1F
100
AcDbEntity
  8
Doc_ Finishes
  6
Continuous
100
AcDbLine
 10
27.81482838316287
 20
16.1142441974823
 30
0.0
 11
28.27545879228953
 21
16.52880802517702
 31
0.0
  0
LINE
  5
73
330
1F
100
AcDbEntity
  8
Doc_ Finishes
  6
Continuous
100
AcDbLine
 10
28.27545879228953
 20
16.52880802517702
 30
0.0
 11
28.22939221085759
 21
16.78215873328088
 31
0.0
  0
LINE
  5
74
330
1F
100
AcDbEntity
  8
Doc_ Finishes
  6
Continuous
100
AcDbLine
 10
28.22939221085759
 20
16.78215873328088
 30
0.0
 11
28.09120574350905
 21
16.897314122738
 31
0.0
  0
LINE
  5
75
330
1F
100
AcDbEntity
  8
Doc_ Finishes
  6
Continuous
100
AcDbLine
 10
28.09120574350905
 20
16.897314122738
 30
0.0
 11
27.56147767505901
 21
16.897314122738
 31
0.0
  0
LINE
  5
76
330
1F
100
AcDbEntity
  8
Doc_ Finishes
  6
Continuous
100
AcDbLine
 10
27.56147767505901
 20
16.897314122738
 30
0.0
 11
27.41177566876475
 21
16.87044600708104
 31
0.0
  0
HATCH
  5
77
330
1F
100
AcDbEntity
  8
Doc_ Finishes
  6
Continuous
100
AcDbHatch
 10
0.0
 20
0.0
 30
0.0
210
0.0
220
0.0
230
1.0
  2
SOLID
 70
     1
 71
     0
 91
        1
 92
        3
 72
     0
 73
     1
 93
       39
 10
27.65360600299377
 20
13.12014334109181
 10
27.21600693931564
 20
12.77467039608275
 10
26.54809257896482
 20
12.24494521373555
 10
25.92624127794851
 20
11.85340920939199
 10
25.32742150659951
 20
11.32368402704478
 10
24.72860173525052
 20
11.04730567103754
 10
24.08371890456698
 20
10.56364354802488
 10
23.62308831122158
 20
10.33332825135219
 10
23.231552306878
 20
10.03391836567767
 10
22.81698477286715
 20
9.619350831666825
 10
22.40241723885631
 20
9.38903553499415
 10
21.91875511584363
 20
9.043562589985086
 10
21.66540828950367
 20
8.859310352646935
 10
21.25084075549282
 20
8.582931996639696
 10
20.09926427212933
 20
7.753796928618002
 10
19.75379132712029
 20
7.477418572610764
 10
19.2931607337749
 20
7.316197864939873
 10
19.22406614477309
 20
6.993756449598113
 10
19.3622553227767
 20
6.717378093590874
 10
19.63863367878394
 20
6.602220445254527
 10
20.00713815346026
 20
6.8325357419272
 10
20.26048497980021
 20
7.131945627601722
 10
20.55989486547472
 20
7.362260924274415
 10
21.31993534449462
 20
7.707733869283458
 10
21.84966052684182
 20
8.122301403294307
 10
22.88607936186895
 20
8.882341882314256
 10
23.20852077721072
 20
9.342972475659646
 10
24.01462431556515
 20
9.734508480003234
 10
24.5673810275796
 20
10.05694989534501
 10
25.46561068460312
 20
10.60970660735953
 10
25.88017821861399
 20
11.07033720070492
 10
26.31777728229212
 20
11.34671555671216
 10
26.70931328663569
 20
11.30065249737762
 10
27.21600693931562
 20
11.55399932371759
 10
28.0681735370046
 20
12.17585062473387
 10
28.41364648201364
 20
12.49829204007566
 10
28.39061495234636
 20
12.77467039608289
 10
28.22939424467547
 20
13.00498569275559
 10
28.04514200733732
 20
13.05104875209013
 97
        0
 75
     0
 76
     1
 98
        0
  0
LINE
  5
78
330
1F
100
AcDbEntity
  8
Doc_ Finishes
  6
Continuous
100
AcDbLine
 10
27.6536064122738
 20
13.12014211250983
 30
0.0
 11
27.21600708103855
 21
12.77467151848938
 31
0.0
  0
LINE
  5
79
330
1F
100
AcDbEntity
  8
Doc_ Finishes
  6
Continuous
100
AcDbLine
 10
27.21600708103855
 20
12.77467151848938
 30
0.0
 11
26.54809254523997
 21
12.24494345003934
 31
0.0
  0
LINE
  5
7A
330
1F
100
AcDbEntity
  8
Doc_ Finishes
  6
Continuous
100
AcDbLine
 10
26.54809254523997
 20
12.24494345003934
 30
0.0
 11
25.92624016522423
 21
11.85341070023603
 31
0.0
  0
LINE
  5
7B
330
1F
100
AcDbEntity
  8
Doc_ Finishes
  6
Continuous
100
AcDbLine
 10
25.92624016522423
 20
11.85341070023603
 30
0.0
 11
25.32742328874902
 21
11.32368263178599
 31
0.0
  0
LINE
  5
7C
330
1F
100
AcDbEntity
  8
Doc_ Finishes
  6
Continuous
100
AcDbLine
 10
25.32742328874902
 20
11.32368263178599
 30
0.0
 11
24.72860198662471
 21
11.04730527143981
 31
0.0
  0
LINE
  5
7D
330
1F
100
AcDbEntity
  8
Doc_ Finishes
  6
Continuous
100
AcDbLine
 10
24.72860198662471
 20
11.04730527143981
 30
0.0
 11
24.08371852871754
 21
10.56364378442171
 31
0.0
  0
LINE
  5
7E
330
1F
100
AcDbEntity
  8
Doc_ Finishes
  6
Continuous
100
AcDbLine
 10
24.08371852871754
 20
10.56364378442171
 30
0.0
 11
23.62308811959087
 21
10.33332857985838
 31
0.0
  0
LINE
  5
7F
330
1F
100
AcDbEntity
  8
Doc_ Finishes
  6
Continuous
100
AcDbLine
 10
23.62308811959087
 20
10.33332857985838
 30
0.0
 11
23.23155094413847
 21
10.03392014162077
 31
0.0
  0
LINE
  5
80
330
1F
100
AcDbEntity
  8
Doc_ Finishes
  6
Continuous
100
AcDbLine
 10
23.23155094413847
 20
10.03392014162077
 30
0.0
 11
22.81698269079465
 21
9.619351888276947
 31
0.0
  0
LINE
  5
81
330
1F
100
AcDbEntity
  8
Doc_ Finishes
  6
Continuous
100
AcDbLine
 10
22.81698269079465
 20
9.619351888276947
 30
0.0
 11
22.40241886309992
 21
9.389036683713611
 31
0.0
  0
LINE
  5
82
330
1F
100
AcDbEntity
  8
Doc_ Finishes
  6
Continuous
100
AcDbLine
 10
22.40241886309992
 20
9.389036683713611
 30
0.0
 11
21.91875295043273
 21
9.04356166404406
 31
0.0
  0
LINE
  5
83
330
1F
100
AcDbEntity
  8
Doc_ Finishes
  6
Continuous
100
AcDbLine
 10
21.91875295043273
 20
9.04356166404406
 30
0.0
 11
21.66540666797797
 21
8.859308615263572
 31
0.0
  0
LINE
  5
84
330
1F
100
AcDbEntity
  8
Doc_ Finishes
  6
Continuous
100
AcDbLine
 10
21.66540666797797
 20
8.859308615263572
 30
0.0
 11
21.25084284028324
 21
8.582931254917387
 31
0.0
  0
LINE
  5
85
330
1F
100
AcDbEntity
  8
Doc_ Finishes
  6
Continuous
100
AcDbLine
 10
21.25084284028324
 20
8.582931254917387
 30
0.0
 11
20.09926239181747
 21
7.75379474822974
 31
0.0
  0
LINE
  5
86
330
1F
100
AcDbEntity
  8
Doc_ Finishes
  6
Continuous
100
AcDbLine
 10
20.09926239181747
 20
7.75379474822974
 30
0.0
 11
19.75379179779701
 21
7.477417387883556
 31
0.0
  0
LINE
  5
87
330
1F
100
AcDbEntity
  8
Doc_ Finishes
  6
Continuous
100
AcDbLine
 10
19.75379179779701
 20
7.477417387883556
 30
0.0
 11
19.29316138867033
 21
7.316199842643588
 31
0.0
  0
LINE
  5
88
330
1F
100
AcDbEntity
  8
Doc_ Finishes
  6
Continuous
100
AcDbLine
 10
19.29316138867033
 20
7.316199842643588
 30
0.0
 11
19.22406815499606
 21
6.993755900865461
 31
0.0
  0
LINE
  5
89
330
1F
100
AcDbEntity
  8
Doc_ Finishes
  6
Continuous
100
AcDbLine
 10
19.22406815499606
 20
6.993755900865461
 30
0.0
 11
19.36225462234461
 21
6.717378540519276
 31
0.0
  0
LINE
  5
8A
330
1F
100
AcDbEntity
  8
Doc_ Finishes
  6
Continuous
100
AcDbLine
 10
19.36225462234461
 20
6.717378540519276
 30
0.0
 11
19.63863198269079
 21
6.602218725413059
 31
0.0
  0
LINE
  5
8B
330
1F
100
AcDbEntity
  8
Doc_ Finishes
  6
Continuous
100
AcDbLine
 10
19.63863198269079
 20
6.602218725413059
 30
0.0
 11
20.00713808025177
 21
6.832533929976396
 31
0.0
  0
LINE
  5
8C
330
1F
100
AcDbEntity
  8
Doc_ Finishes
  6
Continuous
100
AcDbLine
 10
20.00713808025177
 20
6.832533929976396
 30
0.0
 11
20.26048436270653
 21
7.1319467938631
 31
0.0
  0
LINE
  5
8D
330
1F
100
AcDbEntity
  8
Doc_ Finishes
  6
Continuous
100
AcDbLine
 10
20.26048436270653
 20
7.1319467938631
 30
0.0
 11
20.55989280094414
 21
7.362261998426435
 31
0.0
  0
LINE
  5
8E
330
1F
100
AcDbEntity
  8
Doc_ Finishes
  6
Continuous
100
AcDbLine
 10
20.55989280094414
 20
7.362261998426435
 30
0.0
 11
21.31993607395751
 21
7.707732592446892
 31
0.0
  0
LINE
  5
8F
330
1F
100
AcDbEntity
  8
Doc_ Finishes
  6
Continuous
100
AcDbLine
 10
21.31993607395751
 20
7.707732592446892
 30
0.0
 11
21.84965971675846
 21
8.122300845790717
 31
0.0
  0
LINE
  5
90
330
1F
100
AcDbEntity
  8
Doc_ Finishes
  6
Continuous
100
AcDbLine
 10
21.84965971675846
 20
8.122300845790717
 30
0.0
 11
22.88608035011802
 21
8.882339693154996
 31
0.0
  0
LINE
  5
91
330
1F
100
AcDbEntity
  8
Doc_ Finishes
  6
Continuous
100
AcDbLine
 10
22.88608035011802
 20
8.882339693154996
 30
0.0
 11
23.20851986624705
 21
9.342974527930762
 31
0.0
  0
LINE
  5
92
330
1F
100
AcDbEntity
  8
Doc_ Finishes
  6
Continuous
100
AcDbLine
 10
23.20851986624705
 20
9.342974527930762
 30
0.0
 11
24.01462529504327
 21
9.734507277734066
 31
0.0
  0
LINE
  5
93
330
1F
100
AcDbEntity
  8
Doc_ Finishes
  6
Continuous
100
AcDbLine
 10
24.01462529504327
 20
9.734507277734066
 30
0.0
 11
24.56738001573564
 21
10.05695121951219
 31
0.0
  0
LINE
  5
94
330
1F
100
AcDbEntity
  8
Doc_ Finishes
  6
Continuous
100
AcDbLine
 10
24.56738001573564
 20
10.05695121951219
 30
0.0
 11
25.46560975609756
 21
10.60970594020456
 31
0.0
  0
LINE
  5
95
330
1F
100
AcDbEntity
  8
Doc_ Finishes
  6
Continuous
100
AcDbLine
 10
25.46560975609756
 20
10.60970594020456
 30
0.0
 11
25.88017800944139
 21
11.07033634933124
 31
0.0
  0
LINE
  5
96
330
1F
100
AcDbEntity
  8
Doc_ Finishes
  6
Continuous
100
AcDbLine
 10
25.88017800944139
 20
11.07033634933124
 30
0.0
 11
26.31777734067663
 21
11.34671370967742
 31
0.0
  0
LINE
  5
97
330
1F
100
AcDbEntity
  8
Doc_ Finishes
  6
Continuous
100
AcDbLine
 10
26.31777734067663
 20
11.34671370967742
 30
0.0
 11
26.70931451612903
 21
11.30065155389457
 31
0.0
  0
LINE
  5
98
330
1F
100
AcDbEntity
  8
Doc_ Finishes
  6
Continuous
100
AcDbLine
 10
26.70931451612903
 20
11.30065155389457
 30
0.0
 11
27.21600708103855
 21
11.55399783634933
 31
0.0
  0
LINE
  5
99
330
1F
100
AcDbEntity
  8
Doc_ Finishes
  6
Continuous
100
AcDbLine
 10
27.21600708103855
 20
11.55399783634933
 30
0.0
 11
28.06817466561763
 21
12.17585021636507
 31
0.0
  0
LINE
  5
9A
330
1F
100
AcDbEntity
  8
Doc_ Finishes
  6
Continuous
100
AcDbLine
 10
28.06817466561763
 20
12.17585021636507
 30
0.0
 11
28.41364525963808
 21
12.49829415814319
 31
0.0
  0
LINE
  5
9B
330
1F
100
AcDbEntity
  8
Doc_ Finishes
  6
Continuous
100
AcDbLine
 10
28.41364525963808
 20
12.49829415814319
 30
0.0
 11
28.39061418174666
 21
12.77467151848938
 31
0.0
  0
LINE
  5
9C
330
1F
100
AcDbEntity
  8
Doc_ Finishes
  6
Continuous
100
AcDbLine
 10
28.39061418174666
 20
12.77467151848938
 30
0.0
 11
28.22939221085759
 21
13.00498672305271
 31
0.0
  0
LINE
  5
9D
330
1F
100
AcDbEntity
  8
Doc_ Finishes
  6
Continuous
100
AcDbLine
 10
28.22939221085759
 20
13.00498672305271
 30
0.0
 11
28.04514358772619
 21
13.05104887883556
 31
0.0
  0
LINE
  5
9E
330
1F
100
AcDbEntity
  8
Doc_ Finishes
  6
Continuous
100
AcDbLine
 10
28.04514358772619
 20
13.05104887883556
 30
0.0
 11
27.6536064122738
 21
13.12014211250983
 31
0.0
  0
HATCH
  5
9F
330
1F
100
AcDbEntity
  8
Doc_ Finishes
  6
Continuous
100
AcDbHatch
 10
0.0
 20
0.0
 30
0.0
210
0.0
220
0.0
230
1.0
  2
SOLID
 70
     1
 71
     0
 91
        1
 92
        3
 72
     0
 73
     1
 93
       47
 10
28.06817353700456
 20
15.74573772316067
 10
28.30309513961077
 20
15.62136746295728
 10
28.4412843176144
 20
15.4002647781515
 10
28.93876535842742
 20
15.17916209334572
 10
29.82317609765057
 20
14.40530269652538
 10
30.92868952167951
 20
13.74199464210799
 10
31.59199757609689
 20
13.3827027792986
 10
32.20002995931279
 20
13.07868658769064
 10
33.55428390374828
 20
12.08372450606458
 10
34.07940278016201
 20
11.69679480765445
 10
34.88090001258301
 20
11.08876242443854
 10
35.59948373820179
 20
10.50836787682334
 10
36.5668079842271
 20
9.817421986805197
 10
37.06428902504012
 20
9.458130123995785
 10
37.81051058625966
 20
8.933011247582023
 10
38.61200781868061
 20
8.407892371168286
 10
38.77783483228498
 20
8.186789686362482
 10
39.38586721550092
 20
7.744584316750918
 10
40.18736444792187
 20
6.915449248729224
 10
40.7953968311378
 20
6.44560604351692
 10
41.56925622795804
 20
6.169227687509681
 10
42.23256428237543
 20
6.086314180707507
 10
42.48130480278193
 20
6.30741686551329
 10
42.14965077557326
 20
6.611433057121246
 10
41.48634272115586
 20
6.998362755531397
 10
40.76775899553709
 20
7.357654618340788
 10
40.18736444792187
 20
8.048600508358874
 10
38.99893751709079
 20
8.822459905179112
 10
38.47381864067705
 20
9.319940945992132
 10
38.22507812027052
 20
9.734508480003
 10
37.17484036744301
 20
10.31490302761817
 10
36.73263499783144
 20
10.78474623283046
 10
36.2351539570184
 20
11.17167593124059
 10
35.48893239579888
 20
11.61388130085215
 10
34.85326217698223
 20
12.16663801286669
 10
34.35578113616919
 20
12.58120554687754
 10
33.69247308175183
 20
12.99577308088841
 10
33.22262987653953
 20
13.32742710809708
 10
32.7251488357265
 20
13.5761676285036
 10
31.93747052110588
 20
14.06443605744977
 10
31.43077686842594
 20
14.38687747279155
 10
30.92408321574601
 20
14.70931888813342
 10
30.62467333007151
 20
15.100854892477
 10
29.95675896972068
 20
15.67664313415887
 10
29.47309684670803
 20
15.9530214901661
 10
28.82821401602447
 20
16.36758902417695
 10
28.50577260068269
 20
16.22939984617334
 97
        0
 75
     0
 76
     1
 98
        0
  0
LINE
  5
A0
330
1F
100
AcDbEntity
  8
Doc_ Finishes
  6
Continuous
100
AcDbLine
 10
28.30309697088906
 20
15.62136850904799
 30
0.0
 11
28.06817466561763
 21
15.74573809992132
 31
0.0
  0
LINE
  5
A1
330
1F
100
AcDbEntity
  8
Doc_ Finishes
  6
Continuous
100
AcDbLine
 10
28.44128343823761
 20
15.40026308025177
 30
0.0
 11
28.30309697088906
 21
15.62136850904799
 31
0.0
  0
LINE
  5
A2
330
1F
100
AcDbEntity
  8
Doc_ Finishes
  6
Continuous
100
AcDbLine
 10
28.93876622738001
 20
15.17916207710464
 30
0.0
 11
28.44128343823761
 21
15.40026308025177
 31
0.0
  0
LINE
  5
A3
330
1F
100
AcDbEntity
  8
Doc_ Finishes
  6
Continuous
100
AcDbLine
 10
29.82317466561762
 20
14.40530192761605
 30
0.0
 11
28.93876622738001
 21
15.17916207710464
 31
0.0
  0
LINE
  5
A4
330
1F
100
AcDbEntity
  8
Doc_ Finishes
  6
Continuous
100
AcDbLine
 10
30.92868853265146
 20
13.74199449252557
 30
0.0
 11
29.82317466561762
 21
14.40530192761605
 31
0.0
  0
LINE
  5
A5
330
1F
100
AcDbEntity
  8
Doc_ Finishes
  6
Continuous
100
AcDbLine
 10
31.59199596774193
 20
13.3827025963808
 30
0.0
 11
30.92868853265146
 21
13.74199449252557
 31
0.0
  0
LINE
  5
A6
330
1F
100
AcDbEntity
  8
Doc_ Finishes
  6
Continuous
100
AcDbLine
 10
32.20003147128246
 20
13.07868705743509
 30
0.0
 11
31.59199596774193
 21
13.3827025963808
 31
0.0
  0
LINE
  5
A7
330
1F
100
AcDbEntity
  8
Doc_ Finishes
  6
Continuous
100
AcDbLine
 10
33.55428452006294
 20
12.08372590479937
 30
0.0
 11
32.20003147128246
 21
13.07868705743509
 31
0.0
  0
LINE
  5
A8
330
1F
100
AcDbEntity
  8
Doc_ Finishes
  6
Continuous
100
AcDbLine
 10
34.07940106215578
 20
11.69679583005508
 30
0.0
 11
33.55428452006294
 21
12.08372590479937
 31
0.0
  0
LINE
  5
A9
330
1F
100
AcDbEntity
  8
Doc_ Finishes
  6
Continuous
100
AcDbLine
 10
34.8808993902439
 20
11.08876032651456
 30
0.0
 11
34.07940106215578
 21
11.69679583005508
 31
0.0
  0
LINE
  5
AA
330
1F
100
AcDbEntity
  8
Doc_ Finishes
  6
Continuous
100
AcDbLine
 10
35.59948318253343
 20
10.50836742722266
 30
0.0
 11
34.8808993902439
 21
11.08876032651456
 31
0.0
  0
LINE
  5
AB
330
1F
100
AcDbEntity
  8
Doc_ Finishes
  6
Continuous
100
AcDbLine
 10
36.56680615656963
 20
9.817421813532652
 30
0.0
 11
35.59948318253343
 21
10.50836742722266
 31
0.0
  0
LINE
  5
AC
330
1F
100
AcDbEntity
  8
Doc_ Finishes
  6
Continuous
100
AcDbLine
 10
37.06428894571204
 20
9.458129917387884
 30
0.0
 11
36.56680615656963
 21
9.817421813532652
 31
0.0
  0
LINE
  5
AD
330
1F
100
AcDbEntity
  8
Doc_ Finishes
  6
Continuous
100
AcDbLine
 10
37.8105109166011
 20
8.933013375295044
 30
0.0
 11
37.06428894571204
 21
9.458129917387884
 31
0.0
  0
LINE
  5
AE
330
1F
100
AcDbEntity
  8
Doc_ Finishes
  6
Continuous
100
AcDbLine
 10
38.61200924468922
 20
8.407892407553108
 30
0.0
 11
37.8105109166011
 21
8.933013375295044
 31
0.0
  0
LINE
  5
AF
330
1F
100
AcDbEntity
  8
Doc_ Finishes
  6
Continuous
100
AcDbLine
 10
38.77783389063729
 20
8.18679140440598
 30
0.0
 11
38.61200924468922
 21
8.407892407553108
 31
0.0
  0
LINE
  5
B0
330
1F
100
AcDbEntity
  8
Doc_ Finishes
  6
Continuous
100
AcDbLine
 10
39.3858693941778
 20
7.744584972462627
 30
0.0
 11
38.77783389063729
 21
8.18679140440598
 31
0.0
  0
LINE
  5
B1
330
1F
100
AcDbEntity
  8
Doc_ Finishes
  6
Continuous
100
AcDbLine
 10
40.18736329661684
 20
6.915448465774981
 30
0.0
 11
39.3858693941778
 21
7.744584972462627
 31
0.0
  0
LINE
  5
B2
330
1F
100
AcDbEntity
  8
Doc_ Finishes
  6
Continuous
100
AcDbLine
 10
40.79539880015735
 20
6.4456038552321
 30
0.0
 11
40.18736329661684
 21
6.915448465774981
 31
0.0
  0
LINE
  5
B3
330
1F
100
AcDbEntity
  8
Doc_ Finishes
  6
Continuous
100
AcDbLine
 10
41.56925452399685
 20
6.169226494885916
 30
0.0
 11
40.79539880015735
 21
6.4456038552321
 31
0.0
  0
LINE
  5
B4
330
1F
100
AcDbEntity
  8
Doc_ Finishes
  6
Continuous
100
AcDbLine
 10
42.23256638473643
 20
6.086316384736428
 30
0.0
 11
41.56925452399685
 21
6.169226494885916
 31
0.0
  0
LINE
  5
B5
330
1F
100
AcDbEntity
  8
Doc_ Finishes
  6
Continuous
100
AcDbLine
 10
42.48130556648308
 20
6.307417387883556
 30
0.0
 11
42.23256638473643
 21
6.086316384736428
 31
0.0
  0
LINE
  5
B6
330
1F
100
AcDbEntity
  8
Doc_ Finishes
  6
Continuous
100
AcDbLine
 10
42.14965184893784
 20
6.611432926829268
 30
0.0
 11
42.48130556648308
 21
6.307417387883556
 31
0.0
  0
LINE
  5
B7
330
1F
100
AcDbEntity
  8
Doc_ Finishes
  6
Continuous
100
AcDbLine
 10
41.48634441384736
 20
6.998363001573564
 30
0.0
 11
42.14965184893784
 21
6.611432926829268
 31
0.0
  0
LINE
  5
B8
330
1F
100
AcDbEntity
  8
Doc_ Finishes
  6
Continuous
100
AcDbLine
 10
40.76776062155783
 20
7.357654897718332
 30
0.0
 11
41.48634441384736
 21
6.998363001573564
 31
0.0
  0
LINE
  5
B9
330
1F
100
AcDbEntity
  8
Doc_ Finishes
  6
Continuous
100
AcDbLine
 10
40.18736329661684
 20
8.048600511408338
 30
0.0
 11
40.76776062155783
 21
7.357654897718332
 31
0.0
  0
LINE
  5
BA
330
1F
100
AcDbEntity
  8
Doc_ Finishes
  6
Continuous
100
AcDbLine
 10
38.99893931943352
 20
8.822460660896931
 30
0.0
 11
40.18736329661684
 21
8.048600511408338
 31
0.0
  0
LINE
  5
BB
330
1F
100
AcDbEntity
  8
Doc_ Finishes
  6
Continuous
100
AcDbLine
 10
38.47381835169158
 20
9.319939024390242
 30
0.0
 11
38.99893931943352
 21
8.822460660896931
 31
0.0
  0
LINE
  5
BC
330
1F
100
AcDbEntity
  8
Doc_ Finishes
  6
Continuous
100
AcDbLine
 10
38.22507916994492
 20
9.734507277734066
 30
0.0
 11
38.47381835169158
 21
9.319939024390242
 31
0.0
  0
LINE
  5
BD
330
1F
100
AcDbEntity
  8
Doc_ Finishes
  6
Continuous
100
AcDbLine
 10
37.17484166011014
 20
10.31490460267506
 30
0.0
 11
38.22507916994492
 21
9.734507277734066
 31
0.0
  0
LINE
  5
BE
330
1F
100
AcDbEntity
  8
Doc_ Finishes
  6
Continuous
100
AcDbLine
 10
36.7326352281668
 20
10.78474478756884
 30
0.0
 11
37.17484166011014
 21
10.31490460267506
 31
0.0
  0
LINE
  5
BF
330
1F
100
AcDbEntity
  8
Doc_ Finishes
  6
Continuous
100
AcDbLine
 10
36.23515243902439
 20
11.17167486231314
 30
0.0
 11
36.7326352281668
 21
10.78474478756884
 31
0.0
  0
LINE
  5
C0
330
1F
100
AcDbEntity
  8
Doc_ Finishes
  6
Continuous
100
AcDbLine
 10
35.48893046813532
 20
11.61388129425649
 30
0.0
 11
36.23515243902439
 21
11.17167486231314
 31
0.0
  0
LINE
  5
C1
330
1F
100
AcDbEntity
  8
Doc_ Finishes
  6
Continuous
100
AcDbLine
 10
34.85326121164437
 20
12.16663601494886
 30
0.0
 11
35.48893046813532
 21
11.61388129425649
 31
0.0
  0
LINE
  5
C2
330
1F
100
AcDbEntity
  8
Doc_ Finishes
  6
Continuous
100
AcDbLine
 10
34.35578284815106
 20
12.58120426829268
 30
0.0
 11
34.85326121164437
 21
12.16663601494886
 31
0.0
  0
LINE
  5
C3
330
1F
100
AcDbEntity
  8
Doc_ Finishes
  6
Continuous
100
AcDbLine
 10
33.69247098741149
 20
12.99577252163651
 30
0.0
 11
34.35578284815106
 21
12.58120426829268
 31
0.0
  0
LINE
  5
C4
330
1F
100
AcDbEntity
  8
Doc_ Finishes
  6
Continuous
100
AcDbLine
 10
33.2226308025177
 20
13.32742623918175
 30
0.0
 11
33.69247098741149
 21
12.99577252163651
 31
0.0
  0
LINE
  5
C5
330
1F
100
AcDbEntity
  8
Doc_ Finishes
  6
Continuous
100
AcDbLine
 10
32.7251480133753
 20
13.5761654209284
 30
0.0
 11
33.2226308025177
 21
13.32742623918175
 31
0.0
  0
LINE
  5
C6
330
1F
100
AcDbEntity
  8
Doc_ Finishes
  6
Continuous
100
AcDbLine
 10
31.93747098741148
 20
14.0644340086546
 30
0.0
 11
32.7251480133753
 21
13.5761654209284
 31
0.0
  0
LINE
  5
C7
330
1F
100
AcDbEntity
  8
Doc_ Finishes
  6
Continuous
100
AcDbLine
 10
31.43077842250197
 20
14.38687795043273
 30
0.0
 11
31.93747098741148
 21
14.0644340086546
 31
0.0
  0
LINE
  5
C8
330
1F
100
AcDbEntity
  8
Doc_ Finishes
  6
Continuous
100
AcDbLine
 10
30.92408143194335
 20
14.70931746656176
 30
0.0
 11
31.43077842250197
 21
14.38687795043273
 31
0.0
  0
LINE
  5
C9
330
1F
100
AcDbEntity
  8
Doc_ Finishes
  6
Continuous
100
AcDbLine
 10
30.62467299370574
 20
15.10085464201416
 30
0.0
 11
30.92408143194335
 21
14.70931746656176
 31
0.0
  0
LINE
  5
CA
330
1F
100
AcDbEntity
  8
Doc_ Finishes
  6
Continuous
100
AcDbLine
 10
29.95675845790716
 20
15.67664486624705
 30
0.0
 11
30.62467299370574
 21
15.10085464201416
 31
0.0
  0
LINE
  5
CB
330
1F
100
AcDbEntity
  8
Doc_ Finishes
  6
Continuous
100
AcDbLine
 10
29.47309697088906
 20
15.95302222659323
 30
0.0
 11
29.95675845790716
 21
15.67664486624705
 31
0.0
  0
LINE
  5
CC
330
1F
100
AcDbEntity
  8
Doc_ Finishes
  6
Continuous
100
AcDbLine
 10
28.8282135129819
 20
16.36759047993706
 30
0.0
 11
29.47309697088906
 21
15.95302222659323
 31
0.0
  0
LINE
  5
CD
330
1F
100
AcDbEntity
  8
Doc_ Finishes
  6
Continuous
100
AcDbLine
 10
28.50577399685287
 20
16.22939958693942
 30
0.0
 11
28.8282135129819
 21
16.36759047993706
 31
0.0
  0
LINE
  5
CE
330
1F
100
AcDbEntity
  8
Doc_ Finishes
  6
Continuous
100
AcDbLine
 10
28.06817466561763
 20
15.74573809992132
 30
0.0
 11
28.50577399685287
 21
16.22939958693942
 31
0.0
  0
LINE
  5
CF
330
1F
100
AcDbEntity
  8
Doc_ Finishes
  6
Continuous
 62
   254
370
    18
100
AcDbLine
 10
97.43333792289535
 20
5.093360051140834
 30
0.0
 11
97.43333792289535
 21
20.69901750590086
 31
0.0
  0
LINE
  5
D0
330
1F
100
AcDbEntity
  8
Doc_ Finishes
  6
Continuous
 62
   254
370
    18
100
AcDbLine
 10
7.000000491738787
 20
20.69901750590086
 30
0.0
 11
290.2406840086546
 21
20.69901750590086
 31
0.0
  0
LINE
  5
D1
330
1F
100
AcDbEntity
  8
Doc_ Finishes
  6
Continuous
 62
   254
370
    18
100
AcDbLine
 10
290.2406840086546
 20
20.69901750590086
 30
0.0
 11
290.2406840086546
 21
5.000000983477577
 31
0.0
  0
LINE
  5
D2
330
1F
100
AcDbEntity
  8
Doc_ Finishes
  6
Continuous
 62
   254
370
    18
100
AcDbLine
 10
290.2406840086546
 20
5.000000983477577
 30
0.0
 11
7.000000491738787
 21
5.000000983477577
 31
0.0
  0
LINE
  5
D3
330
1F
100
AcDbEntity
  8
Doc_ Finishes
  6
Continuous
 62
   254
370
    18
100
AcDbLine
 10
7.000000491738787
 20
20.69901750590086
 30
0.0
 11
7.000000491738787
 21
5.000000983477577
 31
0.0
  0
LINE
  5
D4
330
1F
100
AcDbEntity
  8
Doc_ Finishes
  6
Continuous
 62
   254
370
    18
100
AcDbLine
 10
190.2919443351691
 20
5.093360051140834
 30
0.0
 11
190.2919443351691
 21
20.69901750590086
 31
0.0
  0
LINE
  5
D5
330
1F
100
AcDbEntity
  8
Doc_ Finishes
  6
Continuous
 62
   254
370
    18
100
AcDbLine
 10
190.2919443351691
 20
12.8961909913454
 30
0.0
 11
290.2406840086546
 21
12.8961909913454
 31
0.0
  0
MTEXT
  5
D7
330
1F
100
AcDbEntity
  8
0
  6
Continuous
100
AcDbMText
 10
210.3494767103412
 20
15.00228412282651
 30
0.0
 40
2.25
 41
0.0
 71
     7
 72
     1
  1
{R-TRSS-01}
  7
GENERATED_STYLE_1
 73
     1
 44
1.0
  0
MTEXT
  5
D8
330
1F
100
AcDbEntity
  8
0
  6
Continuous
100
AcDbMText
 10
210.3494767103412
 20
11.03300550383743
 30
0.0
 40
3.0
 41
0.0
 71
     1
 72
     1
  1
{TYPICAL ROOF LAYOUT}
  7
GENERATED_STYLE_1
 73
     1
 44
1.0
  0
MTEXT
  5
DA
330
1F
100
AcDbEntity
  8
Doc_ Floor
  6
Continuous
100
AcDbMText
 10
29.78353726544612
 20
13.33283672870609
 30
0.0
 40
5.603347280334726
 41
0.0
 71
     1
 72
     1
  1
{The Roofing Store}
  7
GENERATED_STYLE_2
 73
     1
 44
1.0
  0
MTEXT
  5
DC
102
{ACAD_XDICTIONARY
360
394
102
}
330
1F
100
AcDbEntity
  8
0
  6
Continuous
100
AcDbMText
 10
102.7389238446655
 20
6.378784417288154
 30
0.0
 40
1.5
 41
0.0
 71
     7
 72
     1
  1
{P: HEAD OFFICE              09 277 2717\P    ALBANY             09 972 0060\P    KATIKAIT            07 549 5190\P    WELLINGTON              04 974 5792\P    CHRISTCHURCH          03 348 6528}
  7
GENERATED_STYLE_1
 73
     1
 44
1.062946161486498
  0
MTEXT
  5
DD
330
1F
100
AcDbEntity
  8
0
  6
Continuous
100
AcDbMText
 10
149.4184566143587
 20
9.199084231526154
 30
0.0
 40
1.5
 41
0.0
 71
     7
 72
     1
  1
{WEB: www.theroofingstore.co.nz}
  7
GENERATED_STYLE_1
 73
     1
 44
1.0
  0
MTEXT
  5
DE
330
1F
100
AcDbEntity
  8
0
  6
Continuous
100
AcDbMText
 10
149.4184566143587
 20
6.620946023411263
 30
0.0
 40
1.5
 41
0.0
 71
     7
 72
     1
  1
{Copyright \U+00A9 The Roofing Store 2013}
  7
GENERATED_STYLE_1
 73
     1
 44
1.0
  0
MTEXT
  5
DF
330
1F
100
AcDbEntity
  8
0
  6
Continuous
100
AcDbMText
 10
273.9546684065315
 20
15.01595245667184
 30
0.0
 40
2.25
 41
0.0
 71
     7
 72
     1
  1
{1:5}
  7
GENERATED_STYLE_1
 73
     1
 44
1.0
  0
MTEXT
  5
E0
330
1F
100
AcDbEntity
  8
0
  6
Continuous
100
AcDbMText
 10
264.8396605309016
 20
15.51746459162148
 30
0.0
 40
1.5
 41
0.0
 71
     7
 72
     1
  1
{SCALE:}
  7
GENERATED_STYLE_1
 73
     1
 44
1.0
  0
MTEXT
  5
E1
330
1F
100
AcDbEntity
  8
0
  6
Continuous
100
AcDbMText
 10
191.5066235617487
 20
15.48695559872207
 30
0.0
 40
1.5
 41
0.0
 71
     7
 72
     1
  1
{DETAIL NUMBER:}
  7
GENERATED_STYLE_1
 73
     1
 44
1.0
  0
MTEXT
  5
E2
330
1F
100
AcDbEntity
  8
0
  6
Continuous
100
AcDbMText
 10
191.5066235617487
 20
9.005462392315325
 30
0.0
 40
1.5
 41
0.0
 71
     7
 72
     1
  1
{TITLE:}
  7
GENERATED_STYLE_1
 73
     1
 44
1.0
  0
INSERT
  5
362
102
{ACAD_XDICTIONARY
360
363
102
}
330
1F
100
AcDbEntity
  8
0
  6
Continuous
100
AcDbBlockReference
  2
Drawing_1_2
 10
-643.6738228358003
 20
301.9330324462474
 30
0.0
  0
ENDSEC
  0
SECTION
  2
OBJECTS
  0
DICTIONARY
  5
C
330
0
100
AcDbDictionary
281
     1
  3
ACAD_GROUP
350
D
  3
ACAD_LAYOUT
350
1A
  3
ACAD_MATERIAL
350
3B
  3
ACAD_MLEADERSTYLE
350
38F
  3
ACAD_MLINESTYLE
350
17
  3
ACAD_PLOTSETTINGS
350
19
  3
ACAD_PLOTSTYLENAME
350
E
  3
ACAD_SCALELIST
350
369
  3
ACAD_VISUALSTYLE
350
2A
  3
AcDbVariableDictionary
350
38D
  3
WATERMARKS
350
38B
  0
DICTIONARY
  5
396
330
334
100
AcDbDictionary
280
     1
281
     1
  3
ACAD_MTEXT_RT
360
397
  0
DICTIONARY
  5
394
330
DC
100
AcDbDictionary
280
     1
281
     1
  3
ACAD_MTEXT_RT
360
395
  0
DICTIONARY
  5
363
330
362
100
AcDbDictionary
280
     1
281
     1
  3
ACAD_FILTER
360
364
  0
DICTIONARY
  5
D
102
{ACAD_REACTORS
330
C
102
}
330
C
100
AcDbDictionary
281
     1
  0
DICTIONARY
  5
1A
102
{ACAD_REACTORS
330
C
102
}
330
C
100
AcDbDictionary
281
     1
  3
Layout1
350
1E
  3
Model
350
22
  0
DICTIONARY
  5
3B
102
{ACAD_REACTORS
330
C
102
}
330
C
100
AcDbDictionary
281
     1
  3
ByBlock
350
3D
  3
ByLayer
350
3C
  3
Global
350
3E
  0
DICTIONARY
  5
38F
102
{ACAD_REACTORS
330
C
102
}
330
C
100
AcDbDictionary
281
     1
  0
DICTIONARY
  5
17
102
{ACAD_REACTORS
330
C
102
}
330
C
100
AcDbDictionary
281
     1
  3
Standard
350
18
  0
DICTIONARY
  5
19
102
{ACAD_REACTORS
330
C
102
}
330
C
100
AcDbDictionary
281
     1
  0
ACDBDICTIONARYWDFLT
  5
E
102
{ACAD_REACTORS
330
C
102
}
330
C
100
AcDbDictionary
281
     1
  3
Normal
350
F
100
AcDbDictionaryWithDefault
340
F
  0
DICTIONARY
  5
369
102
{ACAD_REACTORS
330
C
102
}
330
C
100
AcDbDictionary
281
     1
  3
A0
350
36A
  3
A1
350
36B
  3
A2
350
36C
  3
A3
350
36D
  3
A4
350
36E
  3
A5
350
36F
  3
A6
350
370
  3
A7
350
371
  3
A8
350
372
  3
A9
350
373
  3
B0
350
374
  3
B1
350
375
  3
B2
350
376
  3
B3
350
377
  3
B4
350
378
  3
B5
350
379
  3
B6
350
37A
  3
B7
350
37B
  3
B8
350
37C
  3
B9
350
37D
  3
C0
350
37E
  3
C1
350
37F
  3
C2
350
380
  3
C3
350
381
  3
C4
350
382
  3
C5
350
383
  3
C6
350
384
  3
C7
350
385
  3
C8
350
386
  3
C9
350
387
  3
D0
350
388
  3
D1
350
389
  3
D2
350
38A
  0
DICTIONARY
  5
2A
102
{ACAD_REACTORS
330
C
102
}
330
C
100
AcDbDictionary
281
     1
  3
2dWireframe
350
2F
  3
3D Hidden
350
31
  3
3dWireframe
350
30
  3
Basic
350
32
  3
Brighten
350
36
  3
ColorChange
350
3A
  3
Conceptual
350
34
  3
Dim
350
35
  3
Facepattern
350
39
  3
Flat
350
2B
  3
FlatWithEdges
350
2C
  3
Gouraud
350
2D
  3
GouraudWithEdges
350
2E
  3
Linepattern
350
38
  3
Realistic
350
33
  3
Thicken
350
37
  0
DICTIONARY
  5
38D
102
{ACAD_REACTORS
330
C
102
}
330
C
100
AcDbDictionary
281
     1
  3
CANNOSCALE
350
391
  3
DIMASSOC
350
392
  3
HIDETEXT
350
393
  3
XCLIPFRAME
350
390
  0
DICTIONARY
  5
38B
102
{ACAD_REACTORS
330
C
102
}
330
C
100
AcDbDictionary
281
     1
  3
AC_WATERMARK
350
38C
  0
XRECORD
  5
397
102
{ACAD_REACTORS
330
396
102
}
330
396
100
AcDbXrecord
280
     1
 40
326192.0
  1
{TRS SEAM\P\pt37.7502;MIN. ROOF PITCH 5° FOR ANGLE SEAM\P\pt37.7502;MIN. ROOF PITCH 3° FOR DOUBLE STANDING SEAM}
  0
XRECORD
  5
395
102
{ACAD_REACTORS
330
394
102
}
330
394
100
AcDbXrecord
280
     1
 40
956118.0
  1
{P: HEAD OFFICE ^I^I09 277 2717\P    ALBANY ^I^I09 972 0060\P    KATIKAIT^I^I07 549 5190\P    WELLINGTON^I^I04 974 5792\P    CHRISTCHURCH^I^I03 348 6528}
  0
DICTIONARY
  5
364
102
{ACAD_REACTORS
330
363
102
}
330
363
100
AcDbDictionary
280
     1
281
     1
  3
SPATIAL
360
365
  0
LAYOUT
  5
1E
102
{ACAD_REACTORS
330
1A
102
}
330
1A
100
AcDbPlotSettings
  1

  2
none_device
  4

  6

 40
0.0
 41
0.0
 42
0.0
 43
0.0
 44
0.0
 45
0.0
 46
0.0
 47
0.0
 48
0.0
 49
0.0
140
0.0
141
0.0
142
1.0
143
1.0
 70
   688
 72
     0
 73
     0
 74
     5
  7

 75
    16
147
1.0
148
0.0
149
0.0
100
AcDbLayout
  1
Layout1
 70
     1
 71
     1
 10
0.0
 20
0.0
 11
12.0
 21
9.0
 12
0.0
 22
0.0
 32
0.0
 14
1.000000000000000E+20
 24
1.000000000000000E+20
 34
1.000000000000000E+20
 15
-1.000000000000000E+20
 25
-1.000000000000000E+20
 35
-1.000000000000000E+20
146
0.0
 13
0.0
 23
0.0
 33
0.0
 16
1.0
 26
0.0
 36
0.0
 17
0.0
 27
1.0
 37
0.0
 76
     0
330
1B
  0
LAYOUT
  5
22
102
{ACAD_REACTORS
330
1A
102
}
330
1A
100
AcDbPlotSettings
  1

  2
none_device
  4

  6

 40
0.0
 41
0.0
 42
0.0
 43
0.0
 44
0.0
 45
0.0
 46
0.0
 47
0.0
 48
0.0
 49
0.0
140
0.0
141
0.0
142
1.0
143
1.0
 70
  1712
 72
     0
 73
     0
 74
     0
  7

 75
     0
147
1.0
148
0.0
149
0.0
100
AcDbLayout
  1
Model
 70
     1
 71
     0
 10
0.0
 20
0.0
 11
12.0
 21
9.0
 12
0.0
 22
0.0
 32
0.0
 14
1.000000000000000E+20
 24
1.000000000000000E+20
 34
1.000000000000000E+20
 15
-1.000000000000000E+20
 25
-1.000000000000000E+20
 35
-1.000000000000000E+20
146
0.0
 13
0.0
 23
0.0
 33
0.0
 16
1.0
 26
0.0
 36
0.0
 17
0.0
 27
1.0
 37
0.0
 76
     0
330
1F
331
29
  0
MATERIAL
  5
3D
102
{ACAD_REACTORS
330
3B
102
}
102
{ACAD_XDICTIONARY
360
3BA
102
}
330
3B
100
AcDbMaterial
  1
ByBlock
  0
MATERIAL
  5
3C
102
{ACAD_REACTORS
330
3B
102
}
102
{ACAD_XDICTIONARY
360
3B8
102
}
330
3B
100
AcDbMaterial
  1
ByLayer
  0
MATERIAL
  5
3E
102
{ACAD_REACTORS
330
3B
102
}
102
{ACAD_XDICTIONARY
360
3BC
102
}
330
3B
100
AcDbMaterial
  1
Global
  0
MLINESTYLE
  5
18
102
{ACAD_REACTORS
330
17
102
}
330
17
100
AcDbMlineStyle
  2
Standard
 70
     0
  3

 62
   256
 51
90.0
 52
90.0
 71
     2
 49
0.5
 62
   256
  6
BYLAYER
 49
-0.5
 62
   256
  6
BYLAYER
  0
ACDBPLACEHOLDER
  5
F
102
{ACAD_REACTORS
330
E
102
}
330
E
  0
SCALE
  5
36A
102
{ACAD_REACTORS
330
369
102
}
330
369
100
AcDbScale
 70
     0
300
1:1
140
1.0
141
1.0
290
     1
  0
SCALE
  5
36B
102
{ACAD_REACTORS
330
369
102
}
330
369
100
AcDbScale
 70
     0
300
1:2
140
1.0
141
2.0
290
     0
  0
SCALE
  5
36C
102
{ACAD_REACTORS
330
369
102
}
330
369
100
AcDbScale
 70
     0
300
1:4
140
1.0
141
4.0
290
     0
  0
SCALE
  5
36D
102
{ACAD_REACTORS
330
369
102
}
330
369
100
AcDbScale
 70
     0
300
1:5
140
1.0
141
5.0
290
     0
  0
SCALE
  5
36E
102
{ACAD_REACTORS
330
369
102
}
330
369
100
AcDbScale
 70
     0
300
1:8
140
1.0
141
8.0
290
     0
  0
SCALE
  5
36F
102
{ACAD_REACTORS
330
369
102
}
330
369
100
AcDbScale
 70
     0
300
1:10
140
1.0
141
10.0
290
     0
  0
SCALE
  5
370
102
{ACAD_REACTORS
330
369
102
}
330
369
100
AcDbScale
 70
     0
300
1:16
140
1.0
141
16.0
290
     0
  0
SCALE
  5
371
102
{ACAD_REACTORS
330
369
102
}
330
369
100
AcDbScale
 70
     0
300
1:20
140
1.0
141
20.0
290
     0
  0
SCALE
  5
372
102
{ACAD_REACTORS
330
369
102
}
330
369
100
AcDbScale
 70
     0
300
1:30
140
1.0
141
30.0
290
     0
  0
SCALE
  5
373
102
{ACAD_REACTORS
330
369
102
}
330
369
100
AcDbScale
 70
     0
300
1:40
140
1.0
141
40.0
290
     0
  0
SCALE
  5
374
102
{ACAD_REACTORS
330
369
102
}
330
369
100
AcDbScale
 70
     0
300
1:50
140
1.0
141
50.0
290
     0
  0
SCALE
  5
375
102
{ACAD_REACTORS
330
369
102
}
330
369
100
AcDbScale
 70
     0
300
1:100
140
1.0
141
100.0
290
     0
  0
SCALE
  5
376
102
{ACAD_REACTORS
330
369
102
}
330
369
100
AcDbScale
 70
     0
300
2:1
140
2.0
141
1.0
290
     0
  0
SCALE
  5
377
102
{ACAD_REACTORS
330
369
102
}
330
369
100
AcDbScale
 70
     0
300
4:1
140
4.0
141
1.0
290
     0
  0
SCALE
  5
378
102
{ACAD_REACTORS
330
369
102
}
330
369
100
AcDbScale
 70
     0
300
8:1
140
8.0
141
1.0
290
     0
  0
SCALE
  5
379
102
{ACAD_REACTORS
330
369
102
}
330
369
100
AcDbScale
 70
     0
300
10:1
140
10.0
141
1.0
290
     0
  0
SCALE
  5
37A
102
{ACAD_REACTORS
330
369
102
}
330
369
100
AcDbScale
 70
     0
300
100:1
140
100.0
141
1.0
290
     0
  0
SCALE
  5
37B
102
{ACAD_REACTORS
330
369
102
}
330
369
100
AcDbScale
 70
     0
300
1/128" = 1'-0"
140
0.0078125
141
12.0
290
     0
  0
SCALE
  5
37C
102
{ACAD_REACTORS
330
369
102
}
330
369
100
AcDbScale
 70
     0
300
1/64" = 1'-0"
140
0.015625
141
12.0
290
     0
  0
SCALE
  5
37D
102
{ACAD_REACTORS
330
369
102
}
330
369
100
AcDbScale
 70
     0
300
1/32" = 1'-0"
140
0.03125
141
12.0
290
     0
  0
SCALE
  5
37E
102
{ACAD_REACTORS
330
369
102
}
330
369
100
AcDbScale
 70
     0
300
1/16" = 1'-0"
140
0.0625
141
12.0
290
     0
  0
SCALE
  5
37F
102
{ACAD_REACTORS
330
369
102
}
330
369
100
AcDbScale
 70
     0
300
3/32" = 1'-0"
140
0.09375
141
12.0
290
     0
  0
SCALE
  5
380
102
{ACAD_REACTORS
330
369
102
}
330
369
100
AcDbScale
 70
     0
300
1/8" = 1'-0"
140
0.125
141
12.0
290
     0
  0
SCALE
  5
381
102
{ACAD_REACTORS
330
369
102
}
330
369
100
AcDbScale
 70
     0
300
3/16" = 1'-0"
140
0.1875
141
12.0
290
     0
  0
SCALE
  5
382
102
{ACAD_REACTORS
330
369
102
}
330
369
100
AcDbScale
 70
     0
300
1/4" = 1'-0"
140
0.25
141
12.0
290
     0
  0
SCALE
  5
383
102
{ACAD_REACTORS
330
369
102
}
330
369
100
AcDbScale
 70
     0
300
3/8" = 1'-0"
140
0.375
141
12.0
290
     0
  0
SCALE
  5
384
102
{ACAD_REACTORS
330
369
102
}
330
369
100
AcDbScale
 70
     0
300
1/2" = 1'-0"
140
0.5
141
12.0
290
     0
  0
SCALE
  5
385
102
{ACAD_REACTORS
330
369
102
}
330
369
100
AcDbScale
 70
     0
300
3/4" = 1'-0"
140
0.75
141
12.0
290
     0
  0
SCALE
  5
386
102
{ACAD_REACTORS
330
369
102
}
330
369
100
AcDbScale
 70
     0
300
1" = 1'-0"
140
1.0
141
12.0
290
     0
  0
SCALE
  5
387
102
{ACAD_REACTORS
330
369
102
}
330
369
100
AcDbScale
 70
     0
300
1-1/2" = 1'-0"
140
1.5
141
12.0
290
     0
  0
SCALE
  5
388
102
{ACAD_REACTORS
330
369
102
}
330
369
100
AcDbScale
 70
     0
300
3" = 1'-0"
140
3.0
141
12.0
290
     0
  0
SCALE
  5
389
102
{ACAD_REACTORS
330
369
102
}
330
369
100
AcDbScale
 70
     0
300
6" = 1'-0"
140
6.0
141
12.0
290
     0
  0
SCALE
  5
38A
102
{ACAD_REACTORS
330
369
102
}
330
369
100
AcDbScale
 70
     0
300
1'-0" = 1'-0"
140
12.0
141
12.0
290
     0
  0
VISUALSTYLE
  5
2F
102
{ACAD_REACTORS
330
2A
102
}
102
{ACAD_XDICTIONARY
360
3A0
102
}
330
2A
100
AcDbVisualStyle
  2
2dWireframe
 70
     4
 71
     0
 72
     2
 73
     0
 90
        0
 40
-0.6
 41
-30.0
 62
     5
 63
     7
 74
     1
 91
        4
 64
     7
 65
   257
 75
     1
175
     1
 42
1.0
 92
        0
 66
   257
 43
1.0
 76
     1
 77
     6
 78
     2
 67
     7
 79
     5
170
     0
171
     0
290
     0
174
     0
 93
        1
 44
0.0
173
     0
291
     0
 45
0.0
1001
ACAD
1000
AcDbSavedByObjectVersion
1070
     0
  0
VISUALSTYLE
  5
31
102
{ACAD_REACTORS
330
2A
102
}
102
{ACAD_XDICTIONARY
360
3A4
102
}
330
2A
100
AcDbVisualStyle
  2
3D Hidden
 70
     6
 71
     1
 72
     2
 73
     2
 90
        0
 40
-0.6
 41
-30.0
 62
     5
 63
     7
 74
     2
 91
        2
 64
     7
 65
   257
 75
     2
175
     1
 42
40.0
 92
        0
 66
   257
 43
1.0
 76
     1
 77
     6
 78
     2
 67
     7
 79
     3
170
     0
171
     0
290
     0
174
     0
 93
        1
 44
0.0
173
     0
291
     0
 45
0.0
1001
ACAD
1000
AcDbSavedByObjectVersion
1070
     0
  0
VISUALSTYLE
  5
30
102
{ACAD_REACTORS
330
2A
102
}
102
{ACAD_XDICTIONARY
360
3A2
102
}
330
2A
100
AcDbVisualStyle
  2
3dWireframe
 70
     5
 71
     0
 72
     2
 73
     0
 90
        0
 40
-0.6
 41
-30.0
 62
     5
 63
     7
 74
     1
 91
        4
 64
     7
 65
   257
 75
     1
175
     1
 42
1.0
 92
        0
 66
   257
 43
1.0
 76
     1
 77
     6
 78
     2
 67
     7
 79
     5
170
     0
171
     0
290
     0
174
     0
 93
        1
 44
0.0
173
     0
291
     0
 45
0.0
1001
ACAD
1000
AcDbSavedByObjectVersion
1070
     0
  0
VISUALSTYLE
  5
32
102
{ACAD_REACTORS
330
2A
102
}
102
{ACAD_XDICTIONARY
360
3A6
102
}
330
2A
100
AcDbVisualStyle
  2
Basic
 70
     7
 71
     1
 72
     0
 73
     1
 90
        0
 40
-0.6
 41
-30.0
 62
     5
 63
     7
 74
     0
 91
        4
 64
     7
 65
   257
 75
     1
175
     1
 42
1.0
 92
        8
 66
     7
 43
1.0
 76
     1
 77
     6
 78
     2
 67
     7
 79
     5
170
     0
171
     0
290
     0
174
     0
 93
        1
 44
0.0
173
     0
291
     1
 45
0.0
1001
ACAD
1000
AcDbSavedByObjectVersion
1070
     0
  0
VISUALSTYLE
  5
36
102
{ACAD_REACTORS
330
2A
102
}
102
{ACAD_XDICTIONARY
360
3AE
102
}
330
2A
100
AcDbVisualStyle
  2
Brighten
 70
    12
 71
     2
 72
     2
 73
     0
 90
        0
 40
-0.6
 41
-30.0
 62
     5
 63
     7
 74
     1
 91
        4
 64
     7
 65
   257
 75
     1
175
     1
 42
1.0
 92
        8
 66
     7
 43
1.0
 76
     1
 77
     6
 78
     2
 67
     7
 79
     5
170
     0
171
     0
290
     0
174
     0
 93
        1
 44
50.0
173
     0
291
     1
 45
0.0
1001
ACAD
1000
AcDbSavedByObjectVersion
1070
     0
  0
VISUALSTYLE
  5
3A
102
{ACAD_REACTORS
330
2A
102
}
102
{ACAD_XDICTIONARY
360
3B6
102
}
330
2A
100
AcDbVisualStyle
  2
ColorChange
 70
    16
 71
     2
 72
     2
 73
     3
 90
        0
 40
-0.6
 41
-30.0
 62
     5
 63
     8
 74
     1
 91
        4
 64
     7
 65
   257
 75
     1
175
     1
 42
1.0
 92
        8
 66
     8
 43
1.0
 76
     1
 77
     6
 78
     2
 67
     7
 79
     5
170
     0
171
     0
290
     0
174
     0
 93
        1
 44
0.0
173
     0
291
     1
 45
0.0
1001
ACAD
1000
AcDbSavedByObjectVersion
1070
     0
  0
VISUALSTYLE
  5
34
102
{ACAD_REACTORS
330
2A
102
}
102
{ACAD_XDICTIONARY
360
3AA
102
}
330
2A
100
AcDbVisualStyle
  2
Conceptual
 70
     9
 71
     3
 72
     2
 73
     0
 90
        0
 40
-0.6
 41
-30.0
 62
     5
 63
     7
 74
     2
 91
        2
 64
     7
 65
   257
 75
     1
175
     1
 42
40.0
 92
        8
 66
     7
 43
1.0
 76
     1
 77
     6
 78
     2
 67
     7
 79
     3
170
     0
171
     0
290
     0
174
     0
 93
        1
 44
0.0
173
     0
291
     0
 45
0.0
1001
ACAD
1000
AcDbSavedByObjectVersion
1070
     0
  0
VISUALSTYLE
  5
35
102
{ACAD_REACTORS
330
2A
102
}
102
{ACAD_XDICTIONARY
360
3AC
102
}
330
2A
100
AcDbVisualStyle
  2
Dim
 70
    11
 71
     2
 72
     2
 73
     0
 90
        0
 40
-0.6
 41
-30.0
 62
     5
 63
     7
 74
     1
 91
        4
 64
     7
 65
   257
 75
     1
175
     1
 42
1.0
 92
        8
 66
     7
 43
1.0
 76
     1
 77
     6
 78
     2
 67
     7
 79
     5
170
     0
171
     0
290
     0
174
     0
 93
        1
 44
-50.0
173
     0
291
     1
 45
0.0
1001
ACAD
1000
AcDbSavedByObjectVersion
1070
     0
  0
VISUALSTYLE
  5
39
102
{ACAD_REACTORS
330
2A
102
}
102
{ACAD_XDICTIONARY
360
3B4
102
}
330
2A
100
AcDbVisualStyle
  2
Facepattern
 70
    15
 71
     2
 72
     2
 73
     0
 90
        0
 40
-0.6
 41
-30.0
 62
     5
 63
     7
 74
     1
 91
        4
 64
     7
 65
   257
 75
     1
175
     1
 42
1.0
 92
        8
 66
     7
 43
1.0
 76
     1
 77
     6
 78
     2
 67
     7
 79
     5
170
     0
171
     0
290
     0
174
     0
 93
        1
 44
0.0
173
     0
291
     1
 45
0.0
1001
ACAD
1000
AcDbSavedByObjectVersion
1070
     0
  0
VISUALSTYLE
  5
2B
102
{ACAD_REACTORS
330
2A
102
}
102
{ACAD_XDICTIONARY
360
398
102
}
330
2A
100
AcDbVisualStyle
  2
Flat
 70
     0
 71
     2
 72
     1
 73
     1
 90
        2
 40
-0.6
 41
30.0
 62
     5
 63
     7
 74
     0
 91
        4
 64
     7
 65
   257
 75
     1
175
     1
 42
1.0
 92
        8
 66
     7
 43
1.0
 76
     1
 77
     6
 78
     2
 67
     7
 79
     5
170
     0
171
     0
290
     0
174
     0
 93
       13
 44
0.0
173
     0
291
     1
 45
0.0
1001
ACAD
1000
AcDbSavedByObjectVersion
1070
     0
  0
VISUALSTYLE
  5
2C
102
{ACAD_REACTORS
330
2A
102
}
102
{ACAD_XDICTIONARY
360
39A
102
}
330
2A
100
AcDbVisualStyle
  2
FlatWithEdges
 70
     1
 71
     2
 72
     1
 73
     1
 90
        2
 40
-0.6
 41
30.0
 62
     5
 63
     7
 74
     1
 91
        4
 64
     7
 65
   257
 75
     1
175
     1
 42
1.0
 92
        0
 66
   257
 43
1.0
 76
     1
 77
     6
 78
     2
 67
     7
 79
     5
170
     0
171
     0
290
     0
174
     0
 93
       13
 44
0.0
173
     0
291
     1
 45
0.0
1001
ACAD
1000
AcDbSavedByObjectVersion
1070
     0
  0
VISUALSTYLE
  5
2D
102
{ACAD_REACTORS
330
2A
102
}
102
{ACAD_XDICTIONARY
360
39C
102
}
330
2A
100
AcDbVisualStyle
  2
Gouraud
 70
     2
 71
     2
 72
     2
 73
     1
 90
        2
 40
-0.6
 41
30.0
 62
     5
 63
     7
 74
     0
 91
        4
 64
     7
 65
   257
 75
     1
175
     1
 42
1.0
 92
        0
 66
     7
 43
1.0
 76
     1
 77
     6
 78
     2
 67
     7
 79
     5
170
     0
171
     0
290
     0
174
     0
 93
       13
 44
0.0
173
     0
291
     1
 45
0.0
1001
ACAD
1000
AcDbSavedByObjectVersion
1070
     0
  0
VISUALSTYLE
  5
2E
102
{ACAD_REACTORS
330
2A
102
}
102
{ACAD_XDICTIONARY
360
39E
102
}
330
2A
100
AcDbVisualStyle
  2
GouraudWithEdges
 70
     3
 71
     2
 72
     2
 73
     1
 90
        2
 40
-0.6
 41
30.0
 62
     5
 63
     7
 74
     1
 91
        4
 64
     7
 65
   257
 75
     1
175
     1
 42
1.0
 92
        0
 66
   257
 43
1.0
 76
     1
 77
     6
 78
     2
 67
     7
 79
     5
170
     0
171
     0
290
     0
174
     0
 93
       13
 44
0.0
173
     0
291
     1
 45
0.0
1001
ACAD
1000
AcDbSavedByObjectVersion
1070
     0
  0
VISUALSTYLE
  5
38
102
{ACAD_REACTORS
330
2A
102
}
102
{ACAD_XDICTIONARY
360
3B2
102
}
330
2A
100
AcDbVisualStyle
  2
Linepattern
 70
    14
 71
     2
 72
     2
 73
     0
 90
        0
 40
-0.6
 41
-30.0
 62
     5
 63
     7
 74
     1
 91
        4
 64
     7
 65
   257
 75
     7
175
     7
 42
1.0
 92
        8
 66
     7
 43
1.0
 76
     1
 77
     6
 78
     2
 67
     7
 79
     5
170
     0
171
     0
290
     0
174
     0
 93
        1
 44
0.0
173
     0
291
     1
 45
0.0
1001
ACAD
1000
AcDbSavedByObjectVersion
1070
     0
  0
VISUALSTYLE
  5
33
102
{ACAD_REACTORS
330
2A
102
}
102
{ACAD_XDICTIONARY
360
3A8
102
}
330
2A
100
AcDbVisualStyle
  2
Realistic
 70
     8
 71
     2
 72
     2
 73
     0
 90
        0
 40
-0.6
 41
-30.0
 62
     5
 63
     7
 74
     1
 91
        0
 64
     7
 65
   257
 75
     1
175
     1
 42
1.0
 92
        8
 66
     8
 43
1.0
 76
     1
 77
     6
 78
     2
 67
     7
 79
     5
170
     0
171
     0
290
     0
174
     0
 93
       13
 44
0.0
173
     0
291
     0
 45
0.0
1001
ACAD
1000
AcDbSavedByObjectVersion
1070
     0
  0
VISUALSTYLE
  5
37
102
{ACAD_REACTORS
330
2A
102
}
102
{ACAD_XDICTIONARY
360
3B0
102
}
330
2A
100
AcDbVisualStyle
  2
Thicken
 70
    13
 71
     2
 72
     2
 73
     0
 90
        0
 40
-0.6
 41
-30.0
 62
     5
 63
     7
 74
     1
 91
        4
 64
     7
 65
   257
 75
     1
175
     1
 42
1.0
 92
       12
 66
     7
 43
1.0
 76
     1
 77
     6
 78
     2
 67
     7
 79
     5
170
     0
171
     0
290
     0
174
     0
 93
        1
 44
0.0
173
     0
291
     1
 45
0.0
1001
ACAD
1000
AcDbSavedByObjectVersion
1070
     0
  0
DICTIONARYVAR
  5
391
102
{ACAD_REACTORS
330
38D
102
}
330
38D
100
DictionaryVariables
280
     0
  1
1:1
  0
DICTIONARYVAR
  5
392
102
{ACAD_REACTORS
330
38D
102
}
330
38D
100
DictionaryVariables
280
     0
  1
2
  0
DICTIONARYVAR
  5
393
102
{ACAD_REACTORS
330
38D
102
}
330
38D
100
DictionaryVariables
280
     0
  1
1
  0
DICTIONARYVAR
  5
390
102
{ACAD_REACTORS
330
38D
102
}
330
38D
100
DictionaryVariables
280
     0
  1
0
  0
XRECORD
  5
38C
102
{ACAD_REACTORS
330
38B
102
}
330
38B
100
AcDbXrecord
280
     1
1000
This DWG file was created in ArchiCAD(TM)®
  0
SPATIAL_FILTER
  5
365
102
{ACAD_REACTORS
330
364
102
}
330
364
100
AcDbFilter
100
AcDbSpatialFilter
 70
     4
 10
289.3998672235809
 20
205.0
 10
7.003779204021012
 20
205.0
 10
7.003779204020989
 20
31.85192485086696
 10
289.3998672235809
 20
31.85192485086696
210
0.0
220
0.0
230
1.0
 11
0.0
 21
0.0
 31
0.0
 71
     1
 72
     0
 73
     0
 40
1.0
 40
0.0
 40
0.0
 40
0.0
 40
0.0
 40
1.0
 40
0.0
 40
0.0
 40
0.0
 40
0.0
 40
1.0
 40
0.0
 40
1.0
 40
0.0
 40
0.0
 40
0.0
 40
0.0
 40
1.0
 40
0.0
 40
0.0
 40
0.0
 40
0.0
 40
1.0
 40
0.0
  0
DICTIONARY
  5
3BA
330
3D
100
AcDbDictionary
280
     1
281
     1
  3
ACAD_XREC_ROUNDTRIP
360
3BB
  0
DICTIONARY
  5
3B8
330
3C
100
AcDbDictionary
280
     1
281
     1
  3
ACAD_XREC_ROUNDTRIP
360
3B9
  0
DICTIONARY
  5
3BC
330
3E
100
AcDbDictionary
280
     1
281
     1
  3
ACAD_XREC_ROUNDTRIP
360
3BD
  0
DICTIONARY
  5
3A0
330
2F
100
AcDbDictionary
280
     1
281
     1
  3
ACAD_XREC_ROUNDTRIP
360
3A1
  0
DICTIONARY
  5
3A4
330
31
100
AcDbDictionary
280
     1
281
     1
  3
ACAD_XREC_ROUNDTRIP
360
3A5
  0
DICTIONARY
  5
3A2
330
30
100
AcDbDictionary
280
     1
281
     1
  3
ACAD_XREC_ROUNDTRIP
360
3A3
  0
DICTIONARY
  5
3A6
330
32
100
AcDbDictionary
280
     1
281
     1
  3
ACAD_XREC_ROUNDTRIP
360
3A7
  0
DICTIONARY
  5
3AE
330
36
100
AcDbDictionary
280
     1
281
     1
  3
ACAD_XREC_ROUNDTRIP
360
3AF
  0
DICTIONARY
  5
3B6
330
3A
100
AcDbDictionary
280
     1
281
     1
  3
ACAD_XREC_ROUNDTRIP
360
3B7
  0
DICTIONARY
  5
3AA
330
34
100
AcDbDictionary
280
     1
281
     1
  3
ACAD_XREC_ROUNDTRIP
360
3AB
  0
DICTIONARY
  5
3AC
330
35
100
AcDbDictionary
280
     1
281
     1
  3
ACAD_XREC_ROUNDTRIP
360
3AD
  0
DICTIONARY
  5
3B4
330
39
100
AcDbDictionary
280
     1
281
     1
  3
ACAD_XREC_ROUNDTRIP
360
3B5
  0
DICTIONARY
  5
398
330
2B
100
AcDbDictionary
280
     1
281
     1
  3
ACAD_XREC_ROUNDTRIP
360
399
  0
DICTIONARY
  5
39A
330
2C
100
AcDbDictionary
280
     1
281
     1
  3
ACAD_XREC_ROUNDTRIP
360
39B
  0
DICTIONARY
  5
39C
330
2D
100
AcDbDictionary
280
     1
281
     1
  3
ACAD_XREC_ROUNDTRIP
360
39D
  0
DICTIONARY
  5
39E
330
2E
100
AcDbDictionary
280
     1
281
     1
  3
ACAD_XREC_ROUNDTRIP
360
39F
  0
DICTIONARY
  5
3B2
330
38
100
AcDbDictionary
280
     1
281
     1
  3
ACAD_XREC_ROUNDTRIP
360
3B3
  0
DICTIONARY
  5
3A8
330
33
100
AcDbDictionary
280
     1
281
     1
  3
ACAD_XREC_ROUNDTRIP
360
3A9
  0
DICTIONARY
  5
3B0
330
37
100
AcDbDictionary
280
     1
281
     1
  3
ACAD_XREC_ROUNDTRIP
360
3B1
  0
XRECORD
  5
3BB
102
{ACAD_REACTORS
330
3BA
102
}
330
3BA
100
AcDbXrecord
280
     1
102
MATERIAL
148
0.0
149
0.0
149
0.0
 93
        0
 94
      127
282
     0
 72
     1
 77
     1
171
     1
175
     1
179
     1
273
     0
  0
XRECORD
  5
3B9
102
{ACAD_REACTORS
330
3B8
102
}
330
3B8
100
AcDbXrecord
280
     1
102
MATERIAL
148
0.0
149
0.0
149
0.0
 93
        0
 94
      127
282
     0
 72
     1
 77
     1
171
     1
175
     1
179
     1
273
     0
  0
XRECORD
  5
3BD
102
{ACAD_REACTORS
330
3BC
102
}
330
3BC
100
AcDbXrecord
280
     1
102
MATERIAL
148
0.0
149
0.0
149
0.0
 93
        0
 94
      127
282
     0
 72
     1
 77
     1
171
     1
175
     1
179
     1
273
     0
  0
XRECORD
  5
3A1
102
{ACAD_REACTORS
330
3A0
102
}
330
3A0
100
AcDbXrecord
280
     1
102
RTVSPropertyOp0
 70
     1
102
RTVSPropertyOp1
 70
     1
102
RTVSPropertyOp2
 70
     1
102
RTVSPropertyOp3
 70
     1
102
RTVSPropertyOp4
 70
     1
102
RTVSPropertyOp5
 70
     1
102
RTVSPropertyOp6
 70
     1
102
RTVSPropertyOp7
 70
     1
102
RTVSPropertyOp8
 70
     1
102
RTVSPropertyOp9
 70
     1
102
RTVSPropertyOp10
 70
     1
102
RTVSPropertyOp11
 70
     1
102
RTVSPropertyOp12
 70
     1
102
RTVSPropertyOp13
 70
     1
102
RTVSPropertyOp14
 70
     1
102
RTVSPropertyOp15
 70
     1
102
RTVSPropertyOp16
 70
     1
102
RTVSPropertyOp17
 70
     1
102
RTVSPropertyOp18
 70
     1
102
RTVSPropertyOp19
 70
     1
102
RTVSPropertyOp20
 70
     1
102
RTVSPropertyOp21
 70
     1
102
RTVSPropertyOp22
 70
     1
102
RTVSPropertyOp23
 70
     1
102
RTVSPropertyOp24
 70
     1
102
RTVSPropertyOp25
 70
     1
102
RTVSPropertyOp26
 70
     1
102
RTVSPropertyOp27
 70
     1
102
RTVSPropertyOp28
 70
     1
102
RTVSPropertyOp29
 70
     1
102
RTVSPropertyOp30
 70
     1
102
RTVSPropertyOp31
 70
     1
102
RTVSPropertyOp32
 70
     1
  0
XRECORD
  5
3A5
102
{ACAD_REACTORS
330
3A4
102
}
330
3A4
100
AcDbXrecord
280
     1
102
RTVSPropertyOp0
 70
     1
102
RTVSPropertyOp1
 70
     1
102
RTVSPropertyOp2
 70
     1
102
RTVSPropertyOp3
 70
     1
102
RTVSPropertyOp4
 70
     1
102
RTVSPropertyOp5
 70
     1
102
RTVSPropertyOp6
 70
     1
102
RTVSPropertyOp7
 70
     1
102
RTVSPropertyOp8
 70
     1
102
RTVSPropertyOp9
 70
     1
102
RTVSPropertyOp10
 70
     1
102
RTVSPropertyOp11
 70
     1
102
RTVSPropertyOp12
 70
     1
102
RTVSPropertyOp13
 70
     1
102
RTVSPropertyOp14
 70
     1
102
RTVSPropertyOp15
 70
     1
102
RTVSPropertyOp16
 70
     1
102
RTVSPropertyOp17
 70
     1
102
RTVSPropertyOp18
 70
     1
102
RTVSPropertyOp19
 70
     1
102
RTVSPropertyOp20
 70
     1
102
RTVSPropertyOp21
 70
     1
102
RTVSPropertyOp22
 70
     1
102
RTVSPropertyOp23
 70
     1
102
RTVSPropertyOp24
 70
     1
102
RTVSPropertyOp25
 70
     1
102
RTVSPropertyOp26
 70
     1
102
RTVSPropertyOp27
 70
     1
102
RTVSPropertyOp28
 70
     1
102
RTVSPropertyOp29
 70
     1
102
RTVSPropertyOp30
 70
     1
102
RTVSPropertyOp31
 70
     1
102
RTVSPropertyOp32
 70
     1
  0
XRECORD
  5
3A3
102
{ACAD_REACTORS
330
3A2
102
}
330
3A2
100
AcDbXrecord
280
     1
102
RTVSPropertyOp0
 70
     1
102
RTVSPropertyOp1
 70
     1
102
RTVSPropertyOp2
 70
     1
102
RTVSPropertyOp3
 70
     1
102
RTVSPropertyOp4
 70
     1
102
RTVSPropertyOp5
 70
     1
102
RTVSPropertyOp6
 70
     1
102
RTVSPropertyOp7
 70
     1
102
RTVSPropertyOp8
 70
     1
102
RTVSPropertyOp9
 70
     1
102
RTVSPropertyOp10
 70
     1
102
RTVSPropertyOp11
 70
     1
102
RTVSPropertyOp12
 70
     1
102
RTVSPropertyOp13
 70
     1
102
RTVSPropertyOp14
 70
     1
102
RTVSPropertyOp15
 70
     1
102
RTVSPropertyOp16
 70
     1
102
RTVSPropertyOp17
 70
     1
102
RTVSPropertyOp18
 70
     1
102
RTVSPropertyOp19
 70
     1
102
RTVSPropertyOp20
 70
     1
102
RTVSPropertyOp21
 70
     1
102
RTVSPropertyOp22
 70
     1
102
RTVSPropertyOp23
 70
     1
102
RTVSPropertyOp24
 70
     1
102
RTVSPropertyOp25
 70
     1
102
RTVSPropertyOp26
 70
     1
102
RTVSPropertyOp27
 70
     1
102
RTVSPropertyOp28
 70
     1
102
RTVSPropertyOp29
 70
     1
102
RTVSPropertyOp30
 70
     1
102
RTVSPropertyOp31
 70
     1
102
RTVSPropertyOp32
 70
     1
  0
XRECORD
  5
3A7
102
{ACAD_REACTORS
330
3A6
102
}
330
3A6
100
AcDbXrecord
280
     1
102
RTVSPropertyOp0
 70
     1
102
RTVSPropertyOp1
 70
     1
102
RTVSPropertyOp2
 70
     1
102
RTVSPropertyOp3
 70
     1
102
RTVSPropertyOp4
 70
     1
102
RTVSPropertyOp5
 70
     1
102
RTVSPropertyOp6
 70
     1
102
RTVSPropertyOp7
 70
     1
102
RTVSPropertyOp8
 70
     1
102
RTVSPropertyOp9
 70
     1
102
RTVSPropertyOp10
 70
     1
102
RTVSPropertyOp11
 70
     1
102
RTVSPropertyOp12
 70
     1
102
RTVSPropertyOp13
 70
     1
102
RTVSPropertyOp14
 70
     1
102
RTVSPropertyOp15
 70
     1
102
RTVSPropertyOp16
 70
     1
102
RTVSPropertyOp17
 70
     1
102
RTVSPropertyOp18
 70
     1
102
RTVSPropertyOp19
 70
     1
102
RTVSPropertyOp20
 70
     1
102
RTVSPropertyOp21
 70
     1
102
RTVSPropertyOp22
 70
     1
102
RTVSPropertyOp23
 70
     1
102
RTVSPropertyOp24
 70
     1
102
RTVSPropertyOp25
 70
     1
102
RTVSPropertyOp26
 70
     1
102
RTVSPropertyOp27
 70
     1
102
RTVSPropertyOp28
 70
     1
102
RTVSPropertyOp29
 70
     1
102
RTVSPropertyOp30
 70
     1
102
RTVSPropertyOp31
 70
     1
102
RTVSPropertyOp32
 70
     1
  0
XRECORD
  5
3AF
102
{ACAD_REACTORS
330
3AE
102
}
330
3AE
100
AcDbXrecord
280
     1
102
RTVSPropertyOp0
 70
     1
102
RTVSPropertyOp1
 70
     1
102
RTVSPropertyOp2
 70
     1
102
RTVSPropertyOp3
 70
     1
102
RTVSPropertyOp4
 70
     1
102
RTVSPropertyOp5
 70
     1
102
RTVSPropertyOp6
 70
     1
102
RTVSPropertyOp7
 70
     1
102
RTVSPropertyOp8
 70
     1
102
RTVSPropertyOp9
 70
     1
102
RTVSPropertyOp10
 70
     1
102
RTVSPropertyOp11
 70
     1
102
RTVSPropertyOp12
 70
     1
102
RTVSPropertyOp13
 70
     1
102
RTVSPropertyOp14
 70
     1
102
RTVSPropertyOp15
 70
     1
102
RTVSPropertyOp16
 70
     1
102
RTVSPropertyOp17
 70
     1
102
RTVSPropertyOp18
 70
     1
102
RTVSPropertyOp19
 70
     1
102
RTVSPropertyOp20
 70
     1
102
RTVSPropertyOp21
 70
     1
102
RTVSPropertyOp22
 70
     1
102
RTVSPropertyOp23
 70
     1
102
RTVSPropertyOp24
 70
     1
102
RTVSPropertyOp25
 70
     1
102
RTVSPropertyOp26
 70
     1
102
RTVSPropertyOp27
 70
     1
102
RTVSPropertyOp28
 70
     1
102
RTVSPropertyOp29
 70
     1
102
RTVSPropertyOp30
 70
     1
102
RTVSPropertyOp31
 70
     1
102
RTVSPropertyOp32
 70
     1
  0
XRECORD
  5
3B7
102
{ACAD_REACTORS
330
3B6
102
}
330
3B6
100
AcDbXrecord
280
     1
102
RTVSPropertyOp0
 70
     1
102
RTVSPropertyOp1
 70
     1
102
RTVSPropertyOp2
 70
     1
102
RTVSPropertyOp3
 70
     1
102
RTVSPropertyOp4
 70
     1
102
RTVSPropertyOp5
 70
     1
102
RTVSPropertyOp6
 70
     1
102
RTVSPropertyOp7
 70
     1
102
RTVSPropertyOp8
 70
     1
102
RTVSPropertyOp9
 70
     1
102
RTVSPropertyOp10
 70
     1
102
RTVSPropertyOp11
 70
     1
102
RTVSPropertyOp12
 70
     1
102
RTVSPropertyOp13
 70
     1
102
RTVSPropertyOp14
 70
     1
102
RTVSPropertyOp15
 70
     1
102
RTVSPropertyOp16
 70
     1
102
RTVSPropertyOp17
 70
     1
102
RTVSPropertyOp18
 70
     1
102
RTVSPropertyOp19
 70
     1
102
RTVSPropertyOp20
 70
     1
102
RTVSPropertyOp21
 70
     1
102
RTVSPropertyOp22
 70
     1
102
RTVSPropertyOp23
 70
     1
102
RTVSPropertyOp24
 70
     1
102
RTVSPropertyOp25
 70
     1
102
RTVSPropertyOp26
 70
     1
102
RTVSPropertyOp27
 70
     1
102
RTVSPropertyOp28
 70
     1
102
RTVSPropertyOp29
 70
     1
102
RTVSPropertyOp30
 70
     1
102
RTVSPropertyOp31
 70
     1
102
RTVSPropertyOp32
 70
     1
  0
XRECORD
  5
3AB
102
{ACAD_REACTORS
330
3AA
102
}
330
3AA
100
AcDbXrecord
280
     1
102
RTVSPropertyOp0
 70
     1
102
RTVSPropertyOp1
 70
     1
102
RTVSPropertyOp2
 70
     1
102
RTVSPropertyOp3
 70
     1
102
RTVSPropertyOp4
 70
     1
102
RTVSPropertyOp5
 70
     1
102
RTVSPropertyOp6
 70
     1
102
RTVSPropertyOp7
 70
     1
102
RTVSPropertyOp8
 70
     1
102
RTVSPropertyOp9
 70
     1
102
RTVSPropertyOp10
 70
     1
102
RTVSPropertyOp11
 70
     1
102
RTVSPropertyOp12
 70
     1
102
RTVSPropertyOp13
 70
     1
102
RTVSPropertyOp14
 70
     1
102
RTVSPropertyOp15
 70
     1
102
RTVSPropertyOp16
 70
     1
102
RTVSPropertyOp17
 70
     1
102
RTVSPropertyOp18
 70
     1
102
RTVSPropertyOp19
 70
     1
102
RTVSPropertyOp20
 70
     1
102
RTVSPropertyOp21
 70
     1
102
RTVSPropertyOp22
 70
     1
102
RTVSPropertyOp23
 70
     1
102
RTVSPropertyOp24
 70
     1
102
RTVSPropertyOp25
 70
     1
102
RTVSPropertyOp26
 70
     1
102
RTVSPropertyOp27
 70
     1
102
RTVSPropertyOp28
 70
     1
102
RTVSPropertyOp29
 70
     1
102
RTVSPropertyOp30
 70
     1
102
RTVSPropertyOp31
 70
     1
102
RTVSPropertyOp32
 70
     1
  0
XRECORD
  5
3AD
102
{ACAD_REACTORS
330
3AC
102
}
330
3AC
100
AcDbXrecord
280
     1
102
RTVSPropertyOp0
 70
     1
102
RTVSPropertyOp1
 70
     1
102
RTVSPropertyOp2
 70
     1
102
RTVSPropertyOp3
 70
     1
102
RTVSPropertyOp4
 70
     1
102
RTVSPropertyOp5
 70
     1
102
RTVSPropertyOp6
 70
     1
102
RTVSPropertyOp7
 70
     1
102
RTVSPropertyOp8
 70
     1
102
RTVSPropertyOp9
 70
     1
102
RTVSPropertyOp10
 70
     1
102
RTVSPropertyOp11
 70
     1
102
RTVSPropertyOp12
 70
     1
102
RTVSPropertyOp13
 70
     1
102
RTVSPropertyOp14
 70
     1
102
RTVSPropertyOp15
 70
     1
102
RTVSPropertyOp16
 70
     1
102
RTVSPropertyOp17
 70
     1
102
RTVSPropertyOp18
 70
     1
102
RTVSPropertyOp19
 70
     1
102
RTVSPropertyOp20
 70
     1
102
RTVSPropertyOp21
 70
     1
102
RTVSPropertyOp22
 70
     1
102
RTVSPropertyOp23
 70
     1
102
RTVSPropertyOp24
 70
     1
102
RTVSPropertyOp25
 70
     1
102
RTVSPropertyOp26
 70
     1
102
RTVSPropertyOp27
 70
     1
102
RTVSPropertyOp28
 70
     1
102
RTVSPropertyOp29
 70
     1
102
RTVSPropertyOp30
 70
     1
102
RTVSPropertyOp31
 70
     1
102
RTVSPropertyOp32
 70
     1
  0
XRECORD
  5
3B5
102
{ACAD_REACTORS
330
3B4
102
}
330
3B4
100
AcDbXrecord
280
     1
102
RTVSPropertyOp0
 70
     1
102
RTVSPropertyOp1
 70
     1
102
RTVSPropertyOp2
 70
     1
102
RTVSPropertyOp3
 70
     1
102
RTVSPropertyOp4
 70
     1
102
RTVSPropertyOp5
 70
     1
102
RTVSPropertyOp6
 70
     1
102
RTVSPropertyOp7
 70
     1
102
RTVSPropertyOp8
 70
     1
102
RTVSPropertyOp9
 70
     1
102
RTVSPropertyOp10
 70
     1
102
RTVSPropertyOp11
 70
     1
102
RTVSPropertyOp12
 70
     1
102
RTVSPropertyOp13
 70
     1
102
RTVSPropertyOp14
 70
     1
102
RTVSPropertyOp15
 70
     1
102
RTVSPropertyOp16
 70
     1
102
RTVSPropertyOp17
 70
     1
102
RTVSPropertyOp18
 70
     1
102
RTVSPropertyOp19
 70
     1
102
RTVSPropertyOp20
 70
     1
102
RTVSPropertyOp21
 70
     1
102
RTVSPropertyOp22
 70
     1
102
RTVSPropertyOp23
 70
     1
102
RTVSPropertyOp24
 70
     1
102
RTVSPropertyOp25
 70
     1
102
RTVSPropertyOp26
 70
     1
102
RTVSPropertyOp27
 70
     1
102
RTVSPropertyOp28
 70
     1
102
RTVSPropertyOp29
 70
     1
102
RTVSPropertyOp30
 70
     1
102
RTVSPropertyOp31
 70
     1
102
RTVSPropertyOp32
 70
     1
  0
XRECORD
  5
399
102
{ACAD_REACTORS
330
398
102
}
330
398
100
AcDbXrecord
280
     1
102
RTVSPropertyOp0
 70
     1
102
RTVSPropertyOp1
 70
     1
102
RTVSPropertyOp2
 70
     1
102
RTVSPropertyOp3
 70
     1
102
RTVSPropertyOp4
 70
     1
102
RTVSPropertyOp5
 70
     1
102
RTVSPropertyOp6
 70
     1
102
RTVSPropertyOp7
 70
     1
102
RTVSPropertyOp8
 70
     1
102
RTVSPropertyOp9
 70
     1
102
RTVSPropertyOp10
 70
     1
102
RTVSPropertyOp11
 70
     1
102
RTVSPropertyOp12
 70
     1
102
RTVSPropertyOp13
 70
     1
102
RTVSPropertyOp14
 70
     1
102
RTVSPropertyOp15
 70
     1
102
RTVSPropertyOp16
 70
     1
102
RTVSPropertyOp17
 70
     1
102
RTVSPropertyOp18
 70
     1
102
RTVSPropertyOp19
 70
     1
102
RTVSPropertyOp20
 70
     1
102
RTVSPropertyOp21
 70
     1
102
RTVSPropertyOp22
 70
     1
102
RTVSPropertyOp23
 70
     1
102
RTVSPropertyOp24
 70
     1
102
RTVSPropertyOp25
 70
     1
102
RTVSPropertyOp26
 70
     1
102
RTVSPropertyOp27
 70
     1
102
RTVSPropertyOp28
 70
     1
102
RTVSPropertyOp29
 70
     1
102
RTVSPropertyOp30
 70
     1
102
RTVSPropertyOp31
 70
     1
102
RTVSPropertyOp32
 70
     1
  0
XRECORD
  5
39B
102
{ACAD_REACTORS
330
39A
102
}
330
39A
100
AcDbXrecord
280
     1
102
RTVSPropertyOp0
 70
     1
102
RTVSPropertyOp1
 70
     1
102
RTVSPropertyOp2
 70
     1
102
RTVSPropertyOp3
 70
     1
102
RTVSPropertyOp4
 70
     1
102
RTVSPropertyOp5
 70
     1
102
RTVSPropertyOp6
 70
     1
102
RTVSPropertyOp7
 70
     1
102
RTVSPropertyOp8
 70
     1
102
RTVSPropertyOp9
 70
     1
102
RTVSPropertyOp10
 70
     1
102
RTVSPropertyOp11
 70
     1
102
RTVSPropertyOp12
 70
     1
102
RTVSPropertyOp13
 70
     1
102
RTVSPropertyOp14
 70
     1
102
RTVSPropertyOp15
 70
     1
102
RTVSPropertyOp16
 70
     1
102
RTVSPropertyOp17
 70
     1
102
RTVSPropertyOp18
 70
     1
102
RTVSPropertyOp19
 70
     1
102
RTVSPropertyOp20
 70
     1
102
RTVSPropertyOp21
 70
     1
102
RTVSPropertyOp22
 70
     1
102
RTVSPropertyOp23
 70
     1
102
RTVSPropertyOp24
 70
     1
102
RTVSPropertyOp25
 70
     1
102
RTVSPropertyOp26
 70
     1
102
RTVSPropertyOp27
 70
     1
102
RTVSPropertyOp28
 70
     1
102
RTVSPropertyOp29
 70
     1
102
RTVSPropertyOp30
 70
     1
102
RTVSPropertyOp31
 70
     1
102
RTVSPropertyOp32
 70
     1
  0
XRECORD
  5
39D
102
{ACAD_REACTORS
330
39C
102
}
330
39C
100
AcDbXrecord
280
     1
102
RTVSPropertyOp0
 70
     1
102
RTVSPropertyOp1
 70
     1
102
RTVSPropertyOp2
 70
     1
102
RTVSPropertyOp3
 70
     1
102
RTVSPropertyOp4
 70
     1
102
RTVSPropertyOp5
 70
     1
102
RTVSPropertyOp6
 70
     1
102
RTVSPropertyOp7
 70
     1
102
RTVSPropertyOp8
 70
     1
102
RTVSPropertyOp9
 70
     1
102
RTVSPropertyOp10
 70
     1
102
RTVSPropertyOp11
 70
     1
102
RTVSPropertyOp12
 70
     1
102
RTVSPropertyOp13
 70
     1
102
RTVSPropertyOp14
 70
     1
102
RTVSPropertyOp15
 70
     1
102
RTVSPropertyOp16
 70
     1
102
RTVSPropertyOp17
 70
     1
102
RTVSPropertyOp18
 70
     1
102
RTVSPropertyOp19
 70
     1
102
RTVSPropertyOp20
 70
     1
102
RTVSPropertyOp21
 70
     1
102
RTVSPropertyOp22
 70
     1
102
RTVSPropertyOp23
 70
     1
102
RTVSPropertyOp24
 70
     1
102
RTVSPropertyOp25
 70
     1
102
RTVSPropertyOp26
 70
     1
102
RTVSPropertyOp27
 70
     1
102
RTVSPropertyOp28
 70
     1
102
RTVSPropertyOp29
 70
     1
102
RTVSPropertyOp30
 70
     1
102
RTVSPropertyOp31
 70
     1
102
RTVSPropertyOp32
 70
     1
  0
XRECORD
  5
39F
102
{ACAD_REACTORS
330
39E
102
}
330
39E
100
AcDbXrecord
280
     1
102
RTVSPropertyOp0
 70
     1
102
RTVSPropertyOp1
 70
     1
102
RTVSPropertyOp2
 70
     1
102
RTVSPropertyOp3
 70
     1
102
RTVSPropertyOp4
 70
     1
102
RTVSPropertyOp5
 70
     1
102
RTVSPropertyOp6
 70
     1
102
RTVSPropertyOp7
 70
     1
102
RTVSPropertyOp8
 70
     1
102
RTVSPropertyOp9
 70
     1
102
RTVSPropertyOp10
 70
     1
102
RTVSPropertyOp11
 70
     1
102
RTVSPropertyOp12
 70
     1
102
RTVSPropertyOp13
 70
     1
102
RTVSPropertyOp14
 70
     1
102
RTVSPropertyOp15
 70
     1
102
RTVSPropertyOp16
 70
     1
102
RTVSPropertyOp17
 70
     1
102
RTVSPropertyOp18
 70
     1
102
RTVSPropertyOp19
 70
     1
102
RTVSPropertyOp20
 70
     1
102
RTVSPropertyOp21
 70
     1
102
RTVSPropertyOp22
 70
     1
102
RTVSPropertyOp23
 70
     1
102
RTVSPropertyOp24
 70
     1
102
RTVSPropertyOp25
 70
     1
102
RTVSPropertyOp26
 70
     1
102
RTVSPropertyOp27
 70
     1
102
RTVSPropertyOp28
 70
     1
102
RTVSPropertyOp29
 70
     1
102
RTVSPropertyOp30
 70
     1
102
RTVSPropertyOp31
 70
     1
102
RTVSPropertyOp32
 70
     1
  0
XRECORD
  5
3B3
102
{ACAD_REACTORS
330
3B2
102
}
330
3B2
100
AcDbXrecord
280
     1
102
RTVSPropertyOp0
 70
     1
102
RTVSPropertyOp1
 70
     1
102
RTVSPropertyOp2
 70
     1
102
RTVSPropertyOp3
 70
     1
102
RTVSPropertyOp4
 70
     1
102
RTVSPropertyOp5
 70
     1
102
RTVSPropertyOp6
 70
     1
102
RTVSPropertyOp7
 70
     1
102
RTVSPropertyOp8
 70
     1
102
RTVSPropertyOp9
 70
     1
102
RTVSPropertyOp10
 70
     1
102
RTVSPropertyOp11
 70
     1
102
RTVSPropertyOp12
 70
     1
102
RTVSPropertyOp13
 70
     1
102
RTVSPropertyOp14
 70
     1
102
RTVSPropertyOp15
 70
     1
102
RTVSPropertyOp16
 70
     1
102
RTVSPropertyOp17
 70
     1
102
RTVSPropertyOp18
 70
     1
102
RTVSPropertyOp19
 70
     1
102
RTVSPropertyOp20
 70
     1
102
RTVSPropertyOp21
 70
     1
102
RTVSPropertyOp22
 70
     1
102
RTVSPropertyOp23
 70
     1
102
RTVSPropertyOp24
 70
     1
102
RTVSPropertyOp25
 70
     1
102
RTVSPropertyOp26
 70
     1
102
RTVSPropertyOp27
 70
     1
102
RTVSPropertyOp28
 70
     1
102
RTVSPropertyOp29
 70
     1
102
RTVSPropertyOp30
 70
     1
102
RTVSPropertyOp31
 70
     1
102
RTVSPropertyOp32
 70
     1
  0
XRECORD
  5
3A9
102
{ACAD_REACTORS
330
3A8
102
}
330
3A8
100
AcDbXrecord
280
     1
102
RTVSPropertyOp0
 70
     1
102
RTVSPropertyOp1
 70
     1
102
RTVSPropertyOp2
 70
     1
102
RTVSPropertyOp3
 70
     1
102
RTVSPropertyOp4
 70
     1
102
RTVSPropertyOp5
 70
     1
102
RTVSPropertyOp6
 70
     1
102
RTVSPropertyOp7
 70
     1
102
RTVSPropertyOp8
 70
     1
102
RTVSPropertyOp9
 70
     1
102
RTVSPropertyOp10
 70
     1
102
RTVSPropertyOp11
 70
     1
102
RTVSPropertyOp12
 70
     1
102
RTVSPropertyOp13
 70
     1
102
RTVSPropertyOp14
 70
     1
102
RTVSPropertyOp15
 70
     1
102
RTVSPropertyOp16
 70
     1
102
RTVSPropertyOp17
 70
     1
102
RTVSPropertyOp18
 70
     1
102
RTVSPropertyOp19
 70
     1
102
RTVSPropertyOp20
 70
     1
102
RTVSPropertyOp21
 70
     1
102
RTVSPropertyOp22
 70
     1
102
RTVSPropertyOp23
 70
     1
102
RTVSPropertyOp24
 70
     1
102
RTVSPropertyOp25
 70
     1
102
RTVSPropertyOp26
 70
     1
102
RTVSPropertyOp27
 70
     1
102
RTVSPropertyOp28
 70
     1
102
RTVSPropertyOp29
 70
     1
102
RTVSPropertyOp30
 70
     1
102
RTVSPropertyOp31
 70
     1
102
RTVSPropertyOp32
 70
     1
  0
XRECORD
  5
3B1
102
{ACAD_REACTORS
330
3B0
102
}
330
3B0
100
AcDbXrecord
280
     1
102
RTVSPropertyOp0
 70
     1
102
RTVSPropertyOp1
 70
     1
102
RTVSPropertyOp2
 70
     1
102
RTVSPropertyOp3
 70
     1
102
RTVSPropertyOp4
 70
     1
102
RTVSPropertyOp5
 70
     1
102
RTVSPropertyOp6
 70
     1
102
RTVSPropertyOp7
 70
     1
102
RTVSPropertyOp8
 70
     1
102
RTVSPropertyOp9
 70
     1
102
RTVSPropertyOp10
 70
     1
102
RTVSPropertyOp11
 70
     1
102
RTVSPropertyOp12
 70
     1
102
RTVSPropertyOp13
 70
     1
102
RTVSPropertyOp14
 70
     1
102
RTVSPropertyOp15
 70
     1
102
RTVSPropertyOp16
 70
     1
102
RTVSPropertyOp17
 70
     1
102
RTVSPropertyOp18
 70
     1
102
RTVSPropertyOp19
 70
     1
102
RTVSPropertyOp20
 70
     1
102
RTVSPropertyOp21
 70
     1
102
RTVSPropertyOp22
 70
     1
102
RTVSPropertyOp23
 70
     1
102
RTVSPropertyOp24
 70
     1
102
RTVSPropertyOp25
 70
     1
102
RTVSPropertyOp26
 70
     1
102
RTVSPropertyOp27
 70
     1
102
RTVSPropertyOp28
 70
     1
102
RTVSPropertyOp29
 70
     1
102
RTVSPropertyOp30
 70
     1
102
RTVSPropertyOp31
 70
     1
102
RTVSPropertyOp32
 70
     1
  0
ENDSEC
  0
EOF
