  0
SECTION
  2
HEADER
  9
$ACADVER
  1
AC1024
  9
$ACADMAINTVER
 70
   226
  9
$DWGCODEPAGE
  3
ANSI_1252
  9
$INSBASE
 10
0.0
 20
0.0
 30
0.0
  9
$EXTMIN
 10
5868.141182080355
 20
3670.750826637365
 30
0.0
  9
$EXTMAX
 10
6799.95004397024
 20
4122.200182313977
 30
0.0
  9
$LIMMIN
 10
0.0
 20
0.0
  9
$LIMMAX
 10
12.0
 20
9.0
  9
$ORTHOMODE
 70
     0
  9
$REGENMODE
 70
     1
  9
$FILLMODE
 70
     1
  9
$QTEXTMODE
 70
     0
  9
$MIRRTEXT
 70
     0
  9
$LTSCALE
 40
1.0
  9
$ATTMODE
 70
     1
  9
$TEXTSIZE
 40
0.2
  9
$TRACEWID
 40
0.05
  9
$TEXTSTYLE
  7
Standard
  9
$CLAYER
  8
0
  9
$CELTYPE
  6
ByLayer
  9
$CECOLOR
 62
   256
  9
$CELTSCALE
 40
1.0
  9
$DISPSILH
 70
     0
  9
$DIMSCALE
 40
1.0
  9
$DIMASZ
 40
0.18
  9
$DIMEXO
 40
0.0625
  9
$DIMDLI
 40
0.38
  9
$DIMRND
 40
0.0
  9
$DIMDLE
 40
0.0
  9
$DIMEXE
 40
0.18
  9
$DIMTP
 40
0.0
  9
$DIMTM
 40
0.0
  9
$DIMTXT
 40
0.18
  9
$DIMCEN
 40
0.09
  9
$DIMTSZ
 40
0.0
  9
$DIMTOL
 70
     0
  9
$DIMLIM
 70
     0
  9
$DIMTIH
 70
     1
  9
$DIMTOH
 70
     1
  9
$DIMSE1
 70
     0
  9
$DIMSE2
 70
     0
  9
$DIMTAD
 70
     0
  9
$DIMZIN
 70
     0
  9
$DIMBLK
  1

  9
$DIMASO
 70
     1
  9
$DIMSHO
 70
     1
  9
$DIMPOST
  1

  9
$DIMAPOST
  1

  9
$DIMALT
 70
     0
  9
$DIMALTD
 70
     2
  9
$DIMALTF
 40
25.4
  9
$DIMLFAC
 40
1.0
  9
$DIMTOFL
 70
     0
  9
$DIMTVP
 40
0.0
  9
$DIMTIX
 70
     0
  9
$DIMSOXD
 70
     0
  9
$DIMSAH
 70
     0
  9
$DIMBLK1
  1

  9
$DIMBLK2
  1

  9
$DIMSTYLE
  2
Standard
  9
$DIMCLRD
 70
     0
  9
$DIMCLRE
 70
     0
  9
$DIMCLRT
 70
     0
  9
$DIMTFAC
 40
1.0
  9
$DIMGAP
 40
0.09
  9
$DIMJUST
 70
     0
  9
$DIMSD1
 70
     0
  9
$DIMSD2
 70
     0
  9
$DIMTOLJ
 70
     1
  9
$DIMTZIN
 70
     0
  9
$DIMALTZ
 70
     0
  9
$DIMALTTZ
 70
     0
  9
$DIMUPT
 70
     0
  9
$DIMDEC
 70
     4
  9
$DIMTDEC
 70
     4
  9
$DIMALTU
 70
     2
  9
$DIMALTTD
 70
     2
  9
$DIMTXSTY
  7
Standard
  9
$DIMAUNIT
 70
     0
  9
$DIMADEC
 70
     0
  9
$DIMALTRND
 40
0.0
  9
$DIMAZIN
 70
     0
  9
$DIMDSEP
 70
    46
  9
$DIMATFIT
 70
     3
  9
$DIMFRAC
 70
     0
  9
$DIMLDRBLK
  1

  9
$DIMLUNIT
 70
     2
  9
$DIMLWD
 70
    -2
  9
$DIMLWE
 70
    -2
  9
$DIMTMOVE
 70
     0
  9
$DIMFXL
 40
1.0
  9
$DIMFXLON
 70
     0
  9
$DIMJOGANG
 40
0.7853981633974483
  9
$DIMTFILL
 70
     0
  9
$DIMTFILLCLR
 70
     0
  9
$DIMARCSYM
 70
     0
  9
$DIMLTYPE
  6

  9
$DIMLTEX1
  6

  9
$DIMLTEX2
  6

  9
$DIMTXTDIRECTION
 70
     0
  9
$LUNITS
 70
     2
  9
$LUPREC
 70
     4
  9
$SKETCHINC
 40
0.1
  9
$FILLETRAD
 40
0.0
  9
$AUNITS
 70
     0
  9
$AUPREC
 70
     0
  9
$MENU
  1
.
  9
$ELEVATION
 40
0.0
  9
$PELEVATION
 40
0.0
  9
$THICKNESS
 40
0.0
  9
$LIMCHECK
 70
     0
  9
$CHAMFERA
 40
0.0
  9
$CHAMFERB
 40
0.0
  9
$CHAMFERC
 40
0.0
  9
$CHAMFERD
 40
0.0
  9
$SKPOLY
 70
     0
  9
$TDCREATE
 40
2459165.016377315
  9
$TDUCREATE
 40
2459164.474710648
  9
$TDUPDATE
 40
2459165.016377315
  9
$TDUUPDATE
 40
2459164.474710648
  9
$TDINDWG
 40
0.0000000000
  9
$TDUSRTIMER
 40
0.0000000000
  9
$USRTIMER
 70
     1
  9
$ANGBASE
 50
0.0
  9
$ANGDIR
 70
     0
  9
$PDMODE
 70
     0
  9
$PDSIZE
 40
0.0
  9
$PLINEWID
 40
0.0
  9
$SPLFRAME
 70
     0
  9
$SPLINETYPE
 70
     6
  9
$SPLINESEGS
 70
     8
  9
$HANDSEED
  5
2A2
  9
$SURFTAB1
 70
     6
  9
$SURFTAB2
 70
     6
  9
$SURFTYPE
 70
     6
  9
$SURFU
 70
     6
  9
$SURFV
 70
     6
  9
$UCSBASE
  2

  9
$UCSNAME
  2

  9
$UCSORG
 10
0.0
 20
0.0
 30
0.0
  9
$UCSXDIR
 10
1.0
 20
0.0
 30
0.0
  9
$UCSYDIR
 10
0.0
 20
1.0
 30
0.0
  9
$UCSORTHOREF
  2

  9
$UCSORTHOVIEW
 70
     0
  9
$UCSORGTOP
 10
0.0
 20
0.0
 30
0.0
  9
$UCSORGBOTTOM
 10
0.0
 20
0.0
 30
0.0
  9
$UCSORGLEFT
 10
0.0
 20
0.0
 30
0.0
  9
$UCSORGRIGHT
 10
0.0
 20
0.0
 30
0.0
  9
$UCSORGFRONT
 10
0.0
 20
0.0
 30
0.0
  9
$UCSORGBACK
 10
0.0
 20
0.0
 30
0.0
  9
$PUCSBASE
  2

  9
$PUCSNAME
  2

  9
$PUCSORG
 10
0.0
 20
0.0
 30
0.0
  9
$PUCSXDIR
 10
1.0
 20
0.0
 30
0.0
  9
$PUCSYDIR
 10
0.0
 20
1.0
 30
0.0
  9
$PUCSORTHOREF
  2

  9
$PUCSORTHOVIEW
 70
     0
  9
$PUCSORGTOP
 10
0.0
 20
0.0
 30
0.0
  9
$PUCSORGBOTTOM
 10
0.0
 20
0.0
 30
0.0
  9
$PUCSORGLEFT
 10
0.0
 20
0.0
 30
0.0
  9
$PUCSORGRIGHT
 10
0.0
 20
0.0
 30
0.0
  9
$PUCSORGFRONT
 10
0.0
 20
0.0
 30
0.0
  9
$PUCSORGBACK
 10
0.0
 20
0.0
 30
0.0
  9
$USERI1
 70
     0
  9
$USERI2
 70
     0
  9
$USERI3
 70
     0
  9
$USERI4
 70
     0
  9
$USERI5
 70
     0
  9
$USERR1
 40
0.0
  9
$USERR2
 40
0.0
  9
$USERR3
 40
0.0
  9
$USERR4
 40
0.0
  9
$USERR5
 40
0.0
  9
$WORLDVIEW
 70
     1
  9
$SHADEDGE
 70
     3
  9
$SHADEDIF
 70
    70
  9
$TILEMODE
 70
     0
  9
$MAXACTVP
 70
    64
  9
$PINSBASE
 10
0.0
 20
0.0
 30
0.0
  9
$PLIMCHECK
 70
     0
  9
$PEXTMIN
 10
-0.0243254853795738
 20
0.0239675613783464
 30
0.0
  9
$PEXTMAX
 10
296.9756745145732
 20
210.0239675613797
 30
0.0
  9
$PLIMMIN
 10
0.0
 20
0.0
  9
$PLIMMAX
 10
12.0
 20
9.0
  9
$UNITMODE
 70
     0
  9
$VISRETAIN
 70
     1
  9
$PLINEGEN
 70
     0
  9
$PSLTSCALE
 70
     1
  9
$TREEDEPTH
 70
  3020
  9
$CMLSTYLE
  2
Standard
  9
$CMLJUST
 70
     0
  9
$CMLSCALE
 40
1.0
  9
$PROXYGRAPHICS
 70
     1
  9
$MEASUREMENT
 70
     1
  9
$CELWEIGHT
370
    -1
  9
$ENDCAPS
280
     0
  9
$JOINSTYLE
280
     0
  9
$LWDISPLAY
290
     0
  9
$INSUNITS
 70
     4
  9
$HYPERLINKBASE
  1

  9
$STYLESHEET
  1

  9
$XEDIT
290
     1
  9
$CEPSNTYPE
380
     0
  9
$PSTYLEMODE
290
     1
  9
$FINGERPRINTGUID
  2
{13BE38DE-7ACD-B343-91F2-B51D0F860052}
  9
$VERSIONGUID
  2
{11FD1F2B-055F-8D4F-82A5-C7095AFAA1AA}
  9
$EXTNAMES
290
     1
  9
$PSVPSCALE
 40
0.0
  9
$OLESTARTUP
290
     0
  9
$SORTENTS
280
   127
  9
$INDEXCTL
280
     0
  9
$HIDETEXT
280
     1
  9
$XCLIPFRAME
280
     2
  9
$HALOGAP
280
     0
  9
$OBSCOLOR
 70
   257
  9
$OBSLTYPE
280
     0
  9
$INTERSECTIONDISPLAY
280
     0
  9
$INTERSECTIONCOLOR
 70
   257
  9
$DIMASSOC
280
     2
  9
$PROJECTNAME
  1

  9
$CAMERADISPLAY
290
     0
  9
$LENSLENGTH
 40
50.0
  9
$CAMERAHEIGHT
 40
0.0
  9
$STEPSPERSEC
 40
2.0
  9
$STEPSIZE
 40
6.0
  9
$3DDWFPREC
 40
2.0
  9
$PSOLWIDTH
 40
0.25
  9
$PSOLHEIGHT
 40
4.0
  9
$LOFTANG1
 40
1.570796326794896
  9
$LOFTANG2
 40
1.570796326794896
  9
$LOFTMAG1
 40
0.0
  9
$LOFTMAG2
 40
0.0
  9
$LOFTPARAM
 70
     7
  9
$LOFTNORMALS
280
     1
  9
$LATITUDE
 40
0.0
  9
$LONGITUDE
 40
0.0
  9
$NORTHDIRECTION
 40
0.0
  9
$TIMEZONE
 70
     0
  9
$LIGHTGLYPHDISPLAY
280
     1
  9
$TILEMODELIGHTSYNCH
280
     1
  9
$CMATERIAL
347
11
  9
$SOLIDHIST
280
     0
  9
$SHOWHIST
280
     1
  9
$DWFFRAME
280
     2
  9
$DGNFRAME
280
     0
  9
$REALWORLDSCALE
290
     1
  9
$INTERFERECOLOR
 62
     1
  9
$INTERFEREOBJVS
345
33
  9
$INTERFEREVPVS
346
30
  9
$CSHADOW
280
     0
  9
$SHADOWPLANELOCATION
 40
0.0
  0
ENDSEC
  0
SECTION
  2
CLASSES
  0
CLASS
  1
ACDBDICTIONARYWDFLT
  2
AcDbDictionaryWithDefault
  3
ObjectDBX Classes
 90
        0
 91
        1
280
     0
281
     0
  0
CLASS
  1
MATERIAL
  2
AcDbMaterial
  3
ObjectDBX Classes
 90
     1153
 91
        3
280
     0
281
     0
  0
CLASS
  1
VISUALSTYLE
  2
AcDbVisualStyle
  3
ObjectDBX Classes
 90
     4095
 91
       24
280
     0
281
     0
  0
CLASS
  1
SCALE
  2
AcDbScale
  3
ObjectDBX Classes
 90
     1153
 91
       17
280
     0
281
     0
  0
CLASS
  1
TABLESTYLE
  2
AcDbTableStyle
  3
ObjectDBX Classes
 90
     4095
 91
        1
280
     0
281
     0
  0
CLASS
  1
MLEADERSTYLE
  2
AcDbMLeaderStyle
  3
ACDB_MLEADERSTYLE_CLASS
 90
     4095
 91
        1
280
     0
281
     0
  0
CLASS
  1
ACDBSECTIONVIEWSTYLE
  2
AcDbSectionViewStyle
  3
ObjectDBX Classes
 90
     1025
 91
        1
280
     0
281
     0
  0
CLASS
  1
ACDBDETAILVIEWSTYLE
  2
AcDbDetailViewStyle
  3
ObjectDBX Classes
 90
     1025
 91
        1
280
     0
281
     0
  0
CLASS
  1
RASTERVARIABLES
  2
AcDbRasterVariables
  3
ISM
 90
        0
 91
        1
280
     0
281
     0
  0
CLASS
  1
DICTIONARYVAR
  2
AcDbDictionaryVar
  3
ObjectDBX Classes
 90
        0
 91
        5
280
     0
281
     0
  0
CLASS
  1
CELLSTYLEMAP
  2
AcDbCellStyleMap
  3
ObjectDBX Classes
 90
     1152
 91
        2
280
     0
281
     0
  0
CLASS
  1
IMAGEDEF
  2
AcDbRasterImageDef
  3
ISM
 90
        0
 91
        1
280
     0
281
     0
  0
CLASS
  1
IMAGE
  2
AcDbRasterImage
  3
ISM
 90
     2175
 91
        1
280
     0
281
     1
  0
CLASS
  1
IMAGEDEF_REACTOR
  2
AcDbRasterImageDefReactor
  3
ISM
 90
        1
 91
        1
280
     0
281
     0
  0
CLASS
  1
SORTENTSTABLE
  2
AcDbSortentsTable
  3
ObjectDBX Classes
 90
        0
 91
        1
280
     0
281
     0
  0
ENDSEC
  0
SECTION
  2
TABLES
  0
TABLE
  2
VPORT
  5
8
330
0
100
AcDbSymbolTable
 70
     1
  0
VPORT
  5
57
330
8
100
AcDbSymbolTableRecord
100
AcDbViewportTableRecord
  2
*Active
 70
     0
 10
0.0
 20
0.0
 11
1.0
 21
1.0
 12
6334.045613025298
 22
3896.475504475671
 13
0.0
 23
0.0
 14
1.0
 24
1.0
 15
0.0
 25
0.0
 16
0.0
 26
0.0
 36
1.0
 17
0.0
 27
0.0
 37
0.0
 40
451.4493556766129
 41
2.06403852430652
 42
50.0
 43
0.0
 44
0.0
 50
0.0
 51
0.0
 71
     0
 72
  1000
 73
     1
 74
     0
 75
     1
 76
     0
 77
     0
 78
     0
281
     0
 65
     1
110
0.0
120
0.0
130
0.0
111
1.0
121
0.0
131
0.0
112
0.0
122
1.0
132
0.0
 79
     0
146
0.0
 60
     3
 61
     5
292
     1
282
     1
141
0.0
142
0.0
 63
   250
421
  3355443
  0
ENDTAB
  0
TABLE
  2
LTYPE
  5
5
330
0
100
AcDbSymbolTable
 70
     3
  0
LTYPE
  5
5B
330
5
100
AcDbSymbolTableRecord
100
AcDbLinetypeTableRecord
  2
ByBlock
 70
     0
  3

 72
    65
 73
     0
 40
0.0
  0
LTYPE
  5
5C
330
5
100
AcDbSymbolTableRecord
100
AcDbLinetypeTableRecord
  2
ByLayer
 70
     0
  3

 72
    65
 73
     0
 40
0.0
  0
LTYPE
  5
5D
330
5
100
AcDbSymbolTableRecord
100
AcDbLinetypeTableRecord
  2
Continuous
 70
     0
  3
Solid line
 72
    65
 73
     0
 40
0.0
  0
LTYPE
  5
BC
330
5
100
AcDbSymbolTableRecord
100
AcDbLinetypeTableRecord
  2
Dash 1 - 1
 70
     0
  3

 72
    65
 73
     2
 40
2.0
 49
1.0
 74
     0
 49
-1.0
 74
     0
  0
LTYPE
  5
143
330
5
100
AcDbSymbolTableRecord
100
AcDbLinetypeTableRecord
  2
Dash
 70
     0
  3

 72
    65
 73
     2
 40
6.350000000000001
 49
3.175
 74
     0
 49
-3.175
 74
     0
  0
ENDTAB
  0
TABLE
  2
LAYER
  5
2
330
0
100
AcDbSymbolTable
 70
    10
  0
LAYER
  5
54
330
2
100
AcDbSymbolTableRecord
100
AcDbLayerTableRecord
  2
0
 70
     0
 62
     7
  6
Continuous
370
    -3
390
F
347
21
  0
LAYER
  5
BA
330
2
100
AcDbSymbolTableRecord
100
AcDbLayerTableRecord
  2
A-DETL
 70
     0
 62
    90
  6
Continuous
370
     9
390
F
347
21
  0
LAYER
  5
BB
330
2
100
AcDbSymbolTableRecord
100
AcDbLayerTableRecord
  2
A-DETL-GENF
 70
     0
 62
    92
  6
Continuous
370
    30
390
F
347
21
  0
LAYER
  5
118
330
2
100
AcDbSymbolTableRecord
100
AcDbLayerTableRecord
  2
A-DETL-THIN
 70
     0
 62
   151
  6
Continuous
370
     9
390
F
347
21
  0
LAYER
  5
156
330
2
100
AcDbSymbolTableRecord
100
AcDbLayerTableRecord
  2
A-DETL-MEDM
 70
     0
 62
    33
  6
Continuous
370
    30
390
F
347
21
  0
LAYER
  5
1C2
330
2
100
AcDbSymbolTableRecord
100
AcDbLayerTableRecord
  2
G-ANNO-TEXT
 70
     0
 62
   231
  6
Continuous
370
     9
390
F
347
21
  0
LAYER
  5
225
330
2
100
AcDbSymbolTableRecord
100
AcDbLayerTableRecord
  2
G-ANNO-NPLT
 70
     0
 62
   191
  6
Continuous
290
     0
370
    -3
390
F
347
21
  0
LAYER
  5
22B
330
2
100
AcDbSymbolTableRecord
100
AcDbLayerTableRecord
  2
G-ANNO-TTLB
 70
     0
 62
     6
  6
Continuous
370
     9
390
F
347
21
  0
LAYER
  5
231
330
2
100
AcDbSymbolTableRecord
100
AcDbLayerTableRecord
  2
G-ANNO-TTLB-THIN
 70
     0
 62
   151
  6
Continuous
370
    25
390
F
347
21
  0
LAYER
  5
234
330
2
100
AcDbSymbolTableRecord
100
AcDbLayerTableRecord
  2
G-ANNO-TTLB-MEDM
 70
     0
 62
    33
  6
Continuous
370
    50
390
F
347
21
  0
ENDTAB
  0
TABLE
  2
STYLE
  5
3
330
0
100
AcDbSymbolTable
 70
     7
  0
STYLE
  5
55
330
3
100
AcDbSymbolTableRecord
100
AcDbTextStyleTableRecord
  2
Standard
 70
     0
 40
0.0
 41
1.0
 50
0.0
 71
     0
 42
0.2
  3
txt
  4

  0
STYLE
  5
5A
330
3
100
AcDbSymbolTableRecord
100
AcDbTextStyleTableRecord
  2
Annotative
 70
     0
 40
0.0
 41
1.0
 50
0.0
 71
     0
 42
0.2
  3
txt
  4

1001
AcadAnnotative
1000
AnnotativeData
1002
{
1070
     1
1070
     1
1002
}
  0
STYLE
  5
1C9
330
3
100
AcDbSymbolTableRecord
100
AcDbTextStyleTableRecord
  2
Century Gothic
 70
     0
 40
12.5
 41
0.9
 50
0.0
 71
     0
 42
0.2
  3
GOTHIC.TTF
  4

1001
ACAD
1000
Century Gothic
1071
       34
  0
STYLE
  5
23B
330
3
100
AcDbSymbolTableRecord
100
AcDbTextStyleTableRecord
  2
Century Gothic_1
 70
     0
 40
1.8
 41
0.9
 50
0.0
 71
     0
 42
0.2
  3
GOTHIC.TTF
  4

1001
ACAD
1000
Century Gothic
1071
       34
  0
STYLE
  5
25A
330
3
100
AcDbSymbolTableRecord
100
AcDbTextStyleTableRecord
  2
Century Gothic_2
 70
     0
 40
4.0
 41
0.9
 50
0.0
 71
     0
 42
0.2
  3
GOTHIC.TTF
  4

1001
ACAD
1000
Century Gothic
1071
       34
  0
STYLE
  5
25C
330
3
100
AcDbSymbolTableRecord
100
AcDbTextStyleTableRecord
  2
Century Gothic_3
 70
     0
 40
3.5
 41
0.9
 50
0.0
 71
     0
 42
0.2
  3
GOTHIC.TTF
  4

1001
ACAD
1000
Century Gothic
1071
       34
  0
STYLE
  5
25F
330
3
100
AcDbSymbolTableRecord
100
AcDbTextStyleTableRecord
  2
Century Gothic_4
 70
     0
 40
4.999999999999999
 41
1.0
 50
0.0
 71
     0
 42
0.2
  3
GOTHIC.TTF
  4

1001
ACAD
1000
Century Gothic
1071
       34
  0
ENDTAB
  0
TABLE
  2
VIEW
  5
6
330
0
100
AcDbSymbolTable
 70
     0
  0
ENDTAB
  0
TABLE
  2
UCS
  5
7
330
0
100
AcDbSymbolTable
 70
     0
  0
ENDTAB
  0
TABLE
  2
APPID
  5
9
330
0
100
AcDbSymbolTable
 70
     3
  0
APPID
  5
56
330
9
100
AcDbSymbolTableRecord
100
AcDbRegAppTableRecord
  2
ACAD
 70
     0
  0
APPID
  5
5E
330
9
100
AcDbSymbolTableRecord
100
AcDbRegAppTableRecord
  2
AcadAnnotative
 70
     0
  0
APPID
  5
78
330
9
100
AcDbSymbolTableRecord
100
AcDbRegAppTableRecord
  2
REVIT
 70
     0
  0
ENDTAB
  0
TABLE
  2
DIMSTYLE
  5
A
330
0
100
AcDbSymbolTable
 70
     2
100
AcDbDimStyleTable
 71
     0
  0
DIMSTYLE
105
58
330
A
100
AcDbSymbolTableRecord
100
AcDbDimStyleTableRecord
  2
Standard
 70
     0
340
55
  0
DIMSTYLE
105
59
330
A
100
AcDbSymbolTableRecord
100
AcDbDimStyleTableRecord
  2
Annotative
 70
     0
340
55
1001
AcadAnnotative
1000
AnnotativeData
1002
{
1070
     1
1070
     1
1002
}
  0
ENDTAB
  0
TABLE
  2
BLOCK_RECORD
  5
1
330
0
100
AcDbSymbolTable
 70
    18
  0
BLOCK_RECORD
  5
70
102
{ACAD_XDICTIONARY
360
266
102
}
330
1
100
AcDbSymbolTableRecord
100
AcDbBlockTableRecord
  2
*Model_Space
340
73
 70
     0
280
     1
281
     0
  0
BLOCK_RECORD
  5
6C
330
1
100
AcDbSymbolTableRecord
100
AcDbBlockTableRecord
  2
*Paper_Space
340
6F
 70
     0
280
     1
281
     0
  0
BLOCK_RECORD
  5
74
330
1
100
AcDbSymbolTableRecord
100
AcDbBlockTableRecord
  2
*Paper_Space0
340
77
 70
     0
280
     1
281
     0
  0
BLOCK_RECORD
  5
E9
330
1
100
AcDbSymbolTableRecord
100
AcDbBlockTableRecord
  2
4594_Packer - Timber Packer H3_2-84019-W-TRSIL-05-V-G - Garage Door Jamb Flashing Detail _Vertical_
340
0
102
{BLKREFS
331
F1
102
}
 70
     0
280
     1
281
     0
  0
BLOCK_RECORD
  5
F2
330
1
100
AcDbSymbolTableRecord
100
AcDbBlockTableRecord
  2
4594_Jamb Liner - 19mm H3_1-164127-W-TRSIL-05-V-G - Garage Door Jamb Flashing Detail _Vertical_
340
0
102
{BLKREFS
331
105
102
}
 70
     0
280
     1
281
     0
  0
BLOCK_RECORD
  5
106
330
1
100
AcDbSymbolTableRecord
100
AcDbBlockTableRecord
  2
4811_Air Seal w Foam - Airseal on PEF Backing Rod-84021-W-TRSIL-05-V-G - Garage Door Jamb Flashing Detail _Vertical_
340
0
102
{BLKREFS
331
10E
102
}
 70
     0
280
     1
281
     0
  0
BLOCK_RECORD
  5
10F
330
1
100
AcDbSymbolTableRecord
100
AcDbBlockTableRecord
  2
CAVIBAT Batten Profile - Non Cavibat-101292-W-TRSIL-05-V-G - Garage Door Jamb Flashing Detail _Vertical_
340
0
102
{BLKREFS
331
117
102
}
 70
     0
280
     1
281
     0
  0
BLOCK_RECORD
  5
11A
330
1
100
AcDbSymbolTableRecord
100
AcDbBlockTableRecord
  2
CAVIBAT Batten Profile - Non Cavibat-V1-W-TRSIL-05-V-G - Garage Door Jamb Flashing Detail _Vertical_
340
0
102
{BLKREFS
331
121
102
}
 70
     0
280
     1
281
     0
  0
BLOCK_RECORD
  5
131
330
1
100
AcDbSymbolTableRecord
100
AcDbBlockTableRecord
  2
4594_Packer - Timber Packer H3_2-84030-W-TRSIL-05-V-G - Garage Door Jamb Flashing Detail _Vertical_
340
0
102
{BLKREFS
331
138
102
}
 70
     0
280
     1
281
     0
  0
BLOCK_RECORD
  5
139
330
1
100
AcDbSymbolTableRecord
100
AcDbBlockTableRecord
  2
4594_Packer - Timber Packer H3_2-84031-W-TRSIL-05-V-G - Garage Door Jamb Flashing Detail _Vertical_
340
0
102
{BLKREFS
331
141
102
}
 70
     0
280
     1
281
     0
  0
BLOCK_RECORD
  5
142
330
1
100
AcDbSymbolTableRecord
100
AcDbBlockTableRecord
  2
HP_WProof - Building Wrap - HP_WProof - Building Wrap-84032-W-TRSIL-05-V-G - Garage Door Jamb Flashing Detail _Vertical_
340
0
102
{BLKREFS
331
147
102
}
 70
     0
280
     1
281
     0
  0
BLOCK_RECORD
  5
148
330
1
100
AcDbSymbolTableRecord
100
AcDbBlockTableRecord
  2
HP_WProof - Building Wrap - HP_WProof - Building Wrap-84033-W-TRSIL-05-V-G - Garage Door Jamb Flashing Detail _Vertical_
340
0
102
{BLKREFS
331
14C
102
}
 70
     0
280
     1
281
     0
  0
BLOCK_RECORD
  5
174
330
1
100
AcDbSymbolTableRecord
100
AcDbBlockTableRecord
  2
4811_Air Seal w Foam - Airseal on PEF Backing Rod-165460-W-TRSIL-05-V-G - Garage Door Jamb Flashing Detail _Vertical_
340
0
102
{BLKREFS
331
17C
102
}
 70
     0
280
     1
281
     0
  0
BLOCK_RECORD
  5
17D
330
1
100
AcDbSymbolTableRecord
100
AcDbBlockTableRecord
  2
FP - Break Line - FP - Break Line-164932-W-TRSIL-05-V-G - Garage Door Jamb Flashing Detail _Vertical_
340
0
102
{BLKREFS
331
185
102
}
 70
     0
280
     1
281
     0
  0
BLOCK_RECORD
  5
186
330
1
100
AcDbSymbolTableRecord
100
AcDbBlockTableRecord
  2
TRS Interlocking profile - Interlocking 260-122890-W-TRSIL-05-V-G - Garage Door Jamb Flashing Detail _Vertical_
340
0
102
{BLKREFS
331
198
102
}
 70
     0
280
     1
281
     0
  0
BLOCK_RECORD
  5
199
330
1
100
AcDbSymbolTableRecord
100
AcDbBlockTableRecord
  2
TRS Interlocking profile - Interlocking 260-V2-W-TRSIL-05-V-G - Garage Door Jamb Flashing Detail _Vertical_
340
0
102
{BLKREFS
331
1A3
102
}
 70
     0
280
     1
281
     0
  0
BLOCK_RECORD
  5
1A5
330
1
100
AcDbSymbolTableRecord
100
AcDbBlockTableRecord
  2
FP - Break Line - FP - Break Line-165816-W-TRSIL-05-V-G - Garage Door Jamb Flashing Detail _Vertical_
340
0
102
{BLKREFS
331
1AD
102
}
 70
     0
280
     1
281
     0
  0
BLOCK_RECORD
  5
1AE
330
1
100
AcDbSymbolTableRecord
100
AcDbBlockTableRecord
  2
FP Timber Nog Packer1 - Variable-46933-W-TRSIL-05-V-G - Garage Door Jamb Flashing Detail _Vertical_
340
0
102
{BLKREFS
331
1B6
331
1B7
102
}
 70
     0
280
     1
281
     0
  0
BLOCK_RECORD
  5
1B8
330
1
100
AcDbSymbolTableRecord
100
AcDbBlockTableRecord
  2
FP Timber Nog Packer1 - Variable-V3-W-TRSIL-05-V-G - Garage Door Jamb Flashing Detail _Vertical_
340
0
102
{BLKREFS
331
1C1
102
}
 70
     0
280
     1
281
     0
  0
BLOCK_RECORD
  5
22C
330
1
100
AcDbSymbolTableRecord
100
AcDbBlockTableRecord
  2
Titleblock A4 The roofing store - Titleblock A4 The roofing store-2694-Garage Door Jamb Flashing Detail _Ver__
340
0
102
{BLKREFS
331
259
102
}
 70
     0
280
     1
281
     0
  0
ENDTAB
  0
ENDSEC
  0
SECTION
  2
BLOCKS
  0
BLOCK
  5
71
330
70
100
AcDbEntity
  8
0
100
AcDbBlockBegin
  2
*Model_Space
 70
     0
 10
0.0
 20
0.0
 30
0.0
  3
*Model_Space
  1

  0
ENDBLK
  5
72
330
70
100
AcDbEntity
  8
0
100
AcDbBlockEnd
  0
BLOCK
  5
6D
330
6C
100
AcDbEntity
 67
     1
  8
0
100
AcDbBlockBegin
  2
*Paper_Space
 70
     0
 10
0.0
 20
0.0
 30
0.0
  3
*Paper_Space
  1

  0
ENDBLK
  5
6E
330
6C
100
AcDbEntity
 67
     1
  8
0
100
AcDbBlockEnd
  0
BLOCK
  5
75
330
74
100
AcDbEntity
 67
     1
  8
0
100
AcDbBlockBegin
  2
*Paper_Space0
 70
     0
 10
0.0
 20
0.0
 30
0.0
  3
*Paper_Space0
  1

  0
ENDBLK
  5
76
330
74
100
AcDbEntity
 67
     1
  8
0
100
AcDbBlockEnd
  0
BLOCK
  5
EF
330
E9
100
AcDbEntity
  8
0
100
AcDbBlockBegin
  2
4594_Packer - Timber Packer H3_2-84019-W-TRSIL-05-V-G - Garage Door Jamb Flashing Detail _Vertical_
 70
     0
 10
0.0
 20
0.0
 30
0.0
  3
4594_Packer - Timber Packer H3_2-84019-W-TRSIL-05-V-G - Garage Door Jamb Flashing Detail _Vertical_
  1

  0
LINE
  5
EA
330
E9
100
AcDbEntity
  8
A-DETL-GENF
100
AcDbLine
 10
176.393054916599
 20
102.102643901798
 30
0.0
 11
234.6824419719084
 21
102.102643901798
 31
0.0
1001
REVIT
1002
{
1070
     3
1000
19834
1002
}
  0
LINE
  5
EB
330
E9
100
AcDbEntity
  8
A-DETL-GENF
100
AcDbLine
 10
176.393054916599
 20
97.10264390179796
 30
0.0
 11
176.393054916599
 21
102.102643901798
 31
0.0
1001
REVIT
1002
{
1070
     3
1000
19834
1002
}
  0
LINE
  5
EC
330
E9
100
AcDbEntity
  8
A-DETL-GENF
100
AcDbLine
 10
234.6824419719084
 20
97.10264390179798
 30
0.0
 11
176.393054916599
 21
97.10264390179798
 31
0.0
1001
REVIT
1002
{
1070
     3
1000
19834
1002
}
  0
LINE
  5
ED
330
E9
100
AcDbEntity
  8
A-DETL-GENF
100
AcDbLine
 10
234.6824419719084
 20
102.102643901798
 30
0.0
 11
234.6824419719084
 21
97.10264390179798
 31
0.0
1001
REVIT
1002
{
1070
     3
1000
19834
1002
}
  0
LINE
  5
EE
330
E9
100
AcDbEntity
  8
A-DETL-GENF
100
AcDbLine
 10
176.393054916599
 20
102.102643901798
 30
0.0
 11
234.6824419719084
 21
97.10264390179798
 31
0.0
1001
REVIT
1002
{
1070
     3
1000
19834
1002
}
  0
ENDBLK
  5
F0
330
E9
100
AcDbEntity
  8
0
100
AcDbBlockEnd
  0
BLOCK
  5
103
330
F2
100
AcDbEntity
  8
0
100
AcDbBlockBegin
  2
4594_Jamb Liner - 19mm H3_1-164127-W-TRSIL-05-V-G - Garage Door Jamb Flashing Detail _Vertical_
 70
     0
 10
0.0
 20
0.0
 30
0.0
  3
4594_Jamb Liner - 19mm H3_1-164127-W-TRSIL-05-V-G - Garage Door Jamb Flashing Detail _Vertical_
  1

  0
HATCH
  5
FC
330
F2
100
AcDbEntity
  8
A-DETL-GENF
100
AcDbHatch
 10
0.0
 20
0.0
 30
0.0
210
0.0
220
0.0
230
1.0
  2
FP_1
 70
     0
 71
     0
 91
        1
 92
        0
 93
        9
 72
     1
 10
-93.23773535993371
 20
-8.495632708817952
 11
-93.23773535993371
 21
-9.500000000007721
 72
     1
 10
-93.23773535993371
 20
-9.500000000007721
 11
93.23773535993836
 21
-9.500000000007721
 72
     1
 10
93.23773535993836
 20
-9.500000000007721
 11
93.23773535993836
 21
9.499999999992697
 72
     1
 10
93.23773535993836
 20
9.499999999992697
 11
81.29811621057996
 21
9.499999999992697
 72
     1
 10
81.29811621057996
 20
9.499999999992697
 11
81.29811621057996
 21
3.050152274295238
 72
     1
 10
81.29811621057996
 20
3.050152274295238
 11
68.2981162105788
 21
3.050152274295238
 72
     1
 10
68.2981162105788
 20
3.050152274295238
 11
68.2981162105788
 21
9.499999999992697
 72
     1
 10
68.2981162105788
 20
9.499999999992697
 11
-93.23773535993371
 21
9.49999999999256
 72
     1
 10
-93.23773535993371
 20
9.49999999999256
 11
-93.23773535993371
 21
-8.49563270881795
 97
        0
 75
     0
 76
     2
 52
0.0
 41
1.0
 77
     0
 78
    54
 53
341.565
 43
-19.377
 44
-53.033
 45
70.7109951443106
 46
-70.71048900765205
 79
     2
 49
55.90199999999999
 49
-167.705
 53
338.962
 43
-22.913
 44
-63.64
 45
707.1039507808002
 46
-282.8480922335938
 79
     2
 49
49.244
 49
-935.641
 53
225.0
 43
47.798
 44
7.071
 45
-70.71067811865475
 46
70.71067811865474
 79
     2
 49
8.381999999999999
 49
-91.61799999999999
 53
345.735
 43
-4.528
 44
-49.498
 45
3606.233783681979
 46
-919.2686831306476
 79
     2
 49
43.04599999999999
 49
-4261.597999999999
 53
341.565
 43
-1.7
 44
-84.853
 45
70.7109951443106
 46
-70.71048900765205
 79
     2
 49
22.361
 49
-201.2459999999999
 53
341.565
 43
47.798
 44
-7.071
 45
70.7109951443106
 46
-70.71048900765205
 79
     2
 49
22.361
 49
-201.2459999999999
 53
234.491
 43
-54.733
 44
-31.82
 45
-70.67408433021123
 46
-70.74765895834428
 79
     2
 49
8.381999999999999
 49
-599.945
 53
341.565
 43
44.262
 44
-17.678
 45
70.7109951443106
 46
-70.71048900765205
 79
     2
 49
44.721
 49
-178.8849999999999
 53
341.565
 43
47.798
 44
-28.284
 45
70.7109951443106
 46
-70.71048900765205
 79
     2
 49
33.54099999999999
 49
-190.0659999999999
 53
225.0
 43
8.907
 44
31.82
 45
-70.71067811865475
 46
70.71067811865474
 79
     2
 49
8.381999999999999
 49
-91.61799999999999
 53
341.565
 43
15.978
 44
-45.96199999999999
 45
70.7109951443106
 46
-70.71048900765205
 79
     2
 49
22.361
 49
-201.2459999999999
 53
341.565
 43
47.798
 44
-35.355
 45
70.7109951443106
 46
-70.71048900765205
 79
     2
 49
22.361
 49
-201.2459999999999
 53
356.634
 43
37.191
 44
-38.891
 45
1060.6595735689
 46
-70.70253448525715
 79
     2
 49
12.042
 49
-1192.117
 53
341.565
 43
19.514
 44
-42.427
 45
70.7109951443106
 46
-70.71048900765205
 79
     2
 49
11.18
 49
-212.426
 53
18.435
 43
-26.448
 44
-10.607
 45
141.4211679233492
 46
0.0004425463570357
 79
     2
 49
55.902
 49
-167.705
 53
18.435
 43
40.727
 44
-70.711
 45
141.4211679233492
 46
0.0004425463570357
 79
     2
 49
11.18
 49
-212.427
 53
18.435
 43
-19.377
 44
3.535
 45
141.4211679233492
 46
0.0004425463570357
 79
     2
 49
44.721
 49
-178.886
 53
18.435
 43
44.262
 44
-60.104
 45
141.4211679233492
 46
0.0004425463570357
 79
     2
 49
22.361
 49
-201.246
 53
18.435
 43
-5.235
 44
17.677
 45
141.4211679233492
 46
0.0004425463570357
 79
     2
 49
22.361
 49
-201.246
 53
18.435
 43
-15.842
 44
-21.213
 45
141.4211679233492
 46
0.0004425463570357
 79
     2
 49
44.721
 49
-178.885
 53
18.435
 43
-19.377
 44
-31.82
 45
141.4211679233492
 46
0.0004425463570357
 79
     2
 49
44.721
 49
-178.885
 53
18.435
 43
-12.306
 44
-38.891
 45
141.4211679233492
 46
0.0004425463570357
 79
     2
 49
33.541
 49
-190.066
 53
18.435
 43
44.262
 44
-53.033
 45
141.4211679233492
 46
0.0004425463570357
 79
     2
 49
22.361
 49
-201.246
 53
18.435
 43
19.514
 44
-42.427
 45
141.4211679233492
 46
0.0004425463570357
 79
     2
 49
11.18
 49
-212.427
 53
32.005
 43
8.199999999999999
 44
-42.427
 45
353.5551256797538
 46
212.1302410774417
 79
     2
 49
13.342
 49
-1320.825
 53
18.435
 43
44.262
 44
-45.96199999999999
 45
141.4211679233492
 46
0.0004425463570357
 79
     2
 49
11.18
 49
-212.427
 53
354.401
 43
-40.59099999999999
 44
-45.96199999999999
 45
1414.213019716811
 46
-141.4131098323589
 79
     2
 49
36.235
 49
-3587.296
 53
0.0
 43
15.978
 44
24.749
 45
70.711
 46
-70.711
 79
     2
 49
14.142
 49
-127.279
 53
0.0
 43
19.514
 44
-91.92399999999999
 45
70.711
 46
-70.711
 79
     2
 49
8.381999999999999
 49
-133.039
 53
0.0
 43
-44.126
 44
-21.213
 45
70.711
 46
-70.711
 79
     2
 49
28.284
 49
-113.137
 53
0.0
 43
-54.733
 44
-31.82
 45
70.711
 46
-70.711
 79
     2
 49
35.355
 49
-106.066
 53
235.714
 43
86.68899999999998
 44
-31.82
 45
-919.2225892407149
 46
-1343.522597701503
 79
     2
 49
8.381999999999999
 49
-3757.268
 53
0.0
 43
26.585
 44
-7.071
 45
70.711
 46
-70.711
 79
     2
 49
21.213
 49
-120.208
 53
268.03
 43
-22.913
 44
-63.64
 45
-70.55030768243716
 46
-1909.332232969399
 79
     2
 49
8.381999999999999
 49
-2043.595
 53
0.0
 43
26.585
 44
7.071
 45
70.711
 46
-70.711
 79
     2
 49
21.213
 49
-120.208
 53
0.0
 43
23.049
 44
-17.678
 45
70.711
 46
-70.711
 79
     2
 49
21.213
 49
-120.208
 53
0.0
 43
-33.519
 44
-53.033
 45
70.711
 46
-70.711
 79
     2
 49
14.142
 49
-127.279
 53
0.0
 43
23.049
 44
17.677
 45
70.711
 46
-70.711
 79
     2
 49
14.142
 49
-127.279
 53
0.0
 43
19.514
 44
-28.284
 45
70.711
 46
-70.711
 79
     2
 49
28.284
 49
-113.137
 53
0.0
 43
19.514
 44
-35.356
 45
70.711
 46
-70.711
 79
     2
 49
28.284
 49
-113.137
 53
0.0
 43
23.049
 44
-81.317
 45
70.711
 46
-70.711
 79
     2
 49
14.142
 49
-127.279
 53
0.0
 43
-33.52
 44
-10.607
 45
70.711
 46
-70.711
 79
     2
 49
8.381999999999999
 49
-133.039
 53
0.0
 43
30.12
 44
-45.96199999999999
 45
70.711
 46
-70.711
 79
     2
 49
14.142
 49
-127.279
 53
0.0
 43
37.191
 44
-53.033
 45
70.711
 46
-70.711
 79
     2
 49
8.381999999999999
 49
-133.039
 53
0.0
 43
33.656
 44
-70.711
 45
70.711
 46
-70.711
 79
     2
 49
8.381999999999999
 49
-133.039
 53
0.0
 43
37.191
 44
-60.104
 45
70.711
 46
-70.711
 79
     2
 49
8.381999999999999
 49
-133.039
 53
333.435
 43
49.21199999999999
 44
-39.598
 45
70.71034638468299
 46
-70.71066727982525
 79
     2
 49
8.381999999999999
 49
-307.846
 53
0.0
 43
69.01100000000001
 44
-42.427
 45
70.711
 46
-70.711
 79
     2
 49
8.381999999999999
 49
-133.039
 53
0.0
 43
-47.662
 44
-38.891
 45
70.711
 46
-70.711
 79
     2
 49
35.355
 49
-106.066
 53
0.0
 43
-1.7
 44
-42.427
 45
70.711
 46
-70.711
 79
     2
 49
9.898999999999999
 49
-131.522
 53
0.0
 43
30.12
 44
-38.891
 45
70.711
 46
-70.711
 79
     2
 49
8.381999999999999
 49
-133.039
 53
0.0
 43
8.907
 44
31.82
 45
70.711
 46
-70.711
 79
     2
 49
14.142
 49
-127.279
 53
335.556
 43
8.199999999999999
 44
-42.427
 45
282.8425596352959
 46
-141.4214347118359
 79
     2
 49
8.543999999999998
 49
-845.856
 53
225.0
 43
69.01100000000001
 44
-42.427
 45
-70.71067811865475
 46
70.71067811865474
 79
     2
 49
8.381999999999999
 49
-91.61799999999999
 98
        1
 10
0.0
 20
0.0
  0
LINE
  5
FD
330
F2
100
AcDbEntity
  8
A-DETL-GENF
100
AcDbLine
 10
93.23773535993495
 20
9.499999999997257
 30
0.0
 11
81.29811621057655
 21
9.499999999997257
 31
0.0
1001
REVIT
1002
{
1070
     3
1000
19836
1002
}
  0
LINE
  5
FE
330
F2
100
AcDbEntity
  8
A-DETL-GENF
100
AcDbLine
 10
68.29811621057952
 20
9.499999999997257
 30
0.0
 11
-69.31762835988722
 21
9.499999999997257
 31
0.0
1001
REVIT
1002
{
1070
     3
1000
19836
1002
}
  0
LINE
  5
FF
330
F2
100
AcDbEntity
  8
A-DETL-GENF
100
AcDbLine
 10
-81.82690509387731
 20
9.499999999997257
 30
0.0
 11
-93.23773535993701
 21
9.499999999997257
 31
0.0
1001
REVIT
1002
{
1070
     3
1000
19836
1002
}
  0
LINE
  5
100
330
F2
100
AcDbEntity
  8
A-DETL-GENF
100
AcDbLine
 10
-93.23773535993701
 20
9.499999999997257
 30
0.0
 11
-93.23773535993701
 21
-9.50000000000303
 31
0.0
1001
REVIT
1002
{
1070
     3
1000
19836
1002
}
  0
LINE
  5
101
330
F2
100
AcDbEntity
  8
A-DETL-GENF
100
AcDbLine
 10
-93.23773535993701
 20
-9.500000000003028
 30
0.0
 11
93.23773535993495
 21
-9.500000000003028
 31
0.0
1001
REVIT
1002
{
1070
     3
1000
19836
1002
}
  0
LINE
  5
102
330
F2
100
AcDbEntity
  8
A-DETL-GENF
100
AcDbLine
 10
93.23773535993495
 20
-9.500000000003028
 30
0.0
 11
93.23773535993495
 21
9.499999999997257
 31
0.0
1001
REVIT
1002
{
1070
     3
1000
19836
1002
}
  0
ENDBLK
  5
104
330
F2
100
AcDbEntity
  8
0
100
AcDbBlockEnd
  0
BLOCK
  5
10C
330
106
100
AcDbEntity
  8
0
100
AcDbBlockBegin
  2
4811_Air Seal w Foam - Airseal on PEF Backing Rod-84021-W-TRSIL-05-V-G - Garage Door Jamb Flashing Detail _Vertical_
 70
     0
 10
0.0
 20
0.0
 30
0.0
  3
4811_Air Seal w Foam - Airseal on PEF Backing Rod-84021-W-TRSIL-05-V-G - Garage Door Jamb Flashing Detail _Vertical_
  1

  0
SPLINE
  5
107
330
106
100
AcDbEntity
  8
A-DETL-GENF
100
AcDbSpline
210
0.0
220
0.0
230
1.0
 70
     8
 71
     3
 72
    15
 73
    11
 74
     0
 42
0.000000001
 43
0.0000000001
 40
0.0
 40
0.0
 40
0.0
 40
0.0
 40
0.1333333333333333
 40
0.2666666666666666
 40
0.4
 40
0.5333333333333333
 40
0.65
 40
0.7666666666666666
 40
0.8833333333333332
 40
1.0
 40
1.0
 40
1.0
 40
1.0
 10
-8.123309772583517
 20
2.308456085237271
 30
0.0
 10
-7.840036359120009
 20
2.307545129773003
 30
0.0
 10
-7.28758728767466
 20
2.139054889621242
 30
0.0
 10
-6.592408873049883
 20
1.418400968728791
 30
0.0
 10
-6.164897949897647
 20
0.357428213590231
 30
0.0
 10
-6.078918024925581
 20
-0.8100081006155107
 30
0.0
 10
-6.301339651224863
 20
-1.882134837132104
 30
0.0
 10
-6.75444789951233
 20
-2.727343981907254
 30
0.0
 10
-7.391520896425008
 20
-3.284984876747564
 30
0.0
 10
-7.875445535802944
 20
-3.413699391959726
 30
0.0
 10
-8.123309772583516
 20
-3.414496477990963
 30
0.0
1001
REVIT
1002
{
1070
     3
1000
19822
1002
}
  0
LINE
  5
108
330
106
100
AcDbEntity
  8
A-DETL-GENF
100
AcDbLine
 10
-8.123309772583535
 20
-3.414496477990964
 30
0.0
 11
2.784631640602465
 21
-3.414496477990964
 31
0.0
1001
REVIT
1002
{
1070
     3
1000
19822
1002
}
  0
LINE
  5
109
330
106
100
AcDbEntity
  8
A-DETL-GENF
100
AcDbLine
 10
2.784631640602465
 20
2.308456085237271
 30
0.0
 11
-8.123309772583496
 21
2.308456085237271
 31
0.0
1001
REVIT
1002
{
1070
     3
1000
19822
1002
}
  0
SPLINE
  5
10A
330
106
100
AcDbEntity
  8
A-DETL-GENF
100
AcDbSpline
210
0.0
220
0.0
230
1.0
 70
     8
 71
     3
 72
    14
 73
    10
 74
     0
 42
0.000000001
 43
0.0000000001
 40
0.0
 40
0.0
 40
0.0
 40
0.0
 40
0.1333333333333333
 40
0.2666666666666666
 40
0.4
 40
0.5333333333333333
 40
0.65
 40
0.7666666666666666
 40
1.0
 40
1.0
 40
1.0
 40
1.0
 10
2.784631640602382
 20
2.308456085237271
 30
0.0
 10
2.07644810694365
 20
2.307545129773011
 30
0.0
 10
0.6953204523825012
 20
2.139057760123537
 30
0.0
 10
-1.042603192414031
 20
1.418390921970856
 30
0.0
 10
-2.111462603434112
 20
0.3574655301198601
 30
0.0
 10
-2.326119145937836
 20
-0.810139964313816
 30
0.0
 10
-1.7710289368382
 20
-1.881710675569113
 30
0.0
 10
-0.2560126435039494
 20
-3.011341825925446
 30
0.0
 10
1.545310456699489
 20
-3.412902305928523
 30
0.0
 10
2.784631640602278
 20
-3.414496477991014
 30
0.0
1001
REVIT
1002
{
1070
     3
1000
19822
1002
}
  0
SPLINE
  5
10B
330
106
100
AcDbEntity
  8
A-DETL-GENF
100
AcDbSpline
210
0.0
220
0.0
230
1.0
 70
     8
 71
     3
 72
    14
 73
    10
 74
     0
 42
0.000000001
 43
0.0000000001
 40
0.0
 40
0.0
 40
0.0
 40
0.0
 40
0.1333333333333333
 40
0.2666666666666666
 40
0.4
 40
0.5333333333333333
 40
0.65
 40
0.7666666666666666
 40
1.0
 40
1.0
 40
1.0
 40
1.0
 10
2.784631640602309
 20
-3.414496477991014
 30
0.0
 10
3.492815174261041
 20
-3.413585522526751
 30
0.0
 10
4.873942828822188
 20
-3.24509815287728
 30
0.0
 10
6.611866473618722
 20
-2.524431314724589
 30
0.0
 10
7.680725884638795
 20
-1.463505922873593
 30
0.0
 10
7.895382427142511
 20
-0.2959004284399151
 30
0.0
 10
7.340292218042868
 20
0.775670282815381
 30
0.0
 10
5.825275924708614
 20
1.905301433171704
 30
0.0
 10
4.023952824505164
 20
2.306861913174786
 30
0.0
 10
2.784631640602382
 20
2.308456085237271
 30
0.0
1001
REVIT
1002
{
1070
     3
1000
19822
1002
}
  0
ENDBLK
  5
10D
330
106
100
AcDbEntity
  8
0
100
AcDbBlockEnd
  0
BLOCK
  5
115
330
10F
100
AcDbEntity
  8
0
100
AcDbBlockBegin
  2
CAVIBAT Batten Profile - Non Cavibat-101292-W-TRSIL-05-V-G - Garage Door Jamb Flashing Detail _Vertical_
 70
     0
 10
0.0
 20
0.0
 30
0.0
  3
CAVIBAT Batten Profile - Non Cavibat-101292-W-TRSIL-05-V-G - Garage Door Jamb Flashing Detail _Vertical_
  1

  0
LINE
  5
110
330
10F
100
AcDbEntity
  8
A-DETL-GENF
100
AcDbLine
 10
-0.0000000000000021
 20
0.0
 30
0.0
 11
17.99999999999888
 21
0.0
 31
0.0
1001
REVIT
1002
{
1070
     3
1000
16116
1002
}
  0
LINE
  5
111
330
10F
100
AcDbEntity
  8
A-DETL-GENF
100
AcDbLine
 10
-0.0000000000000021
 20
47.00000000000001
 30
0.0
 11
-0.0000000000000021
 21
0.0
 31
0.0
1001
REVIT
1002
{
1070
     3
1000
16116
1002
}
  0
LINE
  5
112
330
10F
100
AcDbEntity
  8
A-DETL-GENF
100
AcDbLine
 10
17.99999999999888
 20
47.00000000000001
 30
0.0
 11
-0.0000000000000021
 21
47.00000000000001
 31
0.0
1001
REVIT
1002
{
1070
     3
1000
16116
1002
}
  0
LINE
  5
113
330
10F
100
AcDbEntity
  8
A-DETL-GENF
100
AcDbLine
 10
17.99999999999888
 20
0.0
 30
0.0
 11
17.99999999999888
 21
47.00000000000001
 31
0.0
1001
REVIT
1002
{
1070
     3
1000
16116
1002
}
  0
LINE
  5
114
330
10F
100
AcDbEntity
  8
A-DETL-GENF
100
AcDbLine
 10
8.999999999999248
 20
0.0
 30
0.0
 11
8.99999999999917
 21
47.00000000000001
 31
0.0
1001
REVIT
1002
{
1070
     3
1000
16116
1002
}
  0
ENDBLK
  5
116
330
10F
100
AcDbEntity
  8
0
100
AcDbBlockEnd
  0
BLOCK
  5
11F
330
11A
100
AcDbEntity
  8
0
100
AcDbBlockBegin
  2
CAVIBAT Batten Profile - Non Cavibat-V1-W-TRSIL-05-V-G - Garage Door Jamb Flashing Detail _Vertical_
 70
     0
 10
0.0
 20
0.0
 30
0.0
  3
CAVIBAT Batten Profile - Non Cavibat-V1-W-TRSIL-05-V-G - Garage Door Jamb Flashing Detail _Vertical_
  1

  0
LINE
  5
11B
330
11A
100
AcDbEntity
  8
A-DETL-GENF
100
AcDbLine
 10
-0.0000000000000021
 20
47.00000000000001
 30
0.0
 11
-0.0000000000000021
 21
0.0
 31
0.0
1001
REVIT
1002
{
1070
     3
1000
16116
1002
}
  0
LINE
  5
11C
330
11A
100
AcDbEntity
  8
A-DETL-GENF
100
AcDbLine
 10
17.99999999999888
 20
47.00000000000001
 30
0.0
 11
-0.0000000000000021
 21
47.00000000000001
 31
0.0
1001
REVIT
1002
{
1070
     3
1000
16116
1002
}
  0
LINE
  5
11D
330
11A
100
AcDbEntity
  8
A-DETL-GENF
100
AcDbLine
 10
17.99999999999888
 20
0.0
 30
0.0
 11
17.99999999999888
 21
47.00000000000001
 31
0.0
1001
REVIT
1002
{
1070
     3
1000
16116
1002
}
  0
LINE
  5
11E
330
11A
100
AcDbEntity
  8
A-DETL-GENF
100
AcDbLine
 10
8.999999999999248
 20
0.0
 30
0.0
 11
8.99999999999917
 21
47.00000000000001
 31
0.0
1001
REVIT
1002
{
1070
     3
1000
16116
1002
}
  0
ENDBLK
  5
120
330
11A
100
AcDbEntity
  8
0
100
AcDbBlockEnd
  0
BLOCK
  5
136
330
131
100
AcDbEntity
  8
0
100
AcDbBlockBegin
  2
4594_Packer - Timber Packer H3_2-84030-W-TRSIL-05-V-G - Garage Door Jamb Flashing Detail _Vertical_
 70
     0
 10
0.0
 20
0.0
 30
0.0
  3
4594_Packer - Timber Packer H3_2-84030-W-TRSIL-05-V-G - Garage Door Jamb Flashing Detail _Vertical_
  1

  0
LINE
  5
132
330
131
100
AcDbEntity
  8
A-DETL-GENF
100
AcDbLine
 10
176.393054916599
 20
102.102643901798
 30
0.0
 11
208.6447987515791
 21
102.102643901798
 31
0.0
1001
REVIT
1002
{
1070
     3
1000
19834
1002
}
  0
LINE
  5
133
330
131
100
AcDbEntity
  8
A-DETL-GENF
100
AcDbLine
 10
176.393054916599
 20
92.10264390179798
 30
0.0
 11
176.393054916599
 21
102.102643901798
 31
0.0
1001
REVIT
1002
{
1070
     3
1000
19834
1002
}
  0
LINE
  5
134
330
131
100
AcDbEntity
  8
A-DETL-GENF
100
AcDbLine
 10
208.6447987515791
 20
92.10264390179798
 30
0.0
 11
176.393054916599
 21
92.10264390179798
 31
0.0
1001
REVIT
1002
{
1070
     3
1000
19834
1002
}
  0
LINE
  5
135
330
131
100
AcDbEntity
  8
A-DETL-GENF
100
AcDbLine
 10
176.393054916599
 20
102.102643901798
 30
0.0
 11
208.6447987515791
 21
92.10264390179798
 31
0.0
1001
REVIT
1002
{
1070
     3
1000
19834
1002
}
  0
ENDBLK
  5
137
330
131
100
AcDbEntity
  8
0
100
AcDbBlockEnd
  0
BLOCK
  5
13F
330
139
100
AcDbEntity
  8
0
100
AcDbBlockBegin
  2
4594_Packer - Timber Packer H3_2-84031-W-TRSIL-05-V-G - Garage Door Jamb Flashing Detail _Vertical_
 70
     0
 10
0.0
 20
0.0
 30
0.0
  3
4594_Packer - Timber Packer H3_2-84031-W-TRSIL-05-V-G - Garage Door Jamb Flashing Detail _Vertical_
  1

  0
LINE
  5
13A
330
139
100
AcDbEntity
  8
A-DETL-GENF
100
AcDbLine
 10
176.393054916599
 20
102.102643901798
 30
0.0
 11
231.227987861234
 21
102.102643901798
 31
0.0
1001
REVIT
1002
{
1070
     3
1000
19834
1002
}
  0
LINE
  5
13B
330
139
100
AcDbEntity
  8
A-DETL-GENF
100
AcDbLine
 10
176.393054916599
 20
92.10264390179798
 30
0.0
 11
176.393054916599
 21
102.102643901798
 31
0.0
1001
REVIT
1002
{
1070
     3
1000
19834
1002
}
  0
LINE
  5
13C
330
139
100
AcDbEntity
  8
A-DETL-GENF
100
AcDbLine
 10
231.227987861234
 20
92.10264390179798
 30
0.0
 11
176.393054916599
 21
92.10264390179798
 31
0.0
1001
REVIT
1002
{
1070
     3
1000
19834
1002
}
  0
LINE
  5
13D
330
139
100
AcDbEntity
  8
A-DETL-GENF
100
AcDbLine
 10
231.227987861234
 20
102.102643901798
 30
0.0
 11
231.227987861234
 21
92.10264390179798
 31
0.0
1001
REVIT
1002
{
1070
     3
1000
19834
1002
}
  0
LINE
  5
13E
330
139
100
AcDbEntity
  8
A-DETL-GENF
100
AcDbLine
 10
176.393054916599
 20
102.102643901798
 30
0.0
 11
231.227987861234
 21
92.10264390179798
 31
0.0
1001
REVIT
1002
{
1070
     3
1000
19834
1002
}
  0
ENDBLK
  5
140
330
139
100
AcDbEntity
  8
0
100
AcDbBlockEnd
  0
BLOCK
  5
145
330
142
100
AcDbEntity
  8
0
100
AcDbBlockBegin
  2
HP_WProof - Building Wrap - HP_WProof - Building Wrap-84032-W-TRSIL-05-V-G - Garage Door Jamb Flashing Detail _Vertical_
 70
     0
 10
0.0
 20
0.0
 30
0.0
  3
HP_WProof - Building Wrap - HP_WProof - Building Wrap-84032-W-TRSIL-05-V-G - Garage Door Jamb Flashing Detail _Vertical_
  1

  0
LINE
  5
144
330
142
100
AcDbEntity
  8
A-DETL-GENF
100
AcDbLine
 10
0.0
 20
-407.4190672021479
 30
0.0
 11
0.0
 21
-12.69727526851774
 31
0.0
1001
REVIT
1002
{
1070
     3
1000
16110
1002
}
  0
ENDBLK
  5
146
330
142
100
AcDbEntity
  8
0
100
AcDbBlockEnd
  0
BLOCK
  5
14A
330
148
100
AcDbEntity
  8
0
100
AcDbBlockBegin
  2
HP_WProof - Building Wrap - HP_WProof - Building Wrap-84033-W-TRSIL-05-V-G - Garage Door Jamb Flashing Detail _Vertical_
 70
     0
 10
0.0
 20
0.0
 30
0.0
  3
HP_WProof - Building Wrap - HP_WProof - Building Wrap-84033-W-TRSIL-05-V-G - Garage Door Jamb Flashing Detail _Vertical_
  1

  0
LINE
  5
149
330
148
100
AcDbEntity
  8
A-DETL-GENF
100
AcDbLine
 10
0.0
 20
-90.92021450824731
 30
0.0
 11
0.0
 21
0.0
 31
0.0
1001
REVIT
1002
{
1070
     3
1000
16110
1002
}
  0
ENDBLK
  5
14B
330
148
100
AcDbEntity
  8
0
100
AcDbBlockEnd
  0
BLOCK
  5
17A
330
174
100
AcDbEntity
  8
0
100
AcDbBlockBegin
  2
4811_Air Seal w Foam - Airseal on PEF Backing Rod-165460-W-TRSIL-05-V-G - Garage Door Jamb Flashing Detail _Vertical_
 70
     0
 10
0.0
 20
0.0
 30
0.0
  3
4811_Air Seal w Foam - Airseal on PEF Backing Rod-165460-W-TRSIL-05-V-G - Garage Door Jamb Flashing Detail _Vertical_
  1

  0
SPLINE
  5
175
330
174
100
AcDbEntity
  8
A-DETL-GENF
100
AcDbSpline
210
0.0
220
0.0
230
1.0
 70
     8
 71
     3
 72
    15
 73
    11
 74
     0
 42
0.000000001
 43
0.0000000001
 40
0.0
 40
0.0
 40
0.0
 40
0.0
 40
0.1176470588235294
 40
0.1764705882352941
 40
0.2352941176470588
 40
0.3529411764705883
 40
0.5882352941176471
 40
0.7941176470588236
 40
0.8970588235294117
 40
1.0
 40
1.0
 40
1.0
 40
1.0
 10
-9.724645093387517
 20
3.410608837808978
 30
0.0
 10
-9.475474156668084
 20
3.409842759917792
 30
0.0
 10
-9.109408755602395
 20
3.273696722971913
 30
0.0
 10
-8.665645971479492
 20
2.836085958727625
 30
0.0
 10
-8.270961556582648
 20
2.245188549969303
 30
0.0
 10
-7.740307892050095
 20
0.8588242325708247
 30
0.0
 10
-7.624267885739652
 20
-1.609870390316128
 30
0.0
 10
-8.304035282404992
 20
-3.570974217957829
 30
0.0
 10
-9.078760095996814
 20
-4.377005905862112
 30
0.0
 10
-9.506620523758018
 20
-4.515978912407876
 30
0.0
 10
-9.724645093387525
 20
-4.516649230562669
 30
0.0
1001
REVIT
1002
{
1070
     3
1000
19822
1002
}
  0
LINE
  5
176
330
174
100
AcDbEntity
  8
A-DETL-GENF
100
AcDbLine
 10
-9.724645093387545
 20
-4.51664923056267
 30
0.0
 11
2.784631640602465
 21
-4.51664923056267
 31
0.0
1001
REVIT
1002
{
1070
     3
1000
19822
1002
}
  0
LINE
  5
177
330
174
100
AcDbEntity
  8
A-DETL-GENF
100
AcDbLine
 10
2.784631640602465
 20
3.410608837808978
 30
0.0
 11
-9.724645093387495
 21
3.410608837808978
 31
0.0
1001
REVIT
1002
{
1070
     3
1000
19822
1002
}
  0
SPLINE
  5
178
330
174
100
AcDbEntity
  8
A-DETL-GENF
100
AcDbSpline
210
0.0
220
0.0
230
1.0
 70
     8
 71
     3
 72
    17
 73
    13
 74
     0
 42
0.000000001
 43
0.0000000001
 40
0.0
 40
0.0
 40
0.0
 40
0.0
 40
0.1538461538461539
 40
0.2307692307692308
 40
0.3076923076923077
 40
0.4615384615384616
 40
0.5384615384615385
 40
0.6153846153846155
 40
0.7115384615384616
 40
0.8076923076923076
 40
0.9038461538461538
 40
1.0
 40
1.0
 40
1.0
 40
1.0
 10
2.784631640602403
 20
3.446979803623301
 30
0.0
 10
2.085922915330292
 20
3.444728129024641
 30
0.0
 10
1.074484477309999
 20
3.20885376214974
 30
0.0
 10
-0.0654606694907998
 20
2.470079405450661
 30
0.0
 10
-0.9813549514028061
 20
1.498852175607897
 30
0.0
 10
-1.482081327904171
 20
0.2585826355168601
 30
0.0
 10
-1.481294020437545
 20
-1.039853082122973
 30
0.0
 10
-1.212839211538149
 20
-2.064372031993812
 30
0.0
 10
-0.6172118531201038
 20
-3.056480424382953
 30
0.0
 10
0.3290862268301763
 20
-3.895102307114917
 30
0.0
 10
1.504552629813351
 20
-4.431273125811624
 30
0.0
 10
2.347938687307213
 20
-4.55161289975287
 30
0.0
 10
2.784631640602282
 20
-4.553020196377045
 30
0.0
1001
REVIT
1002
{
1070
     3
1000
19822
1002
}
  0
SPLINE
  5
179
330
174
100
AcDbEntity
  8
A-DETL-GENF
100
AcDbSpline
210
0.0
220
0.0
230
1.0
 70
     8
 71
     3
 72
    17
 73
    13
 74
     0
 42
0.000000001
 43
0.0000000001
 40
0.0
 40
0.0
 40
0.0
 40
0.0
 40
0.1538461538461539
 40
0.2307692307692308
 40
0.3076923076923077
 40
0.4615384615384616
 40
0.5384615384615385
 40
0.6153846153846155
 40
0.7115384615384616
 40
0.8076923076923076
 40
0.9038461538461538
 40
1.0
 40
1.0
 40
1.0
 40
1.0
 10
2.784631640602309
 20
-4.553020196377045
 30
0.0
 10
3.483340365874421
 20
-4.550768521778383
 30
0.0
 10
4.494778803894712
 20
-4.314894154903479
 30
0.0
 10
5.634723950695507
 20
-3.576119798204396
 30
0.0
 10
6.550618232607514
 20
-2.604892568361631
 30
0.0
 10
7.051344609108874
 20
-1.36462302827059
 30
0.0
 10
7.050557301642243
 20
-0.0661873106307566
 30
0.0
 10
6.782102492742843
 20
0.9583316392400815
 30
0.0
 10
6.186475134324795
 20
1.95044003162922
 30
0.0
 10
5.240177054374511
 20
2.789061914361181
 30
0.0
 10
4.064710651391333
 20
3.325232733057882
 30
0.0
 10
3.221324593897472
 20
3.445572506999128
 30
0.0
 10
2.784631640602403
 20
3.446979803623301
 30
0.0
1001
REVIT
1002
{
1070
     3
1000
19822
1002
}
  0
ENDBLK
  5
17B
330
174
100
AcDbEntity
  8
0
100
AcDbBlockEnd
  0
BLOCK
  5
183
330
17D
100
AcDbEntity
  8
0
100
AcDbBlockBegin
  2
FP - Break Line - FP - Break Line-164932-W-TRSIL-05-V-G - Garage Door Jamb Flashing Detail _Vertical_
 70
     0
 10
0.0
 20
0.0
 30
0.0
  3
FP - Break Line - FP - Break Line-164932-W-TRSIL-05-V-G - Garage Door Jamb Flashing Detail _Vertical_
  1

  0
LINE
  5
17E
330
17D
100
AcDbEntity
  8
A-DETL-GENF
100
AcDbLine
 10
-9.99999999999996
 20
-0.0000000000045937
 30
0.0
 11
-102.5784986702653
 21
-0.0000000000045937
 31
0.0
1001
REVIT
1002
{
1070
     3
1000
15798
1002
}
  0
LINE
  5
17F
330
17D
100
AcDbEntity
  8
A-DETL-GENF
100
AcDbLine
 10
136.1337148854388
 20
-0.0000000000045937
 30
0.0
 11
10.00000000000003
 21
-0.0000000000045937
 31
0.0
1001
REVIT
1002
{
1070
     3
1000
15798
1002
}
  0
LINE
  5
180
330
17D
100
AcDbEntity
  8
A-DETL-GENF
100
AcDbLine
 10
10.00000000000003
 20
-0.0000000000045937
 30
0.0
 11
5.000000000000523
 21
19.99999999999498
 31
0.0
1001
REVIT
1002
{
1070
     3
1000
15798
1002
}
  0
LINE
  5
181
330
17D
100
AcDbEntity
  8
A-DETL-GENF
100
AcDbLine
 10
5.000000000000523
 20
19.99999999999498
 30
0.0
 11
-4.999999999999864
 21
-20.00000000000462
 31
0.0
1001
REVIT
1002
{
1070
     3
1000
15798
1002
}
  0
LINE
  5
182
330
17D
100
AcDbEntity
  8
A-DETL-GENF
100
AcDbLine
 10
-4.999999999999864
 20
-20.00000000000462
 30
0.0
 11
-9.999999999999957
 21
-0.0000000000045937
 31
0.0
1001
REVIT
1002
{
1070
     3
1000
15798
1002
}
  0
ENDBLK
  5
184
330
17D
100
AcDbEntity
  8
0
100
AcDbBlockEnd
  0
BLOCK
  5
196
330
186
100
AcDbEntity
  8
0
100
AcDbBlockBegin
  2
TRS Interlocking profile - Interlocking 260-122890-W-TRSIL-05-V-G - Garage Door Jamb Flashing Detail _Vertical_
 70
     0
 10
0.0
 20
0.0
 30
0.0
  3
TRS Interlocking profile - Interlocking 260-122890-W-TRSIL-05-V-G - Garage Door Jamb Flashing Detail _Vertical_
  1

  0
LINE
  5
187
330
186
100
AcDbEntity
  8
A-DETL-GENF
100
AcDbLine
 10
-792.5471008377138
 20
0.0
 30
0.0
 11
-790.0000000000001
 21
0.0
 31
0.0
  0
LINE
  5
188
330
186
100
AcDbEntity
  8
A-DETL-GENF
100
AcDbLine
 10
-770.0000000000001
 20
-2.399999999999999
 30
0.0
 11
-790.0000000000001
 21
0.0
 31
0.0
  0
LINE
  5
189
330
186
100
AcDbEntity
  8
A-DETL-GENF
100
AcDbLine
 10
-770.0000000000001
 20
-2.399999999999999
 30
0.0
 11
-722.8383020477994
 21
-2.399999999999846
 31
0.0
  0
LINE
  5
18A
330
186
100
AcDbEntity
  8
A-DETL-GENF
100
AcDbLine
 10
-722.8383020477994
 20
-4.599999999999842
 30
0.0
 11
-760.2695588928534
 21
-4.599999999999842
 31
0.0
  0
LINE
  5
18B
330
186
100
AcDbEntity
  8
A-DETL-GENF
100
AcDbLine
 10
-761.7818139502136
 20
-6.112255057360221
 30
0.0
 11
-761.7818139502136
 21
-23.09999999999984
 31
0.0
  0
LINE
  5
18C
330
186
100
AcDbEntity
  8
A-DETL-GENF
100
AcDbLine
 10
-760.2818139502136
 20
-24.59999999999984
 30
0.0
 11
-503.2728888821042
 21
-24.59999999999902
 31
0.0
  0
LINE
  5
18D
330
186
100
AcDbEntity
  8
A-DETL-GENF
100
AcDbLine
 10
-501.7818139502136
 20
-23.10892506810844
 30
0.0
 11
-501.7818139502136
 21
-4.511758410021792
 31
0.0
  0
LINE
  5
18E
330
186
100
AcDbEntity
  8
A-DETL-GENF
100
AcDbLine
 10
-500.2861306645898
 20
-3.01607512439793
 30
0.0
 11
-469.2818139502135
 21
-3.01607512439793
 31
0.0
  0
LINE
  5
18F
330
186
100
AcDbEntity
  8
A-DETL-GENF
100
AcDbLine
 10
-469.2818139502135
 20
-3.01607512439793
 30
0.0
 11
-467.0671833822827
 21
-3.609483596608291
 31
0.0
  0
LINE
  5
190
330
186
100
AcDbEntity
  8
A-DETL-GENF
100
AcDbLine
 10
-464.8525528143519
 20
-3.01607512439793
 30
0.0
 11
-467.0671833822827
 21
-3.609483596608291
 31
0.0
  0
ARC
  5
191
330
186
100
AcDbEntity
  8
A-DETL-GENF
100
AcDbCircle
 10
-760.2818139502136
 20
-23.09999999999984
 30
0.0
 40
1.5
100
AcDbArc
 50
180.0
 51
269.9999999999997
  0
ARC
  5
192
330
186
100
AcDbEntity
  8
A-DETL-GENF
100
AcDbCircle
 10
-760.2695588928534
 20
-6.112255057360221
 30
0.0
 40
1.512255057360221
100
AcDbArc
 50
89.99999999999994
 51
180.0000000000001
  0
ARC
  5
193
330
186
100
AcDbEntity
  8
A-DETL-GENF
100
AcDbCircle
 10
-722.8383020477994
 20
-3.499999999999844
 30
0.0
 40
1.100000000000023
100
AcDbArc
 50
269.9999999999998
 51
90.00000000000019
  0
ARC
  5
194
330
186
100
AcDbEntity
  8
A-DETL-GENF
100
AcDbCircle
 10
-503.2728888821042
 20
-23.10892506810843
 30
0.0
 40
1.491074931890572
100
AcDbArc
 50
269.9999999999993
 51
359.9999999999995
  0
ARC
  5
195
330
186
100
AcDbEntity
  8
A-DETL-GENF
100
AcDbCircle
 10
-500.2861306645898
 20
-4.511758410021792
 30
0.0
 40
1.495683285623853
100
AcDbArc
 50
90.00000000000003
 51
180.0
  0
ENDBLK
  5
197
330
186
100
AcDbEntity
  8
0
100
AcDbBlockEnd
  0
BLOCK
  5
1A1
330
199
100
AcDbEntity
  8
0
100
AcDbBlockBegin
  2
TRS Interlocking profile - Interlocking 260-V2-W-TRSIL-05-V-G - Garage Door Jamb Flashing Detail _Vertical_
 70
     0
 10
0.0
 20
0.0
 30
0.0
  3
TRS Interlocking profile - Interlocking 260-V2-W-TRSIL-05-V-G - Garage Door Jamb Flashing Detail _Vertical_
  1

  0
LINE
  5
19A
330
199
100
AcDbEntity
  8
A-DETL-GENF
100
AcDbLine
 10
-530.5471008377137
 20
-24.5999999999991
 30
0.0
 11
-503.2728888821042
 21
-24.59999999999902
 31
0.0
  0
LINE
  5
19B
330
199
100
AcDbEntity
  8
A-DETL-GENF
100
AcDbLine
 10
-501.7818139502136
 20
-23.10892506810844
 30
0.0
 11
-501.7818139502136
 21
-4.511758410021792
 31
0.0
  0
LINE
  5
19C
330
199
100
AcDbEntity
  8
A-DETL-GENF
100
AcDbLine
 10
-500.2861306645898
 20
-3.01607512439793
 30
0.0
 11
-469.2818139502135
 21
-3.01607512439793
 31
0.0
  0
LINE
  5
19D
330
199
100
AcDbEntity
  8
A-DETL-GENF
100
AcDbLine
 10
-469.2818139502135
 20
-3.01607512439793
 30
0.0
 11
-467.0671833822827
 21
-3.609483596608291
 31
0.0
  0
LINE
  5
19E
330
199
100
AcDbEntity
  8
A-DETL-GENF
100
AcDbLine
 10
-464.8525528143519
 20
-3.01607512439793
 30
0.0
 11
-467.0671833822827
 21
-3.609483596608291
 31
0.0
  0
ARC
  5
19F
330
199
100
AcDbEntity
  8
A-DETL-GENF
100
AcDbCircle
 10
-503.2728888821042
 20
-23.10892506810843
 30
0.0
 40
1.491074931890572
100
AcDbArc
 50
269.9999999999993
 51
359.9999999999995
  0
ARC
  5
1A0
330
199
100
AcDbEntity
  8
A-DETL-GENF
100
AcDbCircle
 10
-500.2861306645898
 20
-4.511758410021792
 30
0.0
 40
1.495683285623853
100
AcDbArc
 50
90.00000000000003
 51
180.0
  0
ENDBLK
  5
1A2
330
199
100
AcDbEntity
  8
0
100
AcDbBlockEnd
  0
BLOCK
  5
1AB
330
1A5
100
AcDbEntity
  8
0
100
AcDbBlockBegin
  2
FP - Break Line - FP - Break Line-165816-W-TRSIL-05-V-G - Garage Door Jamb Flashing Detail _Vertical_
 70
     0
 10
0.0
 20
0.0
 30
0.0
  3
FP - Break Line - FP - Break Line-165816-W-TRSIL-05-V-G - Garage Door Jamb Flashing Detail _Vertical_
  1

  0
LINE
  5
1A6
330
1A5
100
AcDbEntity
  8
A-DETL-GENF
100
AcDbLine
 10
-9.99999999999996
 20
-0.0000000000045937
 30
0.0
 11
-104.2552418315362
 21
-0.0000000000045937
 31
0.0
1001
REVIT
1002
{
1070
     3
1000
15798
1002
}
  0
LINE
  5
1A7
330
1A5
100
AcDbEntity
  8
A-DETL-GENF
100
AcDbLine
 10
84.82171795101711
 20
-0.0000000000045937
 30
0.0
 11
10.00000000000003
 21
-0.0000000000045937
 31
0.0
1001
REVIT
1002
{
1070
     3
1000
15798
1002
}
  0
LINE
  5
1A8
330
1A5
100
AcDbEntity
  8
A-DETL-GENF
100
AcDbLine
 10
10.00000000000003
 20
-0.0000000000045937
 30
0.0
 11
5.000000000000523
 21
19.99999999999498
 31
0.0
1001
REVIT
1002
{
1070
     3
1000
15798
1002
}
  0
LINE
  5
1A9
330
1A5
100
AcDbEntity
  8
A-DETL-GENF
100
AcDbLine
 10
5.000000000000523
 20
19.99999999999498
 30
0.0
 11
-4.999999999999864
 21
-20.00000000000462
 31
0.0
1001
REVIT
1002
{
1070
     3
1000
15798
1002
}
  0
LINE
  5
1AA
330
1A5
100
AcDbEntity
  8
A-DETL-GENF
100
AcDbLine
 10
-4.999999999999864
 20
-20.00000000000462
 30
0.0
 11
-9.999999999999957
 21
-0.0000000000045937
 31
0.0
1001
REVIT
1002
{
1070
     3
1000
15798
1002
}
  0
ENDBLK
  5
1AC
330
1A5
100
AcDbEntity
  8
0
100
AcDbBlockEnd
  0
BLOCK
  5
1B4
330
1AE
100
AcDbEntity
  8
0
100
AcDbBlockBegin
  2
FP Timber Nog Packer1 - Variable-46933-W-TRSIL-05-V-G - Garage Door Jamb Flashing Detail _Vertical_
 70
     0
 10
0.0
 20
0.0
 30
0.0
  3
FP Timber Nog Packer1 - Variable-46933-W-TRSIL-05-V-G - Garage Door Jamb Flashing Detail _Vertical_
  1

  0
LINE
  5
1AF
330
1AE
100
AcDbEntity
  8
A-DETL-GENF
100
AcDbLine
 10
90.00000000000047
 20
-19.99999999999973
 30
0.0
 11
90.00000000000047
 21
24.99999999999865
 31
0.0
1001
REVIT
1002
{
1070
     3
1000
16257
1002
}
  0
LINE
  5
1B0
330
1AE
100
AcDbEntity
  8
A-DETL-GENF
100
AcDbLine
 10
90.00000000000047
 20
24.99999999999865
 30
0.0
 11
0.0
 21
24.99999999999865
 31
0.0
1001
REVIT
1002
{
1070
     3
1000
16257
1002
}
  0
LINE
  5
1B1
330
1AE
100
AcDbEntity
  8
A-DETL-GENF
100
AcDbLine
 10
0.0
 20
24.99999999999865
 30
0.0
 11
0.0
 21
-19.99999999999973
 31
0.0
1001
REVIT
1002
{
1070
     3
1000
16257
1002
}
  0
LINE
  5
1B2
330
1AE
100
AcDbEntity
  8
A-DETL-GENF
100
AcDbLine
 10
-0.0000000000000008
 20
24.99999999999865
 30
0.0
 11
90.00000000000047
 21
-19.99999999999973
 31
0.0
1001
REVIT
1002
{
1070
     3
1000
16362
1002
}
  0
LINE
  5
1B3
330
1AE
100
AcDbEntity
  8
A-DETL-GENF
100
AcDbLine
 10
0.0000000000001442
 20
-20.00000000000001
 30
0.0
 11
90.00000000000033
 21
24.99999999999895
 31
0.0
1001
REVIT
1002
{
1070
     3
1000
16362
1002
}
  0
ENDBLK
  5
1B5
330
1AE
100
AcDbEntity
  8
0
100
AcDbBlockEnd
  0
BLOCK
  5
1BF
330
1B8
100
AcDbEntity
  8
0
100
AcDbBlockBegin
  2
FP Timber Nog Packer1 - Variable-V3-W-TRSIL-05-V-G - Garage Door Jamb Flashing Detail _Vertical_
 70
     0
 10
0.0
 20
0.0
 30
0.0
  3
FP Timber Nog Packer1 - Variable-V3-W-TRSIL-05-V-G - Garage Door Jamb Flashing Detail _Vertical_
  1

  0
LINE
  5
1B9
330
1B8
100
AcDbEntity
  8
A-DETL-GENF
100
AcDbLine
 10
90.00000000000047
 20
-19.99999999999973
 30
0.0
 11
90.00000000000047
 21
24.99999999999865
 31
0.0
1001
REVIT
1002
{
1070
     3
1000
16257
1002
}
  0
LINE
  5
1BA
330
1B8
100
AcDbEntity
  8
A-DETL-GENF
100
AcDbLine
 10
90.00000000000047
 20
24.99999999999865
 30
0.0
 11
0.0
 21
24.99999999999865
 31
0.0
1001
REVIT
1002
{
1070
     3
1000
16257
1002
}
  0
LINE
  5
1BB
330
1B8
100
AcDbEntity
  8
A-DETL-GENF
100
AcDbLine
 10
0.0
 20
24.99999999999865
 30
0.0
 11
0.0
 21
-19.99999999999973
 31
0.0
1001
REVIT
1002
{
1070
     3
1000
16257
1002
}
  0
LINE
  5
1BC
330
1B8
100
AcDbEntity
  8
A-DETL-GENF
100
AcDbLine
 10
0.0
 20
-19.99999999999973
 30
0.0
 11
90.00000000000047
 21
-19.99999999999973
 31
0.0
1001
REVIT
1002
{
1070
     3
1000
16257
1002
}
  0
LINE
  5
1BD
330
1B8
100
AcDbEntity
  8
A-DETL-GENF
100
AcDbLine
 10
-0.0000000000000008
 20
24.99999999999865
 30
0.0
 11
90.00000000000047
 21
-19.99999999999973
 31
0.0
1001
REVIT
1002
{
1070
     3
1000
16362
1002
}
  0
LINE
  5
1BE
330
1B8
100
AcDbEntity
  8
A-DETL-GENF
100
AcDbLine
 10
0.0000000000001442
 20
-20.00000000000001
 30
0.0
 11
90.00000000000033
 21
24.99999999999895
 31
0.0
1001
REVIT
1002
{
1070
     3
1000
16362
1002
}
  0
ENDBLK
  5
1C0
330
1B8
100
AcDbEntity
  8
0
100
AcDbBlockEnd
  0
BLOCK
  5
257
330
22C
100
AcDbEntity
  8
0
100
AcDbBlockBegin
  2
Titleblock A4 The roofing store - Titleblock A4 The roofing store-2694-Garage Door Jamb Flashing Detail _Ver__
 70
     0
 10
0.0
 20
0.0
 30
0.0
  3
Titleblock A4 The roofing store - Titleblock A4 The roofing store-2694-Garage Door Jamb Flashing Detail _Ver__
  1

  0
IMAGE
  5
22F
330
22C
100
AcDbEntity
  8
G-ANNO-TTLB
160
               140
310
8C000000010000008400000006000000050000005617394A1B7A1640B7935150A3172A4000000000000000005617394A1B7A1640DCC928A8D10B3640000000000000000095168F065A825140DCC928A8D10B3640000000000000000095168F065A825140B7935150A3172A4000000000000000005617394A1B7A1640B79351
310
50A3172A400000000000000000
100
AcDbRasterImage
 90
        0
 10
5.619244727835242
 20
13.0461678599912
 30
0.0
 11
0.0225
 21
0.0
 31
0.0
 12
0.0
 22
0.0225
 32
0.0
 13
2863.0
 23
400.0
340
22E
 70
     7
280
     0
281
    50
282
    50
283
     0
290
     0
360
230
 71
     1
 91
        2
 14
-0.5
 24
-0.5
 14
2862.5
 24
399.5
  0
LINE
  5
232
330
22C
100
AcDbEntity
  8
G-ANNO-TTLB-THIN
100
AcDbLine
 10
291.9756745145733
 20
16.5981545959536
 30
0.0
 11
236.9756745145732
 21
16.5981545959536
 31
0.0
1001
REVIT
1002
{
1070
     3
1000
-2000281
1002
}
  0
LINE
  5
233
330
22C
100
AcDbEntity
  8
G-ANNO-TTLB
100
AcDbLine
 10
71.28674472783522
 20
23.02396756137834
 30
0.0
 11
71.28674472783522
 21
5.023967561378343
 31
0.0
  0
LINE
  5
235
330
22C
100
AcDbEntity
  8
G-ANNO-TTLB-MEDM
100
AcDbLine
 10
291.9756745145733
 20
205.0239675613797
 30
0.0
 11
4.975674514620406
 21
205.0239675613797
 31
0.0
1001
REVIT
1002
{
1070
     3
1000
-2000282
1002
}
  0
LINE
  5
236
330
22C
100
AcDbEntity
  8
G-ANNO-TTLB-MEDM
100
AcDbLine
 10
4.975674514620408
 20
205.0239675613797
 30
0.0
 11
4.975674514620408
 21
5.02396756137836
 31
0.0
1001
REVIT
1002
{
1070
     3
1000
-2000282
1002
}
  0
LINE
  5
237
330
22C
100
AcDbEntity
  8
G-ANNO-TTLB-MEDM
100
AcDbLine
 10
4.975674514620408
 20
5.023967561378343
 30
0.0
 11
291.9756745145733
 21
5.023967561378343
 31
0.0
1001
REVIT
1002
{
1070
     3
1000
-2000282
1002
}
  0
LINE
  5
238
330
22C
100
AcDbEntity
  8
G-ANNO-TTLB-MEDM
100
AcDbLine
 10
291.9756745145733
 20
5.023967561378343
 30
0.0
 11
291.9756745145733
 21
205.0239675613797
 31
0.0
1001
REVIT
1002
{
1070
     3
1000
-2000282
1002
}
  0
LINE
  5
239
330
22C
100
AcDbEntity
  8
G-ANNO-TTLB-THIN
100
AcDbLine
 10
291.9756745145733
 20
23.02396756137834
 30
0.0
 11
4.975674514620406
 21
23.02396756137834
 31
0.0
1001
REVIT
1002
{
1070
     3
1000
-2000281
1002
}
  0
LINE
  5
23A
330
22C
100
AcDbEntity
  8
G-ANNO-TTLB
100
AcDbLine
 10
236.9756745145732
 20
23.02396756137834
 30
0.0
 11
236.9756745145732
 21
5.023967561378343
 31
0.0
  0
MTEXT
  5
23C
330
22C
100
AcDbEntity
  8
G-ANNO-TTLB
100
AcDbMText
 10
9.61486176751347
 20
34.25458782332127
 30
0.0
 40
1.8
 41
2.309769
 46
0.0
 71
     1
 72
     1
  1
\U+2022
  7
Century Gothic_1
 73
     2
 44
1.0
  0
MTEXT
  5
23D
330
22C
100
AcDbEntity
  8
G-ANNO-TTLB
100
AcDbMText
 10
9.61486176751347
 20
31.3441711566546
 30
0.0
 40
1.8
 41
2.309769
 46
0.0
 71
     1
 72
     1
  1
\U+2022
  7
Century Gothic_1
 73
     2
 44
1.0
  0
MTEXT
  5
23E
330
22C
100
AcDbEntity
  8
G-ANNO-TTLB
100
AcDbMText
 10
9.61486176751347
 20
28.43375448998793
 30
0.0
 40
1.8
 41
2.309769
 46
0.0
 71
     1
 72
     1
  1
\U+2022
  7
Century Gothic_1
 73
     2
 44
1.0
  0
MTEXT
  5
23F
330
22C
100
AcDbEntity
  8
G-ANNO-TTLB
100
AcDbMText
 10
11.51986176751347
 20
34.25458782332127
 30
0.0
 40
1.8
 41
154.116405
 46
0.0
 71
     1
 72
     1
  1
These details are generally in accordance with NZBC E2/AS1 and or the NZ metal roof & wall caldding code of practice.
  7
Century Gothic_1
 73
     2
 44
1.0
  0
MTEXT
  5
240
330
22C
100
AcDbEntity
  8
G-ANNO-TTLB
100
AcDbMText
 10
11.51986176751347
 20
31.3441711566546
 30
0.0
 40
1.8
 41
137.0885625
 46
0.0
 71
     1
 72
     1
  1
The building Architect / Designer is ultimately responsible for details to meet the NZ Building Code & E2/AS1.
  7
Century Gothic_1
 73
     2
 44
1.0
  0
MTEXT
  5
241
330
22C
100
AcDbEntity
  8
G-ANNO-TTLB
100
AcDbMText
 10
11.51986176751347
 20
28.43375448998794
 30
0.0
 40
1.8
 41
118.401226875
 46
0.0
 71
     1
 72
     1
  1
For Further information please contact your nearest roofing store www.theroofingstore.co.nz.
  7
Century Gothic_1
 73
     2
 44
1.0
  0
MTEXT
  5
242
330
22C
100
AcDbEntity
  8
G-ANNO-TTLB
100
AcDbMText
 10
152.075785282666
 20
20.51531106318182
 30
0.0
 40
1.8
 41
20.77974
 46
0.0
 71
     1
 72
     1
  1
P: HEAD OFFICE 
  7
Century Gothic_1
 73
     2
 44
1.0
  0
MTEXT
  5
243
330
22C
100
AcDbEntity
  8
G-ANNO-TTLB
100
AcDbMText
 10
169.220785282666
 20
20.51531106318182
 30
0.0
 40
1.8
 41
6.926579999999998
 46
0.0
 71
     1
 72
     1
  1
^I
  7
Century Gothic_1
 73
     2
 44
1.0
  0
MTEXT
  5
244
330
22C
100
AcDbEntity
  8
G-ANNO-TTLB
100
AcDbMText
 10
174.935785282666
 20
20.51531106318182
 30
0.0
 40
1.8
 41
15.079741875
 46
0.0
 71
     1
 72
     1
  1
09 277 2717
  7
Century Gothic_1
 73
     2
 44
1.0
  0
MTEXT
  5
245
330
22C
100
AcDbEntity
  8
G-ANNO-TTLB
100
AcDbMText
 10
152.075785282666
 20
17.60489439651515
 30
0.0
 40
1.8
 41
13.492400625
 46
0.0
 71
     1
 72
     1
  1
    ALBANY 
  7
Century Gothic_1
 73
     2
 44
1.0
  0
MTEXT
  5
246
330
22C
100
AcDbEntity
  8
G-ANNO-TTLB
100
AcDbMText
 10
163.208129032666
 20
17.60489439651515
 30
0.0
 40
1.8
 41
14.213919375
 46
0.0
 71
     1
 72
     1
  1
^I^I
  7
Century Gothic_1
 73
     2
 44
1.0
  0
MTEXT
  5
247
330
22C
100
AcDbEntity
  8
G-ANNO-TTLB
100
AcDbMText
 10
174.935785282666
 20
17.60489439651515
 30
0.0
 40
1.8
 41
15.079741875
 46
0.0
 71
     1
 72
     1
  1
09 972 0060
  7
Century Gothic_1
 73
     2
 44
1.0
  0
MTEXT
  5
248
330
22C
100
AcDbEntity
  8
G-ANNO-TTLB
100
AcDbMText
 10
152.075785282666
 20
14.69447772984849
 30
0.0
 40
1.8
 41
13.99746375
 46
0.0
 71
     1
 72
     1
  1
    KATIKAIT 
  7
Century Gothic_1
 73
     2
 44
1.0
  0
MTEXT
  5
249
330
22C
100
AcDbEntity
  8
G-ANNO-TTLB
100
AcDbMText
 10
163.624847782666
 20
14.69447772984849
 30
0.0
 40
1.8
 41
13.70885625
 46
0.0
 71
     1
 72
     1
  1
^I
  7
Century Gothic_1
 73
     2
 44
1.0
  0
MTEXT
  5
24A
330
22C
100
AcDbEntity
  8
G-ANNO-TTLB
100
AcDbMText
 10
174.935785282666
 20
14.69447772984849
 30
0.0
 40
1.8
 41
15.079741875
 46
0.0
 71
     1
 72
     1
  1
07 549 5190
  7
Century Gothic_1
 73
     2
 44
1.0
  0
MTEXT
  5
24B
330
22C
100
AcDbEntity
  8
G-ANNO-TTLB
100
AcDbMText
 10
152.075785282666
 20
11.78406106318182
 30
0.0
 40
1.8
 41
20.274676875
 46
0.0
 71
     1
 72
     1
  1
    WELLINGTON 
  7
Century Gothic_1
 73
     2
 44
1.0
  0
MTEXT
  5
24C
330
22C
100
AcDbEntity
  8
G-ANNO-TTLB
100
AcDbMText
 10
168.804066532666
 20
11.78406106318182
 30
0.0
 40
1.8
 41
7.431643124999999
 46
0.0
 71
     1
 72
     1
  1
^I
  7
Century Gothic_1
 73
     2
 44
1.0
  0
MTEXT
  5
24D
330
22C
100
AcDbEntity
  8
G-ANNO-TTLB
100
AcDbMText
 10
174.935785282666
 20
11.78406106318182
 30
0.0
 40
1.8
 41
15.079741875
 46
0.0
 71
     1
 72
     1
  1
04 974 5792
  7
Century Gothic_1
 73
     2
 44
1.0
  0
MTEXT
  5
24E
330
22C
100
AcDbEntity
  8
G-ANNO-TTLB
100
AcDbMText
 10
187.377816532666
 20
11.78406106318182
 30
0.0
 40
1.8
 41
12.626578125
 46
0.0
 71
     1
 72
     1
  1
^I
  7
Century Gothic_1
 73
     2
 44
1.0
  0
MTEXT
  5
24F
330
22C
100
AcDbEntity
  8
G-ANNO-TTLB
100
AcDbMText
 10
197.795785282666
 20
11.78406106318182
 30
0.0
 40
1.8
 41
41.63163187500001
 46
0.0
 71
     1
 72
     1
  1
WEB: www.theroofingstore.co.nz
  7
Century Gothic_1
 73
     2
 44
1.0
  0
MTEXT
  5
250
330
22C
100
AcDbEntity
  8
G-ANNO-TTLB
100
AcDbMText
 10
152.075785282666
 20
8.873644396515153
 30
0.0
 40
1.8
 41
23.52151125
 46
0.0
 71
     1
 72
     1
  1
    CHRISTCHURCH 
  7
Century Gothic_1
 73
     2
 44
1.0
  0
MTEXT
  5
251
330
22C
100
AcDbEntity
  8
G-ANNO-TTLB
100
AcDbMText
 10
171.482972782666
 20
8.873644396515153
 30
0.0
 40
1.8
 41
4.184808749999999
 46
0.0
 71
     1
 72
     1
  1
^I
  7
Century Gothic_1
 73
     2
 44
1.0
  0
MTEXT
  5
252
330
22C
100
AcDbEntity
  8
G-ANNO-TTLB
100
AcDbMText
 10
174.935785282666
 20
8.873644396515153
 30
0.0
 40
1.8
 41
15.079741875
 46
0.0
 71
     1
 72
     1
  1
03 348 6528
  7
Century Gothic_1
 73
     2
 44
1.0
  0
MTEXT
  5
253
330
22C
100
AcDbEntity
  8
G-ANNO-TTLB
100
AcDbMText
 10
187.377816532666
 20
8.873644396515153
 30
0.0
 40
1.8
 41
12.626578125
 46
0.0
 71
     1
 72
     1
  1
^I
  7
Century Gothic_1
 73
     2
 44
1.0
  0
MTEXT
  5
254
330
22C
100
AcDbEntity
  8
G-ANNO-TTLB
100
AcDbMText
 10
197.795785282666
 20
8.873644396515153
 30
0.0
 40
1.8
 41
45.16707375
 46
0.0
 71
     1
 72
     1
  1
Copyright © The Roofing Store 2013
  7
Century Gothic_1
 73
     2
 44
1.0
  0
MTEXT
  5
255
330
22C
100
AcDbEntity
  8
G-ANNO-TTLB
100
AcDbMText
 10
238.4531881313984
 20
13.76450265283994
 30
0.0
 40
1.8
 41
13.348096875
 46
0.0
 71
     1
 72
     1
  1
Detail No.:
  7
Century Gothic_1
 73
     2
 44
1.0
  0
MTEXT
  5
256
330
22C
100
AcDbEntity
  8
G-ANNO-TTLB
100
AcDbMText
 10
238.4531881313984
 20
20.51531106318182
 30
0.0
 40
1.8
 41
14.502526875
 46
0.0
 71
     1
 72
     1
  1
Scale:  1 : 5
  7
Century Gothic_1
 73
     2
 44
1.0
  0
ENDBLK
  5
258
330
22C
100
AcDbEntity
  8
0
100
AcDbBlockEnd
  0
ENDSEC
  0
SECTION
  2
ENTITIES
  0
HATCH
  5
C1
330
70
100
AcDbEntity
  8
A-DETL-GENF
100
AcDbHatch
 10
0.0
 20
0.0
 30
0.0
210
0.0
220
0.0
230
1.0
  2
SOLID
 70
     1
 71
     0
 91
        1
 92
        0
 93
        4
 72
     1
 10
6331.815564408635
 20
3951.663783871071
 11
6451.048504228824
 21
3951.663783871071
 72
     1
 10
6451.048504228824
 20
3951.663783871071
 11
6451.048504228824
 21
3976.66378387107
 72
     1
 10
6451.048504228824
 20
3976.66378387107
 11
6331.815564408635
 21
3976.66378387107
 72
     1
 10
6331.815564408635
 20
3976.66378387107
 11
6331.815564408635
 21
3951.663783871071
 97
        0
 75
     0
 76
     1
 98
        1
 10
0.0
 20
0.0
450
        0
451
        0
460
0.0
461
0.0
452
        0
462
0.0
453
        0
470

1001
REVIT
1002
{
1070
     1
1000
165697
1002
}
1002
{
1070
     5
1000
17867
1002
}
1002
{
1070
     2
1000
-2002000
1002
}
  0
LINE
  5
C2
330
70
100
AcDbEntity
  8
A-DETL
100
AcDbLine
 10
6321.81556440863
 20
3996.663783871066
 30
0.0
 11
6451.048504228818
 21
3996.663783871066
 31
0.0
1001
REVIT
1002
{
1070
     1
1000
165689
1002
}
1002
{
1070
     2
1000
-2000051
1002
}
1002
{
1070
     3
1000
137263
1002
}
  0
SPLINE
  5
C3
330
70
100
AcDbEntity
  8
A-DETL
100
AcDbSpline
210
0.0
220
0.0
230
1.0
 70
     8
 71
     3
 72
     8
 73
     4
 74
     0
 42
0.000000001
 43
0.0000000001
 40
0.0
 40
0.0
 40
0.0
 40
0.0
 40
0.1323994160590046
 40
0.1323994160590046
 40
0.1323994160590046
 40
0.1323994160590046
 10
5890.641182080187
 20
3884.163783871068
 30
0.0
 10
5890.641182080187
 20
3883.501786790773
 30
0.0
 10
5890.57544606004
 20
3882.832270698488
 30
0.0
 10
5890.450128260457
 20
3882.1624457357
 30
0.0
1001
REVIT
1002
{
1070
     1
1000
165616
1002
}
1002
{
1070
     2
1000
-2000051
1002
}
1002
{
1070
     3
1000
-2000077
1002
}
  0
SPLINE
  5
C4
330
70
100
AcDbEntity
  8
A-DETL
100
AcDbSpline
210
0.0
220
0.0
230
1.0
 70
     8
 71
     3
 72
     8
 73
     4
 74
     0
 42
0.000000001
 43
0.0000000001
 40
3.058808035301203
 40
3.058808035301203
 40
3.058808035301203
 40
3.058808035301203
 40
4.12310562561766
 40
4.12310562561766
 40
4.12310562561766
 40
4.12310562561766
 10
5888.15876586991
 20
3899.822648325205
 30
0.0
 10
5889.64171499717
 20
3894.683719753693
 30
0.0
 10
5890.641182080187
 20
3889.48527182265
 30
0.0
 10
5890.641182080187
 20
3884.163783871068
 30
0.0
1001
REVIT
1002
{
1070
     1
1000
165616
1002
}
1002
{
1070
     2
1000
-2000051
1002
}
1002
{
1070
     3
1000
-2000077
1002
}
  0
SPLINE
  5
C5
330
70
100
AcDbEntity
  8
A-DETL
100
AcDbSpline
210
0.0
220
0.0
230
1.0
 70
     8
 71
     3
 72
     9
 73
     5
 74
     0
 42
0.000000001
 43
0.0000000001
 40
0.0
 40
0.0
 40
0.0
 40
0.0
 40
1.414213562373095
 40
1.572776901173805
 40
1.572776901173805
 40
1.572776901173805
 40
1.572776901173805
 10
5905.641182080188
 20
3944.163783871069
 30
0.0
 10
5905.641182080188
 20
3951.234851682934
 30
0.0
 10
5897.300272989332
 20
3960.05278535877
 30
0.0
 10
5888.959363898483
 20
3959.064107946696
 30
0.0
 10
5888.129026015579
 20
3958.877141038441
 30
0.0
1001
REVIT
1002
{
1070
     1
1000
165616
1002
}
1002
{
1070
     2
1000
-2000051
1002
}
1002
{
1070
     3
1000
-2000077
1002
}
  0
SPLINE
  5
C6
330
70
100
AcDbEntity
  8
A-DETL
100
AcDbSpline
210
0.0
220
0.0
230
1.0
 70
     8
 71
     3
 72
     8
 73
     4
 74
     0
 42
0.000000001
 43
0.0000000001
 40
0.0
 40
0.0
 40
0.0
 40
0.0
 40
4.12310562561766
 40
4.12310562561766
 40
4.12310562561766
 40
4.12310562561766
 10
5890.641182080187
 20
3884.163783871068
 30
0.0
 10
5890.641182080187
 20
3904.779311999156
 30
0.0
 10
5905.641182080188
 20
3923.54825574298
 30
0.0
 10
5905.641182080188
 20
3944.163783871069
 30
0.0
1001
REVIT
1002
{
1070
     1
1000
165616
1002
}
1002
{
1070
     2
1000
-2000051
1002
}
1002
{
1070
     3
1000
-2000077
1002
}
  0
SPLINE
  5
C7
330
70
100
AcDbEntity
  8
A-DETL
100
AcDbSpline
210
0.0
220
0.0
230
1.0
 70
     8
 71
     3
 72
     9
 73
     5
 74
     0
 42
0.000000001
 43
0.0000000001
 40
0.0
 40
0.0
 40
0.0
 40
0.0
 40
1.414213562373095
 40
2.149558055952878
 40
2.149558055952878
 40
2.149558055952878
 40
2.149558055952878
 10
5920.641182080188
 20
3884.163783871068
 30
0.0
 10
5920.641182080188
 20
3877.092716059202
 30
0.0
 10
5909.241428995798
 20
3865.04100017019
 30
0.0
 10
5897.841675911411
 20
3871.307495664904
 30
0.0
 10
5894.996282541761
 20
3874.359660010028
 30
0.0
1001
REVIT
1002
{
1070
     1
1000
165616
1002
}
1002
{
1070
     2
1000
-2000051
1002
}
1002
{
1070
     3
1000
-2000077
1002
}
  0
SPLINE
  5
C8
330
70
100
AcDbEntity
  8
A-DETL
100
AcDbSpline
210
0.0
220
0.0
230
1.0
 70
     8
 71
     3
 72
     8
 73
     4
 74
     0
 42
0.000000001
 43
0.0000000001
 40
2.683575191826342
 40
2.683575191826342
 40
2.683575191826342
 40
2.683575191826342
 40
2.82842712474619
 40
2.82842712474619
 40
2.82842712474619
 40
2.82842712474619
 10
5890.869171359553
 20
3881.97344708533
 30
0.0
 10
5890.719864889452
 20
3882.706264651324
 30
0.0
 10
5890.641182080187
 20
3883.439524206469
 30
0.0
 10
5890.641182080187
 20
3884.163783871068
 30
0.0
1001
REVIT
1002
{
1070
     1
1000
165616
1002
}
1002
{
1070
     2
1000
-2000051
1002
}
1002
{
1070
     3
1000
-2000077
1002
}
  0
SPLINE
  5
C9
330
70
100
AcDbEntity
  8
A-DETL
100
AcDbSpline
210
0.0
220
0.0
230
1.0
 70
     8
 71
     3
 72
     8
 73
     4
 74
     0
 42
0.000000001
 43
0.0000000001
 40
0.0
 40
0.0
 40
0.0
 40
0.0
 40
4.12310562561766
 40
4.12310562561766
 40
4.12310562561766
 40
4.12310562561766
 10
5905.641182080188
 20
3944.163783871069
 30
0.0
 10
5905.641182080188
 20
3923.54825574298
 30
0.0
 10
5920.641182080189
 20
3904.779311999157
 30
0.0
 10
5920.641182080188
 20
3884.163783871068
 30
0.0
1001
REVIT
1002
{
1070
     1
1000
165616
1002
}
1002
{
1070
     2
1000
-2000051
1002
}
1002
{
1070
     3
1000
-2000077
1002
}
  0
SPLINE
  5
CA
330
70
100
AcDbEntity
  8
A-DETL
100
AcDbSpline
210
0.0
220
0.0
230
1.0
 70
     8
 71
     3
 72
     9
 73
     5
 74
     0
 42
0.000000001
 43
0.0000000001
 40
0.0
 40
0.0
 40
0.0
 40
0.0
 40
1.414213562373095
 40
2.82842712474619
 40
2.82842712474619
 40
2.82842712474619
 40
2.82842712474619
 10
5935.641182080188
 20
3944.163783871068
 30
0.0
 10
5935.641182080188
 20
3951.234851682933
 30
0.0
 10
5920.641182080187
 20
3967.092716059202
 30
0.0
 10
5905.64118208019
 20
3951.234851682933
 30
0.0
 10
5905.641182080188
 20
3944.163783871068
 30
0.0
1001
REVIT
1002
{
1070
     1
1000
165616
1002
}
1002
{
1070
     2
1000
-2000051
1002
}
1002
{
1070
     3
1000
-2000077
1002
}
  0
SPLINE
  5
CB
330
70
100
AcDbEntity
  8
A-DETL
100
AcDbSpline
210
0.0
220
0.0
230
1.0
 70
     8
 71
     3
 72
     8
 73
     4
 74
     0
 42
0.000000001
 43
0.0000000001
 40
0.0
 40
0.0
 40
0.0
 40
0.0
 40
4.12310562561766
 40
4.12310562561766
 40
4.12310562561766
 40
4.12310562561766
 10
5920.641182080188
 20
3884.163783871068
 30
0.0
 10
5920.641182080188
 20
3904.779311999156
 30
0.0
 10
5935.641182080188
 20
3923.54825574298
 30
0.0
 10
5935.641182080188
 20
3944.163783871069
 30
0.0
1001
REVIT
1002
{
1070
     1
1000
165616
1002
}
1002
{
1070
     2
1000
-2000051
1002
}
1002
{
1070
     3
1000
-2000077
1002
}
  0
SPLINE
  5
CC
330
70
100
AcDbEntity
  8
A-DETL
100
AcDbSpline
210
0.0
220
0.0
230
1.0
 70
     8
 71
     3
 72
     9
 73
     5
 74
     0
 42
0.000000001
 43
0.0000000001
 40
0.0
 40
0.0
 40
0.0
 40
0.0
 40
1.414213562373095
 40
2.82842712474619
 40
2.82842712474619
 40
2.82842712474619
 40
2.82842712474619
 10
5950.641182080188
 20
3884.163783871068
 30
0.0
 10
5950.641182080188
 20
3877.092716059202
 30
0.0
 10
5935.641182080189
 20
3861.234851682934
 30
0.0
 10
5920.641182080188
 20
3877.092716059203
 30
0.0
 10
5920.641182080188
 20
3884.163783871069
 30
0.0
1001
REVIT
1002
{
1070
     1
1000
165616
1002
}
1002
{
1070
     2
1000
-2000051
1002
}
1002
{
1070
     3
1000
-2000077
1002
}
  0
SPLINE
  5
CD
330
70
100
AcDbEntity
  8
A-DETL
100
AcDbSpline
210
0.0
220
0.0
230
1.0
 70
     8
 71
     3
 72
     8
 73
     4
 74
     0
 42
0.000000001
 43
0.0000000001
 40
0.0
 40
0.0
 40
0.0
 40
0.0
 40
4.12310562561766
 40
4.12310562561766
 40
4.12310562561766
 40
4.12310562561766
 10
5935.641182080188
 20
3944.163783871068
 30
0.0
 10
5935.641182080188
 20
3923.54825574298
 30
0.0
 10
5950.641182080188
 20
3904.779311999156
 30
0.0
 10
5950.641182080187
 20
3884.163783871067
 30
0.0
1001
REVIT
1002
{
1070
     1
1000
165616
1002
}
1002
{
1070
     2
1000
-2000051
1002
}
1002
{
1070
     3
1000
-2000077
1002
}
  0
SPLINE
  5
CE
330
70
100
AcDbEntity
  8
A-DETL
100
AcDbSpline
210
0.0
220
0.0
230
1.0
 70
     8
 71
     3
 72
     9
 73
     5
 74
     0
 42
0.000000001
 43
0.0000000001
 40
0.0
 40
0.0
 40
0.0
 40
0.0
 40
1.414213562373095
 40
2.82842712474619
 40
2.82842712474619
 40
2.82842712474619
 40
2.82842712474619
 10
5965.641182080188
 20
3944.163783871068
 30
0.0
 10
5965.641182080188
 20
3951.234851682933
 30
0.0
 10
5950.641182080189
 20
3967.092716059201
 30
0.0
 10
5935.64118208019
 20
3951.234851682932
 30
0.0
 10
5935.641182080188
 20
3944.163783871069
 30
0.0
1001
REVIT
1002
{
1070
     1
1000
165616
1002
}
1002
{
1070
     2
1000
-2000051
1002
}
1002
{
1070
     3
1000
-2000077
1002
}
  0
SPLINE
  5
CF
330
70
100
AcDbEntity
  8
A-DETL
100
AcDbSpline
210
0.0
220
0.0
230
1.0
 70
     8
 71
     3
 72
     8
 73
     4
 74
     0
 42
0.000000001
 43
0.0000000001
 40
0.0
 40
0.0
 40
0.0
 40
0.0
 40
4.12310562561766
 40
4.12310562561766
 40
4.12310562561766
 40
4.12310562561766
 10
5950.641182080188
 20
3884.163783871068
 30
0.0
 10
5950.641182080188
 20
3904.779311999156
 30
0.0
 10
5965.641182080187
 20
3923.54825574298
 30
0.0
 10
5965.641182080188
 20
3944.163783871069
 30
0.0
1001
REVIT
1002
{
1070
     1
1000
165616
1002
}
1002
{
1070
     2
1000
-2000051
1002
}
1002
{
1070
     3
1000
-2000077
1002
}
  0
SPLINE
  5
D0
330
70
100
AcDbEntity
  8
A-DETL
100
AcDbSpline
210
0.0
220
0.0
230
1.0
 70
     8
 71
     3
 72
     9
 73
     5
 74
     0
 42
0.000000001
 43
0.0000000001
 40
0.0
 40
0.0
 40
0.0
 40
0.0
 40
1.414213562373095
 40
2.82842712474619
 40
2.82842712474619
 40
2.82842712474619
 40
2.82842712474619
 10
5980.641182080187
 20
3884.163783871068
 30
0.0
 10
5980.641182080187
 20
3877.092716059202
 30
0.0
 10
5965.641182080188
 20
3861.234851682934
 30
0.0
 10
5950.641182080187
 20
3877.092716059203
 30
0.0
 10
5950.641182080189
 20
3884.163783871068
 30
0.0
1001
REVIT
1002
{
1070
     1
1000
165616
1002
}
1002
{
1070
     2
1000
-2000051
1002
}
1002
{
1070
     3
1000
-2000077
1002
}
  0
SPLINE
  5
D1
330
70
100
AcDbEntity
  8
A-DETL
100
AcDbSpline
210
0.0
220
0.0
230
1.0
 70
     8
 71
     3
 72
     8
 73
     4
 74
     0
 42
0.000000001
 43
0.0000000001
 40
0.0
 40
0.0
 40
0.0
 40
0.0
 40
4.12310562561766
 40
4.12310562561766
 40
4.12310562561766
 40
4.12310562561766
 10
5965.641182080188
 20
3944.163783871068
 30
0.0
 10
5965.641182080188
 20
3923.54825574298
 30
0.0
 10
5980.641182080188
 20
3904.779311999156
 30
0.0
 10
5980.641182080187
 20
3884.163783871067
 30
0.0
1001
REVIT
1002
{
1070
     1
1000
165616
1002
}
1002
{
1070
     2
1000
-2000051
1002
}
1002
{
1070
     3
1000
-2000077
1002
}
  0
SPLINE
  5
D2
330
70
100
AcDbEntity
  8
A-DETL
100
AcDbSpline
210
0.0
220
0.0
230
1.0
 70
     8
 71
     3
 72
     9
 73
     5
 74
     0
 42
0.000000001
 43
0.0000000001
 40
0.0
 40
0.0
 40
0.0
 40
0.0
 40
1.414213562373095
 40
2.82842712474619
 40
2.82842712474619
 40
2.82842712474619
 40
2.82842712474619
 10
5995.641182080189
 20
3944.163783871068
 30
0.0
 10
5995.641182080189
 20
3951.234851682933
 30
0.0
 10
5980.641182080187
 20
3967.092716059201
 30
0.0
 10
5965.641182080188
 20
3951.234851682932
 30
0.0
 10
5965.641182080187
 20
3944.163783871069
 30
0.0
1001
REVIT
1002
{
1070
     1
1000
165616
1002
}
1002
{
1070
     2
1000
-2000051
1002
}
1002
{
1070
     3
1000
-2000077
1002
}
  0
SPLINE
  5
D3
330
70
100
AcDbEntity
  8
A-DETL
100
AcDbSpline
210
0.0
220
0.0
230
1.0
 70
     8
 71
     3
 72
     8
 73
     4
 74
     0
 42
0.000000001
 43
0.0000000001
 40
0.0
 40
0.0
 40
0.0
 40
0.0
 40
4.12310562561766
 40
4.12310562561766
 40
4.12310562561766
 40
4.12310562561766
 10
5980.641182080187
 20
3884.163783871068
 30
0.0
 10
5980.641182080187
 20
3904.779311999156
 30
0.0
 10
5995.641182080189
 20
3923.54825574298
 30
0.0
 10
5995.641182080189
 20
3944.163783871069
 30
0.0
1001
REVIT
1002
{
1070
     1
1000
165616
1002
}
1002
{
1070
     2
1000
-2000051
1002
}
1002
{
1070
     3
1000
-2000077
1002
}
  0
SPLINE
  5
D4
330
70
100
AcDbEntity
  8
A-DETL
100
AcDbSpline
210
0.0
220
0.0
230
1.0
 70
     8
 71
     3
 72
     9
 73
     5
 74
     0
 42
0.000000001
 43
0.0000000001
 40
0.0
 40
0.0
 40
0.0
 40
0.0
 40
1.414213562373095
 40
2.82842712474619
 40
2.82842712474619
 40
2.82842712474619
 40
2.82842712474619
 10
6010.641182080188
 20
3884.163783871068
 30
0.0
 10
6010.641182080188
 20
3877.092716059202
 30
0.0
 10
5995.641182080189
 20
3861.234851682934
 30
0.0
 10
5980.641182080188
 20
3877.092716059203
 30
0.0
 10
5980.641182080187
 20
3884.163783871068
 30
0.0
1001
REVIT
1002
{
1070
     1
1000
165616
1002
}
1002
{
1070
     2
1000
-2000051
1002
}
1002
{
1070
     3
1000
-2000077
1002
}
  0
SPLINE
  5
D5
330
70
100
AcDbEntity
  8
A-DETL
100
AcDbSpline
210
0.0
220
0.0
230
1.0
 70
     8
 71
     3
 72
     8
 73
     4
 74
     0
 42
0.000000001
 43
0.0000000001
 40
0.0
 40
0.0
 40
0.0
 40
0.0
 40
4.12310562561766
 40
4.12310562561766
 40
4.12310562561766
 40
4.12310562561766
 10
5995.641182080189
 20
3944.163783871068
 30
0.0
 10
5995.641182080189
 20
3923.54825574298
 30
0.0
 10
6010.641182080189
 20
3904.779311999156
 30
0.0
 10
6010.641182080189
 20
3884.163783871067
 30
0.0
1001
REVIT
1002
{
1070
     1
1000
165616
1002
}
1002
{
1070
     2
1000
-2000051
1002
}
1002
{
1070
     3
1000
-2000077
1002
}
  0
SPLINE
  5
D6
330
70
100
AcDbEntity
  8
A-DETL
100
AcDbSpline
210
0.0
220
0.0
230
1.0
 70
     8
 71
     3
 72
     9
 73
     5
 74
     0
 42
0.000000001
 43
0.0000000001
 40
0.0
 40
0.0
 40
0.0
 40
0.0
 40
1.414213562373095
 40
2.82842712474619
 40
2.82842712474619
 40
2.82842712474619
 40
2.82842712474619
 10
6025.641182080189
 20
3944.163783871068
 30
0.0
 10
6025.641182080189
 20
3951.234851682933
 30
0.0
 10
6010.641182080189
 20
3967.092716059201
 30
0.0
 10
5995.64118208019
 20
3951.234851682932
 30
0.0
 10
5995.641182080189
 20
3944.163783871069
 30
0.0
1001
REVIT
1002
{
1070
     1
1000
165616
1002
}
1002
{
1070
     2
1000
-2000051
1002
}
1002
{
1070
     3
1000
-2000077
1002
}
  0
SPLINE
  5
D7
330
70
100
AcDbEntity
  8
A-DETL
100
AcDbSpline
210
0.0
220
0.0
230
1.0
 70
     8
 71
     3
 72
     8
 73
     4
 74
     0
 42
0.000000001
 43
0.0000000001
 40
0.0
 40
0.0
 40
0.0
 40
0.0
 40
4.12310562561766
 40
4.12310562561766
 40
4.12310562561766
 40
4.12310562561766
 10
6010.641182080188
 20
3884.163783871068
 30
0.0
 10
6010.641182080188
 20
3904.779311999156
 30
0.0
 10
6025.641182080187
 20
3923.54825574298
 30
0.0
 10
6025.641182080187
 20
3944.163783871069
 30
0.0
1001
REVIT
1002
{
1070
     1
1000
165616
1002
}
1002
{
1070
     2
1000
-2000051
1002
}
1002
{
1070
     3
1000
-2000077
1002
}
  0
SPLINE
  5
D8
330
70
100
AcDbEntity
  8
A-DETL
100
AcDbSpline
210
0.0
220
0.0
230
1.0
 70
     8
 71
     3
 72
     9
 73
     5
 74
     0
 42
0.000000001
 43
0.0000000001
 40
0.0
 40
0.0
 40
0.0
 40
0.0
 40
1.414213562373095
 40
2.82842712474619
 40
2.82842712474619
 40
2.82842712474619
 40
2.82842712474619
 10
6040.641182080188
 20
3884.163783871068
 30
0.0
 10
6040.641182080188
 20
3877.092716059202
 30
0.0
 10
6025.641182080189
 20
3861.234851682934
 30
0.0
 10
6010.641182080189
 20
3877.092716059203
 30
0.0
 10
6010.641182080188
 20
3884.163783871068
 30
0.0
1001
REVIT
1002
{
1070
     1
1000
165616
1002
}
1002
{
1070
     2
1000
-2000051
1002
}
1002
{
1070
     3
1000
-2000077
1002
}
  0
SPLINE
  5
D9
330
70
100
AcDbEntity
  8
A-DETL
100
AcDbSpline
210
0.0
220
0.0
230
1.0
 70
     8
 71
     3
 72
     8
 73
     4
 74
     0
 42
0.000000001
 43
0.0000000001
 40
0.0
 40
0.0
 40
0.0
 40
0.0
 40
4.12310562561766
 40
4.12310562561766
 40
4.12310562561766
 40
4.12310562561766
 10
6025.641182080189
 20
3944.163783871068
 30
0.0
 10
6025.641182080189
 20
3923.54825574298
 30
0.0
 10
6040.641182080188
 20
3904.779311999156
 30
0.0
 10
6040.641182080188
 20
3884.163783871067
 30
0.0
1001
REVIT
1002
{
1070
     1
1000
165616
1002
}
1002
{
1070
     2
1000
-2000051
1002
}
1002
{
1070
     3
1000
-2000077
1002
}
  0
SPLINE
  5
DA
330
70
100
AcDbEntity
  8
A-DETL
100
AcDbSpline
210
0.0
220
0.0
230
1.0
 70
     8
 71
     3
 72
     9
 73
     5
 74
     0
 42
0.000000001
 43
0.0000000001
 40
0.0
 40
0.0
 40
0.0
 40
0.0
 40
1.414213562373095
 40
2.82842712474619
 40
2.82842712474619
 40
2.82842712474619
 40
2.82842712474619
 10
6055.641182080187
 20
3944.163783871068
 30
0.0
 10
6055.641182080187
 20
3951.234851682933
 30
0.0
 10
6040.641182080187
 20
3967.092716059201
 30
0.0
 10
6025.641182080189
 20
3951.234851682932
 30
0.0
 10
6025.641182080189
 20
3944.163783871069
 30
0.0
1001
REVIT
1002
{
1070
     1
1000
165616
1002
}
1002
{
1070
     2
1000
-2000051
1002
}
1002
{
1070
     3
1000
-2000077
1002
}
  0
SPLINE
  5
DB
330
70
100
AcDbEntity
  8
A-DETL
100
AcDbSpline
210
0.0
220
0.0
230
1.0
 70
     8
 71
     3
 72
     8
 73
     4
 74
     0
 42
0.000000001
 43
0.0000000001
 40
0.0
 40
0.0
 40
0.0
 40
0.0
 40
4.12310562561766
 40
4.12310562561766
 40
4.12310562561766
 40
4.12310562561766
 10
6040.641182080188
 20
3884.163783871068
 30
0.0
 10
6040.641182080188
 20
3904.779311999156
 30
0.0
 10
6055.641182080187
 20
3923.54825574298
 30
0.0
 10
6055.641182080186
 20
3944.163783871069
 30
0.0
1001
REVIT
1002
{
1070
     1
1000
165616
1002
}
1002
{
1070
     2
1000
-2000051
1002
}
1002
{
1070
     3
1000
-2000077
1002
}
  0
SPLINE
  5
DC
330
70
100
AcDbEntity
  8
A-DETL
100
AcDbSpline
210
0.0
220
0.0
230
1.0
 70
     8
 71
     3
 72
     9
 73
     5
 74
     0
 42
0.000000001
 43
0.0000000001
 40
0.0
 40
0.0
 40
0.0
 40
0.0
 40
1.414213562373095
 40
2.82842712474619
 40
2.82842712474619
 40
2.82842712474619
 40
2.82842712474619
 10
6070.641182080187
 20
3884.163783871068
 30
0.0
 10
6070.641182080187
 20
3877.092716059202
 30
0.0
 10
6055.641182080187
 20
3861.234851682934
 30
0.0
 10
6040.641182080188
 20
3877.092716059203
 30
0.0
 10
6040.641182080187
 20
3884.163783871068
 30
0.0
1001
REVIT
1002
{
1070
     1
1000
165616
1002
}
1002
{
1070
     2
1000
-2000051
1002
}
1002
{
1070
     3
1000
-2000077
1002
}
  0
SPLINE
  5
DD
330
70
100
AcDbEntity
  8
A-DETL
100
AcDbSpline
210
0.0
220
0.0
230
1.0
 70
     8
 71
     3
 72
     8
 73
     4
 74
     0
 42
0.000000001
 43
0.0000000001
 40
0.0
 40
0.0
 40
0.0
 40
0.0
 40
4.12310562561766
 40
4.12310562561766
 40
4.12310562561766
 40
4.12310562561766
 10
6055.641182080187
 20
3944.163783871068
 30
0.0
 10
6055.641182080187
 20
3923.54825574298
 30
0.0
 10
6070.641182080189
 20
3904.779311999156
 30
0.0
 10
6070.641182080189
 20
3884.163783871067
 30
0.0
1001
REVIT
1002
{
1070
     1
1000
165616
1002
}
1002
{
1070
     2
1000
-2000051
1002
}
1002
{
1070
     3
1000
-2000077
1002
}
  0
SPLINE
  5
DE
330
70
100
AcDbEntity
  8
A-DETL
100
AcDbSpline
210
0.0
220
0.0
230
1.0
 70
     8
 71
     3
 72
     9
 73
     5
 74
     0
 42
0.000000001
 43
0.0000000001
 40
0.0
 40
0.0
 40
0.0
 40
0.0
 40
1.414213562373095
 40
2.82842712474619
 40
2.82842712474619
 40
2.82842712474619
 40
2.82842712474619
 10
6085.641182080188
 20
3944.163783871067
 30
0.0
 10
6085.641182080188
 20
3951.234851682933
 30
0.0
 10
6070.641182080189
 20
3967.092716059202
 30
0.0
 10
6055.641182080188
 20
3951.234851682932
 30
0.0
 10
6055.641182080187
 20
3944.163783871069
 30
0.0
1001
REVIT
1002
{
1070
     1
1000
165616
1002
}
1002
{
1070
     2
1000
-2000051
1002
}
1002
{
1070
     3
1000
-2000077
1002
}
  0
SPLINE
  5
DF
330
70
100
AcDbEntity
  8
A-DETL
100
AcDbSpline
210
0.0
220
0.0
230
1.0
 70
     8
 71
     3
 72
     8
 73
     4
 74
     0
 42
0.000000001
 43
0.0000000001
 40
0.0
 40
0.0
 40
0.0
 40
0.0
 40
4.12310562561766
 40
4.12310562561766
 40
4.12310562561766
 40
4.12310562561766
 10
6070.641182080187
 20
3884.163783871068
 30
0.0
 10
6070.641182080187
 20
3904.779311999156
 30
0.0
 10
6085.641182080187
 20
3923.548255742979
 30
0.0
 10
6085.641182080187
 20
3944.163783871067
 30
0.0
1001
REVIT
1002
{
1070
     1
1000
165616
1002
}
1002
{
1070
     2
1000
-2000051
1002
}
1002
{
1070
     3
1000
-2000077
1002
}
  0
SPLINE
  5
E0
330
70
100
AcDbEntity
  8
A-DETL
100
AcDbSpline
210
0.0
220
0.0
230
1.0
 70
     8
 71
     3
 72
     9
 73
     5
 74
     0
 42
0.000000001
 43
0.0000000001
 40
0.0
 40
0.0
 40
0.0
 40
0.0
 40
1.414213562373095
 40
2.82842712474619
 40
2.82842712474619
 40
2.82842712474619
 40
2.82842712474619
 10
6100.641182080188
 20
3884.163783871067
 30
0.0
 10
6100.641182080188
 20
3877.092716059202
 30
0.0
 10
6085.641182080187
 20
3861.234851682933
 30
0.0
 10
6070.641182080189
 20
3877.092716059202
 30
0.0
 10
6070.641182080187
 20
3884.163783871068
 30
0.0
1001
REVIT
1002
{
1070
     1
1000
165616
1002
}
1002
{
1070
     2
1000
-2000051
1002
}
1002
{
1070
     3
1000
-2000077
1002
}
  0
SPLINE
  5
E1
330
70
100
AcDbEntity
  8
A-DETL
100
AcDbSpline
210
0.0
220
0.0
230
1.0
 70
     8
 71
     3
 72
     8
 73
     4
 74
     0
 42
0.000000001
 43
0.0000000001
 40
0.0
 40
0.0
 40
0.0
 40
0.0
 40
4.12310562561766
 40
4.12310562561766
 40
4.12310562561766
 40
4.12310562561766
 10
6085.641182080188
 20
3944.163783871067
 30
0.0
 10
6085.641182080188
 20
3923.548255742979
 30
0.0
 10
6100.641182080188
 20
3904.779311999155
 30
0.0
 10
6100.641182080188
 20
3884.163783871066
 30
0.0
1001
REVIT
1002
{
1070
     1
1000
165616
1002
}
1002
{
1070
     2
1000
-2000051
1002
}
1002
{
1070
     3
1000
-2000077
1002
}
  0
SPLINE
  5
E2
330
70
100
AcDbEntity
  8
A-DETL
100
AcDbSpline
210
0.0
220
0.0
230
1.0
 70
     8
 71
     3
 72
     9
 73
     5
 74
     0
 42
0.000000001
 43
0.0000000001
 40
0.0
 40
0.0
 40
0.0
 40
0.0
 40
1.414213562373095
 40
2.82842712474619
 40
2.82842712474619
 40
2.82842712474619
 40
2.82842712474619
 10
6115.641182080189
 20
3944.163783871067
 30
0.0
 10
6115.641182080189
 20
3951.234851682933
 30
0.0
 10
6100.641182080189
 20
3967.092716059201
 30
0.0
 10
6085.64118208019
 20
3951.234851682932
 30
0.0
 10
6085.641182080188
 20
3944.163783871067
 30
0.0
1001
REVIT
1002
{
1070
     1
1000
165616
1002
}
1002
{
1070
     2
1000
-2000051
1002
}
1002
{
1070
     3
1000
-2000077
1002
}
  0
SPLINE
  5
E3
330
70
100
AcDbEntity
  8
A-DETL
100
AcDbSpline
210
0.0
220
0.0
230
1.0
 70
     8
 71
     3
 72
     8
 73
     4
 74
     0
 42
0.000000001
 43
0.0000000001
 40
0.0
 40
0.0
 40
0.0
 40
0.0
 40
4.12310562561766
 40
4.12310562561766
 40
4.12310562561766
 40
4.12310562561766
 10
6100.641182080188
 20
3884.163783871067
 30
0.0
 10
6100.641182080188
 20
3904.779311999155
 30
0.0
 10
6115.641182080187
 20
3923.548255742979
 30
0.0
 10
6115.641182080189
 20
3944.163783871068
 30
0.0
1001
REVIT
1002
{
1070
     1
1000
165616
1002
}
1002
{
1070
     2
1000
-2000051
1002
}
1002
{
1070
     3
1000
-2000077
1002
}
  0
SPLINE
  5
E4
330
70
100
AcDbEntity
  8
A-DETL
100
AcDbSpline
210
0.0
220
0.0
230
1.0
 70
     8
 71
     3
 72
     9
 73
     5
 74
     0
 42
0.000000001
 43
0.0000000001
 40
0.0
 40
0.0
 40
0.0
 40
0.0
 40
1.414213562373095
 40
2.82842712474619
 40
2.82842712474619
 40
2.82842712474619
 40
2.82842712474619
 10
6130.641182080188
 20
3884.163783871067
 30
0.0
 10
6130.641182080188
 20
3877.092716059202
 30
0.0
 10
6115.641182080189
 20
3861.234851682933
 30
0.0
 10
6100.641182080188
 20
3877.092716059202
 30
0.0
 10
6100.641182080189
 20
3884.163783871067
 30
0.0
1001
REVIT
1002
{
1070
     1
1000
165616
1002
}
1002
{
1070
     2
1000
-2000051
1002
}
1002
{
1070
     3
1000
-2000077
1002
}
  0
SPLINE
  5
E5
330
70
100
AcDbEntity
  8
A-DETL
100
AcDbSpline
210
0.0
220
0.0
230
1.0
 70
     8
 71
     3
 72
     8
 73
     4
 74
     0
 42
0.000000001
 43
0.0000000001
 40
0.0
 40
0.0
 40
0.0
 40
0.0
 40
4.12310562561766
 40
4.12310562561766
 40
4.12310562561766
 40
4.12310562561766
 10
6115.641182080189
 20
3944.163783871067
 30
0.0
 10
6115.641182080189
 20
3923.548255742979
 30
0.0
 10
6130.641182080189
 20
3904.779311999155
 30
0.0
 10
6130.641182080188
 20
3884.163783871066
 30
0.0
1001
REVIT
1002
{
1070
     1
1000
165616
1002
}
1002
{
1070
     2
1000
-2000051
1002
}
1002
{
1070
     3
1000
-2000077
1002
}
  0
SPLINE
  5
E6
330
70
100
AcDbEntity
  8
A-DETL
100
AcDbSpline
210
0.0
220
0.0
230
1.0
 70
     8
 71
     3
 72
     9
 73
     5
 74
     0
 42
0.000000001
 43
0.0000000001
 40
0.0
 40
0.0
 40
0.0
 40
0.0
 40
1.414213562373095
 40
2.82842712474619
 40
2.82842712474619
 40
2.82842712474619
 40
2.82842712474619
 10
6145.641182080187
 20
3944.163783871067
 30
0.0
 10
6145.641182080187
 20
3951.234851682933
 30
0.0
 10
6130.641182080187
 20
3967.092716059201
 30
0.0
 10
6115.64118208019
 20
3951.234851682932
 30
0.0
 10
6115.641182080189
 20
3944.163783871067
 30
0.0
1001
REVIT
1002
{
1070
     1
1000
165616
1002
}
1002
{
1070
     2
1000
-2000051
1002
}
1002
{
1070
     3
1000
-2000077
1002
}
  0
SPLINE
  5
E7
330
70
100
AcDbEntity
  8
A-DETL
100
AcDbSpline
210
0.0
220
0.0
230
1.0
 70
     8
 71
     3
 72
     8
 73
     4
 74
     0
 42
0.000000001
 43
0.0000000001
 40
0.0
 40
0.0
 40
0.0
 40
0.0
 40
4.12310562561766
 40
4.12310562561766
 40
4.12310562561766
 40
4.12310562561766
 10
6130.641182080188
 20
3884.163783871067
 30
0.0
 10
6130.641182080188
 20
3904.779311999155
 30
0.0
 10
6145.641182080187
 20
3923.548255742979
 30
0.0
 10
6145.641182080187
 20
3944.163783871068
 30
0.0
1001
REVIT
1002
{
1070
     1
1000
165616
1002
}
1002
{
1070
     2
1000
-2000051
1002
}
1002
{
1070
     3
1000
-2000077
1002
}
  0
SPLINE
  5
E8
330
70
100
AcDbEntity
  8
A-DETL
100
AcDbSpline
210
0.0
220
0.0
230
1.0
 70
     8
 71
     3
 72
     8
 73
     4
 74
     0
 42
0.000000001
 43
0.0000000001
 40
0.0
 40
0.0
 40
0.0
 40
0.0
 40
1.414213562373095
 40
1.414213562373095
 40
1.414213562373095
 40
1.414213562373095
 10
6145.641182080187
 20
3869.163783871067
 30
0.0
 10
6138.570114268322
 20
3869.163783871067
 30
0.0
 10
6130.641182080188
 20
3877.092716059201
 30
0.0
 10
6130.641182080188
 20
3884.163783871067
 30
0.0
1001
REVIT
1002
{
1070
     1
1000
165616
1002
}
1002
{
1070
     2
1000
-2000051
1002
}
1002
{
1070
     3
1000
-2000077
1002
}
  0
INSERT
  5
F1
330
70
100
AcDbEntity
  8
A-DETL-GENF
100
AcDbBlockReference
  2
4594_Packer - Timber Packer H3_2-84019-W-TRSIL-05-V-G - Garage Door Jamb Flashing Detail _Vertical_
 10
6398.651277035482
 20
3706.303179093149
 30
0.0
 50
90.00000000000005
1001
REVIT
1002
{
1070
     1
1000
165609
1002
}
1002
{
1070
     5
1000
59780
1002
}
1002
{
1070
     2
1000
-2002000
1002
}
  0
INSERT
  5
105
330
70
100
AcDbEntity
  8
A-DETL-GENF
100
AcDbBlockReference
  2
4594_Jamb Liner - 19mm H3_1-164127-W-TRSIL-05-V-G - Garage Door Jamb Flashing Detail _Vertical_
 10
6312.315564408629
 20
3890.865667660488
 30
0.0
 50
90.00000000000005
1001
REVIT
1002
{
1070
     1
1000
165610
1002
}
1002
{
1070
     5
1000
83687
1002
}
1002
{
1070
     2
1000
-2002000
1002
}
  0
INSERT
  5
10E
330
70
100
AcDbEntity
  8
A-DETL-GENF
100
AcDbBlockReference
  2
4811_Air Seal w Foam - Airseal on PEF Backing Rod-84021-W-TRSIL-05-V-G - Garage Door Jamb Flashing Detail _Vertical_
 10
6299.491353949363
 20
3949.793976965637
 30
0.0
 50
270.0
1001
REVIT
1002
{
1070
     1
1000
165611
1002
}
1002
{
1070
     5
1000
59784
1002
}
1002
{
1070
     2
1000
-2002000
1002
}
  0
INSERT
  5
117
330
70
100
AcDbEntity
  8
A-DETL-GENF
100
AcDbBlockReference
  2
CAVIBAT Batten Profile - Non Cavibat-101292-W-TRSIL-05-V-G - Garage Door Jamb Flashing Detail _Vertical_
 10
6231.914977412098
 20
3863.187644284407
 30
0.0
 50
269.9999999999997
1001
REVIT
1002
{
1070
     1
1000
165612
1002
}
1002
{
1070
     5
1000
98797
1002
}
1002
{
1070
     2
1000
-2002000
1002
}
  0
LINE
  5
119
330
70
100
AcDbEntity
  8
A-DETL-THIN
100
AcDbLine
 10
6145.641182080187
 20
3869.163783871068
 30
0.0
 11
5888.141182080357
 21
3869.163783871071
 31
0.0
1001
REVIT
1002
{
1070
     1
1000
165615
1002
}
1002
{
1070
     2
1000
-2000051
1002
}
1002
{
1070
     3
1000
-2000042
1002
}
  0
INSERT
  5
121
330
70
100
AcDbEntity
  8
A-DETL-GENF
100
AcDbBlockReference
  2
CAVIBAT Batten Profile - Non Cavibat-V1-W-TRSIL-05-V-G - Garage Door Jamb Flashing Detail _Vertical_
 10
6180.664977412096
 20
3863.187644284407
 30
0.0
 50
269.9999999999997
1001
REVIT
1002
{
1070
     1
1000
165626
1002
}
1002
{
1070
     5
1000
98797
1002
}
1002
{
1070
     2
1000
-2002000
1002
}
  0
HATCH
  5
12B
330
70
100
AcDbEntity
  8
A-DETL-GENF
100
AcDbHatch
 10
0.0
 20
0.0
 30
0.0
210
0.0
220
0.0
230
1.0
  2
FP_2
 70
     0
 71
     0
 91
        2
 92
        0
 93
        4
 72
     1
 10
6180.664977412102
 20
3845.187644284412
 11
6180.664977412102
 21
3863.187644284412
 72
     1
 10
6180.664977412102
 20
3863.187644284412
 11
6122.6649774121
 21
3863.187644284412
 72
     1
 10
6122.6649774121
 20
3863.187644284412
 11
6122.6649774121
 21
3845.187644284412
 72
     1
 10
6122.6649774121
 20
3845.187644284412
 11
6180.664977412102
 21
3845.187644284412
 97
        0
 92
        0
 93
        5
 72
     1
 10
6075.664977412102
 20
3845.187644284412
 11
6075.664977412102
 21
3863.187644284412
 72
     1
 10
6075.664977412102
 20
3863.187644284412
 11
5888.141182080363
 21
3863.187644284414
 72
     1
 10
5888.141182080363
 20
3863.187644284414
 11
5888.141182080363
 21
3845.187644284413
 72
     1
 10
5888.141182080363
 20
3845.187644284413
 11
5912.436197117512
 21
3845.187644284413
 72
     1
 10
5912.436197117512
 20
3845.187644284413
 11
6075.664977412102
 21
3845.187644284412
 97
        0
 75
     0
 76
     2
 52
0.0
 41
1.0
 77
     0
 78
     2
 53
0.0
 43
0.0
 44
0.0
 45
0.0
 46
11.0
 79
     0
 53
90.0
 43
0.0
 44
0.0
 45
-11.0
 46
0.0000000000000007
 79
     0
 98
        1
 10
0.0
 20
0.0
1001
REVIT
1002
{
1070
     1
1000
165629
1002
}
1002
{
1070
     5
1000
14996
1002
}
1002
{
1070
     2
1000
-2002000
1002
}
  0
LINE
  5
12C
330
70
100
AcDbEntity
  8
A-DETL-THIN
100
AcDbLine
 10
5888.141182080357
 20
3845.18764428441
 30
0.0
 11
6075.664977412095
 21
3845.187644284408
 31
0.0
1001
REVIT
1002
{
1070
     1
1000
165629
1002
}
1002
{
1070
     5
1000
14996
1002
}
1002
{
1070
     2
1000
-2000051
1002
}
1002
{
1070
     3
1000
-2000042
1002
}
  0
LINE
  5
12D
330
70
100
AcDbEntity
  8
A-DETL-THIN
100
AcDbLine
 10
6122.664977412097
 20
3845.187644284408
 30
0.0
 11
6180.664977412096
 21
3845.187644284408
 31
0.0
1001
REVIT
1002
{
1070
     1
1000
165629
1002
}
1002
{
1070
     5
1000
14996
1002
}
1002
{
1070
     2
1000
-2000051
1002
}
1002
{
1070
     3
1000
-2000042
1002
}
  0
LINE
  5
12E
330
70
100
AcDbEntity
  8
A-DETL-THIN
100
AcDbLine
 10
6180.664977412096
 20
3845.187644284408
 30
0.0
 11
6180.664977412096
 21
3863.187644284409
 31
0.0
1001
REVIT
1002
{
1070
     1
1000
165629
1002
}
1002
{
1070
     5
1000
14996
1002
}
1002
{
1070
     2
1000
-2000051
1002
}
1002
{
1070
     3
1000
-2000042
1002
}
  0
LINE
  5
12F
330
70
100
AcDbEntity
  8
A-DETL-THIN
100
AcDbLine
 10
6180.664977412096
 20
3863.187644284409
 30
0.0
 11
6122.664977412097
 21
3863.187644284409
 31
0.0
1001
REVIT
1002
{
1070
     1
1000
165629
1002
}
1002
{
1070
     5
1000
14996
1002
}
1002
{
1070
     2
1000
-2000051
1002
}
1002
{
1070
     3
1000
-2000042
1002
}
  0
LINE
  5
130
330
70
100
AcDbEntity
  8
A-DETL-THIN
100
AcDbLine
 10
6075.664977412095
 20
3863.187644284409
 30
0.0
 11
5888.141182080357
 21
3863.18764428441
 31
0.0
1001
REVIT
1002
{
1070
     1
1000
165629
1002
}
1002
{
1070
     5
1000
14996
1002
}
1002
{
1070
     2
1000
-2000051
1002
}
1002
{
1070
     3
1000
-2000042
1002
}
  0
INSERT
  5
138
330
70
100
AcDbEntity
  8
A-DETL-GENF
100
AcDbBlockReference
  2
4594_Packer - Timber Packer H3_2-84030-W-TRSIL-05-V-G - Garage Door Jamb Flashing Detail _Vertical_
 10
6387.401277035483
 20
3750.518985119489
 30
0.0
 50
90.00000000000005
1001
REVIT
1002
{
1070
     1
1000
165634
1002
}
1002
{
1070
     5
1000
59780
1002
}
1002
{
1070
     2
1000
-2002000
1002
}
  0
INSERT
  5
141
330
70
100
AcDbEntity
  8
A-DETL-GENF
100
AcDbBlockReference
  2
4594_Packer - Timber Packer H3_2-84031-W-TRSIL-05-V-G - Garage Door Jamb Flashing Detail _Vertical_
 10
6387.401277035483
 20
3693.297541118856
 30
0.0
 50
90.00000000000005
1001
REVIT
1002
{
1070
     1
1000
165635
1002
}
1002
{
1070
     5
1000
59780
1002
}
1002
{
1070
     2
1000
-2002000
1002
}
  0
INSERT
  5
147
330
70
100
AcDbEntity
  8
A-DETL-GENF
100
AcDbBlockReference
  2
HP_WProof - Building Wrap - HP_WProof - Building Wrap-84032-W-TRSIL-05-V-G - Garage Door Jamb Flashing Detail _Vertical_
 10
5875.443906811838
 20
3866.207177194804
 30
0.0
 50
90.0
1001
REVIT
1002
{
1070
     1
1000
165636
1002
}
1002
{
1070
     5
1000
59792
1002
}
1002
{
1070
     2
1000
-2002000
1002
}
  0
INSERT
  5
14C
330
70
100
AcDbEntity
  8
A-DETL-GENF
100
AcDbBlockReference
  2
HP_WProof - Building Wrap - HP_WProof - Building Wrap-84033-W-TRSIL-05-V-G - Garage Door Jamb Flashing Detail _Vertical_
 10
6282.862974013987
 20
3957.127391703052
 30
0.0
1001
REVIT
1002
{
1070
     1
1000
165637
1002
}
1002
{
1070
     5
1000
59792
1002
}
1002
{
1070
     2
1000
-2002000
1002
}
  0
HATCH
  5
151
330
70
100
AcDbEntity
  8
A-DETL-GENF
100
AcDbHatch
 10
0.0
 20
0.0
 30
0.0
210
0.0
220
0.0
230
1.0
  2
FP_3
 70
     0
 71
     0
 91
        1
 92
        0
 93
        4
 72
     1
 10
5888.141182080358
 20
3959.163783871068
 11
6309.265412134334
 21
3959.163783871072
 72
     1
 10
6309.265412134334
 20
3959.163783871072
 11
6309.265412134334
 21
3972.163783871069
 72
     1
 10
6309.265412134334
 20
3972.163783871069
 11
5888.141182080358
 21
3972.163783871066
 72
     1
 10
5888.141182080358
 20
3972.163783871066
 11
5888.141182080358
 21
3959.163783871068
 97
        0
 75
     0
 76
     2
 52
0.0
 41
1.0
 77
     0
 78
     9
 53
0.0
 43
0.0
 44
0.0
 45
20.32
 46
5.08
 79
     5
 49
1.675999999999999
 49
-13.564
 49
1.675999999999999
 49
-13.564
 49
-81.28
 53
0.0
 43
0.0
 44
0.0
 45
20.32
 46
5.08
 79
     6
 49
-30.48
 49
1.675999999999999
 49
-28.804
 49
1.675999999999999
 49
-13.564
 49
-35.56
 53
0.0
 43
0.0
 44
0.0
 45
20.32
 46
5.08
 79
     5
 49
-76.2
 49
1.675999999999999
 49
-8.483999999999999
 49
1.675999999999999
 49
-23.724
 53
120.0
 43
7.62
 44
2.54
 45
-14.55940905122494
 46
15.0576362048998
 79
     5
 49
1.675999999999999
 49
-13.564
 49
1.675999999999999
 49
-13.564
 49
-81.27999999999998
 53
120.0
 43
7.62
 44
2.54
 45
-14.55940905122494
 46
15.0576362048998
 79
     6
 49
-30.48
 49
1.675999999999999
 49
-28.804
 49
1.675999999999999
 49
-13.564
 49
-35.56
 53
120.0
 43
7.62
 44
2.54
 45
-14.55940905122494
 46
15.0576362048998
 79
     5
 49
-76.19999999999999
 49
1.675999999999999
 49
-8.483999999999998
 49
1.675999999999999
 49
-23.724
 53
240.0
 43
10.16
 44
12.7
 45
-5.760590948775045
 46
-20.1376362048998
 79
     5
 49
1.675999999999999
 49
-13.564
 49
1.675999999999999
 49
-13.564
 49
-81.28
 53
240.0
 43
10.16
 44
12.7
 45
-5.760590948775045
 46
-20.1376362048998
 79
     6
 49
-30.48
 49
1.675999999999999
 49
-28.804
 49
1.675999999999999
 49
-13.564
 49
-35.56
 53
240.0
 43
10.16
 44
12.7
 45
-5.760590948775045
 46
-20.1376362048998
 79
     5
 49
-76.2
 49
1.675999999999999
 49
-8.483999999999999
 49
1.675999999999999
 49
-23.724
 98
        1
 10
0.0
 20
0.0
1001
REVIT
1002
{
1070
     1
1000
165640
1002
}
1002
{
1070
     5
1000
17941
1002
}
1002
{
1070
     2
1000
-2002000
1002
}
  0
LINE
  5
152
330
70
100
AcDbEntity
  8
A-DETL
100
AcDbLine
 10
6309.265412134329
 20
3972.163783871066
 30
0.0
 11
5888.141182080354
 21
3972.163783871062
 31
0.0
1001
REVIT
1002
{
1070
     1
1000
165640
1002
}
1002
{
1070
     5
1000
17941
1002
}
1002
{
1070
     2
1000
-2000051
1002
}
1002
{
1070
     3
1000
16210
1002
}
  0
LINE
  5
153
330
70
100
AcDbEntity
  8
A-DETL
100
AcDbLine
 10
5888.141182080354
 20
3959.163783871065
 30
0.0
 11
6145.641182080187
 21
3959.163783871068
 31
0.0
1001
REVIT
1002
{
1070
     1
1000
165640
1002
}
1002
{
1070
     5
1000
17941
1002
}
1002
{
1070
     2
1000
-2000051
1002
}
1002
{
1070
     3
1000
16210
1002
}
  0
LINE
  5
154
330
70
100
AcDbEntity
  8
A-DETL
100
AcDbLine
 10
6280.641182080188
 20
3959.163783871068
 30
0.0
 11
6309.265412134329
 21
3959.163783871068
 31
0.0
1001
REVIT
1002
{
1070
     1
1000
165640
1002
}
1002
{
1070
     5
1000
17941
1002
}
1002
{
1070
     2
1000
-2000051
1002
}
1002
{
1070
     3
1000
16210
1002
}
  0
LINE
  5
155
330
70
100
AcDbEntity
  8
A-DETL
100
AcDbLine
 10
6309.265412134329
 20
3959.163783871068
 30
0.0
 11
6309.265412134329
 21
3972.163783871066
 31
0.0
1001
REVIT
1002
{
1070
     1
1000
165640
1002
}
1002
{
1070
     5
1000
17941
1002
}
1002
{
1070
     2
1000
-2000051
1002
}
1002
{
1070
     3
1000
16210
1002
}
  0
LINE
  5
157
330
70
100
AcDbEntity
  8
A-DETL-MEDM
100
AcDbLine
 10
6295.785861440668
 20
3840.67811957087
 30
0.0
 11
6095.78347569381
 21
3840.678119570871
 31
0.0
1001
REVIT
1002
{
1070
     1
1000
165645
1002
}
1002
{
1070
     2
1000
-2000051
1002
}
1002
{
1070
     3
1000
-2000043
1002
}
  0
LINE
  5
158
330
70
100
AcDbEntity
  8
A-DETL-MEDM
100
AcDbLine
 10
6095.78347569381
 20
3837.682891064586
 30
0.0
 11
6109.285861440667
 21
3837.682891064586
 31
0.0
1001
REVIT
1002
{
1070
     1
1000
165646
1002
}
1002
{
1070
     2
1000
-2000051
1002
}
1002
{
1070
     3
1000
-2000043
1002
}
  0
ARC
  5
159
330
70
100
AcDbEntity
  8
A-DETL-MEDM
100
AcDbCircle
 10
6095.78347569381
 20
3839.180505317728
 30
0.0
 40
1.497614253142273
100
AcDbArc
 50
90.0
 51
269.9999999999997
1001
REVIT
1002
{
1070
     1
1000
165647
1002
}
1002
{
1070
     2
1000
-2000051
1002
}
1002
{
1070
     3
1000
-2000043
1002
}
  0
LINE
  5
15A
330
70
100
AcDbEntity
  8
A-DETL-MEDM
100
AcDbLine
 10
6295.785861440668
 20
3837.67811957087
 30
0.0
 11
6282.285861440668
 21
3837.67811957087
 31
0.0
1001
REVIT
1002
{
1070
     1
1000
165648
1002
}
1002
{
1070
     2
1000
-2000051
1002
}
1002
{
1070
     3
1000
-2000043
1002
}
  0
ARC
  5
15B
330
70
100
AcDbEntity
  8
A-DETL-MEDM
100
AcDbCircle
 10
6295.785861440668
 20
3839.17811957087
 30
0.0
 40
1.49999999999909
100
AcDbArc
 50
269.9999999999997
 51
90.0
1001
REVIT
1002
{
1070
     1
1000
165649
1002
}
1002
{
1070
     2
1000
-2000051
1002
}
1002
{
1070
     3
1000
-2000043
1002
}
  0
LINE
  5
15C
330
70
100
AcDbEntity
  8
A-DETL-MEDM
100
AcDbLine
 10
6291.815564408628
 20
3834.283817130975
 30
0.0
 11
6270.443906811839
 21
3834.283817130975
 31
0.0
1001
REVIT
1002
{
1070
     1
1000
165650
1002
}
1002
{
1070
     2
1000
-2000051
1002
}
1002
{
1070
     3
1000
-2000043
1002
}
  0
LINE
  5
15D
330
70
100
AcDbEntity
  8
A-DETL-MEDM
100
AcDbLine
 10
6270.443906811839
 20
3834.283817130975
 30
0.0
 11
6270.443906811839
 21
3804.283817130974
 31
0.0
1001
REVIT
1002
{
1070
     1
1000
165651
1002
}
1002
{
1070
     2
1000
-2000051
1002
}
1002
{
1070
     3
1000
-2000043
1002
}
  0
LINE
  5
15E
330
70
100
AcDbEntity
  8
A-DETL-MEDM
100
AcDbLine
 10
6270.443906811839
 20
3804.283817130974
 30
0.0
 11
6220.443906811838
 21
3804.283817130974
 31
0.0
1001
REVIT
1002
{
1070
     1
1000
165652
1002
}
1002
{
1070
     2
1000
-2000051
1002
}
1002
{
1070
     3
1000
-2000043
1002
}
  0
LINE
  5
15F
330
70
100
AcDbEntity
  8
A-DETL-MEDM
100
AcDbLine
 10
6220.443906811838
 20
3804.283817130974
 30
0.0
 11
6220.443906811838
 21
3834.283817130975
 31
0.0
1001
REVIT
1002
{
1070
     1
1000
165653
1002
}
1002
{
1070
     2
1000
-2000051
1002
}
1002
{
1070
     3
1000
-2000043
1002
}
  0
LINE
  5
160
330
70
100
AcDbEntity
  8
A-DETL-MEDM
100
AcDbLine
 10
6220.443906811838
 20
3834.283817130975
 30
0.0
 11
6142.073692606602
 21
3834.283817130975
 31
0.0
1001
REVIT
1002
{
1070
     1
1000
165654
1002
}
1002
{
1070
     2
1000
-2000051
1002
}
1002
{
1070
     3
1000
-2000043
1002
}
  0
LINE
  5
161
330
70
100
AcDbEntity
  8
A-DETL-MEDM
100
AcDbLine
 10
6155.74917940674
 20
3831.290432300554
 30
0.0
 11
6142.073692606602
 21
3831.290432300554
 31
0.0
1001
REVIT
1002
{
1070
     1
1000
165662
1002
}
1002
{
1070
     2
1000
-2000051
1002
}
1002
{
1070
     3
1000
-2000043
1002
}
  0
ARC
  5
162
330
70
100
AcDbEntity
  8
A-DETL
100
AcDbCircle
 10
6142.073692606602
 20
3832.787124715764
 30
0.0
 40
1.496692415209508
100
AcDbArc
 50
90.0
 51
269.9999999999997
1001
REVIT
1002
{
1070
     1
1000
165663
1002
}
1002
{
1070
     2
1000
-2000051
1002
}
1002
{
1070
     3
1000
16467
1002
}
  0
LINE
  5
163
330
70
100
AcDbEntity
  8
A-DETL-MEDM
100
AcDbLine
 10
6291.815564408628
 20
3834.283817130975
 30
0.0
 11
6291.815564408628
 21
3808.948850953818
 31
0.0
1001
REVIT
1002
{
1070
     1
1000
165691
1002
}
1002
{
1070
     2
1000
-2000051
1002
}
1002
{
1070
     3
1000
-2000043
1002
}
  0
LINE
  5
164
330
70
100
AcDbEntity
  8
A-DETL-MEDM
100
AcDbLine
 10
6294.815564408629
 20
3808.948850953818
 30
0.0
 11
6294.815564408629
 21
3809.038762566611
 31
0.0
1001
REVIT
1002
{
1070
     1
1000
165692
1002
}
1002
{
1070
     2
1000
-2000051
1002
}
1002
{
1070
     3
1000
-2000043
1002
}
  0
LINE
  5
165
330
70
100
AcDbEntity
  8
A-DETL-MEDM
100
AcDbLine
 10
6294.815564408629
 20
3821.548039300601
 30
0.0
 11
6294.815564408629
 21
3825.803791862984
 31
0.0
1001
REVIT
1002
{
1070
     1
1000
165692
1002
}
1002
{
1070
     2
1000
-2000051
1002
}
1002
{
1070
     3
1000
-2000043
1002
}
  0
ARC
  5
166
330
70
100
AcDbEntity
  8
A-DETL-MEDM
100
AcDbCircle
 10
6293.315564408629
 20
3808.948850953818
 30
0.0
 40
1.500000000000909
100
AcDbArc
 50
180.0
 51
0.0
1001
REVIT
1002
{
1070
     1
1000
165693
1002
}
1002
{
1070
     2
1000
-2000051
1002
}
1002
{
1070
     3
1000
-2000043
1002
}
  0
LINE
  5
167
330
70
100
AcDbEntity
  8
A-DETL-THIN
100
AcDbLine
 10
6122.664977412097
 20
3845.187644284408
 30
0.0
 11
6122.664977412097
 21
3863.187644284407
 31
0.0
1001
REVIT
1002
{
1070
     1
1000
165666
1002
}
1002
{
1070
     5
1000
17873
1002
}
1002
{
1070
     2
1000
-2000051
1002
}
1002
{
1070
     3
1000
-2000042
1002
}
  0
LINE
  5
168
330
70
100
AcDbEntity
  8
A-DETL-THIN
100
AcDbLine
 10
6122.664977412097
 20
3863.187644284407
 30
0.0
 11
6075.664977412095
 21
3863.187644284407
 31
0.0
1001
REVIT
1002
{
1070
     1
1000
165666
1002
}
1002
{
1070
     5
1000
17873
1002
}
1002
{
1070
     2
1000
-2000051
1002
}
1002
{
1070
     3
1000
-2000042
1002
}
  0
LINE
  5
169
330
70
100
AcDbEntity
  8
A-DETL-THIN
100
AcDbLine
 10
6075.664977412095
 20
3863.187644284407
 30
0.0
 11
6075.664977412095
 21
3845.187644284408
 31
0.0
1001
REVIT
1002
{
1070
     1
1000
165666
1002
}
1002
{
1070
     5
1000
17873
1002
}
1002
{
1070
     2
1000
-2000051
1002
}
1002
{
1070
     3
1000
-2000042
1002
}
  0
LINE
  5
16A
330
70
100
AcDbEntity
  8
A-DETL-THIN
100
AcDbLine
 10
6075.664977412095
 20
3845.187644284408
 30
0.0
 11
6122.664977412097
 21
3845.187644284408
 31
0.0
1001
REVIT
1002
{
1070
     1
1000
165666
1002
}
1002
{
1070
     5
1000
17873
1002
}
1002
{
1070
     2
1000
-2000051
1002
}
1002
{
1070
     3
1000
-2000042
1002
}
  0
LINE
  5
16B
330
70
100
AcDbEntity
  8
A-DETL-THIN
100
AcDbLine
 10
6451.048504228818
 20
3976.663783871067
 30
0.0
 11
6331.815564408629
 21
3976.663783871067
 31
0.0
1001
REVIT
1002
{
1070
     1
1000
165697
1002
}
1002
{
1070
     5
1000
17867
1002
}
1002
{
1070
     2
1000
-2000051
1002
}
1002
{
1070
     3
1000
-2000042
1002
}
  0
LINE
  5
16C
330
70
100
AcDbEntity
  8
A-DETL-THIN
100
AcDbLine
 10
6331.815564408629
 20
3976.663783871067
 30
0.0
 11
6331.815564408629
 21
3951.663783871067
 31
0.0
1001
REVIT
1002
{
1070
     1
1000
165697
1002
}
1002
{
1070
     5
1000
17867
1002
}
1002
{
1070
     2
1000
-2000051
1002
}
1002
{
1070
     3
1000
-2000042
1002
}
  0
LINE
  5
16D
330
70
100
AcDbEntity
  8
A-DETL-THIN
100
AcDbLine
 10
6331.815564408629
 20
3951.663783871067
 30
0.0
 11
6451.048504228818
 21
3951.663783871067
 31
0.0
1001
REVIT
1002
{
1070
     1
1000
165697
1002
}
1002
{
1070
     5
1000
17867
1002
}
1002
{
1070
     2
1000
-2000051
1002
}
1002
{
1070
     3
1000
-2000042
1002
}
  0
LINE
  5
16E
330
70
100
AcDbEntity
  8
A-DETL-THIN
100
AcDbLine
 10
6122.664977412097
 20
3854.187644284407
 30
0.0
 11
6075.664977412095
 21
3854.187644284407
 31
0.0
1001
REVIT
1002
{
1070
     1
1000
165673
1002
}
1002
{
1070
     2
1000
-2000051
1002
}
1002
{
1070
     3
1000
-2000042
1002
}
  0
LINE
  5
16F
330
70
100
AcDbEntity
  8
A-DETL
100
AcDbLine
 10
6451.048504228818
 20
3865.273028027664
 30
0.0
 11
6168.249179406739
 21
3865.273028027666
 31
0.0
1001
REVIT
1002
{
1070
     1
1000
165683
1002
}
1002
{
1070
     2
1000
-2000051
1002
}
1002
{
1070
     3
1000
16287
1002
}
  0
LINE
  5
170
330
70
100
AcDbEntity
  8
A-DETL
100
AcDbLine
 10
6168.249179406739
 20
3865.273028027666
 30
0.0
 11
6168.249179406739
 21
3832.627932300555
 31
0.0
1001
REVIT
1002
{
1070
     1
1000
165684
1002
}
1002
{
1070
     2
1000
-2000051
1002
}
1002
{
1070
     3
1000
16287
1002
}
  0
LINE
  5
171
330
70
100
AcDbEntity
  8
A-DETL
100
AcDbLine
 10
6168.249179406739
 20
3832.627932300555
 30
0.0
 11
6218.24917940674
 21
3832.627932300555
 31
0.0
1001
REVIT
1002
{
1070
     1
1000
165685
1002
}
1002
{
1070
     2
1000
-2000051
1002
}
1002
{
1070
     3
1000
16287
1002
}
  0
LINE
  5
172
330
70
100
AcDbEntity
  8
A-DETL
100
AcDbLine
 10
6218.24917940674
 20
3832.627932300555
 30
0.0
 11
6218.24917940674
 21
3794.804593855004
 31
0.0
1001
REVIT
1002
{
1070
     1
1000
165686
1002
}
1002
{
1070
     2
1000
-2000051
1002
}
1002
{
1070
     3
1000
16287
1002
}
  0
LINE
  5
173
330
70
100
AcDbEntity
  8
A-DETL
100
AcDbLine
 10
6218.24917940674
 20
3794.804593855004
 30
0.0
 11
6451.048504228818
 21
3794.804593855004
 31
0.0
1001
REVIT
1002
{
1070
     1
1000
165687
1002
}
1002
{
1070
     2
1000
-2000051
1002
}
1002
{
1070
     3
1000
16287
1002
}
  0
INSERT
  5
17C
330
70
100
AcDbEntity
  8
A-DETL-GENF
100
AcDbBlockReference
  2
4811_Air Seal w Foam - Airseal on PEF Backing Rod-165460-W-TRSIL-05-V-G - Garage Door Jamb Flashing Detail _Vertical_
 10
6298.262544212253
 20
3818.763407659999
 30
0.0
 50
90.0000000000004
1001
REVIT
1002
{
1070
     1
1000
165694
1002
}
1002
{
1070
     5
1000
59784
1002
}
1002
{
1070
     2
1000
-2002000
1002
}
  0
INSERT
  5
185
330
70
100
AcDbEntity
  8
A-DETL-GENF
100
AcDbBlockReference
  2
FP - Break Line - FP - Break Line-164932-W-TRSIL-05-V-G - Garage Door Jamb Flashing Detail _Vertical_
 10
6451.048504228812
 20
3892.163783871064
 30
0.0
 50
89.99999999999944
1001
REVIT
1002
{
1070
     1
1000
165613
1002
}
1002
{
1070
     5
1000
59790
1002
}
1002
{
1070
     2
1000
-2002000
1002
}
  0
INSERT
  5
198
330
70
100
AcDbEntity
  8
A-DETL-GENF
100
AcDbBlockReference
  2
TRS Interlocking profile - Interlocking 260-122890-W-TRSIL-05-V-G - Garage Door Jamb Flashing Detail _Vertical_
 10
6680.688282918071
 20
3832.911405131496
 30
0.0
1001
REVIT
1002
{
1070
     1
1000
165729
1002
}
1002
{
1070
     5
1000
113920
1002
}
1002
{
1070
     2
1000
-2002000
1002
}
  0
INSERT
  5
1A3
330
70
100
AcDbEntity
  8
A-DETL-GENF
100
AcDbBlockReference
  2
TRS Interlocking profile - Interlocking 260-V2-W-TRSIL-05-V-G - Garage Door Jamb Flashing Detail _Vertical_
 10
6418.688282918072
 20
3832.911405131497
 30
0.0
1001
REVIT
1002
{
1070
     1
1000
165730
1002
}
1002
{
1070
     5
1000
113920
1002
}
1002
{
1070
     2
1000
-2002000
1002
}
  0
LINE
  5
1A4
330
70
100
AcDbEntity
  8
A-DETL
100
AcDbLine
 10
6321.81556440863
 20
3996.663783871066
 30
0.0
 11
6321.81556440863
 21
3984.103403020423
 31
0.0
1001
REVIT
1002
{
1070
     1
1000
165702
1002
}
1002
{
1070
     2
1000
-2000051
1002
}
1002
{
1070
     3
1000
137263
1002
}
  0
INSERT
  5
1AD
330
70
100
AcDbEntity
  8
A-DETL-GENF
100
AcDbBlockReference
  2
FP - Break Line - FP - Break Line-165816-W-TRSIL-05-V-G - Garage Door Jamb Flashing Detail _Vertical_
 10
5888.141182080361
 20
3882.696234009749
 30
0.0
 50
270.0000000000009
1001
REVIT
1002
{
1070
     1
1000
165614
1002
}
1002
{
1070
     5
1000
59790
1002
}
1002
{
1070
     2
1000
-2002000
1002
}
  0
INSERT
  5
1B6
330
70
100
AcDbEntity
  8
A-DETL-GENF
100
AcDbBlockReference
  2
FP Timber Nog Packer1 - Variable-46933-W-TRSIL-05-V-G - Garage Door Jamb Flashing Detail _Vertical_
 10
6255.64118208019
 20
3959.163783871068
 30
0.0
 50
269.9999999999997
1001
REVIT
1002
{
1070
     1
1000
165608
1002
}
1002
{
1070
     5
1000
44489
1002
}
1002
{
1070
     2
1000
-2002000
1002
}
  0
INSERT
  5
1B7
330
70
100
AcDbEntity
  8
A-DETL-GENF
100
AcDbBlockReference
  2
FP Timber Nog Packer1 - Variable-46933-W-TRSIL-05-V-G - Garage Door Jamb Flashing Detail _Vertical_
 10
6210.641182080189
 20
3959.163783871068
 30
0.0
 50
269.9999999999997
1001
REVIT
1002
{
1070
     1
1000
165625
1002
}
1002
{
1070
     5
1000
44489
1002
}
1002
{
1070
     2
1000
-2002000
1002
}
  0
INSERT
  5
1C1
330
70
100
AcDbEntity
  8
A-DETL-GENF
100
AcDbBlockReference
  2
FP Timber Nog Packer1 - Variable-V3-W-TRSIL-05-V-G - Garage Door Jamb Flashing Detail _Vertical_
 10
6165.641182080189
 20
3959.163783871068
 30
0.0
 50
269.9999999999997
1001
REVIT
1002
{
1070
     1
1000
165690
1002
}
1002
{
1070
     5
1000
44489
1002
}
1002
{
1070
     2
1000
-2002000
1002
}
  0
LINE
  5
1C3
330
70
100
AcDbEntity
  8
G-ANNO-TEXT
100
AcDbLine
 10
6298.422892336386
 20
3952.222619254074
 30
0.0
 11
6309.417263758827
 21
3962.616058653649
 31
0.0
1001
REVIT
1002
{
1070
     1
1000
165617
1002
}
1002
{
1070
     5
1000
16489
1002
}
1002
{
1070
     2
1000
-2000300
1002
}
  0
LINE
  5
1C4
330
70
100
AcDbEntity
  8
G-ANNO-TEXT
100
AcDbLine
 10
6309.417263758827
 20
3962.616058653649
 30
0.0
 11
6306.352619576408
 21
3965.107463507152
 31
0.0
1001
REVIT
1002
{
1070
     1
1000
165617
1002
}
1002
{
1070
     5
1000
16489
1002
}
1002
{
1070
     2
1000
-2000300
1002
}
  0
LINE
  5
1C5
330
70
100
AcDbEntity
  8
G-ANNO-TEXT
100
AcDbLine
 10
6306.352619576408
 20
3965.107463507152
 30
0.0
 11
6298.422892336386
 21
3952.222619254074
 31
0.0
1001
REVIT
1002
{
1070
     1
1000
165617
1002
}
1002
{
1070
     5
1000
16489
1002
}
1002
{
1070
     2
1000
-2000300
1002
}
  0
HATCH
  5
1C6
330
70
100
AcDbEntity
  8
G-ANNO-TEXT
100
AcDbHatch
 10
0.0
 20
0.0
 30
0.0
210
0.0
220
0.0
230
1.0
  2
SOLID
 70
     1
 71
     0
 91
        1
 92
        0
 93
        3
 72
     1
 10
6298.422892336386
 20
3952.222619254074
 11
6309.417263758827
 21
3962.616058653649
 72
     1
 10
6309.417263758827
 20
3962.616058653649
 11
6306.352619576408
 21
3965.107463507152
 72
     1
 10
6306.352619576408
 20
3965.107463507152
 11
6298.422892336386
 21
3952.222619254074
 97
        0
 75
     0
 76
     1
 98
        1
 10
0.0
 20
0.0
450
        0
451
        0
460
0.0
461
0.0
452
        0
462
0.0
453
        0
470

1001
REVIT
1002
{
1070
     1
1000
165617
1002
}
1002
{
1070
     5
1000
16489
1002
}
1002
{
1070
     2
1000
-2000300
1002
}
  0
LINE
  5
1C7
330
70
100
AcDbEntity
  8
G-ANNO-TEXT
100
AcDbLine
 10
6405.438871833145
 20
4083.861561246776
 30
0.0
 11
6490.469131470241
 21
4083.861561246776
 31
0.0
1001
REVIT
1002
{
1070
     1
1000
165617
1002
}
1002
{
1070
     5
1000
16489
1002
}
1002
{
1070
     2
1000
-2000300
1002
}
  0
LINE
  5
1C8
330
70
100
AcDbEntity
  8
G-ANNO-TEXT
100
AcDbLine
 10
6298.422892336386
 20
3952.222619254074
 30
0.0
 11
6405.438871833145
 21
4083.861561246776
 31
0.0
1001
REVIT
1002
{
1070
     1
1000
165617
1002
}
1002
{
1070
     5
1000
16489
1002
}
1002
{
1070
     2
1000
-2000300
1002
}
  0
MTEXT
  5
1CA
330
70
100
AcDbEntity
  8
G-ANNO-TEXT
100
AcDbMText
 10
6495.46913147024
 20
4090.111561246775
 30
0.0
 40
12.5
 41
226.196128125
 46
0.0
 71
     1
 72
     1
  1
Continuous sealant over 
  7
Century Gothic
 73
     2
 44
1.0
1001
REVIT
1002
{
1070
     1
1000
165617
1002
}
1002
{
1070
     5
1000
16489
1002
}
1002
{
1070
     2
1000
-2000300
1002
}
  0
MTEXT
  5
1CB
330
70
100
AcDbEntity
  8
G-ANNO-TEXT
100
AcDbMText
 10
6495.46913147024
 20
4069.275623746775
 30
0.0
 40
12.5
 41
67.462003125
 46
0.0
 71
     1
 72
     1
  1
PEF rod
  7
Century Gothic
 73
     2
 44
1.0
1001
REVIT
1002
{
1070
     1
1000
165617
1002
}
1002
{
1070
     5
1000
16489
1002
}
1002
{
1070
     2
1000
-2000300
1002
}
  0
LINE
  5
1CC
330
70
100
AcDbEntity
  8
G-ANNO-TEXT
100
AcDbLine
 10
6300.177640893424
 20
3906.374944601049
 30
0.0
 11
6308.276763471294
 21
3893.595899292581
 31
0.0
1001
REVIT
1002
{
1070
     1
1000
165618
1002
}
1002
{
1070
     5
1000
16489
1002
}
1002
{
1070
     2
1000
-2000300
1002
}
  0
LINE
  5
1CD
330
70
100
AcDbEntity
  8
G-ANNO-TEXT
100
AcDbLine
 10
6308.276763471294
 20
3893.595899292581
 30
0.0
 11
6311.308252865728
 21
3896.127541874054
 31
0.0
1001
REVIT
1002
{
1070
     1
1000
165618
1002
}
1002
{
1070
     5
1000
16489
1002
}
1002
{
1070
     2
1000
-2000300
1002
}
  0
LINE
  5
1CE
330
70
100
AcDbEntity
  8
G-ANNO-TEXT
100
AcDbLine
 10
6311.308252865728
 20
3896.127541874054
 30
0.0
 11
6300.177640893424
 21
3906.374944601049
 31
0.0
1001
REVIT
1002
{
1070
     1
1000
165618
1002
}
1002
{
1070
     5
1000
16489
1002
}
1002
{
1070
     2
1000
-2000300
1002
}
  0
HATCH
  5
1CF
330
70
100
AcDbEntity
  8
G-ANNO-TEXT
100
AcDbHatch
 10
0.0
 20
0.0
 30
0.0
210
0.0
220
0.0
230
1.0
  2
SOLID
 70
     1
 71
     0
 91
        1
 92
        0
 93
        3
 72
     1
 10
6300.177640893424
 20
3906.374944601049
 11
6308.276763471294
 21
3893.595899292581
 72
     1
 10
6308.276763471294
 20
3893.595899292581
 11
6311.308252865728
 21
3896.127541874054
 72
     1
 10
6311.308252865728
 20
3896.127541874054
 11
6300.177640893424
 21
3906.374944601049
 97
        0
 75
     0
 76
     1
 98
        1
 10
0.0
 20
0.0
450
        0
451
        0
460
0.0
461
0.0
452
        0
462
0.0
453
        0
470

1001
REVIT
1002
{
1070
     1
1000
165618
1002
}
1002
{
1070
     5
1000
16489
1002
}
1002
{
1070
     2
1000
-2000300
1002
}
  0
LINE
  5
1D0
330
70
100
AcDbEntity
  8
G-ANNO-TEXT
100
AcDbLine
 10
6424.572406652423
 20
3757.419710603442
 30
0.0
 11
6490.46913147024
 21
3757.41971060344
 31
0.0
1001
REVIT
1002
{
1070
     1
1000
165618
1002
}
1002
{
1070
     5
1000
16489
1002
}
1002
{
1070
     2
1000
-2000300
1002
}
  0
LINE
  5
1D1
330
70
100
AcDbEntity
  8
G-ANNO-TEXT
100
AcDbLine
 10
6300.177640893424
 20
3906.374944601049
 30
0.0
 11
6424.572406652423
 21
3757.419710603442
 31
0.0
1001
REVIT
1002
{
1070
     1
1000
165618
1002
}
1002
{
1070
     5
1000
16489
1002
}
1002
{
1070
     2
1000
-2000300
1002
}
  0
MTEXT
  5
1D2
330
70
100
AcDbEntity
  8
G-ANNO-TEXT
100
AcDbMText
 10
6495.46913147024
 20
3763.66971060344
 30
0.0
 40
12.5
 41
123.740465625
 46
0.0
 71
     1
 72
     1
  1
Packer to suit
  7
Century Gothic
 73
     2
 44
1.0
1001
REVIT
1002
{
1070
     1
1000
165618
1002
}
1002
{
1070
     5
1000
16489
1002
}
1002
{
1070
     2
1000
-2000300
1002
}
  0
LINE
  5
1D3
330
70
100
AcDbEntity
  8
G-ANNO-TEXT
100
AcDbLine
 10
6318.048648803568
 20
3913.731957855062
 30
0.0
 11
6333.048648803567
 21
3911.757170391251
 31
0.0
1001
REVIT
1002
{
1070
     1
1000
165619
1002
}
1002
{
1070
     5
1000
16489
1002
}
1002
{
1070
     2
1000
-2000300
1002
}
  0
LINE
  5
1D4
330
70
100
AcDbEntity
  8
G-ANNO-TEXT
100
AcDbLine
 10
6333.048648803567
 20
3911.757170391251
 30
0.0
 11
6333.048648803567
 21
3915.706745318873
 31
0.0
1001
REVIT
1002
{
1070
     1
1000
165619
1002
}
1002
{
1070
     5
1000
16489
1002
}
1002
{
1070
     2
1000
-2000300
1002
}
  0
LINE
  5
1D5
330
70
100
AcDbEntity
  8
G-ANNO-TEXT
100
AcDbLine
 10
6333.048648803567
 20
3915.706745318873
 30
0.0
 11
6318.048648803568
 21
3913.731957855062
 31
0.0
1001
REVIT
1002
{
1070
     1
1000
165619
1002
}
1002
{
1070
     5
1000
16489
1002
}
1002
{
1070
     2
1000
-2000300
1002
}
  0
HATCH
  5
1D6
330
70
100
AcDbEntity
  8
G-ANNO-TEXT
100
AcDbHatch
 10
0.0
 20
0.0
 30
0.0
210
0.0
220
0.0
230
1.0
  2
SOLID
 70
     1
 71
     0
 91
        1
 92
        0
 93
        3
 72
     1
 10
6318.048648803568
 20
3913.731957855062
 11
6333.048648803567
 21
3911.757170391251
 72
     1
 10
6333.048648803567
 20
3911.757170391251
 11
6333.048648803567
 21
3915.706745318873
 72
     1
 10
6333.048648803567
 20
3915.706745318873
 11
6318.048648803568
 21
3913.731957855062
 97
        0
 75
     0
 76
     1
 98
        1
 10
0.0
 20
0.0
450
        0
451
        0
460
0.0
461
0.0
452
        0
462
0.0
453
        0
470

1001
REVIT
1002
{
1070
     1
1000
165619
1002
}
1002
{
1070
     5
1000
16489
1002
}
1002
{
1070
     2
1000
-2000300
1002
}
  0
LINE
  5
1D7
330
70
100
AcDbEntity
  8
G-ANNO-TEXT
100
AcDbLine
 10
6318.048648803568
 20
3913.731957855062
 30
0.0
 11
6490.469131470241
 21
3913.731957855061
 31
0.0
1001
REVIT
1002
{
1070
     1
1000
165619
1002
}
1002
{
1070
     5
1000
16489
1002
}
1002
{
1070
     2
1000
-2000300
1002
}
  0
MTEXT
  5
1D8
330
70
100
AcDbEntity
  8
G-ANNO-TEXT
100
AcDbMText
 10
6495.46913147024
 20
3919.98195785506
 30
0.0
 40
12.5
 41
145.386028125
 46
0.0
 71
     1
 72
     1
  1
H3.1 Jamb Liner
  7
Century Gothic
 73
     2
 44
1.0
1001
REVIT
1002
{
1070
     1
1000
165619
1002
}
1002
{
1070
     5
1000
16489
1002
}
1002
{
1070
     2
1000
-2000300
1002
}
  0
LINE
  5
1D9
330
70
100
AcDbEntity
  8
G-ANNO-TEXT
100
AcDbLine
 10
6066.503645609286
 20
4068.773362408125
 30
0.0
 11
6066.483542081609
 21
4068.773362408125
 31
0.0
1001
REVIT
1002
{
1070
     1
1000
165621
1002
}
1002
{
1070
     5
1000
16489
1002
}
1002
{
1070
     2
1000
-2000300
1002
}
  0
LINE
  5
1DA
330
70
100
AcDbEntity
  8
G-ANNO-TEXT
100
AcDbLine
 10
6235.003997627261
 20
3859.350656433007
 30
0.0
 11
6228.66959873998
 21
3873.090204324551
 31
0.0
1001
REVIT
1002
{
1070
     1
1000
165621
1002
}
1002
{
1070
     5
1000
16489
1002
}
1002
{
1070
     2
1000
-2000300
1002
}
  0
LINE
  5
1DB
330
70
100
AcDbEntity
  8
G-ANNO-TEXT
100
AcDbLine
 10
6228.66959873998
 20
3873.090204324551
 30
0.0
 11
6225.329381482589
 21
3870.982577511681
 31
0.0
1001
REVIT
1002
{
1070
     1
1000
165621
1002
}
1002
{
1070
     5
1000
16489
1002
}
1002
{
1070
     2
1000
-2000300
1002
}
  0
LINE
  5
1DC
330
70
100
AcDbEntity
  8
G-ANNO-TEXT
100
AcDbLine
 10
6225.329381482589
 20
3870.982577511681
 30
0.0
 11
6235.003997627261
 21
3859.350656433007
 31
0.0
1001
REVIT
1002
{
1070
     1
1000
165621
1002
}
1002
{
1070
     5
1000
16489
1002
}
1002
{
1070
     2
1000
-2000300
1002
}
  0
HATCH
  5
1DD
330
70
100
AcDbEntity
  8
G-ANNO-TEXT
100
AcDbHatch
 10
0.0
 20
0.0
 30
0.0
210
0.0
220
0.0
230
1.0
  2
SOLID
 70
     1
 71
     0
 91
        1
 92
        0
 93
        3
 72
     1
 10
6235.003997627261
 20
3859.350656433007
 11
6228.66959873998
 21
3873.090204324551
 72
     1
 10
6228.66959873998
 20
3873.090204324551
 11
6225.329381482589
 21
3870.982577511681
 72
     1
 10
6225.329381482589
 20
3870.982577511681
 11
6235.003997627261
 21
3859.350656433007
 97
        0
 75
     0
 76
     1
 98
        1
 10
0.0
 20
0.0
450
        0
451
        0
460
0.0
461
0.0
452
        0
462
0.0
453
        0
470

1001
REVIT
1002
{
1070
     1
1000
165621
1002
}
1002
{
1070
     5
1000
16489
1002
}
1002
{
1070
     2
1000
-2000300
1002
}
  0
LINE
  5
1DE
330
70
100
AcDbEntity
  8
G-ANNO-TEXT
100
AcDbLine
 10
6102.861422361964
 20
4068.773362408125
 30
0.0
 11
6066.503645609286
 21
4068.773362408125
 31
0.0
1001
REVIT
1002
{
1070
     1
1000
165621
1002
}
1002
{
1070
     5
1000
16489
1002
}
1002
{
1070
     2
1000
-2000300
1002
}
  0
LINE
  5
1DF
330
70
100
AcDbEntity
  8
G-ANNO-TEXT
100
AcDbLine
 10
6235.003997627261
 20
3859.350656433007
 30
0.0
 11
6102.861422361964
 21
4068.773362408125
 31
0.0
1001
REVIT
1002
{
1070
     1
1000
165621
1002
}
1002
{
1070
     5
1000
16489
1002
}
1002
{
1070
     2
1000
-2000300
1002
}
  0
MTEXT
  5
1E0
330
70
100
AcDbEntity
  8
G-ANNO-TEXT
100
AcDbMText
 10
5869.243542081608
 20
4075.023362408123
 30
0.0
 40
12.5
 41
233.05055625
 46
0.0
 71
     1
 72
     1
  1
Horizontal support cavity 
  7
Century Gothic
 73
     2
 44
1.0
1001
REVIT
1002
{
1070
     1
1000
165621
1002
}
1002
{
1070
     5
1000
16489
1002
}
1002
{
1070
     2
1000
-2000300
1002
}
  0
MTEXT
  5
1E1
330
70
100
AcDbEntity
  8
G-ANNO-TEXT
100
AcDbMText
 10
5869.243542081608
 20
4054.187424908123
 30
0.0
 40
12.5
 41
70.348078125
 46
0.0
 71
     1
 72
     1
  1
battens
  7
Century Gothic
 73
     2
 44
1.0
1001
REVIT
1002
{
1070
     1
1000
165621
1002
}
1002
{
1070
     5
1000
16489
1002
}
1002
{
1070
     2
1000
-2000300
1002
}
  0
LINE
  5
1E2
330
70
100
AcDbEntity
  8
G-ANNO-TEXT
100
AcDbLine
 10
6017.592259134761
 20
4006.129141432395
 30
0.0
 11
5978.423229581609
 21
4006.129141432395
 31
0.0
1001
REVIT
1002
{
1070
     1
1000
165622
1002
}
1002
{
1070
     5
1000
16489
1002
}
1002
{
1070
     2
1000
-2000300
1002
}
  0
LINE
  5
1E3
330
70
100
AcDbEntity
  8
G-ANNO-TEXT
100
AcDbLine
 10
6174.298669816266
 20
3866.847089996138
 30
0.0
 11
6168.571226773297
 21
3880.850524636139
 31
0.0
1001
REVIT
1002
{
1070
     1
1000
165622
1002
}
1002
{
1070
     5
1000
16489
1002
}
1002
{
1070
     2
1000
-2000300
1002
}
  0
LINE
  5
1E4
330
70
100
AcDbEntity
  8
G-ANNO-TEXT
100
AcDbLine
 10
6168.571226773297
 20
3880.850524636139
 30
0.0
 11
6165.142029080782
 21
3878.890997832406
 31
0.0
1001
REVIT
1002
{
1070
     1
1000
165622
1002
}
1002
{
1070
     5
1000
16489
1002
}
1002
{
1070
     2
1000
-2000300
1002
}
  0
LINE
  5
1E5
330
70
100
AcDbEntity
  8
G-ANNO-TEXT
100
AcDbLine
 10
6165.142029080782
 20
3878.890997832406
 30
0.0
 11
6174.298669816266
 21
3866.847089996138
 31
0.0
1001
REVIT
1002
{
1070
     1
1000
165622
1002
}
1002
{
1070
     5
1000
16489
1002
}
1002
{
1070
     2
1000
-2000300
1002
}
  0
HATCH
  5
1E6
330
70
100
AcDbEntity
  8
G-ANNO-TEXT
100
AcDbHatch
 10
0.0
 20
0.0
 30
0.0
210
0.0
220
0.0
230
1.0
  2
SOLID
 70
     1
 71
     0
 91
        1
 92
        0
 93
        3
 72
     1
 10
6174.298669816266
 20
3866.847089996138
 11
6168.571226773297
 21
3880.850524636139
 72
     1
 10
6168.571226773297
 20
3880.850524636139
 11
6165.142029080782
 21
3878.890997832406
 72
     1
 10
6165.142029080782
 20
3878.890997832406
 11
6174.298669816266
 21
3866.847089996138
 97
        0
 75
     0
 76
     1
 98
        1
 10
0.0
 20
0.0
450
        0
451
        0
460
0.0
461
0.0
452
        0
462
0.0
453
        0
470

1001
REVIT
1002
{
1070
     1
1000
165622
1002
}
1002
{
1070
     5
1000
16489
1002
}
1002
{
1070
     2
1000
-2000300
1002
}
  0
LINE
  5
1E7
330
70
100
AcDbEntity
  8
G-ANNO-TEXT
100
AcDbLine
 10
6094.709524616479
 20
4006.129141432398
 30
0.0
 11
6017.592259134761
 21
4006.129141432395
 31
0.0
1001
REVIT
1002
{
1070
     1
1000
165622
1002
}
1002
{
1070
     5
1000
16489
1002
}
1002
{
1070
     2
1000
-2000300
1002
}
  0
LINE
  5
1E8
330
70
100
AcDbEntity
  8
G-ANNO-TEXT
100
AcDbLine
 10
6174.298669816266
 20
3866.847089996138
 30
0.0
 11
6094.709524616479
 21
4006.129141432398
 31
0.0
1001
REVIT
1002
{
1070
     1
1000
165622
1002
}
1002
{
1070
     5
1000
16489
1002
}
1002
{
1070
     2
1000
-2000300
1002
}
  0
MTEXT
  5
1E9
330
70
100
AcDbEntity
  8
G-ANNO-TEXT
100
AcDbMText
 10
5869.243542081608
 20
4012.379141432396
 30
0.0
 40
12.5
 41
126.26578125
 46
0.0
 71
     1
 72
     1
  1
Wall underlay
  7
Century Gothic
 73
     2
 44
1.0
1001
REVIT
1002
{
1070
     1
1000
165622
1002
}
1002
{
1070
     5
1000
16489
1002
}
1002
{
1070
     2
1000
-2000300
1002
}
  0
LINE
  5
1EA
330
70
100
AcDbEntity
  8
G-ANNO-TEXT
100
AcDbLine
 10
6006.41392042629
 20
4115.950182313977
 30
0.0
 11
5976.339635831609
 21
4115.950182313977
 31
0.0
1001
REVIT
1002
{
1070
     1
1000
165623
1002
}
1002
{
1070
     5
1000
16489
1002
}
1002
{
1070
     2
1000
-2000300
1002
}
  0
LINE
  5
1EB
330
70
100
AcDbEntity
  8
G-ANNO-TEXT
100
AcDbLine
 10
6205.490828094999
 20
3968.603794614408
 30
0.0
 11
6199.270835612903
 21
3982.395512384501
 31
0.0
1001
REVIT
1002
{
1070
     1
1000
165623
1002
}
1002
{
1070
     5
1000
16489
1002
}
1002
{
1070
     2
1000
-2000300
1002
}
  0
LINE
  5
1EC
330
70
100
AcDbEntity
  8
G-ANNO-TEXT
100
AcDbLine
 10
6199.270835612903
 20
3982.395512384501
 30
0.0
 11
6195.91321749364
 21
3980.31571848267
 31
0.0
1001
REVIT
1002
{
1070
     1
1000
165623
1002
}
1002
{
1070
     5
1000
16489
1002
}
1002
{
1070
     2
1000
-2000300
1002
}
  0
LINE
  5
1ED
330
70
100
AcDbEntity
  8
G-ANNO-TEXT
100
AcDbLine
 10
6195.91321749364
 20
3980.31571848267
 30
0.0
 11
6205.490828094999
 21
3968.603794614408
 31
0.0
1001
REVIT
1002
{
1070
     1
1000
165623
1002
}
1002
{
1070
     5
1000
16489
1002
}
1002
{
1070
     2
1000
-2000300
1002
}
  0
HATCH
  5
1EE
330
70
100
AcDbEntity
  8
G-ANNO-TEXT
100
AcDbHatch
 10
0.0
 20
0.0
 30
0.0
210
0.0
220
0.0
230
1.0
  2
SOLID
 70
     1
 71
     0
 91
        1
 92
        0
 93
        3
 72
     1
 10
6205.490828094999
 20
3968.603794614408
 11
6199.270835612903
 21
3982.395512384501
 72
     1
 10
6199.270835612903
 20
3982.395512384501
 11
6195.91321749364
 21
3980.31571848267
 72
     1
 10
6195.91321749364
 20
3980.31571848267
 11
6205.490828094999
 21
3968.603794614408
 97
        0
 75
     0
 76
     1
 98
        1
 10
0.0
 20
0.0
450
        0
451
        0
460
0.0
461
0.0
452
        0
462
0.0
453
        0
470

1001
REVIT
1002
{
1070
     1
1000
165623
1002
}
1002
{
1070
     5
1000
16489
1002
}
1002
{
1070
     2
1000
-2000300
1002
}
  0
LINE
  5
1EF
330
70
100
AcDbEntity
  8
G-ANNO-TEXT
100
AcDbLine
 10
6114.220734919047
 20
4115.950182313977
 30
0.0
 11
6006.41392042629
 21
4115.950182313977
 31
0.0
1001
REVIT
1002
{
1070
     1
1000
165623
1002
}
1002
{
1070
     5
1000
16489
1002
}
1002
{
1070
     2
1000
-2000300
1002
}
  0
LINE
  5
1F0
330
70
100
AcDbEntity
  8
G-ANNO-TEXT
100
AcDbLine
 10
6205.490828094999
 20
3968.603794614408
 30
0.0
 11
6114.220734919047
 21
4115.950182313977
 31
0.0
1001
REVIT
1002
{
1070
     1
1000
165623
1002
}
1002
{
1070
     5
1000
16489
1002
}
1002
{
1070
     2
1000
-2000300
1002
}
  0
MTEXT
  5
1F1
330
70
100
AcDbEntity
  8
G-ANNO-TEXT
100
AcDbMText
 10
5869.243542081608
 20
4122.200182313977
 30
0.0
 40
12.5
 41
123.740465625
 46
0.0
 71
     1
 72
     1
  1
Internal lining
  7
Century Gothic
 73
     2
 44
1.0
1001
REVIT
1002
{
1070
     1
1000
165623
1002
}
1002
{
1070
     5
1000
16489
1002
}
1002
{
1070
     2
1000
-2000300
1002
}
  0
LINE
  5
1F2
330
70
100
AcDbEntity
  8
G-ANNO-TEXT
100
AcDbLine
 10
6084.263897745453
 20
3702.00343080403
 30
0.0
 11
6082.900573331609
 21
3702.00343080403
 31
0.0
1001
REVIT
1002
{
1070
     1
1000
165657
1002
}
1002
{
1070
     5
1000
16489
1002
}
1002
{
1070
     2
1000
-2000300
1002
}
  0
LINE
  5
1F3
330
70
100
AcDbEntity
  8
G-ANNO-TEXT
100
AcDbLine
 10
6224.464422171558
 20
3804.240364280678
 30
0.0
 11
6213.070980775894
 21
3794.286004497608
 31
0.0
1001
REVIT
1002
{
1070
     1
1000
165657
1002
}
1002
{
1070
     5
1000
16489
1002
}
1002
{
1070
     2
1000
-2000300
1002
}
  0
LINE
  5
1F4
330
70
100
AcDbEntity
  8
G-ANNO-TEXT
100
AcDbLine
 10
6213.070980775894
 20
3794.286004497608
 30
0.0
 11
6216.035580770836
 21
3791.676351459579
 31
0.0
1001
REVIT
1002
{
1070
     1
1000
165657
1002
}
1002
{
1070
     5
1000
16489
1002
}
1002
{
1070
     2
1000
-2000300
1002
}
  0
LINE
  5
1F5
330
70
100
AcDbEntity
  8
G-ANNO-TEXT
100
AcDbLine
 10
6216.035580770836
 20
3791.676351459579
 30
0.0
 11
6224.464422171558
 21
3804.240364280678
 31
0.0
1001
REVIT
1002
{
1070
     1
1000
165657
1002
}
1002
{
1070
     5
1000
16489
1002
}
1002
{
1070
     2
1000
-2000300
1002
}
  0
HATCH
  5
1F6
330
70
100
AcDbEntity
  8
G-ANNO-TEXT
100
AcDbHatch
 10
0.0
 20
0.0
 30
0.0
210
0.0
220
0.0
230
1.0
  2
SOLID
 70
     1
 71
     0
 91
        1
 92
        0
 93
        3
 72
     1
 10
6224.464422171558
 20
3804.240364280678
 11
6213.070980775894
 21
3794.286004497608
 72
     1
 10
6213.070980775894
 20
3794.286004497608
 11
6216.035580770836
 21
3791.676351459579
 72
     1
 10
6216.035580770836
 20
3791.676351459579
 11
6224.464422171558
 21
3804.240364280678
 97
        0
 75
     0
 76
     1
 98
        1
 10
0.0
 20
0.0
450
        0
451
        0
460
0.0
461
0.0
452
        0
462
0.0
453
        0
470

1001
REVIT
1002
{
1070
     1
1000
165657
1002
}
1002
{
1070
     5
1000
16489
1002
}
1002
{
1070
     2
1000
-2000300
1002
}
  0
LINE
  5
1F7
330
70
100
AcDbEntity
  8
G-ANNO-TEXT
100
AcDbLine
 10
6134.468158088322
 20
3702.003430804032
 30
0.0
 11
6084.263897745453
 21
3702.00343080403
 31
0.0
1001
REVIT
1002
{
1070
     1
1000
165657
1002
}
1002
{
1070
     5
1000
16489
1002
}
1002
{
1070
     2
1000
-2000300
1002
}
  0
LINE
  5
1F8
330
70
100
AcDbEntity
  8
G-ANNO-TEXT
100
AcDbLine
 10
6224.464422171558
 20
3804.240364280678
 30
0.0
 11
6134.468158088322
 21
3702.003430804032
 31
0.0
1001
REVIT
1002
{
1070
     1
1000
165657
1002
}
1002
{
1070
     5
1000
16489
1002
}
1002
{
1070
     2
1000
-2000300
1002
}
  0
MTEXT
  5
1F9
330
70
100
AcDbEntity
  8
G-ANNO-TEXT
100
AcDbMText
 10
5869.243542081608
 20
3708.253430804031
 30
0.0
 40
12.5
 41
252.892321875
 46
0.0
 71
     1
 72
     1
  1
Garage door jamb flashing
  7
Century Gothic
 73
     2
 44
1.0
1001
REVIT
1002
{
1070
     1
1000
165657
1002
}
1002
{
1070
     5
1000
16489
1002
}
1002
{
1070
     2
1000
-2000300
1002
}
  0
LINE
  5
1FA
330
70
100
AcDbEntity
  8
G-ANNO-TEXT
100
AcDbLine
 10
6410.617019582055
 20
3795.056638800939
 30
0.0
 11
6423.736115294213
 21
3802.592493976198
 31
0.0
1001
REVIT
1002
{
1070
     1
1000
165688
1002
}
1002
{
1070
     5
1000
16489
1002
}
1002
{
1070
     2
1000
-2000300
1002
}
  0
LINE
  5
1FB
330
70
100
AcDbEntity
  8
G-ANNO-TEXT
100
AcDbLine
 10
6423.736115294213
 20
3802.592493976198
 30
0.0
 11
6421.338670107495
 21
3805.731187762724
 31
0.0
1001
REVIT
1002
{
1070
     1
1000
165688
1002
}
1002
{
1070
     5
1000
16489
1002
}
1002
{
1070
     2
1000
-2000300
1002
}
  0
LINE
  5
1FC
330
70
100
AcDbEntity
  8
G-ANNO-TEXT
100
AcDbLine
 10
6421.338670107495
 20
3805.731187762724
 30
0.0
 11
6410.617019582055
 21
3795.056638800939
 31
0.0
1001
REVIT
1002
{
1070
     1
1000
165688
1002
}
1002
{
1070
     5
1000
16489
1002
}
1002
{
1070
     2
1000
-2000300
1002
}
  0
HATCH
  5
1FD
330
70
100
AcDbEntity
  8
G-ANNO-TEXT
100
AcDbHatch
 10
0.0
 20
0.0
 30
0.0
210
0.0
220
0.0
230
1.0
  2
SOLID
 70
     1
 71
     0
 91
        1
 92
        0
 93
        3
 72
     1
 10
6410.617019582055
 20
3795.056638800939
 11
6423.736115294213
 21
3802.592493976198
 72
     1
 10
6423.736115294213
 20
3802.592493976198
 11
6421.338670107495
 21
3805.731187762724
 72
     1
 10
6421.338670107495
 20
3805.731187762724
 11
6410.617019582055
 21
3795.056638800939
 97
        0
 75
     0
 76
     1
 98
        1
 10
0.0
 20
0.0
450
        0
451
        0
460
0.0
461
0.0
452
        0
462
0.0
453
        0
470

1001
REVIT
1002
{
1070
     1
1000
165688
1002
}
1002
{
1070
     5
1000
16489
1002
}
1002
{
1070
     2
1000
-2000300
1002
}
  0
LINE
  5
1FE
330
70
100
AcDbEntity
  8
G-ANNO-TEXT
100
AcDbLine
 10
6459.88410451206
 20
3832.688578602161
 30
0.0
 11
6490.46913147024
 21
3832.688578602161
 31
0.0
1001
REVIT
1002
{
1070
     1
1000
165688
1002
}
1002
{
1070
     5
1000
16489
1002
}
1002
{
1070
     2
1000
-2000300
1002
}
  0
LINE
  5
1FF
330
70
100
AcDbEntity
  8
G-ANNO-TEXT
100
AcDbLine
 10
6410.617019582055
 20
3795.056638800939
 30
0.0
 11
6459.88410451206
 21
3832.688578602161
 31
0.0
1001
REVIT
1002
{
1070
     1
1000
165688
1002
}
1002
{
1070
     5
1000
16489
1002
}
1002
{
1070
     2
1000
-2000300
1002
}
  0
LINE
  5
200
330
70
100
AcDbEntity
  8
G-ANNO-TEXT
100
AcDbLine
 10
6399.704788794566
 20
3865.020448796609
 30
0.0
 11
6411.98385928649
 21
3856.181658529744
 31
0.0
1001
REVIT
1002
{
1070
     1
1000
165688
1002
}
1002
{
1070
     5
1000
16489
1002
}
1002
{
1070
     2
1000
-2000300
1002
}
  0
LINE
  5
201
330
70
100
AcDbEntity
  8
G-ANNO-TEXT
100
AcDbLine
 10
6411.98385928649
 20
3856.181658529744
 30
0.0
 11
6413.85310736227
 21
3859.660890304158
 31
0.0
1001
REVIT
1002
{
1070
     1
1000
165688
1002
}
1002
{
1070
     5
1000
16489
1002
}
1002
{
1070
     2
1000
-2000300
1002
}
  0
LINE
  5
202
330
70
100
AcDbEntity
  8
G-ANNO-TEXT
100
AcDbLine
 10
6413.85310736227
 20
3859.660890304158
 30
0.0
 11
6399.704788794566
 21
3865.020448796609
 31
0.0
1001
REVIT
1002
{
1070
     1
1000
165688
1002
}
1002
{
1070
     5
1000
16489
1002
}
1002
{
1070
     2
1000
-2000300
1002
}
  0
HATCH
  5
203
330
70
100
AcDbEntity
  8
G-ANNO-TEXT
100
AcDbHatch
 10
0.0
 20
0.0
 30
0.0
210
0.0
220
0.0
230
1.0
  2
SOLID
 70
     1
 71
     0
 91
        1
 92
        0
 93
        3
 72
     1
 10
6399.704788794566
 20
3865.020448796609
 11
6411.98385928649
 21
3856.181658529744
 72
     1
 10
6411.98385928649
 20
3856.181658529744
 11
6413.85310736227
 21
3859.660890304158
 72
     1
 10
6413.85310736227
 20
3859.660890304158
 11
6399.704788794566
 21
3865.020448796609
 97
        0
 75
     0
 76
     1
 98
        1
 10
0.0
 20
0.0
450
        0
451
        0
460
0.0
461
0.0
452
        0
462
0.0
453
        0
470

1001
REVIT
1002
{
1070
     1
1000
165688
1002
}
1002
{
1070
     5
1000
16489
1002
}
1002
{
1070
     2
1000
-2000300
1002
}
  0
LINE
  5
204
330
70
100
AcDbEntity
  8
G-ANNO-TEXT
100
AcDbLine
 10
6459.88410451206
 20
3832.688578602161
 30
0.0
 11
6490.46913147024
 21
3832.688578602161
 31
0.0
1001
REVIT
1002
{
1070
     1
1000
165688
1002
}
1002
{
1070
     5
1000
16489
1002
}
1002
{
1070
     2
1000
-2000300
1002
}
  0
LINE
  5
205
330
70
100
AcDbEntity
  8
G-ANNO-TEXT
100
AcDbLine
 10
6399.704788794566
 20
3865.020448796609
 30
0.0
 11
6459.88410451206
 21
3832.688578602161
 31
0.0
1001
REVIT
1002
{
1070
     1
1000
165688
1002
}
1002
{
1070
     5
1000
16489
1002
}
1002
{
1070
     2
1000
-2000300
1002
}
  0
MTEXT
  5
206
330
70
100
AcDbEntity
  8
G-ANNO-TEXT
100
AcDbMText
 10
6495.46913147024
 20
3838.938578602162
 30
0.0
 40
12.5
 41
239.183465625
 46
0.0
 71
     1
 72
     1
  1
Line of head flashing over
  7
Century Gothic
 73
     2
 44
1.0
1001
REVIT
1002
{
1070
     1
1000
165688
1002
}
1002
{
1070
     5
1000
16489
1002
}
1002
{
1070
     2
1000
-2000300
1002
}
  0
LINE
  5
207
330
70
100
AcDbEntity
  8
G-ANNO-TEXT
100
AcDbLine
 10
6439.147706704872
 20
3965.211621416068
 30
0.0
 11
6454.147706704872
 21
3963.236833952257
 31
0.0
1001
REVIT
1002
{
1070
     1
1000
165705
1002
}
1002
{
1070
     5
1000
16489
1002
}
1002
{
1070
     2
1000
-2000300
1002
}
  0
LINE
  5
208
330
70
100
AcDbEntity
  8
G-ANNO-TEXT
100
AcDbLine
 10
6454.147706704872
 20
3963.236833952257
 30
0.0
 11
6454.147706704872
 21
3967.186408879879
 31
0.0
1001
REVIT
1002
{
1070
     1
1000
165705
1002
}
1002
{
1070
     5
1000
16489
1002
}
1002
{
1070
     2
1000
-2000300
1002
}
  0
LINE
  5
209
330
70
100
AcDbEntity
  8
G-ANNO-TEXT
100
AcDbLine
 10
6454.147706704872
 20
3967.186408879879
 30
0.0
 11
6439.147706704872
 21
3965.211621416068
 31
0.0
1001
REVIT
1002
{
1070
     1
1000
165705
1002
}
1002
{
1070
     5
1000
16489
1002
}
1002
{
1070
     2
1000
-2000300
1002
}
  0
HATCH
  5
20A
330
70
100
AcDbEntity
  8
G-ANNO-TEXT
100
AcDbHatch
 10
0.0
 20
0.0
 30
0.0
210
0.0
220
0.0
230
1.0
  2
SOLID
 70
     1
 71
     0
 91
        1
 92
        0
 93
        3
 72
     1
 10
6439.147706704872
 20
3965.211621416068
 11
6454.147706704872
 21
3963.236833952257
 72
     1
 10
6454.147706704872
 20
3963.236833952257
 11
6454.147706704872
 21
3967.186408879879
 72
     1
 10
6454.147706704872
 20
3967.186408879879
 11
6439.147706704872
 21
3965.211621416068
 97
        0
 75
     0
 76
     1
 98
        1
 10
0.0
 20
0.0
450
        0
451
        0
460
0.0
461
0.0
452
        0
462
0.0
453
        0
470

1001
REVIT
1002
{
1070
     1
1000
165705
1002
}
1002
{
1070
     5
1000
16489
1002
}
1002
{
1070
     2
1000
-2000300
1002
}
  0
LINE
  5
20B
330
70
100
AcDbEntity
  8
G-ANNO-TEXT
100
AcDbLine
 10
6439.147706704872
 20
3965.211621416068
 30
0.0
 11
6490.46913147024
 21
3965.211621416068
 31
0.0
1001
REVIT
1002
{
1070
     1
1000
165705
1002
}
1002
{
1070
     5
1000
16489
1002
}
1002
{
1070
     2
1000
-2000300
1002
}
  0
MTEXT
  5
20C
330
70
100
AcDbEntity
  8
G-ANNO-TEXT
100
AcDbMText
 10
6495.46913147024
 20
3971.461621416067
 30
0.0
 40
12.5
 41
123.018946875
 46
0.0
 71
     1
 72
     1
  1
Garage door
  7
Century Gothic
 73
     2
 44
1.0
1001
REVIT
1002
{
1070
     1
1000
165705
1002
}
1002
{
1070
     5
1000
16489
1002
}
1002
{
1070
     2
1000
-2000300
1002
}
  0
LINE
  5
20D
330
70
100
AcDbEntity
  8
G-ANNO-TEXT
100
AcDbLine
 10
6403.323132457578
 20
3996.250572017619
 30
0.0
 11
6414.926602154967
 21
4005.959293689858
 31
0.0
1001
REVIT
1002
{
1070
     1
1000
165706
1002
}
1002
{
1070
     5
1000
16489
1002
}
1002
{
1070
     2
1000
-2000300
1002
}
  0
LINE
  5
20E
330
70
100
AcDbEntity
  8
G-ANNO-TEXT
100
AcDbLine
 10
6414.926602154967
 20
4005.959293689858
 30
0.0
 11
6412.018421440473
 21
4008.631675968041
 31
0.0
1001
REVIT
1002
{
1070
     1
1000
165706
1002
}
1002
{
1070
     5
1000
16489
1002
}
1002
{
1070
     2
1000
-2000300
1002
}
  0
LINE
  5
20F
330
70
100
AcDbEntity
  8
G-ANNO-TEXT
100
AcDbLine
 10
6412.018421440473
 20
4008.631675968041
 30
0.0
 11
6403.323132457578
 21
3996.250572017619
 31
0.0
1001
REVIT
1002
{
1070
     1
1000
165706
1002
}
1002
{
1070
     5
1000
16489
1002
}
1002
{
1070
     2
1000
-2000300
1002
}
  0
HATCH
  5
210
330
70
100
AcDbEntity
  8
G-ANNO-TEXT
100
AcDbHatch
 10
0.0
 20
0.0
 30
0.0
210
0.0
220
0.0
230
1.0
  2
SOLID
 70
     1
 71
     0
 91
        1
 92
        0
 93
        3
 72
     1
 10
6403.323132457578
 20
3996.250572017619
 11
6414.926602154967
 21
4005.959293689858
 72
     1
 10
6414.926602154967
 20
4005.959293689858
 11
6412.018421440473
 21
4008.631675968041
 72
     1
 10
6412.018421440473
 20
4008.631675968041
 11
6403.323132457578
 21
3996.250572017619
 97
        0
 75
     0
 76
     1
 98
        1
 10
0.0
 20
0.0
450
        0
451
        0
460
0.0
461
0.0
452
        0
462
0.0
453
        0
470

1001
REVIT
1002
{
1070
     1
1000
165706
1002
}
1002
{
1070
     5
1000
16489
1002
}
1002
{
1070
     2
1000
-2000300
1002
}
  0
LINE
  5
211
330
70
100
AcDbEntity
  8
G-ANNO-TEXT
100
AcDbLine
 10
6431.694758836624
 20
4027.125577194816
 30
0.0
 11
6490.469131470241
 21
4027.125577194816
 31
0.0
1001
REVIT
1002
{
1070
     1
1000
165706
1002
}
1002
{
1070
     5
1000
16489
1002
}
1002
{
1070
     2
1000
-2000300
1002
}
  0
LINE
  5
212
330
70
100
AcDbEntity
  8
G-ANNO-TEXT
100
AcDbLine
 10
6403.323132457578
 20
3996.250572017619
 30
0.0
 11
6431.694758836624
 21
4027.125577194816
 31
0.0
1001
REVIT
1002
{
1070
     1
1000
165706
1002
}
1002
{
1070
     5
1000
16489
1002
}
1002
{
1070
     2
1000
-2000300
1002
}
  0
MTEXT
  5
213
330
70
100
AcDbEntity
  8
G-ANNO-TEXT
100
AcDbMText
 10
6495.46913147024
 20
4033.375577194815
 30
0.0
 40
12.5
 41
263.7151031250001
 46
0.0
 71
     1
 72
     1
  1
Concrete slab rebate below
  7
Century Gothic
 73
     2
 44
1.0
1001
REVIT
1002
{
1070
     1
1000
165706
1002
}
1002
{
1070
     5
1000
16489
1002
}
1002
{
1070
     2
1000
-2000300
1002
}
  0
LINE
  5
214
330
70
100
AcDbEntity
  8
G-ANNO-TEXT
100
AcDbLine
 10
6299.986784893395
 20
3816.192652889249
 30
0.0
 11
6309.71040568246
 21
3804.601665688942
 31
0.0
1001
REVIT
1002
{
1070
     1
1000
165707
1002
}
1002
{
1070
     5
1000
16489
1002
}
1002
{
1070
     2
1000
-2000300
1002
}
  0
LINE
  5
215
330
70
100
AcDbEntity
  8
G-ANNO-TEXT
100
AcDbLine
 10
6309.71040568246
 20
3804.601665688942
 30
0.0
 11
6312.379049577572
 21
3807.513277247851
 31
0.0
1001
REVIT
1002
{
1070
     1
1000
165707
1002
}
1002
{
1070
     5
1000
16489
1002
}
1002
{
1070
     2
1000
-2000300
1002
}
  0
LINE
  5
216
330
70
100
AcDbEntity
  8
G-ANNO-TEXT
100
AcDbLine
 10
6312.379049577572
 20
3807.513277247851
 30
0.0
 11
6299.986784893395
 21
3816.192652889249
 31
0.0
1001
REVIT
1002
{
1070
     1
1000
165707
1002
}
1002
{
1070
     5
1000
16489
1002
}
1002
{
1070
     2
1000
-2000300
1002
}
  0
HATCH
  5
217
330
70
100
AcDbEntity
  8
G-ANNO-TEXT
100
AcDbHatch
 10
0.0
 20
0.0
 30
0.0
210
0.0
220
0.0
230
1.0
  2
SOLID
 70
     1
 71
     0
 91
        1
 92
        0
 93
        3
 72
     1
 10
6299.986784893395
 20
3816.192652889249
 11
6309.71040568246
 21
3804.601665688942
 72
     1
 10
6309.71040568246
 20
3804.601665688942
 11
6312.379049577572
 21
3807.513277247851
 72
     1
 10
6312.379049577572
 20
3807.513277247851
 11
6299.986784893395
 21
3816.192652889249
 97
        0
 75
     0
 76
     1
 98
        1
 10
0.0
 20
0.0
450
        0
451
        0
460
0.0
461
0.0
452
        0
462
0.0
453
        0
470

1001
REVIT
1002
{
1070
     1
1000
165707
1002
}
1002
{
1070
     5
1000
16489
1002
}
1002
{
1070
     2
1000
-2000300
1002
}
  0
LINE
  5
218
330
70
100
AcDbEntity
  8
G-ANNO-TEXT
100
AcDbLine
 10
6424.57240665242
 20
3702.003430804032
 30
0.0
 11
6490.469131470241
 21
3702.003430804032
 31
0.0
1001
REVIT
1002
{
1070
     1
1000
165707
1002
}
1002
{
1070
     5
1000
16489
1002
}
1002
{
1070
     2
1000
-2000300
1002
}
  0
LINE
  5
219
330
70
100
AcDbEntity
  8
G-ANNO-TEXT
100
AcDbLine
 10
6299.986784893395
 20
3816.192652889249
 30
0.0
 11
6424.57240665242
 21
3702.003430804032
 31
0.0
1001
REVIT
1002
{
1070
     1
1000
165707
1002
}
1002
{
1070
     5
1000
16489
1002
}
1002
{
1070
     2
1000
-2000300
1002
}
  0
MTEXT
  5
21A
330
70
100
AcDbEntity
  8
G-ANNO-TEXT
100
AcDbMText
 10
6495.46913147024
 20
3708.253430804031
 30
0.0
 40
12.5
 41
304.4809125
 46
0.0
 71
     1
 72
     1
  1
8-10mm MS sealant over PEF rod 
  7
Century Gothic
 73
     2
 44
1.0
1001
REVIT
1002
{
1070
     1
1000
165707
1002
}
1002
{
1070
     5
1000
16489
1002
}
1002
{
1070
     2
1000
-2000300
1002
}
  0
MTEXT
  5
21B
330
70
100
AcDbEntity
  8
G-ANNO-TEXT
100
AcDbMText
 10
6495.46913147024
 20
3687.417493304031
 30
0.0
 40
12.5
 41
293.297371875
 46
0.0
 71
     1
 72
     1
  1
supplied and installed by others
  7
Century Gothic
 73
     2
 44
1.0
1001
REVIT
1002
{
1070
     1
1000
165707
1002
}
1002
{
1070
     5
1000
16489
1002
}
1002
{
1070
     2
1000
-2000300
1002
}
  0
LINE
  5
21C
330
70
100
AcDbEntity
  8
G-ANNO-TEXT
100
AcDbLine
 10
6012.59726009285
 20
3771.443857601885
 30
0.0
 11
5997.987136937844
 21
3771.443857601885
 31
0.0
1001
REVIT
1002
{
1070
     1
1000
165728
1002
}
1002
{
1070
     5
1000
16489
1002
}
1002
{
1070
     2
1000
-2000300
1002
}
  0
LINE
  5
21D
330
70
100
AcDbEntity
  8
G-ANNO-TEXT
100
AcDbLine
 10
6091.323499320405
 20
3807.571432271302
 30
0.0
 11
6079.51459106928
 21
3798.113659201297
 31
0.0
1001
REVIT
1002
{
1070
     1
1000
165728
1002
}
1002
{
1070
     5
1000
16489
1002
}
1002
{
1070
     2
1000
-2000300
1002
}
  0
LINE
  5
21E
330
70
100
AcDbEntity
  8
G-ANNO-TEXT
100
AcDbLine
 10
6079.51459106928
 20
3798.113659201297
 30
0.0
 11
6082.36482165514
 21
3795.379554646543
 31
0.0
1001
REVIT
1002
{
1070
     1
1000
165728
1002
}
1002
{
1070
     5
1000
16489
1002
}
1002
{
1070
     2
1000
-2000300
1002
}
  0
LINE
  5
21F
330
70
100
AcDbEntity
  8
G-ANNO-TEXT
100
AcDbLine
 10
6082.36482165514
 20
3795.379554646543
 30
0.0
 11
6091.323499320405
 21
3807.571432271302
 31
0.0
1001
REVIT
1002
{
1070
     1
1000
165728
1002
}
1002
{
1070
     5
1000
16489
1002
}
1002
{
1070
     2
1000
-2000300
1002
}
  0
HATCH
  5
220
330
70
100
AcDbEntity
  8
G-ANNO-TEXT
100
AcDbHatch
 10
0.0
 20
0.0
 30
0.0
210
0.0
220
0.0
230
1.0
  2
SOLID
 70
     1
 71
     0
 91
        1
 92
        0
 93
        3
 72
     1
 10
6091.323499320405
 20
3807.571432271302
 11
6079.51459106928
 21
3798.113659201297
 72
     1
 10
6079.51459106928
 20
3798.113659201297
 11
6082.36482165514
 21
3795.379554646543
 72
     1
 10
6082.36482165514
 20
3795.379554646543
 11
6091.323499320405
 21
3807.571432271302
 97
        0
 75
     0
 76
     1
 98
        1
 10
0.0
 20
0.0
450
        0
451
        0
460
0.0
461
0.0
452
        0
462
0.0
453
        0
470

1001
REVIT
1002
{
1070
     1
1000
165728
1002
}
1002
{
1070
     5
1000
16489
1002
}
1002
{
1070
     2
1000
-2000300
1002
}
  0
LINE
  5
221
330
70
100
AcDbEntity
  8
G-ANNO-TEXT
100
AcDbLine
 10
6056.667858844909
 20
3771.443857601888
 30
0.0
 11
6012.59726009285
 21
3771.443857601885
 31
0.0
1001
REVIT
1002
{
1070
     1
1000
165728
1002
}
1002
{
1070
     5
1000
16489
1002
}
1002
{
1070
     2
1000
-2000300
1002
}
  0
LINE
  5
222
330
70
100
AcDbEntity
  8
G-ANNO-TEXT
100
AcDbLine
 10
6091.323499320405
 20
3807.571432271302
 30
0.0
 11
6056.667858844909
 21
3771.443857601888
 31
0.0
1001
REVIT
1002
{
1070
     1
1000
165728
1002
}
1002
{
1070
     5
1000
16489
1002
}
1002
{
1070
     2
1000
-2000300
1002
}
  0
MTEXT
  5
223
330
70
100
AcDbEntity
  8
G-ANNO-TEXT
100
AcDbMText
 10
5870.650418187843
 20
3777.693857601884
 30
0.0
 40
12.5
 41
148.272103125
 46
0.0
 71
     1
 72
     1
  1
TRS Interlocking 
  7
Century Gothic
 73
     2
 44
1.0
1001
REVIT
1002
{
1070
     1
1000
165728
1002
}
1002
{
1070
     5
1000
16489
1002
}
1002
{
1070
     2
1000
-2000300
1002
}
  0
MTEXT
  5
224
330
70
100
AcDbEntity
  8
G-ANNO-TEXT
100
AcDbMText
 10
5870.650418187843
 20
3756.857920101884
 30
0.0
 40
12.5
 41
164.145515625
 46
0.0
 71
     1
 72
     1
  1
Vertical Cladding
  7
Century Gothic
 73
     2
 44
1.0
1001
REVIT
1002
{
1070
     1
1000
165728
1002
}
1002
{
1070
     5
1000
16489
1002
}
1002
{
1070
     2
1000
-2000300
1002
}
  0
VIEWPORT
  5
226
330
6C
100
AcDbEntity
 67
     1
  8
G-ANNO-NPLT
100
AcDbViewport
 10
135.0013842937793
 20
118.8273587285699
 30
0.0
 40
229.0373460064694
 41
93.12935030198914
 68
    -1
 69
     2
 12
6179.189746013367
 22
3899.405452392338
 13
0.0
 23
0.0
 14
0.0
 24
0.0
 15
0.0
 25
0.0
 16
0.0
 26
0.0
 36
1.0
 17
0.0
 27
0.0
 37
0.0
 42
0.0
 43
0.0
 44
0.0
 45
465.6467515099457
 50
0.0
 51
0.0
 72
  1000
 90
    32768
  1

281
     0
 71
     1
 74
     1
110
0.0
120
0.0
130
0.0
111
1.0
121
0.0
131
0.0
112
0.0
122
1.0
132
0.0
 79
     0
146
0.0
170
     0
 61
     5
292
     1
282
     1
141
0.0
142
0.0
 63
   250
421
  3355443
  0
VIEWPORT
  5
228
330
6C
100
AcDbEntity
 67
     1
  8
0
100
AcDbViewport
 10
6.0
 20
4.5
 30
0.0
 40
12.0
 41
9.0
 68
    -1
 69
     1
 12
6.0
 22
4.5
 13
0.0
 23
0.0
 14
0.0
 24
0.0
 15
0.0
 25
0.0
 16
0.0
 26
0.0
 36
1.0
 17
0.0
 27
0.0
 37
0.0
 42
50.0
 43
0.0
 44
0.0
 45
12.0
 50
0.0
 51
0.0
 72
   100
 90
    32800
  1

281
     0
 71
     1
 74
     1
110
0.0
120
0.0
130
0.0
111
1.0
121
0.0
131
0.0
112
0.0
122
1.0
132
0.0
 79
     0
146
0.0
170
     0
 61
     5
292
     1
282
     1
141
0.0
142
0.0
 63
   250
421
  3355443
  0
INSERT
  5
259
330
6C
100
AcDbEntity
 67
     1
  8
G-ANNO-TTLB
100
AcDbBlockReference
  2
Titleblock A4 The roofing store - Titleblock A4 The roofing store-2694-Garage Door Jamb Flashing Detail _Ver__
 10
0.0
 20
0.0
 30
0.0
1001
REVIT
1002
{
1070
     1
1000
165845
1002
}
1002
{
1070
     5
1000
2694
1002
}
1002
{
1070
     2
1000
-2000280
1002
}
  0
MTEXT
  5
25B
330
6C
100
AcDbEntity
 67
     1
  8
G-ANNO-TTLB
100
AcDbMText
 10
252.3895146630469
 20
12.52446433240663
 30
0.0
 40
4.0
 41
44.084795625
 46
0.0
 71
     1
 72
     1
  1
W-TRSIL-05-V-G
  7
Century Gothic_2
 73
     2
 44
1.0
1001
REVIT
1002
{
1070
     1
1000
165845
1002
}
1002
{
1070
     5
1000
2694
1002
}
1002
{
1070
     2
1000
-2000280
1002
}
  0
MTEXT
  5
25D
330
6C
100
AcDbEntity
 67
     1
  8
G-ANNO-TTLB
100
AcDbMText
 10
76.05126760874208
 20
10.95227683240663
 30
0.0
 40
3.5
 41
106.35186375
 46
0.0
 71
     1
 72
     1
  1
Garage Door Jamb Flashing Detail (Ver.)
  7
Century Gothic_3
 73
     2
 44
1.0
1001
REVIT
1002
{
1070
     1
1000
165845
1002
}
1002
{
1070
     5
1000
2694
1002
}
1002
{
1070
     2
1000
-2000280
1002
}
  0
MTEXT
  5
25E
330
6C
100
AcDbEntity
 67
     1
  8
G-ANNO-TTLB
100
AcDbMText
 10
271.6845146630469
 20
20.51531106318182
 30
0.0
 40
1.8
 41
22.2227775
 46
0.0
 71
     1
 72
     1
  1
Date: 10/11/2020
  7
Century Gothic_1
 73
     2
 44
1.0
1001
REVIT
1002
{
1070
     1
1000
165845
1002
}
1002
{
1070
     5
1000
2694
1002
}
1002
{
1070
     2
1000
-2000280
1002
}
  0
MTEXT
  5
260
330
6C
100
AcDbEntity
 67
     1
  8
G-ANNO-TTLB
100
AcDbMText
 10
75.81756651341409
 20
19.95645689651516
 30
0.0
 40
4.999999999999999
 41
63.814325
 46
0.0
 71
     1
 72
     1
  1
TRS Interlocking
  7
Century Gothic_4
 73
     2
 44
1.0
1001
REVIT
1002
{
1070
     1
1000
165845
1002
}
1002
{
1070
     5
1000
2694
1002
}
1002
{
1070
     2
1000
-2000280
1002
}
  0
ENDSEC
  0
SECTION
  2
OBJECTS
  0
DICTIONARY
  5
C
330
0
100
AcDbDictionary
281
     1
  3
ACAD_CIP_PREVIOUS_PRODUCT_INFO
350
79
  3
ACAD_COLOR
350
63
  3
ACAD_DETAILVIEWSTYLE
350
6A
  3
ACAD_GROUP
350
D
  3
ACAD_IMAGE_DICT
350
22D
  3
ACAD_IMAGE_VARS
350
7A
  3
ACAD_LAYOUT
350
62
  3
ACAD_MATERIAL
350
10
  3
ACAD_MLEADERSTYLE
350
66
  3
ACAD_MLINESTYLE
350
5F
  3
ACAD_PLOTSETTINGS
350
61
  3
ACAD_PLOTSTYLENAME
350
E
  3
ACAD_SCALELIST
350
42
  3
ACAD_SECTIONVIEWSTYLE
350
68
  3
ACAD_TABLESTYLE
350
64
  3
ACAD_VISUALSTYLE
350
29
  3
ACDB_RECOMPOSE_DATA
350
26B
  3
AcDbVariableDictionary
350
7B
  3
REVIT_DICTIONARY
350
261
  0
DICTIONARY
  5
266
330
70
100
AcDbDictionary
280
     1
281
     1
  3
ACAD_SORTENTS
360
267
  0
IMAGEDEF_REACTOR
  5
230
330
22F
100
AcDbRasterImageDefReactor
 90
        2
330
22F
  0
XRECORD
  5
79
102
{ACAD_REACTORS
330
C
102
}
330
C
100
AcDbXrecord
280
     1
300
RVT
300
2019
300
RVT2019
  0
DICTIONARY
  5
63
102
{ACAD_REACTORS
330
C
102
}
330
C
100
AcDbDictionary
281
     1
  0
DICTIONARY
  5
6A
102
{ACAD_REACTORS
330
C
102
}
330
C
100
AcDbDictionary
281
     1
  3
Imperial24
350
6B
  0
DICTIONARY
  5
D
102
{ACAD_REACTORS
330
C
102
}
330
C
100
AcDbDictionary
281
     1
  0
DICTIONARY
  5
22D
102
{ACAD_REACTORS
330
C
102
}
330
C
100
AcDbDictionary
281
     1
  3
TRSInterlockingCladdingDetails-TheRoofingStore_w-107754
350
22E
  0
RASTERVARIABLES
  5
7A
102
{ACAD_REACTORS
330
C
102
}
330
C
100
AcDbRasterVariables
 90
        0
 70
     0
 71
     1
 72
     1
  0
DICTIONARY
  5
62
102
{ACAD_REACTORS
330
C
102
}
330
C
100
AcDbDictionary
281
     1
  3
Layout1
350
6F
  3
Layout2
350
77
  3
Model
350
73
  0
DICTIONARY
  5
10
102
{ACAD_REACTORS
330
C
102
}
330
C
100
AcDbDictionary
281
     1
  3
ByBlock
350
19
  3
ByLayer
350
11
  3
Global
350
21
  0
DICTIONARY
  5
66
102
{ACAD_REACTORS
330
C
102
}
330
C
100
AcDbDictionary
281
     1
  3
Standard
350
67
  0
DICTIONARY
  5
5F
102
{ACAD_REACTORS
330
C
102
}
330
C
100
AcDbDictionary
281
     1
  3
Standard
350
60
  0
DICTIONARY
  5
61
102
{ACAD_REACTORS
330
C
102
}
330
C
100
AcDbDictionary
281
     1
  0
ACDBDICTIONARYWDFLT
  5
E
102
{ACAD_REACTORS
330
C
102
}
330
C
100
AcDbDictionary
281
     1
  3
Normal
350
F
100
AcDbDictionaryWithDefault
340
F
  0
DICTIONARY
  5
42
102
{ACAD_REACTORS
330
C
102
}
330
C
100
AcDbDictionary
281
     1
  3
A0
350
43
  3
A1
350
44
  3
A2
350
45
  3
A3
350
46
  3
A4
350
47
  3
A5
350
48
  3
A6
350
49
  3
A7
350
4A
  3
A8
350
4B
  3
A9
350
4C
  3
B0
350
4D
  3
B1
350
4E
  3
B2
350
4F
  3
B3
350
50
  3
B4
350
51
  3
B5
350
52
  3
B6
350
53
  0
DICTIONARY
  5
68
102
{ACAD_REACTORS
330
C
102
}
330
C
100
AcDbDictionary
281
     1
  3
Imperial24
350
69
  0
DICTIONARY
  5
64
102
{ACAD_REACTORS
330
C
102
}
330
C
100
AcDbDictionary
281
     1
  3
Standard
350
65
  0
DICTIONARY
  5
29
102
{ACAD_REACTORS
330
C
102
}
330
C
100
AcDbDictionary
281
     1
  3
2dWireframe
350
2F
  3
Basic
350
2E
  3
Brighten
350
35
  3
ColorChange
350
39
  3
Conceptual
350
32
  3
Dim
350
34
  3
EdgeColorOff
350
41
  3
Facepattern
350
38
  3
Flat
350
2A
  3
FlatWithEdges
350
2B
  3
Gouraud
350
2C
  3
GouraudWithEdges
350
2D
  3
Hidden
350
31
  3
JitterOff
350
3F
  3
Linepattern
350
37
  3
OverhangOff
350
40
  3
Realistic
350
33
  3
Shaded
350
3E
  3
Shaded with edges
350
3D
  3
Shades of Gray
350
3A
  3
Sketchy
350
3B
  3
Thicken
350
36
  3
Wireframe
350
30
  3
X-Ray
350
3C
  0
XRECORD
  5
26B
102
{ACAD_REACTORS
330
C
102
}
330
C
100
AcDbXrecord
280
     1
 90
        1
330
65
  0
DICTIONARY
  5
7B
102
{ACAD_REACTORS
330
C
102
}
330
C
100
AcDbDictionary
281
     1
  3
CANNOSCALE
350
80
  3
CMLEADERSTYLE
350
7D
  3
CTABLESTYLE
350
7C
  3
CVIEWDETAILSTYLE
350
7E
  3
CVIEWSECTIONSTYLE
350
7F
  0
DICTIONARY
  5
261
102
{ACAD_REACTORS
330
C
102
}
330
C
100
AcDbDictionary
281
     1
  3
DRAWING_TOOL
350
265
  3
REVIT_CATEGORY_MAPPING
350
263
  3
REVIT_SUB_CATEGORY_MAPPING
350
264
  3
REVIT_TYPE_MAPPING
350
262
  0
SORTENTSTABLE
  5
267
102
{ACAD_REACTORS
330
266
102
}
330
266
100
AcDbSortentsTable
330
70
  0
ACDBDETAILVIEWSTYLE
  5
6B
102
{ACAD_XDICTIONARY
360
2A0
102
}
102
{ACAD_REACTORS
330
6A
102
}
330
6A
100
AcDbModelDocViewStyle
 70
     0
  3
Imperial24
290
     0
100
AcDbDetailViewStyle
 70
     0
 71
     0
 90
        3
 71
     1
340
55
 62
   256
 40
0.24
340
0
 62
   256
 40
0.24
300

 40
0.36
280
     3
 71
     2
340
5D
 90
       25
 62
   256
 71
     3
340
55
 62
   256
 40
0.24
 90
        1
 40
0.75
 90
        1
300
%<\AcVar ViewType \f "%tc1">% %<\AcVar ViewDetailId>%\PSCALE %<\AcVar ViewScale \f "%sn">%
 71
     4
340
5D
 90
       25
 62
   256
340
5D
 90
       25
 62
   256
280
     0
  0
IMAGEDEF
  5
22E
102
{ACAD_REACTORS
330
22D
330
230
102
}
330
22D
100
AcDbRasterImageDef
 90
        0
  1
E:\CAD Files\TRS Interlocking Panel\Custom Detail with TRS Weatherboard 20201110\TRSInterlockingCladdingDetails-TheRoofingStore_w-107754.jpg
 10
2863.0
 20
400.0
 11
0.0846666666666667
 21
0.0846666666666667
280
     1
281
     5
  0
LAYOUT
  5
6F
102
{ACAD_REACTORS
330
62
102
}
330
62
100
AcDbPlotSettings
  1

  2

  4

  6

 40
0.0
 41
0.0
 42
0.0
 43
0.0
 44
0.0
 45
0.0
 46
0.0
 47
0.0
 48
0.0
 49
0.0
140
0.0
141
0.0
142
1.0
143
1.0
 70
   688
 72
     0
 73
     0
 74
     5
  7

 75
    16
147
1.0
 76
     0
 77
     2
 78
   300
148
0.0
149
0.0
100
AcDbLayout
  1
Layout1
 70
     1
 71
     1
 10
0.0
 20
0.0
 11
12.0
 21
9.0
 12
0.0
 22
0.0
 32
0.0
 14
0.0
 24
0.0
 34
0.0
 15
0.0
 25
0.0
 35
0.0
146
0.0
 13
0.0
 23
0.0
 33
0.0
 16
1.0
 26
0.0
 36
0.0
 17
0.0
 27
1.0
 37
0.0
 76
     0
330
6C
  0
LAYOUT
  5
77
102
{ACAD_REACTORS
330
62
102
}
330
62
100
AcDbPlotSettings
  1

  2

  4

  6

 40
0.0
 41
0.0
 42
0.0
 43
0.0
 44
0.0
 45
0.0
 46
0.0
 47
0.0
 48
0.0
 49
0.0
140
0.0
141
0.0
142
1.0
143
1.0
 70
   688
 72
     0
 73
     0
 74
     5
  7

 75
    16
147
1.0
 76
     0
 77
     2
 78
   300
148
0.0
149
0.0
100
AcDbLayout
  1
Layout2
 70
     1
 71
     2
 10
0.0
 20
0.0
 11
12.0
 21
9.0
 12
0.0
 22
0.0
 32
0.0
 14
0.0
 24
0.0
 34
0.0
 15
0.0
 25
0.0
 35
0.0
146
0.0
 13
0.0
 23
0.0
 33
0.0
 16
1.0
 26
0.0
 36
0.0
 17
0.0
 27
1.0
 37
0.0
 76
     0
330
74
  0
LAYOUT
  5
73
102
{ACAD_REACTORS
330
62
102
}
330
62
100
AcDbPlotSettings
  1

  2

  4

  6

 40
0.0
 41
0.0
 42
0.0
 43
0.0
 44
0.0
 45
0.0
 46
0.0
 47
0.0
 48
0.0
 49
0.0
140
0.0
141
0.0
142
1.0
143
1.0
 70
  1712
 72
     0
 73
     0
 74
     0
  7

 75
     0
147
1.0
 76
     0
 77
     2
 78
   300
148
0.0
149
0.0
100
AcDbLayout
  1
Model
 70
     1
 71
     0
 10
0.0
 20
0.0
 11
12.0
 21
9.0
 12
0.0
 22
0.0
 32
0.0
 14
0.0
 24
0.0
 34
0.0
 15
0.0
 25
0.0
 35
0.0
146
0.0
 13
0.0
 23
0.0
 33
0.0
 16
1.0
 26
0.0
 36
0.0
 17
0.0
 27
1.0
 37
0.0
 76
     0
330
70
  0
MATERIAL
  5
19
102
{ACAD_XDICTIONARY
360
1A
102
}
102
{ACAD_REACTORS
330
10
102
}
330
10
100
AcDbMaterial
  1
ByBlock
 72
     0
 43
0.0208333333333333
 43
0.0
 43
0.0
 43
0.0
 43
0.0
 43
0.0208333333333333
 43
0.0
 43
0.0
 43
0.0
 43
0.0
 43
1.0
 43
0.0
 43
0.0
 43
0.0
 43
0.0
 43
1.0
 77
     0
 47
0.0208333333333333
 47
0.0
 47
0.0
 47
0.0
 47
0.0
 47
0.0208333333333333
 47
0.0
 47
0.0
 47
0.0
 47
0.0
 47
1.0
 47
0.0
 47
0.0
 47
0.0
 47
0.0
 47
1.0
171
     0
 49
0.0208333333333333
 49
0.0
 49
0.0
 49
0.0
 49
0.0
 49
0.0208333333333333
 49
0.0
 49
0.0
 49
0.0
 49
0.0
 49
1.0
 49
0.0
 49
0.0
 49
0.0
 49
0.0
 49
1.0
175
     0
142
0.0208333333333333
142
0.0
142
0.0
142
0.0
142
0.0
142
0.0208333333333333
142
0.0
142
0.0
142
0.0
142
0.0
142
1.0
142
0.0
142
0.0
142
0.0
142
0.0
142
1.0
179
     0
144
0.0208333333333333
144
0.0
144
0.0
144
0.0
144
0.0
144
0.0208333333333333
144
0.0
144
0.0
144
0.0
144
0.0
144
1.0
144
0.0
144
0.0
144
0.0
144
0.0
144
1.0
147
0.0208333333333333
147
0.0
147
0.0
147
0.0
147
0.0
147
0.0208333333333333
147
0.0
147
0.0
147
0.0
147
0.0
147
1.0
147
0.0
147
0.0
147
0.0
147
0.0
147
1.0
  0
MATERIAL
  5
11
102
{ACAD_XDICTIONARY
360
12
102
}
102
{ACAD_REACTORS
330
10
102
}
330
10
100
AcDbMaterial
  1
ByLayer
 72
     0
 43
0.0208333333333333
 43
0.0
 43
0.0
 43
0.0
 43
0.0
 43
0.0208333333333333
 43
0.0
 43
0.0
 43
0.0
 43
0.0
 43
1.0
 43
0.0
 43
0.0
 43
0.0
 43
0.0
 43
1.0
 77
     0
 47
0.0208333333333333
 47
0.0
 47
0.0
 47
0.0
 47
0.0
 47
0.0208333333333333
 47
0.0
 47
0.0
 47
0.0
 47
0.0
 47
1.0
 47
0.0
 47
0.0
 47
0.0
 47
0.0
 47
1.0
171
     0
 49
0.0208333333333333
 49
0.0
 49
0.0
 49
0.0
 49
0.0
 49
0.0208333333333333
 49
0.0
 49
0.0
 49
0.0
 49
0.0
 49
1.0
 49
0.0
 49
0.0
 49
0.0
 49
0.0
 49
1.0
175
     0
142
0.0208333333333333
142
0.0
142
0.0
142
0.0
142
0.0
142
0.0208333333333333
142
0.0
142
0.0
142
0.0
142
0.0
142
1.0
142
0.0
142
0.0
142
0.0
142
0.0
142
1.0
179
     0
144
0.0208333333333333
144
0.0
144
0.0
144
0.0
144
0.0
144
0.0208333333333333
144
0.0
144
0.0
144
0.0
144
0.0
144
1.0
144
0.0
144
0.0
144
0.0
144
0.0
144
1.0
147
0.0208333333333333
147
0.0
147
0.0
147
0.0
147
0.0
147
0.0208333333333333
147
0.0
147
0.0
147
0.0
147
0.0
147
1.0
147
0.0
147
0.0
147
0.0
147
0.0
147
1.0
  0
MATERIAL
  5
21
102
{ACAD_XDICTIONARY
360
22
102
}
102
{ACAD_REACTORS
330
10
102
}
330
10
100
AcDbMaterial
  1
Global
 72
     0
 43
0.0208333333333333
 43
0.0
 43
0.0
 43
0.0
 43
0.0
 43
0.0208333333333333
 43
0.0
 43
0.0
 43
0.0
 43
0.0
 43
1.0
 43
0.0
 43
0.0
 43
0.0
 43
0.0
 43
1.0
 77
     0
 47
0.0208333333333333
 47
0.0
 47
0.0
 47
0.0
 47
0.0
 47
0.0208333333333333
 47
0.0
 47
0.0
 47
0.0
 47
0.0
 47
1.0
 47
0.0
 47
0.0
 47
0.0
 47
0.0
 47
1.0
171
     0
 49
0.0208333333333333
 49
0.0
 49
0.0
 49
0.0
 49
0.0
 49
0.0208333333333333
 49
0.0
 49
0.0
 49
0.0
 49
0.0
 49
1.0
 49
0.0
 49
0.0
 49
0.0
 49
0.0
 49
1.0
175
     0
142
0.0208333333333333
142
0.0
142
0.0
142
0.0
142
0.0
142
0.0208333333333333
142
0.0
142
0.0
142
0.0
142
0.0
142
1.0
142
0.0
142
0.0
142
0.0
142
0.0
142
1.0
179
     0
144
0.0208333333333333
144
0.0
144
0.0
144
0.0
144
0.0
144
0.0208333333333333
144
0.0
144
0.0
144
0.0
144
0.0
144
1.0
144
0.0
144
0.0
144
0.0
144
0.0
144
1.0
147
0.0208333333333333
147
0.0
147
0.0
147
0.0
147
0.0
147
0.0208333333333333
147
0.0
147
0.0
147
0.0
147
0.0
147
1.0
147
0.0
147
0.0
147
0.0
147
0.0
147
1.0
  0
MLEADERSTYLE
  5
67
102
{ACAD_XDICTIONARY
360
29C
102
}
102
{ACAD_REACTORS
330
66
102
}
330
66
100
AcDbMLeaderStyle
179
     2
170
     2
171
     1
172
     0
 90
        2
 40
0.0
 41
0.0
173
     1
 91
-1056964608
340
5B
 92
       -2
290
     1
 42
0.09
291
     1
 43
0.36
  3
Standard
 44
0.18
300

342
55
174
     1
178
     6
175
     1
176
     0
 93
-1056964608
 45
0.18
292
     0
297
     0
 46
0.18
 94
-1056964608
 47
1.0
 49
1.0
140
1.0
293
     1
141
0.0
294
     1
177
     0
142
1.0
295
     0
296
     0
143
0.125
271
     0
272
     9
273
     9
  0
MLINESTYLE
  5
60
102
{ACAD_REACTORS
330
5F
102
}
330
5F
100
AcDbMlineStyle
  2
STANDARD
 70
     0
  3

 62
   256
 51
90.0
 52
90.0
 71
     2
 49
0.5
 62
   256
  6
BYLAYER
 49
-0.5
 62
   256
  6
BYLAYER
  0
ACDBPLACEHOLDER
  5
F
102
{ACAD_REACTORS
330
E
102
}
330
E
  0
SCALE
  5
43
102
{ACAD_REACTORS
330
42
102
}
330
42
100
AcDbScale
 70
     0
300
1:1
140
1.0
141
1.0
290
     1
  0
SCALE
  5
44
102
{ACAD_REACTORS
330
42
102
}
330
42
100
AcDbScale
 70
     0
300
1/128" = 1'-0"
140
0.0078125
141
12.0
290
     0
  0
SCALE
  5
45
102
{ACAD_REACTORS
330
42
102
}
330
42
100
AcDbScale
 70
     0
300
1/64" = 1'-0"
140
0.015625
141
12.0
290
     0
  0
SCALE
  5
46
102
{ACAD_REACTORS
330
42
102
}
330
42
100
AcDbScale
 70
     0
300
1/32" = 1'-0"
140
0.03125
141
12.0
290
     0
  0
SCALE
  5
47
102
{ACAD_REACTORS
330
42
102
}
330
42
100
AcDbScale
 70
     0
300
1/16" = 1'-0"
140
0.0625
141
12.0
290
     0
  0
SCALE
  5
48
102
{ACAD_REACTORS
330
42
102
}
330
42
100
AcDbScale
 70
     0
300
3/32" = 1'-0"
140
0.09375
141
12.0
290
     0
  0
SCALE
  5
49
102
{ACAD_REACTORS
330
42
102
}
330
42
100
AcDbScale
 70
     0
300
1/8" = 1'-0"
140
0.125
141
12.0
290
     0
  0
SCALE
  5
4A
102
{ACAD_REACTORS
330
42
102
}
330
42
100
AcDbScale
 70
     0
300
3/16" = 1'-0"
140
0.1875
141
12.0
290
     0
  0
SCALE
  5
4B
102
{ACAD_REACTORS
330
42
102
}
330
42
100
AcDbScale
 70
     0
300
1/4" = 1'-0"
140
0.25
141
12.0
290
     0
  0
SCALE
  5
4C
102
{ACAD_REACTORS
330
42
102
}
330
42
100
AcDbScale
 70
     0
300
3/8" = 1'-0"
140
0.375
141
12.0
290
     0
  0
SCALE
  5
4D
102
{ACAD_REACTORS
330
42
102
}
330
42
100
AcDbScale
 70
     0
300
1/2" = 1'-0"
140
0.5
141
12.0
290
     0
  0
SCALE
  5
4E
102
{ACAD_REACTORS
330
42
102
}
330
42
100
AcDbScale
 70
     0
300
3/4" = 1'-0"
140
0.75
141
12.0
290
     0
  0
SCALE
  5
4F
102
{ACAD_REACTORS
330
42
102
}
330
42
100
AcDbScale
 70
     0
300
1" = 1'-0"
140
1.0
141
12.0
290
     0
  0
SCALE
  5
50
102
{ACAD_REACTORS
330
42
102
}
330
42
100
AcDbScale
 70
     0
300
1-1/2" = 1'-0"
140
1.5
141
12.0
290
     0
  0
SCALE
  5
51
102
{ACAD_REACTORS
330
42
102
}
330
42
100
AcDbScale
 70
     0
300
3" = 1'-0"
140
3.0
141
12.0
290
     0
  0
SCALE
  5
52
102
{ACAD_REACTORS
330
42
102
}
330
42
100
AcDbScale
 70
     0
300
6" = 1'-0"
140
6.0
141
12.0
290
     0
  0
SCALE
  5
53
102
{ACAD_REACTORS
330
42
102
}
330
42
100
AcDbScale
 70
     0
300
1'-0" = 1'-0"
140
12.0
141
12.0
290
     0
  0
ACDBSECTIONVIEWSTYLE
  5
69
102
{ACAD_XDICTIONARY
360
29E
102
}
102
{ACAD_REACTORS
330
68
102
}
330
68
100
AcDbModelDocViewStyle
 70
     0
  3
Imperial24
290
     0
100
AcDbSectionViewStyle
 70
     0
 71
     0
 90
       78
 71
     1
340
55
 62
   256
 40
0.24
340
0
340
0
 62
   256
 40
0.24
300
I, O, Q, S, X, Z
 40
0.48
 90
        3
 40
0.18
 90
        1
 71
     2
340
5D
 90
       25
 62
   256
340
5D
 90
       50
 62
   256
 40
0.24
 40
0.0
 40
0.24
 71
     3
340
55
 62
   256
 40
0.24
 90
        1
 40
0.75
 90
        1
300
%<\AcVar ViewType \f "%tc1">% %<\AcVar ViewSectionStartId>%-%<\AcVar ViewSectionEndId>%\PSCALE %<\AcVar ViewScale \f "%sn">%
 71
     4
 62
   256
 62
   257
300
ANSI31
 40
1.0
 90
        0
290
     0
290
     0
 90
        6
 40
0.0
 40
1.570796326794896
 40
0.2617993877991494
 40
1.308996938995747
 40
-0.2617993877991494
 40
1.832595714594046
  0
TABLESTYLE
  5
65
102
{ACAD_XDICTIONARY
360
269
102
}
102
{ACAD_REACTORS
330
64
102
}
330
64
100
AcDbTableStyle
280
     0
  3
Standard
 70
     0
 71
     0
 40
0.06
 41
0.06
280
     0
281
     0
  7
Standard
140
0.18
170
     2
 62
     0
 63
     7
283
     0
 90
      512
 91
        0
  1

274
    -2
284
     1
 64
     0
275
    -2
285
     1
 65
     0
276
    -2
286
     1
 66
     0
277
    -2
287
     1
 67
     0
278
    -2
288
     1
 68
     0
279
    -2
289
     1
 69
     0
  7
Standard
140
0.25
170
     5
 62
     0
 63
     7
283
     0
 90
      512
 91
        0
  1

274
    -2
284
     1
 64
     0
275
    -2
285
     1
 65
     0
276
    -2
286
     1
 66
     0
277
    -2
287
     1
 67
     0
278
    -2
288
     1
 68
     0
279
    -2
289
     1
 69
     0
  7
Standard
140
0.18
170
     5
 62
     0
 63
     7
283
     0
 90
      512
 91
        0
  1

274
    -2
284
     1
 64
     0
275
    -2
285
     1
 65
     0
276
    -2
286
     1
 66
     0
277
    -2
287
     1
 67
     0
278
    -2
288
     1
 68
     0
279
    -2
289
     1
 69
     0
  0
VISUALSTYLE
  5
2F
102
{ACAD_XDICTIONARY
360
276
102
}
102
{ACAD_REACTORS
330
29
102
}
330
29
100
AcDbVisualStyle
  2
2dWireframe
 70
     4
177
     2
291
     0
 71
     0
176
     1
 72
     2
176
     1
 73
     0
176
     1
 90
        0
176
     1
 40
0.6
176
     1
 41
30.0
176
     1
 63
     7
421
 16777215
176
     1
 74
     1
176
     1
 91
        4
176
     1
 64
     7
176
     1
 65
   257
176
     1
 75
     1
176
     1
175
     1
176
     1
 42
1.0
176
     1
 92
        0
176
     1
 66
   257
176
     1
 43
1.0
176
     1
 76
     1
176
     1
 77
     6
176
     1
 78
     2
176
     1
 67
     7
176
     1
 79
     5
176
     1
170
     0
176
     1
171
     0
176
     1
290
     0
176
     1
 93
        1
176
     1
 44
0.0
176
     1
173
     0
176
     1
1001
ACAD
1000
AcDbSavedByObjectVersion
1070
     0
  0
VISUALSTYLE
  5
2E
102
{ACAD_XDICTIONARY
360
274
102
}
102
{ACAD_REACTORS
330
29
102
}
330
29
100
AcDbVisualStyle
  2
Basic
 70
     7
177
     2
291
     1
 71
     1
176
     1
 72
     0
176
     1
 73
     1
176
     1
 90
        0
176
     1
 40
0.6
176
     1
 41
30.0
176
     1
 63
     7
421
 16777215
176
     1
 74
     0
176
     1
 91
        4
176
     1
 64
     7
176
     1
 65
   257
176
     1
 75
     1
176
     1
175
     1
176
     1
 42
1.0
176
     1
 92
        8
176
     1
 66
     7
176
     1
 43
1.0
176
     1
 76
     1
176
     1
 77
     6
176
     1
 78
     2
176
     1
 67
     7
176
     1
 79
     5
176
     1
170
     0
176
     1
171
     0
176
     1
290
     0
176
     1
 93
        1
176
     1
 44
0.0
176
     1
173
     0
176
     1
1001
ACAD
1000
AcDbSavedByObjectVersion
1070
     0
  0
VISUALSTYLE
  5
35
102
{ACAD_XDICTIONARY
360
282
102
}
102
{ACAD_REACTORS
330
29
102
}
330
29
100
AcDbVisualStyle
  2
Brighten
 70
    12
177
     2
291
     1
 71
     2
176
     1
 72
     2
176
     1
 73
     0
176
     1
 90
        0
176
     1
 40
0.6
176
     1
 41
30.0
176
     1
 63
     7
421
 16777215
176
     1
 74
     1
176
     1
 91
        4
176
     1
 64
     7
176
     1
 65
   257
176
     1
 75
     1
176
     1
175
     1
176
     1
 42
1.0
176
     1
 92
        8
176
     1
 66
     7
176
     1
 43
1.0
176
     1
 76
     1
176
     1
 77
     6
176
     1
 78
     2
176
     1
 67
     7
176
     1
 79
     5
176
     1
170
     0
176
     1
171
     0
176
     1
290
     0
176
     1
 93
        1
176
     1
 44
50.0
176
     1
173
     0
176
     1
1001
ACAD
1000
AcDbSavedByObjectVersion
1070
     0
  0
VISUALSTYLE
  5
39
102
{ACAD_XDICTIONARY
360
28A
102
}
102
{ACAD_REACTORS
330
29
102
}
330
29
100
AcDbVisualStyle
  2
ColorChange
 70
    16
177
     2
291
     1
 71
     2
176
     1
 72
     2
176
     1
 73
     3
176
     1
 90
        0
176
     1
 40
0.6
176
     1
 41
30.0
176
     1
 63
     8
421
  8421504
176
     1
 74
     1
176
     1
 91
        4
176
     1
 64
     7
176
     1
 65
   257
176
     1
 75
     1
176
     1
175
     1
176
     1
 42
1.0
176
     1
 92
        8
176
     1
 66
     8
424
  8421504
176
     1
 43
1.0
176
     1
 76
     1
176
     1
 77
     6
176
     1
 78
     2
176
     1
 67
     7
176
     1
 79
     5
176
     1
170
     0
176
     1
171
     0
176
     1
290
     0
176
     1
 93
        1
176
     1
 44
0.0
176
     1
173
     0
176
     1
1001
ACAD
1000
AcDbSavedByObjectVersion
1070
     0
  0
VISUALSTYLE
  5
32
102
{ACAD_XDICTIONARY
360
27C
102
}
102
{ACAD_REACTORS
330
29
102
}
330
29
100
AcDbVisualStyle
  2
Conceptual
 70
     9
177
     2
291
     0
 71
     3
176
     1
 72
     2
176
     1
 73
     0
176
     1
 90
        0
176
     1
 40
0.6
176
     1
 41
30.0
176
     1
 63
     7
421
 16777215
176
     1
 74
     2
176
     1
 91
        2
176
     1
 64
     7
176
     1
 65
   257
176
     1
 75
     1
176
     1
175
     1
176
     1
 42
179.0
176
     1
 92
        8
176
     1
 66
     7
176
     1
 43
1.0
176
     1
 76
     1
176
     1
 77
     6
176
     1
 78
     2
176
     1
 67
     7
176
     1
 79
     3
176
     1
170
     0
176
     1
171
     0
176
     1
290
     0
176
     1
 93
        1
176
     1
 44
0.0
176
     1
173
     0
176
     1
1001
ACAD
1000
AcDbSavedByObjectVersion
1070
     0
  0
VISUALSTYLE
  5
34
102
{ACAD_XDICTIONARY
360
280
102
}
102
{ACAD_REACTORS
330
29
102
}
330
29
100
AcDbVisualStyle
  2
Dim
 70
    11
177
     2
291
     1
 71
     2
176
     1
 72
     2
176
     1
 73
     0
176
     1
 90
        0
176
     1
 40
0.6
176
     1
 41
30.0
176
     1
 63
     7
421
 16777215
176
     1
 74
     1
176
     1
 91
        4
176
     1
 64
     7
176
     1
 65
   257
176
     1
 75
     1
176
     1
175
     1
176
     1
 42
1.0
176
     1
 92
        8
176
     1
 66
     7
176
     1
 43
1.0
176
     1
 76
     1
176
     1
 77
     6
176
     1
 78
     2
176
     1
 67
     7
176
     1
 79
     5
176
     1
170
     0
176
     1
171
     0
176
     1
290
     0
176
     1
 93
        1
176
     1
 44
-50.0
176
     1
173
     0
176
     1
1001
ACAD
1000
AcDbSavedByObjectVersion
1070
     0
  0
VISUALSTYLE
  5
41
102
{ACAD_XDICTIONARY
360
29A
102
}
102
{ACAD_REACTORS
330
29
102
}
330
29
100
AcDbVisualStyle
  2
EdgeColorOff
 70
    22
177
     2
291
     1
 71
     2
176
     0
 72
     2
176
     0
 73
     0
176
     0
 90
        0
176
     0
 40
0.6
176
     0
 41
30.0
176
     0
 63
     7
421
 16777215
176
     0
 74
     1
176
     0
 91
        4
176
     0
 64
     7
176
     0
 65
   257
176
     0
 75
     1
176
     0
175
     1
176
     0
 42
1.0
176
     0
 92
        8
176
     2
 66
     7
176
     0
 43
1.0
176
     0
 76
     1
176
     0
 77
     6
176
     0
 78
     2
176
     0
 67
     7
176
     0
 79
     5
176
     0
170
     0
176
     0
171
     0
176
     0
290
     0
176
     0
 93
        1
176
     0
 44
0.0
176
     0
173
     0
176
     0
1001
ACAD
1000
AcDbSavedByObjectVersion
1070
     0
  0
VISUALSTYLE
  5
38
102
{ACAD_XDICTIONARY
360
288
102
}
102
{ACAD_REACTORS
330
29
102
}
330
29
100
AcDbVisualStyle
  2
Facepattern
 70
    15
177
     2
291
     1
 71
     2
176
     1
 72
     2
176
     1
 73
     0
176
     1
 90
        0
176
     1
 40
0.6
176
     1
 41
30.0
176
     1
 63
     7
421
 16777215
176
     1
 74
     1
176
     1
 91
        4
176
     1
 64
     7
176
     1
 65
   257
176
     1
 75
     1
176
     1
175
     1
176
     1
 42
1.0
176
     1
 92
        8
176
     1
 66
     7
176
     1
 43
1.0
176
     1
 76
     1
176
     1
 77
     6
176
     1
 78
     2
176
     1
 67
     7
176
     1
 79
     5
176
     1
170
     0
176
     1
171
     0
176
     1
290
     0
176
     1
 93
        1
176
     1
 44
0.0
176
     1
173
     0
176
     1
1001
ACAD
1000
AcDbSavedByObjectVersion
1070
     0
  0
VISUALSTYLE
  5
2A
102
{ACAD_XDICTIONARY
360
26C
102
}
102
{ACAD_REACTORS
330
29
102
}
330
29
100
AcDbVisualStyle
  2
Flat
 70
     0
177
     2
291
     1
 71
     2
176
     1
 72
     1
176
     1
 73
     1
176
     1
 90
        2
176
     1
 40
0.6
176
     1
 41
30.0
176
     1
 63
     7
421
 16777215
176
     1
 74
     0
176
     1
 91
        0
176
     1
 64
     7
176
     1
 65
   257
176
     1
 75
     1
176
     1
175
     1
176
     1
 42
1.0
176
     1
 92
        8
176
     1
 66
     7
176
     1
 43
1.0
176
     1
 76
     1
176
     1
 77
     6
176
     1
 78
     2
176
     1
 67
     7
176
     1
 79
     5
176
     1
170
     0
176
     1
171
     0
176
     1
290
     0
176
     1
 93
       13
176
     1
 44
0.0
176
     1
173
     0
176
     1
1001
ACAD
1000
AcDbSavedByObjectVersion
1070
     0
  0
VISUALSTYLE
  5
2B
102
{ACAD_XDICTIONARY
360
26E
102
}
102
{ACAD_REACTORS
330
29
102
}
330
29
100
AcDbVisualStyle
  2
FlatWithEdges
 70
     1
177
     2
291
     1
 71
     2
176
     1
 72
     1
176
     1
 73
     1
176
     1
 90
        2
176
     1
 40
0.6
176
     1
 41
30.0
176
     1
 63
     7
421
 16777215
176
     1
 74
     1
176
     1
 91
        0
176
     1
 64
     7
176
     1
 65
   257
176
     1
 75
     1
176
     1
175
     1
176
     1
 42
1.0
176
     1
 92
        0
176
     1
 66
   257
176
     1
 43
1.0
176
     1
 76
     1
176
     1
 77
     6
176
     1
 78
     2
176
     1
 67
     7
176
     1
 79
     5
176
     1
170
     0
176
     1
171
     0
176
     1
290
     0
176
     1
 93
       13
176
     1
 44
0.0
176
     1
173
     0
176
     1
1001
ACAD
1000
AcDbSavedByObjectVersion
1070
     0
  0
VISUALSTYLE
  5
2C
102
{ACAD_XDICTIONARY
360
270
102
}
102
{ACAD_REACTORS
330
29
102
}
330
29
100
AcDbVisualStyle
  2
Gouraud
 70
     2
177
     2
291
     1
 71
     2
176
     1
 72
     2
176
     1
 73
     1
176
     1
 90
        2
176
     1
 40
0.6
176
     1
 41
30.0
176
     1
 63
     7
421
 16777215
176
     1
 74
     0
176
     1
 91
        0
176
     1
 64
     7
176
     1
 65
   257
176
     1
 75
     1
176
     1
175
     1
176
     1
 42
1.0
176
     1
 92
        0
176
     1
 66
     7
176
     1
 43
1.0
176
     1
 76
     1
176
     1
 77
     6
176
     1
 78
     2
176
     1
 67
     7
176
     1
 79
     5
176
     1
170
     0
176
     1
171
     0
176
     1
290
     0
176
     1
 93
       13
176
     1
 44
0.0
176
     1
173
     0
176
     1
1001
ACAD
1000
AcDbSavedByObjectVersion
1070
     0
  0
VISUALSTYLE
  5
2D
102
{ACAD_XDICTIONARY
360
272
102
}
102
{ACAD_REACTORS
330
29
102
}
330
29
100
AcDbVisualStyle
  2
GouraudWithEdges
 70
     3
177
     2
291
     1
 71
     2
176
     1
 72
     2
176
     1
 73
     1
176
     1
 90
        2
176
     1
 40
0.6
176
     1
 41
30.0
176
     1
 63
     7
421
 16777215
176
     1
 74
     1
176
     1
 91
        0
176
     1
 64
     7
176
     1
 65
   257
176
     1
 75
     1
176
     1
175
     1
176
     1
 42
1.0
176
     1
 92
        0
176
     1
 66
   257
176
     1
 43
1.0
176
     1
 76
     1
176
     1
 77
     6
176
     1
 78
     2
176
     1
 67
     7
176
     1
 79
     5
176
     1
170
     0
176
     1
171
     0
176
     1
290
     0
176
     1
 93
       13
176
     1
 44
0.0
176
     1
173
     0
176
     1
1001
ACAD
1000
AcDbSavedByObjectVersion
1070
     0
  0
VISUALSTYLE
  5
31
102
{ACAD_XDICTIONARY
360
27A
102
}
102
{ACAD_REACTORS
330
29
102
}
330
29
100
AcDbVisualStyle
  2
Hidden
 70
     6
177
     2
291
     0
 71
     1
176
     1
 72
     2
176
     1
 73
     2
176
     1
 90
        0
176
     1
 40
0.6
176
     1
 41
30.0
176
     1
 63
     7
421
 16777215
176
     1
 74
     2
176
     1
 91
        2
176
     1
 64
     7
176
     1
 65
   257
176
     1
 75
     2
176
     1
175
     1
176
     1
 42
40.0
176
     1
 92
        0
176
     1
 66
   257
176
     1
 43
1.0
176
     1
 76
     1
176
     1
 77
     6
176
     1
 78
     2
176
     1
 67
     7
176
     1
 79
     3
176
     1
170
     0
176
     1
171
     0
176
     1
290
     0
176
     1
 93
        1
176
     1
 44
0.0
176
     1
173
     0
176
     1
1001
ACAD
1000
AcDbSavedByObjectVersion
1070
     0
  0
VISUALSTYLE
  5
3F
102
{ACAD_XDICTIONARY
360
296
102
}
102
{ACAD_REACTORS
330
29
102
}
330
29
100
AcDbVisualStyle
  2
JitterOff
 70
    20
177
     2
291
     1
 71
     2
176
     0
 72
     2
176
     0
 73
     0
176
     0
 90
        0
176
     0
 40
0.6
176
     0
 41
30.0
176
     0
 63
     7
421
 16777215
176
     0
 74
     1
176
     0
 91
        4
176
     0
 64
     7
176
     0
 65
   257
176
     0
 75
     1
176
     0
175
     1
176
     0
 42
1.0
176
     0
 92
       10
176
     2
 66
     7
176
     0
 43
1.0
176
     0
 76
     1
176
     0
 77
     6
176
     0
 78
     2
176
     0
 67
     7
176
     0
 79
     5
176
     0
170
     0
176
     0
171
     0
176
     0
290
     0
176
     0
 93
        1
176
     0
 44
0.0
176
     0
173
     0
176
     0
1001
ACAD
1000
AcDbSavedByObjectVersion
1070
     0
  0
VISUALSTYLE
  5
37
102
{ACAD_XDICTIONARY
360
286
102
}
102
{ACAD_REACTORS
330
29
102
}
330
29
100
AcDbVisualStyle
  2
Linepattern
 70
    14
177
     2
291
     1
 71
     2
176
     1
 72
     2
176
     1
 73
     0
176
     1
 90
        0
176
     1
 40
0.6
176
     1
 41
30.0
176
     1
 63
     7
421
 16777215
176
     1
 74
     1
176
     1
 91
        4
176
     1
 64
     7
176
     1
 65
   257
176
     1
 75
     7
176
     1
175
     7
176
     1
 42
1.0
176
     1
 92
        8
176
     1
 66
     7
176
     1
 43
1.0
176
     1
 76
     1
176
     1
 77
     6
176
     1
 78
     2
176
     1
 67
     7
176
     1
 79
     5
176
     1
170
     0
176
     1
171
     0
176
     1
290
     0
176
     1
 93
        1
176
     1
 44
0.0
176
     1
173
     0
176
     1
1001
ACAD
1000
AcDbSavedByObjectVersion
1070
     0
  0
VISUALSTYLE
  5
40
102
{ACAD_XDICTIONARY
360
298
102
}
102
{ACAD_REACTORS
330
29
102
}
330
29
100
AcDbVisualStyle
  2
OverhangOff
 70
    21
177
     2
291
     1
 71
     2
176
     0
 72
     2
176
     0
 73
     0
176
     0
 90
        0
176
     0
 40
0.6
176
     0
 41
30.0
176
     0
 63
     7
421
 16777215
176
     0
 74
     1
176
     0
 91
        4
176
     0
 64
     7
176
     0
 65
   257
176
     0
 75
     1
176
     0
175
     1
176
     0
 42
1.0
176
     0
 92
        9
176
     2
 66
     7
176
     0
 43
1.0
176
     0
 76
     1
176
     0
 77
     6
176
     0
 78
     2
176
     0
 67
     7
176
     0
 79
     5
176
     0
170
     0
176
     0
171
     0
176
     0
290
     0
176
     0
 93
        1
176
     0
 44
0.0
176
     0
173
     0
176
     0
1001
ACAD
1000
AcDbSavedByObjectVersion
1070
     0
  0
VISUALSTYLE
  5
33
102
{ACAD_XDICTIONARY
360
27E
102
}
102
{ACAD_REACTORS
330
29
102
}
330
29
100
AcDbVisualStyle
  2
Realistic
 70
     8
177
     2
291
     0
 71
     2
176
     1
 72
     3
176
     1
 73
     0
176
     1
 90
        2
176
     1
 40
0.6
176
     1
 41
30.0
176
     1
 63
     7
421
 16777215
176
     1
 74
     0
176
     1
 91
        0
176
     1
 64
     7
176
     1
 65
   257
176
     1
 75
     1
176
     1
175
     1
176
     1
 42
1.0
176
     1
 92
        8
176
     1
 66
   257
176
     1
 43
1.0
176
     1
 76
     1
176
     1
 77
     6
176
     1
 78
     2
176
     1
 67
     7
176
     1
 79
     3
176
     1
170
     0
176
     1
171
     0
176
     1
290
     0
176
     1
 93
       13
176
     1
 44
0.0
176
     1
173
     0
176
     1
1001
ACAD
1000
AcDbSavedByObjectVersion
1070
     0
  0
VISUALSTYLE
  5
3E
102
{ACAD_XDICTIONARY
360
294
102
}
102
{ACAD_REACTORS
330
29
102
}
330
29
100
AcDbVisualStyle
  2
Shaded
 70
    27
177
     2
291
     0
 71
     2
176
     1
 72
     2
176
     1
 73
     1
176
     1
 90
        2
176
     1
 40
0.6
176
     1
 41
30.0
176
     1
 63
     7
421
 16777215
176
     1
 74
     0
176
     1
 91
        4
176
     1
 64
     7
176
     1
 65
   257
176
     1
 75
     1
176
     1
175
     1
176
     1
 42
1.0
176
     1
 92
        8
176
     1
 66
   257
176
     1
 43
1.0
176
     1
 76
     1
176
     1
 77
     6
176
     1
 78
     2
176
     1
 67
     8
425
  7895160
176
     1
 79
     3
176
     1
170
     0
176
     1
171
     0
176
     1
290
     0
176
     1
 93
        5
176
     1
 44
0.0
176
     1
173
     0
176
     1
1001
ACAD
1000
AcDbSavedByObjectVersion
1070
     0
  0
VISUALSTYLE
  5
3D
102
{ACAD_XDICTIONARY
360
292
102
}
102
{ACAD_REACTORS
330
29
102
}
330
29
100
AcDbVisualStyle
  2
Shaded with edges
 70
    26
177
     2
291
     0
 71
     2
176
     1
 72
     2
176
     1
 73
     1
176
     1
 90
        2
176
     1
 40
0.6
176
     1
 41
30.0
176
     1
 63
     7
421
 16777215
176
     1
 74
     1
176
     1
 91
        2
176
     1
 64
     7
176
     1
 65
   257
176
     1
 75
     2
176
     1
175
     1
176
     1
 42
1.0
176
     1
 92
        8
176
     1
 66
   257
176
     1
 43
1.0
176
     1
 76
     1
176
     1
 77
     6
176
     1
 78
     2
176
     1
 67
     7
176
     1
 79
     3
176
     1
170
     0
176
     1
171
     0
176
     1
290
     0
176
     1
 93
        5
176
     1
 44
0.0
176
     1
173
     0
176
     1
1001
ACAD
1000
AcDbSavedByObjectVersion
1070
     0
  0
VISUALSTYLE
  5
3A
102
{ACAD_XDICTIONARY
360
28C
102
}
102
{ACAD_REACTORS
330
29
102
}
330
29
100
AcDbVisualStyle
  2
Shades of Gray
 70
    23
177
     2
291
     0
 71
     2
176
     1
 72
     2
176
     1
 73
     3
176
     1
 90
        0
176
     1
 40
0.6
176
     1
 41
30.0
176
     1
 63
     7
421
 16777215
176
     1
 74
     2
176
     1
 91
        2
176
     1
 64
     7
176
     1
 65
     7
176
     1
 75
     1
176
     1
175
     1
176
     1
 42
40.0
176
     1
 92
        8
176
     1
 66
     7
176
     1
 43
1.0
176
     1
 76
     1
176
     1
 77
     6
176
     1
 78
     2
176
     1
 67
     7
176
     1
 79
     3
176
     1
170
     0
176
     1
171
     0
176
     1
290
     0
176
     1
 93
        1
176
     1
 44
0.0
176
     1
173
     0
176
     1
1001
ACAD
1000
AcDbSavedByObjectVersion
1070
     0
  0
VISUALSTYLE
  5
3B
102
{ACAD_XDICTIONARY
360
28E
102
}
102
{ACAD_REACTORS
330
29
102
}
330
29
100
AcDbVisualStyle
  2
Sketchy
 70
    24
177
     2
291
     0
 71
     1
176
     1
 72
     2
176
     1
 73
     2
176
     1
 90
        0
176
     1
 40
0.6
176
     1
 41
30.0
176
     1
 63
     7
421
 16777215
176
     1
 74
     2
176
     1
 91
        2
176
     1
 64
     7
176
     1
 65
     7
176
     1
 75
     1
176
     1
175
     1
176
     1
 42
40.0
176
     1
 92
       11
176
     1
 66
     7
176
     1
 43
1.0
176
     1
 76
     1
176
     1
 77
     6
176
     1
 78
     2
176
     1
 67
     7
176
     1
 79
     6
176
     1
170
     0
176
     1
171
     0
176
     1
290
     0
176
     1
 93
        1
176
     1
 44
0.0
176
     1
173
     0
176
     1
1001
ACAD
1000
AcDbSavedByObjectVersion
1070
     0
  0
VISUALSTYLE
  5
36
102
{ACAD_XDICTIONARY
360
284
102
}
102
{ACAD_REACTORS
330
29
102
}
330
29
100
AcDbVisualStyle
  2
Thicken
 70
    13
177
     2
291
     1
 71
     2
176
     1
 72
     2
176
     1
 73
     0
176
     1
 90
        0
176
     1
 40
0.6
176
     1
 41
30.0
176
     1
 63
     7
421
 16777215
176
     1
 74
     1
176
     1
 91
        4
176
     1
 64
     7
176
     1
 65
   257
176
     1
 75
     1
176
     1
175
     1
176
     1
 42
1.0
176
     1
 92
       12
176
     1
 66
     7
176
     1
 43
1.0
176
     1
 76
     1
176
     1
 77
     6
176
     1
 78
     2
176
     1
 67
     7
176
     1
 79
     5
176
     1
170
     0
176
     1
171
     0
176
     1
290
     0
176
     1
 93
        1
176
     1
 44
0.0
176
     1
173
     0
176
     1
1001
ACAD
1000
AcDbSavedByObjectVersion
1070
     0
  0
VISUALSTYLE
  5
30
102
{ACAD_XDICTIONARY
360
278
102
}
102
{ACAD_REACTORS
330
29
102
}
330
29
100
AcDbVisualStyle
  2
Wireframe
 70
     5
177
     2
291
     0
 71
     0
176
     1
 72
     2
176
     1
 73
     0
176
     1
 90
        0
176
     1
 40
0.6
176
     1
 41
30.0
176
     1
 63
     7
421
 16777215
176
     1
 74
     1
176
     1
 91
        4
176
     1
 64
     7
176
     1
 65
   257
176
     1
 75
     1
176
     1
175
     1
176
     1
 42
1.0
176
     1
 92
        0
176
     1
 66
   257
176
     1
 43
1.0
176
     1
 76
     1
176
     1
 77
     6
176
     1
 78
     2
176
     1
 67
     7
176
     1
 79
     3
176
     1
170
     0
176
     1
171
     0
176
     1
290
     0
176
     1
 93
        1
176
     1
 44
0.0
176
     1
173
     0
176
     1
1001
ACAD
1000
AcDbSavedByObjectVersion
1070
     0
  0
VISUALSTYLE
  5
3C
102
{ACAD_XDICTIONARY
360
290
102
}
102
{ACAD_REACTORS
330
29
102
}
330
29
100
AcDbVisualStyle
  2
X-Ray
 70
    25
177
     2
291
     0
 71
     2
176
     1
 72
     2
176
     1
 73
     1
176
     1
 90
        1
176
     1
 40
0.5
176
     1
 41
30.0
176
     1
 63
     7
421
 16777215
176
     1
 74
     1
176
     1
 91
        0
176
     1
 64
     7
176
     1
 65
   257
176
     1
 75
     1
176
     1
175
     1
176
     1
 42
1.0
176
     1
 92
        8
176
     1
 66
     7
176
     1
 43
1.0
176
     1
 76
     1
176
     1
 77
     6
176
     1
 78
     2
176
     1
 67
     7
176
     1
 79
     3
176
     1
170
     0
176
     1
171
     0
176
     1
290
     0
176
     1
 93
       13
176
     1
 44
0.0
176
     1
173
     0
176
     1
1001
ACAD
1000
AcDbSavedByObjectVersion
1070
     0
  0
DICTIONARYVAR
  5
80
102
{ACAD_REACTORS
330
7B
102
}
330
7B
100
DictionaryVariables
280
     0
  1
1:1
  0
DICTIONARYVAR
  5
7D
102
{ACAD_REACTORS
330
7B
102
}
330
7B
100
DictionaryVariables
280
     0
  1
STANDARD
  0
DICTIONARYVAR
  5
7C
102
{ACAD_REACTORS
330
7B
102
}
330
7B
100
DictionaryVariables
280
     0
  1
STANDARD
  0
DICTIONARYVAR
  5
7E
102
{ACAD_REACTORS
330
7B
102
}
330
7B
100
DictionaryVariables
280
     0
  1
Imperial24
  0
DICTIONARYVAR
  5
7F
102
{ACAD_REACTORS
330
7B
102
}
330
7B
100
DictionaryVariables
280
     0
  1
Imperial24
  0
XRECORD
  5
265
102
{ACAD_REACTORS
330
261
102
}
330
261
100
AcDbXrecord
280
     1
  1
BUILDING_ID
  1
TRS Interlocking Cladding Details
  1
FLOOR_ID
  1
165840
  0
XRECORD
  5
263
102
{ACAD_REACTORS
330
261
102
}
330
261
100
AcDbXrecord
280
     1
  1
-2000051
  1
Lines
  1
-2000280
  1
Title Blocks
  1
-2000300
  1
Text Notes
  1
-2002000
  1
Detail Items
  0
XRECORD
  5
264
102
{ACAD_REACTORS
330
261
102
}
330
261
100
AcDbXrecord
280
     1
  1
-2000042
  1
Thin Lines
  1
-2000043
  1
Medium Lines
  1
-2000077
  1
Insulation Batting Lines
  1
-2000281
  1
Thin Lines
  1
-2000282
  1
Medium Lines
  1
137263
  1
01 - Gray LT
  1
15798
  1
Light Lines
  1
16110
  1
Building Wrap
  1
16116
  1
Medium Line
  1
16210
  1
01 - Black 1
  1
16257
  1
Wide Lines
  1
16287
  1
01 - Black Dash 1 - 1
  1
16362
  1
Thin Lines
  1
16467
  1
01 - Gray 1
  1
19822
  1
FPA_Sect_Sealant
  1
19834
  1
FPA_Sect_Packer
  1
19836
  1
FPA_Sect_Timber
  0
XRECORD
  5
262
102
{ACAD_REACTORS
330
261
102
}
330
261
100
AcDbXrecord
280
     1
  1
113920
  1
TRS Interlocking profile : Interlocking 260
  1
14996
  1
Filled region : Crosshatch 3mm
  1
16489
  1
Text : Century Gothic 2.5mm
  1
17867
  1
Filled region : Grey LT - Solid
  1
17873
  1
Filled region : White- Solid
  1
17941
  1
Filled region : Plasterboard
  1
2694
  1
Titleblock A4 The roofing store : Titleblock A4 The roofing store
  1
44489
  1
FP Timber Nog Packer1 : Variable
  1
59780
  1
4594_Packer : Timber Packer H3.2
  1
59784
  1
4811_Air Seal w Foam : Airseal on PEF Backing Rod
  1
59790
  1
FP - Break Line : FP - Break Line
  1
59792
  1
HP_WProof - Building Wrap : HP_WProof - Building Wrap
  1
83687
  1
4594_Jamb Liner : 19mm H3.1
  1
98797
  1
CAVIBAT Batten Profile : Non Cavibat
  0
DICTIONARY
  5
2A0
330
6B
100
AcDbDictionary
280
     1
281
     1
  3
ACAD_XREC_ROUNDTRIP
360
2A1
  0
DICTIONARY
  5
1A
330
19
100
AcDbDictionary
280
     1
281
     1
  3
BUMPTILE
360
1C
  3
DIFFUSETILE
360
1B
  3
OPACITYTILE
360
1F
  3
REFLECTIONTILE
360
1E
  3
REFRACTIONTILE
360
20
  3
SPECULARTILE
360
1D
  0
DICTIONARY
  5
12
330
11
100
AcDbDictionary
280
     1
281
     1
  3
BUMPTILE
360
14
  3
DIFFUSETILE
360
13
  3
OPACITYTILE
360
17
  3
REFLECTIONTILE
360
16
  3
REFRACTIONTILE
360
18
  3
SPECULARTILE
360
15
  0
DICTIONARY
  5
22
330
21
100
AcDbDictionary
280
     1
281
     1
  3
BUMPTILE
360
24
  3
DIFFUSETILE
360
23
  3
OPACITYTILE
360
27
  3
REFLECTIONTILE
360
26
  3
REFRACTIONTILE
360
28
  3
SPECULARTILE
360
25
  0
DICTIONARY
  5
29C
330
67
100
AcDbDictionary
280
     1
281
     1
  3
ACAD_XREC_ROUNDTRIP
360
29D
  0
DICTIONARY
  5
29E
330
69
100
AcDbDictionary
280
     1
281
     1
  3
ACAD_XREC_ROUNDTRIP
360
29F
  0
DICTIONARY
  5
269
330
65
100
AcDbDictionary
280
     1
281
     1
  3
ACAD_ROUNDTRIP_2008_TABLESTYLE_CELLSTYLEMAP
360
26A
  0
DICTIONARY
  5
276
330
2F
100
AcDbDictionary
280
     1
281
     1
  3
ACAD_XREC_ROUNDTRIP
360
277
  0
DICTIONARY
  5
274
330
2E
100
AcDbDictionary
280
     1
281
     1
  3
ACAD_XREC_ROUNDTRIP
360
275
  0
DICTIONARY
  5
282
330
35
100
AcDbDictionary
280
     1
281
     1
  3
ACAD_XREC_ROUNDTRIP
360
283
  0
DICTIONARY
  5
28A
330
39
100
AcDbDictionary
280
     1
281
     1
  3
ACAD_XREC_ROUNDTRIP
360
28B
  0
DICTIONARY
  5
27C
330
32
100
AcDbDictionary
280
     1
281
     1
  3
ACAD_XREC_ROUNDTRIP
360
27D
  0
DICTIONARY
  5
280
330
34
100
AcDbDictionary
280
     1
281
     1
  3
ACAD_XREC_ROUNDTRIP
360
281
  0
DICTIONARY
  5
29A
330
41
100
AcDbDictionary
280
     1
281
     1
  3
ACAD_XREC_ROUNDTRIP
360
29B
  0
DICTIONARY
  5
288
330
38
100
AcDbDictionary
280
     1
281
     1
  3
ACAD_XREC_ROUNDTRIP
360
289
  0
DICTIONARY
  5
26C
330
2A
100
AcDbDictionary
280
     1
281
     1
  3
ACAD_XREC_ROUNDTRIP
360
26D
  0
DICTIONARY
  5
26E
330
2B
100
AcDbDictionary
280
     1
281
     1
  3
ACAD_XREC_ROUNDTRIP
360
26F
  0
DICTIONARY
  5
270
330
2C
100
AcDbDictionary
280
     1
281
     1
  3
ACAD_XREC_ROUNDTRIP
360
271
  0
DICTIONARY
  5
272
330
2D
100
AcDbDictionary
280
     1
281
     1
  3
ACAD_XREC_ROUNDTRIP
360
273
  0
DICTIONARY
  5
27A
330
31
100
AcDbDictionary
280
     1
281
     1
  3
ACAD_XREC_ROUNDTRIP
360
27B
  0
DICTIONARY
  5
296
330
3F
100
AcDbDictionary
280
     1
281
     1
  3
ACAD_XREC_ROUNDTRIP
360
297
  0
DICTIONARY
  5
286
330
37
100
AcDbDictionary
280
     1
281
     1
  3
ACAD_XREC_ROUNDTRIP
360
287
  0
DICTIONARY
  5
298
330
40
100
AcDbDictionary
280
     1
281
     1
  3
ACAD_XREC_ROUNDTRIP
360
299
  0
DICTIONARY
  5
27E
330
33
100
AcDbDictionary
280
     1
281
     1
  3
ACAD_XREC_ROUNDTRIP
360
27F
  0
DICTIONARY
  5
294
330
3E
100
AcDbDictionary
280
     1
281
     1
  3
ACAD_XREC_ROUNDTRIP
360
295
  0
DICTIONARY
  5
292
330
3D
100
AcDbDictionary
280
     1
281
     1
  3
ACAD_XREC_ROUNDTRIP
360
293
  0
DICTIONARY
  5
28C
330
3A
100
AcDbDictionary
280
     1
281
     1
  3
ACAD_XREC_ROUNDTRIP
360
28D
  0
DICTIONARY
  5
28E
330
3B
100
AcDbDictionary
280
     1
281
     1
  3
ACAD_XREC_ROUNDTRIP
360
28F
  0
DICTIONARY
  5
284
330
36
100
AcDbDictionary
280
     1
281
     1
  3
ACAD_XREC_ROUNDTRIP
360
285
  0
DICTIONARY
  5
278
330
30
100
AcDbDictionary
280
     1
281
     1
  3
ACAD_XREC_ROUNDTRIP
360
279
  0
DICTIONARY
  5
290
330
3C
100
AcDbDictionary
280
     1
281
     1
  3
ACAD_XREC_ROUNDTRIP
360
291
  0
XRECORD
  5
2A1
102
{ACAD_REACTORS
330
2A0
102
}
330
2A0
100
AcDbXrecord
280
     1
102
DISPLAYNAME
  1
Imperial24
102
FLAGS
 90
        0
  0
XRECORD
  5
1C
102
{ACAD_REACTORS
330
1A
102
}
330
1A
100
AcDbXrecord
280
     1
270
     1
271
     1
  0
XRECORD
  5
1B
102
{ACAD_REACTORS
330
1A
102
}
330
1A
100
AcDbXrecord
280
     1
270
     1
271
     1
  0
XRECORD
  5
1F
102
{ACAD_REACTORS
330
1A
102
}
330
1A
100
AcDbXrecord
280
     1
270
     1
271
     1
  0
XRECORD
  5
1E
102
{ACAD_REACTORS
330
1A
102
}
330
1A
100
AcDbXrecord
280
     1
270
     1
271
     1
  0
XRECORD
  5
20
102
{ACAD_REACTORS
330
1A
102
}
330
1A
100
AcDbXrecord
280
     1
270
     1
271
     1
  0
XRECORD
  5
1D
102
{ACAD_REACTORS
330
1A
102
}
330
1A
100
AcDbXrecord
280
     1
270
     1
271
     1
  0
XRECORD
  5
14
102
{ACAD_REACTORS
330
12
102
}
330
12
100
AcDbXrecord
280
     1
270
     1
271
     1
  0
XRECORD
  5
13
102
{ACAD_REACTORS
330
12
102
}
330
12
100
AcDbXrecord
280
     1
270
     1
271
     1
  0
XRECORD
  5
17
102
{ACAD_REACTORS
330
12
102
}
330
12
100
AcDbXrecord
280
     1
270
     1
271
     1
  0
XRECORD
  5
16
102
{ACAD_REACTORS
330
12
102
}
330
12
100
AcDbXrecord
280
     1
270
     1
271
     1
  0
XRECORD
  5
18
102
{ACAD_REACTORS
330
12
102
}
330
12
100
AcDbXrecord
280
     1
270
     1
271
     1
  0
XRECORD
  5
15
102
{ACAD_REACTORS
330
12
102
}
330
12
100
AcDbXrecord
280
     1
270
     1
271
     1
  0
XRECORD
  5
24
102
{ACAD_REACTORS
330
22
102
}
330
22
100
AcDbXrecord
280
     1
270
     1
271
     1
  0
XRECORD
  5
23
102
{ACAD_REACTORS
330
22
102
}
330
22
100
AcDbXrecord
280
     1
270
     1
271
     1
  0
XRECORD
  5
27
102
{ACAD_REACTORS
330
22
102
}
330
22
100
AcDbXrecord
280
     1
270
     1
271
     1
  0
XRECORD
  5
26
102
{ACAD_REACTORS
330
22
102
}
330
22
100
AcDbXrecord
280
     1
270
     1
271
     1
  0
XRECORD
  5
28
102
{ACAD_REACTORS
330
22
102
}
330
22
100
AcDbXrecord
280
     1
270
     1
271
     1
  0
XRECORD
  5
25
102
{ACAD_REACTORS
330
22
102
}
330
22
100
AcDbXrecord
280
     1
270
     1
271
     1
  0
XRECORD
  5
29D
102
{ACAD_REACTORS
330
29C
102
}
330
29C
100
AcDbXrecord
280
     1
102
ACAD_ROUNDTRIP_2012_MLEADER_STYLE
298
     1
  0
XRECORD
  5
29F
102
{ACAD_REACTORS
330
29E
102
}
330
29E
100
AcDbXrecord
280
     1
102
DISPLAYNAME
  1
Imperial24
102
FLAGS
 90
        0
  0
CELLSTYLEMAP
  5
26A
102
{ACAD_REACTORS
330
269
102
}
330
269
100
AcDbCellStyleMap
 90
        3
300
CELLSTYLE
  1
TABLEFORMAT_BEGIN
 90
        5
170
     1
 91
        0
 92
    32768
 62
   257
 93
        1
300
CONTENTFORMAT
  1
CONTENTFORMAT_BEGIN
 90
        0
 91
        0
 92
      512
 93
        0
300

 40
0.0
140
1.0
 94
        5
 62
     0
340
55
144
0.25
309
CONTENTFORMAT_END
171
     0
 94
        0
309
TABLEFORMAT_END
  1
CELLSTYLE_BEGIN
 90
        1
 91
        1
300
_TITLE
309
CELLSTYLE_END
300
CELLSTYLE
  1
TABLEFORMAT_BEGIN
 90
        5
170
     1
 91
        0
 92
        0
 62
   257
 93
        1
300
CONTENTFORMAT
  1
CONTENTFORMAT_BEGIN
 90
        0
 91
        0
 92
      512
 93
        0
300

 40
0.0
140
1.0
 94
        5
 62
     0
340
55
144
0.18
309
CONTENTFORMAT_END
171
     0
 94
        0
309
TABLEFORMAT_END
  1
CELLSTYLE_BEGIN
 90
        2
 91
        1
300
_HEADER
309
CELLSTYLE_END
300
CELLSTYLE
  1
TABLEFORMAT_BEGIN
 90
        5
170
     1
 91
        0
 92
        0
 62
   257
 93
        1
300
CONTENTFORMAT
  1
CONTENTFORMAT_BEGIN
 90
        0
 91
        0
 92
      512
 93
        0
300

 40
0.0
140
1.0
 94
        2
 62
     0
340
55
144
0.18
309
CONTENTFORMAT_END
171
     0
 94
        0
309
TABLEFORMAT_END
  1
CELLSTYLE_BEGIN
 90
        3
 91
        2
300
_DATA
309
CELLSTYLE_END
  0
XRECORD
  5
277
102
{ACAD_REACTORS
330
276
102
}
330
276
100
AcDbXrecord
280
     1
102
RTVSPost2010Prop28
280
     1
102
RTVSPost2010PropOp28
 70
     1
102
RTVSPost2010Prop29
280
     1
102
RTVSPost2010PropOp29
 70
     1
102
RTVSPost2010Prop30
280
     0
102
RTVSPost2010PropOp30
 70
     1
102
RTVSPost2010Prop31
280
     0
102
RTVSPost2010PropOp31
 70
     1
102
RTVSPost2010Prop32
280
     0
102
RTVSPost2010PropOp32
 70
     1
102
RTVSPost2010Prop33
280
     0
102
RTVSPost2010PropOp33
 70
     1
102
RTVSPost2010Prop34
280
     0
102
RTVSPost2010PropOp34
 70
     1
102
RTVSPost2010Prop35
280
     0
102
RTVSPost2010PropOp35
 70
     1
102
RTVSPost2010Prop36
280
     0
102
RTVSPost2010PropOp36
 70
     1
102
RTVSPost2010Prop37
 90
       50
102
RTVSPost2010PropOp37
 70
     1
102
RTVSPost2010Prop38
140
0.0
102
RTVSPost2010PropOp38
 70
     1
102
RTVSPost2010Prop39
140
1.0
102
RTVSPost2010PropOp39
 70
     1
102
RTVSPost2010Prop40
 90
        0
102
RTVSPost2010PropOp40
 70
     1
102
RTVSPost2010Prop41ColorIndex
 90
       18
102
RTVSPost2010Prop41ColorRGB
 90
        0
102
RTVSPost2010PropOp41
 70
     1
102
RTVSPost2010Prop42
 90
       50
102
RTVSPost2010PropOp42
 70
     1
102
RTVSPost2010Prop43
 90
        3
102
RTVSPost2010PropOp43
 70
     1
102
RTVSPost2010Prop44ColorIndex
 90
        5
102
RTVSPost2010Prop44ColorRGB
 90
      255
102
RTVSPost2010PropOp44
 70
     1
102
RTVSPost2010Prop45
280
     0
102
RTVSPost2010PropOp45
 70
     1
102
RTVSPost2010Prop46
 90
       50
102
RTVSPost2010PropOp46
 70
     1
102
RTVSPost2010Prop47
 90
       50
102
RTVSPost2010PropOp47
 70
     1
102
RTVSPost2010Prop48
 90
       50
102
RTVSPost2010PropOp48
 70
     1
102
RTVSPost2010Prop49
280
     0
102
RTVSPost2010PropOp49
 70
     1
102
RTVSPost2010Prop50
 90
       50
102
RTVSPost2010PropOp50
 70
     1
102
RTVSPost2010Prop51ColorIndex
 90
      256
102
RTVSPost2010Prop51ColorRGB
 90
-16777216
102
RTVSPost2010PropOp51
 70
     0
102
RTVSPost2010Prop52
140
1.0
102
RTVSPost2010PropOp52
 70
     0
102
RTVSPost2010Prop53
 90
        2
102
RTVSPost2010PropOp53
 70
     1
102
RTVSPost2010Prop54
  1
strokes_ogs.tif
102
RTVSPost2010PropOp54
 70
     1
102
RTVSPost2010Prop55
280
     0
102
RTVSPost2010PropOp55
 70
     1
102
RTVSPost2010Prop56
140
1.0
102
RTVSPost2010PropOp56
 70
     1
102
RTVSPost2010Prop57
140
1.0
102
RTVSPost2010PropOp57
 70
     1
  0
XRECORD
  5
275
102
{ACAD_REACTORS
330
274
102
}
330
274
100
AcDbXrecord
280
     1
102
RTVSPost2010Prop28
280
     0
102
RTVSPost2010PropOp28
 70
     1
102
RTVSPost2010Prop29
280
     1
102
RTVSPost2010PropOp29
 70
     1
102
RTVSPost2010Prop30
280
     1
102
RTVSPost2010PropOp30
 70
     1
102
RTVSPost2010Prop31
280
     0
102
RTVSPost2010PropOp31
 70
     1
102
RTVSPost2010Prop32
280
     0
102
RTVSPost2010PropOp32
 70
     1
102
RTVSPost2010Prop33
280
     0
102
RTVSPost2010PropOp33
 70
     1
102
RTVSPost2010Prop34
280
     0
102
RTVSPost2010PropOp34
 70
     1
102
RTVSPost2010Prop35
280
     0
102
RTVSPost2010PropOp35
 70
     1
102
RTVSPost2010Prop36
280
     0
102
RTVSPost2010PropOp36
 70
     1
102
RTVSPost2010Prop37
 90
       50
102
RTVSPost2010PropOp37
 70
     1
102
RTVSPost2010Prop38
140
0.0
102
RTVSPost2010PropOp38
 70
     1
102
RTVSPost2010Prop39
140
1.0
102
RTVSPost2010PropOp39
 70
     1
102
RTVSPost2010Prop40
 90
        0
102
RTVSPost2010PropOp40
 70
     1
102
RTVSPost2010Prop41ColorIndex
 90
       18
102
RTVSPost2010Prop41ColorRGB
 90
        0
102
RTVSPost2010PropOp41
 70
     1
102
RTVSPost2010Prop42
 90
       50
102
RTVSPost2010PropOp42
 70
     1
102
RTVSPost2010Prop43
 90
        3
102
RTVSPost2010PropOp43
 70
     1
102
RTVSPost2010Prop44ColorIndex
 90
        5
102
RTVSPost2010Prop44ColorRGB
 90
      255
102
RTVSPost2010PropOp44
 70
     1
102
RTVSPost2010Prop45
280
     0
102
RTVSPost2010PropOp45
 70
     1
102
RTVSPost2010Prop46
 90
       50
102
RTVSPost2010PropOp46
 70
     1
102
RTVSPost2010Prop47
 90
       50
102
RTVSPost2010PropOp47
 70
     1
102
RTVSPost2010Prop48
 90
       50
102
RTVSPost2010PropOp48
 70
     1
102
RTVSPost2010Prop49
280
     0
102
RTVSPost2010PropOp49
 70
     1
102
RTVSPost2010Prop50
 90
       50
102
RTVSPost2010PropOp50
 70
     1
102
RTVSPost2010Prop51ColorIndex
 90
      256
102
RTVSPost2010Prop51ColorRGB
 90
-16777216
102
RTVSPost2010PropOp51
 70
     0
102
RTVSPost2010Prop52
140
1.0
102
RTVSPost2010PropOp52
 70
     0
102
RTVSPost2010Prop53
 90
        2
102
RTVSPost2010PropOp53
 70
     1
102
RTVSPost2010Prop54
  1
strokes_ogs.tif
102
RTVSPost2010PropOp54
 70
     1
102
RTVSPost2010Prop55
280
     0
102
RTVSPost2010PropOp55
 70
     1
102
RTVSPost2010Prop56
140
1.0
102
RTVSPost2010PropOp56
 70
     1
102
RTVSPost2010Prop57
140
1.0
102
RTVSPost2010PropOp57
 70
     1
  0
XRECORD
  5
283
102
{ACAD_REACTORS
330
282
102
}
330
282
100
AcDbXrecord
280
     1
102
RTVSPost2010Prop28
280
     0
102
RTVSPost2010PropOp28
 70
     1
102
RTVSPost2010Prop29
280
     1
102
RTVSPost2010PropOp29
 70
     1
102
RTVSPost2010Prop30
280
     1
102
RTVSPost2010PropOp30
 70
     1
102
RTVSPost2010Prop31
280
     0
102
RTVSPost2010PropOp31
 70
     1
102
RTVSPost2010Prop32
280
     0
102
RTVSPost2010PropOp32
 70
     1
102
RTVSPost2010Prop33
280
     0
102
RTVSPost2010PropOp33
 70
     1
102
RTVSPost2010Prop34
280
     0
102
RTVSPost2010PropOp34
 70
     1
102
RTVSPost2010Prop35
280
     0
102
RTVSPost2010PropOp35
 70
     1
102
RTVSPost2010Prop36
280
     0
102
RTVSPost2010PropOp36
 70
     1
102
RTVSPost2010Prop37
 90
       50
102
RTVSPost2010PropOp37
 70
     1
102
RTVSPost2010Prop38
140
0.0
102
RTVSPost2010PropOp38
 70
     1
102
RTVSPost2010Prop39
140
1.0
102
RTVSPost2010PropOp39
 70
     1
102
RTVSPost2010Prop40
 90
        0
102
RTVSPost2010PropOp40
 70
     1
102
RTVSPost2010Prop41ColorIndex
 90
       18
102
RTVSPost2010Prop41ColorRGB
 90
        0
102
RTVSPost2010PropOp41
 70
     1
102
RTVSPost2010Prop42
 90
       50
102
RTVSPost2010PropOp42
 70
     1
102
RTVSPost2010Prop43
 90
        3
102
RTVSPost2010PropOp43
 70
     1
102
RTVSPost2010Prop44ColorIndex
 90
        5
102
RTVSPost2010Prop44ColorRGB
 90
      255
102
RTVSPost2010PropOp44
 70
     1
102
RTVSPost2010Prop45
280
     0
102
RTVSPost2010PropOp45
 70
     1
102
RTVSPost2010Prop46
 90
       50
102
RTVSPost2010PropOp46
 70
     1
102
RTVSPost2010Prop47
 90
       50
102
RTVSPost2010PropOp47
 70
     1
102
RTVSPost2010Prop48
 90
       50
102
RTVSPost2010PropOp48
 70
     1
102
RTVSPost2010Prop49
280
     0
102
RTVSPost2010PropOp49
 70
     1
102
RTVSPost2010Prop50
 90
       50
102
RTVSPost2010PropOp50
 70
     1
102
RTVSPost2010Prop51ColorIndex
 90
      256
102
RTVSPost2010Prop51ColorRGB
 90
-16777216
102
RTVSPost2010PropOp51
 70
     0
102
RTVSPost2010Prop52
140
1.0
102
RTVSPost2010PropOp52
 70
     0
102
RTVSPost2010Prop53
 90
        2
102
RTVSPost2010PropOp53
 70
     1
102
RTVSPost2010Prop54
  1
strokes_ogs.tif
102
RTVSPost2010PropOp54
 70
     1
102
RTVSPost2010Prop55
280
     0
102
RTVSPost2010PropOp55
 70
     1
102
RTVSPost2010Prop56
140
1.0
102
RTVSPost2010PropOp56
 70
     1
102
RTVSPost2010Prop57
140
1.0
102
RTVSPost2010PropOp57
 70
     1
  0
XRECORD
  5
28B
102
{ACAD_REACTORS
330
28A
102
}
330
28A
100
AcDbXrecord
280
     1
102
RTVSPost2010Prop28
280
     0
102
RTVSPost2010PropOp28
 70
     1
102
RTVSPost2010Prop29
280
     1
102
RTVSPost2010PropOp29
 70
     1
102
RTVSPost2010Prop30
280
     1
102
RTVSPost2010PropOp30
 70
     1
102
RTVSPost2010Prop31
280
     0
102
RTVSPost2010PropOp31
 70
     1
102
RTVSPost2010Prop32
280
     0
102
RTVSPost2010PropOp32
 70
     1
102
RTVSPost2010Prop33
280
     0
102
RTVSPost2010PropOp33
 70
     1
102
RTVSPost2010Prop34
280
     0
102
RTVSPost2010PropOp34
 70
     1
102
RTVSPost2010Prop35
280
     0
102
RTVSPost2010PropOp35
 70
     1
102
RTVSPost2010Prop36
280
     0
102
RTVSPost2010PropOp36
 70
     1
102
RTVSPost2010Prop37
 90
       50
102
RTVSPost2010PropOp37
 70
     1
102
RTVSPost2010Prop38
140
0.0
102
RTVSPost2010PropOp38
 70
     1
102
RTVSPost2010Prop39
140
1.0
102
RTVSPost2010PropOp39
 70
     1
102
RTVSPost2010Prop40
 90
        0
102
RTVSPost2010PropOp40
 70
     1
102
RTVSPost2010Prop41ColorIndex
 90
       18
102
RTVSPost2010Prop41ColorRGB
 90
        0
102
RTVSPost2010PropOp41
 70
     1
102
RTVSPost2010Prop42
 90
       50
102
RTVSPost2010PropOp42
 70
     1
102
RTVSPost2010Prop43
 90
        3
102
RTVSPost2010PropOp43
 70
     1
102
RTVSPost2010Prop44ColorIndex
 90
        5
102
RTVSPost2010Prop44ColorRGB
 90
      255
102
RTVSPost2010PropOp44
 70
     1
102
RTVSPost2010Prop45
280
     0
102
RTVSPost2010PropOp45
 70
     1
102
RTVSPost2010Prop46
 90
       50
102
RTVSPost2010PropOp46
 70
     1
102
RTVSPost2010Prop47
 90
       50
102
RTVSPost2010PropOp47
 70
     1
102
RTVSPost2010Prop48
 90
       50
102
RTVSPost2010PropOp48
 70
     1
102
RTVSPost2010Prop49
280
     0
102
RTVSPost2010PropOp49
 70
     1
102
RTVSPost2010Prop50
 90
       50
102
RTVSPost2010PropOp50
 70
     1
102
RTVSPost2010Prop51ColorIndex
 90
      256
102
RTVSPost2010Prop51ColorRGB
 90
-16777216
102
RTVSPost2010PropOp51
 70
     0
102
RTVSPost2010Prop52
140
1.0
102
RTVSPost2010PropOp52
 70
     0
102
RTVSPost2010Prop53
 90
        2
102
RTVSPost2010PropOp53
 70
     1
102
RTVSPost2010Prop54
  1
strokes_ogs.tif
102
RTVSPost2010PropOp54
 70
     1
102
RTVSPost2010Prop55
280
     0
102
RTVSPost2010PropOp55
 70
     1
102
RTVSPost2010Prop56
140
1.0
102
RTVSPost2010PropOp56
 70
     1
102
RTVSPost2010Prop57
140
1.0
102
RTVSPost2010PropOp57
 70
     1
  0
XRECORD
  5
27D
102
{ACAD_REACTORS
330
27C
102
}
330
27C
100
AcDbXrecord
280
     1
102
RTVSPost2010Prop28
280
     0
102
RTVSPost2010PropOp28
 70
     1
102
RTVSPost2010Prop29
280
     1
102
RTVSPost2010PropOp29
 70
     1
102
RTVSPost2010Prop30
280
     1
102
RTVSPost2010PropOp30
 70
     1
102
RTVSPost2010Prop31
280
     0
102
RTVSPost2010PropOp31
 70
     1
102
RTVSPost2010Prop32
280
     0
102
RTVSPost2010PropOp32
 70
     1
102
RTVSPost2010Prop33
280
     0
102
RTVSPost2010PropOp33
 70
     1
102
RTVSPost2010Prop34
280
     0
102
RTVSPost2010PropOp34
 70
     1
102
RTVSPost2010Prop35
280
     0
102
RTVSPost2010PropOp35
 70
     1
102
RTVSPost2010Prop36
280
     0
102
RTVSPost2010PropOp36
 70
     1
102
RTVSPost2010Prop37
 90
       50
102
RTVSPost2010PropOp37
 70
     1
102
RTVSPost2010Prop38
140
0.0
102
RTVSPost2010PropOp38
 70
     1
102
RTVSPost2010Prop39
140
1.0
102
RTVSPost2010PropOp39
 70
     1
102
RTVSPost2010Prop40
 90
        0
102
RTVSPost2010PropOp40
 70
     1
102
RTVSPost2010Prop41ColorIndex
 90
       18
102
RTVSPost2010Prop41ColorRGB
 90
        0
102
RTVSPost2010PropOp41
 70
     1
102
RTVSPost2010Prop42
 90
       50
102
RTVSPost2010PropOp42
 70
     1
102
RTVSPost2010Prop43
 90
        3
102
RTVSPost2010PropOp43
 70
     1
102
RTVSPost2010Prop44ColorIndex
 90
        5
102
RTVSPost2010Prop44ColorRGB
 90
      255
102
RTVSPost2010PropOp44
 70
     1
102
RTVSPost2010Prop45
280
     0
102
RTVSPost2010PropOp45
 70
     1
102
RTVSPost2010Prop46
 90
       50
102
RTVSPost2010PropOp46
 70
     1
102
RTVSPost2010Prop47
 90
       50
102
RTVSPost2010PropOp47
 70
     1
102
RTVSPost2010Prop48
 90
       50
102
RTVSPost2010PropOp48
 70
     1
102
RTVSPost2010Prop49
280
     0
102
RTVSPost2010PropOp49
 70
     1
102
RTVSPost2010Prop50
 90
       50
102
RTVSPost2010PropOp50
 70
     1
102
RTVSPost2010Prop51ColorIndex
 90
      256
102
RTVSPost2010Prop51ColorRGB
 90
-16777216
102
RTVSPost2010PropOp51
 70
     0
102
RTVSPost2010Prop52
140
1.0
102
RTVSPost2010PropOp52
 70
     0
102
RTVSPost2010Prop53
 90
        2
102
RTVSPost2010PropOp53
 70
     1
102
RTVSPost2010Prop54
  1
strokes_ogs.tif
102
RTVSPost2010PropOp54
 70
     1
102
RTVSPost2010Prop55
280
     0
102
RTVSPost2010PropOp55
 70
     1
102
RTVSPost2010Prop56
140
1.0
102
RTVSPost2010PropOp56
 70
     1
102
RTVSPost2010Prop57
140
1.0
102
RTVSPost2010PropOp57
 70
     1
  0
XRECORD
  5
281
102
{ACAD_REACTORS
330
280
102
}
330
280
100
AcDbXrecord
280
     1
102
RTVSPost2010Prop28
280
     0
102
RTVSPost2010PropOp28
 70
     1
102
RTVSPost2010Prop29
280
     1
102
RTVSPost2010PropOp29
 70
     1
102
RTVSPost2010Prop30
280
     1
102
RTVSPost2010PropOp30
 70
     1
102
RTVSPost2010Prop31
280
     0
102
RTVSPost2010PropOp31
 70
     1
102
RTVSPost2010Prop32
280
     0
102
RTVSPost2010PropOp32
 70
     1
102
RTVSPost2010Prop33
280
     0
102
RTVSPost2010PropOp33
 70
     1
102
RTVSPost2010Prop34
280
     0
102
RTVSPost2010PropOp34
 70
     1
102
RTVSPost2010Prop35
280
     0
102
RTVSPost2010PropOp35
 70
     1
102
RTVSPost2010Prop36
280
     0
102
RTVSPost2010PropOp36
 70
     1
102
RTVSPost2010Prop37
 90
       50
102
RTVSPost2010PropOp37
 70
     1
102
RTVSPost2010Prop38
140
0.0
102
RTVSPost2010PropOp38
 70
     1
102
RTVSPost2010Prop39
140
1.0
102
RTVSPost2010PropOp39
 70
     1
102
RTVSPost2010Prop40
 90
        0
102
RTVSPost2010PropOp40
 70
     1
102
RTVSPost2010Prop41ColorIndex
 90
       18
102
RTVSPost2010Prop41ColorRGB
 90
        0
102
RTVSPost2010PropOp41
 70
     1
102
RTVSPost2010Prop42
 90
       50
102
RTVSPost2010PropOp42
 70
     1
102
RTVSPost2010Prop43
 90
        3
102
RTVSPost2010PropOp43
 70
     1
102
RTVSPost2010Prop44ColorIndex
 90
        5
102
RTVSPost2010Prop44ColorRGB
 90
      255
102
RTVSPost2010PropOp44
 70
     1
102
RTVSPost2010Prop45
280
     0
102
RTVSPost2010PropOp45
 70
     1
102
RTVSPost2010Prop46
 90
       50
102
RTVSPost2010PropOp46
 70
     1
102
RTVSPost2010Prop47
 90
       50
102
RTVSPost2010PropOp47
 70
     1
102
RTVSPost2010Prop48
 90
       50
102
RTVSPost2010PropOp48
 70
     1
102
RTVSPost2010Prop49
280
     0
102
RTVSPost2010PropOp49
 70
     1
102
RTVSPost2010Prop50
 90
       50
102
RTVSPost2010PropOp50
 70
     1
102
RTVSPost2010Prop51ColorIndex
 90
      256
102
RTVSPost2010Prop51ColorRGB
 90
-16777216
102
RTVSPost2010PropOp51
 70
     0
102
RTVSPost2010Prop52
140
1.0
102
RTVSPost2010PropOp52
 70
     0
102
RTVSPost2010Prop53
 90
        2
102
RTVSPost2010PropOp53
 70
     1
102
RTVSPost2010Prop54
  1
strokes_ogs.tif
102
RTVSPost2010PropOp54
 70
     1
102
RTVSPost2010Prop55
280
     0
102
RTVSPost2010PropOp55
 70
     1
102
RTVSPost2010Prop56
140
1.0
102
RTVSPost2010PropOp56
 70
     1
102
RTVSPost2010Prop57
140
1.0
102
RTVSPost2010PropOp57
 70
     1
  0
XRECORD
  5
29B
102
{ACAD_REACTORS
330
29A
102
}
330
29A
100
AcDbXrecord
280
     1
102
RTVSPost2010Prop28
280
     0
102
RTVSPost2010PropOp28
 70
     0
102
RTVSPost2010Prop29
280
     1
102
RTVSPost2010PropOp29
 70
     0
102
RTVSPost2010Prop30
280
     1
102
RTVSPost2010PropOp30
 70
     0
102
RTVSPost2010Prop31
280
     0
102
RTVSPost2010PropOp31
 70
     0
102
RTVSPost2010Prop32
280
     0
102
RTVSPost2010PropOp32
 70
     0
102
RTVSPost2010Prop33
280
     0
102
RTVSPost2010PropOp33
 70
     0
102
RTVSPost2010Prop34
280
     0
102
RTVSPost2010PropOp34
 70
     0
102
RTVSPost2010Prop35
280
     0
102
RTVSPost2010PropOp35
 70
     0
102
RTVSPost2010Prop36
280
     0
102
RTVSPost2010PropOp36
 70
     0
102
RTVSPost2010Prop37
 90
       50
102
RTVSPost2010PropOp37
 70
     0
102
RTVSPost2010Prop38
140
0.0
102
RTVSPost2010PropOp38
 70
     0
102
RTVSPost2010Prop39
140
1.0
102
RTVSPost2010PropOp39
 70
     0
102
RTVSPost2010Prop40
 90
        0
102
RTVSPost2010PropOp40
 70
     0
102
RTVSPost2010Prop41ColorIndex
 90
       18
102
RTVSPost2010Prop41ColorRGB
 90
        0
102
RTVSPost2010PropOp41
 70
     0
102
RTVSPost2010Prop42
 90
       50
102
RTVSPost2010PropOp42
 70
     0
102
RTVSPost2010Prop43
 90
        3
102
RTVSPost2010PropOp43
 70
     0
102
RTVSPost2010Prop44ColorIndex
 90
        5
102
RTVSPost2010Prop44ColorRGB
 90
      255
102
RTVSPost2010PropOp44
 70
     0
102
RTVSPost2010Prop45
280
     0
102
RTVSPost2010PropOp45
 70
     0
102
RTVSPost2010Prop46
 90
       50
102
RTVSPost2010PropOp46
 70
     0
102
RTVSPost2010Prop47
 90
       50
102
RTVSPost2010PropOp47
 70
     0
102
RTVSPost2010Prop48
 90
       50
102
RTVSPost2010PropOp48
 70
     0
102
RTVSPost2010Prop49
280
     0
102
RTVSPost2010PropOp49
 70
     0
102
RTVSPost2010Prop50
 90
       50
102
RTVSPost2010PropOp50
 70
     0
102
RTVSPost2010Prop51ColorIndex
 90
      256
102
RTVSPost2010Prop51ColorRGB
 90
-16777216
102
RTVSPost2010PropOp51
 70
     0
102
RTVSPost2010Prop52
140
1.0
102
RTVSPost2010PropOp52
 70
     0
102
RTVSPost2010Prop53
 90
        2
102
RTVSPost2010PropOp53
 70
     0
102
RTVSPost2010Prop54
  1
strokes_ogs.tif
102
RTVSPost2010PropOp54
 70
     0
102
RTVSPost2010Prop55
280
     0
102
RTVSPost2010PropOp55
 70
     0
102
RTVSPost2010Prop56
140
1.0
102
RTVSPost2010PropOp56
 70
     0
102
RTVSPost2010Prop57
140
1.0
102
RTVSPost2010PropOp57
 70
     0
  0
XRECORD
  5
289
102
{ACAD_REACTORS
330
288
102
}
330
288
100
AcDbXrecord
280
     1
102
RTVSPost2010Prop28
280
     0
102
RTVSPost2010PropOp28
 70
     1
102
RTVSPost2010Prop29
280
     1
102
RTVSPost2010PropOp29
 70
     1
102
RTVSPost2010Prop30
280
     1
102
RTVSPost2010PropOp30
 70
     1
102
RTVSPost2010Prop31
280
     0
102
RTVSPost2010PropOp31
 70
     1
102
RTVSPost2010Prop32
280
     0
102
RTVSPost2010PropOp32
 70
     1
102
RTVSPost2010Prop33
280
     0
102
RTVSPost2010PropOp33
 70
     1
102
RTVSPost2010Prop34
280
     0
102
RTVSPost2010PropOp34
 70
     1
102
RTVSPost2010Prop35
280
     0
102
RTVSPost2010PropOp35
 70
     1
102
RTVSPost2010Prop36
280
     0
102
RTVSPost2010PropOp36
 70
     1
102
RTVSPost2010Prop37
 90
       50
102
RTVSPost2010PropOp37
 70
     1
102
RTVSPost2010Prop38
140
0.0
102
RTVSPost2010PropOp38
 70
     1
102
RTVSPost2010Prop39
140
1.0
102
RTVSPost2010PropOp39
 70
     1
102
RTVSPost2010Prop40
 90
        0
102
RTVSPost2010PropOp40
 70
     1
102
RTVSPost2010Prop41ColorIndex
 90
       18
102
RTVSPost2010Prop41ColorRGB
 90
        0
102
RTVSPost2010PropOp41
 70
     1
102
RTVSPost2010Prop42
 90
       50
102
RTVSPost2010PropOp42
 70
     1
102
RTVSPost2010Prop43
 90
        3
102
RTVSPost2010PropOp43
 70
     1
102
RTVSPost2010Prop44ColorIndex
 90
        5
102
RTVSPost2010Prop44ColorRGB
 90
      255
102
RTVSPost2010PropOp44
 70
     1
102
RTVSPost2010Prop45
280
     0
102
RTVSPost2010PropOp45
 70
     1
102
RTVSPost2010Prop46
 90
       50
102
RTVSPost2010PropOp46
 70
     1
102
RTVSPost2010Prop47
 90
       50
102
RTVSPost2010PropOp47
 70
     1
102
RTVSPost2010Prop48
 90
       50
102
RTVSPost2010PropOp48
 70
     1
102
RTVSPost2010Prop49
280
     0
102
RTVSPost2010PropOp49
 70
     1
102
RTVSPost2010Prop50
 90
       50
102
RTVSPost2010PropOp50
 70
     1
102
RTVSPost2010Prop51ColorIndex
 90
      256
102
RTVSPost2010Prop51ColorRGB
 90
-16777216
102
RTVSPost2010PropOp51
 70
     0
102
RTVSPost2010Prop52
140
1.0
102
RTVSPost2010PropOp52
 70
     0
102
RTVSPost2010Prop53
 90
        2
102
RTVSPost2010PropOp53
 70
     1
102
RTVSPost2010Prop54
  1
strokes_ogs.tif
102
RTVSPost2010PropOp54
 70
     1
102
RTVSPost2010Prop55
280
     0
102
RTVSPost2010PropOp55
 70
     1
102
RTVSPost2010Prop56
140
1.0
102
RTVSPost2010PropOp56
 70
     1
102
RTVSPost2010Prop57
140
1.0
102
RTVSPost2010PropOp57
 70
     1
  0
XRECORD
  5
26D
102
{ACAD_REACTORS
330
26C
102
}
330
26C
100
AcDbXrecord
280
     1
102
RTVSPost2010Prop28
280
     0
102
RTVSPost2010PropOp28
 70
     1
102
RTVSPost2010Prop29
280
     1
102
RTVSPost2010PropOp29
 70
     1
102
RTVSPost2010Prop30
280
     1
102
RTVSPost2010PropOp30
 70
     1
102
RTVSPost2010Prop31
280
     0
102
RTVSPost2010PropOp31
 70
     1
102
RTVSPost2010Prop32
280
     0
102
RTVSPost2010PropOp32
 70
     1
102
RTVSPost2010Prop33
280
     0
102
RTVSPost2010PropOp33
 70
     1
102
RTVSPost2010Prop34
280
     0
102
RTVSPost2010PropOp34
 70
     1
102
RTVSPost2010Prop35
280
     0
102
RTVSPost2010PropOp35
 70
     1
102
RTVSPost2010Prop36
280
     0
102
RTVSPost2010PropOp36
 70
     1
102
RTVSPost2010Prop37
 90
       50
102
RTVSPost2010PropOp37
 70
     1
102
RTVSPost2010Prop38
140
0.0
102
RTVSPost2010PropOp38
 70
     1
102
RTVSPost2010Prop39
140
1.0
102
RTVSPost2010PropOp39
 70
     1
102
RTVSPost2010Prop40
 90
        0
102
RTVSPost2010PropOp40
 70
     1
102
RTVSPost2010Prop41ColorIndex
 90
       18
102
RTVSPost2010Prop41ColorRGB
 90
        0
102
RTVSPost2010PropOp41
 70
     1
102
RTVSPost2010Prop42
 90
       50
102
RTVSPost2010PropOp42
 70
     1
102
RTVSPost2010Prop43
 90
        3
102
RTVSPost2010PropOp43
 70
     1
102
RTVSPost2010Prop44ColorIndex
 90
        5
102
RTVSPost2010Prop44ColorRGB
 90
      255
102
RTVSPost2010PropOp44
 70
     1
102
RTVSPost2010Prop45
280
     0
102
RTVSPost2010PropOp45
 70
     1
102
RTVSPost2010Prop46
 90
       50
102
RTVSPost2010PropOp46
 70
     1
102
RTVSPost2010Prop47
 90
       50
102
RTVSPost2010PropOp47
 70
     1
102
RTVSPost2010Prop48
 90
       50
102
RTVSPost2010PropOp48
 70
     1
102
RTVSPost2010Prop49
280
     0
102
RTVSPost2010PropOp49
 70
     1
102
RTVSPost2010Prop50
 90
       50
102
RTVSPost2010PropOp50
 70
     1
102
RTVSPost2010Prop51ColorIndex
 90
      256
102
RTVSPost2010Prop51ColorRGB
 90
-16777216
102
RTVSPost2010PropOp51
 70
     0
102
RTVSPost2010Prop52
140
1.0
102
RTVSPost2010PropOp52
 70
     0
102
RTVSPost2010Prop53
 90
        2
102
RTVSPost2010PropOp53
 70
     1
102
RTVSPost2010Prop54
  1
strokes_ogs.tif
102
RTVSPost2010PropOp54
 70
     1
102
RTVSPost2010Prop55
280
     0
102
RTVSPost2010PropOp55
 70
     1
102
RTVSPost2010Prop56
140
1.0
102
RTVSPost2010PropOp56
 70
     1
102
RTVSPost2010Prop57
140
1.0
102
RTVSPost2010PropOp57
 70
     1
  0
XRECORD
  5
26F
102
{ACAD_REACTORS
330
26E
102
}
330
26E
100
AcDbXrecord
280
     1
102
RTVSPost2010Prop28
280
     0
102
RTVSPost2010PropOp28
 70
     1
102
RTVSPost2010Prop29
280
     1
102
RTVSPost2010PropOp29
 70
     1
102
RTVSPost2010Prop30
280
     1
102
RTVSPost2010PropOp30
 70
     1
102
RTVSPost2010Prop31
280
     0
102
RTVSPost2010PropOp31
 70
     1
102
RTVSPost2010Prop32
280
     0
102
RTVSPost2010PropOp32
 70
     1
102
RTVSPost2010Prop33
280
     0
102
RTVSPost2010PropOp33
 70
     1
102
RTVSPost2010Prop34
280
     0
102
RTVSPost2010PropOp34
 70
     1
102
RTVSPost2010Prop35
280
     0
102
RTVSPost2010PropOp35
 70
     1
102
RTVSPost2010Prop36
280
     0
102
RTVSPost2010PropOp36
 70
     1
102
RTVSPost2010Prop37
 90
       50
102
RTVSPost2010PropOp37
 70
     1
102
RTVSPost2010Prop38
140
0.0
102
RTVSPost2010PropOp38
 70
     1
102
RTVSPost2010Prop39
140
1.0
102
RTVSPost2010PropOp39
 70
     1
102
RTVSPost2010Prop40
 90
        0
102
RTVSPost2010PropOp40
 70
     1
102
RTVSPost2010Prop41ColorIndex
 90
       18
102
RTVSPost2010Prop41ColorRGB
 90
        0
102
RTVSPost2010PropOp41
 70
     1
102
RTVSPost2010Prop42
 90
       50
102
RTVSPost2010PropOp42
 70
     1
102
RTVSPost2010Prop43
 90
        3
102
RTVSPost2010PropOp43
 70
     1
102
RTVSPost2010Prop44ColorIndex
 90
        5
102
RTVSPost2010Prop44ColorRGB
 90
      255
102
RTVSPost2010PropOp44
 70
     1
102
RTVSPost2010Prop45
280
     0
102
RTVSPost2010PropOp45
 70
     1
102
RTVSPost2010Prop46
 90
       50
102
RTVSPost2010PropOp46
 70
     1
102
RTVSPost2010Prop47
 90
       50
102
RTVSPost2010PropOp47
 70
     1
102
RTVSPost2010Prop48
 90
       50
102
RTVSPost2010PropOp48
 70
     1
102
RTVSPost2010Prop49
280
     0
102
RTVSPost2010PropOp49
 70
     1
102
RTVSPost2010Prop50
 90
       50
102
RTVSPost2010PropOp50
 70
     1
102
RTVSPost2010Prop51ColorIndex
 90
      256
102
RTVSPost2010Prop51ColorRGB
 90
-16777216
102
RTVSPost2010PropOp51
 70
     0
102
RTVSPost2010Prop52
140
1.0
102
RTVSPost2010PropOp52
 70
     0
102
RTVSPost2010Prop53
 90
        2
102
RTVSPost2010PropOp53
 70
     1
102
RTVSPost2010Prop54
  1
strokes_ogs.tif
102
RTVSPost2010PropOp54
 70
     1
102
RTVSPost2010Prop55
280
     0
102
RTVSPost2010PropOp55
 70
     1
102
RTVSPost2010Prop56
140
1.0
102
RTVSPost2010PropOp56
 70
     1
102
RTVSPost2010Prop57
140
1.0
102
RTVSPost2010PropOp57
 70
     1
  0
XRECORD
  5
271
102
{ACAD_REACTORS
330
270
102
}
330
270
100
AcDbXrecord
280
     1
102
RTVSPost2010Prop28
280
     0
102
RTVSPost2010PropOp28
 70
     1
102
RTVSPost2010Prop29
280
     1
102
RTVSPost2010PropOp29
 70
     1
102
RTVSPost2010Prop30
280
     1
102
RTVSPost2010PropOp30
 70
     1
102
RTVSPost2010Prop31
280
     0
102
RTVSPost2010PropOp31
 70
     1
102
RTVSPost2010Prop32
280
     0
102
RTVSPost2010PropOp32
 70
     1
102
RTVSPost2010Prop33
280
     0
102
RTVSPost2010PropOp33
 70
     1
102
RTVSPost2010Prop34
280
     0
102
RTVSPost2010PropOp34
 70
     1
102
RTVSPost2010Prop35
280
     0
102
RTVSPost2010PropOp35
 70
     1
102
RTVSPost2010Prop36
280
     0
102
RTVSPost2010PropOp36
 70
     1
102
RTVSPost2010Prop37
 90
       50
102
RTVSPost2010PropOp37
 70
     1
102
RTVSPost2010Prop38
140
0.0
102
RTVSPost2010PropOp38
 70
     1
102
RTVSPost2010Prop39
140
1.0
102
RTVSPost2010PropOp39
 70
     1
102
RTVSPost2010Prop40
 90
        0
102
RTVSPost2010PropOp40
 70
     1
102
RTVSPost2010Prop41ColorIndex
 90
       18
102
RTVSPost2010Prop41ColorRGB
 90
        0
102
RTVSPost2010PropOp41
 70
     1
102
RTVSPost2010Prop42
 90
       50
102
RTVSPost2010PropOp42
 70
     1
102
RTVSPost2010Prop43
 90
        3
102
RTVSPost2010PropOp43
 70
     1
102
RTVSPost2010Prop44ColorIndex
 90
        5
102
RTVSPost2010Prop44ColorRGB
 90
      255
102
RTVSPost2010PropOp44
 70
     1
102
RTVSPost2010Prop45
280
     0
102
RTVSPost2010PropOp45
 70
     1
102
RTVSPost2010Prop46
 90
       50
102
RTVSPost2010PropOp46
 70
     1
102
RTVSPost2010Prop47
 90
       50
102
RTVSPost2010PropOp47
 70
     1
102
RTVSPost2010Prop48
 90
       50
102
RTVSPost2010PropOp48
 70
     1
102
RTVSPost2010Prop49
280
     0
102
RTVSPost2010PropOp49
 70
     1
102
RTVSPost2010Prop50
 90
       50
102
RTVSPost2010PropOp50
 70
     1
102
RTVSPost2010Prop51ColorIndex
 90
      256
102
RTVSPost2010Prop51ColorRGB
 90
-16777216
102
RTVSPost2010PropOp51
 70
     0
102
RTVSPost2010Prop52
140
1.0
102
RTVSPost2010PropOp52
 70
     0
102
RTVSPost2010Prop53
 90
        2
102
RTVSPost2010PropOp53
 70
     1
102
RTVSPost2010Prop54
  1
strokes_ogs.tif
102
RTVSPost2010PropOp54
 70
     1
102
RTVSPost2010Prop55
280
     0
102
RTVSPost2010PropOp55
 70
     1
102
RTVSPost2010Prop56
140
1.0
102
RTVSPost2010PropOp56
 70
     1
102
RTVSPost2010Prop57
140
1.0
102
RTVSPost2010PropOp57
 70
     1
  0
XRECORD
  5
273
102
{ACAD_REACTORS
330
272
102
}
330
272
100
AcDbXrecord
280
     1
102
RTVSPost2010Prop28
280
     0
102
RTVSPost2010PropOp28
 70
     1
102
RTVSPost2010Prop29
280
     1
102
RTVSPost2010PropOp29
 70
     1
102
RTVSPost2010Prop30
280
     1
102
RTVSPost2010PropOp30
 70
     1
102
RTVSPost2010Prop31
280
     0
102
RTVSPost2010PropOp31
 70
     1
102
RTVSPost2010Prop32
280
     0
102
RTVSPost2010PropOp32
 70
     1
102
RTVSPost2010Prop33
280
     0
102
RTVSPost2010PropOp33
 70
     1
102
RTVSPost2010Prop34
280
     0
102
RTVSPost2010PropOp34
 70
     1
102
RTVSPost2010Prop35
280
     0
102
RTVSPost2010PropOp35
 70
     1
102
RTVSPost2010Prop36
280
     0
102
RTVSPost2010PropOp36
 70
     1
102
RTVSPost2010Prop37
 90
       50
102
RTVSPost2010PropOp37
 70
     1
102
RTVSPost2010Prop38
140
0.0
102
RTVSPost2010PropOp38
 70
     1
102
RTVSPost2010Prop39
140
1.0
102
RTVSPost2010PropOp39
 70
     1
102
RTVSPost2010Prop40
 90
        0
102
RTVSPost2010PropOp40
 70
     1
102
RTVSPost2010Prop41ColorIndex
 90
       18
102
RTVSPost2010Prop41ColorRGB
 90
        0
102
RTVSPost2010PropOp41
 70
     1
102
RTVSPost2010Prop42
 90
       50
102
RTVSPost2010PropOp42
 70
     1
102
RTVSPost2010Prop43
 90
        3
102
RTVSPost2010PropOp43
 70
     1
102
RTVSPost2010Prop44ColorIndex
 90
        5
102
RTVSPost2010Prop44ColorRGB
 90
      255
102
RTVSPost2010PropOp44
 70
     1
102
RTVSPost2010Prop45
280
     0
102
RTVSPost2010PropOp45
 70
     1
102
RTVSPost2010Prop46
 90
       50
102
RTVSPost2010PropOp46
 70
     1
102
RTVSPost2010Prop47
 90
       50
102
RTVSPost2010PropOp47
 70
     1
102
RTVSPost2010Prop48
 90
       50
102
RTVSPost2010PropOp48
 70
     1
102
RTVSPost2010Prop49
280
     0
102
RTVSPost2010PropOp49
 70
     1
102
RTVSPost2010Prop50
 90
       50
102
RTVSPost2010PropOp50
 70
     1
102
RTVSPost2010Prop51ColorIndex
 90
      256
102
RTVSPost2010Prop51ColorRGB
 90
-16777216
102
RTVSPost2010PropOp51
 70
     0
102
RTVSPost2010Prop52
140
1.0
102
RTVSPost2010PropOp52
 70
     0
102
RTVSPost2010Prop53
 90
        2
102
RTVSPost2010PropOp53
 70
     1
102
RTVSPost2010Prop54
  1
strokes_ogs.tif
102
RTVSPost2010PropOp54
 70
     1
102
RTVSPost2010Prop55
280
     0
102
RTVSPost2010PropOp55
 70
     1
102
RTVSPost2010Prop56
140
1.0
102
RTVSPost2010PropOp56
 70
     1
102
RTVSPost2010Prop57
140
1.0
102
RTVSPost2010PropOp57
 70
     1
  0
XRECORD
  5
27B
102
{ACAD_REACTORS
330
27A
102
}
330
27A
100
AcDbXrecord
280
     1
102
RTVSPost2010Prop28
280
     0
102
RTVSPost2010PropOp28
 70
     1
102
RTVSPost2010Prop29
280
     1
102
RTVSPost2010PropOp29
 70
     1
102
RTVSPost2010Prop30
280
     1
102
RTVSPost2010PropOp30
 70
     1
102
RTVSPost2010Prop31
280
     0
102
RTVSPost2010PropOp31
 70
     1
102
RTVSPost2010Prop32
280
     0
102
RTVSPost2010PropOp32
 70
     1
102
RTVSPost2010Prop33
280
     0
102
RTVSPost2010PropOp33
 70
     1
102
RTVSPost2010Prop34
280
     0
102
RTVSPost2010PropOp34
 70
     1
102
RTVSPost2010Prop35
280
     0
102
RTVSPost2010PropOp35
 70
     1
102
RTVSPost2010Prop36
280
     0
102
RTVSPost2010PropOp36
 70
     1
102
RTVSPost2010Prop37
 90
       50
102
RTVSPost2010PropOp37
 70
     1
102
RTVSPost2010Prop38
140
0.0
102
RTVSPost2010PropOp38
 70
     1
102
RTVSPost2010Prop39
140
1.0
102
RTVSPost2010PropOp39
 70
     1
102
RTVSPost2010Prop40
 90
        0
102
RTVSPost2010PropOp40
 70
     1
102
RTVSPost2010Prop41ColorIndex
 90
       18
102
RTVSPost2010Prop41ColorRGB
 90
        0
102
RTVSPost2010PropOp41
 70
     1
102
RTVSPost2010Prop42
 90
       50
102
RTVSPost2010PropOp42
 70
     1
102
RTVSPost2010Prop43
 90
        3
102
RTVSPost2010PropOp43
 70
     1
102
RTVSPost2010Prop44ColorIndex
 90
        5
102
RTVSPost2010Prop44ColorRGB
 90
      255
102
RTVSPost2010PropOp44
 70
     1
102
RTVSPost2010Prop45
280
     0
102
RTVSPost2010PropOp45
 70
     1
102
RTVSPost2010Prop46
 90
       50
102
RTVSPost2010PropOp46
 70
     1
102
RTVSPost2010Prop47
 90
       50
102
RTVSPost2010PropOp47
 70
     1
102
RTVSPost2010Prop48
 90
       50
102
RTVSPost2010PropOp48
 70
     1
102
RTVSPost2010Prop49
280
     0
102
RTVSPost2010PropOp49
 70
     1
102
RTVSPost2010Prop50
 90
       50
102
RTVSPost2010PropOp50
 70
     1
102
RTVSPost2010Prop51ColorIndex
 90
      256
102
RTVSPost2010Prop51ColorRGB
 90
-16777216
102
RTVSPost2010PropOp51
 70
     0
102
RTVSPost2010Prop52
140
1.0
102
RTVSPost2010PropOp52
 70
     0
102
RTVSPost2010Prop53
 90
        2
102
RTVSPost2010PropOp53
 70
     1
102
RTVSPost2010Prop54
  1
strokes_ogs.tif
102
RTVSPost2010PropOp54
 70
     1
102
RTVSPost2010Prop55
280
     0
102
RTVSPost2010PropOp55
 70
     1
102
RTVSPost2010Prop56
140
1.0
102
RTVSPost2010PropOp56
 70
     1
102
RTVSPost2010Prop57
140
1.0
102
RTVSPost2010PropOp57
 70
     1
  0
XRECORD
  5
297
102
{ACAD_REACTORS
330
296
102
}
330
296
100
AcDbXrecord
280
     1
102
RTVSPost2010Prop28
280
     0
102
RTVSPost2010PropOp28
 70
     0
102
RTVSPost2010Prop29
280
     1
102
RTVSPost2010PropOp29
 70
     0
102
RTVSPost2010Prop30
280
     1
102
RTVSPost2010PropOp30
 70
     0
102
RTVSPost2010Prop31
280
     0
102
RTVSPost2010PropOp31
 70
     0
102
RTVSPost2010Prop32
280
     0
102
RTVSPost2010PropOp32
 70
     0
102
RTVSPost2010Prop33
280
     0
102
RTVSPost2010PropOp33
 70
     0
102
RTVSPost2010Prop34
280
     0
102
RTVSPost2010PropOp34
 70
     0
102
RTVSPost2010Prop35
280
     0
102
RTVSPost2010PropOp35
 70
     0
102
RTVSPost2010Prop36
280
     0
102
RTVSPost2010PropOp36
 70
     0
102
RTVSPost2010Prop37
 90
       50
102
RTVSPost2010PropOp37
 70
     0
102
RTVSPost2010Prop38
140
0.0
102
RTVSPost2010PropOp38
 70
     0
102
RTVSPost2010Prop39
140
1.0
102
RTVSPost2010PropOp39
 70
     0
102
RTVSPost2010Prop40
 90
        0
102
RTVSPost2010PropOp40
 70
     0
102
RTVSPost2010Prop41ColorIndex
 90
       18
102
RTVSPost2010Prop41ColorRGB
 90
        0
102
RTVSPost2010PropOp41
 70
     0
102
RTVSPost2010Prop42
 90
       50
102
RTVSPost2010PropOp42
 70
     0
102
RTVSPost2010Prop43
 90
        3
102
RTVSPost2010PropOp43
 70
     0
102
RTVSPost2010Prop44ColorIndex
 90
        5
102
RTVSPost2010Prop44ColorRGB
 90
      255
102
RTVSPost2010PropOp44
 70
     0
102
RTVSPost2010Prop45
280
     0
102
RTVSPost2010PropOp45
 70
     0
102
RTVSPost2010Prop46
 90
       50
102
RTVSPost2010PropOp46
 70
     0
102
RTVSPost2010Prop47
 90
       50
102
RTVSPost2010PropOp47
 70
     0
102
RTVSPost2010Prop48
 90
       50
102
RTVSPost2010PropOp48
 70
     0
102
RTVSPost2010Prop49
280
     0
102
RTVSPost2010PropOp49
 70
     0
102
RTVSPost2010Prop50
 90
       50
102
RTVSPost2010PropOp50
 70
     0
102
RTVSPost2010Prop51ColorIndex
 90
      256
102
RTVSPost2010Prop51ColorRGB
 90
-16777216
102
RTVSPost2010PropOp51
 70
     0
102
RTVSPost2010Prop52
140
1.0
102
RTVSPost2010PropOp52
 70
     0
102
RTVSPost2010Prop53
 90
        2
102
RTVSPost2010PropOp53
 70
     0
102
RTVSPost2010Prop54
  1
strokes_ogs.tif
102
RTVSPost2010PropOp54
 70
     0
102
RTVSPost2010Prop55
280
     0
102
RTVSPost2010PropOp55
 70
     0
102
RTVSPost2010Prop56
140
1.0
102
RTVSPost2010PropOp56
 70
     0
102
RTVSPost2010Prop57
140
1.0
102
RTVSPost2010PropOp57
 70
     0
  0
XRECORD
  5
287
102
{ACAD_REACTORS
330
286
102
}
330
286
100
AcDbXrecord
280
     1
102
RTVSPost2010Prop28
280
     0
102
RTVSPost2010PropOp28
 70
     1
102
RTVSPost2010Prop29
280
     1
102
RTVSPost2010PropOp29
 70
     1
102
RTVSPost2010Prop30
280
     1
102
RTVSPost2010PropOp30
 70
     1
102
RTVSPost2010Prop31
280
     0
102
RTVSPost2010PropOp31
 70
     1
102
RTVSPost2010Prop32
280
     0
102
RTVSPost2010PropOp32
 70
     1
102
RTVSPost2010Prop33
280
     0
102
RTVSPost2010PropOp33
 70
     1
102
RTVSPost2010Prop34
280
     0
102
RTVSPost2010PropOp34
 70
     1
102
RTVSPost2010Prop35
280
     0
102
RTVSPost2010PropOp35
 70
     1
102
RTVSPost2010Prop36
280
     0
102
RTVSPost2010PropOp36
 70
     1
102
RTVSPost2010Prop37
 90
       50
102
RTVSPost2010PropOp37
 70
     1
102
RTVSPost2010Prop38
140
0.0
102
RTVSPost2010PropOp38
 70
     1
102
RTVSPost2010Prop39
140
1.0
102
RTVSPost2010PropOp39
 70
     1
102
RTVSPost2010Prop40
 90
        0
102
RTVSPost2010PropOp40
 70
     1
102
RTVSPost2010Prop41ColorIndex
 90
       18
102
RTVSPost2010Prop41ColorRGB
 90
        0
102
RTVSPost2010PropOp41
 70
     1
102
RTVSPost2010Prop42
 90
       50
102
RTVSPost2010PropOp42
 70
     1
102
RTVSPost2010Prop43
 90
        3
102
RTVSPost2010PropOp43
 70
     1
102
RTVSPost2010Prop44ColorIndex
 90
        5
102
RTVSPost2010Prop44ColorRGB
 90
      255
102
RTVSPost2010PropOp44
 70
     1
102
RTVSPost2010Prop45
280
     0
102
RTVSPost2010PropOp45
 70
     1
102
RTVSPost2010Prop46
 90
       50
102
RTVSPost2010PropOp46
 70
     1
102
RTVSPost2010Prop47
 90
       50
102
RTVSPost2010PropOp47
 70
     1
102
RTVSPost2010Prop48
 90
       50
102
RTVSPost2010PropOp48
 70
     1
102
RTVSPost2010Prop49
280
     0
102
RTVSPost2010PropOp49
 70
     1
102
RTVSPost2010Prop50
 90
       50
102
RTVSPost2010PropOp50
 70
     1
102
RTVSPost2010Prop51ColorIndex
 90
      256
102
RTVSPost2010Prop51ColorRGB
 90
-16777216
102
RTVSPost2010PropOp51
 70
     0
102
RTVSPost2010Prop52
140
1.0
102
RTVSPost2010PropOp52
 70
     0
102
RTVSPost2010Prop53
 90
        2
102
RTVSPost2010PropOp53
 70
     1
102
RTVSPost2010Prop54
  1
strokes_ogs.tif
102
RTVSPost2010PropOp54
 70
     1
102
RTVSPost2010Prop55
280
     0
102
RTVSPost2010PropOp55
 70
     1
102
RTVSPost2010Prop56
140
1.0
102
RTVSPost2010PropOp56
 70
     1
102
RTVSPost2010Prop57
140
1.0
102
RTVSPost2010PropOp57
 70
     1
  0
XRECORD
  5
299
102
{ACAD_REACTORS
330
298
102
}
330
298
100
AcDbXrecord
280
     1
102
RTVSPost2010Prop28
280
     0
102
RTVSPost2010PropOp28
 70
     0
102
RTVSPost2010Prop29
280
     1
102
RTVSPost2010PropOp29
 70
     0
102
RTVSPost2010Prop30
280
     1
102
RTVSPost2010PropOp30
 70
     0
102
RTVSPost2010Prop31
280
     0
102
RTVSPost2010PropOp31
 70
     0
102
RTVSPost2010Prop32
280
     0
102
RTVSPost2010PropOp32
 70
     0
102
RTVSPost2010Prop33
280
     0
102
RTVSPost2010PropOp33
 70
     0
102
RTVSPost2010Prop34
280
     0
102
RTVSPost2010PropOp34
 70
     0
102
RTVSPost2010Prop35
280
     0
102
RTVSPost2010PropOp35
 70
     0
102
RTVSPost2010Prop36
280
     0
102
RTVSPost2010PropOp36
 70
     0
102
RTVSPost2010Prop37
 90
       50
102
RTVSPost2010PropOp37
 70
     0
102
RTVSPost2010Prop38
140
0.0
102
RTVSPost2010PropOp38
 70
     0
102
RTVSPost2010Prop39
140
1.0
102
RTVSPost2010PropOp39
 70
     0
102
RTVSPost2010Prop40
 90
        0
102
RTVSPost2010PropOp40
 70
     0
102
RTVSPost2010Prop41ColorIndex
 90
       18
102
RTVSPost2010Prop41ColorRGB
 90
        0
102
RTVSPost2010PropOp41
 70
     0
102
RTVSPost2010Prop42
 90
       50
102
RTVSPost2010PropOp42
 70
     0
102
RTVSPost2010Prop43
 90
        3
102
RTVSPost2010PropOp43
 70
     0
102
RTVSPost2010Prop44ColorIndex
 90
        5
102
RTVSPost2010Prop44ColorRGB
 90
      255
102
RTVSPost2010PropOp44
 70
     0
102
RTVSPost2010Prop45
280
     0
102
RTVSPost2010PropOp45
 70
     0
102
RTVSPost2010Prop46
 90
       50
102
RTVSPost2010PropOp46
 70
     0
102
RTVSPost2010Prop47
 90
       50
102
RTVSPost2010PropOp47
 70
     0
102
RTVSPost2010Prop48
 90
       50
102
RTVSPost2010PropOp48
 70
     0
102
RTVSPost2010Prop49
280
     0
102
RTVSPost2010PropOp49
 70
     0
102
RTVSPost2010Prop50
 90
       50
102
RTVSPost2010PropOp50
 70
     0
102
RTVSPost2010Prop51ColorIndex
 90
      256
102
RTVSPost2010Prop51ColorRGB
 90
-16777216
102
RTVSPost2010PropOp51
 70
     0
102
RTVSPost2010Prop52
140
1.0
102
RTVSPost2010PropOp52
 70
     0
102
RTVSPost2010Prop53
 90
        2
102
RTVSPost2010PropOp53
 70
     0
102
RTVSPost2010Prop54
  1
strokes_ogs.tif
102
RTVSPost2010PropOp54
 70
     0
102
RTVSPost2010Prop55
280
     0
102
RTVSPost2010PropOp55
 70
     0
102
RTVSPost2010Prop56
140
1.0
102
RTVSPost2010PropOp56
 70
     0
102
RTVSPost2010Prop57
140
1.0
102
RTVSPost2010PropOp57
 70
     0
  0
XRECORD
  5
27F
102
{ACAD_REACTORS
330
27E
102
}
330
27E
100
AcDbXrecord
280
     1
102
RTVSPost2010Prop28
280
     0
102
RTVSPost2010PropOp28
 70
     1
102
RTVSPost2010Prop29
280
     1
102
RTVSPost2010PropOp29
 70
     1
102
RTVSPost2010Prop30
280
     1
102
RTVSPost2010PropOp30
 70
     1
102
RTVSPost2010Prop31
280
     0
102
RTVSPost2010PropOp31
 70
     1
102
RTVSPost2010Prop32
280
     0
102
RTVSPost2010PropOp32
 70
     1
102
RTVSPost2010Prop33
280
     0
102
RTVSPost2010PropOp33
 70
     1
102
RTVSPost2010Prop34
280
     0
102
RTVSPost2010PropOp34
 70
     1
102
RTVSPost2010Prop35
280
     0
102
RTVSPost2010PropOp35
 70
     1
102
RTVSPost2010Prop36
280
     0
102
RTVSPost2010PropOp36
 70
     1
102
RTVSPost2010Prop37
 90
       50
102
RTVSPost2010PropOp37
 70
     1
102
RTVSPost2010Prop38
140
0.0
102
RTVSPost2010PropOp38
 70
     1
102
RTVSPost2010Prop39
140
1.0
102
RTVSPost2010PropOp39
 70
     1
102
RTVSPost2010Prop40
 90
        0
102
RTVSPost2010PropOp40
 70
     1
102
RTVSPost2010Prop41ColorIndex
 90
       18
102
RTVSPost2010Prop41ColorRGB
 90
        0
102
RTVSPost2010PropOp41
 70
     1
102
RTVSPost2010Prop42
 90
       50
102
RTVSPost2010PropOp42
 70
     1
102
RTVSPost2010Prop43
 90
        3
102
RTVSPost2010PropOp43
 70
     1
102
RTVSPost2010Prop44ColorIndex
 90
        5
102
RTVSPost2010Prop44ColorRGB
 90
      255
102
RTVSPost2010PropOp44
 70
     1
102
RTVSPost2010Prop45
280
     0
102
RTVSPost2010PropOp45
 70
     1
102
RTVSPost2010Prop46
 90
       50
102
RTVSPost2010PropOp46
 70
     1
102
RTVSPost2010Prop47
 90
       50
102
RTVSPost2010PropOp47
 70
     1
102
RTVSPost2010Prop48
 90
       50
102
RTVSPost2010PropOp48
 70
     1
102
RTVSPost2010Prop49
280
     0
102
RTVSPost2010PropOp49
 70
     1
102
RTVSPost2010Prop50
 90
       50
102
RTVSPost2010PropOp50
 70
     1
102
RTVSPost2010Prop51ColorIndex
 90
      256
102
RTVSPost2010Prop51ColorRGB
 90
-16777216
102
RTVSPost2010PropOp51
 70
     0
102
RTVSPost2010Prop52
140
1.0
102
RTVSPost2010PropOp52
 70
     0
102
RTVSPost2010Prop53
 90
        2
102
RTVSPost2010PropOp53
 70
     1
102
RTVSPost2010Prop54
  1
strokes_ogs.tif
102
RTVSPost2010PropOp54
 70
     1
102
RTVSPost2010Prop55
280
     0
102
RTVSPost2010PropOp55
 70
     1
102
RTVSPost2010Prop56
140
1.0
102
RTVSPost2010PropOp56
 70
     1
102
RTVSPost2010Prop57
140
1.0
102
RTVSPost2010PropOp57
 70
     1
  0
XRECORD
  5
295
102
{ACAD_REACTORS
330
294
102
}
330
294
100
AcDbXrecord
280
     1
102
RTVSPost2010Prop28
280
     0
102
RTVSPost2010PropOp28
 70
     1
102
RTVSPost2010Prop29
280
     1
102
RTVSPost2010PropOp29
 70
     1
102
RTVSPost2010Prop30
280
     1
102
RTVSPost2010PropOp30
 70
     1
102
RTVSPost2010Prop31
280
     0
102
RTVSPost2010PropOp31
 70
     1
102
RTVSPost2010Prop32
280
     0
102
RTVSPost2010PropOp32
 70
     1
102
RTVSPost2010Prop33
280
     0
102
RTVSPost2010PropOp33
 70
     1
102
RTVSPost2010Prop34
280
     0
102
RTVSPost2010PropOp34
 70
     1
102
RTVSPost2010Prop35
280
     0
102
RTVSPost2010PropOp35
 70
     1
102
RTVSPost2010Prop36
280
     0
102
RTVSPost2010PropOp36
 70
     1
102
RTVSPost2010Prop37
 90
       50
102
RTVSPost2010PropOp37
 70
     1
102
RTVSPost2010Prop38
140
0.0
102
RTVSPost2010PropOp38
 70
     1
102
RTVSPost2010Prop39
140
1.0
102
RTVSPost2010PropOp39
 70
     1
102
RTVSPost2010Prop40
 90
        0
102
RTVSPost2010PropOp40
 70
     1
102
RTVSPost2010Prop41ColorIndex
 90
       18
102
RTVSPost2010Prop41ColorRGB
 90
        0
102
RTVSPost2010PropOp41
 70
     1
102
RTVSPost2010Prop42
 90
       50
102
RTVSPost2010PropOp42
 70
     1
102
RTVSPost2010Prop43
 90
        3
102
RTVSPost2010PropOp43
 70
     1
102
RTVSPost2010Prop44ColorIndex
 90
        5
102
RTVSPost2010Prop44ColorRGB
 90
      255
102
RTVSPost2010PropOp44
 70
     1
102
RTVSPost2010Prop45
280
     0
102
RTVSPost2010PropOp45
 70
     1
102
RTVSPost2010Prop46
 90
       50
102
RTVSPost2010PropOp46
 70
     1
102
RTVSPost2010Prop47
 90
       50
102
RTVSPost2010PropOp47
 70
     1
102
RTVSPost2010Prop48
 90
       50
102
RTVSPost2010PropOp48
 70
     1
102
RTVSPost2010Prop49
280
     0
102
RTVSPost2010PropOp49
 70
     1
102
RTVSPost2010Prop50
 90
       50
102
RTVSPost2010PropOp50
 70
     1
102
RTVSPost2010Prop51ColorIndex
 90
      256
102
RTVSPost2010Prop51ColorRGB
 90
-16777216
102
RTVSPost2010PropOp51
 70
     0
102
RTVSPost2010Prop52
140
1.0
102
RTVSPost2010PropOp52
 70
     0
102
RTVSPost2010Prop53
 90
        2
102
RTVSPost2010PropOp53
 70
     1
102
RTVSPost2010Prop54
  1
strokes_ogs.tif
102
RTVSPost2010PropOp54
 70
     1
102
RTVSPost2010Prop55
280
     0
102
RTVSPost2010PropOp55
 70
     1
102
RTVSPost2010Prop56
140
1.0
102
RTVSPost2010PropOp56
 70
     1
102
RTVSPost2010Prop57
140
1.0
102
RTVSPost2010PropOp57
 70
     1
  0
XRECORD
  5
293
102
{ACAD_REACTORS
330
292
102
}
330
292
100
AcDbXrecord
280
     1
102
RTVSPost2010Prop28
280
     0
102
RTVSPost2010PropOp28
 70
     1
102
RTVSPost2010Prop29
280
     1
102
RTVSPost2010PropOp29
 70
     1
102
RTVSPost2010Prop30
280
     1
102
RTVSPost2010PropOp30
 70
     1
102
RTVSPost2010Prop31
280
     0
102
RTVSPost2010PropOp31
 70
     1
102
RTVSPost2010Prop32
280
     0
102
RTVSPost2010PropOp32
 70
     1
102
RTVSPost2010Prop33
280
     0
102
RTVSPost2010PropOp33
 70
     1
102
RTVSPost2010Prop34
280
     0
102
RTVSPost2010PropOp34
 70
     1
102
RTVSPost2010Prop35
280
     0
102
RTVSPost2010PropOp35
 70
     1
102
RTVSPost2010Prop36
280
     0
102
RTVSPost2010PropOp36
 70
     1
102
RTVSPost2010Prop37
 90
       50
102
RTVSPost2010PropOp37
 70
     1
102
RTVSPost2010Prop38
140
0.0
102
RTVSPost2010PropOp38
 70
     1
102
RTVSPost2010Prop39
140
1.0
102
RTVSPost2010PropOp39
 70
     1
102
RTVSPost2010Prop40
 90
        0
102
RTVSPost2010PropOp40
 70
     1
102
RTVSPost2010Prop41ColorIndex
 90
       18
102
RTVSPost2010Prop41ColorRGB
 90
        0
102
RTVSPost2010PropOp41
 70
     1
102
RTVSPost2010Prop42
 90
       50
102
RTVSPost2010PropOp42
 70
     1
102
RTVSPost2010Prop43
 90
        3
102
RTVSPost2010PropOp43
 70
     1
102
RTVSPost2010Prop44ColorIndex
 90
        5
102
RTVSPost2010Prop44ColorRGB
 90
      255
102
RTVSPost2010PropOp44
 70
     1
102
RTVSPost2010Prop45
280
     0
102
RTVSPost2010PropOp45
 70
     1
102
RTVSPost2010Prop46
 90
       50
102
RTVSPost2010PropOp46
 70
     1
102
RTVSPost2010Prop47
 90
       50
102
RTVSPost2010PropOp47
 70
     1
102
RTVSPost2010Prop48
 90
       50
102
RTVSPost2010PropOp48
 70
     1
102
RTVSPost2010Prop49
280
     0
102
RTVSPost2010PropOp49
 70
     1
102
RTVSPost2010Prop50
 90
       50
102
RTVSPost2010PropOp50
 70
     1
102
RTVSPost2010Prop51ColorIndex
 90
      256
102
RTVSPost2010Prop51ColorRGB
 90
-16777216
102
RTVSPost2010PropOp51
 70
     0
102
RTVSPost2010Prop52
140
1.0
102
RTVSPost2010PropOp52
 70
     0
102
RTVSPost2010Prop53
 90
        2
102
RTVSPost2010PropOp53
 70
     1
102
RTVSPost2010Prop54
  1
strokes_ogs.tif
102
RTVSPost2010PropOp54
 70
     1
102
RTVSPost2010Prop55
280
     0
102
RTVSPost2010PropOp55
 70
     1
102
RTVSPost2010Prop56
140
1.0
102
RTVSPost2010PropOp56
 70
     1
102
RTVSPost2010Prop57
140
1.0
102
RTVSPost2010PropOp57
 70
     1
  0
XRECORD
  5
28D
102
{ACAD_REACTORS
330
28C
102
}
330
28C
100
AcDbXrecord
280
     1
102
RTVSPost2010Prop28
280
     0
102
RTVSPost2010PropOp28
 70
     1
102
RTVSPost2010Prop29
280
     1
102
RTVSPost2010PropOp29
 70
     1
102
RTVSPost2010Prop30
280
     1
102
RTVSPost2010PropOp30
 70
     1
102
RTVSPost2010Prop31
280
     0
102
RTVSPost2010PropOp31
 70
     1
102
RTVSPost2010Prop32
280
     0
102
RTVSPost2010PropOp32
 70
     1
102
RTVSPost2010Prop33
280
     0
102
RTVSPost2010PropOp33
 70
     1
102
RTVSPost2010Prop34
280
     0
102
RTVSPost2010PropOp34
 70
     1
102
RTVSPost2010Prop35
280
     0
102
RTVSPost2010PropOp35
 70
     1
102
RTVSPost2010Prop36
280
     0
102
RTVSPost2010PropOp36
 70
     1
102
RTVSPost2010Prop37
 90
       50
102
RTVSPost2010PropOp37
 70
     1
102
RTVSPost2010Prop38
140
0.0
102
RTVSPost2010PropOp38
 70
     1
102
RTVSPost2010Prop39
140
1.0
102
RTVSPost2010PropOp39
 70
     1
102
RTVSPost2010Prop40
 90
        0
102
RTVSPost2010PropOp40
 70
     1
102
RTVSPost2010Prop41ColorIndex
 90
       18
102
RTVSPost2010Prop41ColorRGB
 90
        0
102
RTVSPost2010PropOp41
 70
     1
102
RTVSPost2010Prop42
 90
       50
102
RTVSPost2010PropOp42
 70
     1
102
RTVSPost2010Prop43
 90
        3
102
RTVSPost2010PropOp43
 70
     1
102
RTVSPost2010Prop44ColorIndex
 90
        5
102
RTVSPost2010Prop44ColorRGB
 90
      255
102
RTVSPost2010PropOp44
 70
     1
102
RTVSPost2010Prop45
280
     0
102
RTVSPost2010PropOp45
 70
     1
102
RTVSPost2010Prop46
 90
       50
102
RTVSPost2010PropOp46
 70
     1
102
RTVSPost2010Prop47
 90
       50
102
RTVSPost2010PropOp47
 70
     1
102
RTVSPost2010Prop48
 90
       50
102
RTVSPost2010PropOp48
 70
     1
102
RTVSPost2010Prop49
280
     0
102
RTVSPost2010PropOp49
 70
     1
102
RTVSPost2010Prop50
 90
       50
102
RTVSPost2010PropOp50
 70
     1
102
RTVSPost2010Prop51ColorIndex
 90
      256
102
RTVSPost2010Prop51ColorRGB
 90
-16777216
102
RTVSPost2010PropOp51
 70
     0
102
RTVSPost2010Prop52
140
1.0
102
RTVSPost2010PropOp52
 70
     0
102
RTVSPost2010Prop53
 90
        2
102
RTVSPost2010PropOp53
 70
     1
102
RTVSPost2010Prop54
  1
strokes_ogs.tif
102
RTVSPost2010PropOp54
 70
     1
102
RTVSPost2010Prop55
280
     0
102
RTVSPost2010PropOp55
 70
     1
102
RTVSPost2010Prop56
140
1.0
102
RTVSPost2010PropOp56
 70
     1
102
RTVSPost2010Prop57
140
1.0
102
RTVSPost2010PropOp57
 70
     1
  0
XRECORD
  5
28F
102
{ACAD_REACTORS
330
28E
102
}
330
28E
100
AcDbXrecord
280
     1
102
RTVSPost2010Prop28
280
     0
102
RTVSPost2010PropOp28
 70
     1
102
RTVSPost2010Prop29
280
     1
102
RTVSPost2010PropOp29
 70
     1
102
RTVSPost2010Prop30
280
     1
102
RTVSPost2010PropOp30
 70
     1
102
RTVSPost2010Prop31
280
     0
102
RTVSPost2010PropOp31
 70
     1
102
RTVSPost2010Prop32
280
     0
102
RTVSPost2010PropOp32
 70
     1
102
RTVSPost2010Prop33
280
     0
102
RTVSPost2010PropOp33
 70
     1
102
RTVSPost2010Prop34
280
     0
102
RTVSPost2010PropOp34
 70
     1
102
RTVSPost2010Prop35
280
     0
102
RTVSPost2010PropOp35
 70
     1
102
RTVSPost2010Prop36
280
     0
102
RTVSPost2010PropOp36
 70
     1
102
RTVSPost2010Prop37
 90
       50
102
RTVSPost2010PropOp37
 70
     1
102
RTVSPost2010Prop38
140
0.0
102
RTVSPost2010PropOp38
 70
     1
102
RTVSPost2010Prop39
140
1.0
102
RTVSPost2010PropOp39
 70
     1
102
RTVSPost2010Prop40
 90
        0
102
RTVSPost2010PropOp40
 70
     1
102
RTVSPost2010Prop41ColorIndex
 90
       18
102
RTVSPost2010Prop41ColorRGB
 90
        0
102
RTVSPost2010PropOp41
 70
     1
102
RTVSPost2010Prop42
 90
       50
102
RTVSPost2010PropOp42
 70
     1
102
RTVSPost2010Prop43
 90
        3
102
RTVSPost2010PropOp43
 70
     1
102
RTVSPost2010Prop44ColorIndex
 90
        5
102
RTVSPost2010Prop44ColorRGB
 90
      255
102
RTVSPost2010PropOp44
 70
     1
102
RTVSPost2010Prop45
280
     0
102
RTVSPost2010PropOp45
 70
     1
102
RTVSPost2010Prop46
 90
       50
102
RTVSPost2010PropOp46
 70
     1
102
RTVSPost2010Prop47
 90
       50
102
RTVSPost2010PropOp47
 70
     1
102
RTVSPost2010Prop48
 90
       50
102
RTVSPost2010PropOp48
 70
     1
102
RTVSPost2010Prop49
280
     0
102
RTVSPost2010PropOp49
 70
     1
102
RTVSPost2010Prop50
 90
       50
102
RTVSPost2010PropOp50
 70
     1
102
RTVSPost2010Prop51ColorIndex
 90
      256
102
RTVSPost2010Prop51ColorRGB
 90
-16777216
102
RTVSPost2010PropOp51
 70
     0
102
RTVSPost2010Prop52
140
1.0
102
RTVSPost2010PropOp52
 70
     0
102
RTVSPost2010Prop53
 90
        2
102
RTVSPost2010PropOp53
 70
     1
102
RTVSPost2010Prop54
  1
strokes_ogs.tif
102
RTVSPost2010PropOp54
 70
     1
102
RTVSPost2010Prop55
280
     0
102
RTVSPost2010PropOp55
 70
     1
102
RTVSPost2010Prop56
140
1.0
102
RTVSPost2010PropOp56
 70
     1
102
RTVSPost2010Prop57
140
1.0
102
RTVSPost2010PropOp57
 70
     1
  0
XRECORD
  5
285
102
{ACAD_REACTORS
330
284
102
}
330
284
100
AcDbXrecord
280
     1
102
RTVSPost2010Prop28
280
     0
102
RTVSPost2010PropOp28
 70
     1
102
RTVSPost2010Prop29
280
     1
102
RTVSPost2010PropOp29
 70
     1
102
RTVSPost2010Prop30
280
     1
102
RTVSPost2010PropOp30
 70
     1
102
RTVSPost2010Prop31
280
     0
102
RTVSPost2010PropOp31
 70
     1
102
RTVSPost2010Prop32
280
     0
102
RTVSPost2010PropOp32
 70
     1
102
RTVSPost2010Prop33
280
     0
102
RTVSPost2010PropOp33
 70
     1
102
RTVSPost2010Prop34
280
     0
102
RTVSPost2010PropOp34
 70
     1
102
RTVSPost2010Prop35
280
     0
102
RTVSPost2010PropOp35
 70
     1
102
RTVSPost2010Prop36
280
     0
102
RTVSPost2010PropOp36
 70
     1
102
RTVSPost2010Prop37
 90
       50
102
RTVSPost2010PropOp37
 70
     1
102
RTVSPost2010Prop38
140
0.0
102
RTVSPost2010PropOp38
 70
     1
102
RTVSPost2010Prop39
140
1.0
102
RTVSPost2010PropOp39
 70
     1
102
RTVSPost2010Prop40
 90
        0
102
RTVSPost2010PropOp40
 70
     1
102
RTVSPost2010Prop41ColorIndex
 90
       18
102
RTVSPost2010Prop41ColorRGB
 90
        0
102
RTVSPost2010PropOp41
 70
     1
102
RTVSPost2010Prop42
 90
       50
102
RTVSPost2010PropOp42
 70
     1
102
RTVSPost2010Prop43
 90
        3
102
RTVSPost2010PropOp43
 70
     1
102
RTVSPost2010Prop44ColorIndex
 90
        5
102
RTVSPost2010Prop44ColorRGB
 90
      255
102
RTVSPost2010PropOp44
 70
     1
102
RTVSPost2010Prop45
280
     0
102
RTVSPost2010PropOp45
 70
     1
102
RTVSPost2010Prop46
 90
       50
102
RTVSPost2010PropOp46
 70
     1
102
RTVSPost2010Prop47
 90
       50
102
RTVSPost2010PropOp47
 70
     1
102
RTVSPost2010Prop48
 90
       50
102
RTVSPost2010PropOp48
 70
     1
102
RTVSPost2010Prop49
280
     0
102
RTVSPost2010PropOp49
 70
     1
102
RTVSPost2010Prop50
 90
       50
102
RTVSPost2010PropOp50
 70
     1
102
RTVSPost2010Prop51ColorIndex
 90
      256
102
RTVSPost2010Prop51ColorRGB
 90
-16777216
102
RTVSPost2010PropOp51
 70
     0
102
RTVSPost2010Prop52
140
1.0
102
RTVSPost2010PropOp52
 70
     0
102
RTVSPost2010Prop53
 90
        2
102
RTVSPost2010PropOp53
 70
     1
102
RTVSPost2010Prop54
  1
strokes_ogs.tif
102
RTVSPost2010PropOp54
 70
     1
102
RTVSPost2010Prop55
280
     0
102
RTVSPost2010PropOp55
 70
     1
102
RTVSPost2010Prop56
140
1.0
102
RTVSPost2010PropOp56
 70
     1
102
RTVSPost2010Prop57
140
1.0
102
RTVSPost2010PropOp57
 70
     1
  0
XRECORD
  5
279
102
{ACAD_REACTORS
330
278
102
}
330
278
100
AcDbXrecord
280
     1
102
RTVSPost2010Prop28
280
     0
102
RTVSPost2010PropOp28
 70
     1
102
RTVSPost2010Prop29
280
     1
102
RTVSPost2010PropOp29
 70
     1
102
RTVSPost2010Prop30
280
     1
102
RTVSPost2010PropOp30
 70
     1
102
RTVSPost2010Prop31
280
     0
102
RTVSPost2010PropOp31
 70
     1
102
RTVSPost2010Prop32
280
     0
102
RTVSPost2010PropOp32
 70
     1
102
RTVSPost2010Prop33
280
     0
102
RTVSPost2010PropOp33
 70
     1
102
RTVSPost2010Prop34
280
     0
102
RTVSPost2010PropOp34
 70
     1
102
RTVSPost2010Prop35
280
     0
102
RTVSPost2010PropOp35
 70
     1
102
RTVSPost2010Prop36
280
     0
102
RTVSPost2010PropOp36
 70
     1
102
RTVSPost2010Prop37
 90
       50
102
RTVSPost2010PropOp37
 70
     1
102
RTVSPost2010Prop38
140
0.0
102
RTVSPost2010PropOp38
 70
     1
102
RTVSPost2010Prop39
140
1.0
102
RTVSPost2010PropOp39
 70
     1
102
RTVSPost2010Prop40
 90
        0
102
RTVSPost2010PropOp40
 70
     1
102
RTVSPost2010Prop41ColorIndex
 90
       18
102
RTVSPost2010Prop41ColorRGB
 90
        0
102
RTVSPost2010PropOp41
 70
     1
102
RTVSPost2010Prop42
 90
       50
102
RTVSPost2010PropOp42
 70
     1
102
RTVSPost2010Prop43
 90
        3
102
RTVSPost2010PropOp43
 70
     1
102
RTVSPost2010Prop44ColorIndex
 90
        5
102
RTVSPost2010Prop44ColorRGB
 90
      255
102
RTVSPost2010PropOp44
 70
     1
102
RTVSPost2010Prop45
280
     0
102
RTVSPost2010PropOp45
 70
     1
102
RTVSPost2010Prop46
 90
       50
102
RTVSPost2010PropOp46
 70
     1
102
RTVSPost2010Prop47
 90
       50
102
RTVSPost2010PropOp47
 70
     1
102
RTVSPost2010Prop48
 90
       50
102
RTVSPost2010PropOp48
 70
     1
102
RTVSPost2010Prop49
280
     0
102
RTVSPost2010PropOp49
 70
     1
102
RTVSPost2010Prop50
 90
       50
102
RTVSPost2010PropOp50
 70
     1
102
RTVSPost2010Prop51ColorIndex
 90
      256
102
RTVSPost2010Prop51ColorRGB
 90
-16777216
102
RTVSPost2010PropOp51
 70
     0
102
RTVSPost2010Prop52
140
1.0
102
RTVSPost2010PropOp52
 70
     0
102
RTVSPost2010Prop53
 90
        2
102
RTVSPost2010PropOp53
 70
     1
102
RTVSPost2010Prop54
  1
strokes_ogs.tif
102
RTVSPost2010PropOp54
 70
     1
102
RTVSPost2010Prop55
280
     0
102
RTVSPost2010PropOp55
 70
     1
102
RTVSPost2010Prop56
140
1.0
102
RTVSPost2010PropOp56
 70
     1
102
RTVSPost2010Prop57
140
1.0
102
RTVSPost2010PropOp57
 70
     1
  0
XRECORD
  5
291
102
{ACAD_REACTORS
330
290
102
}
330
290
100
AcDbXrecord
280
     1
102
RTVSPost2010Prop28
280
     0
102
RTVSPost2010PropOp28
 70
     1
102
RTVSPost2010Prop29
280
     1
102
RTVSPost2010PropOp29
 70
     1
102
RTVSPost2010Prop30
280
     1
102
RTVSPost2010PropOp30
 70
     1
102
RTVSPost2010Prop31
280
     0
102
RTVSPost2010PropOp31
 70
     1
102
RTVSPost2010Prop32
280
     0
102
RTVSPost2010PropOp32
 70
     1
102
RTVSPost2010Prop33
280
     0
102
RTVSPost2010PropOp33
 70
     1
102
RTVSPost2010Prop34
280
     0
102
RTVSPost2010PropOp34
 70
     1
102
RTVSPost2010Prop35
280
     0
102
RTVSPost2010PropOp35
 70
     1
102
RTVSPost2010Prop36
280
     0
102
RTVSPost2010PropOp36
 70
     1
102
RTVSPost2010Prop37
 90
       50
102
RTVSPost2010PropOp37
 70
     1
102
RTVSPost2010Prop38
140
0.0
102
RTVSPost2010PropOp38
 70
     1
102
RTVSPost2010Prop39
140
1.0
102
RTVSPost2010PropOp39
 70
     1
102
RTVSPost2010Prop40
 90
        0
102
RTVSPost2010PropOp40
 70
     1
102
RTVSPost2010Prop41ColorIndex
 90
       18
102
RTVSPost2010Prop41ColorRGB
 90
        0
102
RTVSPost2010PropOp41
 70
     1
102
RTVSPost2010Prop42
 90
       50
102
RTVSPost2010PropOp42
 70
     1
102
RTVSPost2010Prop43
 90
        3
102
RTVSPost2010PropOp43
 70
     1
102
RTVSPost2010Prop44ColorIndex
 90
        5
102
RTVSPost2010Prop44ColorRGB
 90
      255
102
RTVSPost2010PropOp44
 70
     1
102
RTVSPost2010Prop45
280
     0
102
RTVSPost2010PropOp45
 70
     1
102
RTVSPost2010Prop46
 90
       50
102
RTVSPost2010PropOp46
 70
     1
102
RTVSPost2010Prop47
 90
       50
102
RTVSPost2010PropOp47
 70
     1
102
RTVSPost2010Prop48
 90
       50
102
RTVSPost2010PropOp48
 70
     1
102
RTVSPost2010Prop49
280
     0
102
RTVSPost2010PropOp49
 70
     1
102
RTVSPost2010Prop50
 90
       50
102
RTVSPost2010PropOp50
 70
     1
102
RTVSPost2010Prop51ColorIndex
 90
      256
102
RTVSPost2010Prop51ColorRGB
 90
-16777216
102
RTVSPost2010PropOp51
 70
     0
102
RTVSPost2010Prop52
140
1.0
102
RTVSPost2010PropOp52
 70
     0
102
RTVSPost2010Prop53
 90
        2
102
RTVSPost2010PropOp53
 70
     1
102
RTVSPost2010Prop54
  1
strokes_ogs.tif
102
RTVSPost2010PropOp54
 70
     1
102
RTVSPost2010Prop55
280
     0
102
RTVSPost2010PropOp55
 70
     1
102
RTVSPost2010Prop56
140
1.0
102
RTVSPost2010PropOp56
 70
     1
102
RTVSPost2010Prop57
140
1.0
102
RTVSPost2010PropOp57
 70
     1
  0
ENDSEC
  0
EOF
