  0
SECTION
  2
HEADER
  9
$ACADVER
  1
AC1024
  9
$ACADMAINTVER
 70
   226
  9
$DWGCODEPAGE
  3
ANSI_1252
  9
$INSBASE
 10
0.0
 20
0.0
 30
0.0
  9
$EXTMIN
 10
6983.882697843897
 20
3629.346744110427
 30
0.0
  9
$EXTMAX
 10
8232.386535347293
 20
4359.661262851283
 30
0.0
  9
$LIMMIN
 10
0.0
 20
0.0
  9
$LIMMAX
 10
12.0
 20
9.0
  9
$ORTHOMODE
 70
     0
  9
$REGENMODE
 70
     1
  9
$FILLMODE
 70
     1
  9
$QTEXTMODE
 70
     0
  9
$MIRRTEXT
 70
     0
  9
$LTSCALE
 40
1.0
  9
$ATTMODE
 70
     1
  9
$TEXTSIZE
 40
0.2
  9
$TRACEWID
 40
0.05
  9
$TEXTSTYLE
  7
Standard
  9
$CLAYER
  8
0
  9
$CELTYPE
  6
ByLayer
  9
$CECOLOR
 62
   256
  9
$CELTSCALE
 40
1.0
  9
$DISPSILH
 70
     0
  9
$DIMSCALE
 40
1.0
  9
$DIMASZ
 40
0.18
  9
$DIMEXO
 40
0.0625
  9
$DIMDLI
 40
0.38
  9
$DIMRND
 40
0.0
  9
$DIMDLE
 40
0.0
  9
$DIMEXE
 40
0.18
  9
$DIMTP
 40
0.0
  9
$DIMTM
 40
0.0
  9
$DIMTXT
 40
0.18
  9
$DIMCEN
 40
0.09
  9
$DIMTSZ
 40
0.0
  9
$DIMTOL
 70
     0
  9
$DIMLIM
 70
     0
  9
$DIMTIH
 70
     1
  9
$DIMTOH
 70
     1
  9
$DIMSE1
 70
     0
  9
$DIMSE2
 70
     0
  9
$DIMTAD
 70
     0
  9
$DIMZIN
 70
     0
  9
$DIMBLK
  1

  9
$DIMASO
 70
     1
  9
$DIMSHO
 70
     1
  9
$DIMPOST
  1

  9
$DIMAPOST
  1

  9
$DIMALT
 70
     0
  9
$DIMALTD
 70
     2
  9
$DIMALTF
 40
25.4
  9
$DIMLFAC
 40
1.0
  9
$DIMTOFL
 70
     0
  9
$DIMTVP
 40
0.0
  9
$DIMTIX
 70
     0
  9
$DIMSOXD
 70
     0
  9
$DIMSAH
 70
     0
  9
$DIMBLK1
  1

  9
$DIMBLK2
  1

  9
$DIMSTYLE
  2
Standard
  9
$DIMCLRD
 70
     0
  9
$DIMCLRE
 70
     0
  9
$DIMCLRT
 70
     0
  9
$DIMTFAC
 40
1.0
  9
$DIMGAP
 40
0.09
  9
$DIMJUST
 70
     0
  9
$DIMSD1
 70
     0
  9
$DIMSD2
 70
     0
  9
$DIMTOLJ
 70
     1
  9
$DIMTZIN
 70
     0
  9
$DIMALTZ
 70
     0
  9
$DIMALTTZ
 70
     0
  9
$DIMUPT
 70
     0
  9
$DIMDEC
 70
     4
  9
$DIMTDEC
 70
     4
  9
$DIMALTU
 70
     2
  9
$DIMALTTD
 70
     2
  9
$DIMTXSTY
  7
Standard
  9
$DIMAUNIT
 70
     0
  9
$DIMADEC
 70
     0
  9
$DIMALTRND
 40
0.0
  9
$DIMAZIN
 70
     0
  9
$DIMDSEP
 70
    46
  9
$DIMATFIT
 70
     3
  9
$DIMFRAC
 70
     0
  9
$DIMLDRBLK
  1

  9
$DIMLUNIT
 70
     2
  9
$DIMLWD
 70
    -2
  9
$DIMLWE
 70
    -2
  9
$DIMTMOVE
 70
     0
  9
$DIMFXL
 40
1.0
  9
$DIMFXLON
 70
     0
  9
$DIMJOGANG
 40
0.7853981633974483
  9
$DIMTFILL
 70
     0
  9
$DIMTFILLCLR
 70
     0
  9
$DIMARCSYM
 70
     0
  9
$DIMLTYPE
  6

  9
$DIMLTEX1
  6

  9
$DIMLTEX2
  6

  9
$DIMTXTDIRECTION
 70
     0
  9
$LUNITS
 70
     2
  9
$LUPREC
 70
     4
  9
$SKETCHINC
 40
0.1
  9
$FILLETRAD
 40
0.0
  9
$AUNITS
 70
     0
  9
$AUPREC
 70
     0
  9
$MENU
  1
.
  9
$ELEVATION
 40
0.0
  9
$PELEVATION
 40
0.0
  9
$THICKNESS
 40
0.0
  9
$LIMCHECK
 70
     0
  9
$CHAMFERA
 40
0.0
  9
$CHAMFERB
 40
0.0
  9
$CHAMFERC
 40
0.0
  9
$CHAMFERD
 40
0.0
  9
$SKPOLY
 70
     0
  9
$TDCREATE
 40
2459165.012222222
  9
$TDUCREATE
 40
2459164.470555556
  9
$TDUPDATE
 40
2459165.012222222
  9
$TDUUPDATE
 40
2459164.470555556
  9
$TDINDWG
 40
0.0000000000
  9
$TDUSRTIMER
 40
0.0000000000
  9
$USRTIMER
 70
     1
  9
$ANGBASE
 50
0.0
  9
$ANGDIR
 70
     0
  9
$PDMODE
 70
     0
  9
$PDSIZE
 40
0.0
  9
$PLINEWID
 40
0.0
  9
$SPLFRAME
 70
     0
  9
$SPLINETYPE
 70
     6
  9
$SPLINESEGS
 70
     8
  9
$HANDSEED
  5
2FC
  9
$SURFTAB1
 70
     6
  9
$SURFTAB2
 70
     6
  9
$SURFTYPE
 70
     6
  9
$SURFU
 70
     6
  9
$SURFV
 70
     6
  9
$UCSBASE
  2

  9
$UCSNAME
  2

  9
$UCSORG
 10
0.0
 20
0.0
 30
0.0
  9
$UCSXDIR
 10
1.0
 20
0.0
 30
0.0
  9
$UCSYDIR
 10
0.0
 20
1.0
 30
0.0
  9
$UCSORTHOREF
  2

  9
$UCSORTHOVIEW
 70
     0
  9
$UCSORGTOP
 10
0.0
 20
0.0
 30
0.0
  9
$UCSORGBOTTOM
 10
0.0
 20
0.0
 30
0.0
  9
$UCSORGLEFT
 10
0.0
 20
0.0
 30
0.0
  9
$UCSORGRIGHT
 10
0.0
 20
0.0
 30
0.0
  9
$UCSORGFRONT
 10
0.0
 20
0.0
 30
0.0
  9
$UCSORGBACK
 10
0.0
 20
0.0
 30
0.0
  9
$PUCSBASE
  2

  9
$PUCSNAME
  2

  9
$PUCSORG
 10
0.0
 20
0.0
 30
0.0
  9
$PUCSXDIR
 10
1.0
 20
0.0
 30
0.0
  9
$PUCSYDIR
 10
0.0
 20
1.0
 30
0.0
  9
$PUCSORTHOREF
  2

  9
$PUCSORTHOVIEW
 70
     0
  9
$PUCSORGTOP
 10
0.0
 20
0.0
 30
0.0
  9
$PUCSORGBOTTOM
 10
0.0
 20
0.0
 30
0.0
  9
$PUCSORGLEFT
 10
0.0
 20
0.0
 30
0.0
  9
$PUCSORGRIGHT
 10
0.0
 20
0.0
 30
0.0
  9
$PUCSORGFRONT
 10
0.0
 20
0.0
 30
0.0
  9
$PUCSORGBACK
 10
0.0
 20
0.0
 30
0.0
  9
$USERI1
 70
     0
  9
$USERI2
 70
     0
  9
$USERI3
 70
     0
  9
$USERI4
 70
     0
  9
$USERI5
 70
     0
  9
$USERR1
 40
0.0
  9
$USERR2
 40
0.0
  9
$USERR3
 40
0.0
  9
$USERR4
 40
0.0
  9
$USERR5
 40
0.0
  9
$WORLDVIEW
 70
     1
  9
$SHADEDGE
 70
     3
  9
$SHADEDIF
 70
    70
  9
$TILEMODE
 70
     0
  9
$MAXACTVP
 70
    64
  9
$PINSBASE
 10
0.0
 20
0.0
 30
0.0
  9
$PLIMCHECK
 70
     0
  9
$PEXTMIN
 10
-0.0243254853795738
 20
0.0239675613783464
 30
0.0
  9
$PEXTMAX
 10
296.9756745145732
 20
210.0239675613797
 30
0.0
  9
$PLIMMIN
 10
0.0
 20
0.0
  9
$PLIMMAX
 10
12.0
 20
9.0
  9
$UNITMODE
 70
     0
  9
$VISRETAIN
 70
     1
  9
$PLINEGEN
 70
     0
  9
$PSLTSCALE
 70
     1
  9
$TREEDEPTH
 70
  3020
  9
$CMLSTYLE
  2
Standard
  9
$CMLJUST
 70
     0
  9
$CMLSCALE
 40
1.0
  9
$PROXYGRAPHICS
 70
     1
  9
$MEASUREMENT
 70
     1
  9
$CELWEIGHT
370
    -1
  9
$ENDCAPS
280
     0
  9
$JOINSTYLE
280
     0
  9
$LWDISPLAY
290
     0
  9
$INSUNITS
 70
     4
  9
$HYPERLINKBASE
  1

  9
$STYLESHEET
  1

  9
$XEDIT
290
     1
  9
$CEPSNTYPE
380
     0
  9
$PSTYLEMODE
290
     1
  9
$FINGERPRINTGUID
  2
{E62A5EC1-155F-C045-8FC8-CE527748398B}
  9
$VERSIONGUID
  2
{E62FB947-4C95-A049-A415-ADD284DD4B53}
  9
$EXTNAMES
290
     1
  9
$PSVPSCALE
 40
0.0
  9
$OLESTARTUP
290
     0
  9
$SORTENTS
280
   127
  9
$INDEXCTL
280
     0
  9
$HIDETEXT
280
     1
  9
$XCLIPFRAME
280
     2
  9
$HALOGAP
280
     0
  9
$OBSCOLOR
 70
   257
  9
$OBSLTYPE
280
     0
  9
$INTERSECTIONDISPLAY
280
     0
  9
$INTERSECTIONCOLOR
 70
   257
  9
$DIMASSOC
280
     2
  9
$PROJECTNAME
  1

  9
$CAMERADISPLAY
290
     0
  9
$LENSLENGTH
 40
50.0
  9
$CAMERAHEIGHT
 40
0.0
  9
$STEPSPERSEC
 40
2.0
  9
$STEPSIZE
 40
6.0
  9
$3DDWFPREC
 40
2.0
  9
$PSOLWIDTH
 40
0.25
  9
$PSOLHEIGHT
 40
4.0
  9
$LOFTANG1
 40
1.570796326794896
  9
$LOFTANG2
 40
1.570796326794896
  9
$LOFTMAG1
 40
0.0
  9
$LOFTMAG2
 40
0.0
  9
$LOFTPARAM
 70
     7
  9
$LOFTNORMALS
280
     1
  9
$LATITUDE
 40
0.0
  9
$LONGITUDE
 40
0.0
  9
$NORTHDIRECTION
 40
0.0
  9
$TIMEZONE
 70
     0
  9
$LIGHTGLYPHDISPLAY
280
     1
  9
$TILEMODELIGHTSYNCH
280
     1
  9
$CMATERIAL
347
11
  9
$SOLIDHIST
280
     0
  9
$SHOWHIST
280
     1
  9
$DWFFRAME
280
     2
  9
$DGNFRAME
280
     0
  9
$REALWORLDSCALE
290
     1
  9
$INTERFERECOLOR
 62
     1
  9
$INTERFEREOBJVS
345
33
  9
$INTERFEREVPVS
346
30
  9
$CSHADOW
280
     0
  9
$SHADOWPLANELOCATION
 40
0.0
  0
ENDSEC
  0
SECTION
  2
CLASSES
  0
CLASS
  1
ACDBDICTIONARYWDFLT
  2
AcDbDictionaryWithDefault
  3
ObjectDBX Classes
 90
        0
 91
        1
280
     0
281
     0
  0
CLASS
  1
MATERIAL
  2
AcDbMaterial
  3
ObjectDBX Classes
 90
     1153
 91
        3
280
     0
281
     0
  0
CLASS
  1
VISUALSTYLE
  2
AcDbVisualStyle
  3
ObjectDBX Classes
 90
     4095
 91
       24
280
     0
281
     0
  0
CLASS
  1
SCALE
  2
AcDbScale
  3
ObjectDBX Classes
 90
     1153
 91
       17
280
     0
281
     0
  0
CLASS
  1
TABLESTYLE
  2
AcDbTableStyle
  3
ObjectDBX Classes
 90
     4095
 91
        1
280
     0
281
     0
  0
CLASS
  1
MLEADERSTYLE
  2
AcDbMLeaderStyle
  3
ACDB_MLEADERSTYLE_CLASS
 90
     4095
 91
        1
280
     0
281
     0
  0
CLASS
  1
ACDBSECTIONVIEWSTYLE
  2
AcDbSectionViewStyle
  3
ObjectDBX Classes
 90
     1025
 91
        1
280
     0
281
     0
  0
CLASS
  1
ACDBDETAILVIEWSTYLE
  2
AcDbDetailViewStyle
  3
ObjectDBX Classes
 90
     1025
 91
        1
280
     0
281
     0
  0
CLASS
  1
RASTERVARIABLES
  2
AcDbRasterVariables
  3
ISM
 90
        0
 91
        1
280
     0
281
     0
  0
CLASS
  1
DICTIONARYVAR
  2
AcDbDictionaryVar
  3
ObjectDBX Classes
 90
        0
 91
        5
280
     0
281
     0
  0
CLASS
  1
CELLSTYLEMAP
  2
AcDbCellStyleMap
  3
ObjectDBX Classes
 90
     1152
 91
        2
280
     0
281
     0
  0
CLASS
  1
IMAGEDEF
  2
AcDbRasterImageDef
  3
ISM
 90
        0
 91
        1
280
     0
281
     0
  0
CLASS
  1
IMAGE
  2
AcDbRasterImage
  3
ISM
 90
     2175
 91
        1
280
     0
281
     1
  0
CLASS
  1
IMAGEDEF_REACTOR
  2
AcDbRasterImageDefReactor
  3
ISM
 90
        1
 91
        1
280
     0
281
     0
  0
CLASS
  1
SORTENTSTABLE
  2
AcDbSortentsTable
  3
ObjectDBX Classes
 90
        0
 91
        1
280
     0
281
     0
  0
ENDSEC
  0
SECTION
  2
TABLES
  0
TABLE
  2
VPORT
  5
8
330
0
100
AcDbSymbolTable
 70
     1
  0
VPORT
  5
57
330
8
100
AcDbSymbolTableRecord
100
AcDbViewportTableRecord
  2
*Active
 70
     0
 10
0.0
 20
0.0
 11
1.0
 21
1.0
 12
7608.134616595595
 22
3994.504003480856
 13
0.0
 23
0.0
 14
1.0
 24
1.0
 15
0.0
 25
0.0
 16
0.0
 26
0.0
 36
1.0
 17
0.0
 27
0.0
 37
0.0
 40
730.3145187408567
 41
1.709542677113902
 42
50.0
 43
0.0
 44
0.0
 50
0.0
 51
0.0
 71
     0
 72
  1000
 73
     1
 74
     0
 75
     1
 76
     0
 77
     0
 78
     0
281
     0
 65
     1
110
0.0
120
0.0
130
0.0
111
1.0
121
0.0
131
0.0
112
0.0
122
1.0
132
0.0
 79
     0
146
0.0
 60
     3
 61
     5
292
     1
282
     1
141
0.0
142
0.0
 63
   250
421
  3355443
  0
ENDTAB
  0
TABLE
  2
LTYPE
  5
5
330
0
100
AcDbSymbolTable
 70
     3
  0
LTYPE
  5
5B
330
5
100
AcDbSymbolTableRecord
100
AcDbLinetypeTableRecord
  2
ByBlock
 70
     0
  3

 72
    65
 73
     0
 40
0.0
  0
LTYPE
  5
5C
330
5
100
AcDbSymbolTableRecord
100
AcDbLinetypeTableRecord
  2
ByLayer
 70
     0
  3

 72
    65
 73
     0
 40
0.0
  0
LTYPE
  5
5D
330
5
100
AcDbSymbolTableRecord
100
AcDbLinetypeTableRecord
  2
Continuous
 70
     0
  3
Solid line
 72
    65
 73
     0
 40
0.0
  0
LTYPE
  5
BC
330
5
100
AcDbSymbolTableRecord
100
AcDbLinetypeTableRecord
  2
Dash Short
 70
     0
  3

 72
    65
 73
     2
 40
4.0
 49
2.0
 74
     0
 49
-2.0
 74
     0
  0
LTYPE
  5
11E
330
5
100
AcDbSymbolTableRecord
100
AcDbLinetypeTableRecord
  2
Dash
 70
     0
  3

 72
    65
 73
     2
 40
6.350000000000001
 49
3.175
 74
     0
 49
-3.175
 74
     0
  0
ENDTAB
  0
TABLE
  2
LAYER
  5
2
330
0
100
AcDbSymbolTable
 70
    10
  0
LAYER
  5
54
330
2
100
AcDbSymbolTableRecord
100
AcDbLayerTableRecord
  2
0
 70
     0
 62
     7
  6
Continuous
370
    -3
390
F
347
21
  0
LAYER
  5
BA
330
2
100
AcDbSymbolTableRecord
100
AcDbLayerTableRecord
  2
A-DETL-GENF
 70
     0
 62
    92
  6
Continuous
370
    30
390
F
347
21
  0
LAYER
  5
BB
330
2
100
AcDbSymbolTableRecord
100
AcDbLayerTableRecord
  2
A-DETL
 70
     0
 62
    90
  6
Continuous
370
     9
390
F
347
21
  0
LAYER
  5
C7
330
2
100
AcDbSymbolTableRecord
100
AcDbLayerTableRecord
  2
A-DETL-THIN
 70
     0
 62
   151
  6
Continuous
370
     9
390
F
347
21
  0
LAYER
  5
146
330
2
100
AcDbSymbolTableRecord
100
AcDbLayerTableRecord
  2
A-DETL-MEDM
 70
     0
 62
    33
  6
Continuous
370
    30
390
F
347
21
  0
LAYER
  5
219
330
2
100
AcDbSymbolTableRecord
100
AcDbLayerTableRecord
  2
G-ANNO-TEXT
 70
     0
 62
   231
  6
Continuous
370
     9
390
F
347
21
  0
LAYER
  5
27F
330
2
100
AcDbSymbolTableRecord
100
AcDbLayerTableRecord
  2
G-ANNO-NPLT
 70
     0
 62
   191
  6
Continuous
290
     0
370
    -3
390
F
347
21
  0
LAYER
  5
285
330
2
100
AcDbSymbolTableRecord
100
AcDbLayerTableRecord
  2
G-ANNO-TTLB
 70
     0
 62
     6
  6
Continuous
370
     9
390
F
347
21
  0
LAYER
  5
28B
330
2
100
AcDbSymbolTableRecord
100
AcDbLayerTableRecord
  2
G-ANNO-TTLB-THIN
 70
     0
 62
   151
  6
Continuous
370
    25
390
F
347
21
  0
LAYER
  5
28E
330
2
100
AcDbSymbolTableRecord
100
AcDbLayerTableRecord
  2
G-ANNO-TTLB-MEDM
 70
     0
 62
    33
  6
Continuous
370
    50
390
F
347
21
  0
ENDTAB
  0
TABLE
  2
STYLE
  5
3
330
0
100
AcDbSymbolTable
 70
     7
  0
STYLE
  5
55
330
3
100
AcDbSymbolTableRecord
100
AcDbTextStyleTableRecord
  2
Standard
 70
     0
 40
0.0
 41
1.0
 50
0.0
 71
     0
 42
0.2
  3
txt
  4

  0
STYLE
  5
5A
330
3
100
AcDbSymbolTableRecord
100
AcDbTextStyleTableRecord
  2
Annotative
 70
     0
 40
0.0
 41
1.0
 50
0.0
 71
     0
 42
0.2
  3
txt
  4

1001
AcadAnnotative
1000
AnnotativeData
1002
{
1070
     1
1070
     1
1002
}
  0
STYLE
  5
21F
330
3
100
AcDbSymbolTableRecord
100
AcDbTextStyleTableRecord
  2
Century Gothic
 70
     0
 40
12.5
 41
0.9
 50
0.0
 71
     0
 42
0.2
  3
GOTHIC.TTF
  4

1001
ACAD
1000
Century Gothic
1071
       34
  0
STYLE
  5
295
330
3
100
AcDbSymbolTableRecord
100
AcDbTextStyleTableRecord
  2
Century Gothic_1
 70
     0
 40
1.8
 41
0.9
 50
0.0
 71
     0
 42
0.2
  3
GOTHIC.TTF
  4

1001
ACAD
1000
Century Gothic
1071
       34
  0
STYLE
  5
2B4
330
3
100
AcDbSymbolTableRecord
100
AcDbTextStyleTableRecord
  2
Century Gothic_2
 70
     0
 40
4.0
 41
0.9
 50
0.0
 71
     0
 42
0.2
  3
GOTHIC.TTF
  4

1001
ACAD
1000
Century Gothic
1071
       34
  0
STYLE
  5
2B6
330
3
100
AcDbSymbolTableRecord
100
AcDbTextStyleTableRecord
  2
Century Gothic_3
 70
     0
 40
3.5
 41
0.9
 50
0.0
 71
     0
 42
0.2
  3
GOTHIC.TTF
  4

1001
ACAD
1000
Century Gothic
1071
       34
  0
STYLE
  5
2B9
330
3
100
AcDbSymbolTableRecord
100
AcDbTextStyleTableRecord
  2
Century Gothic_4
 70
     0
 40
4.999999999999999
 41
1.0
 50
0.0
 71
     0
 42
0.2
  3
GOTHIC.TTF
  4

1001
ACAD
1000
Century Gothic
1071
       34
  0
ENDTAB
  0
TABLE
  2
VIEW
  5
6
330
0
100
AcDbSymbolTable
 70
     0
  0
ENDTAB
  0
TABLE
  2
UCS
  5
7
330
0
100
AcDbSymbolTable
 70
     0
  0
ENDTAB
  0
TABLE
  2
APPID
  5
9
330
0
100
AcDbSymbolTable
 70
     3
  0
APPID
  5
56
330
9
100
AcDbSymbolTableRecord
100
AcDbRegAppTableRecord
  2
ACAD
 70
     0
  0
APPID
  5
5E
330
9
100
AcDbSymbolTableRecord
100
AcDbRegAppTableRecord
  2
AcadAnnotative
 70
     0
  0
APPID
  5
78
330
9
100
AcDbSymbolTableRecord
100
AcDbRegAppTableRecord
  2
REVIT
 70
     0
  0
ENDTAB
  0
TABLE
  2
DIMSTYLE
  5
A
330
0
100
AcDbSymbolTable
 70
     2
100
AcDbDimStyleTable
 71
     0
  0
DIMSTYLE
105
58
330
A
100
AcDbSymbolTableRecord
100
AcDbDimStyleTableRecord
  2
Standard
 70
     0
340
55
  0
DIMSTYLE
105
59
330
A
100
AcDbSymbolTableRecord
100
AcDbDimStyleTableRecord
  2
Annotative
 70
     0
340
55
1001
AcadAnnotative
1000
AnnotativeData
1002
{
1070
     1
1070
     1
1002
}
  0
ENDTAB
  0
TABLE
  2
BLOCK_RECORD
  5
1
330
0
100
AcDbSymbolTable
 70
    19
  0
BLOCK_RECORD
  5
70
102
{ACAD_XDICTIONARY
360
2C0
102
}
330
1
100
AcDbSymbolTableRecord
100
AcDbBlockTableRecord
  2
*Model_Space
340
73
 70
     0
280
     1
281
     0
  0
BLOCK_RECORD
  5
6C
330
1
100
AcDbSymbolTableRecord
100
AcDbBlockTableRecord
  2
*Paper_Space
340
6F
 70
     0
280
     1
281
     0
  0
BLOCK_RECORD
  5
74
330
1
100
AcDbSymbolTableRecord
100
AcDbBlockTableRecord
  2
*Paper_Space0
340
77
 70
     0
280
     1
281
     0
  0
BLOCK_RECORD
  5
103
330
1
100
AcDbSymbolTableRecord
100
AcDbBlockTableRecord
  2
FP Timber Nog Packer1 - Variable-101811-W-TRSIL-06A - Soffit Flashing Detail
340
0
102
{BLKREFS
331
10A
102
}
 70
     0
280
     1
281
     0
  0
BLOCK_RECORD
  5
10B
330
1
100
AcDbSymbolTableRecord
100
AcDbBlockTableRecord
  2
FP Timber Nog Packer1 - Variable-101812-W-TRSIL-06A - Soffit Flashing Detail
340
0
102
{BLKREFS
331
113
102
}
 70
     0
280
     1
281
     0
  0
BLOCK_RECORD
  5
114
330
1
100
AcDbSymbolTableRecord
100
AcDbBlockTableRecord
  2
FP Timber Nog Packer1 - Variable-46933-W-TRSIL-06A - Soffit Flashing Detail
340
0
102
{BLKREFS
331
11C
102
}
 70
     0
280
     1
281
     0
  0
BLOCK_RECORD
  5
11D
330
1
100
AcDbSymbolTableRecord
100
AcDbBlockTableRecord
  2
HP_WProof - Building Wrap - HP_WProof - Building Wrap-152135-W-TRSIL-06A - Soffit Flashing Detail
340
0
102
{BLKREFS
331
122
102
}
 70
     0
280
     1
281
     0
  0
BLOCK_RECORD
  5
12B
330
1
100
AcDbSymbolTableRecord
100
AcDbBlockTableRecord
  2
CAVIBAT Batten Profile - Non Cavibat-98797-W-TRSIL-06A - Soffit Flashing Detail
340
0
102
{BLKREFS
331
16C
331
172
331
133
102
}
 70
     0
280
     1
281
     0
  0
BLOCK_RECORD
  5
14D
330
1
100
AcDbSymbolTableRecord
100
AcDbBlockTableRecord
  2
TRS Interlocking profile - Interlocking 260-113920-W-TRSIL-06A - Soffit Flashing Detail
340
0
102
{BLKREFS
331
161
102
}
 70
     0
280
     1
281
     0
  0
BLOCK_RECORD
  5
16D
330
1
100
AcDbSymbolTableRecord
100
AcDbBlockTableRecord
  2
HP_WProof - Building Wrap - HP_WProof - Building Wrap-203651-W-TRSIL-06A - Soffit Flashing Detail
340
0
102
{BLKREFS
331
171
102
}
 70
     0
280
     1
281
     0
  0
BLOCK_RECORD
  5
173
330
1
100
AcDbSymbolTableRecord
100
AcDbBlockTableRecord
  2
TRS Interlocking profile soffit end flashing - Interlocking 260-204056-W-TRSIL-06A - Soffit Flashing Detail
340
0
102
{BLKREFS
331
181
102
}
 70
     0
280
     1
281
     0
  0
BLOCK_RECORD
  5
182
330
1
100
AcDbSymbolTableRecord
100
AcDbBlockTableRecord
  2
Hex head timberfix screw - Hex head timberfix screw-99997-W-TRSIL-06A - Soffit Flashing Detail
340
0
102
{BLKREFS
331
1B7
331
1B8
331
1DE
102
}
 70
     0
280
     1
281
     0
  0
BLOCK_RECORD
  5
1B9
330
1
100
AcDbSymbolTableRecord
100
AcDbBlockTableRecord
  2
HP_WProof - Building Wrap - HP_WProof - Building Wrap-152103-W-TRSIL-06A - Soffit Flashing Detail
340
0
102
{BLKREFS
331
1BD
102
}
 70
     0
280
     1
281
     0
  0
BLOCK_RECORD
  5
1BE
330
1
100
AcDbSymbolTableRecord
100
AcDbBlockTableRecord
  2
HP_WProof - Building Wrap - HP_WProof - Building Wrap-203624-W-TRSIL-06A - Soffit Flashing Detail
340
0
102
{BLKREFS
331
1C2
102
}
 70
     0
280
     1
281
     0
  0
BLOCK_RECORD
  5
1C6
330
1
100
AcDbSymbolTableRecord
100
AcDbBlockTableRecord
  2
Break Line1 - Break Line-201420-W-TRSIL-06A - Soffit Flashing Detail
340
0
102
{BLKREFS
331
1CE
102
}
 70
     0
280
     1
281
     0
  0
BLOCK_RECORD
  5
1CF
330
1
100
AcDbSymbolTableRecord
100
AcDbBlockTableRecord
  2
FP Timber Nog Packer1 - Variable-45636-W-TRSIL-06A - Soffit Flashing Detail
340
0
102
{BLKREFS
331
1D6
102
}
 70
     0
280
     1
281
     0
  0
BLOCK_RECORD
  5
1DF
330
1
100
AcDbSymbolTableRecord
100
AcDbBlockTableRecord
  2
TRS Corrugate profile - TRS Corrugate-204821-W-TRSIL-06A - Soffit Flashing Detail
340
0
102
{BLKREFS
331
1F0
102
}
 70
     0
280
     1
281
     0
  0
BLOCK_RECORD
  5
1F1
330
1
100
AcDbSymbolTableRecord
100
AcDbBlockTableRecord
  2
Fascia - Fascia 260 x 20-203401-W-TRSIL-06A - Soffit Flashing Detail
340
0
102
{BLKREFS
331
204
102
}
 70
     0
280
     1
281
     0
  0
BLOCK_RECORD
  5
205
330
1
100
AcDbSymbolTableRecord
100
AcDbBlockTableRecord
  2
TRS Corrugate profile - TRS Corrugate-V1-W-TRSIL-06A - Soffit Flashing Detail
340
0
102
{BLKREFS
331
20E
102
}
 70
     0
280
     1
281
     0
  0
BLOCK_RECORD
  5
210
330
1
100
AcDbSymbolTableRecord
100
AcDbBlockTableRecord
  2
Break Line1 - Break Line-205273-W-TRSIL-06A - Soffit Flashing Detail
340
0
102
{BLKREFS
331
218
102
}
 70
     0
280
     1
281
     0
  0
BLOCK_RECORD
  5
286
330
1
100
AcDbSymbolTableRecord
100
AcDbBlockTableRecord
  2
Titleblock A4 The roofing store - Titleblock A4 The roofing store-2694-Soffit Flashing Detail _Ver__
340
0
102
{BLKREFS
331
2B3
102
}
 70
     0
280
     1
281
     0
  0
ENDTAB
  0
ENDSEC
  0
SECTION
  2
BLOCKS
  0
BLOCK
  5
71
330
70
100
AcDbEntity
  8
0
100
AcDbBlockBegin
  2
*Model_Space
 70
     0
 10
0.0
 20
0.0
 30
0.0
  3
*Model_Space
  1

  0
ENDBLK
  5
72
330
70
100
AcDbEntity
  8
0
100
AcDbBlockEnd
  0
BLOCK
  5
6D
330
6C
100
AcDbEntity
 67
     1
  8
0
100
AcDbBlockBegin
  2
*Paper_Space
 70
     0
 10
0.0
 20
0.0
 30
0.0
  3
*Paper_Space
  1

  0
ENDBLK
  5
6E
330
6C
100
AcDbEntity
 67
     1
  8
0
100
AcDbBlockEnd
  0
BLOCK
  5
75
330
74
100
AcDbEntity
 67
     1
  8
0
100
AcDbBlockBegin
  2
*Paper_Space0
 70
     0
 10
0.0
 20
0.0
 30
0.0
  3
*Paper_Space0
  1

  0
ENDBLK
  5
76
330
74
100
AcDbEntity
 67
     1
  8
0
100
AcDbBlockEnd
  0
BLOCK
  5
108
330
103
100
AcDbEntity
  8
0
100
AcDbBlockBegin
  2
FP Timber Nog Packer1 - Variable-101811-W-TRSIL-06A - Soffit Flashing Detail
 70
     0
 10
0.0
 20
0.0
 30
0.0
  3
FP Timber Nog Packer1 - Variable-101811-W-TRSIL-06A - Soffit Flashing Detail
  1

  0
LINE
  5
104
330
103
100
AcDbEntity
  8
A-DETL-GENF
100
AcDbLine
 10
140.0000000000004
 20
-19.99999999999973
 30
0.0
 11
140.0000000000004
 21
24.99999999999865
 31
0.0
1001
REVIT
1002
{
1070
     3
1000
16257
1002
}
  0
LINE
  5
105
330
103
100
AcDbEntity
  8
A-DETL-GENF
100
AcDbLine
 10
0.0
 20
-19.99999999999973
 30
0.0
 11
140.0000000000004
 21
-19.99999999999973
 31
0.0
1001
REVIT
1002
{
1070
     3
1000
16257
1002
}
  0
LINE
  5
106
330
103
100
AcDbEntity
  8
A-DETL-GENF
100
AcDbLine
 10
0.0
 20
24.99999999999866
 30
0.0
 11
140.0
 21
-19.9999999999984
 31
0.0
1001
REVIT
1002
{
1070
     3
1000
16362
1002
}
  0
LINE
  5
107
330
103
100
AcDbEntity
  8
A-DETL-GENF
100
AcDbLine
 10
-0.0000000000001438
 20
-19.9999999999984
 30
0.0
 11
140.0
 21
24.99999999999895
 31
0.0
1001
REVIT
1002
{
1070
     3
1000
16362
1002
}
  0
ENDBLK
  5
109
330
103
100
AcDbEntity
  8
0
100
AcDbBlockEnd
  0
BLOCK
  5
111
330
10B
100
AcDbEntity
  8
0
100
AcDbBlockBegin
  2
FP Timber Nog Packer1 - Variable-101812-W-TRSIL-06A - Soffit Flashing Detail
 70
     0
 10
0.0
 20
0.0
 30
0.0
  3
FP Timber Nog Packer1 - Variable-101812-W-TRSIL-06A - Soffit Flashing Detail
  1

  0
LINE
  5
10C
330
10B
100
AcDbEntity
  8
A-DETL-GENF
100
AcDbLine
 10
120.0000000000004
 20
-9.999999999999742
 30
0.0
 11
120.0000000000004
 21
24.99999999999866
 31
0.0
1001
REVIT
1002
{
1070
     3
1000
16257
1002
}
  0
LINE
  5
10D
330
10B
100
AcDbEntity
  8
A-DETL-GENF
100
AcDbLine
 10
120.0000000000004
 20
24.99999999999866
 30
0.0
 11
0.0
 21
24.99999999999866
 31
0.0
1001
REVIT
1002
{
1070
     3
1000
16257
1002
}
  0
LINE
  5
10E
330
10B
100
AcDbEntity
  8
A-DETL-GENF
100
AcDbLine
 10
0.0
 20
24.99999999999866
 30
0.0
 11
0.0
 21
-9.999999999999744
 31
0.0
1001
REVIT
1002
{
1070
     3
1000
16257
1002
}
  0
LINE
  5
10F
330
10B
100
AcDbEntity
  8
A-DETL-GENF
100
AcDbLine
 10
0.0
 20
24.99999999999866
 30
0.0
 11
120.0
 21
-9.99999999999842
 31
0.0
1001
REVIT
1002
{
1070
     3
1000
16362
1002
}
  0
LINE
  5
110
330
10B
100
AcDbEntity
  8
A-DETL-GENF
100
AcDbLine
 10
-0.0000000000001438
 20
-9.999999999998419
 30
0.0
 11
120.0
 21
24.99999999999895
 31
0.0
1001
REVIT
1002
{
1070
     3
1000
16362
1002
}
  0
ENDBLK
  5
112
330
10B
100
AcDbEntity
  8
0
100
AcDbBlockEnd
  0
BLOCK
  5
11A
330
114
100
AcDbEntity
  8
0
100
AcDbBlockBegin
  2
FP Timber Nog Packer1 - Variable-46933-W-TRSIL-06A - Soffit Flashing Detail
 70
     0
 10
0.0
 20
0.0
 30
0.0
  3
FP Timber Nog Packer1 - Variable-46933-W-TRSIL-06A - Soffit Flashing Detail
  1

  0
LINE
  5
115
330
114
100
AcDbEntity
  8
A-DETL-GENF
100
AcDbLine
 10
90.00000000000047
 20
-19.99999999999973
 30
0.0
 11
90.00000000000047
 21
24.99999999999865
 31
0.0
1001
REVIT
1002
{
1070
     3
1000
16257
1002
}
  0
LINE
  5
116
330
114
100
AcDbEntity
  8
A-DETL-GENF
100
AcDbLine
 10
90.00000000000047
 20
24.99999999999865
 30
0.0
 11
0.0
 21
24.99999999999865
 31
0.0
1001
REVIT
1002
{
1070
     3
1000
16257
1002
}
  0
LINE
  5
117
330
114
100
AcDbEntity
  8
A-DETL-GENF
100
AcDbLine
 10
0.0
 20
-19.99999999999973
 30
0.0
 11
90.00000000000047
 21
-19.99999999999973
 31
0.0
1001
REVIT
1002
{
1070
     3
1000
16257
1002
}
  0
LINE
  5
118
330
114
100
AcDbEntity
  8
A-DETL-GENF
100
AcDbLine
 10
-0.0000000000000008
 20
24.99999999999865
 30
0.0
 11
90.00000000000047
 21
-19.99999999999973
 31
0.0
1001
REVIT
1002
{
1070
     3
1000
16362
1002
}
  0
LINE
  5
119
330
114
100
AcDbEntity
  8
A-DETL-GENF
100
AcDbLine
 10
0.0000000000001442
 20
-20.00000000000001
 30
0.0
 11
90.00000000000033
 21
24.99999999999895
 31
0.0
1001
REVIT
1002
{
1070
     3
1000
16362
1002
}
  0
ENDBLK
  5
11B
330
114
100
AcDbEntity
  8
0
100
AcDbBlockEnd
  0
BLOCK
  5
120
330
11D
100
AcDbEntity
  8
0
100
AcDbBlockBegin
  2
HP_WProof - Building Wrap - HP_WProof - Building Wrap-152135-W-TRSIL-06A - Soffit Flashing Detail
 70
     0
 10
0.0
 20
0.0
 30
0.0
  3
HP_WProof - Building Wrap - HP_WProof - Building Wrap-152135-W-TRSIL-06A - Soffit Flashing Detail
  1

  0
LINE
  5
11F
330
11D
100
AcDbEntity
  8
A-DETL-GENF
100
AcDbLine
 10
0.0
 20
-448.1461708102239
 30
0.0
 11
0.0
 21
-38.89677099883602
 31
0.0
1001
REVIT
1002
{
1070
     3
1000
16110
1002
}
  0
ENDBLK
  5
121
330
11D
100
AcDbEntity
  8
0
100
AcDbBlockEnd
  0
BLOCK
  5
131
330
12B
100
AcDbEntity
  8
0
100
AcDbBlockBegin
  2
CAVIBAT Batten Profile - Non Cavibat-98797-W-TRSIL-06A - Soffit Flashing Detail
 70
     0
 10
0.0
 20
0.0
 30
0.0
  3
CAVIBAT Batten Profile - Non Cavibat-98797-W-TRSIL-06A - Soffit Flashing Detail
  1

  0
LINE
  5
12C
330
12B
100
AcDbEntity
  8
A-DETL-GENF
100
AcDbLine
 10
-0.0000000000000021
 20
0.0
 30
0.0
 11
17.99999999999888
 21
0.0
 31
0.0
1001
REVIT
1002
{
1070
     3
1000
16116
1002
}
  0
LINE
  5
12D
330
12B
100
AcDbEntity
  8
A-DETL-GENF
100
AcDbLine
 10
-0.0000000000000021
 20
-47.00000000000001
 30
0.0
 11
-0.0000000000000021
 21
0.0
 31
0.0
1001
REVIT
1002
{
1070
     3
1000
16116
1002
}
  0
LINE
  5
12E
330
12B
100
AcDbEntity
  8
A-DETL-GENF
100
AcDbLine
 10
17.99999999999888
 20
-47.00000000000001
 30
0.0
 11
-0.0000000000000021
 21
-47.00000000000001
 31
0.0
1001
REVIT
1002
{
1070
     3
1000
16116
1002
}
  0
LINE
  5
12F
330
12B
100
AcDbEntity
  8
A-DETL-GENF
100
AcDbLine
 10
17.99999999999888
 20
0.0
 30
0.0
 11
17.99999999999888
 21
-47.00000000000001
 31
0.0
1001
REVIT
1002
{
1070
     3
1000
16116
1002
}
  0
LINE
  5
130
330
12B
100
AcDbEntity
  8
A-DETL-GENF
100
AcDbLine
 10
8.999999999999248
 20
0.0
 30
0.0
 11
8.99999999999917
 21
-47.00000000000001
 31
0.0
1001
REVIT
1002
{
1070
     3
1000
16116
1002
}
  0
ENDBLK
  5
132
330
12B
100
AcDbEntity
  8
0
100
AcDbBlockEnd
  0
BLOCK
  5
15F
330
14D
100
AcDbEntity
  8
0
100
AcDbBlockBegin
  2
TRS Interlocking profile - Interlocking 260-113920-W-TRSIL-06A - Soffit Flashing Detail
 70
     0
 10
0.0
 20
0.0
 30
0.0
  3
TRS Interlocking profile - Interlocking 260-113920-W-TRSIL-06A - Soffit Flashing Detail
  1

  0
LINE
  5
14E
330
14D
100
AcDbEntity
  8
A-DETL-GENF
100
AcDbLine
 10
-810.0000000000003
 20
0.0
 30
0.0
 11
-790.0000000000001
 21
0.0
 31
0.0
  0
LINE
  5
14F
330
14D
100
AcDbEntity
  8
A-DETL-GENF
100
AcDbLine
 10
-770.0000000000001
 20
2.399999999999999
 30
0.0
 11
-778.0977009036631
 21
1.428275891560443
 31
0.0
  0
LINE
  5
150
330
14D
100
AcDbEntity
  8
A-DETL-GENF
100
AcDbLine
 10
-785.6993739633649
 20
0.5160751243962356
 30
0.0
 11
-790.0000000000001
 21
0.0
 31
0.0
  0
LINE
  5
151
330
14D
100
AcDbEntity
  8
A-DETL-GENF
100
AcDbLine
 10
-770.0000000000001
 20
2.399999999999999
 30
0.0
 11
-722.8383020477994
 21
2.399999999999846
 31
0.0
  0
LINE
  5
152
330
14D
100
AcDbEntity
  8
A-DETL-GENF
100
AcDbLine
 10
-722.8383020477994
 20
4.599999999999842
 30
0.0
 11
-760.2695588928534
 21
4.599999999999842
 31
0.0
  0
LINE
  5
153
330
14D
100
AcDbEntity
  8
A-DETL-GENF
100
AcDbLine
 10
-761.7818139502136
 20
6.112255057360221
 30
0.0
 11
-761.7818139502136
 21
23.09999999999984
 31
0.0
  0
LINE
  5
154
330
14D
100
AcDbEntity
  8
A-DETL-GENF
100
AcDbLine
 10
-760.2818139502136
 20
24.59999999999984
 30
0.0
 11
-503.2728888821042
 21
24.59999999999902
 31
0.0
  0
LINE
  5
155
330
14D
100
AcDbEntity
  8
A-DETL-GENF
100
AcDbLine
 10
-501.7818139502136
 20
23.10892506810844
 30
0.0
 11
-501.7818139502136
 21
4.511758410021792
 31
0.0
  0
LINE
  5
156
330
14D
100
AcDbEntity
  8
A-DETL-GENF
100
AcDbLine
 10
-500.2861306645898
 20
3.01607512439793
 30
0.0
 11
-494.0124887121259
 21
3.01607512439793
 31
0.0
  0
LINE
  5
157
330
14D
100
AcDbEntity
  8
A-DETL-GENF
100
AcDbLine
 10
-483.0732387121301
 20
3.01607512439793
 30
0.0
 11
-469.2818139502135
 21
3.01607512439793
 31
0.0
  0
LINE
  5
158
330
14D
100
AcDbEntity
  8
A-DETL-GENF
100
AcDbLine
 10
-469.2818139502135
 20
3.01607512439793
 30
0.0
 11
-467.0671833822827
 21
3.609483596608291
 31
0.0
  0
LINE
  5
159
330
14D
100
AcDbEntity
  8
A-DETL-GENF
100
AcDbLine
 10
-464.8525528143519
 20
3.01607512439793
 30
0.0
 11
-467.0671833822827
 21
3.609483596608291
 31
0.0
  0
ARC
  5
15A
330
14D
100
AcDbEntity
  8
A-DETL-GENF
100
AcDbCircle
 10
-760.2818139502136
 20
23.09999999999984
 30
0.0
 40
1.5
100
AcDbArc
 50
90.0
 51
180.0
  0
ARC
  5
15B
330
14D
100
AcDbEntity
  8
A-DETL-GENF
100
AcDbCircle
 10
-760.2695588928534
 20
6.112255057360221
 30
0.0
 40
1.512255057360333
100
AcDbArc
 50
179.9999999999999
 51
269.9999999999997
  0
ARC
  5
15C
330
14D
100
AcDbEntity
  8
A-DETL-GENF
100
AcDbCircle
 10
-722.8383020477994
 20
3.499999999999844
 30
0.0
 40
1.099999999999983
100
AcDbArc
 50
269.9999999999994
 51
89.99999999999976
  0
ARC
  5
15D
330
14D
100
AcDbEntity
  8
A-DETL-GENF
100
AcDbCircle
 10
-503.2728888821042
 20
23.10892506810843
 30
0.0
 40
1.491074931890586
100
AcDbArc
 50
0.0000000000001463
 51
90.00000000000028
  0
ARC
  5
15E
330
14D
100
AcDbEntity
  8
A-DETL-GENF
100
AcDbCircle
 10
-500.2861306645898
 20
4.511758410021792
 30
0.0
 40
1.49568328562384
100
AcDbArc
 50
179.9999999999999
 51
269.9999999999995
  0
ENDBLK
  5
160
330
14D
100
AcDbEntity
  8
0
100
AcDbBlockEnd
  0
BLOCK
  5
16F
330
16D
100
AcDbEntity
  8
0
100
AcDbBlockBegin
  2
HP_WProof - Building Wrap - HP_WProof - Building Wrap-203651-W-TRSIL-06A - Soffit Flashing Detail
 70
     0
 10
0.0
 20
0.0
 30
0.0
  3
HP_WProof - Building Wrap - HP_WProof - Building Wrap-203651-W-TRSIL-06A - Soffit Flashing Detail
  1

  0
LINE
  5
16E
330
16D
100
AcDbEntity
  8
A-DETL-GENF
100
AcDbLine
 10
0.0
 20
-383.3810015807784
 30
0.0
 11
0.0
 21
0.0
 31
0.0
1001
REVIT
1002
{
1070
     3
1000
16110
1002
}
  0
ENDBLK
  5
170
330
16D
100
AcDbEntity
  8
0
100
AcDbBlockEnd
  0
BLOCK
  5
17F
330
173
100
AcDbEntity
  8
0
100
AcDbBlockBegin
  2
TRS Interlocking profile soffit end flashing - Interlocking 260-204056-W-TRSIL-06A - Soffit Flashing Detail
 70
     0
 10
0.0
 20
0.0
 30
0.0
  3
TRS Interlocking profile soffit end flashing - Interlocking 260-204056-W-TRSIL-06A - Soffit Flashing Detail
  1

  0
LINE
  5
174
330
173
100
AcDbEntity
  8
A-DETL-GENF
100
AcDbLine
 10
-645.6404848066186
 20
-27.69553746594584
 30
0.0
 11
-633.2773514161591
 21
-27.69553746594588
 31
0.0
  0
LINE
  5
175
330
173
100
AcDbEntity
  8
A-DETL-GENF
100
AcDbLine
 10
-633.2684263480497
 20
-105.3955374659458
 30
0.0
 11
-651.8655930061363
 21
-105.3955374659459
 31
0.0
  0
LINE
  5
176
330
173
100
AcDbEntity
  8
A-DETL-GENF
100
AcDbLine
 10
-653.3612762917601
 20
-106.8912207515697
 30
0.0
 11
-653.3612762917601
 21
-137.8955374659461
 31
0.0
  0
LINE
  5
177
330
173
100
AcDbEntity
  8
A-DETL-GENF
100
AcDbLine
 10
-653.3612762917601
 20
-137.8955374659459
 30
0.0
 11
-652.7678678195497
 21
-140.110168033877
 31
0.0
  0
LINE
  5
178
330
173
100
AcDbEntity
  8
A-DETL-GENF
100
AcDbLine
 10
-653.36127629176
 20
-142.3247986018077
 30
0.0
 11
-652.7678678195497
 21
-140.1101680338769
 31
0.0
  0
ARC
  5
179
330
173
100
AcDbEntity
  8
A-DETL-GENF
100
AcDbCircle
 10
-633.2684263480497
 20
-103.9044625340553
 30
0.0
 40
1.491074931890587
100
AcDbArc
 50
269.9999999999999
 51
0.0000000000002672
  0
ARC
  5
17A
330
173
100
AcDbEntity
  8
A-DETL-GENF
100
AcDbCircle
 10
-651.8655930061363
 20
-106.8912207515697
 30
0.0
 40
1.49568328562384
100
AcDbArc
 50
90.0
 51
179.9999999999994
  0
LINE
  5
17B
330
173
100
AcDbEntity
  8
A-DETL-GENF
100
AcDbLine
 10
-631.7773514161591
 20
-29.19553746594586
 30
0.0
 11
-631.7773514161593
 21
-103.9044625340552
 31
0.0
  0
ARC
  5
17C
330
173
100
AcDbEntity
  8
A-DETL-GENF
100
AcDbCircle
 10
-633.2773514161591
 20
-29.19553746594587
 30
0.0
 40
1.500000000000009
100
AcDbArc
 50
0.0000000000000064
 51
90.00000000000028
  0
LINE
  5
17D
330
173
100
AcDbEntity
  8
A-DETL-GENF
100
AcDbLine
 10
-645.6404848066186
 20
-27.69553746594584
 30
0.0
 11
-645.6404848066186
 21
-21.69553746594583
 31
0.0
  0
LINE
  5
17E
330
173
100
AcDbEntity
  8
A-DETL-GENF
100
AcDbLine
 10
-645.6404848066186
 20
-21.69553746594583
 30
0.0
 11
-641.6586589864754
 21
-21.69553746594583
 31
0.0
  0
ENDBLK
  5
180
330
173
100
AcDbEntity
  8
0
100
AcDbBlockEnd
  0
BLOCK
  5
1B5
330
182
100
AcDbEntity
  8
0
100
AcDbBlockBegin
  2
Hex head timberfix screw - Hex head timberfix screw-99997-W-TRSIL-06A - Soffit Flashing Detail
 70
     0
 10
0.0
 20
0.0
 30
0.0
  3
Hex head timberfix screw - Hex head timberfix screw-99997-W-TRSIL-06A - Soffit Flashing Detail
  1

  0
HATCH
  5
187
330
182
100
AcDbEntity
  8
A-DETL-GENF
100
AcDbHatch
 10
0.0
 20
0.0
 30
0.0
210
0.0
220
0.0
230
1.0
  2
SOLID
 70
     1
 71
     0
 91
        1
 92
        0
 93
        4
 72
     1
 10
-5.469625000004539
 20
2.499999999996724
 11
-5.469625000004539
 21
-0.0000000000033165
 72
     1
 10
-5.469625000004539
 20
-0.0000000000033163
 11
5.469624999991273
 21
-0.000000000003384
 72
     1
 10
5.469624999991274
 20
-0.000000000003384
 11
5.469624999991274
 21
2.499999999996656
 72
     1
 10
5.469624999991274
 20
2.499999999996656
 11
-5.469625000004538
 21
2.499999999996724
 97
        0
 75
     0
 76
     1
 98
        1
 10
0.0
 20
0.0
450
        0
451
        0
460
0.0
461
0.0
452
        0
462
0.0
453
        0
470

  0
ARC
  5
188
330
182
100
AcDbEntity
  8
A-DETL-GENF
100
AcDbCircle
 10
0.0
 20
0.5603125000006949
 30
0.0
 40
7.57968749999999
100
AcDbArc
 50
95.67863346827278
 51
106.2602047082808
1001
REVIT
1002
{
1070
     3
1000
15798
1002
}
  0
ARC
  5
189
330
182
100
AcDbEntity
  8
A-DETL-GENF
100
AcDbCircle
 10
3.183468750001337
 20
6.131382812501231
 30
0.0
 40
2.008617187499675
100
AcDbArc
 50
58.10920819821509
 51
121.8907918018718
1001
REVIT
1002
{
1070
     3
1000
15798
1002
}
  0
ARC
  5
18A
330
182
100
AcDbEntity
  8
A-DETL-GENF
100
AcDbCircle
 10
-3.183468750001341
 20
6.131382812500318
 30
0.0
 40
2.008617187499676
100
AcDbArc
 50
58.10920819816176
 51
121.8907918016627
1001
REVIT
1002
{
1070
     3
1000
15798
1002
}
  0
ARC
  5
18B
330
182
100
AcDbEntity
  8
A-DETL-GENF
100
AcDbCircle
 10
0.0
 20
0.5603125000006949
 30
0.0
 40
7.579687499999996
100
AcDbArc
 50
73.73979529168228
 51
84.32136653172655
1001
REVIT
1002
{
1070
     3
1000
15798
1002
}
  0
LINE
  5
18C
330
182
100
AcDbEntity
  8
A-DETL-GENF
100
AcDbLine
 10
3.183468750001337
 20
8.140000000000341
 30
0.0
 11
0.7499999999999987
 21
8.140000000000341
 31
0.0
1001
REVIT
1002
{
1070
     3
1000
15798
1002
}
  0
LINE
  5
18D
330
182
100
AcDbEntity
  8
A-DETL-GENF
100
AcDbLine
 10
0.7499999999999987
 20
8.140000000000341
 30
0.0
 11
0.7499999999999987
 21
6.589999999999239
 31
0.0
1001
REVIT
1002
{
1070
     3
1000
15798
1002
}
  0
LINE
  5
18E
330
182
100
AcDbEntity
  8
A-DETL-GENF
100
AcDbLine
 10
0.7499999999999987
 20
6.589999999999239
 30
0.0
 11
-0.7500000000000029
 21
6.589999999999239
 31
0.0
1001
REVIT
1002
{
1070
     3
1000
15798
1002
}
  0
LINE
  5
18F
330
182
100
AcDbEntity
  8
A-DETL-GENF
100
AcDbLine
 10
-0.7500000000000029
 20
6.589999999999239
 30
0.0
 11
-0.7500000000000029
 21
8.139999999999428
 31
0.0
1001
REVIT
1002
{
1070
     3
1000
15798
1002
}
  0
LINE
  5
190
330
182
100
AcDbEntity
  8
A-DETL-GENF
100
AcDbLine
 10
-0.7500000000000029
 20
8.139999999999428
 30
0.0
 11
-3.183468750001341
 21
8.139999999999428
 31
0.0
1001
REVIT
1002
{
1070
     3
1000
15798
1002
}
  0
LINE
  5
191
330
182
100
AcDbEntity
  8
A-DETL-GENF
100
AcDbLine
 10
4.244624999999357
 20
7.836812500002085
 30
0.0
 11
4.244624999999357
 21
4.375000000000003
 31
0.0
1001
REVIT
1002
{
1070
     3
1000
15798
1002
}
  0
LINE
  5
192
330
182
100
AcDbEntity
  8
A-DETL-GENF
100
AcDbLine
 10
4.244624999999357
 20
4.375000000000003
 30
0.0
 11
5.469625000001539
 21
4.02500000000054
 31
0.0
1001
REVIT
1002
{
1070
     3
1000
15798
1002
}
  0
LINE
  5
193
330
182
100
AcDbEntity
  8
A-DETL-GENF
100
AcDbLine
 10
5.469625000001539
 20
4.02500000000054
 30
0.0
 11
5.469625000001539
 21
3.000000000000011
 31
0.0
1001
REVIT
1002
{
1070
     3
1000
15798
1002
}
  0
LINE
  5
194
330
182
100
AcDbEntity
  8
A-DETL-GENF
100
AcDbLine
 10
5.469625000001539
 20
3.000000000000011
 30
0.0
 11
-5.469624999997906
 21
3.000000000000011
 31
0.0
1001
REVIT
1002
{
1070
     3
1000
15798
1002
}
  0
LINE
  5
195
330
182
100
AcDbEntity
  8
A-DETL-GENF
100
AcDbLine
 10
-5.469624999997906
 20
3.000000000000011
 30
0.0
 11
-5.469624999997906
 21
4.024999999999643
 31
0.0
1001
REVIT
1002
{
1070
     3
1000
15798
1002
}
  0
LINE
  5
196
330
182
100
AcDbEntity
  8
A-DETL-GENF
100
AcDbLine
 10
-5.469624999997906
 20
4.024999999999643
 30
0.0
 11
-4.244624999993025
 21
4.375000000000003
 31
0.0
1001
REVIT
1002
{
1070
     3
1000
15798
1002
}
  0
LINE
  5
197
330
182
100
AcDbEntity
  8
A-DETL-GENF
100
AcDbLine
 10
4.244624999999357
 20
4.375000000000003
 30
0.0
 11
-4.244624999993023
 21
4.375000000000003
 31
0.0
1001
REVIT
1002
{
1070
     3
1000
15798
1002
}
  0
LINE
  5
198
330
182
100
AcDbEntity
  8
A-DETL-GENF
100
AcDbLine
 10
-4.244624999995723
 20
4.375000000000003
 30
0.0
 11
-4.244624999995723
 21
7.836812500003434
 31
0.0
1001
REVIT
1002
{
1070
     3
1000
15798
1002
}
  0
LINE
  5
199
330
182
100
AcDbEntity
  8
A-DETL-GENF
100
AcDbLine
 10
2.12231249999968
 20
4.375000000000003
 30
0.0
 11
2.12231249999968
 21
7.83681249999982
 31
0.0
1001
REVIT
1002
{
1070
     3
1000
15798
1002
}
  0
LINE
  5
19A
330
182
100
AcDbEntity
  8
A-DETL-GENF
100
AcDbLine
 10
-2.122312499996042
 20
4.375000000000003
 30
0.0
 11
-2.122312499996042
 21
7.836812500001842
 31
0.0
1001
REVIT
1002
{
1070
     3
1000
15798
1002
}
  0
LINE
  5
19B
330
182
100
AcDbEntity
  8
A-DETL-GENF
100
AcDbLine
 10
-1.500000000000001
 20
-42.05066079674497
 30
0.0
 11
1.499999999999997
 21
-41.24681321945308
 31
0.0
1001
REVIT
1002
{
1070
     3
1000
15798
1002
}
  0
LINE
  5
19C
330
182
100
AcDbEntity
  8
A-DETL-GENF
100
AcDbLine
 10
-1.500000000000001
 20
3.000000000000011
 30
0.0
 11
-1.500000000000001
 21
-63.84091346809912
 31
0.0
1001
REVIT
1002
{
1070
     3
1000
15798
1002
}
  0
LINE
  5
19D
330
182
100
AcDbEntity
  8
A-DETL-GENF
100
AcDbLine
 10
1.499999999999997
 20
-63.84091346809922
 30
0.0
 11
1.499999999999997
 21
3.000000000000011
 31
0.0
1001
REVIT
1002
{
1070
     3
1000
15798
1002
}
  0
LINE
  5
19E
330
182
100
AcDbEntity
  8
A-DETL-GENF
100
AcDbLine
 10
-1.500000000000001
 20
-38.83527048757332
 30
0.0
 11
1.499999999999997
 21
-38.03142291027955
 31
0.0
1001
REVIT
1002
{
1070
     3
1000
15798
1002
}
  0
LINE
  5
19F
330
182
100
AcDbEntity
  8
A-DETL-GENF
100
AcDbLine
 10
-1.500000000000001
 20
-29.18909956005427
 30
0.0
 11
1.499999999999997
 21
-28.38525198276146
 31
0.0
1001
REVIT
1002
{
1070
     3
1000
15798
1002
}
  0
LINE
  5
1A0
330
182
100
AcDbEntity
  8
A-DETL-GENF
100
AcDbLine
 10
-1.500000000000001
 20
-25.97370925088125
 30
0.0
 11
1.499999999999997
 21
-25.16986167358845
 31
0.0
1001
REVIT
1002
{
1070
     3
1000
15798
1002
}
  0
LINE
  5
1A1
330
182
100
AcDbEntity
  8
A-DETL-GENF
100
AcDbLine
 10
-1.500000000000001
 20
-22.75831894170824
 30
0.0
 11
1.499999999999997
 21
-21.95447136441544
 31
0.0
1001
REVIT
1002
{
1070
     3
1000
15798
1002
}
  0
LINE
  5
1A2
330
182
100
AcDbEntity
  8
A-DETL-GENF
100
AcDbLine
 10
-1.500000000000001
 20
-19.54292863253522
 30
0.0
 11
1.499999999999997
 21
-18.73908105524241
 31
0.0
1001
REVIT
1002
{
1070
     3
1000
15798
1002
}
  0
LINE
  5
1A3
330
182
100
AcDbEntity
  8
A-DETL-GENF
100
AcDbLine
 10
-1.500000000000002
 20
-16.32753832336214
 30
0.0
 11
1.499999999999996
 21
-15.5236907460694
 31
0.0
1001
REVIT
1002
{
1070
     3
1000
15798
1002
}
  0
LINE
  5
1A4
330
182
100
AcDbEntity
  8
A-DETL-GENF
100
AcDbLine
 10
-1.500000000000001
 20
-13.11214801418919
 30
0.0
 11
1.499999999999997
 21
-12.30830043689639
 31
0.0
1001
REVIT
1002
{
1070
     3
1000
15798
1002
}
  0
LINE
  5
1A5
330
182
100
AcDbEntity
  8
A-DETL-GENF
100
AcDbLine
 10
-1.500000000000001
 20
-9.896757705017076
 30
0.0
 11
1.499999999999997
 21
-9.092910127723365
 31
0.0
1001
REVIT
1002
{
1070
     3
1000
15798
1002
}
  0
LINE
  5
1A6
330
182
100
AcDbEntity
  8
A-DETL-GENF
100
AcDbLine
 10
-1.500000000000001
 20
-6.681367395843151
 30
0.0
 11
1.499999999999997
 21
-5.877519818550356
 31
0.0
1001
REVIT
1002
{
1070
     3
1000
15798
1002
}
  0
LINE
  5
1A7
330
182
100
AcDbEntity
  8
A-DETL-GENF
100
AcDbLine
 10
-1.500000000000001
 20
-3.465977086671038
 30
0.0
 11
1.499999999999997
 21
-2.662129509377329
 31
0.0
1001
REVIT
1002
{
1070
     3
1000
15798
1002
}
  0
LINE
  5
1A8
330
182
100
AcDbEntity
  8
A-DETL-GENF
100
AcDbLine
 10
-1.500000000000001
 20
-0.2505867774980286
 30
0.0
 11
1.499999999999999
 21
0.5532607997956812
 31
0.0
1001
REVIT
1002
{
1070
     3
1000
15798
1002
}
  0
LINE
  5
1A9
330
182
100
AcDbEntity
  8
A-DETL-GENF
100
AcDbLine
 10
-1.500000000000002
 20
-35.61988017839933
 30
0.0
 11
1.499999999999996
 21
-34.8160326011075
 31
0.0
1001
REVIT
1002
{
1070
     3
1000
15798
1002
}
  0
LINE
  5
1AA
330
182
100
AcDbEntity
  8
A-DETL-GENF
100
AcDbLine
 10
-1.500000000000001
 20
-32.40448986922729
 30
0.0
 11
1.499999999999997
 21
-31.60064229193449
 31
0.0
1001
REVIT
1002
{
1070
     3
1000
15798
1002
}
  0
LINE
  5
1AB
330
182
100
AcDbEntity
  8
A-DETL-GENF
100
AcDbLine
 10
-1.183643930274868
 20
-48.39667406168699
 30
0.0
 11
1.499999999999996
 21
-47.67759383779768
 31
0.0
1001
REVIT
1002
{
1070
     3
1000
15798
1002
}
  0
LINE
  5
1AC
330
182
100
AcDbEntity
  8
A-DETL-GENF
100
AcDbLine
 10
-1.500000000000002
 20
-45.26605110591747
 30
0.0
 11
1.499999999999996
 21
-44.46220352862564
 31
0.0
1001
REVIT
1002
{
1070
     3
1000
15798
1002
}
  0
LINE
  5
1AD
330
182
100
AcDbEntity
  8
A-DETL-GENF
100
AcDbLine
 10
-1.500000000000001
 20
-58.12761234260914
 30
0.0
 11
1.499999999999997
 21
-57.32376476531726
 31
0.0
1001
REVIT
1002
{
1070
     3
1000
15798
1002
}
  0
LINE
  5
1AE
330
182
100
AcDbEntity
  8
A-DETL-GENF
100
AcDbLine
 10
-1.500000000000001
 20
-63.84091346809912
 30
0.0
 11
-0.0000000000036118
 21
-66.84091346810008
 31
0.0
1001
REVIT
1002
{
1070
     3
1000
15798
1002
}
  0
LINE
  5
1AF
330
182
100
AcDbEntity
  8
A-DETL-GENF
100
AcDbLine
 10
-0.0000000000036118
 20
-66.84091346810008
 30
0.0
 11
1.499999999999998
 21
-63.84091346809922
 31
0.0
1001
REVIT
1002
{
1070
     3
1000
15798
1002
}
  0
LINE
  5
1B0
330
182
100
AcDbEntity
  8
A-DETL-GENF
100
AcDbLine
 10
-1.500000000000001
 20
-54.9122220334375
 30
0.0
 11
1.499999999999996
 21
-54.10837445614373
 31
0.0
1001
REVIT
1002
{
1070
     3
1000
15798
1002
}
  0
LINE
  5
1B1
330
182
100
AcDbEntity
  8
A-DETL-GENF
100
AcDbLine
 10
-1.5
 20
-51.69683172426351
 30
0.0
 11
1.499999999999996
 21
-50.89298414697168
 31
0.0
1001
REVIT
1002
{
1070
     3
1000
15798
1002
}
  0
LINE
  5
1B2
330
182
100
AcDbEntity
  8
A-DETL-GENF
100
AcDbLine
 10
-1.500000000000001
 20
-48.48144141509147
 30
0.0
 11
1.499999999999997
 21
-47.67759383779867
 31
0.0
1001
REVIT
1002
{
1070
     3
1000
15798
1002
}
  0
LINE
  5
1B3
330
182
100
AcDbEntity
  8
A-DETL-GENF
100
AcDbLine
 10
-1.183643930274843
 20
-64.47362560755117
 30
0.0
 11
1.549864636799416
 21
-63.74118419450059
 31
0.0
1001
REVIT
1002
{
1070
     3
1000
15798
1002
}
  0
LINE
  5
1B4
330
182
100
AcDbEntity
  8
A-DETL-GENF
100
AcDbLine
 10
-1.5
 20
-61.34300265178165
 30
0.0
 11
1.499999999999996
 21
-60.53915507448982
 31
0.0
1001
REVIT
1002
{
1070
     3
1000
15798
1002
}
  0
ENDBLK
  5
1B6
330
182
100
AcDbEntity
  8
0
100
AcDbBlockEnd
  0
BLOCK
  5
1BB
330
1B9
100
AcDbEntity
  8
0
100
AcDbBlockBegin
  2
HP_WProof - Building Wrap - HP_WProof - Building Wrap-152103-W-TRSIL-06A - Soffit Flashing Detail
 70
     0
 10
0.0
 20
0.0
 30
0.0
  3
HP_WProof - Building Wrap - HP_WProof - Building Wrap-152103-W-TRSIL-06A - Soffit Flashing Detail
  1

  0
LINE
  5
1BA
330
1B9
100
AcDbEntity
  8
A-DETL-GENF
100
AcDbLine
 10
0.0
 20
-418.5643810669646
 30
0.0
 11
0.0
 21
-58.89677099883391
 31
0.0
1001
REVIT
1002
{
1070
     3
1000
16110
1002
}
  0
ENDBLK
  5
1BC
330
1B9
100
AcDbEntity
  8
0
100
AcDbBlockEnd
  0
BLOCK
  5
1C0
330
1BE
100
AcDbEntity
  8
0
100
AcDbBlockBegin
  2
HP_WProof - Building Wrap - HP_WProof - Building Wrap-203624-W-TRSIL-06A - Soffit Flashing Detail
 70
     0
 10
0.0
 20
0.0
 30
0.0
  3
HP_WProof - Building Wrap - HP_WProof - Building Wrap-203624-W-TRSIL-06A - Soffit Flashing Detail
  1

  0
LINE
  5
1BF
330
1BE
100
AcDbEntity
  8
A-DETL-GENF
100
AcDbLine
 10
0.0
 20
-371.0176758836246
 30
0.0
 11
0.0
 21
0.0
 31
0.0
1001
REVIT
1002
{
1070
     3
1000
16110
1002
}
  0
ENDBLK
  5
1C1
330
1BE
100
AcDbEntity
  8
0
100
AcDbBlockEnd
  0
BLOCK
  5
1CC
330
1C6
100
AcDbEntity
  8
0
100
AcDbBlockBegin
  2
Break Line1 - Break Line-201420-W-TRSIL-06A - Soffit Flashing Detail
 70
     0
 10
0.0
 20
0.0
 30
0.0
  3
Break Line1 - Break Line-201420-W-TRSIL-06A - Soffit Flashing Detail
  1

  0
LINE
  5
1C7
330
1C6
100
AcDbEntity
  8
A-DETL-MEDM
100
AcDbLine
 10
-9.999999999999957
 20
0.0000000000045937
 30
0.0
 11
-4.999999999999864
 21
20.00000000000462
 31
0.0
1001
REVIT
1002
{
1070
     3
1000
15460
1002
}
  0
LINE
  5
1C8
330
1C6
100
AcDbEntity
  8
A-DETL-MEDM
100
AcDbLine
 10
-4.999999999999862
 20
20.00000000000462
 30
0.0
 11
5.000000000000524
 21
-19.99999999999498
 31
0.0
1001
REVIT
1002
{
1070
     3
1000
15460
1002
}
  0
LINE
  5
1C9
330
1C6
100
AcDbEntity
  8
A-DETL-MEDM
100
AcDbLine
 10
5.000000000000523
 20
-19.99999999999498
 30
0.0
 11
10.00000000000003
 21
0.0000000000045937
 31
0.0
1001
REVIT
1002
{
1070
     3
1000
15460
1002
}
  0
LINE
  5
1CA
330
1C6
100
AcDbEntity
  8
A-DETL-MEDM
100
AcDbLine
 10
10.00000000000003
 20
0.0000000000045937
 30
0.0
 11
107.3735563880492
 21
0.0000000000045937
 31
0.0
1001
REVIT
1002
{
1070
     3
1000
15460
1002
}
  0
LINE
  5
1CB
330
1C6
100
AcDbEntity
  8
A-DETL-MEDM
100
AcDbLine
 10
-90.37353209573497
 20
0.0000000000045937
 30
0.0
 11
-9.99999999999996
 21
0.0000000000045937
 31
0.0
1001
REVIT
1002
{
1070
     3
1000
15460
1002
}
  0
ENDBLK
  5
1CD
330
1C6
100
AcDbEntity
  8
0
100
AcDbBlockEnd
  0
BLOCK
  5
1D4
330
1CF
100
AcDbEntity
  8
0
100
AcDbBlockBegin
  2
FP Timber Nog Packer1 - Variable-45636-W-TRSIL-06A - Soffit Flashing Detail
 70
     0
 10
0.0
 20
0.0
 30
0.0
  3
FP Timber Nog Packer1 - Variable-45636-W-TRSIL-06A - Soffit Flashing Detail
  1

  0
LINE
  5
1D0
330
1CF
100
AcDbEntity
  8
A-DETL-GENF
100
AcDbLine
 10
70.00000000000048
 20
24.99999999999866
 30
0.0
 11
0.0
 21
24.99999999999866
 31
0.0
1001
REVIT
1002
{
1070
     3
1000
16257
1002
}
  0
LINE
  5
1D1
330
1CF
100
AcDbEntity
  8
A-DETL-GENF
100
AcDbLine
 10
0.0
 20
24.99999999999866
 30
0.0
 11
0.0
 21
-4.999999999999738
 31
0.0
1001
REVIT
1002
{
1070
     3
1000
16257
1002
}
  0
LINE
  5
1D2
330
1CF
100
AcDbEntity
  8
A-DETL-GENF
100
AcDbLine
 10
0.0
 20
-4.999999999999737
 30
0.0
 11
70.00000000000048
 21
-4.999999999999737
 31
0.0
1001
REVIT
1002
{
1070
     3
1000
16257
1002
}
  0
LINE
  5
1D3
330
1CF
100
AcDbEntity
  8
A-DETL-GENF
100
AcDbLine
 10
-0.0000000000005245
 20
-4.999999999999737
 30
0.0
 11
70.00000000000039
 21
24.99999999999866
 31
0.0
1001
REVIT
1002
{
1070
     3
1000
16362
1002
}
  0
ENDBLK
  5
1D5
330
1CF
100
AcDbEntity
  8
0
100
AcDbBlockEnd
  0
BLOCK
  5
1EE
330
1DF
100
AcDbEntity
  8
0
100
AcDbBlockBegin
  2
TRS Corrugate profile - TRS Corrugate-204821-W-TRSIL-06A - Soffit Flashing Detail
 70
     0
 10
0.0
 20
0.0
 30
0.0
  3
TRS Corrugate profile - TRS Corrugate-204821-W-TRSIL-06A - Soffit Flashing Detail
  1

  0
ARC
  5
1E0
330
1DF
100
AcDbEntity
  8
A-DETL-GENF
100
AcDbCircle
 10
-771.9000000000002
 20
-24.66124999999988
 30
0.0
 40
24.66124999999989
100
AcDbArc
 50
39.42406347635435
 51
140.5759365236463
  0
ARC
  5
1E1
330
1DF
100
AcDbEntity
  8
A-DETL-GENF
100
AcDbCircle
 10
-733.8000000000002
 20
6.661249999999737
 30
0.0
 40
24.66124999999969
100
AcDbArc
 50
219.4240634763525
 51
320.5759365236455
  0
ARC
  5
1E2
330
1DF
100
AcDbEntity
  8
A-DETL-GENF
100
AcDbCircle
 10
-810.0000000000001
 20
6.661249999999737
 30
0.0
 40
24.66124999999975
100
AcDbArc
 50
245.0733292446971
 51
320.5759365236461
  0
ARC
  5
1E3
330
1DF
100
AcDbEntity
  8
A-DETL-GENF
100
AcDbCircle
 10
-695.7000000000004
 20
-24.66124999999963
 30
0.0
 40
24.66124999999985
100
AcDbArc
 50
39.42406347635405
 51
140.5759365236473
  0
ARC
  5
1E4
330
1DF
100
AcDbEntity
  8
A-DETL-GENF
100
AcDbCircle
 10
-657.6000000000004
 20
6.661249999999983
 30
0.0
 40
24.66124999999976
100
AcDbArc
 50
219.4240634763525
 51
320.5759365236454
  0
ARC
  5
1E5
330
1DF
100
AcDbEntity
  8
A-DETL-GENF
100
AcDbCircle
 10
-619.5000000000003
 20
-24.66124999999939
 30
0.0
 40
24.66124999999994
100
AcDbArc
 50
39.42406347635431
 51
140.5759365236473
  0
ARC
  5
1E6
330
1DF
100
AcDbEntity
  8
A-DETL-GENF
100
AcDbCircle
 10
-581.4000000000004
 20
6.66125000000023
 30
0.0
 40
24.66124999999976
100
AcDbArc
 50
219.4240634763525
 51
320.5759365236455
  0
ARC
  5
1E7
330
1DF
100
AcDbEntity
  8
A-DETL-GENF
100
AcDbCircle
 10
-543.3000000000004
 20
-24.66124999999915
 30
0.0
 40
24.66124999999994
100
AcDbArc
 50
39.42406347635431
 51
140.5759365236473
  0
ARC
  5
1E8
330
1DF
100
AcDbEntity
  8
A-DETL-GENF
100
AcDbCircle
 10
-505.2000000000004
 20
6.661250000000476
 30
0.0
 40
24.66124999999969
100
AcDbArc
 50
219.4240634763525
 51
320.5759365236455
  0
ARC
  5
1E9
330
1DF
100
AcDbEntity
  8
A-DETL-GENF
100
AcDbCircle
 10
-467.1000000000004
 20
-24.6612499999989
 30
0.0
 40
24.66124999999998
100
AcDbArc
 50
39.42406347635428
 51
140.5759365236474
  0
ARC
  5
1EA
330
1DF
100
AcDbEntity
  8
A-DETL-GENF
100
AcDbCircle
 10
-429.0000000000004
 20
6.661250000000723
 30
0.0
 40
24.66124999999969
100
AcDbArc
 50
219.4240634763525
 51
320.5759365236456
  0
ARC
  5
1EB
330
1DF
100
AcDbEntity
  8
A-DETL-GENF
100
AcDbCircle
 10
-390.9000000000005
 20
-24.66124999999865
 30
0.0
 40
24.66124999999994
100
AcDbArc
 50
39.42406347635422
 51
140.5759365236473
  0
ARC
  5
1EC
330
1DF
100
AcDbEntity
  8
A-DETL-GENF
100
AcDbCircle
 10
-352.8000000000005
 20
6.661250000000969
 30
0.0
 40
24.66124999999973
100
AcDbArc
 50
219.4240634763525
 51
320.5759365236456
  0
ARC
  5
1ED
330
1DF
100
AcDbEntity
  8
A-DETL-GENF
100
AcDbCircle
 10
-314.7000000000005
 20
-24.66124999999841
 30
0.0
 40
24.66124999999998
100
AcDbArc
 50
57.68346367105839
 51
140.5759365236474
  0
ENDBLK
  5
1EF
330
1DF
100
AcDbEntity
  8
0
100
AcDbBlockEnd
  0
BLOCK
  5
202
330
1F1
100
AcDbEntity
  8
0
100
AcDbBlockBegin
  2
Fascia - Fascia 260 x 20-203401-W-TRSIL-06A - Soffit Flashing Detail
 70
     0
 10
0.0
 20
0.0
 30
0.0
  3
Fascia - Fascia 260 x 20-203401-W-TRSIL-06A - Soffit Flashing Detail
  1

  0
LINE
  5
1F2
330
1F1
100
AcDbEntity
  8
A-DETL-GENF
100
AcDbLine
 10
-0.0000000000000063
 20
231.3923048454197
 30
0.0
 11
-6.000000000000952
 21
232.9999999999963
 31
0.0
  0
LINE
  5
1F3
330
1F1
100
AcDbEntity
  8
A-DETL-GENF
100
AcDbLine
 10
-6.000000000000952
 20
232.9999999999963
 30
0.0
 11
-6.000000000000952
 21
238.9999999999993
 31
0.0
  0
LINE
  5
1F4
330
1F1
100
AcDbEntity
  8
A-DETL-GENF
100
AcDbLine
 10
-6.000000000000952
 20
238.9999999999993
 30
0.0
 11
-0.0000000000001491
 21
238.9999999999993
 31
0.0
  0
LINE
  5
1F5
330
1F1
100
AcDbEntity
  8
A-DETL-GENF
100
AcDbLine
 10
-0.0000000000001491
 20
238.9999999999993
 30
0.0
 11
-0.0000000000001491
 21
253.0000000000009
 31
0.0
  0
ARC
  5
1F6
330
1F1
100
AcDbEntity
  8
A-DETL-GENF
100
AcDbCircle
 10
-1.999999999999703
 20
253.0000000000009
 30
0.0
 40
2.000000000000028
100
AcDbArc
 50
359.9999999999996
 51
89.99999999999948
  0
LINE
  5
1F7
330
1F1
100
AcDbEntity
  8
A-DETL-GENF
100
AcDbLine
 10
-1.999999999999693
 20
255.0000000000004
 30
0.0
 11
-16.00000000000165
 21
255.0000000000004
 31
0.0
  0
ARC
  5
1F8
330
1F1
100
AcDbEntity
  8
A-DETL-GENF
100
AcDbCircle
 10
-16.00000000000169
 20
253.0000000000018
 30
0.0
 40
1.999999999999961
100
AcDbArc
 50
89.99999999999852
 51
180.0000000000001
  0
LINE
  5
1F9
330
1F1
100
AcDbEntity
  8
A-DETL-GENF
100
AcDbLine
 10
-18.0000000000003
 20
253.0000000000018
 30
0.0
 11
-18.0000000000003
 21
1.999999999999173
 31
0.0
  0
ARC
  5
1FA
330
1F1
100
AcDbEntity
  8
A-DETL-GENF
100
AcDbCircle
 10
-16.00000000000076
 20
1.999999999999173
 30
0.0
 40
1.999999999999991
100
AcDbArc
 50
179.9999999999999
 51
269.9999999999996
  0
LINE
  5
1FB
330
1F1
100
AcDbEntity
  8
A-DETL-GENF
100
AcDbLine
 10
-16.00000000000075
 20
0.0000000000003722
 30
0.0
 11
-1.999999999999549
 21
0.0000000000003722
 31
0.0
  0
ARC
  5
1FC
330
1F1
100
AcDbEntity
  8
A-DETL-GENF
100
AcDbCircle
 10
-1.999999999999535
 20
1.999999999999917
 30
0.0
 40
1.999999999999983
100
AcDbArc
 50
269.9999999999988
 51
0.0000000000000254
  0
LINE
  5
1FD
330
1F1
100
AcDbEntity
  8
A-DETL-GENF
100
AcDbLine
 10
-0.0000000000000027
 20
1.999999999999917
 30
0.0
 11
-0.0000000000000042
 21
16.00000000000106
 31
0.0
  0
LINE
  5
1FE
330
1F1
100
AcDbEntity
  8
A-DETL-GENF
100
AcDbLine
 10
-0.0000000000000042
 20
16.00000000000106
 30
0.0
 11
-6.000000000000804
 21
16.00000000000106
 31
0.0
  0
LINE
  5
1FF
330
1F1
100
AcDbEntity
  8
A-DETL-GENF
100
AcDbLine
 10
-6.000000000000804
 20
16.00000000000106
 30
0.0
 11
-6.000000000000805
 21
22.00000000000187
 31
0.0
  0
LINE
  5
200
330
1F1
100
AcDbEntity
  8
A-DETL-GENF
100
AcDbLine
 10
-6.000000000000807
 20
22.00000000000187
 30
0.0
 11
-0.0000000000000063
 21
23.60769515459297
 31
0.0
  0
LINE
  5
201
330
1F1
100
AcDbEntity
  8
A-DETL-GENF
100
AcDbLine
 10
-0.0000000000000063
 20
23.6076951545922
 30
0.0
 11
-0.0000000000000063
 21
231.3923048454197
 31
0.0
  0
ENDBLK
  5
203
330
1F1
100
AcDbEntity
  8
0
100
AcDbBlockEnd
  0
BLOCK
  5
20C
330
205
100
AcDbEntity
  8
0
100
AcDbBlockBegin
  2
TRS Corrugate profile - TRS Corrugate-V1-W-TRSIL-06A - Soffit Flashing Detail
 70
     0
 10
0.0
 20
0.0
 30
0.0
  3
TRS Corrugate profile - TRS Corrugate-V1-W-TRSIL-06A - Soffit Flashing Detail
  1

  0
ARC
  5
206
330
205
100
AcDbEntity
  8
A-DETL-GENF
100
AcDbCircle
 10
-505.2000000000004
 20
6.661250000000476
 30
0.0
 40
24.66124999999968
100
AcDbArc
 50
234.4761904123548
 51
320.5759365236455
  0
ARC
  5
207
330
205
100
AcDbEntity
  8
A-DETL-GENF
100
AcDbCircle
 10
-467.1000000000004
 20
-24.6612499999989
 30
0.0
 40
24.66124999999998
100
AcDbArc
 50
39.42406347635428
 51
140.5759365236474
  0
ARC
  5
208
330
205
100
AcDbEntity
  8
A-DETL-GENF
100
AcDbCircle
 10
-429.0000000000004
 20
6.661250000000723
 30
0.0
 40
24.66124999999969
100
AcDbArc
 50
219.4240634763525
 51
320.5759365236456
  0
ARC
  5
209
330
205
100
AcDbEntity
  8
A-DETL-GENF
100
AcDbCircle
 10
-390.9000000000005
 20
-24.66124999999865
 30
0.0
 40
24.66124999999994
100
AcDbArc
 50
39.42406347635422
 51
140.5759365236473
  0
ARC
  5
20A
330
205
100
AcDbEntity
  8
A-DETL-GENF
100
AcDbCircle
 10
-352.8000000000005
 20
6.661250000000969
 30
0.0
 40
24.66124999999973
100
AcDbArc
 50
219.4240634763525
 51
320.5759365236456
  0
ARC
  5
20B
330
205
100
AcDbEntity
  8
A-DETL-GENF
100
AcDbCircle
 10
-314.7000000000005
 20
-24.66124999999841
 30
0.0
 40
24.66124999999998
100
AcDbArc
 50
57.68346367105839
 51
140.5759365236474
  0
ENDBLK
  5
20D
330
205
100
AcDbEntity
  8
0
100
AcDbBlockEnd
  0
BLOCK
  5
216
330
210
100
AcDbEntity
  8
0
100
AcDbBlockBegin
  2
Break Line1 - Break Line-205273-W-TRSIL-06A - Soffit Flashing Detail
 70
     0
 10
0.0
 20
0.0
 30
0.0
  3
Break Line1 - Break Line-205273-W-TRSIL-06A - Soffit Flashing Detail
  1

  0
LINE
  5
211
330
210
100
AcDbEntity
  8
A-DETL-MEDM
100
AcDbLine
 10
-9.999999999999957
 20
0.0000000000045937
 30
0.0
 11
-4.999999999999864
 21
20.00000000000462
 31
0.0
1001
REVIT
1002
{
1070
     3
1000
15460
1002
}
  0
LINE
  5
212
330
210
100
AcDbEntity
  8
A-DETL-MEDM
100
AcDbLine
 10
-4.999999999999862
 20
20.00000000000462
 30
0.0
 11
5.000000000000524
 21
-19.99999999999498
 31
0.0
1001
REVIT
1002
{
1070
     3
1000
15460
1002
}
  0
LINE
  5
213
330
210
100
AcDbEntity
  8
A-DETL-MEDM
100
AcDbLine
 10
5.000000000000523
 20
-19.99999999999498
 30
0.0
 11
10.00000000000003
 21
0.0000000000045937
 31
0.0
1001
REVIT
1002
{
1070
     3
1000
15460
1002
}
  0
LINE
  5
214
330
210
100
AcDbEntity
  8
A-DETL-MEDM
100
AcDbLine
 10
10.00000000000003
 20
0.0000000000045937
 30
0.0
 11
145.4102778093655
 21
0.0000000000045937
 31
0.0
1001
REVIT
1002
{
1070
     3
1000
15460
1002
}
  0
LINE
  5
215
330
210
100
AcDbEntity
  8
A-DETL-MEDM
100
AcDbLine
 10
-130.384465216054
 20
0.0000000000045937
 30
0.0
 11
-9.99999999999996
 21
0.0000000000045937
 31
0.0
1001
REVIT
1002
{
1070
     3
1000
15460
1002
}
  0
ENDBLK
  5
217
330
210
100
AcDbEntity
  8
0
100
AcDbBlockEnd
  0
BLOCK
  5
2B1
330
286
100
AcDbEntity
  8
0
100
AcDbBlockBegin
  2
Titleblock A4 The roofing store - Titleblock A4 The roofing store-2694-Soffit Flashing Detail _Ver__
 70
     0
 10
0.0
 20
0.0
 30
0.0
  3
Titleblock A4 The roofing store - Titleblock A4 The roofing store-2694-Soffit Flashing Detail _Ver__
  1

  0
IMAGE
  5
289
330
286
100
AcDbEntity
  8
G-ANNO-TTLB
160
               140
310
8C000000010000008400000006000000050000005617394A1B7A1640B7935150A3172A4000000000000000005617394A1B7A1640DCC928A8D10B3640000000000000000095168F065A825140DCC928A8D10B3640000000000000000095168F065A825140B7935150A3172A4000000000000000005617394A1B7A1640B79351
310
50A3172A400000000000000000
100
AcDbRasterImage
 90
        0
 10
5.619244727835242
 20
13.0461678599912
 30
0.0
 11
0.0225
 21
0.0
 31
0.0
 12
0.0
 22
0.0225
 32
0.0
 13
2863.0
 23
400.0
340
288
 70
     7
280
     0
281
    50
282
    50
283
     0
290
     0
360
28A
 71
     1
 91
        2
 14
-0.5
 24
-0.5
 14
2862.5
 24
399.5
  0
LINE
  5
28C
330
286
100
AcDbEntity
  8
G-ANNO-TTLB-THIN
100
AcDbLine
 10
291.9756745145733
 20
16.5981545959536
 30
0.0
 11
236.9756745145732
 21
16.5981545959536
 31
0.0
1001
REVIT
1002
{
1070
     3
1000
-2000281
1002
}
  0
LINE
  5
28D
330
286
100
AcDbEntity
  8
G-ANNO-TTLB
100
AcDbLine
 10
71.28674472783522
 20
23.02396756137834
 30
0.0
 11
71.28674472783522
 21
5.023967561378343
 31
0.0
  0
LINE
  5
28F
330
286
100
AcDbEntity
  8
G-ANNO-TTLB-MEDM
100
AcDbLine
 10
291.9756745145733
 20
205.0239675613797
 30
0.0
 11
4.975674514620406
 21
205.0239675613797
 31
0.0
1001
REVIT
1002
{
1070
     3
1000
-2000282
1002
}
  0
LINE
  5
290
330
286
100
AcDbEntity
  8
G-ANNO-TTLB-MEDM
100
AcDbLine
 10
4.975674514620408
 20
205.0239675613797
 30
0.0
 11
4.975674514620408
 21
5.02396756137836
 31
0.0
1001
REVIT
1002
{
1070
     3
1000
-2000282
1002
}
  0
LINE
  5
291
330
286
100
AcDbEntity
  8
G-ANNO-TTLB-MEDM
100
AcDbLine
 10
4.975674514620408
 20
5.023967561378343
 30
0.0
 11
291.9756745145733
 21
5.023967561378343
 31
0.0
1001
REVIT
1002
{
1070
     3
1000
-2000282
1002
}
  0
LINE
  5
292
330
286
100
AcDbEntity
  8
G-ANNO-TTLB-MEDM
100
AcDbLine
 10
291.9756745145733
 20
5.023967561378343
 30
0.0
 11
291.9756745145733
 21
205.0239675613797
 31
0.0
1001
REVIT
1002
{
1070
     3
1000
-2000282
1002
}
  0
LINE
  5
293
330
286
100
AcDbEntity
  8
G-ANNO-TTLB-THIN
100
AcDbLine
 10
291.9756745145733
 20
23.02396756137834
 30
0.0
 11
4.975674514620406
 21
23.02396756137834
 31
0.0
1001
REVIT
1002
{
1070
     3
1000
-2000281
1002
}
  0
LINE
  5
294
330
286
100
AcDbEntity
  8
G-ANNO-TTLB
100
AcDbLine
 10
236.9756745145732
 20
23.02396756137834
 30
0.0
 11
236.9756745145732
 21
5.023967561378343
 31
0.0
  0
MTEXT
  5
296
330
286
100
AcDbEntity
  8
G-ANNO-TTLB
100
AcDbMText
 10
9.61486176751347
 20
34.25458782332127
 30
0.0
 40
1.8
 41
2.309769
 46
0.0
 71
     1
 72
     1
  1
\U+2022
  7
Century Gothic_1
 73
     2
 44
1.0
  0
MTEXT
  5
297
330
286
100
AcDbEntity
  8
G-ANNO-TTLB
100
AcDbMText
 10
9.61486176751347
 20
31.3441711566546
 30
0.0
 40
1.8
 41
2.309769
 46
0.0
 71
     1
 72
     1
  1
\U+2022
  7
Century Gothic_1
 73
     2
 44
1.0
  0
MTEXT
  5
298
330
286
100
AcDbEntity
  8
G-ANNO-TTLB
100
AcDbMText
 10
9.61486176751347
 20
28.43375448998793
 30
0.0
 40
1.8
 41
2.309769
 46
0.0
 71
     1
 72
     1
  1
\U+2022
  7
Century Gothic_1
 73
     2
 44
1.0
  0
MTEXT
  5
299
330
286
100
AcDbEntity
  8
G-ANNO-TTLB
100
AcDbMText
 10
11.51986176751347
 20
34.25458782332127
 30
0.0
 40
1.8
 41
154.116405
 46
0.0
 71
     1
 72
     1
  1
These details are generally in accordance with NZBC E2/AS1 and or the NZ metal roof & wall caldding code of practice.
  7
Century Gothic_1
 73
     2
 44
1.0
  0
MTEXT
  5
29A
330
286
100
AcDbEntity
  8
G-ANNO-TTLB
100
AcDbMText
 10
11.51986176751347
 20
31.3441711566546
 30
0.0
 40
1.8
 41
137.0885625
 46
0.0
 71
     1
 72
     1
  1
The building Architect / Designer is ultimately responsible for details to meet the NZ Building Code & E2/AS1.
  7
Century Gothic_1
 73
     2
 44
1.0
  0
MTEXT
  5
29B
330
286
100
AcDbEntity
  8
G-ANNO-TTLB
100
AcDbMText
 10
11.51986176751347
 20
28.43375448998794
 30
0.0
 40
1.8
 41
118.401226875
 46
0.0
 71
     1
 72
     1
  1
For Further information please contact your nearest roofing store www.theroofingstore.co.nz.
  7
Century Gothic_1
 73
     2
 44
1.0
  0
MTEXT
  5
29C
330
286
100
AcDbEntity
  8
G-ANNO-TTLB
100
AcDbMText
 10
152.075785282666
 20
20.51531106318182
 30
0.0
 40
1.8
 41
20.77974
 46
0.0
 71
     1
 72
     1
  1
P: HEAD OFFICE 
  7
Century Gothic_1
 73
     2
 44
1.0
  0
MTEXT
  5
29D
330
286
100
AcDbEntity
  8
G-ANNO-TTLB
100
AcDbMText
 10
169.220785282666
 20
20.51531106318182
 30
0.0
 40
1.8
 41
6.926579999999998
 46
0.0
 71
     1
 72
     1
  1
^I
  7
Century Gothic_1
 73
     2
 44
1.0
  0
MTEXT
  5
29E
330
286
100
AcDbEntity
  8
G-ANNO-TTLB
100
AcDbMText
 10
174.935785282666
 20
20.51531106318182
 30
0.0
 40
1.8
 41
15.079741875
 46
0.0
 71
     1
 72
     1
  1
09 277 2717
  7
Century Gothic_1
 73
     2
 44
1.0
  0
MTEXT
  5
29F
330
286
100
AcDbEntity
  8
G-ANNO-TTLB
100
AcDbMText
 10
152.075785282666
 20
17.60489439651515
 30
0.0
 40
1.8
 41
13.492400625
 46
0.0
 71
     1
 72
     1
  1
    ALBANY 
  7
Century Gothic_1
 73
     2
 44
1.0
  0
MTEXT
  5
2A0
330
286
100
AcDbEntity
  8
G-ANNO-TTLB
100
AcDbMText
 10
163.208129032666
 20
17.60489439651515
 30
0.0
 40
1.8
 41
14.213919375
 46
0.0
 71
     1
 72
     1
  1
^I^I
  7
Century Gothic_1
 73
     2
 44
1.0
  0
MTEXT
  5
2A1
330
286
100
AcDbEntity
  8
G-ANNO-TTLB
100
AcDbMText
 10
174.935785282666
 20
17.60489439651515
 30
0.0
 40
1.8
 41
15.079741875
 46
0.0
 71
     1
 72
     1
  1
09 972 0060
  7
Century Gothic_1
 73
     2
 44
1.0
  0
MTEXT
  5
2A2
330
286
100
AcDbEntity
  8
G-ANNO-TTLB
100
AcDbMText
 10
152.075785282666
 20
14.69447772984849
 30
0.0
 40
1.8
 41
13.99746375
 46
0.0
 71
     1
 72
     1
  1
    KATIKAIT 
  7
Century Gothic_1
 73
     2
 44
1.0
  0
MTEXT
  5
2A3
330
286
100
AcDbEntity
  8
G-ANNO-TTLB
100
AcDbMText
 10
163.624847782666
 20
14.69447772984849
 30
0.0
 40
1.8
 41
13.70885625
 46
0.0
 71
     1
 72
     1
  1
^I
  7
Century Gothic_1
 73
     2
 44
1.0
  0
MTEXT
  5
2A4
330
286
100
AcDbEntity
  8
G-ANNO-TTLB
100
AcDbMText
 10
174.935785282666
 20
14.69447772984849
 30
0.0
 40
1.8
 41
15.079741875
 46
0.0
 71
     1
 72
     1
  1
07 549 5190
  7
Century Gothic_1
 73
     2
 44
1.0
  0
MTEXT
  5
2A5
330
286
100
AcDbEntity
  8
G-ANNO-TTLB
100
AcDbMText
 10
152.075785282666
 20
11.78406106318182
 30
0.0
 40
1.8
 41
20.274676875
 46
0.0
 71
     1
 72
     1
  1
    WELLINGTON 
  7
Century Gothic_1
 73
     2
 44
1.0
  0
MTEXT
  5
2A6
330
286
100
AcDbEntity
  8
G-ANNO-TTLB
100
AcDbMText
 10
168.804066532666
 20
11.78406106318182
 30
0.0
 40
1.8
 41
7.431643124999999
 46
0.0
 71
     1
 72
     1
  1
^I
  7
Century Gothic_1
 73
     2
 44
1.0
  0
MTEXT
  5
2A7
330
286
100
AcDbEntity
  8
G-ANNO-TTLB
100
AcDbMText
 10
174.935785282666
 20
11.78406106318182
 30
0.0
 40
1.8
 41
15.079741875
 46
0.0
 71
     1
 72
     1
  1
04 974 5792
  7
Century Gothic_1
 73
     2
 44
1.0
  0
MTEXT
  5
2A8
330
286
100
AcDbEntity
  8
G-ANNO-TTLB
100
AcDbMText
 10
187.377816532666
 20
11.78406106318182
 30
0.0
 40
1.8
 41
12.626578125
 46
0.0
 71
     1
 72
     1
  1
^I
  7
Century Gothic_1
 73
     2
 44
1.0
  0
MTEXT
  5
2A9
330
286
100
AcDbEntity
  8
G-ANNO-TTLB
100
AcDbMText
 10
197.795785282666
 20
11.78406106318182
 30
0.0
 40
1.8
 41
41.63163187500001
 46
0.0
 71
     1
 72
     1
  1
WEB: www.theroofingstore.co.nz
  7
Century Gothic_1
 73
     2
 44
1.0
  0
MTEXT
  5
2AA
330
286
100
AcDbEntity
  8
G-ANNO-TTLB
100
AcDbMText
 10
152.075785282666
 20
8.873644396515153
 30
0.0
 40
1.8
 41
23.52151125
 46
0.0
 71
     1
 72
     1
  1
    CHRISTCHURCH 
  7
Century Gothic_1
 73
     2
 44
1.0
  0
MTEXT
  5
2AB
330
286
100
AcDbEntity
  8
G-ANNO-TTLB
100
AcDbMText
 10
171.482972782666
 20
8.873644396515153
 30
0.0
 40
1.8
 41
4.184808749999999
 46
0.0
 71
     1
 72
     1
  1
^I
  7
Century Gothic_1
 73
     2
 44
1.0
  0
MTEXT
  5
2AC
330
286
100
AcDbEntity
  8
G-ANNO-TTLB
100
AcDbMText
 10
174.935785282666
 20
8.873644396515153
 30
0.0
 40
1.8
 41
15.079741875
 46
0.0
 71
     1
 72
     1
  1
03 348 6528
  7
Century Gothic_1
 73
     2
 44
1.0
  0
MTEXT
  5
2AD
330
286
100
AcDbEntity
  8
G-ANNO-TTLB
100
AcDbMText
 10
187.377816532666
 20
8.873644396515153
 30
0.0
 40
1.8
 41
12.626578125
 46
0.0
 71
     1
 72
     1
  1
^I
  7
Century Gothic_1
 73
     2
 44
1.0
  0
MTEXT
  5
2AE
330
286
100
AcDbEntity
  8
G-ANNO-TTLB
100
AcDbMText
 10
197.795785282666
 20
8.873644396515153
 30
0.0
 40
1.8
 41
45.16707375
 46
0.0
 71
     1
 72
     1
  1
Copyright © The Roofing Store 2013
  7
Century Gothic_1
 73
     2
 44
1.0
  0
MTEXT
  5
2AF
330
286
100
AcDbEntity
  8
G-ANNO-TTLB
100
AcDbMText
 10
238.4531881313984
 20
13.76450265283994
 30
0.0
 40
1.8
 41
13.348096875
 46
0.0
 71
     1
 72
     1
  1
Detail No.:
  7
Century Gothic_1
 73
     2
 44
1.0
  0
MTEXT
  5
2B0
330
286
100
AcDbEntity
  8
G-ANNO-TTLB
100
AcDbMText
 10
238.4531881313984
 20
20.51531106318182
 30
0.0
 40
1.8
 41
14.502526875
 46
0.0
 71
     1
 72
     1
  1
Scale:  1 : 5
  7
Century Gothic_1
 73
     2
 44
1.0
  0
ENDBLK
  5
2B2
330
286
100
AcDbEntity
  8
0
100
AcDbBlockEnd
  0
ENDSEC
  0
SECTION
  2
ENTITIES
  0
HATCH
  5
C1
330
70
100
AcDbEntity
  8
A-DETL-GENF
100
AcDbHatch
 10
0.0
 20
0.0
 30
0.0
210
0.0
220
0.0
230
1.0
  2
SOLID
 70
     1
 71
     0
 91
        1
 92
        0
 93
        4
 72
     1
 10
7610.019091520436
 20
4009.331493382269
 11
7610.019091520436
 21
4011.558177521612
 72
     1
 10
7610.019091520436
 20
4011.558177521612
 11
7605.019091520438
 21
4011.558177521612
 72
     1
 10
7605.019091520438
 20
4011.558177521612
 11
7605.019091520438
 21
4009.331493382269
 72
     1
 10
7605.019091520438
 20
4009.331493382269
 11
7610.019091520436
 21
4009.331493382269
 97
        0
 75
     0
 76
     1
 98
        1
 10
0.0
 20
0.0
450
        0
451
        0
460
0.0
461
0.0
452
        0
462
0.0
453
        0
470

1001
REVIT
1002
{
1070
     1
1000
201159
1002
}
1002
{
1070
     5
1000
17867
1002
}
1002
{
1070
     2
1000
-2002000
1002
}
  0
HATCH
  5
C6
330
70
100
AcDbEntity
  8
A-DETL-GENF
100
AcDbHatch
 10
0.0
 20
0.0
 30
0.0
210
0.0
220
0.0
230
1.0
  2
SOLID
 70
     1
 71
     0
 91
        1
 92
        0
 93
        4
 72
     1
 10
7710.019091520438
 20
4009.331493382268
 11
7710.019091520438
 21
4011.558177521612
 72
     1
 10
7710.019091520438
 20
4011.558177521612
 11
7705.019091520438
 21
4011.558177521612
 72
     1
 10
7705.019091520438
 20
4011.558177521612
 11
7705.019091520438
 21
4009.331493382268
 72
     1
 10
7705.019091520438
 20
4009.331493382268
 11
7710.019091520438
 21
4009.331493382268
 97
        0
 75
     0
 76
     1
 98
        1
 10
0.0
 20
0.0
450
        0
451
        0
460
0.0
461
0.0
452
        0
462
0.0
453
        0
470

1001
REVIT
1002
{
1070
     1
1000
201138
1002
}
1002
{
1070
     5
1000
17867
1002
}
1002
{
1070
     2
1000
-2002000
1002
}
  0
LINE
  5
C8
330
70
100
AcDbEntity
  8
A-DETL-THIN
100
AcDbLine
 10
7610.019091520431
 20
4011.558177521608
 30
0.0
 11
7605.019091520431
 21
4011.558177521608
 31
0.0
1001
REVIT
1002
{
1070
     1
1000
201159
1002
}
1002
{
1070
     5
1000
17867
1002
}
1002
{
1070
     2
1000
-2000051
1002
}
1002
{
1070
     3
1000
-2000042
1002
}
  0
LINE
  5
C9
330
70
100
AcDbEntity
  8
A-DETL-THIN
100
AcDbLine
 10
7605.019091520431
 20
4011.558177521608
 30
0.0
 11
7605.019091520431
 21
4009.331493382265
 31
0.0
1001
REVIT
1002
{
1070
     1
1000
201159
1002
}
1002
{
1070
     5
1000
17867
1002
}
1002
{
1070
     2
1000
-2000051
1002
}
1002
{
1070
     3
1000
-2000042
1002
}
  0
LINE
  5
CA
330
70
100
AcDbEntity
  8
A-DETL-THIN
100
AcDbLine
 10
7605.019091520431
 20
4009.331493382265
 30
0.0
 11
7610.019091520431
 21
4009.331493382265
 31
0.0
1001
REVIT
1002
{
1070
     1
1000
201159
1002
}
1002
{
1070
     5
1000
17867
1002
}
1002
{
1070
     2
1000
-2000051
1002
}
1002
{
1070
     3
1000
-2000042
1002
}
  0
LINE
  5
CB
330
70
100
AcDbEntity
  8
A-DETL-THIN
100
AcDbLine
 10
7610.019091520431
 20
4009.331493382265
 30
0.0
 11
7610.019091520431
 21
4011.558177521608
 31
0.0
1001
REVIT
1002
{
1070
     1
1000
201159
1002
}
1002
{
1070
     5
1000
17867
1002
}
1002
{
1070
     2
1000
-2000051
1002
}
1002
{
1070
     3
1000
-2000042
1002
}
  0
LINE
  5
CC
330
70
100
AcDbEntity
  8
A-DETL-THIN
100
AcDbLine
 10
7710.019091520431
 20
4011.558177521608
 30
0.0
 11
7705.019091520431
 21
4011.558177521608
 31
0.0
1001
REVIT
1002
{
1070
     1
1000
201138
1002
}
1002
{
1070
     5
1000
17867
1002
}
1002
{
1070
     2
1000
-2000051
1002
}
1002
{
1070
     3
1000
-2000042
1002
}
  0
LINE
  5
CD
330
70
100
AcDbEntity
  8
A-DETL-THIN
100
AcDbLine
 10
7705.019091520431
 20
4011.558177521608
 30
0.0
 11
7705.019091520431
 21
4009.331493382265
 31
0.0
1001
REVIT
1002
{
1070
     1
1000
201138
1002
}
1002
{
1070
     5
1000
17867
1002
}
1002
{
1070
     2
1000
-2000051
1002
}
1002
{
1070
     3
1000
-2000042
1002
}
  0
LINE
  5
CE
330
70
100
AcDbEntity
  8
A-DETL-THIN
100
AcDbLine
 10
7705.019091520431
 20
4009.331493382265
 30
0.0
 11
7710.019091520431
 21
4009.331493382265
 31
0.0
1001
REVIT
1002
{
1070
     1
1000
201138
1002
}
1002
{
1070
     5
1000
17867
1002
}
1002
{
1070
     2
1000
-2000051
1002
}
1002
{
1070
     3
1000
-2000042
1002
}
  0
LINE
  5
CF
330
70
100
AcDbEntity
  8
A-DETL-THIN
100
AcDbLine
 10
7710.019091520431
 20
4009.331493382265
 30
0.0
 11
7710.019091520431
 21
4011.558177521608
 31
0.0
1001
REVIT
1002
{
1070
     1
1000
201138
1002
}
1002
{
1070
     5
1000
17867
1002
}
1002
{
1070
     2
1000
-2000051
1002
}
1002
{
1070
     3
1000
-2000042
1002
}
  0
SPLINE
  5
D0
330
70
100
AcDbEntity
  8
A-DETL
100
AcDbSpline
210
0.0
220
0.0
230
1.0
 70
     8
 71
     3
 72
     8
 73
     4
 74
     0
 42
0.000000001
 43
0.0000000001
 40
0.2405750851416212
 40
0.2405750851416212
 40
0.2405750851416212
 40
0.2405750851416212
 40
0.4056458978654127
 40
0.4056458978654127
 40
0.4056458978654127
 40
0.4056458978654127
 10
7325.506224700436
 20
3634.804881493268
 30
0.0
 10
7326.335966669789
 20
3634.519687874154
 30
0.0
 10
7327.044735627374
 20
3634.093554140499
 30
0.0
 10
7327.665941269683
 20
3633.562934602261
 30
0.0
1001
REVIT
1002
{
1070
     1
1000
201046
1002
}
1002
{
1070
     2
1000
-2000051
1002
}
1002
{
1070
     3
1000
-2000077
1002
}
  0
SPLINE
  5
D1
330
70
100
AcDbEntity
  8
A-DETL
100
AcDbSpline
210
0.0
220
0.0
230
1.0
 70
     8
 71
     3
 72
     8
 73
     4
 74
     0
 42
0.000000001
 43
0.0000000001
 40
0.0
 40
0.0
 40
0.0
 40
0.0
 40
0.3114191839957685
 40
0.3114191839957685
 40
0.3114191839957685
 40
0.3114191839957685
 10
7261.866378427327
 20
3650.449973111591
 30
0.0
 10
7260.309282507347
 20
3650.449973111591
 30
0.0
 10
7258.710587925292
 20
3650.086290955989
 30
0.0
 10
7257.164120349194
 20
3649.439011861858
 30
0.0
1001
REVIT
1002
{
1070
     1
1000
201046
1002
}
1002
{
1070
     2
1000
-2000051
1002
}
1002
{
1070
     3
1000
-2000077
1002
}
  0
SPLINE
  5
D2
330
70
100
AcDbEntity
  8
A-DETL
100
AcDbSpline
210
0.0
220
0.0
230
1.0
 70
     8
 71
     3
 72
     8
 73
     4
 74
     0
 42
0.000000001
 43
0.0000000001
 40
3.468590303093372
 40
3.468590303093372
 40
3.468590303093372
 40
3.468590303093372
 40
4.12310562561766
 40
4.12310562561766
 40
4.12310562561766
 40
4.12310562561766
 10
7271.559283206489
 20
3649.43600597502
 30
0.0
 10
7268.36499877892
 20
3650.071981663869
 30
0.0
 10
7265.138955039948
 20
3650.449973111591
 30
0.0
 10
7261.866378427325
 20
3650.449973111591
 30
0.0
1001
REVIT
1002
{
1070
     1
1000
201046
1002
}
1002
{
1070
     2
1000
-2000051
1002
}
1002
{
1070
     3
1000
-2000077
1002
}
  0
SPLINE
  5
D3
330
70
100
AcDbEntity
  8
A-DETL
100
AcDbSpline
210
0.0
220
0.0
230
1.0
 70
     8
 71
     3
 72
     9
 73
     5
 74
     0
 42
0.000000001
 43
0.0000000001
 40
0.0
 40
0.0
 40
0.0
 40
0.0
 40
1.414213562373095
 40
1.483747400795887
 40
1.483747400795887
 40
1.483747400795887
 40
1.483747400795887
 10
7321.866378427326
 20
3665.449973111591
 30
0.0
 10
7328.937446239192
 20
3665.449973111591
 30
0.0
 10
7337.25622696528
 20
3657.581214246565
 30
0.0
 10
7336.847210413407
 20
3649.712455381531
 30
0.0
 10
7336.80991880319
 20
3649.344587982703
 30
0.0
1001
REVIT
1002
{
1070
     1
1000
201046
1002
}
1002
{
1070
     2
1000
-2000051
1002
}
1002
{
1070
     3
1000
-2000077
1002
}
  0
SPLINE
  5
D4
330
70
100
AcDbEntity
  8
A-DETL
100
AcDbSpline
210
0.0
220
0.0
230
1.0
 70
     8
 71
     3
 72
     8
 73
     4
 74
     0
 42
0.000000001
 43
0.0000000001
 40
2.349799603323997
 40
2.349799603323997
 40
2.349799603323997
 40
2.349799603323997
 40
2.608608663141154
 40
2.608608663141154
 40
2.608608663141154
 40
2.608608663141154
 10
7328.999949528533
 20
3637.736428531697
 30
0.0
 10
7327.783825475894
 20
3636.964593940522
 30
0.0
 10
7326.502218891548
 20
3636.571721495745
 30
0.0
 10
7325.20025266123
 20
3636.258592672729
 30
0.0
1001
REVIT
1002
{
1070
     1
1000
201046
1002
}
1002
{
1070
     2
1000
-2000051
1002
}
1002
{
1070
     3
1000
-2000077
1002
}
  0
SPLINE
  5
D5
330
70
100
AcDbEntity
  8
A-DETL
100
AcDbSpline
210
0.0
220
0.0
230
1.0
 70
     8
 71
     3
 72
     8
 73
     4
 74
     0
 42
0.000000001
 43
0.0000000001
 40
0.0
 40
0.0
 40
0.0
 40
0.0
 40
3.712039307067626
 40
3.712039307067626
 40
3.712039307067626
 40
3.712039307067626
 10
7261.866378427327
 20
3650.449973111591
 30
0.0
 10
7280.426574962665
 20
3650.449973111591
 30
0.0
 10
7297.490034928168
 20
3662.608122362075
 30
0.0
 10
7315.751787500402
 20
3665.032414197689
 30
0.0
1001
REVIT
1002
{
1070
     1
1000
201046
1002
}
1002
{
1070
     2
1000
-2000051
1002
}
1002
{
1070
     3
1000
-2000077
1002
}
  0
SPLINE
  5
D6
330
70
100
AcDbEntity
  8
A-DETL
100
AcDbSpline
210
0.0
220
0.0
230
1.0
 70
     8
 71
     3
 72
     8
 73
     4
 74
     0
 42
0.000000001
 43
0.0000000001
 40
3.857528123489179
 40
3.857528123489179
 40
3.857528123489179
 40
3.857528123489179
 40
4.12310562561766
 40
4.12310562561766
 40
4.12310562561766
 40
4.12310562561766
 10
7317.904712852831
 20
3665.271289502924
 30
0.0
 10
7319.218264711901
 20
3665.387739514853
 30
0.0
 10
7320.538490916684
 20
3665.449973111591
 30
0.0
 10
7321.866378427326
 20
3665.449973111591
 30
0.0
1001
REVIT
1002
{
1070
     1
1000
201046
1002
}
1002
{
1070
     2
1000
-2000051
1002
}
1002
{
1070
     3
1000
-2000077
1002
}
  0
SPLINE
  5
D7
330
70
100
AcDbEntity
  8
A-DETL
100
AcDbSpline
210
0.0
220
0.0
230
1.0
 70
     8
 71
     3
 72
     9
 73
     5
 74
     0
 42
0.000000001
 43
0.0000000001
 40
0.0
 40
0.0
 40
0.0
 40
0.0
 40
1.414213562373095
 40
2.82842712474619
 40
2.82842712474619
 40
2.82842712474619
 40
2.82842712474619
 10
7261.866378427327
 20
3680.449973111591
 30
0.0
 10
7254.795310615461
 20
3680.449973111591
 30
0.0
 10
7238.937446239193
 20
3665.449973111591
 30
0.0
 10
7254.795310615461
 20
3650.449973111591
 30
0.0
 10
7261.866378427327
 20
3650.449973111591
 30
0.0
1001
REVIT
1002
{
1070
     1
1000
201046
1002
}
1002
{
1070
     2
1000
-2000051
1002
}
1002
{
1070
     3
1000
-2000077
1002
}
  0
SPLINE
  5
D8
330
70
100
AcDbEntity
  8
A-DETL
100
AcDbSpline
210
0.0
220
0.0
230
1.0
 70
     8
 71
     3
 72
     8
 73
     4
 74
     0
 42
0.000000001
 43
0.0000000001
 40
0.0
 40
0.0
 40
0.0
 40
0.0
 40
0.2770037450916804
 40
0.2770037450916804
 40
0.2770037450916804
 40
0.2770037450916804
 10
7321.866378427326
 20
3665.449973111591
 30
0.0
 10
7320.481359701867
 20
3665.449973111591
 30
0.0
 10
7319.104675706086
 20
3665.517677001116
 30
0.0
 10
7317.735206531086
 20
3665.643987641912
 30
0.0
1001
REVIT
1002
{
1070
     1
1000
201046
1002
}
1002
{
1070
     2
1000
-2000051
1002
}
1002
{
1070
     3
1000
-2000077
1002
}
  0
SPLINE
  5
D9
330
70
100
AcDbEntity
  8
A-DETL
100
AcDbSpline
210
0.0
220
0.0
230
1.0
 70
     8
 71
     3
 72
     8
 73
     4
 74
     0
 42
0.000000001
 43
0.0000000001
 40
0.3941100726038547
 40
0.3941100726038547
 40
0.3941100726038547
 40
0.3941100726038547
 40
4.12310562561766
 40
4.12310562561766
 40
4.12310562561766
 40
4.12310562561766
 10
7316.002116664591
 20
3665.834921614846
 30
0.0
 10
7297.645892253709
 20
3668.180495610652
 30
0.0
 10
7280.511356192396
 20
3680.449973111592
 30
0.0
 10
7261.866378427328
 20
3680.449973111592
 30
0.0
1001
REVIT
1002
{
1070
     1
1000
201046
1002
}
1002
{
1070
     2
1000
-2000051
1002
}
1002
{
1070
     3
1000
-2000077
1002
}
  0
SPLINE
  5
DA
330
70
100
AcDbEntity
  8
A-DETL
100
AcDbSpline
210
0.0
220
0.0
230
1.0
 70
     8
 71
     3
 72
     9
 73
     5
 74
     0
 42
0.000000001
 43
0.0000000001
 40
0.0
 40
0.0
 40
0.0
 40
0.0
 40
1.414213562373095
 40
2.82842712474619
 40
2.82842712474619
 40
2.82842712474619
 40
2.82842712474619
 10
7321.866378427326
 20
3695.449973111591
 30
0.0
 10
7328.937446239192
 20
3695.449973111591
 30
0.0
 10
7344.795310615459
 20
3680.449973111592
 30
0.0
 10
7328.937446239192
 20
3665.449973111591
 30
0.0
 10
7321.866378427327
 20
3665.449973111591
 30
0.0
1001
REVIT
1002
{
1070
     1
1000
201046
1002
}
1002
{
1070
     2
1000
-2000051
1002
}
1002
{
1070
     3
1000
-2000077
1002
}
  0
SPLINE
  5
DB
330
70
100
AcDbEntity
  8
A-DETL
100
AcDbSpline
210
0.0
220
0.0
230
1.0
 70
     8
 71
     3
 72
     8
 73
     4
 74
     0
 42
0.000000001
 43
0.0000000001
 40
0.0
 40
0.0
 40
0.0
 40
0.0
 40
4.12310562561766
 40
4.12310562561766
 40
4.12310562561766
 40
4.12310562561766
 10
7261.866378427327
 20
3680.449973111591
 30
0.0
 10
7282.481906555415
 20
3680.449973111591
 30
0.0
 10
7301.250850299237
 20
3695.449973111591
 30
0.0
 10
7321.866378427326
 20
3695.44997311159
 30
0.0
1001
REVIT
1002
{
1070
     1
1000
201046
1002
}
1002
{
1070
     2
1000
-2000051
1002
}
1002
{
1070
     3
1000
-2000077
1002
}
  0
SPLINE
  5
DC
330
70
100
AcDbEntity
  8
A-DETL
100
AcDbSpline
210
0.0
220
0.0
230
1.0
 70
     8
 71
     3
 72
     9
 73
     5
 74
     0
 42
0.000000001
 43
0.0000000001
 40
0.0
 40
0.0
 40
0.0
 40
0.0
 40
1.414213562373095
 40
2.82842712474619
 40
2.82842712474619
 40
2.82842712474619
 40
2.82842712474619
 10
7261.866378427327
 20
3710.449973111592
 30
0.0
 10
7254.795310615461
 20
3710.449973111592
 30
0.0
 10
7238.937446239193
 20
3695.449973111591
 30
0.0
 10
7254.795310615461
 20
3680.449973111592
 30
0.0
 10
7261.866378427327
 20
3680.449973111592
 30
0.0
1001
REVIT
1002
{
1070
     1
1000
201046
1002
}
1002
{
1070
     2
1000
-2000051
1002
}
1002
{
1070
     3
1000
-2000077
1002
}
  0
SPLINE
  5
DD
330
70
100
AcDbEntity
  8
A-DETL
100
AcDbSpline
210
0.0
220
0.0
230
1.0
 70
     8
 71
     3
 72
     8
 73
     4
 74
     0
 42
0.000000001
 43
0.0000000001
 40
0.0
 40
0.0
 40
0.0
 40
0.0
 40
4.12310562561766
 40
4.12310562561766
 40
4.12310562561766
 40
4.12310562561766
 10
7321.866378427326
 20
3695.449973111591
 30
0.0
 10
7301.250850299237
 20
3695.449973111591
 30
0.0
 10
7282.481906555415
 20
3710.449973111591
 30
0.0
 10
7261.866378427327
 20
3710.449973111592
 30
0.0
1001
REVIT
1002
{
1070
     1
1000
201046
1002
}
1002
{
1070
     2
1000
-2000051
1002
}
1002
{
1070
     3
1000
-2000077
1002
}
  0
SPLINE
  5
DE
330
70
100
AcDbEntity
  8
A-DETL
100
AcDbSpline
210
0.0
220
0.0
230
1.0
 70
     8
 71
     3
 72
     9
 73
     5
 74
     0
 42
0.000000001
 43
0.0000000001
 40
0.0
 40
0.0
 40
0.0
 40
0.0
 40
1.414213562373095
 40
2.82842712474619
 40
2.82842712474619
 40
2.82842712474619
 40
2.82842712474619
 10
7321.866378427326
 20
3725.449973111591
 30
0.0
 10
7328.937446239192
 20
3725.449973111591
 30
0.0
 10
7344.795310615459
 20
3710.449973111591
 30
0.0
 10
7328.937446239192
 20
3695.44997311159
 30
0.0
 10
7321.866378427327
 20
3695.449973111591
 30
0.0
1001
REVIT
1002
{
1070
     1
1000
201046
1002
}
1002
{
1070
     2
1000
-2000051
1002
}
1002
{
1070
     3
1000
-2000077
1002
}
  0
SPLINE
  5
DF
330
70
100
AcDbEntity
  8
A-DETL
100
AcDbSpline
210
0.0
220
0.0
230
1.0
 70
     8
 71
     3
 72
     8
 73
     4
 74
     0
 42
0.000000001
 43
0.0000000001
 40
0.0
 40
0.0
 40
0.0
 40
0.0
 40
4.12310562561766
 40
4.12310562561766
 40
4.12310562561766
 40
4.12310562561766
 10
7261.866378427327
 20
3710.449973111592
 30
0.0
 10
7282.481906555415
 20
3710.449973111592
 30
0.0
 10
7301.250850299237
 20
3725.449973111591
 30
0.0
 10
7321.866378427326
 20
3725.449973111591
 30
0.0
1001
REVIT
1002
{
1070
     1
1000
201046
1002
}
1002
{
1070
     2
1000
-2000051
1002
}
1002
{
1070
     3
1000
-2000077
1002
}
  0
SPLINE
  5
E0
330
70
100
AcDbEntity
  8
A-DETL
100
AcDbSpline
210
0.0
220
0.0
230
1.0
 70
     8
 71
     3
 72
     9
 73
     5
 74
     0
 42
0.000000001
 43
0.0000000001
 40
0.0
 40
0.0
 40
0.0
 40
0.0
 40
1.414213562373095
 40
2.82842712474619
 40
2.82842712474619
 40
2.82842712474619
 40
2.82842712474619
 10
7261.866378427327
 20
3740.449973111591
 30
0.0
 10
7254.795310615461
 20
3740.449973111591
 30
0.0
 10
7238.937446239193
 20
3725.449973111591
 30
0.0
 10
7254.795310615461
 20
3710.449973111592
 30
0.0
 10
7261.866378427327
 20
3710.449973111591
 30
0.0
1001
REVIT
1002
{
1070
     1
1000
201046
1002
}
1002
{
1070
     2
1000
-2000051
1002
}
1002
{
1070
     3
1000
-2000077
1002
}
  0
SPLINE
  5
E1
330
70
100
AcDbEntity
  8
A-DETL
100
AcDbSpline
210
0.0
220
0.0
230
1.0
 70
     8
 71
     3
 72
     8
 73
     4
 74
     0
 42
0.000000001
 43
0.0000000001
 40
0.0
 40
0.0
 40
0.0
 40
0.0
 40
4.12310562561766
 40
4.12310562561766
 40
4.12310562561766
 40
4.12310562561766
 10
7321.866378427326
 20
3725.449973111591
 30
0.0
 10
7301.250850299237
 20
3725.449973111591
 30
0.0
 10
7282.481906555415
 20
3740.449973111591
 30
0.0
 10
7261.866378427327
 20
3740.449973111591
 30
0.0
1001
REVIT
1002
{
1070
     1
1000
201046
1002
}
1002
{
1070
     2
1000
-2000051
1002
}
1002
{
1070
     3
1000
-2000077
1002
}
  0
SPLINE
  5
E2
330
70
100
AcDbEntity
  8
A-DETL
100
AcDbSpline
210
0.0
220
0.0
230
1.0
 70
     8
 71
     3
 72
     9
 73
     5
 74
     0
 42
0.000000001
 43
0.0000000001
 40
0.0
 40
0.0
 40
0.0
 40
0.0
 40
1.414213562373095
 40
2.82842712474619
 40
2.82842712474619
 40
2.82842712474619
 40
2.82842712474619
 10
7321.866378427326
 20
3755.449973111591
 30
0.0
 10
7328.937446239192
 20
3755.449973111591
 30
0.0
 10
7344.795310615459
 20
3740.449973111589
 30
0.0
 10
7328.937446239192
 20
3725.44997311159
 30
0.0
 10
7321.866378427327
 20
3725.449973111591
 30
0.0
1001
REVIT
1002
{
1070
     1
1000
201046
1002
}
1002
{
1070
     2
1000
-2000051
1002
}
1002
{
1070
     3
1000
-2000077
1002
}
  0
SPLINE
  5
E3
330
70
100
AcDbEntity
  8
A-DETL
100
AcDbSpline
210
0.0
220
0.0
230
1.0
 70
     8
 71
     3
 72
     8
 73
     4
 74
     0
 42
0.000000001
 43
0.0000000001
 40
0.0
 40
0.0
 40
0.0
 40
0.0
 40
4.12310562561766
 40
4.12310562561766
 40
4.12310562561766
 40
4.12310562561766
 10
7261.866378427327
 20
3740.449973111591
 30
0.0
 10
7282.481906555415
 20
3740.449973111591
 30
0.0
 10
7301.250850299237
 20
3755.449973111592
 30
0.0
 10
7321.866378427326
 20
3755.449973111591
 30
0.0
1001
REVIT
1002
{
1070
     1
1000
201046
1002
}
1002
{
1070
     2
1000
-2000051
1002
}
1002
{
1070
     3
1000
-2000077
1002
}
  0
SPLINE
  5
E4
330
70
100
AcDbEntity
  8
A-DETL
100
AcDbSpline
210
0.0
220
0.0
230
1.0
 70
     8
 71
     3
 72
     9
 73
     5
 74
     0
 42
0.000000001
 43
0.0000000001
 40
0.0
 40
0.0
 40
0.0
 40
0.0
 40
1.414213562373095
 40
2.82842712474619
 40
2.82842712474619
 40
2.82842712474619
 40
2.82842712474619
 10
7261.866378427327
 20
3770.449973111591
 30
0.0
 10
7254.795310615461
 20
3770.449973111591
 30
0.0
 10
7238.937446239193
 20
3755.449973111592
 30
0.0
 10
7254.795310615461
 20
3740.449973111591
 30
0.0
 10
7261.866378427327
 20
3740.449973111591
 30
0.0
1001
REVIT
1002
{
1070
     1
1000
201046
1002
}
1002
{
1070
     2
1000
-2000051
1002
}
1002
{
1070
     3
1000
-2000077
1002
}
  0
SPLINE
  5
E5
330
70
100
AcDbEntity
  8
A-DETL
100
AcDbSpline
210
0.0
220
0.0
230
1.0
 70
     8
 71
     3
 72
     8
 73
     4
 74
     0
 42
0.000000001
 43
0.0000000001
 40
0.0
 40
0.0
 40
0.0
 40
0.0
 40
4.12310562561766
 40
4.12310562561766
 40
4.12310562561766
 40
4.12310562561766
 10
7321.866378427326
 20
3755.449973111591
 30
0.0
 10
7301.250850299237
 20
3755.449973111591
 30
0.0
 10
7282.481906555415
 20
3770.449973111591
 30
0.0
 10
7261.866378427327
 20
3770.449973111591
 30
0.0
1001
REVIT
1002
{
1070
     1
1000
201046
1002
}
1002
{
1070
     2
1000
-2000051
1002
}
1002
{
1070
     3
1000
-2000077
1002
}
  0
SPLINE
  5
E6
330
70
100
AcDbEntity
  8
A-DETL
100
AcDbSpline
210
0.0
220
0.0
230
1.0
 70
     8
 71
     3
 72
     9
 73
     5
 74
     0
 42
0.000000001
 43
0.0000000001
 40
0.0
 40
0.0
 40
0.0
 40
0.0
 40
1.414213562373095
 40
2.82842712474619
 40
2.82842712474619
 40
2.82842712474619
 40
2.82842712474619
 10
7321.866378427326
 20
3785.449973111591
 30
0.0
 10
7328.937446239192
 20
3785.449973111591
 30
0.0
 10
7344.795310615459
 20
3770.449973111592
 30
0.0
 10
7328.937446239192
 20
3755.449973111591
 30
0.0
 10
7321.866378427327
 20
3755.449973111592
 30
0.0
1001
REVIT
1002
{
1070
     1
1000
201046
1002
}
1002
{
1070
     2
1000
-2000051
1002
}
1002
{
1070
     3
1000
-2000077
1002
}
  0
SPLINE
  5
E7
330
70
100
AcDbEntity
  8
A-DETL
100
AcDbSpline
210
0.0
220
0.0
230
1.0
 70
     8
 71
     3
 72
     8
 73
     4
 74
     0
 42
0.000000001
 43
0.0000000001
 40
0.0
 40
0.0
 40
0.0
 40
0.0
 40
4.12310562561766
 40
4.12310562561766
 40
4.12310562561766
 40
4.12310562561766
 10
7261.866378427327
 20
3770.449973111591
 30
0.0
 10
7282.481906555415
 20
3770.449973111591
 30
0.0
 10
7301.250850299237
 20
3785.449973111591
 30
0.0
 10
7321.866378427326
 20
3785.44997311159
 30
0.0
1001
REVIT
1002
{
1070
     1
1000
201046
1002
}
1002
{
1070
     2
1000
-2000051
1002
}
1002
{
1070
     3
1000
-2000077
1002
}
  0
SPLINE
  5
E8
330
70
100
AcDbEntity
  8
A-DETL
100
AcDbSpline
210
0.0
220
0.0
230
1.0
 70
     8
 71
     3
 72
     9
 73
     5
 74
     0
 42
0.000000001
 43
0.0000000001
 40
0.0
 40
0.0
 40
0.0
 40
0.0
 40
1.414213562373095
 40
2.82842712474619
 40
2.82842712474619
 40
2.82842712474619
 40
2.82842712474619
 10
7261.866378427328
 20
3800.449973111591
 30
0.0
 10
7254.795310615462
 20
3800.449973111591
 30
0.0
 10
7238.937446239191
 20
3785.44997311159
 30
0.0
 10
7254.795310615462
 20
3770.44997311159
 30
0.0
 10
7261.866378427327
 20
3770.449973111592
 30
0.0
1001
REVIT
1002
{
1070
     1
1000
201046
1002
}
1002
{
1070
     2
1000
-2000051
1002
}
1002
{
1070
     3
1000
-2000077
1002
}
  0
SPLINE
  5
E9
330
70
100
AcDbEntity
  8
A-DETL
100
AcDbSpline
210
0.0
220
0.0
230
1.0
 70
     8
 71
     3
 72
     8
 73
     4
 74
     0
 42
0.000000001
 43
0.0000000001
 40
0.0
 40
0.0
 40
0.0
 40
0.0
 40
4.12310562561766
 40
4.12310562561766
 40
4.12310562561766
 40
4.12310562561766
 10
7321.866378427326
 20
3785.449973111591
 30
0.0
 10
7301.250850299237
 20
3785.449973111591
 30
0.0
 10
7282.481906555415
 20
3800.449973111591
 30
0.0
 10
7261.866378427328
 20
3800.449973111592
 30
0.0
1001
REVIT
1002
{
1070
     1
1000
201046
1002
}
1002
{
1070
     2
1000
-2000051
1002
}
1002
{
1070
     3
1000
-2000077
1002
}
  0
SPLINE
  5
EA
330
70
100
AcDbEntity
  8
A-DETL
100
AcDbSpline
210
0.0
220
0.0
230
1.0
 70
     8
 71
     3
 72
     9
 73
     5
 74
     0
 42
0.000000001
 43
0.0000000001
 40
0.0
 40
0.0
 40
0.0
 40
0.0
 40
1.414213562373095
 40
2.82842712474619
 40
2.82842712474619
 40
2.82842712474619
 40
2.82842712474619
 10
7321.866378427327
 20
3815.449973111591
 30
0.0
 10
7328.937446239193
 20
3815.449973111591
 30
0.0
 10
7344.795310615461
 20
3800.449973111591
 30
0.0
 10
7328.937446239192
 20
3785.449973111592
 30
0.0
 10
7321.866378427326
 20
3785.449973111591
 30
0.0
1001
REVIT
1002
{
1070
     1
1000
201046
1002
}
1002
{
1070
     2
1000
-2000051
1002
}
1002
{
1070
     3
1000
-2000077
1002
}
  0
SPLINE
  5
EB
330
70
100
AcDbEntity
  8
A-DETL
100
AcDbSpline
210
0.0
220
0.0
230
1.0
 70
     8
 71
     3
 72
     8
 73
     4
 74
     0
 42
0.000000001
 43
0.0000000001
 40
0.0
 40
0.0
 40
0.0
 40
0.0
 40
4.12310562561766
 40
4.12310562561766
 40
4.12310562561766
 40
4.12310562561766
 10
7261.866378427328
 20
3800.449973111591
 30
0.0
 10
7282.481906555415
 20
3800.449973111591
 30
0.0
 10
7301.250850299239
 20
3815.449973111591
 30
0.0
 10
7321.866378427327
 20
3815.449973111591
 30
0.0
1001
REVIT
1002
{
1070
     1
1000
201046
1002
}
1002
{
1070
     2
1000
-2000051
1002
}
1002
{
1070
     3
1000
-2000077
1002
}
  0
SPLINE
  5
EC
330
70
100
AcDbEntity
  8
A-DETL
100
AcDbSpline
210
0.0
220
0.0
230
1.0
 70
     8
 71
     3
 72
     9
 73
     5
 74
     0
 42
0.000000001
 43
0.0000000001
 40
0.0
 40
0.0
 40
0.0
 40
0.0
 40
1.414213562373095
 40
2.82842712474619
 40
2.82842712474619
 40
2.82842712474619
 40
2.82842712474619
 10
7261.866378427328
 20
3830.449973111591
 30
0.0
 10
7254.795310615462
 20
3830.449973111591
 30
0.0
 10
7238.937446239194
 20
3815.44997311159
 30
0.0
 10
7254.795310615462
 20
3800.449973111591
 30
0.0
 10
7261.866378427328
 20
3800.449973111592
 30
0.0
1001
REVIT
1002
{
1070
     1
1000
201046
1002
}
1002
{
1070
     2
1000
-2000051
1002
}
1002
{
1070
     3
1000
-2000077
1002
}
  0
SPLINE
  5
ED
330
70
100
AcDbEntity
  8
A-DETL
100
AcDbSpline
210
0.0
220
0.0
230
1.0
 70
     8
 71
     3
 72
     8
 73
     4
 74
     0
 42
0.000000001
 43
0.0000000001
 40
0.0
 40
0.0
 40
0.0
 40
0.0
 40
4.12310562561766
 40
4.12310562561766
 40
4.12310562561766
 40
4.12310562561766
 10
7321.866378427327
 20
3815.449973111591
 30
0.0
 10
7301.250850299239
 20
3815.449973111591
 30
0.0
 10
7282.481906555415
 20
3830.449973111591
 30
0.0
 10
7261.866378427328
 20
3830.449973111592
 30
0.0
1001
REVIT
1002
{
1070
     1
1000
201046
1002
}
1002
{
1070
     2
1000
-2000051
1002
}
1002
{
1070
     3
1000
-2000077
1002
}
  0
SPLINE
  5
EE
330
70
100
AcDbEntity
  8
A-DETL
100
AcDbSpline
210
0.0
220
0.0
230
1.0
 70
     8
 71
     3
 72
     9
 73
     5
 74
     0
 42
0.000000001
 43
0.0000000001
 40
0.0
 40
0.0
 40
0.0
 40
0.0
 40
1.414213562373095
 40
2.82842712474619
 40
2.82842712474619
 40
2.82842712474619
 40
2.82842712474619
 10
7321.866378427327
 20
3845.449973111591
 30
0.0
 10
7328.937446239193
 20
3845.449973111591
 30
0.0
 10
7344.795310615461
 20
3830.449973111592
 30
0.0
 10
7328.937446239192
 20
3815.449973111591
 30
0.0
 10
7321.866378427327
 20
3815.44997311159
 30
0.0
1001
REVIT
1002
{
1070
     1
1000
201046
1002
}
1002
{
1070
     2
1000
-2000051
1002
}
1002
{
1070
     3
1000
-2000077
1002
}
  0
SPLINE
  5
EF
330
70
100
AcDbEntity
  8
A-DETL
100
AcDbSpline
210
0.0
220
0.0
230
1.0
 70
     8
 71
     3
 72
     8
 73
     4
 74
     0
 42
0.000000001
 43
0.0000000001
 40
0.0
 40
0.0
 40
0.0
 40
0.0
 40
4.12310562561766
 40
4.12310562561766
 40
4.12310562561766
 40
4.12310562561766
 10
7261.866378427328
 20
3830.449973111591
 30
0.0
 10
7282.481906555415
 20
3830.449973111591
 30
0.0
 10
7301.250850299239
 20
3845.449973111591
 30
0.0
 10
7321.866378427327
 20
3845.44997311159
 30
0.0
1001
REVIT
1002
{
1070
     1
1000
201046
1002
}
1002
{
1070
     2
1000
-2000051
1002
}
1002
{
1070
     3
1000
-2000077
1002
}
  0
SPLINE
  5
F0
330
70
100
AcDbEntity
  8
A-DETL
100
AcDbSpline
210
0.0
220
0.0
230
1.0
 70
     8
 71
     3
 72
     9
 73
     5
 74
     0
 42
0.000000001
 43
0.0000000001
 40
0.0
 40
0.0
 40
0.0
 40
0.0
 40
1.414213562373095
 40
2.82842712474619
 40
2.82842712474619
 40
2.82842712474619
 40
2.82842712474619
 10
7261.866378427328
 20
3860.449973111592
 30
0.0
 10
7254.795310615462
 20
3860.449973111592
 30
0.0
 10
7238.937446239194
 20
3845.449973111591
 30
0.0
 10
7254.795310615462
 20
3830.449973111591
 30
0.0
 10
7261.866378427328
 20
3830.449973111591
 30
0.0
1001
REVIT
1002
{
1070
     1
1000
201046
1002
}
1002
{
1070
     2
1000
-2000051
1002
}
1002
{
1070
     3
1000
-2000077
1002
}
  0
SPLINE
  5
F1
330
70
100
AcDbEntity
  8
A-DETL
100
AcDbSpline
210
0.0
220
0.0
230
1.0
 70
     8
 71
     3
 72
     8
 73
     4
 74
     0
 42
0.000000001
 43
0.0000000001
 40
0.0
 40
0.0
 40
0.0
 40
0.0
 40
4.12310562561766
 40
4.12310562561766
 40
4.12310562561766
 40
4.12310562561766
 10
7321.866378427327
 20
3845.449973111591
 30
0.0
 10
7301.250850299239
 20
3845.449973111591
 30
0.0
 10
7282.481906555415
 20
3860.449973111591
 30
0.0
 10
7261.866378427328
 20
3860.449973111591
 30
0.0
1001
REVIT
1002
{
1070
     1
1000
201046
1002
}
1002
{
1070
     2
1000
-2000051
1002
}
1002
{
1070
     3
1000
-2000077
1002
}
  0
SPLINE
  5
F2
330
70
100
AcDbEntity
  8
A-DETL
100
AcDbSpline
210
0.0
220
0.0
230
1.0
 70
     8
 71
     3
 72
     9
 73
     5
 74
     0
 42
0.000000001
 43
0.0000000001
 40
0.0
 40
0.0
 40
0.0
 40
0.0
 40
1.414213562373095
 40
2.82842712474619
 40
2.82842712474619
 40
2.82842712474619
 40
2.82842712474619
 10
7321.866378427327
 20
3875.449973111591
 30
0.0
 10
7328.937446239193
 20
3875.449973111591
 30
0.0
 10
7344.795310615461
 20
3860.449973111591
 30
0.0
 10
7328.937446239192
 20
3845.44997311159
 30
0.0
 10
7321.866378427327
 20
3845.449973111591
 30
0.0
1001
REVIT
1002
{
1070
     1
1000
201046
1002
}
1002
{
1070
     2
1000
-2000051
1002
}
1002
{
1070
     3
1000
-2000077
1002
}
  0
SPLINE
  5
F3
330
70
100
AcDbEntity
  8
A-DETL
100
AcDbSpline
210
0.0
220
0.0
230
1.0
 70
     8
 71
     3
 72
     8
 73
     4
 74
     0
 42
0.000000001
 43
0.0000000001
 40
0.0
 40
0.0
 40
0.0
 40
0.0
 40
4.12310562561766
 40
4.12310562561766
 40
4.12310562561766
 40
4.12310562561766
 10
7261.866378427328
 20
3860.449973111592
 30
0.0
 10
7282.481906555415
 20
3860.449973111592
 30
0.0
 10
7301.250850299239
 20
3875.449973111591
 30
0.0
 10
7321.866378427327
 20
3875.449973111591
 30
0.0
1001
REVIT
1002
{
1070
     1
1000
201046
1002
}
1002
{
1070
     2
1000
-2000051
1002
}
1002
{
1070
     3
1000
-2000077
1002
}
  0
SPLINE
  5
F4
330
70
100
AcDbEntity
  8
A-DETL
100
AcDbSpline
210
0.0
220
0.0
230
1.0
 70
     8
 71
     3
 72
     9
 73
     5
 74
     0
 42
0.000000001
 43
0.0000000001
 40
0.0
 40
0.0
 40
0.0
 40
0.0
 40
1.414213562373095
 40
2.82842712474619
 40
2.82842712474619
 40
2.82842712474619
 40
2.82842712474619
 10
7261.866378427328
 20
3890.449973111591
 30
0.0
 10
7254.795310615462
 20
3890.449973111591
 30
0.0
 10
7238.937446239194
 20
3875.449973111591
 30
0.0
 10
7254.795310615462
 20
3860.44997311159
 30
0.0
 10
7261.866378427328
 20
3860.449973111592
 30
0.0
1001
REVIT
1002
{
1070
     1
1000
201046
1002
}
1002
{
1070
     2
1000
-2000051
1002
}
1002
{
1070
     3
1000
-2000077
1002
}
  0
SPLINE
  5
F5
330
70
100
AcDbEntity
  8
A-DETL
100
AcDbSpline
210
0.0
220
0.0
230
1.0
 70
     8
 71
     3
 72
     8
 73
     4
 74
     0
 42
0.000000001
 43
0.0000000001
 40
0.0
 40
0.0
 40
0.0
 40
0.0
 40
4.12310562561766
 40
4.12310562561766
 40
4.12310562561766
 40
4.12310562561766
 10
7321.866378427327
 20
3875.449973111591
 30
0.0
 10
7301.250850299239
 20
3875.449973111591
 30
0.0
 10
7282.481906555415
 20
3890.449973111591
 30
0.0
 10
7261.866378427328
 20
3890.449973111591
 30
0.0
1001
REVIT
1002
{
1070
     1
1000
201046
1002
}
1002
{
1070
     2
1000
-2000051
1002
}
1002
{
1070
     3
1000
-2000077
1002
}
  0
SPLINE
  5
F6
330
70
100
AcDbEntity
  8
A-DETL
100
AcDbSpline
210
0.0
220
0.0
230
1.0
 70
     8
 71
     3
 72
     9
 73
     5
 74
     0
 42
0.000000001
 43
0.0000000001
 40
0.0
 40
0.0
 40
0.0
 40
0.0
 40
1.414213562373095
 40
2.82842712474619
 40
2.82842712474619
 40
2.82842712474619
 40
2.82842712474619
 10
7321.866378427327
 20
3905.449973111591
 30
0.0
 10
7328.937446239193
 20
3905.449973111591
 30
0.0
 10
7344.795310615461
 20
3890.449973111591
 30
0.0
 10
7328.937446239192
 20
3875.449973111591
 30
0.0
 10
7321.866378427327
 20
3875.449973111591
 30
0.0
1001
REVIT
1002
{
1070
     1
1000
201046
1002
}
1002
{
1070
     2
1000
-2000051
1002
}
1002
{
1070
     3
1000
-2000077
1002
}
  0
SPLINE
  5
F7
330
70
100
AcDbEntity
  8
A-DETL
100
AcDbSpline
210
0.0
220
0.0
230
1.0
 70
     8
 71
     3
 72
     8
 73
     4
 74
     0
 42
0.000000001
 43
0.0000000001
 40
0.0
 40
0.0
 40
0.0
 40
0.0
 40
4.12310562561766
 40
4.12310562561766
 40
4.12310562561766
 40
4.12310562561766
 10
7261.866378427328
 20
3890.449973111591
 30
0.0
 10
7282.481906555415
 20
3890.449973111591
 30
0.0
 10
7301.250850299239
 20
3905.449973111591
 30
0.0
 10
7321.866378427327
 20
3905.449973111591
 30
0.0
1001
REVIT
1002
{
1070
     1
1000
201046
1002
}
1002
{
1070
     2
1000
-2000051
1002
}
1002
{
1070
     3
1000
-2000077
1002
}
  0
SPLINE
  5
F8
330
70
100
AcDbEntity
  8
A-DETL
100
AcDbSpline
210
0.0
220
0.0
230
1.0
 70
     8
 71
     3
 72
     9
 73
     5
 74
     0
 42
0.000000001
 43
0.0000000001
 40
0.0
 40
0.0
 40
0.0
 40
0.0
 40
1.414213562373095
 40
2.82842712474619
 40
2.82842712474619
 40
2.82842712474619
 40
2.82842712474619
 10
7261.866378427328
 20
3920.449973111591
 30
0.0
 10
7254.795310615462
 20
3920.449973111591
 30
0.0
 10
7238.937446239194
 20
3905.449973111592
 30
0.0
 10
7254.795310615462
 20
3890.449973111591
 30
0.0
 10
7261.866378427328
 20
3890.449973111591
 30
0.0
1001
REVIT
1002
{
1070
     1
1000
201046
1002
}
1002
{
1070
     2
1000
-2000051
1002
}
1002
{
1070
     3
1000
-2000077
1002
}
  0
SPLINE
  5
F9
330
70
100
AcDbEntity
  8
A-DETL
100
AcDbSpline
210
0.0
220
0.0
230
1.0
 70
     8
 71
     3
 72
     8
 73
     4
 74
     0
 42
0.000000001
 43
0.0000000001
 40
0.0
 40
0.0
 40
0.0
 40
0.0
 40
4.12310562561766
 40
4.12310562561766
 40
4.12310562561766
 40
4.12310562561766
 10
7321.866378427327
 20
3905.449973111591
 30
0.0
 10
7301.250850299239
 20
3905.449973111591
 30
0.0
 10
7282.481906555415
 20
3920.449973111591
 30
0.0
 10
7261.866378427328
 20
3920.449973111591
 30
0.0
1001
REVIT
1002
{
1070
     1
1000
201046
1002
}
1002
{
1070
     2
1000
-2000051
1002
}
1002
{
1070
     3
1000
-2000077
1002
}
  0
SPLINE
  5
FA
330
70
100
AcDbEntity
  8
A-DETL
100
AcDbSpline
210
0.0
220
0.0
230
1.0
 70
     8
 71
     3
 72
     9
 73
     5
 74
     0
 42
0.000000001
 43
0.0000000001
 40
0.0
 40
0.0
 40
0.0
 40
0.0
 40
1.414213562373095
 40
2.82842712474619
 40
2.82842712474619
 40
2.82842712474619
 40
2.82842712474619
 10
7321.866378427327
 20
3935.449973111591
 30
0.0
 10
7328.937446239193
 20
3935.449973111591
 30
0.0
 10
7344.795310615461
 20
3920.449973111591
 30
0.0
 10
7328.937446239192
 20
3905.44997311159
 30
0.0
 10
7321.866378427327
 20
3905.449973111591
 30
0.0
1001
REVIT
1002
{
1070
     1
1000
201046
1002
}
1002
{
1070
     2
1000
-2000051
1002
}
1002
{
1070
     3
1000
-2000077
1002
}
  0
SPLINE
  5
FB
330
70
100
AcDbEntity
  8
A-DETL
100
AcDbSpline
210
0.0
220
0.0
230
1.0
 70
     8
 71
     3
 72
     8
 73
     4
 74
     0
 42
0.000000001
 43
0.0000000001
 40
0.0
 40
0.0
 40
0.0
 40
0.0
 40
4.12310562561766
 40
4.12310562561766
 40
4.12310562561766
 40
4.12310562561766
 10
7261.866378427328
 20
3920.449973111591
 30
0.0
 10
7282.481906555415
 20
3920.449973111591
 30
0.0
 10
7301.250850299239
 20
3935.449973111591
 30
0.0
 10
7321.866378427327
 20
3935.449973111591
 30
0.0
1001
REVIT
1002
{
1070
     1
1000
201046
1002
}
1002
{
1070
     2
1000
-2000051
1002
}
1002
{
1070
     3
1000
-2000077
1002
}
  0
SPLINE
  5
FC
330
70
100
AcDbEntity
  8
A-DETL
100
AcDbSpline
210
0.0
220
0.0
230
1.0
 70
     8
 71
     3
 72
     9
 73
     5
 74
     0
 42
0.000000001
 43
0.0000000001
 40
0.0
 40
0.0
 40
0.0
 40
0.0
 40
1.414213562373095
 40
2.82842712474619
 40
2.82842712474619
 40
2.82842712474619
 40
2.82842712474619
 10
7261.866378427328
 20
3950.449973111591
 30
0.0
 10
7254.795310615462
 20
3950.449973111591
 30
0.0
 10
7238.937446239194
 20
3935.449973111591
 30
0.0
 10
7254.795310615462
 20
3920.449973111591
 30
0.0
 10
7261.866378427328
 20
3920.449973111591
 30
0.0
1001
REVIT
1002
{
1070
     1
1000
201046
1002
}
1002
{
1070
     2
1000
-2000051
1002
}
1002
{
1070
     3
1000
-2000077
1002
}
  0
SPLINE
  5
FD
330
70
100
AcDbEntity
  8
A-DETL
100
AcDbSpline
210
0.0
220
0.0
230
1.0
 70
     8
 71
     3
 72
     8
 73
     4
 74
     0
 42
0.000000001
 43
0.0000000001
 40
0.0
 40
0.0
 40
0.0
 40
0.0
 40
4.12310562561766
 40
4.12310562561766
 40
4.12310562561766
 40
4.12310562561766
 10
7321.866378427327
 20
3935.449973111591
 30
0.0
 10
7301.250850299239
 20
3935.449973111591
 30
0.0
 10
7282.481906555415
 20
3950.449973111591
 30
0.0
 10
7261.866378427328
 20
3950.449973111591
 30
0.0
1001
REVIT
1002
{
1070
     1
1000
201046
1002
}
1002
{
1070
     2
1000
-2000051
1002
}
1002
{
1070
     3
1000
-2000077
1002
}
  0
SPLINE
  5
FE
330
70
100
AcDbEntity
  8
A-DETL
100
AcDbSpline
210
0.0
220
0.0
230
1.0
 70
     8
 71
     3
 72
     9
 73
     5
 74
     0
 42
0.000000001
 43
0.0000000001
 40
0.0
 40
0.0
 40
0.0
 40
0.0
 40
1.414213562373095
 40
2.82842712474619
 40
2.82842712474619
 40
2.82842712474619
 40
2.82842712474619
 10
7321.866378427327
 20
3965.449973111591
 30
0.0
 10
7328.937446239193
 20
3965.449973111591
 30
0.0
 10
7344.795310615461
 20
3950.449973111589
 30
0.0
 10
7328.937446239192
 20
3935.44997311159
 30
0.0
 10
7321.866378427327
 20
3935.449973111591
 30
0.0
1001
REVIT
1002
{
1070
     1
1000
201046
1002
}
1002
{
1070
     2
1000
-2000051
1002
}
1002
{
1070
     3
1000
-2000077
1002
}
  0
SPLINE
  5
FF
330
70
100
AcDbEntity
  8
A-DETL
100
AcDbSpline
210
0.0
220
0.0
230
1.0
 70
     8
 71
     3
 72
     8
 73
     4
 74
     0
 42
0.000000001
 43
0.0000000001
 40
0.0
 40
0.0
 40
0.0
 40
0.0
 40
4.12310562561766
 40
4.12310562561766
 40
4.12310562561766
 40
4.12310562561766
 10
7261.866378427328
 20
3950.449973111591
 30
0.0
 10
7282.481906555415
 20
3950.449973111591
 30
0.0
 10
7301.250850299239
 20
3965.449973111592
 30
0.0
 10
7321.866378427327
 20
3965.449973111591
 30
0.0
1001
REVIT
1002
{
1070
     1
1000
201046
1002
}
1002
{
1070
     2
1000
-2000051
1002
}
1002
{
1070
     3
1000
-2000077
1002
}
  0
SPLINE
  5
100
330
70
100
AcDbEntity
  8
A-DETL
100
AcDbSpline
210
0.0
220
0.0
230
1.0
 70
     8
 71
     3
 72
     9
 73
     5
 74
     0
 42
0.000000001
 43
0.0000000001
 40
0.0
 40
0.0
 40
0.0
 40
0.0
 40
1.414213562373095
 40
2.82842712474619
 40
2.82842712474619
 40
2.82842712474619
 40
2.82842712474619
 10
7261.866378427328
 20
3980.449973111591
 30
0.0
 10
7254.795310615462
 20
3980.449973111591
 30
0.0
 10
7238.937446239194
 20
3965.449973111592
 30
0.0
 10
7254.795310615462
 20
3950.449973111592
 30
0.0
 10
7261.866378427328
 20
3950.449973111591
 30
0.0
1001
REVIT
1002
{
1070
     1
1000
201046
1002
}
1002
{
1070
     2
1000
-2000051
1002
}
1002
{
1070
     3
1000
-2000077
1002
}
  0
SPLINE
  5
101
330
70
100
AcDbEntity
  8
A-DETL
100
AcDbSpline
210
0.0
220
0.0
230
1.0
 70
     8
 71
     3
 72
     8
 73
     4
 74
     0
 42
0.000000001
 43
0.0000000001
 40
0.0
 40
0.0
 40
0.0
 40
0.0
 40
4.12310562561766
 40
4.12310562561766
 40
4.12310562561766
 40
4.12310562561766
 10
7321.866378427327
 20
3965.449973111591
 30
0.0
 10
7301.250850299239
 20
3965.449973111591
 30
0.0
 10
7282.481906555415
 20
3980.449973111591
 30
0.0
 10
7261.866378427328
 20
3980.449973111591
 30
0.0
1001
REVIT
1002
{
1070
     1
1000
201046
1002
}
1002
{
1070
     2
1000
-2000051
1002
}
1002
{
1070
     3
1000
-2000077
1002
}
  0
SPLINE
  5
102
330
70
100
AcDbEntity
  8
A-DETL
100
AcDbSpline
210
0.0
220
0.0
230
1.0
 70
     8
 71
     3
 72
     8
 73
     4
 74
     0
 42
0.000000001
 43
0.0000000001
 40
0.0
 40
0.0
 40
0.0
 40
0.0
 40
1.414213562373095
 40
1.414213562373095
 40
1.414213562373095
 40
1.414213562373095
 10
7336.866378427327
 20
3980.449973111591
 30
0.0
 10
7336.866378427327
 20
3973.378905299725
 30
0.0
 10
7328.937446239193
 20
3965.449973111592
 30
0.0
 10
7321.866378427327
 20
3965.449973111591
 30
0.0
1001
REVIT
1002
{
1070
     1
1000
201046
1002
}
1002
{
1070
     2
1000
-2000051
1002
}
1002
{
1070
     3
1000
-2000077
1002
}
  0
INSERT
  5
10A
330
70
100
AcDbEntity
  8
A-DETL-GENF
100
AcDbBlockReference
  2
FP Timber Nog Packer1 - Variable-101811-W-TRSIL-06A - Soffit Flashing Detail
 10
7697.308704330993
 20
4200.449973111587
 30
0.0
 50
269.9999999999997
1001
REVIT
1002
{
1070
     1
1000
201027
1002
}
1002
{
1070
     5
1000
44489
1002
}
1002
{
1070
     2
1000
-2002000
1002
}
  0
INSERT
  5
113
330
70
100
AcDbEntity
  8
A-DETL-GENF
100
AcDbBlockReference
  2
FP Timber Nog Packer1 - Variable-101812-W-TRSIL-06A - Soffit Flashing Detail
 10
7216.866378427326
 20
4035.44997311159
 30
0.0
1001
REVIT
1002
{
1070
     1
1000
201030
1002
}
1002
{
1070
     5
1000
44489
1002
}
1002
{
1070
     2
1000
-2002000
1002
}
  0
INSERT
  5
11C
330
70
100
AcDbEntity
  8
A-DETL-GENF
100
AcDbBlockReference
  2
FP Timber Nog Packer1 - Variable-46933-W-TRSIL-06A - Soffit Flashing Detail
 10
7246.866378427327
 20
4000.449973111592
 30
0.0
1001
REVIT
1002
{
1070
     1
1000
201031
1002
}
1002
{
1070
     5
1000
44489
1002
}
1002
{
1070
     2
1000
-2002000
1002
}
  0
INSERT
  5
122
330
70
100
AcDbEntity
  8
A-DETL-GENF
100
AcDbBlockReference
  2
HP_WProof - Building Wrap - HP_WProof - Building Wrap-152135-W-TRSIL-06A - Soffit Flashing Detail
 10
7338.927702750213
 20
3610.449973111592
 30
0.0
 50
180.0
1001
REVIT
1002
{
1070
     1
1000
201035
1002
}
1002
{
1070
     5
1000
59792
1002
}
1002
{
1070
     2
1000
-2002000
1002
}
  0
HATCH
  5
127
330
70
100
AcDbEntity
  8
A-DETL-GENF
100
AcDbHatch
 10
0.0
 20
0.0
 30
0.0
210
0.0
220
0.0
230
1.0
  2
FP_1
 70
     0
 71
     0
 91
        1
 92
        0
 93
        4
 72
     1
 10
7342.8490506309
 20
3649.34674411043
 11
7360.849050630903
 21
3649.34674411043
 72
     1
 10
7360.849050630903
 20
3649.34674411043
 11
7360.849050630903
 21
3961.852058517349
 72
     1
 10
7360.849050630903
 20
3961.852058517349
 11
7342.849050630903
 21
3961.852058517349
 72
     1
 10
7342.849050630903
 20
3961.852058517349
 11
7342.8490506309
 21
3649.34674411043
 97
        0
 75
     0
 76
     2
 52
0.0
 41
1.0
 77
     0
 78
     2
 53
0.0
 43
0.0
 44
0.0
 45
0.0
 46
11.0
 79
     0
 53
90.0
 43
0.0
 44
0.0
 45
-11.0
 46
0.0000000000000007
 79
     0
 98
        1
 10
0.0
 20
0.0
1001
REVIT
1002
{
1070
     1
1000
201038
1002
}
1002
{
1070
     5
1000
14996
1002
}
1002
{
1070
     2
1000
-2002000
1002
}
  0
LINE
  5
128
330
70
100
AcDbEntity
  8
A-DETL-THIN
100
AcDbLine
 10
7342.849050630896
 20
3961.852058517345
 30
0.0
 11
7342.849050630895
 21
3649.346744110427
 31
0.0
1001
REVIT
1002
{
1070
     1
1000
201038
1002
}
1002
{
1070
     5
1000
14996
1002
}
1002
{
1070
     2
1000
-2000051
1002
}
1002
{
1070
     3
1000
-2000042
1002
}
  0
LINE
  5
129
330
70
100
AcDbEntity
  8
A-DETL-THIN
100
AcDbLine
 10
7360.849050630895
 20
3649.346744110427
 30
0.0
 11
7360.849050630896
 21
3961.852058517345
 31
0.0
1001
REVIT
1002
{
1070
     1
1000
201038
1002
}
1002
{
1070
     5
1000
14996
1002
}
1002
{
1070
     2
1000
-2000051
1002
}
1002
{
1070
     3
1000
-2000042
1002
}
  0
LINE
  5
12A
330
70
100
AcDbEntity
  8
A-DETL-THIN
100
AcDbLine
 10
7360.849050630896
 20
3961.852058517345
 30
0.0
 11
7342.849050630896
 21
3961.852058517345
 31
0.0
1001
REVIT
1002
{
1070
     1
1000
201038
1002
}
1002
{
1070
     5
1000
14996
1002
}
1002
{
1070
     2
1000
-2000051
1002
}
1002
{
1070
     3
1000
-2000042
1002
}
  0
INSERT
  5
133
330
70
100
AcDbEntity
  8
A-DETL-GENF
100
AcDbBlockReference
  2
CAVIBAT Batten Profile - Non Cavibat-98797-W-TRSIL-06A - Soffit Flashing Detail
 10
7360.849050630896
 20
3962.014354178558
 30
0.0
 50
180.0
1001
REVIT
1002
{
1070
     1
1000
201043
1002
}
1002
{
1070
     5
1000
98797
1002
}
1002
{
1070
     2
1000
-2002000
1002
}
  0
LINE
  5
134
330
70
100
AcDbEntity
  8
A-DETL-THIN
100
AcDbLine
 10
7652.308704330993
 20
4200.449973111587
 30
0.0
 11
7036.866378427328
 21
4200.449973111589
 31
0.0
1001
REVIT
1002
{
1070
     1
1000
201028
1002
}
1002
{
1070
     2
1000
-2000051
1002
}
1002
{
1070
     3
1000
-2000042
1002
}
  0
LINE
  5
135
330
70
100
AcDbEntity
  8
A-DETL-THIN
100
AcDbLine
 10
7704.808704330988
 20
4060.449973111587
 30
0.0
 11
7036.866378427328
 21
4060.449973111588
 31
0.0
1001
REVIT
1002
{
1070
     1
1000
201029
1002
}
1002
{
1070
     2
1000
-2000051
1002
}
1002
{
1070
     3
1000
-2000042
1002
}
  0
LINE
  5
136
330
70
100
AcDbEntity
  8
A-DETL-THIN
100
AcDbLine
 10
7336.866378427328
 20
4060.449973111587
 30
0.0
 11
7336.866378427327
 21
3649.346744110427
 31
0.0
1001
REVIT
1002
{
1070
     1
1000
201032
1002
}
1002
{
1070
     2
1000
-2000051
1002
}
1002
{
1070
     3
1000
-2000042
1002
}
  0
HATCH
  5
13B
330
70
100
AcDbEntity
  8
A-DETL-GENF
100
AcDbHatch
 10
0.0
 20
0.0
 30
0.0
210
0.0
220
0.0
230
1.0
  2
FP_2
 70
     0
 71
     0
 91
        1
 92
        0
 93
        4
 72
     1
 10
7246.866378427334
 20
3649.346744110431
 11
7246.866378427331
 21
4012.449973111599
 72
     1
 10
7246.866378427331
 20
4012.449973111599
 11
7233.866378427335
 21
4012.449973111599
 72
     1
 10
7233.866378427335
 20
4012.449973111599
 11
7233.866378427336
 21
3649.346744110431
 72
     1
 10
7233.866378427336
 20
3649.346744110431
 11
7246.866378427334
 21
3649.346744110431
 97
        0
 75
     0
 76
     2
 52
0.0
 41
1.0
 77
     0
 78
     9
 53
0.0
 43
0.0
 44
0.0
 45
20.32
 46
5.08
 79
     5
 49
1.675999999999999
 49
-13.564
 49
1.675999999999999
 49
-13.564
 49
-81.28
 53
0.0
 43
0.0
 44
0.0
 45
20.32
 46
5.08
 79
     6
 49
-30.48
 49
1.675999999999999
 49
-28.804
 49
1.675999999999999
 49
-13.564
 49
-35.56
 53
0.0
 43
0.0
 44
0.0
 45
20.32
 46
5.08
 79
     5
 49
-76.2
 49
1.675999999999999
 49
-8.483999999999999
 49
1.675999999999999
 49
-23.724
 53
120.0
 43
7.62
 44
2.54
 45
-14.55940905122494
 46
15.0576362048998
 79
     5
 49
1.675999999999999
 49
-13.564
 49
1.675999999999999
 49
-13.564
 49
-81.27999999999998
 53
120.0
 43
7.62
 44
2.54
 45
-14.55940905122494
 46
15.0576362048998
 79
     6
 49
-30.48
 49
1.675999999999999
 49
-28.804
 49
1.675999999999999
 49
-13.564
 49
-35.56
 53
120.0
 43
7.62
 44
2.54
 45
-14.55940905122494
 46
15.0576362048998
 79
     5
 49
-76.19999999999999
 49
1.675999999999999
 49
-8.483999999999998
 49
1.675999999999999
 49
-23.724
 53
240.0
 43
10.16
 44
12.7
 45
-5.760590948775045
 46
-20.1376362048998
 79
     5
 49
1.675999999999999
 49
-13.564
 49
1.675999999999999
 49
-13.564
 49
-81.28
 53
240.0
 43
10.16
 44
12.7
 45
-5.760590948775045
 46
-20.1376362048998
 79
     6
 49
-30.48
 49
1.675999999999999
 49
-28.804
 49
1.675999999999999
 49
-13.564
 49
-35.56
 53
240.0
 43
10.16
 44
12.7
 45
-5.760590948775045
 46
-20.1376362048998
 79
     5
 49
-76.2
 49
1.675999999999999
 49
-8.483999999999999
 49
1.675999999999999
 49
-23.724
 98
        1
 10
0.0
 20
0.0
1001
REVIT
1002
{
1070
     1
1000
201049
1002
}
1002
{
1070
     5
1000
17941
1002
}
1002
{
1070
     2
1000
-2002000
1002
}
  0
LINE
  5
13C
330
70
100
AcDbEntity
  8
A-DETL
100
AcDbLine
 10
7233.866378427329
 20
4012.449973111595
 30
0.0
 11
7233.866378427331
 21
3649.346744110427
 31
0.0
1001
REVIT
1002
{
1070
     1
1000
201049
1002
}
1002
{
1070
     5
1000
17941
1002
}
1002
{
1070
     2
1000
-2000051
1002
}
1002
{
1070
     3
1000
16210
1002
}
  0
LINE
  5
13D
330
70
100
AcDbEntity
  8
A-DETL
100
AcDbLine
 10
7246.866378427327
 20
3649.346744110427
 30
0.0
 11
7246.866378427326
 21
4012.449973111595
 31
0.0
1001
REVIT
1002
{
1070
     1
1000
201049
1002
}
1002
{
1070
     5
1000
17941
1002
}
1002
{
1070
     2
1000
-2000051
1002
}
1002
{
1070
     3
1000
16210
1002
}
  0
HATCH
  5
142
330
70
100
AcDbEntity
  8
A-DETL-GENF
100
AcDbHatch
 10
0.0
 20
0.0
 30
0.0
210
0.0
220
0.0
230
1.0
  2
FP_2
 70
     0
 71
     0
 91
        1
 92
        0
 93
        4
 72
     1
 10
7036.866378427333
 20
4012.449973111599
 11
7246.866378427333
 21
4012.449973111599
 72
     1
 10
7246.866378427333
 20
4012.449973111599
 11
7246.866378427333
 21
4025.449973111596
 72
     1
 10
7246.866378427333
 20
4025.449973111596
 11
7036.866378427333
 21
4025.449973111595
 72
     1
 10
7036.866378427333
 20
4025.449973111595
 11
7036.866378427333
 21
4012.449973111599
 97
        0
 75
     0
 76
     2
 52
0.0
 41
1.0
 77
     0
 78
     9
 53
0.0
 43
0.0
 44
0.0
 45
20.32
 46
5.08
 79
     5
 49
1.675999999999999
 49
-13.564
 49
1.675999999999999
 49
-13.564
 49
-81.28
 53
0.0
 43
0.0
 44
0.0
 45
20.32
 46
5.08
 79
     6
 49
-30.48
 49
1.675999999999999
 49
-28.804
 49
1.675999999999999
 49
-13.564
 49
-35.56
 53
0.0
 43
0.0
 44
0.0
 45
20.32
 46
5.08
 79
     5
 49
-76.2
 49
1.675999999999999
 49
-8.483999999999999
 49
1.675999999999999
 49
-23.724
 53
120.0
 43
7.62
 44
2.54
 45
-14.55940905122494
 46
15.0576362048998
 79
     5
 49
1.675999999999999
 49
-13.564
 49
1.675999999999999
 49
-13.564
 49
-81.27999999999998
 53
120.0
 43
7.62
 44
2.54
 45
-14.55940905122494
 46
15.0576362048998
 79
     6
 49
-30.48
 49
1.675999999999999
 49
-28.804
 49
1.675999999999999
 49
-13.564
 49
-35.56
 53
120.0
 43
7.62
 44
2.54
 45
-14.55940905122494
 46
15.0576362048998
 79
     5
 49
-76.19999999999999
 49
1.675999999999999
 49
-8.483999999999998
 49
1.675999999999999
 49
-23.724
 53
240.0
 43
10.16
 44
12.7
 45
-5.760590948775045
 46
-20.1376362048998
 79
     5
 49
1.675999999999999
 49
-13.564
 49
1.675999999999999
 49
-13.564
 49
-81.28
 53
240.0
 43
10.16
 44
12.7
 45
-5.760590948775045
 46
-20.1376362048998
 79
     6
 49
-30.48
 49
1.675999999999999
 49
-28.804
 49
1.675999999999999
 49
-13.564
 49
-35.56
 53
240.0
 43
10.16
 44
12.7
 45
-5.760590948775045
 46
-20.1376362048998
 79
     5
 49
-76.2
 49
1.675999999999999
 49
-8.483999999999999
 49
1.675999999999999
 49
-23.724
 98
        1
 10
0.0
 20
0.0
1001
REVIT
1002
{
1070
     1
1000
201056
1002
}
1002
{
1070
     5
1000
17941
1002
}
1002
{
1070
     2
1000
-2002000
1002
}
  0
LINE
  5
143
330
70
100
AcDbEntity
  8
A-DETL
100
AcDbLine
 10
7036.866378427328
 20
4012.449973111595
 30
0.0
 11
7246.866378427327
 21
4012.449973111595
 31
0.0
1001
REVIT
1002
{
1070
     1
1000
201056
1002
}
1002
{
1070
     5
1000
17941
1002
}
1002
{
1070
     2
1000
-2000051
1002
}
1002
{
1070
     3
1000
16210
1002
}
  0
LINE
  5
144
330
70
100
AcDbEntity
  8
A-DETL
100
AcDbLine
 10
7246.866378427327
 20
4012.449973111595
 30
0.0
 11
7246.866378427327
 21
4025.449973111593
 31
0.0
1001
REVIT
1002
{
1070
     1
1000
201056
1002
}
1002
{
1070
     5
1000
17941
1002
}
1002
{
1070
     2
1000
-2000051
1002
}
1002
{
1070
     3
1000
16210
1002
}
  0
LINE
  5
145
330
70
100
AcDbEntity
  8
A-DETL
100
AcDbLine
 10
7246.866378427327
 20
4025.449973111593
 30
0.0
 11
7036.866378427328
 21
4025.449973111591
 31
0.0
1001
REVIT
1002
{
1070
     1
1000
201056
1002
}
1002
{
1070
     5
1000
17941
1002
}
1002
{
1070
     2
1000
-2000051
1002
}
1002
{
1070
     3
1000
16210
1002
}
  0
LINE
  5
147
330
70
100
AcDbEntity
  8
A-DETL-MEDM
100
AcDbLine
 10
7340.927726483724
 20
4052.538202566315
 30
0.0
 11
7340.927726483724
 21
4018.353312639861
 31
0.0
1001
REVIT
1002
{
1070
     1
1000
201074
1002
}
1002
{
1070
     2
1000
-2000051
1002
}
1002
{
1070
     3
1000
-2000043
1002
}
  0
LINE
  5
148
330
70
100
AcDbEntity
  8
A-DETL-MEDM
100
AcDbLine
 10
7340.927726483724
 20
4018.353312639861
 30
0.0
 11
7392.519091520428
 21
4004.529448041859
 31
0.0
1001
REVIT
1002
{
1070
     1
1000
201075
1002
}
1002
{
1070
     2
1000
-2000051
1002
}
1002
{
1070
     3
1000
-2000043
1002
}
  0
LINE
  5
149
330
70
100
AcDbEntity
  8
A-DETL-MEDM
100
AcDbLine
 10
7392.519091520428
 20
4004.529448041859
 30
0.0
 11
7392.519091520428
 21
3922.229765589165
 31
0.0
1001
REVIT
1002
{
1070
     1
1000
201076
1002
}
1002
{
1070
     2
1000
-2000051
1002
}
1002
{
1070
     3
1000
-2000043
1002
}
  0
LINE
  5
14A
330
70
100
AcDbEntity
  8
A-DETL-MEDM
100
AcDbLine
 10
7342.909242139455
 20
4052.538202566315
 30
0.0
 11
7342.909242139455
 21
4038.37625951082
 31
0.0
1001
REVIT
1002
{
1070
     1
1000
201077
1002
}
1002
{
1070
     2
1000
-2000051
1002
}
1002
{
1070
     3
1000
-2000043
1002
}
  0
ARC
  5
14B
330
70
100
AcDbEntity
  8
A-DETL-MEDM
100
AcDbCircle
 10
7341.918484311588
 20
4052.538202566315
 30
0.0
 40
0.990757827865309
100
AcDbArc
 50
0.0
 51
180.0
1001
REVIT
1002
{
1070
     1
1000
201078
1002
}
1002
{
1070
     2
1000
-2000051
1002
}
1002
{
1070
     3
1000
-2000043
1002
}
  0
LINE
  5
14C
330
70
100
AcDbEntity
  8
A-DETL-MEDM
100
AcDbLine
 10
7392.519091520428
 20
3922.229765589165
 30
0.0
 11
7399.590159332294
 21
3915.158697777299
 31
0.0
1001
REVIT
1002
{
1070
     1
1000
201079
1002
}
1002
{
1070
     2
1000
-2000051
1002
}
1002
{
1070
     3
1000
-2000043
1002
}
  0
INSERT
  5
161
330
70
100
AcDbEntity
  8
A-DETL-GENF
100
AcDbBlockReference
  2
TRS Interlocking profile - Interlocking 260-113920-W-TRSIL-06A - Soffit Flashing Detail
 10
6879.366378427327
 20
4035.079861973798
 30
0.0
 50
180.0
1001
REVIT
1002
{
1070
     1
1000
201080
1002
}
1002
{
1070
     5
1000
113920
1002
}
1002
{
1070
     2
1000
-2002000
1002
}
  0
HATCH
  5
167
330
70
100
AcDbEntity
  8
A-DETL-GENF
100
AcDbHatch
 10
0.0
 20
0.0
 30
0.0
210
0.0
220
0.0
230
1.0
  2
FP_1
 70
     0
 71
     0
 91
        1
 92
        0
 93
        5
 72
     1
 10
7670.019091520437
 20
4037.579861973798
 11
7670.019091520437
 21
4055.579861973799
 72
     1
 10
7670.019091520437
 20
4055.579861973799
 11
7393.163711298031
 21
4055.579861973799
 72
     1
 10
7393.163711298031
 20
4055.579861973799
 11
7393.163711298031
 21
4037.579861973799
 72
     1
 10
7393.163711298031
 20
4037.579861973799
 11
7571.689353071585
 21
4037.579861973799
 72
     1
 10
7571.689353071585
 20
4037.579861973799
 11
7670.019091520437
 21
4037.579861973798
 97
        0
 75
     0
 76
     2
 52
0.0
 41
1.0
 77
     0
 78
     2
 53
0.0
 43
0.0
 44
0.0
 45
0.0
 46
11.0
 79
     0
 53
90.0
 43
0.0
 44
0.0
 45
-11.0
 46
0.0000000000000007
 79
     0
 98
        1
 10
0.0
 20
0.0
1001
REVIT
1002
{
1070
     1
1000
201083
1002
}
1002
{
1070
     5
1000
14996
1002
}
1002
{
1070
     2
1000
-2002000
1002
}
  0
LINE
  5
168
330
70
100
AcDbEntity
  8
A-DETL-THIN
100
AcDbLine
 10
7393.163711298024
 20
4037.579861973795
 30
0.0
 11
7670.019091520432
 21
4037.579861973794
 31
0.0
1001
REVIT
1002
{
1070
     1
1000
201083
1002
}
1002
{
1070
     5
1000
14996
1002
}
1002
{
1070
     2
1000
-2000051
1002
}
1002
{
1070
     3
1000
-2000042
1002
}
  0
LINE
  5
169
330
70
100
AcDbEntity
  8
A-DETL-THIN
100
AcDbLine
 10
7670.019091520432
 20
4037.579861973794
 30
0.0
 11
7670.019091520432
 21
4055.579861973795
 31
0.0
1001
REVIT
1002
{
1070
     1
1000
201083
1002
}
1002
{
1070
     5
1000
14996
1002
}
1002
{
1070
     2
1000
-2000051
1002
}
1002
{
1070
     3
1000
-2000042
1002
}
  0
LINE
  5
16A
330
70
100
AcDbEntity
  8
A-DETL-THIN
100
AcDbLine
 10
7670.019091520432
 20
4055.579861973795
 30
0.0
 11
7393.163711298024
 21
4055.579861973796
 31
0.0
1001
REVIT
1002
{
1070
     1
1000
201083
1002
}
1002
{
1070
     5
1000
14996
1002
}
1002
{
1070
     2
1000
-2000051
1002
}
1002
{
1070
     3
1000
-2000042
1002
}
  0
LINE
  5
16B
330
70
100
AcDbEntity
  8
A-DETL-THIN
100
AcDbLine
 10
7393.163711298024
 20
4055.579861973796
 30
0.0
 11
7393.163711298024
 21
4037.579861973795
 31
0.0
1001
REVIT
1002
{
1070
     1
1000
201083
1002
}
1002
{
1070
     5
1000
14996
1002
}
1002
{
1070
     2
1000
-2000051
1002
}
1002
{
1070
     3
1000
-2000042
1002
}
  0
INSERT
  5
16C
330
70
100
AcDbEntity
  8
A-DETL-GENF
100
AcDbBlockReference
  2
CAVIBAT Batten Profile - Non Cavibat-98797-W-TRSIL-06A - Soffit Flashing Detail
 10
7393.001415636807
 20
4055.579861973796
 30
0.0
 50
269.9999999999999
1001
REVIT
1002
{
1070
     1
1000
201088
1002
}
1002
{
1070
     5
1000
98797
1002
}
1002
{
1070
     2
1000
-2002000
1002
}
  0
INSERT
  5
171
330
70
100
AcDbEntity
  8
A-DETL-GENF
100
AcDbBlockReference
  2
HP_WProof - Building Wrap - HP_WProof - Building Wrap-203651-W-TRSIL-06A - Soffit Flashing Detail
 10
7722.308704330991
 20
4058.596143921815
 30
0.0
 50
270.0
1001
REVIT
1002
{
1070
     1
1000
201091
1002
}
1002
{
1070
     5
1000
59792
1002
}
1002
{
1070
     2
1000
-2002000
1002
}
  0
INSERT
  5
172
330
70
100
AcDbEntity
  8
A-DETL-GENF
100
AcDbBlockReference
  2
CAVIBAT Batten Profile - Non Cavibat-98797-W-TRSIL-06A - Soffit Flashing Detail
 10
7717.019091520431
 20
4055.579861973795
 30
0.0
 50
269.9999999999999
1001
REVIT
1002
{
1070
     1
1000
201103
1002
}
1002
{
1070
     5
1000
98797
1002
}
1002
{
1070
     2
1000
-2002000
1002
}
  0
INSERT
  5
181
330
70
100
AcDbEntity
  8
A-DETL-GENF
100
AcDbBlockReference
  2
TRS Interlocking profile soffit end flashing - Interlocking 260-204056-W-TRSIL-06A - Soffit Flashing Detail
 10
7748.456591520429
 20
3378.702510557636
 30
0.0
 50
269.9999999999999
1001
REVIT
1002
{
1070
     1
1000
201104
1002
}
1002
{
1070
     5
1000
204056
1002
}
1002
{
1070
     2
1000
-2002000
1002
}
  0
INSERT
  5
1B7
330
70
100
AcDbEntity
  8
A-DETL-GENF
100
AcDbBlockReference
  2
Hex head timberfix screw - Hex head timberfix screw-99997-W-TRSIL-06A - Soffit Flashing Detail
 10
7367.909242139456
 20
4032.063786849398
 30
0.0
 50
180.0
1001
REVIT
1002
{
1070
     1
1000
201132
1002
}
1002
{
1070
     5
1000
98793
1002
}
1002
{
1070
     2
1000
-2002000
1002
}
  0
INSERT
  5
1B8
330
70
100
AcDbEntity
  8
A-DETL-GENF
100
AcDbBlockReference
  2
Hex head timberfix screw - Hex head timberfix screw-99997-W-TRSIL-06A - Soffit Flashing Detail
 10
7662.933704330988
 20
4034.563786849399
 30
0.0
 50
180.0
1001
REVIT
1002
{
1070
     1
1000
201133
1002
}
1002
{
1070
     5
1000
98793
1002
}
1002
{
1070
     2
1000
-2002000
1002
}
  0
INSERT
  5
1BD
330
70
100
AcDbEntity
  8
A-DETL-GENF
100
AcDbBlockReference
  2
HP_WProof - Building Wrap - HP_WProof - Building Wrap-152103-W-TRSIL-06A - Soffit Flashing Detail
 10
7363.349050630896
 20
3590.449973111593
 30
0.0
 50
180.0
1001
REVIT
1002
{
1070
     1
1000
201150
1002
}
1002
{
1070
     5
1000
59792
1002
}
1002
{
1070
     2
1000
-2002000
1002
}
  0
INSERT
  5
1C2
330
70
100
AcDbEntity
  8
A-DETL-GENF
100
AcDbBlockReference
  2
HP_WProof - Building Wrap - HP_WProof - Building Wrap-203624-W-TRSIL-06A - Soffit Flashing Detail
 10
7717.019091520431
 20
4035.972189035627
 30
0.0
 50
270.0
1001
REVIT
1002
{
1070
     1
1000
201151
1002
}
1002
{
1070
     5
1000
59792
1002
}
1002
{
1070
     2
1000
-2002000
1002
}
  0
LINE
  5
1C3
330
70
100
AcDbEntity
  8
A-DETL-THIN
100
AcDbLine
 10
7389.662458334921
 20
3649.346744110427
 30
0.0
 11
7389.662458334921
 21
3999.764870338522
 31
0.0
1001
REVIT
1002
{
1070
     1
1000
201206
1002
}
1002
{
1070
     5
1000
17873
1002
}
1002
{
1070
     2
1000
-2000051
1002
}
1002
{
1070
     3
1000
-2000042
1002
}
  0
LINE
  5
1C4
330
70
100
AcDbEntity
  8
A-DETL-THIN
100
AcDbLine
 10
7389.662458334921
 20
3999.764870338522
 30
0.0
 11
7365.06245833492
 21
3999.764870338522
 31
0.0
1001
REVIT
1002
{
1070
     1
1000
201206
1002
}
1002
{
1070
     5
1000
17873
1002
}
1002
{
1070
     2
1000
-2000051
1002
}
1002
{
1070
     3
1000
-2000042
1002
}
  0
LINE
  5
1C5
330
70
100
AcDbEntity
  8
A-DETL-THIN
100
AcDbLine
 10
7365.06245833492
 20
3999.764870338522
 30
0.0
 11
7365.06245833492
 21
3649.346744110427
 31
0.0
1001
REVIT
1002
{
1070
     1
1000
201206
1002
}
1002
{
1070
     5
1000
17873
1002
}
1002
{
1070
     2
1000
-2000051
1002
}
1002
{
1070
     3
1000
-2000042
1002
}
  0
INSERT
  5
1CE
330
70
100
AcDbEntity
  8
A-DETL-GENF
100
AcDbBlockReference
  2
Break Line1 - Break Line-201420-W-TRSIL-06A - Soffit Flashing Detail
 10
7321.866378427326
 20
3649.346744110431
 30
0.0
 50
180.0
1001
REVIT
1002
{
1070
     1
1000
201045
1002
}
1002
{
1070
     5
1000
101506
1002
}
1002
{
1070
     2
1000
-2002000
1002
}
  0
INSERT
  5
1D6
330
70
100
AcDbEntity
  8
A-DETL-GENF
100
AcDbBlockReference
  2
FP Timber Nog Packer1 - Variable-45636-W-TRSIL-06A - Soffit Flashing Detail
 10
7652.308704330991
 20
4205.449973111588
 30
0.0
1001
REVIT
1002
{
1070
     1
1000
204810
1002
}
1002
{
1070
     5
1000
44489
1002
}
1002
{
1070
     2
1000
-2002000
1002
}
  0
LINE
  5
1D7
330
70
100
AcDbEntity
  8
A-DETL
100
AcDbLine
 10
7718.558704330992
 20
4232.949973111587
 30
0.0
 11
7036.866378427328
 21
4232.94997311159
 31
0.0
1001
REVIT
1002
{
1070
     1
1000
204811
1002
}
1002
{
1070
     2
1000
-2000051
1002
}
1002
{
1070
     3
1000
15813
1002
}
  0
LINE
  5
1D8
330
70
100
AcDbEntity
  8
A-DETL-MEDM
100
AcDbLine
 10
7591.640106223391
 20
4240.467416495967
 30
0.0
 11
7606.771376000809
 21
4262.077109268063
 31
0.0
1001
REVIT
1002
{
1070
     1
1000
204812
1002
}
1002
{
1070
     2
1000
-2000051
1002
}
1002
{
1070
     3
1000
-2000043
1002
}
  0
LINE
  5
1D9
330
70
100
AcDbEntity
  8
A-DETL-MEDM
100
AcDbLine
 10
7606.771376000809
 20
4262.077109268063
 30
0.0
 11
7616.839079330993
 21
4262.077109268063
 31
0.0
1001
REVIT
1002
{
1070
     1
1000
204813
1002
}
1002
{
1070
     2
1000
-2000051
1002
}
1002
{
1070
     3
1000
-2000043
1002
}
  0
LINE
  5
1DA
330
70
100
AcDbEntity
  8
A-DETL-MEDM
100
AcDbLine
 10
7627.778329330991
 20
4262.077109268063
 30
0.0
 11
7744.600905482355
 21
4262.077109268063
 31
0.0
1001
REVIT
1002
{
1070
     1
1000
204813
1002
}
1002
{
1070
     2
1000
-2000051
1002
}
1002
{
1070
     3
1000
-2000043
1002
}
  0
LINE
  5
1DB
330
70
100
AcDbEntity
  8
A-DETL-MEDM
100
AcDbLine
 10
7744.600905482355
 20
4262.077109268063
 30
0.0
 11
7744.600905482355
 21
4149.577109268063
 31
0.0
1001
REVIT
1002
{
1070
     1
1000
204814
1002
}
1002
{
1070
     2
1000
-2000051
1002
}
1002
{
1070
     3
1000
-2000043
1002
}
  0
LINE
  5
1DC
330
70
100
AcDbEntity
  8
A-DETL-MEDM
100
AcDbLine
 10
7744.600905482355
 20
4149.577109268063
 30
0.0
 11
7755.207507200154
 21
4138.970507550265
 31
0.0
1001
REVIT
1002
{
1070
     1
1000
204815
1002
}
1002
{
1070
     2
1000
-2000051
1002
}
1002
{
1070
     3
1000
-2000043
1002
}
  0
LINE
  5
1DD
330
70
100
AcDbEntity
  8
A-DETL-MEDM
100
AcDbLine
 10
7660.091329278047
 20
4230.449973111587
 30
0.0
 11
7036.866378427328
 21
4230.449973111589
 31
0.0
1001
REVIT
1002
{
1070
     1
1000
204816
1002
}
1002
{
1070
     2
1000
-2000051
1002
}
1002
{
1070
     3
1000
-2000043
1002
}
  0
INSERT
  5
1DE
330
70
100
AcDbEntity
  8
A-DETL-GENF
100
AcDbBlockReference
  2
Hex head timberfix screw - Hex head timberfix screw-99997-W-TRSIL-06A - Soffit Flashing Detail
 10
7622.308704330992
 20
4262.077109268063
 30
0.0
1001
REVIT
1002
{
1070
     1
1000
204818
1002
}
1002
{
1070
     5
1000
98793
1002
}
1002
{
1070
     2
1000
-2002000
1002
}
  0
INSERT
  5
1F0
330
70
100
AcDbEntity
  8
A-DETL-GENF
100
AcDbBlockReference
  2
TRS Corrugate profile - TRS Corrugate-204821-W-TRSIL-06A - Soffit Flashing Detail
 10
8013.579433298984
 20
4254.733359268062
 30
0.0
1001
REVIT
1002
{
1070
     1
1000
204817
1002
}
1002
{
1070
     5
1000
161041
1002
}
1002
{
1070
     2
1000
-2002000
1002
}
  0
INSERT
  5
204
330
70
100
AcDbEntity
  8
A-DETL-GENF
100
AcDbBlockReference
  2
Fascia - Fascia 260 x 20-203401-W-TRSIL-06A - Soffit Flashing Detail
 10
7722.308704330993
 20
4258.262473111588
 30
0.0
 50
180.0
1001
REVIT
1002
{
1070
     1
1000
202711
1002
}
1002
{
1070
     5
1000
203401
1002
}
1002
{
1070
     2
1000
-2002000
1002
}
  0
INSERT
  5
20E
330
70
100
AcDbEntity
  8
A-DETL-GENF
100
AcDbBlockReference
  2
TRS Corrugate profile - TRS Corrugate-V1-W-TRSIL-06A - Soffit Flashing Detail
 10
7556.379433298997
 20
4254.733359268064
 30
0.0
1001
REVIT
1002
{
1070
     1
1000
205212
1002
}
1002
{
1070
     5
1000
161041
1002
}
1002
{
1070
     2
1000
-2002000
1002
}
  0
LINE
  5
20F
330
70
100
AcDbEntity
  8
A-DETL
100
AcDbLine
 10
7718.558704330992
 20
4232.949973111587
 30
0.0
 11
7718.558704330992
 21
4257.949973111587
 31
0.0
1001
REVIT
1002
{
1070
     1
1000
205061
1002
}
1002
{
1070
     2
1000
-2000051
1002
}
1002
{
1070
     3
1000
15813
1002
}
  0
INSERT
  5
218
330
70
100
AcDbEntity
  8
A-DETL-GENF
100
AcDbBlockReference
  2
Break Line1 - Break Line-205273-W-TRSIL-06A - Soffit Flashing Detail
 10
7036.866378427332
 20
4120.449973111589
 30
0.0
 50
89.99999999999991
1001
REVIT
1002
{
1070
     1
1000
201044
1002
}
1002
{
1070
     5
1000
101506
1002
}
1002
{
1070
     2
1000
-2002000
1002
}
  0
LINE
  5
21A
330
70
100
AcDbEntity
  8
G-ANNO-TEXT
100
AcDbLine
 10
7353.557583651097
 20
3782.78214232965
 30
0.0
 11
7368.557583651098
 21
3780.807354865839
 31
0.0
1001
REVIT
1002
{
1070
     1
1000
201062
1002
}
1002
{
1070
     5
1000
16489
1002
}
1002
{
1070
     2
1000
-2000300
1002
}
  0
LINE
  5
21B
330
70
100
AcDbEntity
  8
G-ANNO-TEXT
100
AcDbLine
 10
7368.557583651098
 20
3780.807354865839
 30
0.0
 11
7368.557583651098
 21
3784.756929793461
 31
0.0
1001
REVIT
1002
{
1070
     1
1000
201062
1002
}
1002
{
1070
     5
1000
16489
1002
}
1002
{
1070
     2
1000
-2000300
1002
}
  0
LINE
  5
21C
330
70
100
AcDbEntity
  8
G-ANNO-TEXT
100
AcDbLine
 10
7368.557583651098
 20
3784.756929793461
 30
0.0
 11
7353.557583651097
 21
3782.78214232965
 31
0.0
1001
REVIT
1002
{
1070
     1
1000
201062
1002
}
1002
{
1070
     5
1000
16489
1002
}
1002
{
1070
     2
1000
-2000300
1002
}
  0
HATCH
  5
21D
330
70
100
AcDbEntity
  8
G-ANNO-TEXT
100
AcDbHatch
 10
0.0
 20
0.0
 30
0.0
210
0.0
220
0.0
230
1.0
  2
SOLID
 70
     1
 71
     0
 91
        1
 92
        0
 93
        3
 72
     1
 10
7353.557583651097
 20
3782.78214232965
 11
7368.557583651098
 21
3780.807354865839
 72
     1
 10
7368.557583651098
 20
3780.807354865839
 11
7368.557583651098
 21
3784.756929793461
 72
     1
 10
7368.557583651098
 20
3784.756929793461
 11
7353.557583651097
 21
3782.78214232965
 97
        0
 75
     0
 76
     1
 98
        1
 10
0.0
 20
0.0
450
        0
451
        0
460
0.0
461
0.0
452
        0
462
0.0
453
        0
470

1001
REVIT
1002
{
1070
     1
1000
201062
1002
}
1002
{
1070
     5
1000
16489
1002
}
1002
{
1070
     2
1000
-2000300
1002
}
  0
LINE
  5
21E
330
70
100
AcDbEntity
  8
G-ANNO-TEXT
100
AcDbLine
 10
7353.557583651097
 20
3782.78214232965
 30
0.0
 11
7504.763692405574
 21
3782.78214232965
 31
0.0
1001
REVIT
1002
{
1070
     1
1000
201062
1002
}
1002
{
1070
     5
1000
16489
1002
}
1002
{
1070
     2
1000
-2000300
1002
}
  0
MTEXT
  5
220
330
70
100
AcDbEntity
  8
G-ANNO-TEXT
100
AcDbMText
 10
7509.763692405575
 20
3789.032142329649
 30
0.0
 40
12.5
 41
309.892303125
 46
0.0
 71
     1
 72
     1
  1
Horizontal support cavity battens 
  7
Century Gothic
 73
     2
 44
1.0
1001
REVIT
1002
{
1070
     1
1000
201062
1002
}
1002
{
1070
     5
1000
16489
1002
}
1002
{
1070
     2
1000
-2000300
1002
}
  0
MTEXT
  5
221
330
70
100
AcDbEntity
  8
G-ANNO-TEXT
100
AcDbMText
 10
7509.763692405575
 20
3768.196204829649
 30
0.0
 40
12.5
 41
181.461965625
 46
0.0
 71
     1
 72
     1
  1
@ 1100mm crs max.
  7
Century Gothic
 73
     2
 44
1.0
1001
REVIT
1002
{
1070
     1
1000
201062
1002
}
1002
{
1070
     5
1000
16489
1002
}
1002
{
1070
     2
1000
-2000300
1002
}
  0
LINE
  5
222
330
70
100
AcDbEntity
  8
G-ANNO-TEXT
100
AcDbLine
 10
7339.212963419375
 20
3714.868763733328
 30
0.0
 11
7354.212963419375
 21
3712.893976269516
 31
0.0
1001
REVIT
1002
{
1070
     1
1000
201063
1002
}
1002
{
1070
     5
1000
16489
1002
}
1002
{
1070
     2
1000
-2000300
1002
}
  0
LINE
  5
223
330
70
100
AcDbEntity
  8
G-ANNO-TEXT
100
AcDbLine
 10
7354.212963419375
 20
3712.893976269516
 30
0.0
 11
7354.212963419375
 21
3716.843551197138
 31
0.0
1001
REVIT
1002
{
1070
     1
1000
201063
1002
}
1002
{
1070
     5
1000
16489
1002
}
1002
{
1070
     2
1000
-2000300
1002
}
  0
LINE
  5
224
330
70
100
AcDbEntity
  8
G-ANNO-TEXT
100
AcDbLine
 10
7354.212963419375
 20
3716.843551197138
 30
0.0
 11
7339.212963419375
 21
3714.868763733328
 31
0.0
1001
REVIT
1002
{
1070
     1
1000
201063
1002
}
1002
{
1070
     5
1000
16489
1002
}
1002
{
1070
     2
1000
-2000300
1002
}
  0
HATCH
  5
225
330
70
100
AcDbEntity
  8
G-ANNO-TEXT
100
AcDbHatch
 10
0.0
 20
0.0
 30
0.0
210
0.0
220
0.0
230
1.0
  2
SOLID
 70
     1
 71
     0
 91
        1
 92
        0
 93
        3
 72
     1
 10
7339.212963419375
 20
3714.868763733328
 11
7354.212963419375
 21
3712.893976269516
 72
     1
 10
7354.212963419375
 20
3712.893976269516
 11
7354.212963419375
 21
3716.843551197138
 72
     1
 10
7354.212963419375
 20
3716.843551197138
 11
7339.212963419375
 21
3714.868763733328
 97
        0
 75
     0
 76
     1
 98
        1
 10
0.0
 20
0.0
450
        0
451
        0
460
0.0
461
0.0
452
        0
462
0.0
453
        0
470

1001
REVIT
1002
{
1070
     1
1000
201063
1002
}
1002
{
1070
     5
1000
16489
1002
}
1002
{
1070
     2
1000
-2000300
1002
}
  0
LINE
  5
226
330
70
100
AcDbEntity
  8
G-ANNO-TEXT
100
AcDbLine
 10
7339.212963419375
 20
3714.868763733328
 30
0.0
 11
7504.763692405578
 21
3714.868763733317
 31
0.0
1001
REVIT
1002
{
1070
     1
1000
201063
1002
}
1002
{
1070
     5
1000
16489
1002
}
1002
{
1070
     2
1000
-2000300
1002
}
  0
MTEXT
  5
227
330
70
100
AcDbEntity
  8
G-ANNO-TEXT
100
AcDbMText
 10
7509.763692405575
 20
3721.118763733317
 30
0.0
 40
12.5
 41
126.26578125
 46
0.0
 71
     1
 72
     1
  1
Wall underlay
  7
Century Gothic
 73
     2
 44
1.0
1001
REVIT
1002
{
1070
     1
1000
201063
1002
}
1002
{
1070
     5
1000
16489
1002
}
1002
{
1070
     2
1000
-2000300
1002
}
  0
LINE
  5
228
330
70
100
AcDbEntity
  8
G-ANNO-TEXT
100
AcDbLine
 10
7387.567116068852
 20
3667.885600067652
 30
0.0
 11
7402.567116068853
 21
3665.910812603841
 31
0.0
1001
REVIT
1002
{
1070
     1
1000
201064
1002
}
1002
{
1070
     5
1000
16489
1002
}
1002
{
1070
     2
1000
-2000300
1002
}
  0
LINE
  5
229
330
70
100
AcDbEntity
  8
G-ANNO-TEXT
100
AcDbLine
 10
7402.567116068853
 20
3665.910812603841
 30
0.0
 11
7402.567116068853
 21
3669.860387531463
 31
0.0
1001
REVIT
1002
{
1070
     1
1000
201064
1002
}
1002
{
1070
     5
1000
16489
1002
}
1002
{
1070
     2
1000
-2000300
1002
}
  0
LINE
  5
22A
330
70
100
AcDbEntity
  8
G-ANNO-TEXT
100
AcDbLine
 10
7402.567116068853
 20
3669.860387531463
 30
0.0
 11
7387.567116068852
 21
3667.885600067652
 31
0.0
1001
REVIT
1002
{
1070
     1
1000
201064
1002
}
1002
{
1070
     5
1000
16489
1002
}
1002
{
1070
     2
1000
-2000300
1002
}
  0
HATCH
  5
22B
330
70
100
AcDbEntity
  8
G-ANNO-TEXT
100
AcDbHatch
 10
0.0
 20
0.0
 30
0.0
210
0.0
220
0.0
230
1.0
  2
SOLID
 70
     1
 71
     0
 91
        1
 92
        0
 93
        3
 72
     1
 10
7387.567116068852
 20
3667.885600067652
 11
7402.567116068853
 21
3665.910812603841
 72
     1
 10
7402.567116068853
 20
3665.910812603841
 11
7402.567116068853
 21
3669.860387531463
 72
     1
 10
7402.567116068853
 20
3669.860387531463
 11
7387.567116068852
 21
3667.885600067652
 97
        0
 75
     0
 76
     1
 98
        1
 10
0.0
 20
0.0
450
        0
451
        0
460
0.0
461
0.0
452
        0
462
0.0
453
        0
470

1001
REVIT
1002
{
1070
     1
1000
201064
1002
}
1002
{
1070
     5
1000
16489
1002
}
1002
{
1070
     2
1000
-2000300
1002
}
  0
LINE
  5
22C
330
70
100
AcDbEntity
  8
G-ANNO-TEXT
100
AcDbLine
 10
7387.567116068852
 20
3667.885600067652
 30
0.0
 11
7504.763692405575
 21
3667.885600067647
 31
0.0
1001
REVIT
1002
{
1070
     1
1000
201064
1002
}
1002
{
1070
     5
1000
16489
1002
}
1002
{
1070
     2
1000
-2000300
1002
}
  0
MTEXT
  5
22D
330
70
100
AcDbEntity
  8
G-ANNO-TEXT
100
AcDbMText
 10
7509.763692405575
 20
3674.135600067647
 30
0.0
 40
12.5
 41
306.64546875
 46
0.0
 71
     1
 72
     1
  1
TRS Interlocking vertical cladding
  7
Century Gothic
 73
     2
 44
1.0
1001
REVIT
1002
{
1070
     1
1000
201064
1002
}
1002
{
1070
     5
1000
16489
1002
}
1002
{
1070
     2
1000
-2000300
1002
}
  0
LINE
  5
22E
330
70
100
AcDbEntity
  8
G-ANNO-TEXT
100
AcDbLine
 10
7091.302697843895
 20
3911.852938858597
 30
0.0
 11
7090.978791593895
 21
3911.852938858597
 31
0.0
1001
REVIT
1002
{
1070
     1
1000
201065
1002
}
1002
{
1070
     5
1000
16489
1002
}
1002
{
1070
     2
1000
-2000300
1002
}
  0
LINE
  5
22F
330
70
100
AcDbEntity
  8
G-ANNO-TEXT
100
AcDbLine
 10
7235.591490099517
 20
3911.852938858597
 30
0.0
 11
7220.591490099517
 21
3913.827726322408
 31
0.0
1001
REVIT
1002
{
1070
     1
1000
201065
1002
}
1002
{
1070
     5
1000
16489
1002
}
1002
{
1070
     2
1000
-2000300
1002
}
  0
LINE
  5
230
330
70
100
AcDbEntity
  8
G-ANNO-TEXT
100
AcDbLine
 10
7220.591490099517
 20
3913.827726322408
 30
0.0
 11
7220.591490099517
 21
3909.878151394785
 31
0.0
1001
REVIT
1002
{
1070
     1
1000
201065
1002
}
1002
{
1070
     5
1000
16489
1002
}
1002
{
1070
     2
1000
-2000300
1002
}
  0
LINE
  5
231
330
70
100
AcDbEntity
  8
G-ANNO-TEXT
100
AcDbLine
 10
7220.591490099517
 20
3909.878151394785
 30
0.0
 11
7235.591490099517
 21
3911.852938858597
 31
0.0
1001
REVIT
1002
{
1070
     1
1000
201065
1002
}
1002
{
1070
     5
1000
16489
1002
}
1002
{
1070
     2
1000
-2000300
1002
}
  0
HATCH
  5
232
330
70
100
AcDbEntity
  8
G-ANNO-TEXT
100
AcDbHatch
 10
0.0
 20
0.0
 30
0.0
210
0.0
220
0.0
230
1.0
  2
SOLID
 70
     1
 71
     0
 91
        1
 92
        0
 93
        3
 72
     1
 10
7235.591490099517
 20
3911.852938858597
 11
7220.591490099517
 21
3913.827726322408
 72
     1
 10
7220.591490099517
 20
3913.827726322408
 11
7220.591490099517
 21
3909.878151394785
 72
     1
 10
7220.591490099517
 20
3909.878151394785
 11
7235.591490099517
 21
3911.852938858597
 97
        0
 75
     0
 76
     1
 98
        1
 10
0.0
 20
0.0
450
        0
451
        0
460
0.0
461
0.0
452
        0
462
0.0
453
        0
470

1001
REVIT
1002
{
1070
     1
1000
201065
1002
}
1002
{
1070
     5
1000
16489
1002
}
1002
{
1070
     2
1000
-2000300
1002
}
  0
LINE
  5
233
330
70
100
AcDbEntity
  8
G-ANNO-TEXT
100
AcDbLine
 10
7235.591490099517
 20
3911.852938858597
 30
0.0
 11
7091.302697843895
 21
3911.852938858597
 31
0.0
1001
REVIT
1002
{
1070
     1
1000
201065
1002
}
1002
{
1070
     5
1000
16489
1002
}
1002
{
1070
     2
1000
-2000300
1002
}
  0
MTEXT
  5
234
330
70
100
AcDbEntity
  8
G-ANNO-TEXT
100
AcDbMText
 10
6983.882697843897
 20
3918.102938858595
 30
0.0
 40
12.5
 41
123.740465625
 46
0.0
 71
     1
 72
     1
  1
Internal lining
  7
Century Gothic
 73
     2
 44
1.0
1001
REVIT
1002
{
1070
     1
1000
201065
1002
}
1002
{
1070
     5
1000
16489
1002
}
1002
{
1070
     2
1000
-2000300
1002
}
  0
LINE
  5
235
330
70
100
AcDbEntity
  8
G-ANNO-TEXT
100
AcDbLine
 10
7688.788586524317
 20
4010.494799283875
 30
0.0
 11
7702.482064813844
 21
4016.928183918843
 31
0.0
1001
REVIT
1002
{
1070
     1
1000
201131
1002
}
1002
{
1070
     5
1000
16489
1002
}
1002
{
1070
     2
1000
-2000300
1002
}
  0
LINE
  5
236
330
70
100
AcDbEntity
  8
G-ANNO-TEXT
100
AcDbLine
 10
7702.482064813844
 20
4016.928183918843
 30
0.0
 11
7700.3503883879
 21
4020.25310462827
 31
0.0
1001
REVIT
1002
{
1070
     1
1000
201131
1002
}
1002
{
1070
     5
1000
16489
1002
}
1002
{
1070
     2
1000
-2000300
1002
}
  0
LINE
  5
237
330
70
100
AcDbEntity
  8
G-ANNO-TEXT
100
AcDbLine
 10
7700.3503883879
 20
4020.25310462827
 30
0.0
 11
7688.788586524317
 21
4010.494799283875
 31
0.0
1001
REVIT
1002
{
1070
     1
1000
201131
1002
}
1002
{
1070
     5
1000
16489
1002
}
1002
{
1070
     2
1000
-2000300
1002
}
  0
HATCH
  5
238
330
70
100
AcDbEntity
  8
G-ANNO-TEXT
100
AcDbHatch
 10
0.0
 20
0.0
 30
0.0
210
0.0
220
0.0
230
1.0
  2
SOLID
 70
     1
 71
     0
 91
        1
 92
        0
 93
        3
 72
     1
 10
7688.788586524317
 20
4010.494799283875
 11
7702.482064813844
 21
4016.928183918843
 72
     1
 10
7702.482064813844
 20
4016.928183918843
 11
7700.3503883879
 21
4020.25310462827
 72
     1
 10
7700.3503883879
 20
4020.25310462827
 11
7688.788586524317
 21
4010.494799283875
 97
        0
 75
     0
 76
     1
 98
        1
 10
0.0
 20
0.0
450
        0
451
        0
460
0.0
461
0.0
452
        0
462
0.0
453
        0
470

1001
REVIT
1002
{
1070
     1
1000
201131
1002
}
1002
{
1070
     5
1000
16489
1002
}
1002
{
1070
     2
1000
-2000300
1002
}
  0
LINE
  5
239
330
70
100
AcDbEntity
  8
G-ANNO-TEXT
100
AcDbLine
 10
7790.089240695213
 20
4075.44077403046
 30
0.0
 11
7848.949950972296
 21
4075.44077403046
 31
0.0
1001
REVIT
1002
{
1070
     1
1000
201131
1002
}
1002
{
1070
     5
1000
16489
1002
}
1002
{
1070
     2
1000
-2000300
1002
}
  0
LINE
  5
23A
330
70
100
AcDbEntity
  8
G-ANNO-TEXT
100
AcDbLine
 10
7688.788586524317
 20
4010.494799283875
 30
0.0
 11
7790.089240695213
 21
4075.44077403046
 31
0.0
1001
REVIT
1002
{
1070
     1
1000
201131
1002
}
1002
{
1070
     5
1000
16489
1002
}
1002
{
1070
     2
1000
-2000300
1002
}
  0
MTEXT
  5
23B
330
70
100
AcDbEntity
  8
G-ANNO-TEXT
100
AcDbMText
 10
7853.949950972292
 20
4081.690774030459
 30
0.0
 40
12.5
 41
301.955596875
 46
0.0
 71
     1
 72
     1
  1
Pre-finished purpose made soffit 
  7
Century Gothic
 73
     2
 44
1.0
1001
REVIT
1002
{
1070
     1
1000
201131
1002
}
1002
{
1070
     5
1000
16489
1002
}
1002
{
1070
     2
1000
-2000300
1002
}
  0
MTEXT
  5
23C
330
70
100
AcDbEntity
  8
G-ANNO-TEXT
100
AcDbMText
 10
7853.949950972292
 20
4060.854836530459
 30
0.0
 40
12.5
 41
113.27844375
 46
0.0
 71
     1
 72
     1
  1
end flashing
  7
Century Gothic
 73
     2
 44
1.0
1001
REVIT
1002
{
1070
     1
1000
201131
1002
}
1002
{
1070
     5
1000
16489
1002
}
1002
{
1070
     2
1000
-2000300
1002
}
  0
LINE
  5
23D
330
70
100
AcDbEntity
  8
G-ANNO-TEXT
100
AcDbLine
 10
7619.462760523315
 20
4010.294638258391
 30
0.0
 11
7631.343292681748
 21
4000.926994949657
 31
0.0
1001
REVIT
1002
{
1070
     1
1000
201135
1002
}
1002
{
1070
     5
1000
16489
1002
}
1002
{
1070
     2
1000
-2000300
1002
}
  0
LINE
  5
23E
330
70
100
AcDbEntity
  8
G-ANNO-TEXT
100
AcDbLine
 10
7631.343292681748
 20
4000.926994949657
 30
0.0
 11
7633.362997861232
 21
4004.321097643576
 31
0.0
1001
REVIT
1002
{
1070
     1
1000
201135
1002
}
1002
{
1070
     5
1000
16489
1002
}
1002
{
1070
     2
1000
-2000300
1002
}
  0
LINE
  5
23F
330
70
100
AcDbEntity
  8
G-ANNO-TEXT
100
AcDbLine
 10
7633.362997861232
 20
4004.321097643576
 30
0.0
 11
7619.462760523315
 21
4010.294638258391
 31
0.0
1001
REVIT
1002
{
1070
     1
1000
201135
1002
}
1002
{
1070
     5
1000
16489
1002
}
1002
{
1070
     2
1000
-2000300
1002
}
  0
HATCH
  5
240
330
70
100
AcDbEntity
  8
G-ANNO-TEXT
100
AcDbHatch
 10
0.0
 20
0.0
 30
0.0
210
0.0
220
0.0
230
1.0
  2
SOLID
 70
     1
 71
     0
 91
        1
 92
        0
 93
        3
 72
     1
 10
7619.462760523315
 20
4010.294638258391
 11
7631.343292681748
 21
4000.926994949657
 72
     1
 10
7631.343292681748
 20
4000.926994949657
 11
7633.362997861232
 21
4004.321097643576
 72
     1
 10
7633.362997861232
 20
4004.321097643576
 11
7619.462760523315
 21
4010.294638258391
 97
        0
 75
     0
 76
     1
 98
        1
 10
0.0
 20
0.0
450
        0
451
        0
460
0.0
461
0.0
452
        0
462
0.0
453
        0
470

1001
REVIT
1002
{
1070
     1
1000
201135
1002
}
1002
{
1070
     5
1000
16489
1002
}
1002
{
1070
     2
1000
-2000300
1002
}
  0
LINE
  5
241
330
70
100
AcDbEntity
  8
G-ANNO-TEXT
100
AcDbLine
 10
7784.893458291013
 20
3911.852938858597
 30
0.0
 11
7848.949950972296
 21
3911.852938858597
 31
0.0
1001
REVIT
1002
{
1070
     1
1000
201135
1002
}
1002
{
1070
     5
1000
16489
1002
}
1002
{
1070
     2
1000
-2000300
1002
}
  0
LINE
  5
242
330
70
100
AcDbEntity
  8
G-ANNO-TEXT
100
AcDbLine
 10
7619.462760523315
 20
4010.294638258391
 30
0.0
 11
7784.893458291013
 21
3911.852938858597
 31
0.0
1001
REVIT
1002
{
1070
     1
1000
201135
1002
}
1002
{
1070
     5
1000
16489
1002
}
1002
{
1070
     2
1000
-2000300
1002
}
  0
MTEXT
  5
243
330
70
100
AcDbEntity
  8
G-ANNO-TEXT
100
AcDbMText
 10
7853.949950972292
 20
3918.102938858595
 30
0.0
 40
12.5
 41
378.436584375
 46
0.0
 71
     1
 72
     1
  1
TRS Interlocking horizontal soffit cladding 
  7
Century Gothic
 73
     2
 44
1.0
1001
REVIT
1002
{
1070
     1
1000
201135
1002
}
1002
{
1070
     5
1000
16489
1002
}
1002
{
1070
     2
1000
-2000300
1002
}
  0
MTEXT
  5
244
330
70
100
AcDbEntity
  8
G-ANNO-TEXT
100
AcDbMText
 10
7853.949950972292
 20
3897.267001358596
 30
0.0
 40
12.5
 41
228.72144375
 46
0.0
 71
     1
 72
     1
  1
fixed over cavity battens
  7
Century Gothic
 73
     2
 44
1.0
1001
REVIT
1002
{
1070
     1
1000
201135
1002
}
1002
{
1070
     5
1000
16489
1002
}
1002
{
1070
     2
1000
-2000300
1002
}
  0
LINE
  5
245
330
70
100
AcDbEntity
  8
G-ANNO-TEXT
100
AcDbLine
 10
7708.229127411704
 20
4009.596232994998
 30
0.0
 11
7719.110384736097
 21
3999.084428936346
 31
0.0
1001
REVIT
1002
{
1070
     1
1000
201145
1002
}
1002
{
1070
     5
1000
16489
1002
}
1002
{
1070
     2
1000
-2000300
1002
}
  0
LINE
  5
246
330
70
100
AcDbEntity
  8
G-ANNO-TEXT
100
AcDbLine
 10
7719.110384736097
 20
3999.084428936346
 30
0.0
 11
7721.4602699726
 21
4002.258886604071
 31
0.0
1001
REVIT
1002
{
1070
     1
1000
201145
1002
}
1002
{
1070
     5
1000
16489
1002
}
1002
{
1070
     2
1000
-2000300
1002
}
  0
LINE
  5
247
330
70
100
AcDbEntity
  8
G-ANNO-TEXT
100
AcDbLine
 10
7721.4602699726
 20
4002.258886604071
 30
0.0
 11
7708.229127411704
 21
4009.596232994998
 31
0.0
1001
REVIT
1002
{
1070
     1
1000
201145
1002
}
1002
{
1070
     5
1000
16489
1002
}
1002
{
1070
     2
1000
-2000300
1002
}
  0
HATCH
  5
248
330
70
100
AcDbEntity
  8
G-ANNO-TEXT
100
AcDbHatch
 10
0.0
 20
0.0
 30
0.0
210
0.0
220
0.0
230
1.0
  2
SOLID
 70
     1
 71
     0
 91
        1
 92
        0
 93
        3
 72
     1
 10
7708.229127411704
 20
4009.596232994998
 11
7719.110384736097
 21
3999.084428936346
 72
     1
 10
7719.110384736097
 20
3999.084428936346
 11
7721.4602699726
 21
4002.258886604071
 72
     1
 10
7721.4602699726
 20
4002.258886604071
 11
7708.229127411704
 21
4009.596232994998
 97
        0
 75
     0
 76
     1
 98
        1
 10
0.0
 20
0.0
450
        0
451
        0
460
0.0
461
0.0
452
        0
462
0.0
453
        0
470

1001
REVIT
1002
{
1070
     1
1000
201145
1002
}
1002
{
1070
     5
1000
16489
1002
}
1002
{
1070
     2
1000
-2000300
1002
}
  0
LINE
  5
249
330
70
100
AcDbEntity
  8
G-ANNO-TEXT
100
AcDbLine
 10
7748.704298577793
 20
3979.634577454575
 30
0.0
 11
7848.949950972296
 21
3979.634577454575
 31
0.0
1001
REVIT
1002
{
1070
     1
1000
201145
1002
}
1002
{
1070
     5
1000
16489
1002
}
1002
{
1070
     2
1000
-2000300
1002
}
  0
LINE
  5
24A
330
70
100
AcDbEntity
  8
G-ANNO-TEXT
100
AcDbLine
 10
7708.229127411704
 20
4009.596232994998
 30
0.0
 11
7748.704298577793
 21
3979.634577454575
 31
0.0
1001
REVIT
1002
{
1070
     1
1000
201145
1002
}
1002
{
1070
     5
1000
16489
1002
}
1002
{
1070
     2
1000
-2000300
1002
}
  0
MTEXT
  5
24B
330
70
100
AcDbEntity
  8
G-ANNO-TEXT
100
AcDbMText
 10
7853.949950972296
 20
3985.884577454574
 30
0.0
 40
12.5
 41
347.411278125
 46
0.0
 71
     1
 72
     1
  1
Weep holes in purpose folded corner 
  7
Century Gothic
 73
     2
 44
1.0
1001
REVIT
1002
{
1070
     1
1000
201145
1002
}
1002
{
1070
     5
1000
16489
1002
}
1002
{
1070
     2
1000
-2000300
1002
}
  0
MTEXT
  5
24C
330
70
100
AcDbEntity
  8
G-ANNO-TEXT
100
AcDbMText
 10
7853.949950972296
 20
3965.048639954574
 30
0.0
 40
12.5
 41
293.297371875
 46
0.0
 71
     1
 72
     1
  1
panel for moisture drip @800 crs
  7
Century Gothic
 73
     2
 44
1.0
1001
REVIT
1002
{
1070
     1
1000
201145
1002
}
1002
{
1070
     5
1000
16489
1002
}
1002
{
1070
     2
1000
-2000300
1002
}
  0
LINE
  5
24D
330
70
100
AcDbEntity
  8
G-ANNO-TEXT
100
AcDbLine
 10
7094.857697843896
 20
4290.029920131925
 30
0.0
 11
7094.550666593896
 21
4290.029920131925
 31
0.0
1001
REVIT
1002
{
1070
     1
1000
201146
1002
}
1002
{
1070
     5
1000
16489
1002
}
1002
{
1070
     2
1000
-2000300
1002
}
  0
LINE
  5
24E
330
70
100
AcDbEntity
  8
G-ANNO-TEXT
100
AcDbLine
 10
7206.176178479655
 20
4215.972562162965
 30
0.0
 11
7197.459831610466
 21
4228.338850320016
 31
0.0
1001
REVIT
1002
{
1070
     1
1000
201146
1002
}
1002
{
1070
     5
1000
16489
1002
}
1002
{
1070
     2
1000
-2000300
1002
}
  0
LINE
  5
24F
330
70
100
AcDbEntity
  8
G-ANNO-TEXT
100
AcDbLine
 10
7197.459831610466
 20
4228.338850320016
 30
0.0
 11
7194.556203035542
 21
4225.661522695727
 31
0.0
1001
REVIT
1002
{
1070
     1
1000
201146
1002
}
1002
{
1070
     5
1000
16489
1002
}
1002
{
1070
     2
1000
-2000300
1002
}
  0
LINE
  5
250
330
70
100
AcDbEntity
  8
G-ANNO-TEXT
100
AcDbLine
 10
7194.556203035542
 20
4225.661522695727
 30
0.0
 11
7206.176178479655
 21
4215.972562162965
 31
0.0
1001
REVIT
1002
{
1070
     1
1000
201146
1002
}
1002
{
1070
     5
1000
16489
1002
}
1002
{
1070
     2
1000
-2000300
1002
}
  0
HATCH
  5
251
330
70
100
AcDbEntity
  8
G-ANNO-TEXT
100
AcDbHatch
 10
0.0
 20
0.0
 30
0.0
210
0.0
220
0.0
230
1.0
  2
SOLID
 70
     1
 71
     0
 91
        1
 92
        0
 93
        3
 72
     1
 10
7206.176178479655
 20
4215.972562162965
 11
7197.459831610466
 21
4228.338850320016
 72
     1
 10
7197.459831610466
 20
4228.338850320016
 11
7194.556203035542
 21
4225.661522695727
 72
     1
 10
7194.556203035542
 20
4225.661522695727
 11
7206.176178479655
 21
4215.972562162965
 97
        0
 75
     0
 76
     1
 98
        1
 10
0.0
 20
0.0
450
        0
451
        0
460
0.0
461
0.0
452
        0
462
0.0
453
        0
470

1001
REVIT
1002
{
1070
     1
1000
201146
1002
}
1002
{
1070
     5
1000
16489
1002
}
1002
{
1070
     2
1000
-2000300
1002
}
  0
LINE
  5
252
330
70
100
AcDbEntity
  8
G-ANNO-TEXT
100
AcDbLine
 10
7137.890650508073
 20
4290.029920131925
 30
0.0
 11
7094.857697843896
 21
4290.029920131925
 31
0.0
1001
REVIT
1002
{
1070
     1
1000
201146
1002
}
1002
{
1070
     5
1000
16489
1002
}
1002
{
1070
     2
1000
-2000300
1002
}
  0
LINE
  5
253
330
70
100
AcDbEntity
  8
G-ANNO-TEXT
100
AcDbLine
 10
7206.176178479655
 20
4215.972562162965
 30
0.0
 11
7137.890650508073
 21
4290.029920131925
 31
0.0
1001
REVIT
1002
{
1070
     1
1000
201146
1002
}
1002
{
1070
     5
1000
16489
1002
}
1002
{
1070
     2
1000
-2000300
1002
}
  0
LINE
  5
254
330
70
100
AcDbEntity
  8
G-ANNO-TEXT
100
AcDbLine
 10
7181.608946483854
 20
4175.586457703662
 30
0.0
 11
7178.100870225626
 21
4190.303562938514
 31
0.0
1001
REVIT
1002
{
1070
     1
1000
201146
1002
}
1002
{
1070
     5
1000
16489
1002
}
1002
{
1070
     2
1000
-2000300
1002
}
  0
LINE
  5
255
330
70
100
AcDbEntity
  8
G-ANNO-TEXT
100
AcDbLine
 10
7178.100870225626
 20
4190.303562938514
 30
0.0
 11
7174.411337901883
 21
4188.894132790919
 31
0.0
1001
REVIT
1002
{
1070
     1
1000
201146
1002
}
1002
{
1070
     5
1000
16489
1002
}
1002
{
1070
     2
1000
-2000300
1002
}
  0
LINE
  5
256
330
70
100
AcDbEntity
  8
G-ANNO-TEXT
100
AcDbLine
 10
7174.411337901883
 20
4188.894132790919
 30
0.0
 11
7181.608946483854
 21
4175.586457703662
 31
0.0
1001
REVIT
1002
{
1070
     1
1000
201146
1002
}
1002
{
1070
     5
1000
16489
1002
}
1002
{
1070
     2
1000
-2000300
1002
}
  0
HATCH
  5
257
330
70
100
AcDbEntity
  8
G-ANNO-TEXT
100
AcDbHatch
 10
0.0
 20
0.0
 30
0.0
210
0.0
220
0.0
230
1.0
  2
SOLID
 70
     1
 71
     0
 91
        1
 92
        0
 93
        3
 72
     1
 10
7181.608946483854
 20
4175.586457703662
 11
7178.100870225626
 21
4190.303562938514
 72
     1
 10
7178.100870225626
 20
4190.303562938514
 11
7174.411337901883
 21
4188.894132790919
 72
     1
 10
7174.411337901883
 20
4188.894132790919
 11
7181.608946483854
 21
4175.586457703662
 97
        0
 75
     0
 76
     1
 98
        1
 10
0.0
 20
0.0
450
        0
451
        0
460
0.0
461
0.0
452
        0
462
0.0
453
        0
470

1001
REVIT
1002
{
1070
     1
1000
201146
1002
}
1002
{
1070
     5
1000
16489
1002
}
1002
{
1070
     2
1000
-2000300
1002
}
  0
LINE
  5
258
330
70
100
AcDbEntity
  8
G-ANNO-TEXT
100
AcDbLine
 10
7137.890650508073
 20
4290.029920131925
 30
0.0
 11
7094.857697843896
 21
4290.029920131925
 31
0.0
1001
REVIT
1002
{
1070
     1
1000
201146
1002
}
1002
{
1070
     5
1000
16489
1002
}
1002
{
1070
     2
1000
-2000300
1002
}
  0
LINE
  5
259
330
70
100
AcDbEntity
  8
G-ANNO-TEXT
100
AcDbLine
 10
7181.608946483854
 20
4175.586457703662
 30
0.0
 11
7137.890650508073
 21
4290.029920131925
 31
0.0
1001
REVIT
1002
{
1070
     1
1000
201146
1002
}
1002
{
1070
     5
1000
16489
1002
}
1002
{
1070
     2
1000
-2000300
1002
}
  0
MTEXT
  5
25A
330
70
100
AcDbEntity
  8
G-ANNO-TEXT
100
AcDbMText
 10
6983.882697843897
 20
4296.279920131925
 30
0.0
 40
12.5
 41
128.069578125
 46
0.0
 71
     1
 72
     1
  1
Roof structure
  7
Century Gothic
 73
     2
 44
1.0
1001
REVIT
1002
{
1070
     1
1000
201146
1002
}
1002
{
1070
     5
1000
16489
1002
}
1002
{
1070
     2
1000
-2000300
1002
}
  0
LINE
  5
25B
330
70
100
AcDbEntity
  8
G-ANNO-TEXT
100
AcDbLine
 10
7101.558192394754
 20
4353.411262851284
 30
0.0
 11
7098.122541593898
 21
4353.411262851284
 31
0.0
1001
REVIT
1002
{
1070
     1
1000
201148
1002
}
1002
{
1070
     5
1000
16489
1002
}
1002
{
1070
     2
1000
-2000300
1002
}
  0
LINE
  5
25C
330
70
100
AcDbEntity
  8
G-ANNO-TEXT
100
AcDbLine
 10
7301.188601102686
 20
4248.893857744216
 30
0.0
 11
7292.343159492041
 21
4261.168137692137
 31
0.0
1001
REVIT
1002
{
1070
     1
1000
201148
1002
}
1002
{
1070
     5
1000
16489
1002
}
1002
{
1070
     2
1000
-2000300
1002
}
  0
LINE
  5
25D
330
70
100
AcDbEntity
  8
G-ANNO-TEXT
100
AcDbLine
 10
7292.343159492041
 20
4261.168137692137
 30
0.0
 11
7289.467743190591
 21
4258.460532993837
 31
0.0
1001
REVIT
1002
{
1070
     1
1000
201148
1002
}
1002
{
1070
     5
1000
16489
1002
}
1002
{
1070
     2
1000
-2000300
1002
}
  0
LINE
  5
25E
330
70
100
AcDbEntity
  8
G-ANNO-TEXT
100
AcDbLine
 10
7289.467743190591
 20
4258.460532993837
 30
0.0
 11
7301.188601102686
 21
4248.893857744216
 31
0.0
1001
REVIT
1002
{
1070
     1
1000
201148
1002
}
1002
{
1070
     5
1000
16489
1002
}
1002
{
1070
     2
1000
-2000300
1002
}
  0
HATCH
  5
25F
330
70
100
AcDbEntity
  8
G-ANNO-TEXT
100
AcDbHatch
 10
0.0
 20
0.0
 30
0.0
210
0.0
220
0.0
230
1.0
  2
SOLID
 70
     1
 71
     0
 91
        1
 92
        0
 93
        3
 72
     1
 10
7301.188601102686
 20
4248.893857744216
 11
7292.343159492041
 21
4261.168137692137
 72
     1
 10
7292.343159492041
 20
4261.168137692137
 11
7289.467743190591
 21
4258.460532993837
 72
     1
 10
7289.467743190591
 20
4258.460532993837
 11
7301.188601102686
 21
4248.893857744216
 97
        0
 75
     0
 76
     1
 98
        1
 10
0.0
 20
0.0
450
        0
451
        0
460
0.0
461
0.0
452
        0
462
0.0
453
        0
470

1001
REVIT
1002
{
1070
     1
1000
201148
1002
}
1002
{
1070
     5
1000
16489
1002
}
1002
{
1070
     2
1000
-2000300
1002
}
  0
LINE
  5
260
330
70
100
AcDbEntity
  8
G-ANNO-TEXT
100
AcDbLine
 10
7202.770915642975
 20
4353.411262851284
 30
0.0
 11
7101.558192394754
 21
4353.411262851284
 31
0.0
1001
REVIT
1002
{
1070
     1
1000
201148
1002
}
1002
{
1070
     5
1000
16489
1002
}
1002
{
1070
     2
1000
-2000300
1002
}
  0
LINE
  5
261
330
70
100
AcDbEntity
  8
G-ANNO-TEXT
100
AcDbLine
 10
7301.188601102686
 20
4248.893857744216
 30
0.0
 11
7202.770915642975
 21
4353.411262851284
 31
0.0
1001
REVIT
1002
{
1070
     1
1000
201148
1002
}
1002
{
1070
     5
1000
16489
1002
}
1002
{
1070
     2
1000
-2000300
1002
}
  0
MTEXT
  5
262
330
70
100
AcDbEntity
  8
G-ANNO-TEXT
100
AcDbMText
 10
6983.882697843897
 20
4359.661262851283
 30
0.0
 40
12.5
 41
132.398690625
 46
0.0
 71
     1
 72
     1
  1
Roof cladding
  7
Century Gothic
 73
     2
 44
1.0
1001
REVIT
1002
{
1070
     1
1000
201148
1002
}
1002
{
1070
     5
1000
16489
1002
}
1002
{
1070
     2
1000
-2000300
1002
}
  0
LINE
  5
263
330
70
100
AcDbEntity
  8
G-ANNO-TEXT
100
AcDbLine
 10
7736.78550173533
 20
4199.443954497421
 30
0.0
 11
7751.785501735331
 21
4197.469167033609
 31
0.0
1001
REVIT
1002
{
1070
     1
1000
201149
1002
}
1002
{
1070
     5
1000
16489
1002
}
1002
{
1070
     2
1000
-2000300
1002
}
  0
LINE
  5
264
330
70
100
AcDbEntity
  8
G-ANNO-TEXT
100
AcDbLine
 10
7751.785501735331
 20
4197.469167033609
 30
0.0
 11
7751.785501735331
 21
4201.418741961232
 31
0.0
1001
REVIT
1002
{
1070
     1
1000
201149
1002
}
1002
{
1070
     5
1000
16489
1002
}
1002
{
1070
     2
1000
-2000300
1002
}
  0
LINE
  5
265
330
70
100
AcDbEntity
  8
G-ANNO-TEXT
100
AcDbLine
 10
7751.785501735331
 20
4201.418741961232
 30
0.0
 11
7736.78550173533
 21
4199.443954497421
 31
0.0
1001
REVIT
1002
{
1070
     1
1000
201149
1002
}
1002
{
1070
     5
1000
16489
1002
}
1002
{
1070
     2
1000
-2000300
1002
}
  0
HATCH
  5
266
330
70
100
AcDbEntity
  8
G-ANNO-TEXT
100
AcDbHatch
 10
0.0
 20
0.0
 30
0.0
210
0.0
220
0.0
230
1.0
  2
SOLID
 70
     1
 71
     0
 91
        1
 92
        0
 93
        3
 72
     1
 10
7736.78550173533
 20
4199.443954497421
 11
7751.785501735331
 21
4197.469167033609
 72
     1
 10
7751.785501735331
 20
4197.469167033609
 11
7751.785501735331
 21
4201.418741961232
 72
     1
 10
7751.785501735331
 20
4201.418741961232
 11
7736.78550173533
 21
4199.443954497421
 97
        0
 75
     0
 76
     1
 98
        1
 10
0.0
 20
0.0
450
        0
451
        0
460
0.0
461
0.0
452
        0
462
0.0
453
        0
470

1001
REVIT
1002
{
1070
     1
1000
201149
1002
}
1002
{
1070
     5
1000
16489
1002
}
1002
{
1070
     2
1000
-2000300
1002
}
  0
LINE
  5
267
330
70
100
AcDbEntity
  8
G-ANNO-TEXT
100
AcDbLine
 10
7736.78550173533
 20
4199.443954497421
 30
0.0
 11
7848.949950972294
 21
4199.443954497421
 31
0.0
1001
REVIT
1002
{
1070
     1
1000
201149
1002
}
1002
{
1070
     5
1000
16489
1002
}
1002
{
1070
     2
1000
-2000300
1002
}
  0
MTEXT
  5
268
330
70
100
AcDbEntity
  8
G-ANNO-TEXT
100
AcDbMText
 10
7853.949950972292
 20
4205.693954497419
 30
0.0
 40
12.5
 41
274.177125
 46
0.0
 71
     1
 72
     1
  1
H3.1 Timber fascia to suit roof 
  7
Century Gothic
 73
     2
 44
1.0
1001
REVIT
1002
{
1070
     1
1000
201149
1002
}
1002
{
1070
     5
1000
16489
1002
}
1002
{
1070
     2
1000
-2000300
1002
}
  0
MTEXT
  5
269
330
70
100
AcDbEntity
  8
G-ANNO-TEXT
100
AcDbMText
 10
7853.949950972292
 20
4184.858016997419
 30
0.0
 40
12.5
 41
79.72782187500001
 46
0.0
 71
     1
 72
     1
  1
structure
  7
Century Gothic
 73
     2
 44
1.0
1001
REVIT
1002
{
1070
     1
1000
201149
1002
}
1002
{
1070
     5
1000
16489
1002
}
1002
{
1070
     2
1000
-2000300
1002
}
  0
LINE
  5
26A
330
70
100
AcDbEntity
  8
G-ANNO-TEXT
100
AcDbLine
 10
7363.45370988042
 20
3848.338629513202
 30
0.0
 11
7378.453709880421
 21
3846.36384204939
 31
0.0
1001
REVIT
1002
{
1070
     1
1000
201153
1002
}
1002
{
1070
     5
1000
16489
1002
}
1002
{
1070
     2
1000
-2000300
1002
}
  0
LINE
  5
26B
330
70
100
AcDbEntity
  8
G-ANNO-TEXT
100
AcDbLine
 10
7378.453709880421
 20
3846.36384204939
 30
0.0
 11
7378.453709880421
 21
3850.313416977012
 31
0.0
1001
REVIT
1002
{
1070
     1
1000
201153
1002
}
1002
{
1070
     5
1000
16489
1002
}
1002
{
1070
     2
1000
-2000300
1002
}
  0
LINE
  5
26C
330
70
100
AcDbEntity
  8
G-ANNO-TEXT
100
AcDbLine
 10
7378.453709880421
 20
3850.313416977012
 30
0.0
 11
7363.45370988042
 21
3848.338629513202
 31
0.0
1001
REVIT
1002
{
1070
     1
1000
201153
1002
}
1002
{
1070
     5
1000
16489
1002
}
1002
{
1070
     2
1000
-2000300
1002
}
  0
HATCH
  5
26D
330
70
100
AcDbEntity
  8
G-ANNO-TEXT
100
AcDbHatch
 10
0.0
 20
0.0
 30
0.0
210
0.0
220
0.0
230
1.0
  2
SOLID
 70
     1
 71
     0
 91
        1
 92
        0
 93
        3
 72
     1
 10
7363.45370988042
 20
3848.338629513202
 11
7378.453709880421
 21
3846.36384204939
 72
     1
 10
7378.453709880421
 20
3846.36384204939
 11
7378.453709880421
 21
3850.313416977012
 72
     1
 10
7378.453709880421
 20
3850.313416977012
 11
7363.45370988042
 21
3848.338629513202
 97
        0
 75
     0
 76
     1
 98
        1
 10
0.0
 20
0.0
450
        0
451
        0
460
0.0
461
0.0
452
        0
462
0.0
453
        0
470

1001
REVIT
1002
{
1070
     1
1000
201153
1002
}
1002
{
1070
     5
1000
16489
1002
}
1002
{
1070
     2
1000
-2000300
1002
}
  0
LINE
  5
26E
330
70
100
AcDbEntity
  8
G-ANNO-TEXT
100
AcDbLine
 10
7363.45370988042
 20
3848.338629513202
 30
0.0
 11
7504.763692405575
 21
3848.338629513197
 31
0.0
1001
REVIT
1002
{
1070
     1
1000
201153
1002
}
1002
{
1070
     5
1000
16489
1002
}
1002
{
1070
     2
1000
-2000300
1002
}
  0
MTEXT
  5
26F
330
70
100
AcDbEntity
  8
G-ANNO-TEXT
100
AcDbMText
 10
7509.763692405575
 20
3854.588629513197
 30
0.0
 40
12.5
 41
304.4809125
 46
0.0
 71
     1
 72
     1
  1
Wall underlay to separate metal 
  7
Century Gothic
 73
     2
 44
1.0
1001
REVIT
1002
{
1070
     1
1000
201153
1002
}
1002
{
1070
     5
1000
16489
1002
}
1002
{
1070
     2
1000
-2000300
1002
}
  0
MTEXT
  5
270
330
70
100
AcDbEntity
  8
G-ANNO-TEXT
100
AcDbMText
 10
7509.763692405575
 20
3833.752692013197
 30
0.0
 40
12.5
 41
314.942934375
 46
0.0
 71
     1
 72
     1
  1
flashing and cladding with batten
  7
Century Gothic
 73
     2
 44
1.0
1001
REVIT
1002
{
1070
     1
1000
201153
1002
}
1002
{
1070
     5
1000
16489
1002
}
1002
{
1070
     2
1000
-2000300
1002
}
  0
LINE
  5
271
330
70
100
AcDbEntity
  8
G-ANNO-TEXT
100
AcDbLine
 10
7730.608521420008
 20
4262.645456905052
 30
0.0
 11
7743.678460826695
 21
4270.266248821434
 31
0.0
1001
REVIT
1002
{
1070
     1
1000
201155
1002
}
1002
{
1070
     5
1000
16489
1002
}
1002
{
1070
     2
1000
-2000300
1002
}
  0
LINE
  5
272
330
70
100
AcDbEntity
  8
G-ANNO-TEXT
100
AcDbLine
 10
7743.678460826695
 20
4270.266248821434
 30
0.0
 11
7741.260707354236
 21
4273.389325870646
 31
0.0
1001
REVIT
1002
{
1070
     1
1000
201155
1002
}
1002
{
1070
     5
1000
16489
1002
}
1002
{
1070
     2
1000
-2000300
1002
}
  0
LINE
  5
273
330
70
100
AcDbEntity
  8
G-ANNO-TEXT
100
AcDbLine
 10
7741.260707354236
 20
4273.389325870646
 30
0.0
 11
7730.608521420008
 21
4262.645456905052
 31
0.0
1001
REVIT
1002
{
1070
     1
1000
201155
1002
}
1002
{
1070
     5
1000
16489
1002
}
1002
{
1070
     2
1000
-2000300
1002
}
  0
HATCH
  5
274
330
70
100
AcDbEntity
  8
G-ANNO-TEXT
100
AcDbHatch
 10
0.0
 20
0.0
 30
0.0
210
0.0
220
0.0
230
1.0
  2
SOLID
 70
     1
 71
     0
 91
        1
 92
        0
 93
        3
 72
     1
 10
7730.608521420008
 20
4262.645456905052
 11
7743.678460826695
 21
4270.266248821434
 72
     1
 10
7743.678460826695
 20
4270.266248821434
 11
7741.260707354236
 21
4273.389325870646
 72
     1
 10
7741.260707354236
 20
4273.389325870646
 11
7730.608521420008
 21
4262.645456905052
 97
        0
 75
     0
 76
     1
 98
        1
 10
0.0
 20
0.0
450
        0
451
        0
460
0.0
461
0.0
452
        0
462
0.0
453
        0
470

1001
REVIT
1002
{
1070
     1
1000
201155
1002
}
1002
{
1070
     5
1000
16489
1002
}
1002
{
1070
     2
1000
-2000300
1002
}
  0
LINE
  5
275
330
70
100
AcDbEntity
  8
G-ANNO-TEXT
100
AcDbLine
 10
7790.089240695213
 20
4308.692900918055
 30
0.0
 11
7848.949950972296
 21
4308.692900918055
 31
0.0
1001
REVIT
1002
{
1070
     1
1000
201155
1002
}
1002
{
1070
     5
1000
16489
1002
}
1002
{
1070
     2
1000
-2000300
1002
}
  0
LINE
  5
276
330
70
100
AcDbEntity
  8
G-ANNO-TEXT
100
AcDbLine
 10
7730.608521420008
 20
4262.645456905052
 30
0.0
 11
7790.089240695213
 21
4308.692900918055
 31
0.0
1001
REVIT
1002
{
1070
     1
1000
201155
1002
}
1002
{
1070
     5
1000
16489
1002
}
1002
{
1070
     2
1000
-2000300
1002
}
  0
MTEXT
  5
277
330
70
100
AcDbEntity
  8
G-ANNO-TEXT
100
AcDbMText
 10
7853.949950972292
 20
4314.942900918055
 30
0.0
 40
12.5
 41
131.3164125
 46
0.0
 71
     1
 72
     1
  1
Barge flashing
  7
Century Gothic
 73
     2
 44
1.0
1001
REVIT
1002
{
1070
     1
1000
201155
1002
}
1002
{
1070
     5
1000
16489
1002
}
1002
{
1070
     2
1000
-2000300
1002
}
  0
LINE
  5
278
330
70
100
AcDbEntity
  8
G-ANNO-TEXT
100
AcDbLine
 10
7392.149342709541
 20
3992.917028535674
 30
0.0
 11
7400.276591199073
 21
3980.155852354905
 31
0.0
1001
REVIT
1002
{
1070
     1
1000
201156
1002
}
1002
{
1070
     5
1000
16489
1002
}
1002
{
1070
     2
1000
-2000300
1002
}
  0
LINE
  5
279
330
70
100
AcDbEntity
  8
G-ANNO-TEXT
100
AcDbLine
 10
7400.276591199073
 20
3980.155852354905
 30
0.0
 11
7403.30249735574
 21
3982.694165582216
 31
0.0
1001
REVIT
1002
{
1070
     1
1000
201156
1002
}
1002
{
1070
     5
1000
16489
1002
}
1002
{
1070
     2
1000
-2000300
1002
}
  0
LINE
  5
27A
330
70
100
AcDbEntity
  8
G-ANNO-TEXT
100
AcDbLine
 10
7403.30249735574
 20
3982.694165582216
 30
0.0
 11
7392.149342709541
 21
3992.917028535674
 31
0.0
1001
REVIT
1002
{
1070
     1
1000
201156
1002
}
1002
{
1070
     5
1000
16489
1002
}
1002
{
1070
     2
1000
-2000300
1002
}
  0
HATCH
  5
27B
330
70
100
AcDbEntity
  8
G-ANNO-TEXT
100
AcDbHatch
 10
0.0
 20
0.0
 30
0.0
210
0.0
220
0.0
230
1.0
  2
SOLID
 70
     1
 71
     0
 91
        1
 92
        0
 93
        3
 72
     1
 10
7392.149342709541
 20
3992.917028535674
 11
7400.276591199073
 21
3980.155852354905
 72
     1
 10
7400.276591199073
 20
3980.155852354905
 11
7403.30249735574
 21
3982.694165582216
 72
     1
 10
7403.30249735574
 20
3982.694165582216
 11
7392.149342709541
 21
3992.917028535674
 97
        0
 75
     0
 76
     1
 98
        1
 10
0.0
 20
0.0
450
        0
451
        0
460
0.0
461
0.0
452
        0
462
0.0
453
        0
470

1001
REVIT
1002
{
1070
     1
1000
201156
1002
}
1002
{
1070
     5
1000
16489
1002
}
1002
{
1070
     2
1000
-2000300
1002
}
  0
LINE
  5
27C
330
70
100
AcDbEntity
  8
G-ANNO-TEXT
100
AcDbLine
 10
7473.276560877048
 20
3896.205816426355
 30
0.0
 11
7504.763692405575
 21
3896.205816426355
 31
0.0
1001
REVIT
1002
{
1070
     1
1000
201156
1002
}
1002
{
1070
     5
1000
16489
1002
}
1002
{
1070
     2
1000
-2000300
1002
}
  0
LINE
  5
27D
330
70
100
AcDbEntity
  8
G-ANNO-TEXT
100
AcDbLine
 10
7392.149342709541
 20
3992.917028535674
 30
0.0
 11
7473.276560877048
 21
3896.205816426355
 31
0.0
1001
REVIT
1002
{
1070
     1
1000
201156
1002
}
1002
{
1070
     5
1000
16489
1002
}
1002
{
1070
     2
1000
-2000300
1002
}
  0
MTEXT
  5
27E
330
70
100
AcDbEntity
  8
G-ANNO-TEXT
100
AcDbMText
 10
7509.763692405575
 20
3902.455816426355
 30
0.0
 40
12.5
 41
282.474590625
 46
0.0
 71
     1
 72
     1
  1
Interstorey flashing with 15° fall
  7
Century Gothic
 73
     2
 44
1.0
1001
REVIT
1002
{
1070
     1
1000
201156
1002
}
1002
{
1070
     5
1000
16489
1002
}
1002
{
1070
     2
1000
-2000300
1002
}
  0
VIEWPORT
  5
280
330
6C
100
AcDbEntity
 67
     1
  8
G-ANNO-NPLT
100
AcDbViewport
 10
130.2475073504176
 20
92.73849666585858
 30
0.0
 40
291.8373062324941
 41
198.1974796253962
 68
    -1
 69
     2
 12
7441.503862881707
 22
3874.196209621127
 13
0.0
 23
0.0
 14
0.0
 24
0.0
 15
0.0
 25
0.0
 16
0.0
 26
0.0
 36
1.0
 17
0.0
 27
0.0
 37
0.0
 42
0.0
 43
0.0
 44
0.0
 45
990.9873981269811
 50
0.0
 51
0.0
 72
  1000
 90
    32768
  1

281
     0
 71
     1
 74
     1
110
0.0
120
0.0
130
0.0
111
1.0
121
0.0
131
0.0
112
0.0
122
1.0
132
0.0
 79
     0
146
0.0
170
     0
 61
     5
292
     1
282
     1
141
0.0
142
0.0
 63
   250
421
  3355443
  0
VIEWPORT
  5
282
330
6C
100
AcDbEntity
 67
     1
  8
0
100
AcDbViewport
 10
6.0
 20
4.5
 30
0.0
 40
12.0
 41
9.0
 68
    -1
 69
     1
 12
6.0
 22
4.5
 13
0.0
 23
0.0
 14
0.0
 24
0.0
 15
0.0
 25
0.0
 16
0.0
 26
0.0
 36
1.0
 17
0.0
 27
0.0
 37
0.0
 42
50.0
 43
0.0
 44
0.0
 45
12.0
 50
0.0
 51
0.0
 72
   100
 90
    32800
  1

281
     0
 71
     1
 74
     1
110
0.0
120
0.0
130
0.0
111
1.0
121
0.0
131
0.0
112
0.0
122
1.0
132
0.0
 79
     0
146
0.0
170
     0
 61
     5
292
     1
282
     1
141
0.0
142
0.0
 63
   250
421
  3355443
  0
INSERT
  5
2B3
330
6C
100
AcDbEntity
 67
     1
  8
G-ANNO-TTLB
100
AcDbBlockReference
  2
Titleblock A4 The roofing store - Titleblock A4 The roofing store-2694-Soffit Flashing Detail _Ver__
 10
0.0
 20
0.0
 30
0.0
1001
REVIT
1002
{
1070
     1
1000
205364
1002
}
1002
{
1070
     5
1000
2694
1002
}
1002
{
1070
     2
1000
-2000280
1002
}
  0
MTEXT
  5
2B5
330
6C
100
AcDbEntity
 67
     1
  8
G-ANNO-TTLB
100
AcDbMText
 10
254.9545146630469
 20
12.52446433240663
 30
0.0
 40
4.0
 41
40.98226499999999
 46
0.0
 71
     1
 72
     1
  1
W-TRSIL-06A-V
  7
Century Gothic_2
 73
     2
 44
1.0
1001
REVIT
1002
{
1070
     1
1000
205364
1002
}
1002
{
1070
     5
1000
2694
1002
}
1002
{
1070
     2
1000
-2000280
1002
}
  0
MTEXT
  5
2B7
330
6C
100
AcDbEntity
 67
     1
  8
G-ANNO-TTLB
100
AcDbMText
 10
76.05126760874208
 20
10.95227683240663
 30
0.0
 40
3.5
 41
67.38985124999999
 46
0.0
 71
     1
 72
     1
  1
Soffit Flashing Detail (Ver.)
  7
Century Gothic_3
 73
     2
 44
1.0
1001
REVIT
1002
{
1070
     1
1000
205364
1002
}
1002
{
1070
     5
1000
2694
1002
}
1002
{
1070
     2
1000
-2000280
1002
}
  0
MTEXT
  5
2B8
330
6C
100
AcDbEntity
 67
     1
  8
G-ANNO-TTLB
100
AcDbMText
 10
271.6845146630469
 20
20.51531106318182
 30
0.0
 40
1.8
 41
22.2227775
 46
0.0
 71
     1
 72
     1
  1
Date: 10/11/2020
  7
Century Gothic_1
 73
     2
 44
1.0
1001
REVIT
1002
{
1070
     1
1000
205364
1002
}
1002
{
1070
     5
1000
2694
1002
}
1002
{
1070
     2
1000
-2000280
1002
}
  0
MTEXT
  5
2BA
330
6C
100
AcDbEntity
 67
     1
  8
G-ANNO-TTLB
100
AcDbMText
 10
75.81756651341409
 20
19.95645689651516
 30
0.0
 40
4.999999999999999
 41
63.814325
 46
0.0
 71
     1
 72
     1
  1
TRS Interlocking
  7
Century Gothic_4
 73
     2
 44
1.0
1001
REVIT
1002
{
1070
     1
1000
205364
1002
}
1002
{
1070
     5
1000
2694
1002
}
1002
{
1070
     2
1000
-2000280
1002
}
  0
ENDSEC
  0
SECTION
  2
OBJECTS
  0
DICTIONARY
  5
C
330
0
100
AcDbDictionary
281
     1
  3
ACAD_CIP_PREVIOUS_PRODUCT_INFO
350
79
  3
ACAD_COLOR
350
63
  3
ACAD_DETAILVIEWSTYLE
350
6A
  3
ACAD_GROUP
350
D
  3
ACAD_IMAGE_DICT
350
287
  3
ACAD_IMAGE_VARS
350
7A
  3
ACAD_LAYOUT
350
62
  3
ACAD_MATERIAL
350
10
  3
ACAD_MLEADERSTYLE
350
66
  3
ACAD_MLINESTYLE
350
5F
  3
ACAD_PLOTSETTINGS
350
61
  3
ACAD_PLOTSTYLENAME
350
E
  3
ACAD_SCALELIST
350
42
  3
ACAD_SECTIONVIEWSTYLE
350
68
  3
ACAD_TABLESTYLE
350
64
  3
ACAD_VISUALSTYLE
350
29
  3
ACDB_RECOMPOSE_DATA
350
2C5
  3
AcDbVariableDictionary
350
7B
  3
REVIT_DICTIONARY
350
2BB
  0
DICTIONARY
  5
2C0
330
70
100
AcDbDictionary
280
     1
281
     1
  3
ACAD_SORTENTS
360
2C1
  0
IMAGEDEF_REACTOR
  5
28A
330
289
100
AcDbRasterImageDefReactor
 90
        2
330
289
  0
XRECORD
  5
79
102
{ACAD_REACTORS
330
C
102
}
330
C
100
AcDbXrecord
280
     1
300
RVT
300
2019
300
RVT2019
  0
DICTIONARY
  5
63
102
{ACAD_REACTORS
330
C
102
}
330
C
100
AcDbDictionary
281
     1
  0
DICTIONARY
  5
6A
102
{ACAD_REACTORS
330
C
102
}
330
C
100
AcDbDictionary
281
     1
  3
Imperial24
350
6B
  0
DICTIONARY
  5
D
102
{ACAD_REACTORS
330
C
102
}
330
C
100
AcDbDictionary
281
     1
  0
DICTIONARY
  5
287
102
{ACAD_REACTORS
330
C
102
}
330
C
100
AcDbDictionary
281
     1
  3
TRSInterlockingCladdingDetails-TheRoofingStore_w-107754
350
288
  0
RASTERVARIABLES
  5
7A
102
{ACAD_REACTORS
330
C
102
}
330
C
100
AcDbRasterVariables
 90
        0
 70
     0
 71
     1
 72
     1
  0
DICTIONARY
  5
62
102
{ACAD_REACTORS
330
C
102
}
330
C
100
AcDbDictionary
281
     1
  3
Layout1
350
6F
  3
Layout2
350
77
  3
Model
350
73
  0
DICTIONARY
  5
10
102
{ACAD_REACTORS
330
C
102
}
330
C
100
AcDbDictionary
281
     1
  3
ByBlock
350
19
  3
ByLayer
350
11
  3
Global
350
21
  0
DICTIONARY
  5
66
102
{ACAD_REACTORS
330
C
102
}
330
C
100
AcDbDictionary
281
     1
  3
Standard
350
67
  0
DICTIONARY
  5
5F
102
{ACAD_REACTORS
330
C
102
}
330
C
100
AcDbDictionary
281
     1
  3
Standard
350
60
  0
DICTIONARY
  5
61
102
{ACAD_REACTORS
330
C
102
}
330
C
100
AcDbDictionary
281
     1
  0
ACDBDICTIONARYWDFLT
  5
E
102
{ACAD_REACTORS
330
C
102
}
330
C
100
AcDbDictionary
281
     1
  3
Normal
350
F
100
AcDbDictionaryWithDefault
340
F
  0
DICTIONARY
  5
42
102
{ACAD_REACTORS
330
C
102
}
330
C
100
AcDbDictionary
281
     1
  3
A0
350
43
  3
A1
350
44
  3
A2
350
45
  3
A3
350
46
  3
A4
350
47
  3
A5
350
48
  3
A6
350
49
  3
A7
350
4A
  3
A8
350
4B
  3
A9
350
4C
  3
B0
350
4D
  3
B1
350
4E
  3
B2
350
4F
  3
B3
350
50
  3
B4
350
51
  3
B5
350
52
  3
B6
350
53
  0
DICTIONARY
  5
68
102
{ACAD_REACTORS
330
C
102
}
330
C
100
AcDbDictionary
281
     1
  3
Imperial24
350
69
  0
DICTIONARY
  5
64
102
{ACAD_REACTORS
330
C
102
}
330
C
100
AcDbDictionary
281
     1
  3
Standard
350
65
  0
DICTIONARY
  5
29
102
{ACAD_REACTORS
330
C
102
}
330
C
100
AcDbDictionary
281
     1
  3
2dWireframe
350
2F
  3
Basic
350
2E
  3
Brighten
350
35
  3
ColorChange
350
39
  3
Conceptual
350
32
  3
Dim
350
34
  3
EdgeColorOff
350
41
  3
Facepattern
350
38
  3
Flat
350
2A
  3
FlatWithEdges
350
2B
  3
Gouraud
350
2C
  3
GouraudWithEdges
350
2D
  3
Hidden
350
31
  3
JitterOff
350
3F
  3
Linepattern
350
37
  3
OverhangOff
350
40
  3
Realistic
350
33
  3
Shaded
350
3E
  3
Shaded with edges
350
3D
  3
Shades of Gray
350
3A
  3
Sketchy
350
3B
  3
Thicken
350
36
  3
Wireframe
350
30
  3
X-Ray
350
3C
  0
XRECORD
  5
2C5
102
{ACAD_REACTORS
330
C
102
}
330
C
100
AcDbXrecord
280
     1
 90
        1
330
65
  0
DICTIONARY
  5
7B
102
{ACAD_REACTORS
330
C
102
}
330
C
100
AcDbDictionary
281
     1
  3
CANNOSCALE
350
80
  3
CMLEADERSTYLE
350
7D
  3
CTABLESTYLE
350
7C
  3
CVIEWDETAILSTYLE
350
7E
  3
CVIEWSECTIONSTYLE
350
7F
  0
DICTIONARY
  5
2BB
102
{ACAD_REACTORS
330
C
102
}
330
C
100
AcDbDictionary
281
     1
  3
DRAWING_TOOL
350
2BF
  3
REVIT_CATEGORY_MAPPING
350
2BD
  3
REVIT_SUB_CATEGORY_MAPPING
350
2BE
  3
REVIT_TYPE_MAPPING
350
2BC
  0
SORTENTSTABLE
  5
2C1
102
{ACAD_REACTORS
330
2C0
102
}
330
2C0
100
AcDbSortentsTable
330
70
  0
ACDBDETAILVIEWSTYLE
  5
6B
102
{ACAD_XDICTIONARY
360
2FA
102
}
102
{ACAD_REACTORS
330
6A
102
}
330
6A
100
AcDbModelDocViewStyle
 70
     0
  3
Imperial24
290
     0
100
AcDbDetailViewStyle
 70
     0
 71
     0
 90
        3
 71
     1
340
55
 62
   256
 40
0.24
340
0
 62
   256
 40
0.24
300

 40
0.36
280
     3
 71
     2
340
5D
 90
       25
 62
   256
 71
     3
340
55
 62
   256
 40
0.24
 90
        1
 40
0.75
 90
        1
300
%<\AcVar ViewType \f "%tc1">% %<\AcVar ViewDetailId>%\PSCALE %<\AcVar ViewScale \f "%sn">%
 71
     4
340
5D
 90
       25
 62
   256
340
5D
 90
       25
 62
   256
280
     0
  0
IMAGEDEF
  5
288
102
{ACAD_REACTORS
330
287
330
28A
102
}
330
287
100
AcDbRasterImageDef
 90
        0
  1
E:\CAD Files\TRS Interlocking Panel\Custom Detail with TRS Weatherboard 20201110\TRSInterlockingCladdingDetails-TheRoofingStore_w-107754.jpg
 10
2863.0
 20
400.0
 11
0.0846666666666667
 21
0.0846666666666667
280
     1
281
     5
  0
LAYOUT
  5
6F
102
{ACAD_REACTORS
330
62
102
}
330
62
100
AcDbPlotSettings
  1

  2

  4

  6

 40
0.0
 41
0.0
 42
0.0
 43
0.0
 44
0.0
 45
0.0
 46
0.0
 47
0.0
 48
0.0
 49
0.0
140
0.0
141
0.0
142
1.0
143
1.0
 70
   688
 72
     0
 73
     0
 74
     5
  7

 75
    16
147
1.0
 76
     0
 77
     2
 78
   300
148
0.0
149
0.0
100
AcDbLayout
  1
Layout1
 70
     1
 71
     1
 10
0.0
 20
0.0
 11
12.0
 21
9.0
 12
0.0
 22
0.0
 32
0.0
 14
0.0
 24
0.0
 34
0.0
 15
0.0
 25
0.0
 35
0.0
146
0.0
 13
0.0
 23
0.0
 33
0.0
 16
1.0
 26
0.0
 36
0.0
 17
0.0
 27
1.0
 37
0.0
 76
     0
330
6C
  0
LAYOUT
  5
77
102
{ACAD_REACTORS
330
62
102
}
330
62
100
AcDbPlotSettings
  1

  2

  4

  6

 40
0.0
 41
0.0
 42
0.0
 43
0.0
 44
0.0
 45
0.0
 46
0.0
 47
0.0
 48
0.0
 49
0.0
140
0.0
141
0.0
142
1.0
143
1.0
 70
   688
 72
     0
 73
     0
 74
     5
  7

 75
    16
147
1.0
 76
     0
 77
     2
 78
   300
148
0.0
149
0.0
100
AcDbLayout
  1
Layout2
 70
     1
 71
     2
 10
0.0
 20
0.0
 11
12.0
 21
9.0
 12
0.0
 22
0.0
 32
0.0
 14
0.0
 24
0.0
 34
0.0
 15
0.0
 25
0.0
 35
0.0
146
0.0
 13
0.0
 23
0.0
 33
0.0
 16
1.0
 26
0.0
 36
0.0
 17
0.0
 27
1.0
 37
0.0
 76
     0
330
74
  0
LAYOUT
  5
73
102
{ACAD_REACTORS
330
62
102
}
330
62
100
AcDbPlotSettings
  1

  2

  4

  6

 40
0.0
 41
0.0
 42
0.0
 43
0.0
 44
0.0
 45
0.0
 46
0.0
 47
0.0
 48
0.0
 49
0.0
140
0.0
141
0.0
142
1.0
143
1.0
 70
  1712
 72
     0
 73
     0
 74
     0
  7

 75
     0
147
1.0
 76
     0
 77
     2
 78
   300
148
0.0
149
0.0
100
AcDbLayout
  1
Model
 70
     1
 71
     0
 10
0.0
 20
0.0
 11
12.0
 21
9.0
 12
0.0
 22
0.0
 32
0.0
 14
0.0
 24
0.0
 34
0.0
 15
0.0
 25
0.0
 35
0.0
146
0.0
 13
0.0
 23
0.0
 33
0.0
 16
1.0
 26
0.0
 36
0.0
 17
0.0
 27
1.0
 37
0.0
 76
     0
330
70
  0
MATERIAL
  5
19
102
{ACAD_XDICTIONARY
360
1A
102
}
102
{ACAD_REACTORS
330
10
102
}
330
10
100
AcDbMaterial
  1
ByBlock
 72
     0
 43
0.0208333333333333
 43
0.0
 43
0.0
 43
0.0
 43
0.0
 43
0.0208333333333333
 43
0.0
 43
0.0
 43
0.0
 43
0.0
 43
1.0
 43
0.0
 43
0.0
 43
0.0
 43
0.0
 43
1.0
 77
     0
 47
0.0208333333333333
 47
0.0
 47
0.0
 47
0.0
 47
0.0
 47
0.0208333333333333
 47
0.0
 47
0.0
 47
0.0
 47
0.0
 47
1.0
 47
0.0
 47
0.0
 47
0.0
 47
0.0
 47
1.0
171
     0
 49
0.0208333333333333
 49
0.0
 49
0.0
 49
0.0
 49
0.0
 49
0.0208333333333333
 49
0.0
 49
0.0
 49
0.0
 49
0.0
 49
1.0
 49
0.0
 49
0.0
 49
0.0
 49
0.0
 49
1.0
175
     0
142
0.0208333333333333
142
0.0
142
0.0
142
0.0
142
0.0
142
0.0208333333333333
142
0.0
142
0.0
142
0.0
142
0.0
142
1.0
142
0.0
142
0.0
142
0.0
142
0.0
142
1.0
179
     0
144
0.0208333333333333
144
0.0
144
0.0
144
0.0
144
0.0
144
0.0208333333333333
144
0.0
144
0.0
144
0.0
144
0.0
144
1.0
144
0.0
144
0.0
144
0.0
144
0.0
144
1.0
147
0.0208333333333333
147
0.0
147
0.0
147
0.0
147
0.0
147
0.0208333333333333
147
0.0
147
0.0
147
0.0
147
0.0
147
1.0
147
0.0
147
0.0
147
0.0
147
0.0
147
1.0
  0
MATERIAL
  5
11
102
{ACAD_XDICTIONARY
360
12
102
}
102
{ACAD_REACTORS
330
10
102
}
330
10
100
AcDbMaterial
  1
ByLayer
 72
     0
 43
0.0208333333333333
 43
0.0
 43
0.0
 43
0.0
 43
0.0
 43
0.0208333333333333
 43
0.0
 43
0.0
 43
0.0
 43
0.0
 43
1.0
 43
0.0
 43
0.0
 43
0.0
 43
0.0
 43
1.0
 77
     0
 47
0.0208333333333333
 47
0.0
 47
0.0
 47
0.0
 47
0.0
 47
0.0208333333333333
 47
0.0
 47
0.0
 47
0.0
 47
0.0
 47
1.0
 47
0.0
 47
0.0
 47
0.0
 47
0.0
 47
1.0
171
     0
 49
0.0208333333333333
 49
0.0
 49
0.0
 49
0.0
 49
0.0
 49
0.0208333333333333
 49
0.0
 49
0.0
 49
0.0
 49
0.0
 49
1.0
 49
0.0
 49
0.0
 49
0.0
 49
0.0
 49
1.0
175
     0
142
0.0208333333333333
142
0.0
142
0.0
142
0.0
142
0.0
142
0.0208333333333333
142
0.0
142
0.0
142
0.0
142
0.0
142
1.0
142
0.0
142
0.0
142
0.0
142
0.0
142
1.0
179
     0
144
0.0208333333333333
144
0.0
144
0.0
144
0.0
144
0.0
144
0.0208333333333333
144
0.0
144
0.0
144
0.0
144
0.0
144
1.0
144
0.0
144
0.0
144
0.0
144
0.0
144
1.0
147
0.0208333333333333
147
0.0
147
0.0
147
0.0
147
0.0
147
0.0208333333333333
147
0.0
147
0.0
147
0.0
147
0.0
147
1.0
147
0.0
147
0.0
147
0.0
147
0.0
147
1.0
  0
MATERIAL
  5
21
102
{ACAD_XDICTIONARY
360
22
102
}
102
{ACAD_REACTORS
330
10
102
}
330
10
100
AcDbMaterial
  1
Global
 72
     0
 43
0.0208333333333333
 43
0.0
 43
0.0
 43
0.0
 43
0.0
 43
0.0208333333333333
 43
0.0
 43
0.0
 43
0.0
 43
0.0
 43
1.0
 43
0.0
 43
0.0
 43
0.0
 43
0.0
 43
1.0
 77
     0
 47
0.0208333333333333
 47
0.0
 47
0.0
 47
0.0
 47
0.0
 47
0.0208333333333333
 47
0.0
 47
0.0
 47
0.0
 47
0.0
 47
1.0
 47
0.0
 47
0.0
 47
0.0
 47
0.0
 47
1.0
171
     0
 49
0.0208333333333333
 49
0.0
 49
0.0
 49
0.0
 49
0.0
 49
0.0208333333333333
 49
0.0
 49
0.0
 49
0.0
 49
0.0
 49
1.0
 49
0.0
 49
0.0
 49
0.0
 49
0.0
 49
1.0
175
     0
142
0.0208333333333333
142
0.0
142
0.0
142
0.0
142
0.0
142
0.0208333333333333
142
0.0
142
0.0
142
0.0
142
0.0
142
1.0
142
0.0
142
0.0
142
0.0
142
0.0
142
1.0
179
     0
144
0.0208333333333333
144
0.0
144
0.0
144
0.0
144
0.0
144
0.0208333333333333
144
0.0
144
0.0
144
0.0
144
0.0
144
1.0
144
0.0
144
0.0
144
0.0
144
0.0
144
1.0
147
0.0208333333333333
147
0.0
147
0.0
147
0.0
147
0.0
147
0.0208333333333333
147
0.0
147
0.0
147
0.0
147
0.0
147
1.0
147
0.0
147
0.0
147
0.0
147
0.0
147
1.0
  0
MLEADERSTYLE
  5
67
102
{ACAD_XDICTIONARY
360
2F6
102
}
102
{ACAD_REACTORS
330
66
102
}
330
66
100
AcDbMLeaderStyle
179
     2
170
     2
171
     1
172
     0
 90
        2
 40
0.0
 41
0.0
173
     1
 91
-1056964608
340
5B
 92
       -2
290
     1
 42
0.09
291
     1
 43
0.36
  3
Standard
 44
0.18
300

342
55
174
     1
178
     6
175
     1
176
     0
 93
-1056964608
 45
0.18
292
     0
297
     0
 46
0.18
 94
-1056964608
 47
1.0
 49
1.0
140
1.0
293
     1
141
0.0
294
     1
177
     0
142
1.0
295
     0
296
     0
143
0.125
271
     0
272
     9
273
     9
  0
MLINESTYLE
  5
60
102
{ACAD_REACTORS
330
5F
102
}
330
5F
100
AcDbMlineStyle
  2
STANDARD
 70
     0
  3

 62
   256
 51
90.0
 52
90.0
 71
     2
 49
0.5
 62
   256
  6
BYLAYER
 49
-0.5
 62
   256
  6
BYLAYER
  0
ACDBPLACEHOLDER
  5
F
102
{ACAD_REACTORS
330
E
102
}
330
E
  0
SCALE
  5
43
102
{ACAD_REACTORS
330
42
102
}
330
42
100
AcDbScale
 70
     0
300
1:1
140
1.0
141
1.0
290
     1
  0
SCALE
  5
44
102
{ACAD_REACTORS
330
42
102
}
330
42
100
AcDbScale
 70
     0
300
1/128" = 1'-0"
140
0.0078125
141
12.0
290
     0
  0
SCALE
  5
45
102
{ACAD_REACTORS
330
42
102
}
330
42
100
AcDbScale
 70
     0
300
1/64" = 1'-0"
140
0.015625
141
12.0
290
     0
  0
SCALE
  5
46
102
{ACAD_REACTORS
330
42
102
}
330
42
100
AcDbScale
 70
     0
300
1/32" = 1'-0"
140
0.03125
141
12.0
290
     0
  0
SCALE
  5
47
102
{ACAD_REACTORS
330
42
102
}
330
42
100
AcDbScale
 70
     0
300
1/16" = 1'-0"
140
0.0625
141
12.0
290
     0
  0
SCALE
  5
48
102
{ACAD_REACTORS
330
42
102
}
330
42
100
AcDbScale
 70
     0
300
3/32" = 1'-0"
140
0.09375
141
12.0
290
     0
  0
SCALE
  5
49
102
{ACAD_REACTORS
330
42
102
}
330
42
100
AcDbScale
 70
     0
300
1/8" = 1'-0"
140
0.125
141
12.0
290
     0
  0
SCALE
  5
4A
102
{ACAD_REACTORS
330
42
102
}
330
42
100
AcDbScale
 70
     0
300
3/16" = 1'-0"
140
0.1875
141
12.0
290
     0
  0
SCALE
  5
4B
102
{ACAD_REACTORS
330
42
102
}
330
42
100
AcDbScale
 70
     0
300
1/4" = 1'-0"
140
0.25
141
12.0
290
     0
  0
SCALE
  5
4C
102
{ACAD_REACTORS
330
42
102
}
330
42
100
AcDbScale
 70
     0
300
3/8" = 1'-0"
140
0.375
141
12.0
290
     0
  0
SCALE
  5
4D
102
{ACAD_REACTORS
330
42
102
}
330
42
100
AcDbScale
 70
     0
300
1/2" = 1'-0"
140
0.5
141
12.0
290
     0
  0
SCALE
  5
4E
102
{ACAD_REACTORS
330
42
102
}
330
42
100
AcDbScale
 70
     0
300
3/4" = 1'-0"
140
0.75
141
12.0
290
     0
  0
SCALE
  5
4F
102
{ACAD_REACTORS
330
42
102
}
330
42
100
AcDbScale
 70
     0
300
1" = 1'-0"
140
1.0
141
12.0
290
     0
  0
SCALE
  5
50
102
{ACAD_REACTORS
330
42
102
}
330
42
100
AcDbScale
 70
     0
300
1-1/2" = 1'-0"
140
1.5
141
12.0
290
     0
  0
SCALE
  5
51
102
{ACAD_REACTORS
330
42
102
}
330
42
100
AcDbScale
 70
     0
300
3" = 1'-0"
140
3.0
141
12.0
290
     0
  0
SCALE
  5
52
102
{ACAD_REACTORS
330
42
102
}
330
42
100
AcDbScale
 70
     0
300
6" = 1'-0"
140
6.0
141
12.0
290
     0
  0
SCALE
  5
53
102
{ACAD_REACTORS
330
42
102
}
330
42
100
AcDbScale
 70
     0
300
1'-0" = 1'-0"
140
12.0
141
12.0
290
     0
  0
ACDBSECTIONVIEWSTYLE
  5
69
102
{ACAD_XDICTIONARY
360
2F8
102
}
102
{ACAD_REACTORS
330
68
102
}
330
68
100
AcDbModelDocViewStyle
 70
     0
  3
Imperial24
290
     0
100
AcDbSectionViewStyle
 70
     0
 71
     0
 90
       78
 71
     1
340
55
 62
   256
 40
0.24
340
0
340
0
 62
   256
 40
0.24
300
I, O, Q, S, X, Z
 40
0.48
 90
        3
 40
0.18
 90
        1
 71
     2
340
5D
 90
       25
 62
   256
340
5D
 90
       50
 62
   256
 40
0.24
 40
0.0
 40
0.24
 71
     3
340
55
 62
   256
 40
0.24
 90
        1
 40
0.75
 90
        1
300
%<\AcVar ViewType \f "%tc1">% %<\AcVar ViewSectionStartId>%-%<\AcVar ViewSectionEndId>%\PSCALE %<\AcVar ViewScale \f "%sn">%
 71
     4
 62
   256
 62
   257
300
ANSI31
 40
1.0
 90
        0
290
     0
290
     0
 90
        6
 40
0.0
 40
1.570796326794896
 40
0.2617993877991494
 40
1.308996938995747
 40
-0.2617993877991494
 40
1.832595714594046
  0
TABLESTYLE
  5
65
102
{ACAD_XDICTIONARY
360
2C3
102
}
102
{ACAD_REACTORS
330
64
102
}
330
64
100
AcDbTableStyle
280
     0
  3
Standard
 70
     0
 71
     0
 40
0.06
 41
0.06
280
     0
281
     0
  7
Standard
140
0.18
170
     2
 62
     0
 63
     7
283
     0
 90
      512
 91
        0
  1

274
    -2
284
     1
 64
     0
275
    -2
285
     1
 65
     0
276
    -2
286
     1
 66
     0
277
    -2
287
     1
 67
     0
278
    -2
288
     1
 68
     0
279
    -2
289
     1
 69
     0
  7
Standard
140
0.25
170
     5
 62
     0
 63
     7
283
     0
 90
      512
 91
        0
  1

274
    -2
284
     1
 64
     0
275
    -2
285
     1
 65
     0
276
    -2
286
     1
 66
     0
277
    -2
287
     1
 67
     0
278
    -2
288
     1
 68
     0
279
    -2
289
     1
 69
     0
  7
Standard
140
0.18
170
     5
 62
     0
 63
     7
283
     0
 90
      512
 91
        0
  1

274
    -2
284
     1
 64
     0
275
    -2
285
     1
 65
     0
276
    -2
286
     1
 66
     0
277
    -2
287
     1
 67
     0
278
    -2
288
     1
 68
     0
279
    -2
289
     1
 69
     0
  0
VISUALSTYLE
  5
2F
102
{ACAD_XDICTIONARY
360
2D0
102
}
102
{ACAD_REACTORS
330
29
102
}
330
29
100
AcDbVisualStyle
  2
2dWireframe
 70
     4
177
     2
291
     0
 71
     0
176
     1
 72
     2
176
     1
 73
     0
176
     1
 90
        0
176
     1
 40
0.6
176
     1
 41
30.0
176
     1
 63
     7
421
 16777215
176
     1
 74
     1
176
     1
 91
        4
176
     1
 64
     7
176
     1
 65
   257
176
     1
 75
     1
176
     1
175
     1
176
     1
 42
1.0
176
     1
 92
        0
176
     1
 66
   257
176
     1
 43
1.0
176
     1
 76
     1
176
     1
 77
     6
176
     1
 78
     2
176
     1
 67
     7
176
     1
 79
     5
176
     1
170
     0
176
     1
171
     0
176
     1
290
     0
176
     1
 93
        1
176
     1
 44
0.0
176
     1
173
     0
176
     1
1001
ACAD
1000
AcDbSavedByObjectVersion
1070
     0
  0
VISUALSTYLE
  5
2E
102
{ACAD_XDICTIONARY
360
2CE
102
}
102
{ACAD_REACTORS
330
29
102
}
330
29
100
AcDbVisualStyle
  2
Basic
 70
     7
177
     2
291
     1
 71
     1
176
     1
 72
     0
176
     1
 73
     1
176
     1
 90
        0
176
     1
 40
0.6
176
     1
 41
30.0
176
     1
 63
     7
421
 16777215
176
     1
 74
     0
176
     1
 91
        4
176
     1
 64
     7
176
     1
 65
   257
176
     1
 75
     1
176
     1
175
     1
176
     1
 42
1.0
176
     1
 92
        8
176
     1
 66
     7
176
     1
 43
1.0
176
     1
 76
     1
176
     1
 77
     6
176
     1
 78
     2
176
     1
 67
     7
176
     1
 79
     5
176
     1
170
     0
176
     1
171
     0
176
     1
290
     0
176
     1
 93
        1
176
     1
 44
0.0
176
     1
173
     0
176
     1
1001
ACAD
1000
AcDbSavedByObjectVersion
1070
     0
  0
VISUALSTYLE
  5
35
102
{ACAD_XDICTIONARY
360
2DC
102
}
102
{ACAD_REACTORS
330
29
102
}
330
29
100
AcDbVisualStyle
  2
Brighten
 70
    12
177
     2
291
     1
 71
     2
176
     1
 72
     2
176
     1
 73
     0
176
     1
 90
        0
176
     1
 40
0.6
176
     1
 41
30.0
176
     1
 63
     7
421
 16777215
176
     1
 74
     1
176
     1
 91
        4
176
     1
 64
     7
176
     1
 65
   257
176
     1
 75
     1
176
     1
175
     1
176
     1
 42
1.0
176
     1
 92
        8
176
     1
 66
     7
176
     1
 43
1.0
176
     1
 76
     1
176
     1
 77
     6
176
     1
 78
     2
176
     1
 67
     7
176
     1
 79
     5
176
     1
170
     0
176
     1
171
     0
176
     1
290
     0
176
     1
 93
        1
176
     1
 44
50.0
176
     1
173
     0
176
     1
1001
ACAD
1000
AcDbSavedByObjectVersion
1070
     0
  0
VISUALSTYLE
  5
39
102
{ACAD_XDICTIONARY
360
2E4
102
}
102
{ACAD_REACTORS
330
29
102
}
330
29
100
AcDbVisualStyle
  2
ColorChange
 70
    16
177
     2
291
     1
 71
     2
176
     1
 72
     2
176
     1
 73
     3
176
     1
 90
        0
176
     1
 40
0.6
176
     1
 41
30.0
176
     1
 63
     8
421
  8421504
176
     1
 74
     1
176
     1
 91
        4
176
     1
 64
     7
176
     1
 65
   257
176
     1
 75
     1
176
     1
175
     1
176
     1
 42
1.0
176
     1
 92
        8
176
     1
 66
     8
424
  8421504
176
     1
 43
1.0
176
     1
 76
     1
176
     1
 77
     6
176
     1
 78
     2
176
     1
 67
     7
176
     1
 79
     5
176
     1
170
     0
176
     1
171
     0
176
     1
290
     0
176
     1
 93
        1
176
     1
 44
0.0
176
     1
173
     0
176
     1
1001
ACAD
1000
AcDbSavedByObjectVersion
1070
     0
  0
VISUALSTYLE
  5
32
102
{ACAD_XDICTIONARY
360
2D6
102
}
102
{ACAD_REACTORS
330
29
102
}
330
29
100
AcDbVisualStyle
  2
Conceptual
 70
     9
177
     2
291
     0
 71
     3
176
     1
 72
     2
176
     1
 73
     0
176
     1
 90
        0
176
     1
 40
0.6
176
     1
 41
30.0
176
     1
 63
     7
421
 16777215
176
     1
 74
     2
176
     1
 91
        2
176
     1
 64
     7
176
     1
 65
   257
176
     1
 75
     1
176
     1
175
     1
176
     1
 42
179.0
176
     1
 92
        8
176
     1
 66
     7
176
     1
 43
1.0
176
     1
 76
     1
176
     1
 77
     6
176
     1
 78
     2
176
     1
 67
     7
176
     1
 79
     3
176
     1
170
     0
176
     1
171
     0
176
     1
290
     0
176
     1
 93
        1
176
     1
 44
0.0
176
     1
173
     0
176
     1
1001
ACAD
1000
AcDbSavedByObjectVersion
1070
     0
  0
VISUALSTYLE
  5
34
102
{ACAD_XDICTIONARY
360
2DA
102
}
102
{ACAD_REACTORS
330
29
102
}
330
29
100
AcDbVisualStyle
  2
Dim
 70
    11
177
     2
291
     1
 71
     2
176
     1
 72
     2
176
     1
 73
     0
176
     1
 90
        0
176
     1
 40
0.6
176
     1
 41
30.0
176
     1
 63
     7
421
 16777215
176
     1
 74
     1
176
     1
 91
        4
176
     1
 64
     7
176
     1
 65
   257
176
     1
 75
     1
176
     1
175
     1
176
     1
 42
1.0
176
     1
 92
        8
176
     1
 66
     7
176
     1
 43
1.0
176
     1
 76
     1
176
     1
 77
     6
176
     1
 78
     2
176
     1
 67
     7
176
     1
 79
     5
176
     1
170
     0
176
     1
171
     0
176
     1
290
     0
176
     1
 93
        1
176
     1
 44
-50.0
176
     1
173
     0
176
     1
1001
ACAD
1000
AcDbSavedByObjectVersion
1070
     0
  0
VISUALSTYLE
  5
41
102
{ACAD_XDICTIONARY
360
2F4
102
}
102
{ACAD_REACTORS
330
29
102
}
330
29
100
AcDbVisualStyle
  2
EdgeColorOff
 70
    22
177
     2
291
     1
 71
     2
176
     0
 72
     2
176
     0
 73
     0
176
     0
 90
        0
176
     0
 40
0.6
176
     0
 41
30.0
176
     0
 63
     7
421
 16777215
176
     0
 74
     1
176
     0
 91
        4
176
     0
 64
     7
176
     0
 65
   257
176
     0
 75
     1
176
     0
175
     1
176
     0
 42
1.0
176
     0
 92
        8
176
     2
 66
     7
176
     0
 43
1.0
176
     0
 76
     1
176
     0
 77
     6
176
     0
 78
     2
176
     0
 67
     7
176
     0
 79
     5
176
     0
170
     0
176
     0
171
     0
176
     0
290
     0
176
     0
 93
        1
176
     0
 44
0.0
176
     0
173
     0
176
     0
1001
ACAD
1000
AcDbSavedByObjectVersion
1070
     0
  0
VISUALSTYLE
  5
38
102
{ACAD_XDICTIONARY
360
2E2
102
}
102
{ACAD_REACTORS
330
29
102
}
330
29
100
AcDbVisualStyle
  2
Facepattern
 70
    15
177
     2
291
     1
 71
     2
176
     1
 72
     2
176
     1
 73
     0
176
     1
 90
        0
176
     1
 40
0.6
176
     1
 41
30.0
176
     1
 63
     7
421
 16777215
176
     1
 74
     1
176
     1
 91
        4
176
     1
 64
     7
176
     1
 65
   257
176
     1
 75
     1
176
     1
175
     1
176
     1
 42
1.0
176
     1
 92
        8
176
     1
 66
     7
176
     1
 43
1.0
176
     1
 76
     1
176
     1
 77
     6
176
     1
 78
     2
176
     1
 67
     7
176
     1
 79
     5
176
     1
170
     0
176
     1
171
     0
176
     1
290
     0
176
     1
 93
        1
176
     1
 44
0.0
176
     1
173
     0
176
     1
1001
ACAD
1000
AcDbSavedByObjectVersion
1070
     0
  0
VISUALSTYLE
  5
2A
102
{ACAD_XDICTIONARY
360
2C6
102
}
102
{ACAD_REACTORS
330
29
102
}
330
29
100
AcDbVisualStyle
  2
Flat
 70
     0
177
     2
291
     1
 71
     2
176
     1
 72
     1
176
     1
 73
     1
176
     1
 90
        2
176
     1
 40
0.6
176
     1
 41
30.0
176
     1
 63
     7
421
 16777215
176
     1
 74
     0
176
     1
 91
        0
176
     1
 64
     7
176
     1
 65
   257
176
     1
 75
     1
176
     1
175
     1
176
     1
 42
1.0
176
     1
 92
        8
176
     1
 66
     7
176
     1
 43
1.0
176
     1
 76
     1
176
     1
 77
     6
176
     1
 78
     2
176
     1
 67
     7
176
     1
 79
     5
176
     1
170
     0
176
     1
171
     0
176
     1
290
     0
176
     1
 93
       13
176
     1
 44
0.0
176
     1
173
     0
176
     1
1001
ACAD
1000
AcDbSavedByObjectVersion
1070
     0
  0
VISUALSTYLE
  5
2B
102
{ACAD_XDICTIONARY
360
2C8
102
}
102
{ACAD_REACTORS
330
29
102
}
330
29
100
AcDbVisualStyle
  2
FlatWithEdges
 70
     1
177
     2
291
     1
 71
     2
176
     1
 72
     1
176
     1
 73
     1
176
     1
 90
        2
176
     1
 40
0.6
176
     1
 41
30.0
176
     1
 63
     7
421
 16777215
176
     1
 74
     1
176
     1
 91
        0
176
     1
 64
     7
176
     1
 65
   257
176
     1
 75
     1
176
     1
175
     1
176
     1
 42
1.0
176
     1
 92
        0
176
     1
 66
   257
176
     1
 43
1.0
176
     1
 76
     1
176
     1
 77
     6
176
     1
 78
     2
176
     1
 67
     7
176
     1
 79
     5
176
     1
170
     0
176
     1
171
     0
176
     1
290
     0
176
     1
 93
       13
176
     1
 44
0.0
176
     1
173
     0
176
     1
1001
ACAD
1000
AcDbSavedByObjectVersion
1070
     0
  0
VISUALSTYLE
  5
2C
102
{ACAD_XDICTIONARY
360
2CA
102
}
102
{ACAD_REACTORS
330
29
102
}
330
29
100
AcDbVisualStyle
  2
Gouraud
 70
     2
177
     2
291
     1
 71
     2
176
     1
 72
     2
176
     1
 73
     1
176
     1
 90
        2
176
     1
 40
0.6
176
     1
 41
30.0
176
     1
 63
     7
421
 16777215
176
     1
 74
     0
176
     1
 91
        0
176
     1
 64
     7
176
     1
 65
   257
176
     1
 75
     1
176
     1
175
     1
176
     1
 42
1.0
176
     1
 92
        0
176
     1
 66
     7
176
     1
 43
1.0
176
     1
 76
     1
176
     1
 77
     6
176
     1
 78
     2
176
     1
 67
     7
176
     1
 79
     5
176
     1
170
     0
176
     1
171
     0
176
     1
290
     0
176
     1
 93
       13
176
     1
 44
0.0
176
     1
173
     0
176
     1
1001
ACAD
1000
AcDbSavedByObjectVersion
1070
     0
  0
VISUALSTYLE
  5
2D
102
{ACAD_XDICTIONARY
360
2CC
102
}
102
{ACAD_REACTORS
330
29
102
}
330
29
100
AcDbVisualStyle
  2
GouraudWithEdges
 70
     3
177
     2
291
     1
 71
     2
176
     1
 72
     2
176
     1
 73
     1
176
     1
 90
        2
176
     1
 40
0.6
176
     1
 41
30.0
176
     1
 63
     7
421
 16777215
176
     1
 74
     1
176
     1
 91
        0
176
     1
 64
     7
176
     1
 65
   257
176
     1
 75
     1
176
     1
175
     1
176
     1
 42
1.0
176
     1
 92
        0
176
     1
 66
   257
176
     1
 43
1.0
176
     1
 76
     1
176
     1
 77
     6
176
     1
 78
     2
176
     1
 67
     7
176
     1
 79
     5
176
     1
170
     0
176
     1
171
     0
176
     1
290
     0
176
     1
 93
       13
176
     1
 44
0.0
176
     1
173
     0
176
     1
1001
ACAD
1000
AcDbSavedByObjectVersion
1070
     0
  0
VISUALSTYLE
  5
31
102
{ACAD_XDICTIONARY
360
2D4
102
}
102
{ACAD_REACTORS
330
29
102
}
330
29
100
AcDbVisualStyle
  2
Hidden
 70
     6
177
     2
291
     0
 71
     1
176
     1
 72
     2
176
     1
 73
     2
176
     1
 90
        0
176
     1
 40
0.6
176
     1
 41
30.0
176
     1
 63
     7
421
 16777215
176
     1
 74
     2
176
     1
 91
        2
176
     1
 64
     7
176
     1
 65
   257
176
     1
 75
     2
176
     1
175
     1
176
     1
 42
40.0
176
     1
 92
        0
176
     1
 66
   257
176
     1
 43
1.0
176
     1
 76
     1
176
     1
 77
     6
176
     1
 78
     2
176
     1
 67
     7
176
     1
 79
     3
176
     1
170
     0
176
     1
171
     0
176
     1
290
     0
176
     1
 93
        1
176
     1
 44
0.0
176
     1
173
     0
176
     1
1001
ACAD
1000
AcDbSavedByObjectVersion
1070
     0
  0
VISUALSTYLE
  5
3F
102
{ACAD_XDICTIONARY
360
2F0
102
}
102
{ACAD_REACTORS
330
29
102
}
330
29
100
AcDbVisualStyle
  2
JitterOff
 70
    20
177
     2
291
     1
 71
     2
176
     0
 72
     2
176
     0
 73
     0
176
     0
 90
        0
176
     0
 40
0.6
176
     0
 41
30.0
176
     0
 63
     7
421
 16777215
176
     0
 74
     1
176
     0
 91
        4
176
     0
 64
     7
176
     0
 65
   257
176
     0
 75
     1
176
     0
175
     1
176
     0
 42
1.0
176
     0
 92
       10
176
     2
 66
     7
176
     0
 43
1.0
176
     0
 76
     1
176
     0
 77
     6
176
     0
 78
     2
176
     0
 67
     7
176
     0
 79
     5
176
     0
170
     0
176
     0
171
     0
176
     0
290
     0
176
     0
 93
        1
176
     0
 44
0.0
176
     0
173
     0
176
     0
1001
ACAD
1000
AcDbSavedByObjectVersion
1070
     0
  0
VISUALSTYLE
  5
37
102
{ACAD_XDICTIONARY
360
2E0
102
}
102
{ACAD_REACTORS
330
29
102
}
330
29
100
AcDbVisualStyle
  2
Linepattern
 70
    14
177
     2
291
     1
 71
     2
176
     1
 72
     2
176
     1
 73
     0
176
     1
 90
        0
176
     1
 40
0.6
176
     1
 41
30.0
176
     1
 63
     7
421
 16777215
176
     1
 74
     1
176
     1
 91
        4
176
     1
 64
     7
176
     1
 65
   257
176
     1
 75
     7
176
     1
175
     7
176
     1
 42
1.0
176
     1
 92
        8
176
     1
 66
     7
176
     1
 43
1.0
176
     1
 76
     1
176
     1
 77
     6
176
     1
 78
     2
176
     1
 67
     7
176
     1
 79
     5
176
     1
170
     0
176
     1
171
     0
176
     1
290
     0
176
     1
 93
        1
176
     1
 44
0.0
176
     1
173
     0
176
     1
1001
ACAD
1000
AcDbSavedByObjectVersion
1070
     0
  0
VISUALSTYLE
  5
40
102
{ACAD_XDICTIONARY
360
2F2
102
}
102
{ACAD_REACTORS
330
29
102
}
330
29
100
AcDbVisualStyle
  2
OverhangOff
 70
    21
177
     2
291
     1
 71
     2
176
     0
 72
     2
176
     0
 73
     0
176
     0
 90
        0
176
     0
 40
0.6
176
     0
 41
30.0
176
     0
 63
     7
421
 16777215
176
     0
 74
     1
176
     0
 91
        4
176
     0
 64
     7
176
     0
 65
   257
176
     0
 75
     1
176
     0
175
     1
176
     0
 42
1.0
176
     0
 92
        9
176
     2
 66
     7
176
     0
 43
1.0
176
     0
 76
     1
176
     0
 77
     6
176
     0
 78
     2
176
     0
 67
     7
176
     0
 79
     5
176
     0
170
     0
176
     0
171
     0
176
     0
290
     0
176
     0
 93
        1
176
     0
 44
0.0
176
     0
173
     0
176
     0
1001
ACAD
1000
AcDbSavedByObjectVersion
1070
     0
  0
VISUALSTYLE
  5
33
102
{ACAD_XDICTIONARY
360
2D8
102
}
102
{ACAD_REACTORS
330
29
102
}
330
29
100
AcDbVisualStyle
  2
Realistic
 70
     8
177
     2
291
     0
 71
     2
176
     1
 72
     3
176
     1
 73
     0
176
     1
 90
        2
176
     1
 40
0.6
176
     1
 41
30.0
176
     1
 63
     7
421
 16777215
176
     1
 74
     0
176
     1
 91
        0
176
     1
 64
     7
176
     1
 65
   257
176
     1
 75
     1
176
     1
175
     1
176
     1
 42
1.0
176
     1
 92
        8
176
     1
 66
   257
176
     1
 43
1.0
176
     1
 76
     1
176
     1
 77
     6
176
     1
 78
     2
176
     1
 67
     7
176
     1
 79
     3
176
     1
170
     0
176
     1
171
     0
176
     1
290
     0
176
     1
 93
       13
176
     1
 44
0.0
176
     1
173
     0
176
     1
1001
ACAD
1000
AcDbSavedByObjectVersion
1070
     0
  0
VISUALSTYLE
  5
3E
102
{ACAD_XDICTIONARY
360
2EE
102
}
102
{ACAD_REACTORS
330
29
102
}
330
29
100
AcDbVisualStyle
  2
Shaded
 70
    27
177
     2
291
     0
 71
     2
176
     1
 72
     2
176
     1
 73
     1
176
     1
 90
        2
176
     1
 40
0.6
176
     1
 41
30.0
176
     1
 63
     7
421
 16777215
176
     1
 74
     0
176
     1
 91
        4
176
     1
 64
     7
176
     1
 65
   257
176
     1
 75
     1
176
     1
175
     1
176
     1
 42
1.0
176
     1
 92
        8
176
     1
 66
   257
176
     1
 43
1.0
176
     1
 76
     1
176
     1
 77
     6
176
     1
 78
     2
176
     1
 67
     8
425
  7895160
176
     1
 79
     3
176
     1
170
     0
176
     1
171
     0
176
     1
290
     0
176
     1
 93
        5
176
     1
 44
0.0
176
     1
173
     0
176
     1
1001
ACAD
1000
AcDbSavedByObjectVersion
1070
     0
  0
VISUALSTYLE
  5
3D
102
{ACAD_XDICTIONARY
360
2EC
102
}
102
{ACAD_REACTORS
330
29
102
}
330
29
100
AcDbVisualStyle
  2
Shaded with edges
 70
    26
177
     2
291
     0
 71
     2
176
     1
 72
     2
176
     1
 73
     1
176
     1
 90
        2
176
     1
 40
0.6
176
     1
 41
30.0
176
     1
 63
     7
421
 16777215
176
     1
 74
     1
176
     1
 91
        2
176
     1
 64
     7
176
     1
 65
   257
176
     1
 75
     2
176
     1
175
     1
176
     1
 42
1.0
176
     1
 92
        8
176
     1
 66
   257
176
     1
 43
1.0
176
     1
 76
     1
176
     1
 77
     6
176
     1
 78
     2
176
     1
 67
     7
176
     1
 79
     3
176
     1
170
     0
176
     1
171
     0
176
     1
290
     0
176
     1
 93
        5
176
     1
 44
0.0
176
     1
173
     0
176
     1
1001
ACAD
1000
AcDbSavedByObjectVersion
1070
     0
  0
VISUALSTYLE
  5
3A
102
{ACAD_XDICTIONARY
360
2E6
102
}
102
{ACAD_REACTORS
330
29
102
}
330
29
100
AcDbVisualStyle
  2
Shades of Gray
 70
    23
177
     2
291
     0
 71
     2
176
     1
 72
     2
176
     1
 73
     3
176
     1
 90
        0
176
     1
 40
0.6
176
     1
 41
30.0
176
     1
 63
     7
421
 16777215
176
     1
 74
     2
176
     1
 91
        2
176
     1
 64
     7
176
     1
 65
     7
176
     1
 75
     1
176
     1
175
     1
176
     1
 42
40.0
176
     1
 92
        8
176
     1
 66
     7
176
     1
 43
1.0
176
     1
 76
     1
176
     1
 77
     6
176
     1
 78
     2
176
     1
 67
     7
176
     1
 79
     3
176
     1
170
     0
176
     1
171
     0
176
     1
290
     0
176
     1
 93
        1
176
     1
 44
0.0
176
     1
173
     0
176
     1
1001
ACAD
1000
AcDbSavedByObjectVersion
1070
     0
  0
VISUALSTYLE
  5
3B
102
{ACAD_XDICTIONARY
360
2E8
102
}
102
{ACAD_REACTORS
330
29
102
}
330
29
100
AcDbVisualStyle
  2
Sketchy
 70
    24
177
     2
291
     0
 71
     1
176
     1
 72
     2
176
     1
 73
     2
176
     1
 90
        0
176
     1
 40
0.6
176
     1
 41
30.0
176
     1
 63
     7
421
 16777215
176
     1
 74
     2
176
     1
 91
        2
176
     1
 64
     7
176
     1
 65
     7
176
     1
 75
     1
176
     1
175
     1
176
     1
 42
40.0
176
     1
 92
       11
176
     1
 66
     7
176
     1
 43
1.0
176
     1
 76
     1
176
     1
 77
     6
176
     1
 78
     2
176
     1
 67
     7
176
     1
 79
     6
176
     1
170
     0
176
     1
171
     0
176
     1
290
     0
176
     1
 93
        1
176
     1
 44
0.0
176
     1
173
     0
176
     1
1001
ACAD
1000
AcDbSavedByObjectVersion
1070
     0
  0
VISUALSTYLE
  5
36
102
{ACAD_XDICTIONARY
360
2DE
102
}
102
{ACAD_REACTORS
330
29
102
}
330
29
100
AcDbVisualStyle
  2
Thicken
 70
    13
177
     2
291
     1
 71
     2
176
     1
 72
     2
176
     1
 73
     0
176
     1
 90
        0
176
     1
 40
0.6
176
     1
 41
30.0
176
     1
 63
     7
421
 16777215
176
     1
 74
     1
176
     1
 91
        4
176
     1
 64
     7
176
     1
 65
   257
176
     1
 75
     1
176
     1
175
     1
176
     1
 42
1.0
176
     1
 92
       12
176
     1
 66
     7
176
     1
 43
1.0
176
     1
 76
     1
176
     1
 77
     6
176
     1
 78
     2
176
     1
 67
     7
176
     1
 79
     5
176
     1
170
     0
176
     1
171
     0
176
     1
290
     0
176
     1
 93
        1
176
     1
 44
0.0
176
     1
173
     0
176
     1
1001
ACAD
1000
AcDbSavedByObjectVersion
1070
     0
  0
VISUALSTYLE
  5
30
102
{ACAD_XDICTIONARY
360
2D2
102
}
102
{ACAD_REACTORS
330
29
102
}
330
29
100
AcDbVisualStyle
  2
Wireframe
 70
     5
177
     2
291
     0
 71
     0
176
     1
 72
     2
176
     1
 73
     0
176
     1
 90
        0
176
     1
 40
0.6
176
     1
 41
30.0
176
     1
 63
     7
421
 16777215
176
     1
 74
     1
176
     1
 91
        4
176
     1
 64
     7
176
     1
 65
   257
176
     1
 75
     1
176
     1
175
     1
176
     1
 42
1.0
176
     1
 92
        0
176
     1
 66
   257
176
     1
 43
1.0
176
     1
 76
     1
176
     1
 77
     6
176
     1
 78
     2
176
     1
 67
     7
176
     1
 79
     3
176
     1
170
     0
176
     1
171
     0
176
     1
290
     0
176
     1
 93
        1
176
     1
 44
0.0
176
     1
173
     0
176
     1
1001
ACAD
1000
AcDbSavedByObjectVersion
1070
     0
  0
VISUALSTYLE
  5
3C
102
{ACAD_XDICTIONARY
360
2EA
102
}
102
{ACAD_REACTORS
330
29
102
}
330
29
100
AcDbVisualStyle
  2
X-Ray
 70
    25
177
     2
291
     0
 71
     2
176
     1
 72
     2
176
     1
 73
     1
176
     1
 90
        1
176
     1
 40
0.5
176
     1
 41
30.0
176
     1
 63
     7
421
 16777215
176
     1
 74
     1
176
     1
 91
        0
176
     1
 64
     7
176
     1
 65
   257
176
     1
 75
     1
176
     1
175
     1
176
     1
 42
1.0
176
     1
 92
        8
176
     1
 66
     7
176
     1
 43
1.0
176
     1
 76
     1
176
     1
 77
     6
176
     1
 78
     2
176
     1
 67
     7
176
     1
 79
     3
176
     1
170
     0
176
     1
171
     0
176
     1
290
     0
176
     1
 93
       13
176
     1
 44
0.0
176
     1
173
     0
176
     1
1001
ACAD
1000
AcDbSavedByObjectVersion
1070
     0
  0
DICTIONARYVAR
  5
80
102
{ACAD_REACTORS
330
7B
102
}
330
7B
100
DictionaryVariables
280
     0
  1
1:1
  0
DICTIONARYVAR
  5
7D
102
{ACAD_REACTORS
330
7B
102
}
330
7B
100
DictionaryVariables
280
     0
  1
STANDARD
  0
DICTIONARYVAR
  5
7C
102
{ACAD_REACTORS
330
7B
102
}
330
7B
100
DictionaryVariables
280
     0
  1
STANDARD
  0
DICTIONARYVAR
  5
7E
102
{ACAD_REACTORS
330
7B
102
}
330
7B
100
DictionaryVariables
280
     0
  1
Imperial24
  0
DICTIONARYVAR
  5
7F
102
{ACAD_REACTORS
330
7B
102
}
330
7B
100
DictionaryVariables
280
     0
  1
Imperial24
  0
XRECORD
  5
2BF
102
{ACAD_REACTORS
330
2BB
102
}
330
2BB
100
AcDbXrecord
280
     1
  1
BUILDING_ID
  1
TRS Interlocking Cladding Details
  1
FLOOR_ID
  1
205359
  0
XRECORD
  5
2BD
102
{ACAD_REACTORS
330
2BB
102
}
330
2BB
100
AcDbXrecord
280
     1
  1
-2000051
  1
Lines
  1
-2000280
  1
Title Blocks
  1
-2000300
  1
Text Notes
  1
-2002000
  1
Detail Items
  0
XRECORD
  5
2BE
102
{ACAD_REACTORS
330
2BB
102
}
330
2BB
100
AcDbXrecord
280
     1
  1
-2000042
  1
Thin Lines
  1
-2000043
  1
Medium Lines
  1
-2000077
  1
Insulation Batting Lines
  1
-2000281
  1
Thin Lines
  1
-2000282
  1
Medium Lines
  1
15460
  1
Medium Lines
  1
15798
  1
Light Lines
  1
15813
  1
Thin Lines Dashed
  1
16110
  1
Building Wrap
  1
16116
  1
Medium Line
  1
16210
  1
01 - Black 1
  1
16257
  1
Wide Lines
  1
16362
  1
Thin Lines
  0
XRECORD
  5
2BC
102
{ACAD_REACTORS
330
2BB
102
}
330
2BB
100
AcDbXrecord
280
     1
  1
101506
  1
Break Line1 : Break Line
  1
113920
  1
TRS Interlocking profile : Interlocking 260
  1
14996
  1
Filled region : Crosshatch 3mm
  1
161041
  1
TRS Corrugate profile : TRS Corrugate
  1
16489
  1
Text : Century Gothic 2.5mm
  1
17867
  1
Filled region : Grey LT - Solid
  1
17873
  1
Filled region : White- Solid
  1
17941
  1
Filled region : Plasterboard
  1
203401
  1
Fascia : Fascia 260 x 20
  1
204056
  1
TRS Interlocking profile soffit end flashing : Interlocking 260
  1
2694
  1
Titleblock A4 The roofing store : Titleblock A4 The roofing store
  1
44489
  1
FP Timber Nog Packer1 : Variable
  1
59792
  1
HP_WProof - Building Wrap : HP_WProof - Building Wrap
  1
98793
  1
Hex head timberfix screw : Hex head timberfix screw
  1
98797
  1
CAVIBAT Batten Profile : Non Cavibat
  0
DICTIONARY
  5
2FA
330
6B
100
AcDbDictionary
280
     1
281
     1
  3
ACAD_XREC_ROUNDTRIP
360
2FB
  0
DICTIONARY
  5
1A
330
19
100
AcDbDictionary
280
     1
281
     1
  3
BUMPTILE
360
1C
  3
DIFFUSETILE
360
1B
  3
OPACITYTILE
360
1F
  3
REFLECTIONTILE
360
1E
  3
REFRACTIONTILE
360
20
  3
SPECULARTILE
360
1D
  0
DICTIONARY
  5
12
330
11
100
AcDbDictionary
280
     1
281
     1
  3
BUMPTILE
360
14
  3
DIFFUSETILE
360
13
  3
OPACITYTILE
360
17
  3
REFLECTIONTILE
360
16
  3
REFRACTIONTILE
360
18
  3
SPECULARTILE
360
15
  0
DICTIONARY
  5
22
330
21
100
AcDbDictionary
280
     1
281
     1
  3
BUMPTILE
360
24
  3
DIFFUSETILE
360
23
  3
OPACITYTILE
360
27
  3
REFLECTIONTILE
360
26
  3
REFRACTIONTILE
360
28
  3
SPECULARTILE
360
25
  0
DICTIONARY
  5
2F6
330
67
100
AcDbDictionary
280
     1
281
     1
  3
ACAD_XREC_ROUNDTRIP
360
2F7
  0
DICTIONARY
  5
2F8
330
69
100
AcDbDictionary
280
     1
281
     1
  3
ACAD_XREC_ROUNDTRIP
360
2F9
  0
DICTIONARY
  5
2C3
330
65
100
AcDbDictionary
280
     1
281
     1
  3
ACAD_ROUNDTRIP_2008_TABLESTYLE_CELLSTYLEMAP
360
2C4
  0
DICTIONARY
  5
2D0
330
2F
100
AcDbDictionary
280
     1
281
     1
  3
ACAD_XREC_ROUNDTRIP
360
2D1
  0
DICTIONARY
  5
2CE
330
2E
100
AcDbDictionary
280
     1
281
     1
  3
ACAD_XREC_ROUNDTRIP
360
2CF
  0
DICTIONARY
  5
2DC
330
35
100
AcDbDictionary
280
     1
281
     1
  3
ACAD_XREC_ROUNDTRIP
360
2DD
  0
DICTIONARY
  5
2E4
330
39
100
AcDbDictionary
280
     1
281
     1
  3
ACAD_XREC_ROUNDTRIP
360
2E5
  0
DICTIONARY
  5
2D6
330
32
100
AcDbDictionary
280
     1
281
     1
  3
ACAD_XREC_ROUNDTRIP
360
2D7
  0
DICTIONARY
  5
2DA
330
34
100
AcDbDictionary
280
     1
281
     1
  3
ACAD_XREC_ROUNDTRIP
360
2DB
  0
DICTIONARY
  5
2F4
330
41
100
AcDbDictionary
280
     1
281
     1
  3
ACAD_XREC_ROUNDTRIP
360
2F5
  0
DICTIONARY
  5
2E2
330
38
100
AcDbDictionary
280
     1
281
     1
  3
ACAD_XREC_ROUNDTRIP
360
2E3
  0
DICTIONARY
  5
2C6
330
2A
100
AcDbDictionary
280
     1
281
     1
  3
ACAD_XREC_ROUNDTRIP
360
2C7
  0
DICTIONARY
  5
2C8
330
2B
100
AcDbDictionary
280
     1
281
     1
  3
ACAD_XREC_ROUNDTRIP
360
2C9
  0
DICTIONARY
  5
2CA
330
2C
100
AcDbDictionary
280
     1
281
     1
  3
ACAD_XREC_ROUNDTRIP
360
2CB
  0
DICTIONARY
  5
2CC
330
2D
100
AcDbDictionary
280
     1
281
     1
  3
ACAD_XREC_ROUNDTRIP
360
2CD
  0
DICTIONARY
  5
2D4
330
31
100
AcDbDictionary
280
     1
281
     1
  3
ACAD_XREC_ROUNDTRIP
360
2D5
  0
DICTIONARY
  5
2F0
330
3F
100
AcDbDictionary
280
     1
281
     1
  3
ACAD_XREC_ROUNDTRIP
360
2F1
  0
DICTIONARY
  5
2E0
330
37
100
AcDbDictionary
280
     1
281
     1
  3
ACAD_XREC_ROUNDTRIP
360
2E1
  0
DICTIONARY
  5
2F2
330
40
100
AcDbDictionary
280
     1
281
     1
  3
ACAD_XREC_ROUNDTRIP
360
2F3
  0
DICTIONARY
  5
2D8
330
33
100
AcDbDictionary
280
     1
281
     1
  3
ACAD_XREC_ROUNDTRIP
360
2D9
  0
DICTIONARY
  5
2EE
330
3E
100
AcDbDictionary
280
     1
281
     1
  3
ACAD_XREC_ROUNDTRIP
360
2EF
  0
DICTIONARY
  5
2EC
330
3D
100
AcDbDictionary
280
     1
281
     1
  3
ACAD_XREC_ROUNDTRIP
360
2ED
  0
DICTIONARY
  5
2E6
330
3A
100
AcDbDictionary
280
     1
281
     1
  3
ACAD_XREC_ROUNDTRIP
360
2E7
  0
DICTIONARY
  5
2E8
330
3B
100
AcDbDictionary
280
     1
281
     1
  3
ACAD_XREC_ROUNDTRIP
360
2E9
  0
DICTIONARY
  5
2DE
330
36
100
AcDbDictionary
280
     1
281
     1
  3
ACAD_XREC_ROUNDTRIP
360
2DF
  0
DICTIONARY
  5
2D2
330
30
100
AcDbDictionary
280
     1
281
     1
  3
ACAD_XREC_ROUNDTRIP
360
2D3
  0
DICTIONARY
  5
2EA
330
3C
100
AcDbDictionary
280
     1
281
     1
  3
ACAD_XREC_ROUNDTRIP
360
2EB
  0
XRECORD
  5
2FB
102
{ACAD_REACTORS
330
2FA
102
}
330
2FA
100
AcDbXrecord
280
     1
102
DISPLAYNAME
  1
Imperial24
102
FLAGS
 90
        0
  0
XRECORD
  5
1C
102
{ACAD_REACTORS
330
1A
102
}
330
1A
100
AcDbXrecord
280
     1
270
     1
271
     1
  0
XRECORD
  5
1B
102
{ACAD_REACTORS
330
1A
102
}
330
1A
100
AcDbXrecord
280
     1
270
     1
271
     1
  0
XRECORD
  5
1F
102
{ACAD_REACTORS
330
1A
102
}
330
1A
100
AcDbXrecord
280
     1
270
     1
271
     1
  0
XRECORD
  5
1E
102
{ACAD_REACTORS
330
1A
102
}
330
1A
100
AcDbXrecord
280
     1
270
     1
271
     1
  0
XRECORD
  5
20
102
{ACAD_REACTORS
330
1A
102
}
330
1A
100
AcDbXrecord
280
     1
270
     1
271
     1
  0
XRECORD
  5
1D
102
{ACAD_REACTORS
330
1A
102
}
330
1A
100
AcDbXrecord
280
     1
270
     1
271
     1
  0
XRECORD
  5
14
102
{ACAD_REACTORS
330
12
102
}
330
12
100
AcDbXrecord
280
     1
270
     1
271
     1
  0
XRECORD
  5
13
102
{ACAD_REACTORS
330
12
102
}
330
12
100
AcDbXrecord
280
     1
270
     1
271
     1
  0
XRECORD
  5
17
102
{ACAD_REACTORS
330
12
102
}
330
12
100
AcDbXrecord
280
     1
270
     1
271
     1
  0
XRECORD
  5
16
102
{ACAD_REACTORS
330
12
102
}
330
12
100
AcDbXrecord
280
     1
270
     1
271
     1
  0
XRECORD
  5
18
102
{ACAD_REACTORS
330
12
102
}
330
12
100
AcDbXrecord
280
     1
270
     1
271
     1
  0
XRECORD
  5
15
102
{ACAD_REACTORS
330
12
102
}
330
12
100
AcDbXrecord
280
     1
270
     1
271
     1
  0
XRECORD
  5
24
102
{ACAD_REACTORS
330
22
102
}
330
22
100
AcDbXrecord
280
     1
270
     1
271
     1
  0
XRECORD
  5
23
102
{ACAD_REACTORS
330
22
102
}
330
22
100
AcDbXrecord
280
     1
270
     1
271
     1
  0
XRECORD
  5
27
102
{ACAD_REACTORS
330
22
102
}
330
22
100
AcDbXrecord
280
     1
270
     1
271
     1
  0
XRECORD
  5
26
102
{ACAD_REACTORS
330
22
102
}
330
22
100
AcDbXrecord
280
     1
270
     1
271
     1
  0
XRECORD
  5
28
102
{ACAD_REACTORS
330
22
102
}
330
22
100
AcDbXrecord
280
     1
270
     1
271
     1
  0
XRECORD
  5
25
102
{ACAD_REACTORS
330
22
102
}
330
22
100
AcDbXrecord
280
     1
270
     1
271
     1
  0
XRECORD
  5
2F7
102
{ACAD_REACTORS
330
2F6
102
}
330
2F6
100
AcDbXrecord
280
     1
102
ACAD_ROUNDTRIP_2012_MLEADER_STYLE
298
     1
  0
XRECORD
  5
2F9
102
{ACAD_REACTORS
330
2F8
102
}
330
2F8
100
AcDbXrecord
280
     1
102
DISPLAYNAME
  1
Imperial24
102
FLAGS
 90
        0
  0
CELLSTYLEMAP
  5
2C4
102
{ACAD_REACTORS
330
2C3
102
}
330
2C3
100
AcDbCellStyleMap
 90
        3
300
CELLSTYLE
  1
TABLEFORMAT_BEGIN
 90
        5
170
     1
 91
        0
 92
    32768
 62
   257
 93
        1
300
CONTENTFORMAT
  1
CONTENTFORMAT_BEGIN
 90
        0
 91
        0
 92
      512
 93
        0
300

 40
0.0
140
1.0
 94
        5
 62
     0
340
55
144
0.25
309
CONTENTFORMAT_END
171
     0
 94
        0
309
TABLEFORMAT_END
  1
CELLSTYLE_BEGIN
 90
        1
 91
        1
300
_TITLE
309
CELLSTYLE_END
300
CELLSTYLE
  1
TABLEFORMAT_BEGIN
 90
        5
170
     1
 91
        0
 92
        0
 62
   257
 93
        1
300
CONTENTFORMAT
  1
CONTENTFORMAT_BEGIN
 90
        0
 91
        0
 92
      512
 93
        0
300

 40
0.0
140
1.0
 94
        5
 62
     0
340
55
144
0.18
309
CONTENTFORMAT_END
171
     0
 94
        0
309
TABLEFORMAT_END
  1
CELLSTYLE_BEGIN
 90
        2
 91
        1
300
_HEADER
309
CELLSTYLE_END
300
CELLSTYLE
  1
TABLEFORMAT_BEGIN
 90
        5
170
     1
 91
        0
 92
        0
 62
   257
 93
        1
300
CONTENTFORMAT
  1
CONTENTFORMAT_BEGIN
 90
        0
 91
        0
 92
      512
 93
        0
300

 40
0.0
140
1.0
 94
        2
 62
     0
340
55
144
0.18
309
CONTENTFORMAT_END
171
     0
 94
        0
309
TABLEFORMAT_END
  1
CELLSTYLE_BEGIN
 90
        3
 91
        2
300
_DATA
309
CELLSTYLE_END
  0
XRECORD
  5
2D1
102
{ACAD_REACTORS
330
2D0
102
}
330
2D0
100
AcDbXrecord
280
     1
102
RTVSPost2010Prop28
280
     1
102
RTVSPost2010PropOp28
 70
     1
102
RTVSPost2010Prop29
280
     1
102
RTVSPost2010PropOp29
 70
     1
102
RTVSPost2010Prop30
280
     0
102
RTVSPost2010PropOp30
 70
     1
102
RTVSPost2010Prop31
280
     0
102
RTVSPost2010PropOp31
 70
     1
102
RTVSPost2010Prop32
280
     0
102
RTVSPost2010PropOp32
 70
     1
102
RTVSPost2010Prop33
280
     0
102
RTVSPost2010PropOp33
 70
     1
102
RTVSPost2010Prop34
280
     0
102
RTVSPost2010PropOp34
 70
     1
102
RTVSPost2010Prop35
280
     0
102
RTVSPost2010PropOp35
 70
     1
102
RTVSPost2010Prop36
280
     0
102
RTVSPost2010PropOp36
 70
     1
102
RTVSPost2010Prop37
 90
       50
102
RTVSPost2010PropOp37
 70
     1
102
RTVSPost2010Prop38
140
0.0
102
RTVSPost2010PropOp38
 70
     1
102
RTVSPost2010Prop39
140
1.0
102
RTVSPost2010PropOp39
 70
     1
102
RTVSPost2010Prop40
 90
        0
102
RTVSPost2010PropOp40
 70
     1
102
RTVSPost2010Prop41ColorIndex
 90
       18
102
RTVSPost2010Prop41ColorRGB
 90
        0
102
RTVSPost2010PropOp41
 70
     1
102
RTVSPost2010Prop42
 90
       50
102
RTVSPost2010PropOp42
 70
     1
102
RTVSPost2010Prop43
 90
        3
102
RTVSPost2010PropOp43
 70
     1
102
RTVSPost2010Prop44ColorIndex
 90
        5
102
RTVSPost2010Prop44ColorRGB
 90
      255
102
RTVSPost2010PropOp44
 70
     1
102
RTVSPost2010Prop45
280
     0
102
RTVSPost2010PropOp45
 70
     1
102
RTVSPost2010Prop46
 90
       50
102
RTVSPost2010PropOp46
 70
     1
102
RTVSPost2010Prop47
 90
       50
102
RTVSPost2010PropOp47
 70
     1
102
RTVSPost2010Prop48
 90
       50
102
RTVSPost2010PropOp48
 70
     1
102
RTVSPost2010Prop49
280
     0
102
RTVSPost2010PropOp49
 70
     1
102
RTVSPost2010Prop50
 90
       50
102
RTVSPost2010PropOp50
 70
     1
102
RTVSPost2010Prop51ColorIndex
 90
      256
102
RTVSPost2010Prop51ColorRGB
 90
-16777216
102
RTVSPost2010PropOp51
 70
     0
102
RTVSPost2010Prop52
140
1.0
102
RTVSPost2010PropOp52
 70
     0
102
RTVSPost2010Prop53
 90
        2
102
RTVSPost2010PropOp53
 70
     1
102
RTVSPost2010Prop54
  1
strokes_ogs.tif
102
RTVSPost2010PropOp54
 70
     1
102
RTVSPost2010Prop55
280
     0
102
RTVSPost2010PropOp55
 70
     1
102
RTVSPost2010Prop56
140
1.0
102
RTVSPost2010PropOp56
 70
     1
102
RTVSPost2010Prop57
140
1.0
102
RTVSPost2010PropOp57
 70
     1
  0
XRECORD
  5
2CF
102
{ACAD_REACTORS
330
2CE
102
}
330
2CE
100
AcDbXrecord
280
     1
102
RTVSPost2010Prop28
280
     0
102
RTVSPost2010PropOp28
 70
     1
102
RTVSPost2010Prop29
280
     1
102
RTVSPost2010PropOp29
 70
     1
102
RTVSPost2010Prop30
280
     1
102
RTVSPost2010PropOp30
 70
     1
102
RTVSPost2010Prop31
280
     0
102
RTVSPost2010PropOp31
 70
     1
102
RTVSPost2010Prop32
280
     0
102
RTVSPost2010PropOp32
 70
     1
102
RTVSPost2010Prop33
280
     0
102
RTVSPost2010PropOp33
 70
     1
102
RTVSPost2010Prop34
280
     0
102
RTVSPost2010PropOp34
 70
     1
102
RTVSPost2010Prop35
280
     0
102
RTVSPost2010PropOp35
 70
     1
102
RTVSPost2010Prop36
280
     0
102
RTVSPost2010PropOp36
 70
     1
102
RTVSPost2010Prop37
 90
       50
102
RTVSPost2010PropOp37
 70
     1
102
RTVSPost2010Prop38
140
0.0
102
RTVSPost2010PropOp38
 70
     1
102
RTVSPost2010Prop39
140
1.0
102
RTVSPost2010PropOp39
 70
     1
102
RTVSPost2010Prop40
 90
        0
102
RTVSPost2010PropOp40
 70
     1
102
RTVSPost2010Prop41ColorIndex
 90
       18
102
RTVSPost2010Prop41ColorRGB
 90
        0
102
RTVSPost2010PropOp41
 70
     1
102
RTVSPost2010Prop42
 90
       50
102
RTVSPost2010PropOp42
 70
     1
102
RTVSPost2010Prop43
 90
        3
102
RTVSPost2010PropOp43
 70
     1
102
RTVSPost2010Prop44ColorIndex
 90
        5
102
RTVSPost2010Prop44ColorRGB
 90
      255
102
RTVSPost2010PropOp44
 70
     1
102
RTVSPost2010Prop45
280
     0
102
RTVSPost2010PropOp45
 70
     1
102
RTVSPost2010Prop46
 90
       50
102
RTVSPost2010PropOp46
 70
     1
102
RTVSPost2010Prop47
 90
       50
102
RTVSPost2010PropOp47
 70
     1
102
RTVSPost2010Prop48
 90
       50
102
RTVSPost2010PropOp48
 70
     1
102
RTVSPost2010Prop49
280
     0
102
RTVSPost2010PropOp49
 70
     1
102
RTVSPost2010Prop50
 90
       50
102
RTVSPost2010PropOp50
 70
     1
102
RTVSPost2010Prop51ColorIndex
 90
      256
102
RTVSPost2010Prop51ColorRGB
 90
-16777216
102
RTVSPost2010PropOp51
 70
     0
102
RTVSPost2010Prop52
140
1.0
102
RTVSPost2010PropOp52
 70
     0
102
RTVSPost2010Prop53
 90
        2
102
RTVSPost2010PropOp53
 70
     1
102
RTVSPost2010Prop54
  1
strokes_ogs.tif
102
RTVSPost2010PropOp54
 70
     1
102
RTVSPost2010Prop55
280
     0
102
RTVSPost2010PropOp55
 70
     1
102
RTVSPost2010Prop56
140
1.0
102
RTVSPost2010PropOp56
 70
     1
102
RTVSPost2010Prop57
140
1.0
102
RTVSPost2010PropOp57
 70
     1
  0
XRECORD
  5
2DD
102
{ACAD_REACTORS
330
2DC
102
}
330
2DC
100
AcDbXrecord
280
     1
102
RTVSPost2010Prop28
280
     0
102
RTVSPost2010PropOp28
 70
     1
102
RTVSPost2010Prop29
280
     1
102
RTVSPost2010PropOp29
 70
     1
102
RTVSPost2010Prop30
280
     1
102
RTVSPost2010PropOp30
 70
     1
102
RTVSPost2010Prop31
280
     0
102
RTVSPost2010PropOp31
 70
     1
102
RTVSPost2010Prop32
280
     0
102
RTVSPost2010PropOp32
 70
     1
102
RTVSPost2010Prop33
280
     0
102
RTVSPost2010PropOp33
 70
     1
102
RTVSPost2010Prop34
280
     0
102
RTVSPost2010PropOp34
 70
     1
102
RTVSPost2010Prop35
280
     0
102
RTVSPost2010PropOp35
 70
     1
102
RTVSPost2010Prop36
280
     0
102
RTVSPost2010PropOp36
 70
     1
102
RTVSPost2010Prop37
 90
       50
102
RTVSPost2010PropOp37
 70
     1
102
RTVSPost2010Prop38
140
0.0
102
RTVSPost2010PropOp38
 70
     1
102
RTVSPost2010Prop39
140
1.0
102
RTVSPost2010PropOp39
 70
     1
102
RTVSPost2010Prop40
 90
        0
102
RTVSPost2010PropOp40
 70
     1
102
RTVSPost2010Prop41ColorIndex
 90
       18
102
RTVSPost2010Prop41ColorRGB
 90
        0
102
RTVSPost2010PropOp41
 70
     1
102
RTVSPost2010Prop42
 90
       50
102
RTVSPost2010PropOp42
 70
     1
102
RTVSPost2010Prop43
 90
        3
102
RTVSPost2010PropOp43
 70
     1
102
RTVSPost2010Prop44ColorIndex
 90
        5
102
RTVSPost2010Prop44ColorRGB
 90
      255
102
RTVSPost2010PropOp44
 70
     1
102
RTVSPost2010Prop45
280
     0
102
RTVSPost2010PropOp45
 70
     1
102
RTVSPost2010Prop46
 90
       50
102
RTVSPost2010PropOp46
 70
     1
102
RTVSPost2010Prop47
 90
       50
102
RTVSPost2010PropOp47
 70
     1
102
RTVSPost2010Prop48
 90
       50
102
RTVSPost2010PropOp48
 70
     1
102
RTVSPost2010Prop49
280
     0
102
RTVSPost2010PropOp49
 70
     1
102
RTVSPost2010Prop50
 90
       50
102
RTVSPost2010PropOp50
 70
     1
102
RTVSPost2010Prop51ColorIndex
 90
      256
102
RTVSPost2010Prop51ColorRGB
 90
-16777216
102
RTVSPost2010PropOp51
 70
     0
102
RTVSPost2010Prop52
140
1.0
102
RTVSPost2010PropOp52
 70
     0
102
RTVSPost2010Prop53
 90
        2
102
RTVSPost2010PropOp53
 70
     1
102
RTVSPost2010Prop54
  1
strokes_ogs.tif
102
RTVSPost2010PropOp54
 70
     1
102
RTVSPost2010Prop55
280
     0
102
RTVSPost2010PropOp55
 70
     1
102
RTVSPost2010Prop56
140
1.0
102
RTVSPost2010PropOp56
 70
     1
102
RTVSPost2010Prop57
140
1.0
102
RTVSPost2010PropOp57
 70
     1
  0
XRECORD
  5
2E5
102
{ACAD_REACTORS
330
2E4
102
}
330
2E4
100
AcDbXrecord
280
     1
102
RTVSPost2010Prop28
280
     0
102
RTVSPost2010PropOp28
 70
     1
102
RTVSPost2010Prop29
280
     1
102
RTVSPost2010PropOp29
 70
     1
102
RTVSPost2010Prop30
280
     1
102
RTVSPost2010PropOp30
 70
     1
102
RTVSPost2010Prop31
280
     0
102
RTVSPost2010PropOp31
 70
     1
102
RTVSPost2010Prop32
280
     0
102
RTVSPost2010PropOp32
 70
     1
102
RTVSPost2010Prop33
280
     0
102
RTVSPost2010PropOp33
 70
     1
102
RTVSPost2010Prop34
280
     0
102
RTVSPost2010PropOp34
 70
     1
102
RTVSPost2010Prop35
280
     0
102
RTVSPost2010PropOp35
 70
     1
102
RTVSPost2010Prop36
280
     0
102
RTVSPost2010PropOp36
 70
     1
102
RTVSPost2010Prop37
 90
       50
102
RTVSPost2010PropOp37
 70
     1
102
RTVSPost2010Prop38
140
0.0
102
RTVSPost2010PropOp38
 70
     1
102
RTVSPost2010Prop39
140
1.0
102
RTVSPost2010PropOp39
 70
     1
102
RTVSPost2010Prop40
 90
        0
102
RTVSPost2010PropOp40
 70
     1
102
RTVSPost2010Prop41ColorIndex
 90
       18
102
RTVSPost2010Prop41ColorRGB
 90
        0
102
RTVSPost2010PropOp41
 70
     1
102
RTVSPost2010Prop42
 90
       50
102
RTVSPost2010PropOp42
 70
     1
102
RTVSPost2010Prop43
 90
        3
102
RTVSPost2010PropOp43
 70
     1
102
RTVSPost2010Prop44ColorIndex
 90
        5
102
RTVSPost2010Prop44ColorRGB
 90
      255
102
RTVSPost2010PropOp44
 70
     1
102
RTVSPost2010Prop45
280
     0
102
RTVSPost2010PropOp45
 70
     1
102
RTVSPost2010Prop46
 90
       50
102
RTVSPost2010PropOp46
 70
     1
102
RTVSPost2010Prop47
 90
       50
102
RTVSPost2010PropOp47
 70
     1
102
RTVSPost2010Prop48
 90
       50
102
RTVSPost2010PropOp48
 70
     1
102
RTVSPost2010Prop49
280
     0
102
RTVSPost2010PropOp49
 70
     1
102
RTVSPost2010Prop50
 90
       50
102
RTVSPost2010PropOp50
 70
     1
102
RTVSPost2010Prop51ColorIndex
 90
      256
102
RTVSPost2010Prop51ColorRGB
 90
-16777216
102
RTVSPost2010PropOp51
 70
     0
102
RTVSPost2010Prop52
140
1.0
102
RTVSPost2010PropOp52
 70
     0
102
RTVSPost2010Prop53
 90
        2
102
RTVSPost2010PropOp53
 70
     1
102
RTVSPost2010Prop54
  1
strokes_ogs.tif
102
RTVSPost2010PropOp54
 70
     1
102
RTVSPost2010Prop55
280
     0
102
RTVSPost2010PropOp55
 70
     1
102
RTVSPost2010Prop56
140
1.0
102
RTVSPost2010PropOp56
 70
     1
102
RTVSPost2010Prop57
140
1.0
102
RTVSPost2010PropOp57
 70
     1
  0
XRECORD
  5
2D7
102
{ACAD_REACTORS
330
2D6
102
}
330
2D6
100
AcDbXrecord
280
     1
102
RTVSPost2010Prop28
280
     0
102
RTVSPost2010PropOp28
 70
     1
102
RTVSPost2010Prop29
280
     1
102
RTVSPost2010PropOp29
 70
     1
102
RTVSPost2010Prop30
280
     1
102
RTVSPost2010PropOp30
 70
     1
102
RTVSPost2010Prop31
280
     0
102
RTVSPost2010PropOp31
 70
     1
102
RTVSPost2010Prop32
280
     0
102
RTVSPost2010PropOp32
 70
     1
102
RTVSPost2010Prop33
280
     0
102
RTVSPost2010PropOp33
 70
     1
102
RTVSPost2010Prop34
280
     0
102
RTVSPost2010PropOp34
 70
     1
102
RTVSPost2010Prop35
280
     0
102
RTVSPost2010PropOp35
 70
     1
102
RTVSPost2010Prop36
280
     0
102
RTVSPost2010PropOp36
 70
     1
102
RTVSPost2010Prop37
 90
       50
102
RTVSPost2010PropOp37
 70
     1
102
RTVSPost2010Prop38
140
0.0
102
RTVSPost2010PropOp38
 70
     1
102
RTVSPost2010Prop39
140
1.0
102
RTVSPost2010PropOp39
 70
     1
102
RTVSPost2010Prop40
 90
        0
102
RTVSPost2010PropOp40
 70
     1
102
RTVSPost2010Prop41ColorIndex
 90
       18
102
RTVSPost2010Prop41ColorRGB
 90
        0
102
RTVSPost2010PropOp41
 70
     1
102
RTVSPost2010Prop42
 90
       50
102
RTVSPost2010PropOp42
 70
     1
102
RTVSPost2010Prop43
 90
        3
102
RTVSPost2010PropOp43
 70
     1
102
RTVSPost2010Prop44ColorIndex
 90
        5
102
RTVSPost2010Prop44ColorRGB
 90
      255
102
RTVSPost2010PropOp44
 70
     1
102
RTVSPost2010Prop45
280
     0
102
RTVSPost2010PropOp45
 70
     1
102
RTVSPost2010Prop46
 90
       50
102
RTVSPost2010PropOp46
 70
     1
102
RTVSPost2010Prop47
 90
       50
102
RTVSPost2010PropOp47
 70
     1
102
RTVSPost2010Prop48
 90
       50
102
RTVSPost2010PropOp48
 70
     1
102
RTVSPost2010Prop49
280
     0
102
RTVSPost2010PropOp49
 70
     1
102
RTVSPost2010Prop50
 90
       50
102
RTVSPost2010PropOp50
 70
     1
102
RTVSPost2010Prop51ColorIndex
 90
      256
102
RTVSPost2010Prop51ColorRGB
 90
-16777216
102
RTVSPost2010PropOp51
 70
     0
102
RTVSPost2010Prop52
140
1.0
102
RTVSPost2010PropOp52
 70
     0
102
RTVSPost2010Prop53
 90
        2
102
RTVSPost2010PropOp53
 70
     1
102
RTVSPost2010Prop54
  1
strokes_ogs.tif
102
RTVSPost2010PropOp54
 70
     1
102
RTVSPost2010Prop55
280
     0
102
RTVSPost2010PropOp55
 70
     1
102
RTVSPost2010Prop56
140
1.0
102
RTVSPost2010PropOp56
 70
     1
102
RTVSPost2010Prop57
140
1.0
102
RTVSPost2010PropOp57
 70
     1
  0
XRECORD
  5
2DB
102
{ACAD_REACTORS
330
2DA
102
}
330
2DA
100
AcDbXrecord
280
     1
102
RTVSPost2010Prop28
280
     0
102
RTVSPost2010PropOp28
 70
     1
102
RTVSPost2010Prop29
280
     1
102
RTVSPost2010PropOp29
 70
     1
102
RTVSPost2010Prop30
280
     1
102
RTVSPost2010PropOp30
 70
     1
102
RTVSPost2010Prop31
280
     0
102
RTVSPost2010PropOp31
 70
     1
102
RTVSPost2010Prop32
280
     0
102
RTVSPost2010PropOp32
 70
     1
102
RTVSPost2010Prop33
280
     0
102
RTVSPost2010PropOp33
 70
     1
102
RTVSPost2010Prop34
280
     0
102
RTVSPost2010PropOp34
 70
     1
102
RTVSPost2010Prop35
280
     0
102
RTVSPost2010PropOp35
 70
     1
102
RTVSPost2010Prop36
280
     0
102
RTVSPost2010PropOp36
 70
     1
102
RTVSPost2010Prop37
 90
       50
102
RTVSPost2010PropOp37
 70
     1
102
RTVSPost2010Prop38
140
0.0
102
RTVSPost2010PropOp38
 70
     1
102
RTVSPost2010Prop39
140
1.0
102
RTVSPost2010PropOp39
 70
     1
102
RTVSPost2010Prop40
 90
        0
102
RTVSPost2010PropOp40
 70
     1
102
RTVSPost2010Prop41ColorIndex
 90
       18
102
RTVSPost2010Prop41ColorRGB
 90
        0
102
RTVSPost2010PropOp41
 70
     1
102
RTVSPost2010Prop42
 90
       50
102
RTVSPost2010PropOp42
 70
     1
102
RTVSPost2010Prop43
 90
        3
102
RTVSPost2010PropOp43
 70
     1
102
RTVSPost2010Prop44ColorIndex
 90
        5
102
RTVSPost2010Prop44ColorRGB
 90
      255
102
RTVSPost2010PropOp44
 70
     1
102
RTVSPost2010Prop45
280
     0
102
RTVSPost2010PropOp45
 70
     1
102
RTVSPost2010Prop46
 90
       50
102
RTVSPost2010PropOp46
 70
     1
102
RTVSPost2010Prop47
 90
       50
102
RTVSPost2010PropOp47
 70
     1
102
RTVSPost2010Prop48
 90
       50
102
RTVSPost2010PropOp48
 70
     1
102
RTVSPost2010Prop49
280
     0
102
RTVSPost2010PropOp49
 70
     1
102
RTVSPost2010Prop50
 90
       50
102
RTVSPost2010PropOp50
 70
     1
102
RTVSPost2010Prop51ColorIndex
 90
      256
102
RTVSPost2010Prop51ColorRGB
 90
-16777216
102
RTVSPost2010PropOp51
 70
     0
102
RTVSPost2010Prop52
140
1.0
102
RTVSPost2010PropOp52
 70
     0
102
RTVSPost2010Prop53
 90
        2
102
RTVSPost2010PropOp53
 70
     1
102
RTVSPost2010Prop54
  1
strokes_ogs.tif
102
RTVSPost2010PropOp54
 70
     1
102
RTVSPost2010Prop55
280
     0
102
RTVSPost2010PropOp55
 70
     1
102
RTVSPost2010Prop56
140
1.0
102
RTVSPost2010PropOp56
 70
     1
102
RTVSPost2010Prop57
140
1.0
102
RTVSPost2010PropOp57
 70
     1
  0
XRECORD
  5
2F5
102
{ACAD_REACTORS
330
2F4
102
}
330
2F4
100
AcDbXrecord
280
     1
102
RTVSPost2010Prop28
280
     0
102
RTVSPost2010PropOp28
 70
     0
102
RTVSPost2010Prop29
280
     1
102
RTVSPost2010PropOp29
 70
     0
102
RTVSPost2010Prop30
280
     1
102
RTVSPost2010PropOp30
 70
     0
102
RTVSPost2010Prop31
280
     0
102
RTVSPost2010PropOp31
 70
     0
102
RTVSPost2010Prop32
280
     0
102
RTVSPost2010PropOp32
 70
     0
102
RTVSPost2010Prop33
280
     0
102
RTVSPost2010PropOp33
 70
     0
102
RTVSPost2010Prop34
280
     0
102
RTVSPost2010PropOp34
 70
     0
102
RTVSPost2010Prop35
280
     0
102
RTVSPost2010PropOp35
 70
     0
102
RTVSPost2010Prop36
280
     0
102
RTVSPost2010PropOp36
 70
     0
102
RTVSPost2010Prop37
 90
       50
102
RTVSPost2010PropOp37
 70
     0
102
RTVSPost2010Prop38
140
0.0
102
RTVSPost2010PropOp38
 70
     0
102
RTVSPost2010Prop39
140
1.0
102
RTVSPost2010PropOp39
 70
     0
102
RTVSPost2010Prop40
 90
        0
102
RTVSPost2010PropOp40
 70
     0
102
RTVSPost2010Prop41ColorIndex
 90
       18
102
RTVSPost2010Prop41ColorRGB
 90
        0
102
RTVSPost2010PropOp41
 70
     0
102
RTVSPost2010Prop42
 90
       50
102
RTVSPost2010PropOp42
 70
     0
102
RTVSPost2010Prop43
 90
        3
102
RTVSPost2010PropOp43
 70
     0
102
RTVSPost2010Prop44ColorIndex
 90
        5
102
RTVSPost2010Prop44ColorRGB
 90
      255
102
RTVSPost2010PropOp44
 70
     0
102
RTVSPost2010Prop45
280
     0
102
RTVSPost2010PropOp45
 70
     0
102
RTVSPost2010Prop46
 90
       50
102
RTVSPost2010PropOp46
 70
     0
102
RTVSPost2010Prop47
 90
       50
102
RTVSPost2010PropOp47
 70
     0
102
RTVSPost2010Prop48
 90
       50
102
RTVSPost2010PropOp48
 70
     0
102
RTVSPost2010Prop49
280
     0
102
RTVSPost2010PropOp49
 70
     0
102
RTVSPost2010Prop50
 90
       50
102
RTVSPost2010PropOp50
 70
     0
102
RTVSPost2010Prop51ColorIndex
 90
      256
102
RTVSPost2010Prop51ColorRGB
 90
-16777216
102
RTVSPost2010PropOp51
 70
     0
102
RTVSPost2010Prop52
140
1.0
102
RTVSPost2010PropOp52
 70
     0
102
RTVSPost2010Prop53
 90
        2
102
RTVSPost2010PropOp53
 70
     0
102
RTVSPost2010Prop54
  1
strokes_ogs.tif
102
RTVSPost2010PropOp54
 70
     0
102
RTVSPost2010Prop55
280
     0
102
RTVSPost2010PropOp55
 70
     0
102
RTVSPost2010Prop56
140
1.0
102
RTVSPost2010PropOp56
 70
     0
102
RTVSPost2010Prop57
140
1.0
102
RTVSPost2010PropOp57
 70
     0
  0
XRECORD
  5
2E3
102
{ACAD_REACTORS
330
2E2
102
}
330
2E2
100
AcDbXrecord
280
     1
102
RTVSPost2010Prop28
280
     0
102
RTVSPost2010PropOp28
 70
     1
102
RTVSPost2010Prop29
280
     1
102
RTVSPost2010PropOp29
 70
     1
102
RTVSPost2010Prop30
280
     1
102
RTVSPost2010PropOp30
 70
     1
102
RTVSPost2010Prop31
280
     0
102
RTVSPost2010PropOp31
 70
     1
102
RTVSPost2010Prop32
280
     0
102
RTVSPost2010PropOp32
 70
     1
102
RTVSPost2010Prop33
280
     0
102
RTVSPost2010PropOp33
 70
     1
102
RTVSPost2010Prop34
280
     0
102
RTVSPost2010PropOp34
 70
     1
102
RTVSPost2010Prop35
280
     0
102
RTVSPost2010PropOp35
 70
     1
102
RTVSPost2010Prop36
280
     0
102
RTVSPost2010PropOp36
 70
     1
102
RTVSPost2010Prop37
 90
       50
102
RTVSPost2010PropOp37
 70
     1
102
RTVSPost2010Prop38
140
0.0
102
RTVSPost2010PropOp38
 70
     1
102
RTVSPost2010Prop39
140
1.0
102
RTVSPost2010PropOp39
 70
     1
102
RTVSPost2010Prop40
 90
        0
102
RTVSPost2010PropOp40
 70
     1
102
RTVSPost2010Prop41ColorIndex
 90
       18
102
RTVSPost2010Prop41ColorRGB
 90
        0
102
RTVSPost2010PropOp41
 70
     1
102
RTVSPost2010Prop42
 90
       50
102
RTVSPost2010PropOp42
 70
     1
102
RTVSPost2010Prop43
 90
        3
102
RTVSPost2010PropOp43
 70
     1
102
RTVSPost2010Prop44ColorIndex
 90
        5
102
RTVSPost2010Prop44ColorRGB
 90
      255
102
RTVSPost2010PropOp44
 70
     1
102
RTVSPost2010Prop45
280
     0
102
RTVSPost2010PropOp45
 70
     1
102
RTVSPost2010Prop46
 90
       50
102
RTVSPost2010PropOp46
 70
     1
102
RTVSPost2010Prop47
 90
       50
102
RTVSPost2010PropOp47
 70
     1
102
RTVSPost2010Prop48
 90
       50
102
RTVSPost2010PropOp48
 70
     1
102
RTVSPost2010Prop49
280
     0
102
RTVSPost2010PropOp49
 70
     1
102
RTVSPost2010Prop50
 90
       50
102
RTVSPost2010PropOp50
 70
     1
102
RTVSPost2010Prop51ColorIndex
 90
      256
102
RTVSPost2010Prop51ColorRGB
 90
-16777216
102
RTVSPost2010PropOp51
 70
     0
102
RTVSPost2010Prop52
140
1.0
102
RTVSPost2010PropOp52
 70
     0
102
RTVSPost2010Prop53
 90
        2
102
RTVSPost2010PropOp53
 70
     1
102
RTVSPost2010Prop54
  1
strokes_ogs.tif
102
RTVSPost2010PropOp54
 70
     1
102
RTVSPost2010Prop55
280
     0
102
RTVSPost2010PropOp55
 70
     1
102
RTVSPost2010Prop56
140
1.0
102
RTVSPost2010PropOp56
 70
     1
102
RTVSPost2010Prop57
140
1.0
102
RTVSPost2010PropOp57
 70
     1
  0
XRECORD
  5
2C7
102
{ACAD_REACTORS
330
2C6
102
}
330
2C6
100
AcDbXrecord
280
     1
102
RTVSPost2010Prop28
280
     0
102
RTVSPost2010PropOp28
 70
     1
102
RTVSPost2010Prop29
280
     1
102
RTVSPost2010PropOp29
 70
     1
102
RTVSPost2010Prop30
280
     1
102
RTVSPost2010PropOp30
 70
     1
102
RTVSPost2010Prop31
280
     0
102
RTVSPost2010PropOp31
 70
     1
102
RTVSPost2010Prop32
280
     0
102
RTVSPost2010PropOp32
 70
     1
102
RTVSPost2010Prop33
280
     0
102
RTVSPost2010PropOp33
 70
     1
102
RTVSPost2010Prop34
280
     0
102
RTVSPost2010PropOp34
 70
     1
102
RTVSPost2010Prop35
280
     0
102
RTVSPost2010PropOp35
 70
     1
102
RTVSPost2010Prop36
280
     0
102
RTVSPost2010PropOp36
 70
     1
102
RTVSPost2010Prop37
 90
       50
102
RTVSPost2010PropOp37
 70
     1
102
RTVSPost2010Prop38
140
0.0
102
RTVSPost2010PropOp38
 70
     1
102
RTVSPost2010Prop39
140
1.0
102
RTVSPost2010PropOp39
 70
     1
102
RTVSPost2010Prop40
 90
        0
102
RTVSPost2010PropOp40
 70
     1
102
RTVSPost2010Prop41ColorIndex
 90
       18
102
RTVSPost2010Prop41ColorRGB
 90
        0
102
RTVSPost2010PropOp41
 70
     1
102
RTVSPost2010Prop42
 90
       50
102
RTVSPost2010PropOp42
 70
     1
102
RTVSPost2010Prop43
 90
        3
102
RTVSPost2010PropOp43
 70
     1
102
RTVSPost2010Prop44ColorIndex
 90
        5
102
RTVSPost2010Prop44ColorRGB
 90
      255
102
RTVSPost2010PropOp44
 70
     1
102
RTVSPost2010Prop45
280
     0
102
RTVSPost2010PropOp45
 70
     1
102
RTVSPost2010Prop46
 90
       50
102
RTVSPost2010PropOp46
 70
     1
102
RTVSPost2010Prop47
 90
       50
102
RTVSPost2010PropOp47
 70
     1
102
RTVSPost2010Prop48
 90
       50
102
RTVSPost2010PropOp48
 70
     1
102
RTVSPost2010Prop49
280
     0
102
RTVSPost2010PropOp49
 70
     1
102
RTVSPost2010Prop50
 90
       50
102
RTVSPost2010PropOp50
 70
     1
102
RTVSPost2010Prop51ColorIndex
 90
      256
102
RTVSPost2010Prop51ColorRGB
 90
-16777216
102
RTVSPost2010PropOp51
 70
     0
102
RTVSPost2010Prop52
140
1.0
102
RTVSPost2010PropOp52
 70
     0
102
RTVSPost2010Prop53
 90
        2
102
RTVSPost2010PropOp53
 70
     1
102
RTVSPost2010Prop54
  1
strokes_ogs.tif
102
RTVSPost2010PropOp54
 70
     1
102
RTVSPost2010Prop55
280
     0
102
RTVSPost2010PropOp55
 70
     1
102
RTVSPost2010Prop56
140
1.0
102
RTVSPost2010PropOp56
 70
     1
102
RTVSPost2010Prop57
140
1.0
102
RTVSPost2010PropOp57
 70
     1
  0
XRECORD
  5
2C9
102
{ACAD_REACTORS
330
2C8
102
}
330
2C8
100
AcDbXrecord
280
     1
102
RTVSPost2010Prop28
280
     0
102
RTVSPost2010PropOp28
 70
     1
102
RTVSPost2010Prop29
280
     1
102
RTVSPost2010PropOp29
 70
     1
102
RTVSPost2010Prop30
280
     1
102
RTVSPost2010PropOp30
 70
     1
102
RTVSPost2010Prop31
280
     0
102
RTVSPost2010PropOp31
 70
     1
102
RTVSPost2010Prop32
280
     0
102
RTVSPost2010PropOp32
 70
     1
102
RTVSPost2010Prop33
280
     0
102
RTVSPost2010PropOp33
 70
     1
102
RTVSPost2010Prop34
280
     0
102
RTVSPost2010PropOp34
 70
     1
102
RTVSPost2010Prop35
280
     0
102
RTVSPost2010PropOp35
 70
     1
102
RTVSPost2010Prop36
280
     0
102
RTVSPost2010PropOp36
 70
     1
102
RTVSPost2010Prop37
 90
       50
102
RTVSPost2010PropOp37
 70
     1
102
RTVSPost2010Prop38
140
0.0
102
RTVSPost2010PropOp38
 70
     1
102
RTVSPost2010Prop39
140
1.0
102
RTVSPost2010PropOp39
 70
     1
102
RTVSPost2010Prop40
 90
        0
102
RTVSPost2010PropOp40
 70
     1
102
RTVSPost2010Prop41ColorIndex
 90
       18
102
RTVSPost2010Prop41ColorRGB
 90
        0
102
RTVSPost2010PropOp41
 70
     1
102
RTVSPost2010Prop42
 90
       50
102
RTVSPost2010PropOp42
 70
     1
102
RTVSPost2010Prop43
 90
        3
102
RTVSPost2010PropOp43
 70
     1
102
RTVSPost2010Prop44ColorIndex
 90
        5
102
RTVSPost2010Prop44ColorRGB
 90
      255
102
RTVSPost2010PropOp44
 70
     1
102
RTVSPost2010Prop45
280
     0
102
RTVSPost2010PropOp45
 70
     1
102
RTVSPost2010Prop46
 90
       50
102
RTVSPost2010PropOp46
 70
     1
102
RTVSPost2010Prop47
 90
       50
102
RTVSPost2010PropOp47
 70
     1
102
RTVSPost2010Prop48
 90
       50
102
RTVSPost2010PropOp48
 70
     1
102
RTVSPost2010Prop49
280
     0
102
RTVSPost2010PropOp49
 70
     1
102
RTVSPost2010Prop50
 90
       50
102
RTVSPost2010PropOp50
 70
     1
102
RTVSPost2010Prop51ColorIndex
 90
      256
102
RTVSPost2010Prop51ColorRGB
 90
-16777216
102
RTVSPost2010PropOp51
 70
     0
102
RTVSPost2010Prop52
140
1.0
102
RTVSPost2010PropOp52
 70
     0
102
RTVSPost2010Prop53
 90
        2
102
RTVSPost2010PropOp53
 70
     1
102
RTVSPost2010Prop54
  1
strokes_ogs.tif
102
RTVSPost2010PropOp54
 70
     1
102
RTVSPost2010Prop55
280
     0
102
RTVSPost2010PropOp55
 70
     1
102
RTVSPost2010Prop56
140
1.0
102
RTVSPost2010PropOp56
 70
     1
102
RTVSPost2010Prop57
140
1.0
102
RTVSPost2010PropOp57
 70
     1
  0
XRECORD
  5
2CB
102
{ACAD_REACTORS
330
2CA
102
}
330
2CA
100
AcDbXrecord
280
     1
102
RTVSPost2010Prop28
280
     0
102
RTVSPost2010PropOp28
 70
     1
102
RTVSPost2010Prop29
280
     1
102
RTVSPost2010PropOp29
 70
     1
102
RTVSPost2010Prop30
280
     1
102
RTVSPost2010PropOp30
 70
     1
102
RTVSPost2010Prop31
280
     0
102
RTVSPost2010PropOp31
 70
     1
102
RTVSPost2010Prop32
280
     0
102
RTVSPost2010PropOp32
 70
     1
102
RTVSPost2010Prop33
280
     0
102
RTVSPost2010PropOp33
 70
     1
102
RTVSPost2010Prop34
280
     0
102
RTVSPost2010PropOp34
 70
     1
102
RTVSPost2010Prop35
280
     0
102
RTVSPost2010PropOp35
 70
     1
102
RTVSPost2010Prop36
280
     0
102
RTVSPost2010PropOp36
 70
     1
102
RTVSPost2010Prop37
 90
       50
102
RTVSPost2010PropOp37
 70
     1
102
RTVSPost2010Prop38
140
0.0
102
RTVSPost2010PropOp38
 70
     1
102
RTVSPost2010Prop39
140
1.0
102
RTVSPost2010PropOp39
 70
     1
102
RTVSPost2010Prop40
 90
        0
102
RTVSPost2010PropOp40
 70
     1
102
RTVSPost2010Prop41ColorIndex
 90
       18
102
RTVSPost2010Prop41ColorRGB
 90
        0
102
RTVSPost2010PropOp41
 70
     1
102
RTVSPost2010Prop42
 90
       50
102
RTVSPost2010PropOp42
 70
     1
102
RTVSPost2010Prop43
 90
        3
102
RTVSPost2010PropOp43
 70
     1
102
RTVSPost2010Prop44ColorIndex
 90
        5
102
RTVSPost2010Prop44ColorRGB
 90
      255
102
RTVSPost2010PropOp44
 70
     1
102
RTVSPost2010Prop45
280
     0
102
RTVSPost2010PropOp45
 70
     1
102
RTVSPost2010Prop46
 90
       50
102
RTVSPost2010PropOp46
 70
     1
102
RTVSPost2010Prop47
 90
       50
102
RTVSPost2010PropOp47
 70
     1
102
RTVSPost2010Prop48
 90
       50
102
RTVSPost2010PropOp48
 70
     1
102
RTVSPost2010Prop49
280
     0
102
RTVSPost2010PropOp49
 70
     1
102
RTVSPost2010Prop50
 90
       50
102
RTVSPost2010PropOp50
 70
     1
102
RTVSPost2010Prop51ColorIndex
 90
      256
102
RTVSPost2010Prop51ColorRGB
 90
-16777216
102
RTVSPost2010PropOp51
 70
     0
102
RTVSPost2010Prop52
140
1.0
102
RTVSPost2010PropOp52
 70
     0
102
RTVSPost2010Prop53
 90
        2
102
RTVSPost2010PropOp53
 70
     1
102
RTVSPost2010Prop54
  1
strokes_ogs.tif
102
RTVSPost2010PropOp54
 70
     1
102
RTVSPost2010Prop55
280
     0
102
RTVSPost2010PropOp55
 70
     1
102
RTVSPost2010Prop56
140
1.0
102
RTVSPost2010PropOp56
 70
     1
102
RTVSPost2010Prop57
140
1.0
102
RTVSPost2010PropOp57
 70
     1
  0
XRECORD
  5
2CD
102
{ACAD_REACTORS
330
2CC
102
}
330
2CC
100
AcDbXrecord
280
     1
102
RTVSPost2010Prop28
280
     0
102
RTVSPost2010PropOp28
 70
     1
102
RTVSPost2010Prop29
280
     1
102
RTVSPost2010PropOp29
 70
     1
102
RTVSPost2010Prop30
280
     1
102
RTVSPost2010PropOp30
 70
     1
102
RTVSPost2010Prop31
280
     0
102
RTVSPost2010PropOp31
 70
     1
102
RTVSPost2010Prop32
280
     0
102
RTVSPost2010PropOp32
 70
     1
102
RTVSPost2010Prop33
280
     0
102
RTVSPost2010PropOp33
 70
     1
102
RTVSPost2010Prop34
280
     0
102
RTVSPost2010PropOp34
 70
     1
102
RTVSPost2010Prop35
280
     0
102
RTVSPost2010PropOp35
 70
     1
102
RTVSPost2010Prop36
280
     0
102
RTVSPost2010PropOp36
 70
     1
102
RTVSPost2010Prop37
 90
       50
102
RTVSPost2010PropOp37
 70
     1
102
RTVSPost2010Prop38
140
0.0
102
RTVSPost2010PropOp38
 70
     1
102
RTVSPost2010Prop39
140
1.0
102
RTVSPost2010PropOp39
 70
     1
102
RTVSPost2010Prop40
 90
        0
102
RTVSPost2010PropOp40
 70
     1
102
RTVSPost2010Prop41ColorIndex
 90
       18
102
RTVSPost2010Prop41ColorRGB
 90
        0
102
RTVSPost2010PropOp41
 70
     1
102
RTVSPost2010Prop42
 90
       50
102
RTVSPost2010PropOp42
 70
     1
102
RTVSPost2010Prop43
 90
        3
102
RTVSPost2010PropOp43
 70
     1
102
RTVSPost2010Prop44ColorIndex
 90
        5
102
RTVSPost2010Prop44ColorRGB
 90
      255
102
RTVSPost2010PropOp44
 70
     1
102
RTVSPost2010Prop45
280
     0
102
RTVSPost2010PropOp45
 70
     1
102
RTVSPost2010Prop46
 90
       50
102
RTVSPost2010PropOp46
 70
     1
102
RTVSPost2010Prop47
 90
       50
102
RTVSPost2010PropOp47
 70
     1
102
RTVSPost2010Prop48
 90
       50
102
RTVSPost2010PropOp48
 70
     1
102
RTVSPost2010Prop49
280
     0
102
RTVSPost2010PropOp49
 70
     1
102
RTVSPost2010Prop50
 90
       50
102
RTVSPost2010PropOp50
 70
     1
102
RTVSPost2010Prop51ColorIndex
 90
      256
102
RTVSPost2010Prop51ColorRGB
 90
-16777216
102
RTVSPost2010PropOp51
 70
     0
102
RTVSPost2010Prop52
140
1.0
102
RTVSPost2010PropOp52
 70
     0
102
RTVSPost2010Prop53
 90
        2
102
RTVSPost2010PropOp53
 70
     1
102
RTVSPost2010Prop54
  1
strokes_ogs.tif
102
RTVSPost2010PropOp54
 70
     1
102
RTVSPost2010Prop55
280
     0
102
RTVSPost2010PropOp55
 70
     1
102
RTVSPost2010Prop56
140
1.0
102
RTVSPost2010PropOp56
 70
     1
102
RTVSPost2010Prop57
140
1.0
102
RTVSPost2010PropOp57
 70
     1
  0
XRECORD
  5
2D5
102
{ACAD_REACTORS
330
2D4
102
}
330
2D4
100
AcDbXrecord
280
     1
102
RTVSPost2010Prop28
280
     0
102
RTVSPost2010PropOp28
 70
     1
102
RTVSPost2010Prop29
280
     1
102
RTVSPost2010PropOp29
 70
     1
102
RTVSPost2010Prop30
280
     1
102
RTVSPost2010PropOp30
 70
     1
102
RTVSPost2010Prop31
280
     0
102
RTVSPost2010PropOp31
 70
     1
102
RTVSPost2010Prop32
280
     0
102
RTVSPost2010PropOp32
 70
     1
102
RTVSPost2010Prop33
280
     0
102
RTVSPost2010PropOp33
 70
     1
102
RTVSPost2010Prop34
280
     0
102
RTVSPost2010PropOp34
 70
     1
102
RTVSPost2010Prop35
280
     0
102
RTVSPost2010PropOp35
 70
     1
102
RTVSPost2010Prop36
280
     0
102
RTVSPost2010PropOp36
 70
     1
102
RTVSPost2010Prop37
 90
       50
102
RTVSPost2010PropOp37
 70
     1
102
RTVSPost2010Prop38
140
0.0
102
RTVSPost2010PropOp38
 70
     1
102
RTVSPost2010Prop39
140
1.0
102
RTVSPost2010PropOp39
 70
     1
102
RTVSPost2010Prop40
 90
        0
102
RTVSPost2010PropOp40
 70
     1
102
RTVSPost2010Prop41ColorIndex
 90
       18
102
RTVSPost2010Prop41ColorRGB
 90
        0
102
RTVSPost2010PropOp41
 70
     1
102
RTVSPost2010Prop42
 90
       50
102
RTVSPost2010PropOp42
 70
     1
102
RTVSPost2010Prop43
 90
        3
102
RTVSPost2010PropOp43
 70
     1
102
RTVSPost2010Prop44ColorIndex
 90
        5
102
RTVSPost2010Prop44ColorRGB
 90
      255
102
RTVSPost2010PropOp44
 70
     1
102
RTVSPost2010Prop45
280
     0
102
RTVSPost2010PropOp45
 70
     1
102
RTVSPost2010Prop46
 90
       50
102
RTVSPost2010PropOp46
 70
     1
102
RTVSPost2010Prop47
 90
       50
102
RTVSPost2010PropOp47
 70
     1
102
RTVSPost2010Prop48
 90
       50
102
RTVSPost2010PropOp48
 70
     1
102
RTVSPost2010Prop49
280
     0
102
RTVSPost2010PropOp49
 70
     1
102
RTVSPost2010Prop50
 90
       50
102
RTVSPost2010PropOp50
 70
     1
102
RTVSPost2010Prop51ColorIndex
 90
      256
102
RTVSPost2010Prop51ColorRGB
 90
-16777216
102
RTVSPost2010PropOp51
 70
     0
102
RTVSPost2010Prop52
140
1.0
102
RTVSPost2010PropOp52
 70
     0
102
RTVSPost2010Prop53
 90
        2
102
RTVSPost2010PropOp53
 70
     1
102
RTVSPost2010Prop54
  1
strokes_ogs.tif
102
RTVSPost2010PropOp54
 70
     1
102
RTVSPost2010Prop55
280
     0
102
RTVSPost2010PropOp55
 70
     1
102
RTVSPost2010Prop56
140
1.0
102
RTVSPost2010PropOp56
 70
     1
102
RTVSPost2010Prop57
140
1.0
102
RTVSPost2010PropOp57
 70
     1
  0
XRECORD
  5
2F1
102
{ACAD_REACTORS
330
2F0
102
}
330
2F0
100
AcDbXrecord
280
     1
102
RTVSPost2010Prop28
280
     0
102
RTVSPost2010PropOp28
 70
     0
102
RTVSPost2010Prop29
280
     1
102
RTVSPost2010PropOp29
 70
     0
102
RTVSPost2010Prop30
280
     1
102
RTVSPost2010PropOp30
 70
     0
102
RTVSPost2010Prop31
280
     0
102
RTVSPost2010PropOp31
 70
     0
102
RTVSPost2010Prop32
280
     0
102
RTVSPost2010PropOp32
 70
     0
102
RTVSPost2010Prop33
280
     0
102
RTVSPost2010PropOp33
 70
     0
102
RTVSPost2010Prop34
280
     0
102
RTVSPost2010PropOp34
 70
     0
102
RTVSPost2010Prop35
280
     0
102
RTVSPost2010PropOp35
 70
     0
102
RTVSPost2010Prop36
280
     0
102
RTVSPost2010PropOp36
 70
     0
102
RTVSPost2010Prop37
 90
       50
102
RTVSPost2010PropOp37
 70
     0
102
RTVSPost2010Prop38
140
0.0
102
RTVSPost2010PropOp38
 70
     0
102
RTVSPost2010Prop39
140
1.0
102
RTVSPost2010PropOp39
 70
     0
102
RTVSPost2010Prop40
 90
        0
102
RTVSPost2010PropOp40
 70
     0
102
RTVSPost2010Prop41ColorIndex
 90
       18
102
RTVSPost2010Prop41ColorRGB
 90
        0
102
RTVSPost2010PropOp41
 70
     0
102
RTVSPost2010Prop42
 90
       50
102
RTVSPost2010PropOp42
 70
     0
102
RTVSPost2010Prop43
 90
        3
102
RTVSPost2010PropOp43
 70
     0
102
RTVSPost2010Prop44ColorIndex
 90
        5
102
RTVSPost2010Prop44ColorRGB
 90
      255
102
RTVSPost2010PropOp44
 70
     0
102
RTVSPost2010Prop45
280
     0
102
RTVSPost2010PropOp45
 70
     0
102
RTVSPost2010Prop46
 90
       50
102
RTVSPost2010PropOp46
 70
     0
102
RTVSPost2010Prop47
 90
       50
102
RTVSPost2010PropOp47
 70
     0
102
RTVSPost2010Prop48
 90
       50
102
RTVSPost2010PropOp48
 70
     0
102
RTVSPost2010Prop49
280
     0
102
RTVSPost2010PropOp49
 70
     0
102
RTVSPost2010Prop50
 90
       50
102
RTVSPost2010PropOp50
 70
     0
102
RTVSPost2010Prop51ColorIndex
 90
      256
102
RTVSPost2010Prop51ColorRGB
 90
-16777216
102
RTVSPost2010PropOp51
 70
     0
102
RTVSPost2010Prop52
140
1.0
102
RTVSPost2010PropOp52
 70
     0
102
RTVSPost2010Prop53
 90
        2
102
RTVSPost2010PropOp53
 70
     0
102
RTVSPost2010Prop54
  1
strokes_ogs.tif
102
RTVSPost2010PropOp54
 70
     0
102
RTVSPost2010Prop55
280
     0
102
RTVSPost2010PropOp55
 70
     0
102
RTVSPost2010Prop56
140
1.0
102
RTVSPost2010PropOp56
 70
     0
102
RTVSPost2010Prop57
140
1.0
102
RTVSPost2010PropOp57
 70
     0
  0
XRECORD
  5
2E1
102
{ACAD_REACTORS
330
2E0
102
}
330
2E0
100
AcDbXrecord
280
     1
102
RTVSPost2010Prop28
280
     0
102
RTVSPost2010PropOp28
 70
     1
102
RTVSPost2010Prop29
280
     1
102
RTVSPost2010PropOp29
 70
     1
102
RTVSPost2010Prop30
280
     1
102
RTVSPost2010PropOp30
 70
     1
102
RTVSPost2010Prop31
280
     0
102
RTVSPost2010PropOp31
 70
     1
102
RTVSPost2010Prop32
280
     0
102
RTVSPost2010PropOp32
 70
     1
102
RTVSPost2010Prop33
280
     0
102
RTVSPost2010PropOp33
 70
     1
102
RTVSPost2010Prop34
280
     0
102
RTVSPost2010PropOp34
 70
     1
102
RTVSPost2010Prop35
280
     0
102
RTVSPost2010PropOp35
 70
     1
102
RTVSPost2010Prop36
280
     0
102
RTVSPost2010PropOp36
 70
     1
102
RTVSPost2010Prop37
 90
       50
102
RTVSPost2010PropOp37
 70
     1
102
RTVSPost2010Prop38
140
0.0
102
RTVSPost2010PropOp38
 70
     1
102
RTVSPost2010Prop39
140
1.0
102
RTVSPost2010PropOp39
 70
     1
102
RTVSPost2010Prop40
 90
        0
102
RTVSPost2010PropOp40
 70
     1
102
RTVSPost2010Prop41ColorIndex
 90
       18
102
RTVSPost2010Prop41ColorRGB
 90
        0
102
RTVSPost2010PropOp41
 70
     1
102
RTVSPost2010Prop42
 90
       50
102
RTVSPost2010PropOp42
 70
     1
102
RTVSPost2010Prop43
 90
        3
102
RTVSPost2010PropOp43
 70
     1
102
RTVSPost2010Prop44ColorIndex
 90
        5
102
RTVSPost2010Prop44ColorRGB
 90
      255
102
RTVSPost2010PropOp44
 70
     1
102
RTVSPost2010Prop45
280
     0
102
RTVSPost2010PropOp45
 70
     1
102
RTVSPost2010Prop46
 90
       50
102
RTVSPost2010PropOp46
 70
     1
102
RTVSPost2010Prop47
 90
       50
102
RTVSPost2010PropOp47
 70
     1
102
RTVSPost2010Prop48
 90
       50
102
RTVSPost2010PropOp48
 70
     1
102
RTVSPost2010Prop49
280
     0
102
RTVSPost2010PropOp49
 70
     1
102
RTVSPost2010Prop50
 90
       50
102
RTVSPost2010PropOp50
 70
     1
102
RTVSPost2010Prop51ColorIndex
 90
      256
102
RTVSPost2010Prop51ColorRGB
 90
-16777216
102
RTVSPost2010PropOp51
 70
     0
102
RTVSPost2010Prop52
140
1.0
102
RTVSPost2010PropOp52
 70
     0
102
RTVSPost2010Prop53
 90
        2
102
RTVSPost2010PropOp53
 70
     1
102
RTVSPost2010Prop54
  1
strokes_ogs.tif
102
RTVSPost2010PropOp54
 70
     1
102
RTVSPost2010Prop55
280
     0
102
RTVSPost2010PropOp55
 70
     1
102
RTVSPost2010Prop56
140
1.0
102
RTVSPost2010PropOp56
 70
     1
102
RTVSPost2010Prop57
140
1.0
102
RTVSPost2010PropOp57
 70
     1
  0
XRECORD
  5
2F3
102
{ACAD_REACTORS
330
2F2
102
}
330
2F2
100
AcDbXrecord
280
     1
102
RTVSPost2010Prop28
280
     0
102
RTVSPost2010PropOp28
 70
     0
102
RTVSPost2010Prop29
280
     1
102
RTVSPost2010PropOp29
 70
     0
102
RTVSPost2010Prop30
280
     1
102
RTVSPost2010PropOp30
 70
     0
102
RTVSPost2010Prop31
280
     0
102
RTVSPost2010PropOp31
 70
     0
102
RTVSPost2010Prop32
280
     0
102
RTVSPost2010PropOp32
 70
     0
102
RTVSPost2010Prop33
280
     0
102
RTVSPost2010PropOp33
 70
     0
102
RTVSPost2010Prop34
280
     0
102
RTVSPost2010PropOp34
 70
     0
102
RTVSPost2010Prop35
280
     0
102
RTVSPost2010PropOp35
 70
     0
102
RTVSPost2010Prop36
280
     0
102
RTVSPost2010PropOp36
 70
     0
102
RTVSPost2010Prop37
 90
       50
102
RTVSPost2010PropOp37
 70
     0
102
RTVSPost2010Prop38
140
0.0
102
RTVSPost2010PropOp38
 70
     0
102
RTVSPost2010Prop39
140
1.0
102
RTVSPost2010PropOp39
 70
     0
102
RTVSPost2010Prop40
 90
        0
102
RTVSPost2010PropOp40
 70
     0
102
RTVSPost2010Prop41ColorIndex
 90
       18
102
RTVSPost2010Prop41ColorRGB
 90
        0
102
RTVSPost2010PropOp41
 70
     0
102
RTVSPost2010Prop42
 90
       50
102
RTVSPost2010PropOp42
 70
     0
102
RTVSPost2010Prop43
 90
        3
102
RTVSPost2010PropOp43
 70
     0
102
RTVSPost2010Prop44ColorIndex
 90
        5
102
RTVSPost2010Prop44ColorRGB
 90
      255
102
RTVSPost2010PropOp44
 70
     0
102
RTVSPost2010Prop45
280
     0
102
RTVSPost2010PropOp45
 70
     0
102
RTVSPost2010Prop46
 90
       50
102
RTVSPost2010PropOp46
 70
     0
102
RTVSPost2010Prop47
 90
       50
102
RTVSPost2010PropOp47
 70
     0
102
RTVSPost2010Prop48
 90
       50
102
RTVSPost2010PropOp48
 70
     0
102
RTVSPost2010Prop49
280
     0
102
RTVSPost2010PropOp49
 70
     0
102
RTVSPost2010Prop50
 90
       50
102
RTVSPost2010PropOp50
 70
     0
102
RTVSPost2010Prop51ColorIndex
 90
      256
102
RTVSPost2010Prop51ColorRGB
 90
-16777216
102
RTVSPost2010PropOp51
 70
     0
102
RTVSPost2010Prop52
140
1.0
102
RTVSPost2010PropOp52
 70
     0
102
RTVSPost2010Prop53
 90
        2
102
RTVSPost2010PropOp53
 70
     0
102
RTVSPost2010Prop54
  1
strokes_ogs.tif
102
RTVSPost2010PropOp54
 70
     0
102
RTVSPost2010Prop55
280
     0
102
RTVSPost2010PropOp55
 70
     0
102
RTVSPost2010Prop56
140
1.0
102
RTVSPost2010PropOp56
 70
     0
102
RTVSPost2010Prop57
140
1.0
102
RTVSPost2010PropOp57
 70
     0
  0
XRECORD
  5
2D9
102
{ACAD_REACTORS
330
2D8
102
}
330
2D8
100
AcDbXrecord
280
     1
102
RTVSPost2010Prop28
280
     0
102
RTVSPost2010PropOp28
 70
     1
102
RTVSPost2010Prop29
280
     1
102
RTVSPost2010PropOp29
 70
     1
102
RTVSPost2010Prop30
280
     1
102
RTVSPost2010PropOp30
 70
     1
102
RTVSPost2010Prop31
280
     0
102
RTVSPost2010PropOp31
 70
     1
102
RTVSPost2010Prop32
280
     0
102
RTVSPost2010PropOp32
 70
     1
102
RTVSPost2010Prop33
280
     0
102
RTVSPost2010PropOp33
 70
     1
102
RTVSPost2010Prop34
280
     0
102
RTVSPost2010PropOp34
 70
     1
102
RTVSPost2010Prop35
280
     0
102
RTVSPost2010PropOp35
 70
     1
102
RTVSPost2010Prop36
280
     0
102
RTVSPost2010PropOp36
 70
     1
102
RTVSPost2010Prop37
 90
       50
102
RTVSPost2010PropOp37
 70
     1
102
RTVSPost2010Prop38
140
0.0
102
RTVSPost2010PropOp38
 70
     1
102
RTVSPost2010Prop39
140
1.0
102
RTVSPost2010PropOp39
 70
     1
102
RTVSPost2010Prop40
 90
        0
102
RTVSPost2010PropOp40
 70
     1
102
RTVSPost2010Prop41ColorIndex
 90
       18
102
RTVSPost2010Prop41ColorRGB
 90
        0
102
RTVSPost2010PropOp41
 70
     1
102
RTVSPost2010Prop42
 90
       50
102
RTVSPost2010PropOp42
 70
     1
102
RTVSPost2010Prop43
 90
        3
102
RTVSPost2010PropOp43
 70
     1
102
RTVSPost2010Prop44ColorIndex
 90
        5
102
RTVSPost2010Prop44ColorRGB
 90
      255
102
RTVSPost2010PropOp44
 70
     1
102
RTVSPost2010Prop45
280
     0
102
RTVSPost2010PropOp45
 70
     1
102
RTVSPost2010Prop46
 90
       50
102
RTVSPost2010PropOp46
 70
     1
102
RTVSPost2010Prop47
 90
       50
102
RTVSPost2010PropOp47
 70
     1
102
RTVSPost2010Prop48
 90
       50
102
RTVSPost2010PropOp48
 70
     1
102
RTVSPost2010Prop49
280
     0
102
RTVSPost2010PropOp49
 70
     1
102
RTVSPost2010Prop50
 90
       50
102
RTVSPost2010PropOp50
 70
     1
102
RTVSPost2010Prop51ColorIndex
 90
      256
102
RTVSPost2010Prop51ColorRGB
 90
-16777216
102
RTVSPost2010PropOp51
 70
     0
102
RTVSPost2010Prop52
140
1.0
102
RTVSPost2010PropOp52
 70
     0
102
RTVSPost2010Prop53
 90
        2
102
RTVSPost2010PropOp53
 70
     1
102
RTVSPost2010Prop54
  1
strokes_ogs.tif
102
RTVSPost2010PropOp54
 70
     1
102
RTVSPost2010Prop55
280
     0
102
RTVSPost2010PropOp55
 70
     1
102
RTVSPost2010Prop56
140
1.0
102
RTVSPost2010PropOp56
 70
     1
102
RTVSPost2010Prop57
140
1.0
102
RTVSPost2010PropOp57
 70
     1
  0
XRECORD
  5
2EF
102
{ACAD_REACTORS
330
2EE
102
}
330
2EE
100
AcDbXrecord
280
     1
102
RTVSPost2010Prop28
280
     0
102
RTVSPost2010PropOp28
 70
     1
102
RTVSPost2010Prop29
280
     1
102
RTVSPost2010PropOp29
 70
     1
102
RTVSPost2010Prop30
280
     1
102
RTVSPost2010PropOp30
 70
     1
102
RTVSPost2010Prop31
280
     0
102
RTVSPost2010PropOp31
 70
     1
102
RTVSPost2010Prop32
280
     0
102
RTVSPost2010PropOp32
 70
     1
102
RTVSPost2010Prop33
280
     0
102
RTVSPost2010PropOp33
 70
     1
102
RTVSPost2010Prop34
280
     0
102
RTVSPost2010PropOp34
 70
     1
102
RTVSPost2010Prop35
280
     0
102
RTVSPost2010PropOp35
 70
     1
102
RTVSPost2010Prop36
280
     0
102
RTVSPost2010PropOp36
 70
     1
102
RTVSPost2010Prop37
 90
       50
102
RTVSPost2010PropOp37
 70
     1
102
RTVSPost2010Prop38
140
0.0
102
RTVSPost2010PropOp38
 70
     1
102
RTVSPost2010Prop39
140
1.0
102
RTVSPost2010PropOp39
 70
     1
102
RTVSPost2010Prop40
 90
        0
102
RTVSPost2010PropOp40
 70
     1
102
RTVSPost2010Prop41ColorIndex
 90
       18
102
RTVSPost2010Prop41ColorRGB
 90
        0
102
RTVSPost2010PropOp41
 70
     1
102
RTVSPost2010Prop42
 90
       50
102
RTVSPost2010PropOp42
 70
     1
102
RTVSPost2010Prop43
 90
        3
102
RTVSPost2010PropOp43
 70
     1
102
RTVSPost2010Prop44ColorIndex
 90
        5
102
RTVSPost2010Prop44ColorRGB
 90
      255
102
RTVSPost2010PropOp44
 70
     1
102
RTVSPost2010Prop45
280
     0
102
RTVSPost2010PropOp45
 70
     1
102
RTVSPost2010Prop46
 90
       50
102
RTVSPost2010PropOp46
 70
     1
102
RTVSPost2010Prop47
 90
       50
102
RTVSPost2010PropOp47
 70
     1
102
RTVSPost2010Prop48
 90
       50
102
RTVSPost2010PropOp48
 70
     1
102
RTVSPost2010Prop49
280
     0
102
RTVSPost2010PropOp49
 70
     1
102
RTVSPost2010Prop50
 90
       50
102
RTVSPost2010PropOp50
 70
     1
102
RTVSPost2010Prop51ColorIndex
 90
      256
102
RTVSPost2010Prop51ColorRGB
 90
-16777216
102
RTVSPost2010PropOp51
 70
     0
102
RTVSPost2010Prop52
140
1.0
102
RTVSPost2010PropOp52
 70
     0
102
RTVSPost2010Prop53
 90
        2
102
RTVSPost2010PropOp53
 70
     1
102
RTVSPost2010Prop54
  1
strokes_ogs.tif
102
RTVSPost2010PropOp54
 70
     1
102
RTVSPost2010Prop55
280
     0
102
RTVSPost2010PropOp55
 70
     1
102
RTVSPost2010Prop56
140
1.0
102
RTVSPost2010PropOp56
 70
     1
102
RTVSPost2010Prop57
140
1.0
102
RTVSPost2010PropOp57
 70
     1
  0
XRECORD
  5
2ED
102
{ACAD_REACTORS
330
2EC
102
}
330
2EC
100
AcDbXrecord
280
     1
102
RTVSPost2010Prop28
280
     0
102
RTVSPost2010PropOp28
 70
     1
102
RTVSPost2010Prop29
280
     1
102
RTVSPost2010PropOp29
 70
     1
102
RTVSPost2010Prop30
280
     1
102
RTVSPost2010PropOp30
 70
     1
102
RTVSPost2010Prop31
280
     0
102
RTVSPost2010PropOp31
 70
     1
102
RTVSPost2010Prop32
280
     0
102
RTVSPost2010PropOp32
 70
     1
102
RTVSPost2010Prop33
280
     0
102
RTVSPost2010PropOp33
 70
     1
102
RTVSPost2010Prop34
280
     0
102
RTVSPost2010PropOp34
 70
     1
102
RTVSPost2010Prop35
280
     0
102
RTVSPost2010PropOp35
 70
     1
102
RTVSPost2010Prop36
280
     0
102
RTVSPost2010PropOp36
 70
     1
102
RTVSPost2010Prop37
 90
       50
102
RTVSPost2010PropOp37
 70
     1
102
RTVSPost2010Prop38
140
0.0
102
RTVSPost2010PropOp38
 70
     1
102
RTVSPost2010Prop39
140
1.0
102
RTVSPost2010PropOp39
 70
     1
102
RTVSPost2010Prop40
 90
        0
102
RTVSPost2010PropOp40
 70
     1
102
RTVSPost2010Prop41ColorIndex
 90
       18
102
RTVSPost2010Prop41ColorRGB
 90
        0
102
RTVSPost2010PropOp41
 70
     1
102
RTVSPost2010Prop42
 90
       50
102
RTVSPost2010PropOp42
 70
     1
102
RTVSPost2010Prop43
 90
        3
102
RTVSPost2010PropOp43
 70
     1
102
RTVSPost2010Prop44ColorIndex
 90
        5
102
RTVSPost2010Prop44ColorRGB
 90
      255
102
RTVSPost2010PropOp44
 70
     1
102
RTVSPost2010Prop45
280
     0
102
RTVSPost2010PropOp45
 70
     1
102
RTVSPost2010Prop46
 90
       50
102
RTVSPost2010PropOp46
 70
     1
102
RTVSPost2010Prop47
 90
       50
102
RTVSPost2010PropOp47
 70
     1
102
RTVSPost2010Prop48
 90
       50
102
RTVSPost2010PropOp48
 70
     1
102
RTVSPost2010Prop49
280
     0
102
RTVSPost2010PropOp49
 70
     1
102
RTVSPost2010Prop50
 90
       50
102
RTVSPost2010PropOp50
 70
     1
102
RTVSPost2010Prop51ColorIndex
 90
      256
102
RTVSPost2010Prop51ColorRGB
 90
-16777216
102
RTVSPost2010PropOp51
 70
     0
102
RTVSPost2010Prop52
140
1.0
102
RTVSPost2010PropOp52
 70
     0
102
RTVSPost2010Prop53
 90
        2
102
RTVSPost2010PropOp53
 70
     1
102
RTVSPost2010Prop54
  1
strokes_ogs.tif
102
RTVSPost2010PropOp54
 70
     1
102
RTVSPost2010Prop55
280
     0
102
RTVSPost2010PropOp55
 70
     1
102
RTVSPost2010Prop56
140
1.0
102
RTVSPost2010PropOp56
 70
     1
102
RTVSPost2010Prop57
140
1.0
102
RTVSPost2010PropOp57
 70
     1
  0
XRECORD
  5
2E7
102
{ACAD_REACTORS
330
2E6
102
}
330
2E6
100
AcDbXrecord
280
     1
102
RTVSPost2010Prop28
280
     0
102
RTVSPost2010PropOp28
 70
     1
102
RTVSPost2010Prop29
280
     1
102
RTVSPost2010PropOp29
 70
     1
102
RTVSPost2010Prop30
280
     1
102
RTVSPost2010PropOp30
 70
     1
102
RTVSPost2010Prop31
280
     0
102
RTVSPost2010PropOp31
 70
     1
102
RTVSPost2010Prop32
280
     0
102
RTVSPost2010PropOp32
 70
     1
102
RTVSPost2010Prop33
280
     0
102
RTVSPost2010PropOp33
 70
     1
102
RTVSPost2010Prop34
280
     0
102
RTVSPost2010PropOp34
 70
     1
102
RTVSPost2010Prop35
280
     0
102
RTVSPost2010PropOp35
 70
     1
102
RTVSPost2010Prop36
280
     0
102
RTVSPost2010PropOp36
 70
     1
102
RTVSPost2010Prop37
 90
       50
102
RTVSPost2010PropOp37
 70
     1
102
RTVSPost2010Prop38
140
0.0
102
RTVSPost2010PropOp38
 70
     1
102
RTVSPost2010Prop39
140
1.0
102
RTVSPost2010PropOp39
 70
     1
102
RTVSPost2010Prop40
 90
        0
102
RTVSPost2010PropOp40
 70
     1
102
RTVSPost2010Prop41ColorIndex
 90
       18
102
RTVSPost2010Prop41ColorRGB
 90
        0
102
RTVSPost2010PropOp41
 70
     1
102
RTVSPost2010Prop42
 90
       50
102
RTVSPost2010PropOp42
 70
     1
102
RTVSPost2010Prop43
 90
        3
102
RTVSPost2010PropOp43
 70
     1
102
RTVSPost2010Prop44ColorIndex
 90
        5
102
RTVSPost2010Prop44ColorRGB
 90
      255
102
RTVSPost2010PropOp44
 70
     1
102
RTVSPost2010Prop45
280
     0
102
RTVSPost2010PropOp45
 70
     1
102
RTVSPost2010Prop46
 90
       50
102
RTVSPost2010PropOp46
 70
     1
102
RTVSPost2010Prop47
 90
       50
102
RTVSPost2010PropOp47
 70
     1
102
RTVSPost2010Prop48
 90
       50
102
RTVSPost2010PropOp48
 70
     1
102
RTVSPost2010Prop49
280
     0
102
RTVSPost2010PropOp49
 70
     1
102
RTVSPost2010Prop50
 90
       50
102
RTVSPost2010PropOp50
 70
     1
102
RTVSPost2010Prop51ColorIndex
 90
      256
102
RTVSPost2010Prop51ColorRGB
 90
-16777216
102
RTVSPost2010PropOp51
 70
     0
102
RTVSPost2010Prop52
140
1.0
102
RTVSPost2010PropOp52
 70
     0
102
RTVSPost2010Prop53
 90
        2
102
RTVSPost2010PropOp53
 70
     1
102
RTVSPost2010Prop54
  1
strokes_ogs.tif
102
RTVSPost2010PropOp54
 70
     1
102
RTVSPost2010Prop55
280
     0
102
RTVSPost2010PropOp55
 70
     1
102
RTVSPost2010Prop56
140
1.0
102
RTVSPost2010PropOp56
 70
     1
102
RTVSPost2010Prop57
140
1.0
102
RTVSPost2010PropOp57
 70
     1
  0
XRECORD
  5
2E9
102
{ACAD_REACTORS
330
2E8
102
}
330
2E8
100
AcDbXrecord
280
     1
102
RTVSPost2010Prop28
280
     0
102
RTVSPost2010PropOp28
 70
     1
102
RTVSPost2010Prop29
280
     1
102
RTVSPost2010PropOp29
 70
     1
102
RTVSPost2010Prop30
280
     1
102
RTVSPost2010PropOp30
 70
     1
102
RTVSPost2010Prop31
280
     0
102
RTVSPost2010PropOp31
 70
     1
102
RTVSPost2010Prop32
280
     0
102
RTVSPost2010PropOp32
 70
     1
102
RTVSPost2010Prop33
280
     0
102
RTVSPost2010PropOp33
 70
     1
102
RTVSPost2010Prop34
280
     0
102
RTVSPost2010PropOp34
 70
     1
102
RTVSPost2010Prop35
280
     0
102
RTVSPost2010PropOp35
 70
     1
102
RTVSPost2010Prop36
280
     0
102
RTVSPost2010PropOp36
 70
     1
102
RTVSPost2010Prop37
 90
       50
102
RTVSPost2010PropOp37
 70
     1
102
RTVSPost2010Prop38
140
0.0
102
RTVSPost2010PropOp38
 70
     1
102
RTVSPost2010Prop39
140
1.0
102
RTVSPost2010PropOp39
 70
     1
102
RTVSPost2010Prop40
 90
        0
102
RTVSPost2010PropOp40
 70
     1
102
RTVSPost2010Prop41ColorIndex
 90
       18
102
RTVSPost2010Prop41ColorRGB
 90
        0
102
RTVSPost2010PropOp41
 70
     1
102
RTVSPost2010Prop42
 90
       50
102
RTVSPost2010PropOp42
 70
     1
102
RTVSPost2010Prop43
 90
        3
102
RTVSPost2010PropOp43
 70
     1
102
RTVSPost2010Prop44ColorIndex
 90
        5
102
RTVSPost2010Prop44ColorRGB
 90
      255
102
RTVSPost2010PropOp44
 70
     1
102
RTVSPost2010Prop45
280
     0
102
RTVSPost2010PropOp45
 70
     1
102
RTVSPost2010Prop46
 90
       50
102
RTVSPost2010PropOp46
 70
     1
102
RTVSPost2010Prop47
 90
       50
102
RTVSPost2010PropOp47
 70
     1
102
RTVSPost2010Prop48
 90
       50
102
RTVSPost2010PropOp48
 70
     1
102
RTVSPost2010Prop49
280
     0
102
RTVSPost2010PropOp49
 70
     1
102
RTVSPost2010Prop50
 90
       50
102
RTVSPost2010PropOp50
 70
     1
102
RTVSPost2010Prop51ColorIndex
 90
      256
102
RTVSPost2010Prop51ColorRGB
 90
-16777216
102
RTVSPost2010PropOp51
 70
     0
102
RTVSPost2010Prop52
140
1.0
102
RTVSPost2010PropOp52
 70
     0
102
RTVSPost2010Prop53
 90
        2
102
RTVSPost2010PropOp53
 70
     1
102
RTVSPost2010Prop54
  1
strokes_ogs.tif
102
RTVSPost2010PropOp54
 70
     1
102
RTVSPost2010Prop55
280
     0
102
RTVSPost2010PropOp55
 70
     1
102
RTVSPost2010Prop56
140
1.0
102
RTVSPost2010PropOp56
 70
     1
102
RTVSPost2010Prop57
140
1.0
102
RTVSPost2010PropOp57
 70
     1
  0
XRECORD
  5
2DF
102
{ACAD_REACTORS
330
2DE
102
}
330
2DE
100
AcDbXrecord
280
     1
102
RTVSPost2010Prop28
280
     0
102
RTVSPost2010PropOp28
 70
     1
102
RTVSPost2010Prop29
280
     1
102
RTVSPost2010PropOp29
 70
     1
102
RTVSPost2010Prop30
280
     1
102
RTVSPost2010PropOp30
 70
     1
102
RTVSPost2010Prop31
280
     0
102
RTVSPost2010PropOp31
 70
     1
102
RTVSPost2010Prop32
280
     0
102
RTVSPost2010PropOp32
 70
     1
102
RTVSPost2010Prop33
280
     0
102
RTVSPost2010PropOp33
 70
     1
102
RTVSPost2010Prop34
280
     0
102
RTVSPost2010PropOp34
 70
     1
102
RTVSPost2010Prop35
280
     0
102
RTVSPost2010PropOp35
 70
     1
102
RTVSPost2010Prop36
280
     0
102
RTVSPost2010PropOp36
 70
     1
102
RTVSPost2010Prop37
 90
       50
102
RTVSPost2010PropOp37
 70
     1
102
RTVSPost2010Prop38
140
0.0
102
RTVSPost2010PropOp38
 70
     1
102
RTVSPost2010Prop39
140
1.0
102
RTVSPost2010PropOp39
 70
     1
102
RTVSPost2010Prop40
 90
        0
102
RTVSPost2010PropOp40
 70
     1
102
RTVSPost2010Prop41ColorIndex
 90
       18
102
RTVSPost2010Prop41ColorRGB
 90
        0
102
RTVSPost2010PropOp41
 70
     1
102
RTVSPost2010Prop42
 90
       50
102
RTVSPost2010PropOp42
 70
     1
102
RTVSPost2010Prop43
 90
        3
102
RTVSPost2010PropOp43
 70
     1
102
RTVSPost2010Prop44ColorIndex
 90
        5
102
RTVSPost2010Prop44ColorRGB
 90
      255
102
RTVSPost2010PropOp44
 70
     1
102
RTVSPost2010Prop45
280
     0
102
RTVSPost2010PropOp45
 70
     1
102
RTVSPost2010Prop46
 90
       50
102
RTVSPost2010PropOp46
 70
     1
102
RTVSPost2010Prop47
 90
       50
102
RTVSPost2010PropOp47
 70
     1
102
RTVSPost2010Prop48
 90
       50
102
RTVSPost2010PropOp48
 70
     1
102
RTVSPost2010Prop49
280
     0
102
RTVSPost2010PropOp49
 70
     1
102
RTVSPost2010Prop50
 90
       50
102
RTVSPost2010PropOp50
 70
     1
102
RTVSPost2010Prop51ColorIndex
 90
      256
102
RTVSPost2010Prop51ColorRGB
 90
-16777216
102
RTVSPost2010PropOp51
 70
     0
102
RTVSPost2010Prop52
140
1.0
102
RTVSPost2010PropOp52
 70
     0
102
RTVSPost2010Prop53
 90
        2
102
RTVSPost2010PropOp53
 70
     1
102
RTVSPost2010Prop54
  1
strokes_ogs.tif
102
RTVSPost2010PropOp54
 70
     1
102
RTVSPost2010Prop55
280
     0
102
RTVSPost2010PropOp55
 70
     1
102
RTVSPost2010Prop56
140
1.0
102
RTVSPost2010PropOp56
 70
     1
102
RTVSPost2010Prop57
140
1.0
102
RTVSPost2010PropOp57
 70
     1
  0
XRECORD
  5
2D3
102
{ACAD_REACTORS
330
2D2
102
}
330
2D2
100
AcDbXrecord
280
     1
102
RTVSPost2010Prop28
280
     0
102
RTVSPost2010PropOp28
 70
     1
102
RTVSPost2010Prop29
280
     1
102
RTVSPost2010PropOp29
 70
     1
102
RTVSPost2010Prop30
280
     1
102
RTVSPost2010PropOp30
 70
     1
102
RTVSPost2010Prop31
280
     0
102
RTVSPost2010PropOp31
 70
     1
102
RTVSPost2010Prop32
280
     0
102
RTVSPost2010PropOp32
 70
     1
102
RTVSPost2010Prop33
280
     0
102
RTVSPost2010PropOp33
 70
     1
102
RTVSPost2010Prop34
280
     0
102
RTVSPost2010PropOp34
 70
     1
102
RTVSPost2010Prop35
280
     0
102
RTVSPost2010PropOp35
 70
     1
102
RTVSPost2010Prop36
280
     0
102
RTVSPost2010PropOp36
 70
     1
102
RTVSPost2010Prop37
 90
       50
102
RTVSPost2010PropOp37
 70
     1
102
RTVSPost2010Prop38
140
0.0
102
RTVSPost2010PropOp38
 70
     1
102
RTVSPost2010Prop39
140
1.0
102
RTVSPost2010PropOp39
 70
     1
102
RTVSPost2010Prop40
 90
        0
102
RTVSPost2010PropOp40
 70
     1
102
RTVSPost2010Prop41ColorIndex
 90
       18
102
RTVSPost2010Prop41ColorRGB
 90
        0
102
RTVSPost2010PropOp41
 70
     1
102
RTVSPost2010Prop42
 90
       50
102
RTVSPost2010PropOp42
 70
     1
102
RTVSPost2010Prop43
 90
        3
102
RTVSPost2010PropOp43
 70
     1
102
RTVSPost2010Prop44ColorIndex
 90
        5
102
RTVSPost2010Prop44ColorRGB
 90
      255
102
RTVSPost2010PropOp44
 70
     1
102
RTVSPost2010Prop45
280
     0
102
RTVSPost2010PropOp45
 70
     1
102
RTVSPost2010Prop46
 90
       50
102
RTVSPost2010PropOp46
 70
     1
102
RTVSPost2010Prop47
 90
       50
102
RTVSPost2010PropOp47
 70
     1
102
RTVSPost2010Prop48
 90
       50
102
RTVSPost2010PropOp48
 70
     1
102
RTVSPost2010Prop49
280
     0
102
RTVSPost2010PropOp49
 70
     1
102
RTVSPost2010Prop50
 90
       50
102
RTVSPost2010PropOp50
 70
     1
102
RTVSPost2010Prop51ColorIndex
 90
      256
102
RTVSPost2010Prop51ColorRGB
 90
-16777216
102
RTVSPost2010PropOp51
 70
     0
102
RTVSPost2010Prop52
140
1.0
102
RTVSPost2010PropOp52
 70
     0
102
RTVSPost2010Prop53
 90
        2
102
RTVSPost2010PropOp53
 70
     1
102
RTVSPost2010Prop54
  1
strokes_ogs.tif
102
RTVSPost2010PropOp54
 70
     1
102
RTVSPost2010Prop55
280
     0
102
RTVSPost2010PropOp55
 70
     1
102
RTVSPost2010Prop56
140
1.0
102
RTVSPost2010PropOp56
 70
     1
102
RTVSPost2010Prop57
140
1.0
102
RTVSPost2010PropOp57
 70
     1
  0
XRECORD
  5
2EB
102
{ACAD_REACTORS
330
2EA
102
}
330
2EA
100
AcDbXrecord
280
     1
102
RTVSPost2010Prop28
280
     0
102
RTVSPost2010PropOp28
 70
     1
102
RTVSPost2010Prop29
280
     1
102
RTVSPost2010PropOp29
 70
     1
102
RTVSPost2010Prop30
280
     1
102
RTVSPost2010PropOp30
 70
     1
102
RTVSPost2010Prop31
280
     0
102
RTVSPost2010PropOp31
 70
     1
102
RTVSPost2010Prop32
280
     0
102
RTVSPost2010PropOp32
 70
     1
102
RTVSPost2010Prop33
280
     0
102
RTVSPost2010PropOp33
 70
     1
102
RTVSPost2010Prop34
280
     0
102
RTVSPost2010PropOp34
 70
     1
102
RTVSPost2010Prop35
280
     0
102
RTVSPost2010PropOp35
 70
     1
102
RTVSPost2010Prop36
280
     0
102
RTVSPost2010PropOp36
 70
     1
102
RTVSPost2010Prop37
 90
       50
102
RTVSPost2010PropOp37
 70
     1
102
RTVSPost2010Prop38
140
0.0
102
RTVSPost2010PropOp38
 70
     1
102
RTVSPost2010Prop39
140
1.0
102
RTVSPost2010PropOp39
 70
     1
102
RTVSPost2010Prop40
 90
        0
102
RTVSPost2010PropOp40
 70
     1
102
RTVSPost2010Prop41ColorIndex
 90
       18
102
RTVSPost2010Prop41ColorRGB
 90
        0
102
RTVSPost2010PropOp41
 70
     1
102
RTVSPost2010Prop42
 90
       50
102
RTVSPost2010PropOp42
 70
     1
102
RTVSPost2010Prop43
 90
        3
102
RTVSPost2010PropOp43
 70
     1
102
RTVSPost2010Prop44ColorIndex
 90
        5
102
RTVSPost2010Prop44ColorRGB
 90
      255
102
RTVSPost2010PropOp44
 70
     1
102
RTVSPost2010Prop45
280
     0
102
RTVSPost2010PropOp45
 70
     1
102
RTVSPost2010Prop46
 90
       50
102
RTVSPost2010PropOp46
 70
     1
102
RTVSPost2010Prop47
 90
       50
102
RTVSPost2010PropOp47
 70
     1
102
RTVSPost2010Prop48
 90
       50
102
RTVSPost2010PropOp48
 70
     1
102
RTVSPost2010Prop49
280
     0
102
RTVSPost2010PropOp49
 70
     1
102
RTVSPost2010Prop50
 90
       50
102
RTVSPost2010PropOp50
 70
     1
102
RTVSPost2010Prop51ColorIndex
 90
      256
102
RTVSPost2010Prop51ColorRGB
 90
-16777216
102
RTVSPost2010PropOp51
 70
     0
102
RTVSPost2010Prop52
140
1.0
102
RTVSPost2010PropOp52
 70
     0
102
RTVSPost2010Prop53
 90
        2
102
RTVSPost2010PropOp53
 70
     1
102
RTVSPost2010Prop54
  1
strokes_ogs.tif
102
RTVSPost2010PropOp54
 70
     1
102
RTVSPost2010Prop55
280
     0
102
RTVSPost2010PropOp55
 70
     1
102
RTVSPost2010Prop56
140
1.0
102
RTVSPost2010PropOp56
 70
     1
102
RTVSPost2010Prop57
140
1.0
102
RTVSPost2010PropOp57
 70
     1
  0
ENDSEC
  0
EOF
