  0
SECTION
  2
HEADER
  9
$ACADVER
  1
AC1024
  9
$ACADMAINTVER
 70
   226
  9
$DWGCODEPAGE
  3
ANSI_1252
  9
$INSBASE
 10
0.0
 20
0.0
 30
0.0
  9
$EXTMIN
 10
217.0960320993924
 20
3096.094428602126
 30
0.0
  9
$EXTMAX
 10
1374.178121139413
 20
3754.278101944544
 30
0.0
  9
$LIMMIN
 10
0.0
 20
0.0
  9
$LIMMAX
 10
12.0
 20
9.0
  9
$ORTHOMODE
 70
     0
  9
$REGENMODE
 70
     1
  9
$FILLMODE
 70
     1
  9
$QTEXTMODE
 70
     0
  9
$MIRRTEXT
 70
     0
  9
$LTSCALE
 40
1.0
  9
$ATTMODE
 70
     1
  9
$TEXTSIZE
 40
0.2
  9
$TRACEWID
 40
0.05
  9
$TEXTSTYLE
  7
Standard
  9
$CLAYER
  8
0
  9
$CELTYPE
  6
ByLayer
  9
$CECOLOR
 62
   256
  9
$CELTSCALE
 40
1.0
  9
$DISPSILH
 70
     0
  9
$DIMSCALE
 40
1.0
  9
$DIMASZ
 40
0.18
  9
$DIMEXO
 40
0.0625
  9
$DIMDLI
 40
0.38
  9
$DIMRND
 40
0.0
  9
$DIMDLE
 40
0.0
  9
$DIMEXE
 40
0.18
  9
$DIMTP
 40
0.0
  9
$DIMTM
 40
0.0
  9
$DIMTXT
 40
0.18
  9
$DIMCEN
 40
0.09
  9
$DIMTSZ
 40
0.0
  9
$DIMTOL
 70
     0
  9
$DIMLIM
 70
     0
  9
$DIMTIH
 70
     1
  9
$DIMTOH
 70
     1
  9
$DIMSE1
 70
     0
  9
$DIMSE2
 70
     0
  9
$DIMTAD
 70
     0
  9
$DIMZIN
 70
     0
  9
$DIMBLK
  1

  9
$DIMASO
 70
     1
  9
$DIMSHO
 70
     1
  9
$DIMPOST
  1

  9
$DIMAPOST
  1

  9
$DIMALT
 70
     0
  9
$DIMALTD
 70
     2
  9
$DIMALTF
 40
25.4
  9
$DIMLFAC
 40
1.0
  9
$DIMTOFL
 70
     0
  9
$DIMTVP
 40
0.0
  9
$DIMTIX
 70
     0
  9
$DIMSOXD
 70
     0
  9
$DIMSAH
 70
     0
  9
$DIMBLK1
  1

  9
$DIMBLK2
  1

  9
$DIMSTYLE
  2
Standard
  9
$DIMCLRD
 70
     0
  9
$DIMCLRE
 70
     0
  9
$DIMCLRT
 70
     0
  9
$DIMTFAC
 40
1.0
  9
$DIMGAP
 40
0.09
  9
$DIMJUST
 70
     0
  9
$DIMSD1
 70
     0
  9
$DIMSD2
 70
     0
  9
$DIMTOLJ
 70
     1
  9
$DIMTZIN
 70
     0
  9
$DIMALTZ
 70
     0
  9
$DIMALTTZ
 70
     0
  9
$DIMUPT
 70
     0
  9
$DIMDEC
 70
     4
  9
$DIMTDEC
 70
     4
  9
$DIMALTU
 70
     2
  9
$DIMALTTD
 70
     2
  9
$DIMTXSTY
  7
Standard
  9
$DIMAUNIT
 70
     0
  9
$DIMADEC
 70
     0
  9
$DIMALTRND
 40
0.0
  9
$DIMAZIN
 70
     0
  9
$DIMDSEP
 70
    46
  9
$DIMATFIT
 70
     3
  9
$DIMFRAC
 70
     0
  9
$DIMLDRBLK
  1

  9
$DIMLUNIT
 70
     2
  9
$DIMLWD
 70
    -2
  9
$DIMLWE
 70
    -2
  9
$DIMTMOVE
 70
     0
  9
$DIMFXL
 40
1.0
  9
$DIMFXLON
 70
     0
  9
$DIMJOGANG
 40
0.7853981633974483
  9
$DIMTFILL
 70
     0
  9
$DIMTFILLCLR
 70
     0
  9
$DIMARCSYM
 70
     0
  9
$DIMLTYPE
  6

  9
$DIMLTEX1
  6

  9
$DIMLTEX2
  6

  9
$DIMTXTDIRECTION
 70
     0
  9
$LUNITS
 70
     2
  9
$LUPREC
 70
     4
  9
$SKETCHINC
 40
0.1
  9
$FILLETRAD
 40
0.0
  9
$AUNITS
 70
     0
  9
$AUPREC
 70
     0
  9
$MENU
  1
.
  9
$ELEVATION
 40
0.0
  9
$PELEVATION
 40
0.0
  9
$THICKNESS
 40
0.0
  9
$LIMCHECK
 70
     0
  9
$CHAMFERA
 40
0.0
  9
$CHAMFERB
 40
0.0
  9
$CHAMFERC
 40
0.0
  9
$CHAMFERD
 40
0.0
  9
$SKPOLY
 70
     0
  9
$TDCREATE
 40
2459165.013090278
  9
$TDUCREATE
 40
2459164.471423611
  9
$TDUPDATE
 40
2459165.013090278
  9
$TDUUPDATE
 40
2459164.471423611
  9
$TDINDWG
 40
0.0000000000
  9
$TDUSRTIMER
 40
0.0000000000
  9
$USRTIMER
 70
     1
  9
$ANGBASE
 50
0.0
  9
$ANGDIR
 70
     0
  9
$PDMODE
 70
     0
  9
$PDSIZE
 40
0.0
  9
$PLINEWID
 40
0.0
  9
$SPLFRAME
 70
     0
  9
$SPLINETYPE
 70
     6
  9
$SPLINESEGS
 70
     8
  9
$HANDSEED
  5
3AD
  9
$SURFTAB1
 70
     6
  9
$SURFTAB2
 70
     6
  9
$SURFTYPE
 70
     6
  9
$SURFU
 70
     6
  9
$SURFV
 70
     6
  9
$UCSBASE
  2

  9
$UCSNAME
  2

  9
$UCSORG
 10
0.0
 20
0.0
 30
0.0
  9
$UCSXDIR
 10
1.0
 20
0.0
 30
0.0
  9
$UCSYDIR
 10
0.0
 20
1.0
 30
0.0
  9
$UCSORTHOREF
  2

  9
$UCSORTHOVIEW
 70
     0
  9
$UCSORGTOP
 10
0.0
 20
0.0
 30
0.0
  9
$UCSORGBOTTOM
 10
0.0
 20
0.0
 30
0.0
  9
$UCSORGLEFT
 10
0.0
 20
0.0
 30
0.0
  9
$UCSORGRIGHT
 10
0.0
 20
0.0
 30
0.0
  9
$UCSORGFRONT
 10
0.0
 20
0.0
 30
0.0
  9
$UCSORGBACK
 10
0.0
 20
0.0
 30
0.0
  9
$PUCSBASE
  2

  9
$PUCSNAME
  2

  9
$PUCSORG
 10
0.0
 20
0.0
 30
0.0
  9
$PUCSXDIR
 10
1.0
 20
0.0
 30
0.0
  9
$PUCSYDIR
 10
0.0
 20
1.0
 30
0.0
  9
$PUCSORTHOREF
  2

  9
$PUCSORTHOVIEW
 70
     0
  9
$PUCSORGTOP
 10
0.0
 20
0.0
 30
0.0
  9
$PUCSORGBOTTOM
 10
0.0
 20
0.0
 30
0.0
  9
$PUCSORGLEFT
 10
0.0
 20
0.0
 30
0.0
  9
$PUCSORGRIGHT
 10
0.0
 20
0.0
 30
0.0
  9
$PUCSORGFRONT
 10
0.0
 20
0.0
 30
0.0
  9
$PUCSORGBACK
 10
0.0
 20
0.0
 30
0.0
  9
$USERI1
 70
     0
  9
$USERI2
 70
     0
  9
$USERI3
 70
     0
  9
$USERI4
 70
     0
  9
$USERI5
 70
     0
  9
$USERR1
 40
0.0
  9
$USERR2
 40
0.0
  9
$USERR3
 40
0.0
  9
$USERR4
 40
0.0
  9
$USERR5
 40
0.0
  9
$WORLDVIEW
 70
     1
  9
$SHADEDGE
 70
     3
  9
$SHADEDIF
 70
    70
  9
$TILEMODE
 70
     0
  9
$MAXACTVP
 70
    64
  9
$PINSBASE
 10
0.0
 20
0.0
 30
0.0
  9
$PLIMCHECK
 70
     0
  9
$PEXTMIN
 10
-0.0243254853795738
 20
0.0239675613783464
 30
0.0
  9
$PEXTMAX
 10
296.9756745145732
 20
210.0239675613797
 30
0.0
  9
$PLIMMIN
 10
0.0
 20
0.0
  9
$PLIMMAX
 10
12.0
 20
9.0
  9
$UNITMODE
 70
     0
  9
$VISRETAIN
 70
     1
  9
$PLINEGEN
 70
     0
  9
$PSLTSCALE
 70
     1
  9
$TREEDEPTH
 70
  3020
  9
$CMLSTYLE
  2
Standard
  9
$CMLJUST
 70
     0
  9
$CMLSCALE
 40
1.0
  9
$PROXYGRAPHICS
 70
     1
  9
$MEASUREMENT
 70
     1
  9
$CELWEIGHT
370
    -1
  9
$ENDCAPS
280
     0
  9
$JOINSTYLE
280
     0
  9
$LWDISPLAY
290
     0
  9
$INSUNITS
 70
     4
  9
$HYPERLINKBASE
  1

  9
$STYLESHEET
  1

  9
$XEDIT
290
     1
  9
$CEPSNTYPE
380
     0
  9
$PSTYLEMODE
290
     1
  9
$FINGERPRINTGUID
  2
{DFB0B626-7291-744C-84F5-2ED4C16BBCD4}
  9
$VERSIONGUID
  2
{23A8A52B-084D-9E44-9880-6F14D26FEECA}
  9
$EXTNAMES
290
     1
  9
$PSVPSCALE
 40
0.0
  9
$OLESTARTUP
290
     0
  9
$SORTENTS
280
   127
  9
$INDEXCTL
280
     0
  9
$HIDETEXT
280
     1
  9
$XCLIPFRAME
280
     2
  9
$HALOGAP
280
     0
  9
$OBSCOLOR
 70
   257
  9
$OBSLTYPE
280
     0
  9
$INTERSECTIONDISPLAY
280
     0
  9
$INTERSECTIONCOLOR
 70
   257
  9
$DIMASSOC
280
     2
  9
$PROJECTNAME
  1

  9
$CAMERADISPLAY
290
     0
  9
$LENSLENGTH
 40
50.0
  9
$CAMERAHEIGHT
 40
0.0
  9
$STEPSPERSEC
 40
2.0
  9
$STEPSIZE
 40
6.0
  9
$3DDWFPREC
 40
2.0
  9
$PSOLWIDTH
 40
0.25
  9
$PSOLHEIGHT
 40
4.0
  9
$LOFTANG1
 40
1.570796326794896
  9
$LOFTANG2
 40
1.570796326794896
  9
$LOFTMAG1
 40
0.0
  9
$LOFTMAG2
 40
0.0
  9
$LOFTPARAM
 70
     7
  9
$LOFTNORMALS
280
     1
  9
$LATITUDE
 40
0.0
  9
$LONGITUDE
 40
0.0
  9
$NORTHDIRECTION
 40
0.0
  9
$TIMEZONE
 70
     0
  9
$LIGHTGLYPHDISPLAY
280
     1
  9
$TILEMODELIGHTSYNCH
280
     1
  9
$CMATERIAL
347
11
  9
$SOLIDHIST
280
     0
  9
$SHOWHIST
280
     1
  9
$DWFFRAME
280
     2
  9
$DGNFRAME
280
     0
  9
$REALWORLDSCALE
290
     1
  9
$INTERFERECOLOR
 62
     1
  9
$INTERFEREOBJVS
345
33
  9
$INTERFEREVPVS
346
30
  9
$CSHADOW
280
     0
  9
$SHADOWPLANELOCATION
 40
0.0
  0
ENDSEC
  0
SECTION
  2
CLASSES
  0
CLASS
  1
ACDBDICTIONARYWDFLT
  2
AcDbDictionaryWithDefault
  3
ObjectDBX Classes
 90
        0
 91
        1
280
     0
281
     0
  0
CLASS
  1
MATERIAL
  2
AcDbMaterial
  3
ObjectDBX Classes
 90
     1153
 91
        3
280
     0
281
     0
  0
CLASS
  1
VISUALSTYLE
  2
AcDbVisualStyle
  3
ObjectDBX Classes
 90
     4095
 91
       24
280
     0
281
     0
  0
CLASS
  1
SCALE
  2
AcDbScale
  3
ObjectDBX Classes
 90
     1153
 91
       17
280
     0
281
     0
  0
CLASS
  1
TABLESTYLE
  2
AcDbTableStyle
  3
ObjectDBX Classes
 90
     4095
 91
        1
280
     0
281
     0
  0
CLASS
  1
MLEADERSTYLE
  2
AcDbMLeaderStyle
  3
ACDB_MLEADERSTYLE_CLASS
 90
     4095
 91
        1
280
     0
281
     0
  0
CLASS
  1
ACDBSECTIONVIEWSTYLE
  2
AcDbSectionViewStyle
  3
ObjectDBX Classes
 90
     1025
 91
        1
280
     0
281
     0
  0
CLASS
  1
ACDBDETAILVIEWSTYLE
  2
AcDbDetailViewStyle
  3
ObjectDBX Classes
 90
     1025
 91
        1
280
     0
281
     0
  0
CLASS
  1
RASTERVARIABLES
  2
AcDbRasterVariables
  3
ISM
 90
        0
 91
        1
280
     0
281
     0
  0
CLASS
  1
DICTIONARYVAR
  2
AcDbDictionaryVar
  3
ObjectDBX Classes
 90
        0
 91
        5
280
     0
281
     0
  0
CLASS
  1
CELLSTYLEMAP
  2
AcDbCellStyleMap
  3
ObjectDBX Classes
 90
     1152
 91
        2
280
     0
281
     0
  0
CLASS
  1
IMAGEDEF
  2
AcDbRasterImageDef
  3
ISM
 90
        0
 91
        1
280
     0
281
     0
  0
CLASS
  1
IMAGE
  2
AcDbRasterImage
  3
ISM
 90
     2175
 91
        1
280
     0
281
     1
  0
CLASS
  1
IMAGEDEF_REACTOR
  2
AcDbRasterImageDefReactor
  3
ISM
 90
        1
 91
        1
280
     0
281
     0
  0
CLASS
  1
SORTENTSTABLE
  2
AcDbSortentsTable
  3
ObjectDBX Classes
 90
        0
 91
        1
280
     0
281
     0
  0
ENDSEC
  0
SECTION
  2
TABLES
  0
TABLE
  2
VPORT
  5
8
330
0
100
AcDbSymbolTable
 70
     1
  0
VPORT
  5
57
330
8
100
AcDbSymbolTableRecord
100
AcDbViewportTableRecord
  2
*Active
 70
     0
 10
0.0
 20
0.0
 11
1.0
 21
1.0
 12
795.6370766194027
 22
3425.186265273334
 13
0.0
 23
0.0
 14
1.0
 24
1.0
 15
0.0
 25
0.0
 16
0.0
 26
0.0
 36
1.0
 17
0.0
 27
0.0
 37
0.0
 40
658.1836733424183
 41
1.757992693990833
 42
50.0
 43
0.0
 44
0.0
 50
0.0
 51
0.0
 71
     0
 72
  1000
 73
     1
 74
     0
 75
     1
 76
     0
 77
     0
 78
     0
281
     0
 65
     1
110
0.0
120
0.0
130
0.0
111
1.0
121
0.0
131
0.0
112
0.0
122
1.0
132
0.0
 79
     0
146
0.0
 60
     3
 61
     5
292
     1
282
     1
141
0.0
142
0.0
 63
   250
421
  3355443
  0
ENDTAB
  0
TABLE
  2
LTYPE
  5
5
330
0
100
AcDbSymbolTable
 70
     3
  0
LTYPE
  5
5B
330
5
100
AcDbSymbolTableRecord
100
AcDbLinetypeTableRecord
  2
ByBlock
 70
     0
  3

 72
    65
 73
     0
 40
0.0
  0
LTYPE
  5
5C
330
5
100
AcDbSymbolTableRecord
100
AcDbLinetypeTableRecord
  2
ByLayer
 70
     0
  3

 72
    65
 73
     0
 40
0.0
  0
LTYPE
  5
5D
330
5
100
AcDbSymbolTableRecord
100
AcDbLinetypeTableRecord
  2
Continuous
 70
     0
  3
Solid line
 72
    65
 73
     0
 40
0.0
  0
LTYPE
  5
BC
330
5
100
AcDbSymbolTableRecord
100
AcDbLinetypeTableRecord
  2
Dash Long
 70
     0
  3

 72
    65
 73
     2
 40
7.0
 49
5.0
 74
     0
 49
-2.0
 74
     0
  0
LTYPE
  5
DB
330
5
100
AcDbSymbolTableRecord
100
AcDbLinetypeTableRecord
  2
Dash
 70
     0
  3

 72
    65
 73
     2
 40
6.350000000000001
 49
3.175
 74
     0
 49
-3.175
 74
     0
  0
ENDTAB
  0
TABLE
  2
LAYER
  5
2
330
0
100
AcDbSymbolTable
 70
    10
  0
LAYER
  5
54
330
2
100
AcDbSymbolTableRecord
100
AcDbLayerTableRecord
  2
0
 70
     0
 62
     7
  6
Continuous
370
    -3
390
F
347
21
  0
LAYER
  5
BA
330
2
100
AcDbSymbolTableRecord
100
AcDbLayerTableRecord
  2
A-DETL-GENF
 70
     0
 62
    92
  6
Continuous
370
    30
390
F
347
21
  0
LAYER
  5
BB
330
2
100
AcDbSymbolTableRecord
100
AcDbLayerTableRecord
  2
A-DETL
 70
     0
 62
    90
  6
Continuous
370
     9
390
F
347
21
  0
LAYER
  5
C2
330
2
100
AcDbSymbolTableRecord
100
AcDbLayerTableRecord
  2
A-DETL-THIN
 70
     0
 62
   151
  6
Continuous
370
     9
390
F
347
21
  0
LAYER
  5
1C9
330
2
100
AcDbSymbolTableRecord
100
AcDbLayerTableRecord
  2
A-DETL-MEDM
 70
     0
 62
    33
  6
Continuous
370
    30
390
F
347
21
  0
LAYER
  5
2C5
330
2
100
AcDbSymbolTableRecord
100
AcDbLayerTableRecord
  2
G-ANNO-TEXT
 70
     0
 62
   231
  6
Continuous
370
     9
390
F
347
21
  0
LAYER
  5
330
330
2
100
AcDbSymbolTableRecord
100
AcDbLayerTableRecord
  2
G-ANNO-NPLT
 70
     0
 62
   191
  6
Continuous
290
     0
370
    -3
390
F
347
21
  0
LAYER
  5
336
330
2
100
AcDbSymbolTableRecord
100
AcDbLayerTableRecord
  2
G-ANNO-TTLB
 70
     0
 62
     6
  6
Continuous
370
     9
390
F
347
21
  0
LAYER
  5
33C
330
2
100
AcDbSymbolTableRecord
100
AcDbLayerTableRecord
  2
G-ANNO-TTLB-THIN
 70
     0
 62
   151
  6
Continuous
370
    25
390
F
347
21
  0
LAYER
  5
33F
330
2
100
AcDbSymbolTableRecord
100
AcDbLayerTableRecord
  2
G-ANNO-TTLB-MEDM
 70
     0
 62
    33
  6
Continuous
370
    50
390
F
347
21
  0
ENDTAB
  0
TABLE
  2
STYLE
  5
3
330
0
100
AcDbSymbolTable
 70
     7
  0
STYLE
  5
55
330
3
100
AcDbSymbolTableRecord
100
AcDbTextStyleTableRecord
  2
Standard
 70
     0
 40
0.0
 41
1.0
 50
0.0
 71
     0
 42
0.2
  3
txt
  4

  0
STYLE
  5
5A
330
3
100
AcDbSymbolTableRecord
100
AcDbTextStyleTableRecord
  2
Annotative
 70
     0
 40
0.0
 41
1.0
 50
0.0
 71
     0
 42
0.2
  3
txt
  4

1001
AcadAnnotative
1000
AnnotativeData
1002
{
1070
     1
1070
     1
1002
}
  0
STYLE
  5
2CB
330
3
100
AcDbSymbolTableRecord
100
AcDbTextStyleTableRecord
  2
Century Gothic
 70
     0
 40
12.5
 41
0.9
 50
0.0
 71
     0
 42
0.2
  3
GOTHIC.TTF
  4

1001
ACAD
1000
Century Gothic
1071
       34
  0
STYLE
  5
346
330
3
100
AcDbSymbolTableRecord
100
AcDbTextStyleTableRecord
  2
Century Gothic_1
 70
     0
 40
1.8
 41
0.9
 50
0.0
 71
     0
 42
0.2
  3
GOTHIC.TTF
  4

1001
ACAD
1000
Century Gothic
1071
       34
  0
STYLE
  5
365
330
3
100
AcDbSymbolTableRecord
100
AcDbTextStyleTableRecord
  2
Century Gothic_2
 70
     0
 40
4.0
 41
0.9
 50
0.0
 71
     0
 42
0.2
  3
GOTHIC.TTF
  4

1001
ACAD
1000
Century Gothic
1071
       34
  0
STYLE
  5
367
330
3
100
AcDbSymbolTableRecord
100
AcDbTextStyleTableRecord
  2
Century Gothic_3
 70
     0
 40
3.5
 41
0.9
 50
0.0
 71
     0
 42
0.2
  3
GOTHIC.TTF
  4

1001
ACAD
1000
Century Gothic
1071
       34
  0
STYLE
  5
36A
330
3
100
AcDbSymbolTableRecord
100
AcDbTextStyleTableRecord
  2
Century Gothic_4
 70
     0
 40
4.999999999999999
 41
1.0
 50
0.0
 71
     0
 42
0.2
  3
GOTHIC.TTF
  4

1001
ACAD
1000
Century Gothic
1071
       34
  0
ENDTAB
  0
TABLE
  2
VIEW
  5
6
330
0
100
AcDbSymbolTable
 70
     0
  0
ENDTAB
  0
TABLE
  2
UCS
  5
7
330
0
100
AcDbSymbolTable
 70
     0
  0
ENDTAB
  0
TABLE
  2
APPID
  5
9
330
0
100
AcDbSymbolTable
 70
     3
  0
APPID
  5
56
330
9
100
AcDbSymbolTableRecord
100
AcDbRegAppTableRecord
  2
ACAD
 70
     0
  0
APPID
  5
5E
330
9
100
AcDbSymbolTableRecord
100
AcDbRegAppTableRecord
  2
AcadAnnotative
 70
     0
  0
APPID
  5
78
330
9
100
AcDbSymbolTableRecord
100
AcDbRegAppTableRecord
  2
REVIT
 70
     0
  0
ENDTAB
  0
TABLE
  2
DIMSTYLE
  5
A
330
0
100
AcDbSymbolTable
 70
     2
100
AcDbDimStyleTable
 71
     0
  0
DIMSTYLE
105
58
330
A
100
AcDbSymbolTableRecord
100
AcDbDimStyleTableRecord
  2
Standard
 70
     0
340
55
  0
DIMSTYLE
105
59
330
A
100
AcDbSymbolTableRecord
100
AcDbDimStyleTableRecord
  2
Annotative
 70
     0
340
55
1001
AcadAnnotative
1000
AnnotativeData
1002
{
1070
     1
1070
     1
1002
}
  0
ENDTAB
  0
TABLE
  2
BLOCK_RECORD
  5
1
330
0
100
AcDbSymbolTable
 70
    24
  0
BLOCK_RECORD
  5
70
102
{ACAD_XDICTIONARY
360
371
102
}
330
1
100
AcDbSymbolTableRecord
100
AcDbBlockTableRecord
  2
*Model_Space
340
73
 70
     0
280
     1
281
     0
  0
BLOCK_RECORD
  5
6C
330
1
100
AcDbSymbolTableRecord
100
AcDbBlockTableRecord
  2
*Paper_Space
340
6F
 70
     0
280
     1
281
     0
  0
BLOCK_RECORD
  5
74
330
1
100
AcDbSymbolTableRecord
100
AcDbBlockTableRecord
  2
*Paper_Space0
340
77
 70
     0
280
     1
281
     0
  0
BLOCK_RECORD
  5
C7
330
1
100
AcDbSymbolTableRecord
100
AcDbBlockTableRecord
  2
FP Timber Nog Packer1 - Variable-216047-W-TRSIL-20-H - Deck Balustrade Fixing Detail
340
0
102
{BLKREFS
331
D1
102
}
 70
     0
280
     1
281
     0
  0
BLOCK_RECORD
  5
DA
330
1
100
AcDbSymbolTableRecord
100
AcDbBlockTableRecord
  2
rs_building wrap - Building wrap-216406-W-TRSIL-20-H - Deck Balustrade Fixing Detail
340
0
102
{BLKREFS
331
DF
102
}
 70
     0
280
     1
281
     0
  0
BLOCK_RECORD
  5
E0
330
1
100
AcDbSymbolTableRecord
100
AcDbBlockTableRecord
  2
rs_parapet framing - Parapet framing 2-216517-W-TRSIL-20-H - Deck Balustrade Fixing Detail
340
0
102
{BLKREFS
331
E7
102
}
 70
     0
280
     1
281
     0
  0
BLOCK_RECORD
  5
FF
330
1
100
AcDbSymbolTableRecord
100
AcDbBlockTableRecord
  2
FP Timber Nog Packer - Variable-40636-W-TRSIL-20-H - Deck Balustrade Fixing Detail
340
0
102
{BLKREFS
331
10B
102
}
 70
     0
280
     1
281
     0
  0
BLOCK_RECORD
  5
10C
330
1
100
AcDbSymbolTableRecord
100
AcDbBlockTableRecord
  2
rs_parapet capping 2 - Parapet capping - Deck-209493-W-TRSIL-20-H - Deck Balustrade Fixing Detail
340
0
102
{BLKREFS
331
116
102
}
 70
     0
280
     1
281
     0
  0
BLOCK_RECORD
  5
117
330
1
100
AcDbSymbolTableRecord
100
AcDbBlockTableRecord
  2
rs_grab flashing notched around super seam upstands 2 - Parapet underclip - Deck-208999-W-TRSIL-20-H - Deck Balustrade Fixing Detail
340
0
102
{BLKREFS
331
11F
102
}
 70
     0
280
     1
281
     0
  0
BLOCK_RECORD
  5
120
330
1
100
AcDbSymbolTableRecord
100
AcDbBlockTableRecord
  2
rs_building wrap - Building wrap-216427-W-TRSIL-20-H - Deck Balustrade Fixing Detail
340
0
102
{BLKREFS
331
124
102
}
 70
     0
280
     1
281
     0
  0
BLOCK_RECORD
  5
125
330
1
100
AcDbSymbolTableRecord
100
AcDbBlockTableRecord
  2
rs_building wrap - Building wrap-208199-W-TRSIL-20-H - Deck Balustrade Fixing Detail
340
0
102
{BLKREFS
331
12B
102
}
 70
     0
280
     1
281
     0
  0
BLOCK_RECORD
  5
12C
330
1
100
AcDbSymbolTableRecord
100
AcDbBlockTableRecord
  2
FP Timber Nog Packer - Variable-205958-W-TRSIL-20-H - Deck Balustrade Fixing Detail
340
0
102
{BLKREFS
331
139
102
}
 70
     0
280
     1
281
     0
  0
BLOCK_RECORD
  5
13A
330
1
100
AcDbSymbolTableRecord
100
AcDbBlockTableRecord
  2
rs_fixing nail - nail 20 mm-47643-W-TRSIL-20-H - Deck Balustrade Fixing Detail
340
0
102
{BLKREFS
331
146
331
147
102
}
 70
     0
280
     1
281
     0
  0
BLOCK_RECORD
  5
148
330
1
100
AcDbSymbolTableRecord
100
AcDbBlockTableRecord
  2
rs_fixing nail - nail 20 mm-157062-W-TRSIL-20-H - Deck Balustrade Fixing Detail
340
0
102
{BLKREFS
331
154
102
}
 70
     0
280
     1
281
     0
  0
BLOCK_RECORD
  5
155
330
1
100
AcDbSymbolTableRecord
100
AcDbBlockTableRecord
  2
rs_building wrap - Building wrap-210299-W-TRSIL-20-H - Deck Balustrade Fixing Detail
340
0
102
{BLKREFS
331
159
102
}
 70
     0
280
     1
281
     0
  0
BLOCK_RECORD
  5
15A
330
1
100
AcDbSymbolTableRecord
100
AcDbBlockTableRecord
  2
TRS Interlocking profile - Interlocking 260-113920-W-TRSIL-20-H - Deck Balustrade Fixing Detail
340
0
102
{BLKREFS
331
170
102
}
 70
     0
280
     1
281
     0
  0
BLOCK_RECORD
  5
171
330
1
100
AcDbSymbolTableRecord
100
AcDbBlockTableRecord
  2
rs_building wrap - Building wrap-208308-W-TRSIL-20-H - Deck Balustrade Fixing Detail
340
0
102
{BLKREFS
331
175
102
}
 70
     0
280
     1
281
     0
  0
BLOCK_RECORD
  5
176
330
1
100
AcDbSymbolTableRecord
100
AcDbBlockTableRecord
  2
FP Timber Nog Packer1 - Variable-205865-W-TRSIL-20-H - Deck Balustrade Fixing Detail
340
0
102
{BLKREFS
331
17D
102
}
 70
     0
280
     1
281
     0
  0
BLOCK_RECORD
  5
17E
330
1
100
AcDbSymbolTableRecord
100
AcDbBlockTableRecord
  2
FP Timber Nog Packer1 - Variable-V1-W-TRSIL-20-H - Deck Balustrade Fixing Detail
340
0
102
{BLKREFS
331
186
102
}
 70
     0
280
     1
281
     0
  0
BLOCK_RECORD
  5
1B2
330
1
100
AcDbSymbolTableRecord
100
AcDbBlockTableRecord
  2
FP Timber Nog Packer1 - Variable-86706-W-TRSIL-20-H - Deck Balustrade Fixing Detail
340
0
102
{BLKREFS
331
1BB
102
}
 70
     0
280
     1
281
     0
  0
BLOCK_RECORD
  5
1C0
330
1
100
AcDbSymbolTableRecord
100
AcDbBlockTableRecord
  2
breakline with fill detail1to5 - breakline with fill detail1to5-205520-W-TRSIL-20-H - Deck Balustrade Fixing Detail
340
0
102
{BLKREFS
331
1C8
102
}
 70
     0
280
     1
281
     0
  0
BLOCK_RECORD
  5
1DC
330
1
100
AcDbSymbolTableRecord
100
AcDbBlockTableRecord
  2
breakline with fill detail1to5 - breakline with fill detail1to5-212168-W-TRSIL-20-H - Deck Balustrade Fixing Detail
340
0
102
{BLKREFS
331
1E4
102
}
 70
     0
280
     1
281
     0
  0
BLOCK_RECORD
  5
1E5
330
1
100
AcDbSymbolTableRecord
100
AcDbBlockTableRecord
  2
FP Fixing Coach Screw side - M12-215523-W-TRSIL-20-H - Deck Balustrade Fixing Detail
340
0
102
{BLKREFS
331
279
331
27A
102
}
 70
     0
280
     1
281
     0
  0
BLOCK_RECORD
  5
27B
330
1
100
AcDbSymbolTableRecord
100
AcDbBlockTableRecord
  2
Hex head timberfix screw - Hex head timberfix screw-99997-W-TRSIL-20-H - Deck Balustrade Fixing Detail
340
0
102
{BLKREFS
331
2B0
102
}
 70
     0
280
     1
281
     0
  0
BLOCK_RECORD
  5
2BB
330
1
100
AcDbSymbolTableRecord
100
AcDbBlockTableRecord
  2
FP Timber Nog Packer1 - Variable-216805-W-TRSIL-20-H - Deck Balustrade Fixing Detail
340
0
102
{BLKREFS
331
2C4
102
}
 70
     0
280
     1
281
     0
  0
BLOCK_RECORD
  5
337
330
1
100
AcDbSymbolTableRecord
100
AcDbBlockTableRecord
  2
Titleblock A4 The roofing store - Titleblock A4 The roofing store-2694-Deck Balustrade Fixing Detail
340
0
102
{BLKREFS
331
364
102
}
 70
     0
280
     1
281
     0
  0
ENDTAB
  0
ENDSEC
  0
SECTION
  2
BLOCKS
  0
BLOCK
  5
71
330
70
100
AcDbEntity
  8
0
100
AcDbBlockBegin
  2
*Model_Space
 70
     0
 10
0.0
 20
0.0
 30
0.0
  3
*Model_Space
  1

  0
ENDBLK
  5
72
330
70
100
AcDbEntity
  8
0
100
AcDbBlockEnd
  0
BLOCK
  5
6D
330
6C
100
AcDbEntity
 67
     1
  8
0
100
AcDbBlockBegin
  2
*Paper_Space
 70
     0
 10
0.0
 20
0.0
 30
0.0
  3
*Paper_Space
  1

  0
ENDBLK
  5
6E
330
6C
100
AcDbEntity
 67
     1
  8
0
100
AcDbBlockEnd
  0
BLOCK
  5
75
330
74
100
AcDbEntity
 67
     1
  8
0
100
AcDbBlockBegin
  2
*Paper_Space0
 70
     0
 10
0.0
 20
0.0
 30
0.0
  3
*Paper_Space0
  1

  0
ENDBLK
  5
76
330
74
100
AcDbEntity
 67
     1
  8
0
100
AcDbBlockEnd
  0
BLOCK
  5
CF
330
C7
100
AcDbEntity
  8
0
100
AcDbBlockBegin
  2
FP Timber Nog Packer1 - Variable-216047-W-TRSIL-20-H - Deck Balustrade Fixing Detail
 70
     0
 10
0.0
 20
0.0
 30
0.0
  3
FP Timber Nog Packer1 - Variable-216047-W-TRSIL-20-H - Deck Balustrade Fixing Detail
  1

  0
LINE
  5
C8
330
C7
100
AcDbEntity
  8
A-DETL-GENF
100
AcDbLine
 10
190.0000000000004
 20
-5.000000000000254
 30
0.0
 11
0.0
 21
-5.000000000000254
 31
0.0
1001
REVIT
1002
{
1070
     3
1000
16257
1002
}
  0
LINE
  5
C9
330
C7
100
AcDbEntity
  8
A-DETL-GENF
100
AcDbLine
 10
0.0
 20
-5.000000000000254
 30
0.0
 11
0.0
 21
-24.99999999999865
 31
0.0
1001
REVIT
1002
{
1070
     3
1000
16257
1002
}
  0
LINE
  5
CA
330
C7
100
AcDbEntity
  8
A-DETL-GENF
100
AcDbLine
 10
0.0
 20
-24.99999999999865
 30
0.0
 11
178.2536162348969
 21
-24.99999999999865
 31
0.0
1001
REVIT
1002
{
1070
     3
1000
16257
1002
}
  0
LINE
  5
CB
330
C7
100
AcDbEntity
  8
A-DETL-GENF
100
AcDbLine
 10
189.1928662348928
 20
-24.99999999999865
 30
0.0
 11
190.0000000000004
 21
-24.99999999999865
 31
0.0
1001
REVIT
1002
{
1070
     3
1000
16257
1002
}
  0
LINE
  5
CC
330
C7
100
AcDbEntity
  8
A-DETL-GENF
100
AcDbLine
 10
190.0000000000004
 20
-24.99999999999865
 30
0.0
 11
190.0000000000004
 21
-5.000000000000254
 31
0.0
1001
REVIT
1002
{
1070
     3
1000
16257
1002
}
  0
LINE
  5
CD
330
C7
100
AcDbEntity
  8
A-DETL-GENF
100
AcDbLine
 10
-0.0000000000005245
 20
-5.000000000000254
 30
0.0
 11
185.2551236037273
 21
-24.50053932670679
 31
0.0
1001
REVIT
1002
{
1070
     3
1000
16362
1002
}
  0
LINE
  5
CE
330
C7
100
AcDbEntity
  8
A-DETL-GENF
100
AcDbLine
 10
189.1928662348928
 20
-24.91503855103996
 30
0.0
 11
190.0000000000004
 21
-24.99999999999865
 31
0.0
1001
REVIT
1002
{
1070
     3
1000
16362
1002
}
  0
ENDBLK
  5
D0
330
C7
100
AcDbEntity
  8
0
100
AcDbBlockEnd
  0
BLOCK
  5
DD
330
DA
100
AcDbEntity
  8
0
100
AcDbBlockBegin
  2
rs_building wrap - Building wrap-216406-W-TRSIL-20-H - Deck Balustrade Fixing Detail
 70
     0
 10
0.0
 20
0.0
 30
0.0
  3
rs_building wrap - Building wrap-216406-W-TRSIL-20-H - Deck Balustrade Fixing Detail
  1

  0
LINE
  5
DC
330
DA
100
AcDbEntity
  8
A-DETL-GENF
100
AcDbLine
 10
0.0
 20
0.0
 30
0.0
 11
329.1121416346776
 21
0.0
 31
0.0
1001
REVIT
1002
{
1070
     3
1000
10657
1002
}
  0
ENDBLK
  5
DE
330
DA
100
AcDbEntity
  8
0
100
AcDbBlockEnd
  0
BLOCK
  5
E5
330
E0
100
AcDbEntity
  8
0
100
AcDbBlockBegin
  2
rs_parapet framing - Parapet framing 2-216517-W-TRSIL-20-H - Deck Balustrade Fixing Detail
 70
     0
 10
0.0
 20
0.0
 30
0.0
  3
rs_parapet framing - Parapet framing 2-216517-W-TRSIL-20-H - Deck Balustrade Fixing Detail
  1

  0
LINE
  5
E1
330
E0
100
AcDbEntity
  8
A-DETL-GENF
100
AcDbLine
 10
-45.00000000000002
 20
-22.50000000000013
 30
0.0
 11
44.99999999999988
 21
-14.62602028266698
 31
0.0
  0
LINE
  5
E2
330
E0
100
AcDbEntity
  8
A-DETL-GENF
100
AcDbLine
 10
-45.00000000000001
 20
22.5
 30
0.0
 11
-45.00000000000001
 21
-22.50000000000013
 31
0.0
  0
LINE
  5
E3
330
E0
100
AcDbEntity
  8
A-DETL-GENF
100
AcDbLine
 10
-45.00000000000001
 20
22.49999999999999
 30
0.0
 11
44.99999999999989
 21
-14.62602028266698
 31
0.0
  0
LINE
  5
E4
330
E0
100
AcDbEntity
  8
A-DETL-GENF
100
AcDbLine
 10
-45.00000000000001
 20
-22.50000000000014
 30
0.0
 11
44.99999999999984
 21
22.50000000000013
 31
0.0
  0
ENDBLK
  5
E6
330
E0
100
AcDbEntity
  8
0
100
AcDbBlockEnd
  0
BLOCK
  5
109
330
FF
100
AcDbEntity
  8
0
100
AcDbBlockBegin
  2
FP Timber Nog Packer - Variable-40636-W-TRSIL-20-H - Deck Balustrade Fixing Detail
 70
     0
 10
0.0
 20
0.0
 30
0.0
  3
FP Timber Nog Packer - Variable-40636-W-TRSIL-20-H - Deck Balustrade Fixing Detail
  1

  0
LINE
  5
100
330
FF
100
AcDbEntity
  8
A-DETL-GENF
100
AcDbLine
 10
45.00000000000048
 20
-5.000000000000254
 30
0.0
 11
15.37784387341389
 21
-5.000000000000254
 31
0.0
  0
LINE
  5
101
330
FF
100
AcDbEntity
  8
A-DETL-GENF
100
AcDbLine
 10
14.37784387341389
 20
-5.000000000000254
 30
0.0
 11
0.0
 21
-5.000000000000254
 31
0.0
  0
LINE
  5
102
330
FF
100
AcDbEntity
  8
A-DETL-GENF
100
AcDbLine
 10
0.0
 20
-5.000000000000254
 30
0.0
 11
0.0
 21
-24.99999999999865
 31
0.0
  0
LINE
  5
103
330
FF
100
AcDbEntity
  8
A-DETL-GENF
100
AcDbLine
 10
0.0
 20
-24.99999999999865
 30
0.0
 11
45.00000000000048
 21
-24.99999999999865
 31
0.0
  0
LINE
  5
104
330
FF
100
AcDbEntity
  8
A-DETL-GENF
100
AcDbLine
 10
45.00000000000048
 20
-24.99999999999865
 30
0.0
 11
45.00000000000048
 21
-5.000000000000254
 31
0.0
  0
LINE
  5
105
330
FF
100
AcDbEntity
  8
A-DETL-GENF
100
AcDbLine
 10
0.0
 20
-24.99999999999866
 30
0.0
 11
14.37784387341374
 21
-18.60984716737127
 31
0.0
1001
REVIT
1002
{
1070
     3
1000
16362
1002
}
  0
LINE
  5
106
330
FF
100
AcDbEntity
  8
A-DETL-GENF
100
AcDbLine
 10
15.37784387341365
 20
-18.16540272292693
 30
0.0
 11
45.00000000000006
 21
-5.000000000001579
 31
0.0
1001
REVIT
1002
{
1070
     3
1000
16362
1002
}
  0
LINE
  5
107
330
FF
100
AcDbEntity
  8
A-DETL-GENF
100
AcDbLine
 10
-0.0000000000001438
 20
-5.000000000001579
 30
0.0
 11
14.3778438734138
 21
-11.39015283262913
 31
0.0
1001
REVIT
1002
{
1070
     3
1000
16362
1002
}
  0
LINE
  5
108
330
FF
100
AcDbEntity
  8
A-DETL-GENF
100
AcDbLine
 10
15.37784387341379
 20
-11.83459727707351
 30
0.0
 11
45.00000000000005
 21
-24.99999999999895
 31
0.0
1001
REVIT
1002
{
1070
     3
1000
16362
1002
}
  0
ENDBLK
  5
10A
330
FF
100
AcDbEntity
  8
0
100
AcDbBlockEnd
  0
BLOCK
  5
114
330
10C
100
AcDbEntity
  8
0
100
AcDbBlockBegin
  2
rs_parapet capping 2 - Parapet capping - Deck-209493-W-TRSIL-20-H - Deck Balustrade Fixing Detail
 70
     0
 10
0.0
 20
0.0
 30
0.0
  3
rs_parapet capping 2 - Parapet capping - Deck-209493-W-TRSIL-20-H - Deck Balustrade Fixing Detail
  1

  0
LINE
  5
10D
330
10C
100
AcDbEntity
  8
A-DETL-GENF
100
AcDbLine
 10
-186.5012565339524
 20
-96.31674568006182
 30
0.0
 11
-5.19999999999985
 21
-80.45494105033482
 31
0.0
1001
REVIT
1002
{
1070
     3
1000
2656
1002
}
  0
LINE
  5
10E
330
10C
100
AcDbEntity
  8
A-DETL-GENF
100
AcDbLine
 10
-186.5012565339525
 20
18.4409152978727
 30
0.0
 11
-186.5012565339524
 21
-96.31674568006182
 31
0.0
1001
REVIT
1002
{
1070
     3
1000
2656
1002
}
  0
LINE
  5
10F
330
10C
100
AcDbEntity
  8
A-DETL-GENF
100
AcDbLine
 10
-5.199999999999867
 20
-80.45494105033482
 30
0.0
 11
-5.200000000000422
 21
14.99999999999999
 31
0.0
1001
REVIT
1002
{
1070
     3
1000
2656
1002
}
  0
ARC
  5
110
330
10C
100
AcDbEntity
  8
A-DETL-GENF
100
AcDbCircle
 10
-183.5012565339536
 20
18.4409152978727
 30
0.0
 40
2.999999999998891
100
AcDbArc
 50
0.0000000000002036
 51
180.0
1001
REVIT
1002
{
1070
     3
1000
2656
1002
}
  0
LINE
  5
111
330
10C
100
AcDbEntity
  8
A-DETL-GENF
100
AcDbLine
 10
-180.5012565339543
 20
18.44091529787271
 30
0.0
 11
-180.5012565339542
 21
-8.559084702128416
 31
0.0
1001
REVIT
1002
{
1070
     3
1000
2656
1002
}
  0
ARC
  5
112
330
10C
100
AcDbEntity
  8
A-DETL-GENF
100
AcDbCircle
 10
-8.19999999999861
 20
14.99999999999997
 30
0.0
 40
2.999999999998877
100
AcDbArc
 50
0.0000000000002926
 51
179.9999999999998
1001
REVIT
1002
{
1070
     3
1000
2656
1002
}
  0
LINE
  5
113
330
10C
100
AcDbEntity
  8
A-DETL-GENF
100
AcDbLine
 10
-11.19999999999793
 20
14.99999999999998
 30
0.0
 11
-11.19999999999799
 21
-12.00000000000114
 31
0.0
1001
REVIT
1002
{
1070
     3
1000
2656
1002
}
  0
ENDBLK
  5
115
330
10C
100
AcDbEntity
  8
0
100
AcDbBlockEnd
  0
BLOCK
  5
11D
330
117
100
AcDbEntity
  8
0
100
AcDbBlockBegin
  2
rs_grab flashing notched around super seam upstands 2 - Parapet underclip - Deck-208999-W-TRSIL-20-H - Deck Balustrade Fixing Detail
 70
     0
 10
0.0
 20
0.0
 30
0.0
  3
rs_grab flashing notched around super seam upstands 2 - Parapet underclip - Deck-208999-W-TRSIL-20-H - Deck Balustrade Fixing Detail
  1

  0
LINE
  5
118
330
117
100
AcDbEntity
  8
A-DETL-GENF
100
AcDbLine
 10
-179.0911673523693
 20
18.43883770682673
 30
0.0
 11
-179.091167352368
 21
-90.07496420449912
 31
0.0
1001
REVIT
1002
{
1070
     3
1000
2656
1002
}
  0
LINE
  5
119
330
117
100
AcDbEntity
  8
A-DETL-GENF
100
AcDbLine
 10
-3.925442981776715
 20
-74.74994908376669
 30
0.0
 11
-50.2527153730029
 21
-78.80306023007626
 31
0.0
1001
REVIT
1002
{
1070
     3
1000
2656
1002
}
  0
LINE
  5
11A
330
117
100
AcDbEntity
  8
A-DETL-GENF
100
AcDbLine
 10
-51.24891007109466
 20
-78.89021597282391
 30
0.0
 11
-131.9431812266991
 21
-85.95004991042578
 31
0.0
1001
REVIT
1002
{
1070
     3
1000
2656
1002
}
  0
LINE
  5
11B
330
117
100
AcDbEntity
  8
A-DETL-GENF
100
AcDbLine
 10
-132.9393759247908
 20
-86.03720565317345
 30
0.0
 11
-179.091167352368
 21
-90.07496420449912
 31
0.0
1001
REVIT
1002
{
1070
     3
1000
2656
1002
}
  0
LINE
  5
11C
330
117
100
AcDbEntity
  8
A-DETL-GENF
100
AcDbLine
 10
-3.925442981776742
 20
-74.74994908376669
 30
0.0
 11
-3.92544298177689
 21
17.25922809651469
 31
0.0
1001
REVIT
1002
{
1070
     3
1000
2656
1002
}
  0
ENDBLK
  5
11E
330
117
100
AcDbEntity
  8
0
100
AcDbBlockEnd
  0
BLOCK
  5
122
330
120
100
AcDbEntity
  8
0
100
AcDbBlockBegin
  2
rs_building wrap - Building wrap-216427-W-TRSIL-20-H - Deck Balustrade Fixing Detail
 70
     0
 10
0.0
 20
0.0
 30
0.0
  3
rs_building wrap - Building wrap-216427-W-TRSIL-20-H - Deck Balustrade Fixing Detail
  1

  0
LINE
  5
121
330
120
100
AcDbEntity
  8
A-DETL-GENF
100
AcDbLine
 10
1.740561560912185
 20
0.0
 30
0.0
 11
95.09580645244566
 21
0.0
 31
0.0
1001
REVIT
1002
{
1070
     3
1000
10657
1002
}
  0
ENDBLK
  5
123
330
120
100
AcDbEntity
  8
0
100
AcDbBlockEnd
  0
BLOCK
  5
129
330
125
100
AcDbEntity
  8
0
100
AcDbBlockBegin
  2
rs_building wrap - Building wrap-208199-W-TRSIL-20-H - Deck Balustrade Fixing Detail
 70
     0
 10
0.0
 20
0.0
 30
0.0
  3
rs_building wrap - Building wrap-208199-W-TRSIL-20-H - Deck Balustrade Fixing Detail
  1

  0
LINE
  5
126
330
125
100
AcDbEntity
  8
A-DETL-GENF
100
AcDbLine
 10
0.0
 20
0.0
 30
0.0
 11
38.67167374190825
 21
0.0
 31
0.0
1001
REVIT
1002
{
1070
     3
1000
10657
1002
}
  0
LINE
  5
127
330
125
100
AcDbEntity
  8
A-DETL-GENF
100
AcDbLine
 10
39.67167374190828
 20
0.0
 30
0.0
 11
120.6741839040057
 21
0.0
 31
0.0
1001
REVIT
1002
{
1070
     3
1000
10657
1002
}
  0
LINE
  5
128
330
125
100
AcDbEntity
  8
A-DETL-GENF
100
AcDbLine
 10
121.6741839040058
 20
0.0
 30
0.0
 11
133.1906180278181
 21
0.0
 31
0.0
1001
REVIT
1002
{
1070
     3
1000
10657
1002
}
  0
ENDBLK
  5
12A
330
125
100
AcDbEntity
  8
0
100
AcDbBlockEnd
  0
BLOCK
  5
137
330
12C
100
AcDbEntity
  8
0
100
AcDbBlockBegin
  2
FP Timber Nog Packer - Variable-205958-W-TRSIL-20-H - Deck Balustrade Fixing Detail
 70
     0
 10
0.0
 20
0.0
 30
0.0
  3
FP Timber Nog Packer - Variable-205958-W-TRSIL-20-H - Deck Balustrade Fixing Detail
  1

  0
LINE
  5
12D
330
12C
100
AcDbEntity
  8
A-DETL-GENF
100
AcDbLine
 10
118.0048323773161
 20
24.99999999999865
 30
0.0
 11
0.0
 21
24.99999999999865
 31
0.0
  0
LINE
  5
12E
330
12C
100
AcDbEntity
  8
A-DETL-GENF
100
AcDbLine
 10
0.0
 20
24.99999999999865
 30
0.0
 11
0.0
 21
5.168194363668623
 31
0.0
  0
LINE
  5
12F
330
12C
100
AcDbEntity
  8
A-DETL-GENF
100
AcDbLine
 10
0.0
 20
5.168194363668623
 30
0.0
 11
9.085496780297457
 21
5.168194363668623
 31
0.0
  0
LINE
  5
130
330
12C
100
AcDbEntity
  8
A-DETL-GENF
100
AcDbLine
 10
10.08549678029748
 20
5.168194363668623
 30
0.0
 11
91.08800694239496
 21
5.168194363668623
 31
0.0
  0
LINE
  5
131
330
12C
100
AcDbEntity
  8
A-DETL-GENF
100
AcDbLine
 10
92.08800694239497
 20
5.168194363668623
 30
0.0
 11
119.4863789674751
 21
5.168194363668623
 31
0.0
  0
LINE
  5
132
330
12C
100
AcDbEntity
  8
A-DETL-GENF
100
AcDbLine
 10
0.0
 20
24.99999999999866
 30
0.0
 11
91.08800694239496
 21
9.881626967923873
 31
0.0
1001
REVIT
1002
{
1070
     3
1000
16362
1002
}
  0
LINE
  5
133
330
12C
100
AcDbEntity
  8
A-DETL-GENF
100
AcDbLine
 10
92.08800694239497
 20
9.715651516933535
 30
0.0
 11
116.3158138885039
 21
5.694430332546322
 31
0.0
1001
REVIT
1002
{
1070
     3
1000
16362
1002
}
  0
LINE
  5
134
330
12C
100
AcDbEntity
  8
A-DETL-GENF
100
AcDbLine
 10
119.0373928122308
 20
5.242715043274968
 30
0.0
 11
119.4863789674747
 21
5.168194363669948
 31
0.0
1001
REVIT
1002
{
1070
     3
1000
16362
1002
}
  0
LINE
  5
135
330
12C
100
AcDbEntity
  8
A-DETL-GENF
100
AcDbLine
 10
-0.0000000000001438
 20
5.168194363669948
 30
0.0
 11
9.085496780297408
 21
6.676163789251091
 31
0.0
1001
REVIT
1002
{
1070
     3
1000
16362
1002
}
  0
LINE
  5
136
330
12C
100
AcDbEntity
  8
A-DETL-GENF
100
AcDbLine
 10
10.08549678029745
 20
6.842139240241436
 30
0.0
 11
117.9830018831974
 21
24.75047631042749
 31
0.0
1001
REVIT
1002
{
1070
     3
1000
16362
1002
}
  0
ENDBLK
  5
138
330
12C
100
AcDbEntity
  8
0
100
AcDbBlockEnd
  0
BLOCK
  5
144
330
13A
100
AcDbEntity
  8
0
100
AcDbBlockBegin
  2
rs_fixing nail - nail 20 mm-47643-W-TRSIL-20-H - Deck Balustrade Fixing Detail
 70
     0
 10
0.0
 20
0.0
 30
0.0
  3
rs_fixing nail - nail 20 mm-47643-W-TRSIL-20-H - Deck Balustrade Fixing Detail
  1

  0
LINE
  5
13B
330
13A
100
AcDbEntity
  8
A-DETL-GENF
100
AcDbLine
 10
2.000000000000682
 20
0.75
 30
0.0
 11
-2.000000000000682
 21
0.75
 31
0.0
1001
REVIT
1002
{
1070
     3
1000
41819
1002
}
  0
LINE
  5
13C
330
13A
100
AcDbEntity
  8
A-DETL-GENF
100
AcDbLine
 10
0.5000000000011332
 20
-18.00000000000001
 30
0.0
 11
0.5000000000011332
 21
0.0
 31
0.0
1001
REVIT
1002
{
1070
     3
1000
41819
1002
}
  0
LINE
  5
13D
330
13A
100
AcDbEntity
  8
A-DETL-GENF
100
AcDbLine
 10
0.0
 20
-20.0
 30
0.0
 11
0.5000000000011332
 21
-18.00000000000001
 31
0.0
1001
REVIT
1002
{
1070
     3
1000
41819
1002
}
  0
LINE
  5
13E
330
13A
100
AcDbEntity
  8
A-DETL-GENF
100
AcDbLine
 10
-0.4999999999988611
 20
-18.00000000000001
 30
0.0
 11
0.0
 21
-20.0
 31
0.0
1001
REVIT
1002
{
1070
     3
1000
41819
1002
}
  0
LINE
  5
13F
330
13A
100
AcDbEntity
  8
A-DETL-GENF
100
AcDbLine
 10
-0.4999999999988611
 20
0.0
 30
0.0
 11
-0.4999999999988611
 21
-18.00000000000001
 31
0.0
1001
REVIT
1002
{
1070
     3
1000
41819
1002
}
  0
LINE
  5
140
330
13A
100
AcDbEntity
  8
A-DETL-GENF
100
AcDbLine
 10
-1.699863541110289
 20
0.0
 30
0.0
 11
-0.4999999999988633
 21
0.0
 31
0.0
1001
REVIT
1002
{
1070
     3
1000
41819
1002
}
  0
LINE
  5
141
330
13A
100
AcDbEntity
  8
A-DETL-GENF
100
AcDbLine
 10
0.5000000000011352
 20
0.0
 30
0.0
 11
1.699863541112108
 21
0.0
 31
0.0
1001
REVIT
1002
{
1070
     3
1000
41819
1002
}
  0
LINE
  5
142
330
13A
100
AcDbEntity
  8
A-DETL-GENF
100
AcDbLine
 10
2.000000000000682
 20
0.75
 30
0.0
 11
1.699863541112108
 21
0.0
 31
0.0
1001
REVIT
1002
{
1070
     3
1000
41819
1002
}
  0
LINE
  5
143
330
13A
100
AcDbEntity
  8
A-DETL-GENF
100
AcDbLine
 10
-2.000000000000682
 20
0.75
 30
0.0
 11
-1.699863541110289
 21
0.0000000000000001
 31
0.0
1001
REVIT
1002
{
1070
     3
1000
41819
1002
}
  0
ENDBLK
  5
145
330
13A
100
AcDbEntity
  8
0
100
AcDbBlockEnd
  0
BLOCK
  5
152
330
148
100
AcDbEntity
  8
0
100
AcDbBlockBegin
  2
rs_fixing nail - nail 20 mm-157062-W-TRSIL-20-H - Deck Balustrade Fixing Detail
 70
     0
 10
0.0
 20
0.0
 30
0.0
  3
rs_fixing nail - nail 20 mm-157062-W-TRSIL-20-H - Deck Balustrade Fixing Detail
  1

  0
LINE
  5
149
330
148
100
AcDbEntity
  8
A-DETL-GENF
100
AcDbLine
 10
2.000000000000682
 20
0.75
 30
0.0
 11
-2.000000000000682
 21
0.75
 31
0.0
1001
REVIT
1002
{
1070
     3
1000
41819
1002
}
  0
LINE
  5
14A
330
148
100
AcDbEntity
  8
A-DETL-GENF
100
AcDbLine
 10
0.5000000000011332
 20
-25.00000000000002
 30
0.0
 11
0.5000000000011332
 21
0.0
 31
0.0
1001
REVIT
1002
{
1070
     3
1000
41819
1002
}
  0
LINE
  5
14B
330
148
100
AcDbEntity
  8
A-DETL-GENF
100
AcDbLine
 10
0.0
 20
-27.0
 30
0.0
 11
0.5000000000011332
 21
-25.00000000000002
 31
0.0
1001
REVIT
1002
{
1070
     3
1000
41819
1002
}
  0
LINE
  5
14C
330
148
100
AcDbEntity
  8
A-DETL-GENF
100
AcDbLine
 10
-0.4999999999988611
 20
-25.00000000000002
 30
0.0
 11
0.0
 21
-27.0
 31
0.0
1001
REVIT
1002
{
1070
     3
1000
41819
1002
}
  0
LINE
  5
14D
330
148
100
AcDbEntity
  8
A-DETL-GENF
100
AcDbLine
 10
-0.4999999999988611
 20
0.0
 30
0.0
 11
-0.4999999999988611
 21
-25.00000000000002
 31
0.0
1001
REVIT
1002
{
1070
     3
1000
41819
1002
}
  0
LINE
  5
14E
330
148
100
AcDbEntity
  8
A-DETL-GENF
100
AcDbLine
 10
-1.699863541110289
 20
0.0
 30
0.0
 11
-0.4999999999988633
 21
0.0
 31
0.0
1001
REVIT
1002
{
1070
     3
1000
41819
1002
}
  0
LINE
  5
14F
330
148
100
AcDbEntity
  8
A-DETL-GENF
100
AcDbLine
 10
0.5000000000011352
 20
0.0
 30
0.0
 11
1.699863541112108
 21
0.0
 31
0.0
1001
REVIT
1002
{
1070
     3
1000
41819
1002
}
  0
LINE
  5
150
330
148
100
AcDbEntity
  8
A-DETL-GENF
100
AcDbLine
 10
2.000000000000682
 20
0.75
 30
0.0
 11
1.699863541112108
 21
0.0
 31
0.0
1001
REVIT
1002
{
1070
     3
1000
41819
1002
}
  0
LINE
  5
151
330
148
100
AcDbEntity
  8
A-DETL-GENF
100
AcDbLine
 10
-2.000000000000682
 20
0.75
 30
0.0
 11
-1.699863541110289
 21
0.0000000000000001
 31
0.0
1001
REVIT
1002
{
1070
     3
1000
41819
1002
}
  0
ENDBLK
  5
153
330
148
100
AcDbEntity
  8
0
100
AcDbBlockEnd
  0
BLOCK
  5
157
330
155
100
AcDbEntity
  8
0
100
AcDbBlockBegin
  2
rs_building wrap - Building wrap-210299-W-TRSIL-20-H - Deck Balustrade Fixing Detail
 70
     0
 10
0.0
 20
0.0
 30
0.0
  3
rs_building wrap - Building wrap-210299-W-TRSIL-20-H - Deck Balustrade Fixing Detail
  1

  0
LINE
  5
156
330
155
100
AcDbEntity
  8
A-DETL-GENF
100
AcDbLine
 10
0.0
 20
0.0
 30
0.0
 11
356.9954778940594
 21
0.0
 31
0.0
1001
REVIT
1002
{
1070
     3
1000
10657
1002
}
  0
ENDBLK
  5
158
330
155
100
AcDbEntity
  8
0
100
AcDbBlockEnd
  0
BLOCK
  5
16E
330
15A
100
AcDbEntity
  8
0
100
AcDbBlockBegin
  2
TRS Interlocking profile - Interlocking 260-113920-W-TRSIL-20-H - Deck Balustrade Fixing Detail
 70
     0
 10
0.0
 20
0.0
 30
0.0
  3
TRS Interlocking profile - Interlocking 260-113920-W-TRSIL-20-H - Deck Balustrade Fixing Detail
  1

  0
LINE
  5
15B
330
15A
100
AcDbEntity
  8
A-DETL-GENF
100
AcDbLine
 10
-810.0000000000003
 20
0.0
 30
0.0
 11
-790.0000000000001
 21
0.0
 31
0.0
  0
LINE
  5
15C
330
15A
100
AcDbEntity
  8
A-DETL-GENF
100
AcDbLine
 10
-770.0000000000001
 20
2.399999999999999
 30
0.0
 11
-790.0000000000001
 21
0.0
 31
0.0
  0
LINE
  5
15D
330
15A
100
AcDbEntity
  8
A-DETL-GENF
100
AcDbLine
 10
-770.0000000000001
 20
2.399999999999999
 30
0.0
 11
-722.8383020477994
 21
2.399999999999846
 31
0.0
  0
LINE
  5
15E
330
15A
100
AcDbEntity
  8
A-DETL-GENF
100
AcDbLine
 10
-722.8383020477994
 20
4.599999999999842
 30
0.0
 11
-760.2695588928534
 21
4.599999999999842
 31
0.0
  0
LINE
  5
15F
330
15A
100
AcDbEntity
  8
A-DETL-GENF
100
AcDbLine
 10
-761.7818139502136
 20
6.112255057360221
 30
0.0
 11
-761.7818139502136
 21
23.09999999999984
 31
0.0
  0
LINE
  5
160
330
15A
100
AcDbEntity
  8
A-DETL-GENF
100
AcDbLine
 10
-687.0836064485551
 20
24.59999999999961
 30
0.0
 11
-637.0836064485549
 21
24.59999999999944
 31
0.0
  0
LINE
  5
161
330
15A
100
AcDbEntity
  8
A-DETL-GENF
100
AcDbLine
 10
-585.0836064485554
 20
24.59999999999928
 30
0.0
 11
-535.0836064485554
 21
24.59999999999912
 31
0.0
  0
LINE
  5
162
330
15A
100
AcDbEntity
  8
A-DETL-GENF
100
AcDbLine
 10
-760.2818139502136
 20
24.59999999999984
 30
0.0
 11
-687.0836064485551
 21
24.59999999999961
 31
0.0
  0
LINE
  5
163
330
15A
100
AcDbEntity
  8
A-DETL-GENF
100
AcDbLine
 10
-637.0836064485549
 20
24.59999999999944
 30
0.0
 11
-585.0836064485554
 21
24.59999999999928
 31
0.0
  0
LINE
  5
164
330
15A
100
AcDbEntity
  8
A-DETL-GENF
100
AcDbLine
 10
-535.0836064485554
 20
24.59999999999912
 30
0.0
 11
-503.2728888821042
 21
24.59999999999902
 31
0.0
  0
LINE
  5
165
330
15A
100
AcDbEntity
  8
A-DETL-GENF
100
AcDbLine
 10
-501.7818139502136
 20
23.10892506810844
 30
0.0
 11
-501.7818139502136
 21
4.511758410021792
 31
0.0
  0
LINE
  5
166
330
15A
100
AcDbEntity
  8
A-DETL-GENF
100
AcDbLine
 10
-500.2861306645898
 20
3.01607512439793
 30
0.0
 11
-469.2818139502135
 21
3.01607512439793
 31
0.0
  0
LINE
  5
167
330
15A
100
AcDbEntity
  8
A-DETL-GENF
100
AcDbLine
 10
-469.2818139502135
 20
3.01607512439793
 30
0.0
 11
-467.0671833822827
 21
3.609483596608291
 31
0.0
  0
LINE
  5
168
330
15A
100
AcDbEntity
  8
A-DETL-GENF
100
AcDbLine
 10
-464.8525528143519
 20
3.01607512439793
 30
0.0
 11
-467.0671833822827
 21
3.609483596608291
 31
0.0
  0
ARC
  5
169
330
15A
100
AcDbEntity
  8
A-DETL-GENF
100
AcDbCircle
 10
-760.2818139502136
 20
23.09999999999984
 30
0.0
 40
1.5
100
AcDbArc
 50
90.0
 51
180.0
  0
ARC
  5
16A
330
15A
100
AcDbEntity
  8
A-DETL-GENF
100
AcDbCircle
 10
-760.2695588928534
 20
6.112255057360221
 30
0.0
 40
1.512255057360333
100
AcDbArc
 50
179.9999999999999
 51
269.9999999999997
  0
ARC
  5
16B
330
15A
100
AcDbEntity
  8
A-DETL-GENF
100
AcDbCircle
 10
-722.8383020477994
 20
3.499999999999844
 30
0.0
 40
1.099999999999983
100
AcDbArc
 50
269.9999999999994
 51
89.99999999999976
  0
ARC
  5
16C
330
15A
100
AcDbEntity
  8
A-DETL-GENF
100
AcDbCircle
 10
-503.2728888821042
 20
23.10892506810843
 30
0.0
 40
1.491074931890586
100
AcDbArc
 50
0.0000000000001463
 51
90.00000000000028
  0
ARC
  5
16D
330
15A
100
AcDbEntity
  8
A-DETL-GENF
100
AcDbCircle
 10
-500.2861306645898
 20
4.511758410021792
 30
0.0
 40
1.49568328562384
100
AcDbArc
 50
179.9999999999999
 51
269.9999999999995
  0
ENDBLK
  5
16F
330
15A
100
AcDbEntity
  8
0
100
AcDbBlockEnd
  0
BLOCK
  5
173
330
171
100
AcDbEntity
  8
0
100
AcDbBlockBegin
  2
rs_building wrap - Building wrap-208308-W-TRSIL-20-H - Deck Balustrade Fixing Detail
 70
     0
 10
0.0
 20
0.0
 30
0.0
  3
rs_building wrap - Building wrap-208308-W-TRSIL-20-H - Deck Balustrade Fixing Detail
  1

  0
LINE
  5
172
330
171
100
AcDbEntity
  8
A-DETL-GENF
100
AcDbLine
 10
0.0
 20
0.0
 30
0.0
 11
164.9999999999998
 21
0.0
 31
0.0
1001
REVIT
1002
{
1070
     3
1000
10657
1002
}
  0
ENDBLK
  5
174
330
171
100
AcDbEntity
  8
0
100
AcDbBlockEnd
  0
BLOCK
  5
17B
330
176
100
AcDbEntity
  8
0
100
AcDbBlockBegin
  2
FP Timber Nog Packer1 - Variable-205865-W-TRSIL-20-H - Deck Balustrade Fixing Detail
 70
     0
 10
0.0
 20
0.0
 30
0.0
  3
FP Timber Nog Packer1 - Variable-205865-W-TRSIL-20-H - Deck Balustrade Fixing Detail
  1

  0
LINE
  5
177
330
176
100
AcDbEntity
  8
A-DETL-GENF
100
AcDbLine
 10
88.00000000000029
 20
-24.99999999999865
 30
0.0
 11
240.0000000000004
 21
-24.99999999999865
 31
0.0
1001
REVIT
1002
{
1070
     3
1000
16257
1002
}
  0
LINE
  5
178
330
176
100
AcDbEntity
  8
A-DETL-GENF
100
AcDbLine
 10
240.0000000000004
 20
-24.99999999999865
 30
0.0
 11
240.0000000000004
 21
19.99999999999973
 31
0.0
1001
REVIT
1002
{
1070
     3
1000
16257
1002
}
  0
LINE
  5
179
330
176
100
AcDbEntity
  8
A-DETL-GENF
100
AcDbLine
 10
0.0
 20
-24.99999999999866
 30
0.0
 11
240.0
 21
19.9999999999984
 31
0.0
1001
REVIT
1002
{
1070
     3
1000
16362
1002
}
  0
LINE
  5
17A
330
176
100
AcDbEntity
  8
A-DETL-GENF
100
AcDbLine
 10
-0.0000000000001438
 20
19.9999999999984
 30
0.0
 11
239.9999999999999
 21
-24.99999999999895
 31
0.0
1001
REVIT
1002
{
1070
     3
1000
16362
1002
}
  0
ENDBLK
  5
17C
330
176
100
AcDbEntity
  8
0
100
AcDbBlockEnd
  0
BLOCK
  5
184
330
17E
100
AcDbEntity
  8
0
100
AcDbBlockBegin
  2
FP Timber Nog Packer1 - Variable-V1-W-TRSIL-20-H - Deck Balustrade Fixing Detail
 70
     0
 10
0.0
 20
0.0
 30
0.0
  3
FP Timber Nog Packer1 - Variable-V1-W-TRSIL-20-H - Deck Balustrade Fixing Detail
  1

  0
LINE
  5
17F
330
17E
100
AcDbEntity
  8
A-DETL-GENF
100
AcDbLine
 10
240.0000000000004
 20
19.99999999999973
 30
0.0
 11
0.0
 21
19.99999999999973
 31
0.0
1001
REVIT
1002
{
1070
     3
1000
16257
1002
}
  0
LINE
  5
180
330
17E
100
AcDbEntity
  8
A-DETL-GENF
100
AcDbLine
 10
0.0
 20
-24.99999999999865
 30
0.0
 11
240.0000000000004
 21
-24.99999999999865
 31
0.0
1001
REVIT
1002
{
1070
     3
1000
16257
1002
}
  0
LINE
  5
181
330
17E
100
AcDbEntity
  8
A-DETL-GENF
100
AcDbLine
 10
240.0000000000004
 20
-24.99999999999865
 30
0.0
 11
240.0000000000004
 21
19.99999999999973
 31
0.0
1001
REVIT
1002
{
1070
     3
1000
16257
1002
}
  0
LINE
  5
182
330
17E
100
AcDbEntity
  8
A-DETL-GENF
100
AcDbLine
 10
0.0
 20
-24.99999999999866
 30
0.0
 11
240.0
 21
19.9999999999984
 31
0.0
1001
REVIT
1002
{
1070
     3
1000
16362
1002
}
  0
LINE
  5
183
330
17E
100
AcDbEntity
  8
A-DETL-GENF
100
AcDbLine
 10
-0.0000000000001438
 20
19.9999999999984
 30
0.0
 11
239.9999999999999
 21
-24.99999999999895
 31
0.0
1001
REVIT
1002
{
1070
     3
1000
16362
1002
}
  0
ENDBLK
  5
185
330
17E
100
AcDbEntity
  8
0
100
AcDbBlockEnd
  0
BLOCK
  5
1B9
330
1B2
100
AcDbEntity
  8
0
100
AcDbBlockBegin
  2
FP Timber Nog Packer1 - Variable-86706-W-TRSIL-20-H - Deck Balustrade Fixing Detail
 70
     0
 10
0.0
 20
0.0
 30
0.0
  3
FP Timber Nog Packer1 - Variable-86706-W-TRSIL-20-H - Deck Balustrade Fixing Detail
  1

  0
LINE
  5
1B3
330
1B2
100
AcDbEntity
  8
A-DETL-GENF
100
AcDbLine
 10
90.00000000000047
 20
19.99999999999973
 30
0.0
 11
0.0
 21
19.99999999999973
 31
0.0
1001
REVIT
1002
{
1070
     3
1000
16257
1002
}
  0
LINE
  5
1B4
330
1B2
100
AcDbEntity
  8
A-DETL-GENF
100
AcDbLine
 10
0.0
 20
19.99999999999973
 30
0.0
 11
0.0
 21
-24.99999999999865
 31
0.0
1001
REVIT
1002
{
1070
     3
1000
16257
1002
}
  0
LINE
  5
1B5
330
1B2
100
AcDbEntity
  8
A-DETL-GENF
100
AcDbLine
 10
0.0
 20
-24.99999999999865
 30
0.0
 11
90.00000000000047
 21
-24.99999999999865
 31
0.0
1001
REVIT
1002
{
1070
     3
1000
16257
1002
}
  0
LINE
  5
1B6
330
1B2
100
AcDbEntity
  8
A-DETL-GENF
100
AcDbLine
 10
90.00000000000047
 20
-24.99999999999865
 30
0.0
 11
90.00000000000047
 21
19.99999999999973
 31
0.0
1001
REVIT
1002
{
1070
     3
1000
16257
1002
}
  0
LINE
  5
1B7
330
1B2
100
AcDbEntity
  8
A-DETL-GENF
100
AcDbLine
 10
-0.0000000000000008
 20
-24.99999999999865
 30
0.0
 11
90.00000000000047
 21
19.99999999999972
 31
0.0
1001
REVIT
1002
{
1070
     3
1000
16362
1002
}
  0
LINE
  5
1B8
330
1B2
100
AcDbEntity
  8
A-DETL-GENF
100
AcDbLine
 10
0.0000000000001442
 20
20.00000000000001
 30
0.0
 11
90.00000000000033
 21
-24.99999999999895
 31
0.0
1001
REVIT
1002
{
1070
     3
1000
16362
1002
}
  0
ENDBLK
  5
1BA
330
1B2
100
AcDbEntity
  8
0
100
AcDbBlockEnd
  0
BLOCK
  5
1C6
330
1C0
100
AcDbEntity
  8
0
100
AcDbBlockBegin
  2
breakline with fill detail1to5 - breakline with fill detail1to5-205520-W-TRSIL-20-H - Deck Balustrade Fixing Detail
 70
     0
 10
0.0
 20
0.0
 30
0.0
  3
breakline with fill detail1to5 - breakline with fill detail1to5-205520-W-TRSIL-20-H - Deck Balustrade Fixing Detail
  1

  0
LINE
  5
1C1
330
1C0
100
AcDbEntity
  8
A-DETL-GENF
100
AcDbLine
 10
124.5108985148634
 20
0.0
 30
0.0
 11
3.716620848870186
 21
0.0
 31
0.0
  0
LINE
  5
1C2
330
1C0
100
AcDbEntity
  8
A-DETL-GENF
100
AcDbLine
 10
3.716620848870186
 20
0.0000000000000006
 30
0.0
 11
1.858310424435101
 21
-10.53900212530473
 31
0.0
  0
LINE
  5
1C3
330
1C0
100
AcDbEntity
  8
A-DETL-GENF
100
AcDbLine
 10
1.858310424435101
 20
-10.53900212530473
 30
0.0
 11
-1.867677296005188
 21
10.59212429374691
 31
0.0
  0
LINE
  5
1C4
330
1C0
100
AcDbEntity
  8
A-DETL-GENF
100
AcDbLine
 10
-1.867677296005188
 20
10.59212429374694
 30
0.0
 11
-3.735354592010394
 21
0.0
 31
0.0
  0
LINE
  5
1C5
330
1C0
100
AcDbEntity
  8
A-DETL-GENF
100
AcDbLine
 10
-3.735354592010394
 20
0.0
 30
0.0
 11
-124.5108985148633
 21
0.0
 31
0.0
  0
ENDBLK
  5
1C7
330
1C0
100
AcDbEntity
  8
0
100
AcDbBlockEnd
  0
BLOCK
  5
1E2
330
1DC
100
AcDbEntity
  8
0
100
AcDbBlockBegin
  2
breakline with fill detail1to5 - breakline with fill detail1to5-212168-W-TRSIL-20-H - Deck Balustrade Fixing Detail
 70
     0
 10
0.0
 20
0.0
 30
0.0
  3
breakline with fill detail1to5 - breakline with fill detail1to5-212168-W-TRSIL-20-H - Deck Balustrade Fixing Detail
  1

  0
LINE
  5
1DD
330
1DC
100
AcDbEntity
  8
A-DETL-GENF
100
AcDbLine
 10
69.06467357379897
 20
0.0
 30
0.0
 11
3.716620848870194
 21
0.0
 31
0.0
  0
LINE
  5
1DE
330
1DC
100
AcDbEntity
  8
A-DETL-GENF
100
AcDbLine
 10
3.716620848870194
 20
0.0000000000000006
 30
0.0
 11
1.858310424435101
 21
-10.53900212530473
 31
0.0
  0
LINE
  5
1DF
330
1DC
100
AcDbEntity
  8
A-DETL-GENF
100
AcDbLine
 10
1.858310424435093
 20
-10.53900212530473
 30
0.0
 11
-1.867677296005189
 21
10.59212429374691
 31
0.0
  0
LINE
  5
1E0
330
1DC
100
AcDbEntity
  8
A-DETL-GENF
100
AcDbLine
 10
-1.867677296005188
 20
10.59212429374694
 30
0.0
 11
-3.735354592010385
 21
0.0
 31
0.0
  0
LINE
  5
1E1
330
1DC
100
AcDbEntity
  8
A-DETL-GENF
100
AcDbLine
 10
-3.735354592010385
 20
0.0
 30
0.0
 11
-69.06467357379892
 21
0.0
 31
0.0
  0
ENDBLK
  5
1E3
330
1DC
100
AcDbEntity
  8
0
100
AcDbBlockEnd
  0
BLOCK
  5
277
330
1E5
100
AcDbEntity
  8
0
100
AcDbBlockBegin
  2
FP Fixing Coach Screw side - M12-215523-W-TRSIL-20-H - Deck Balustrade Fixing Detail
 70
     0
 10
0.0
 20
0.0
 30
0.0
  3
FP Fixing Coach Screw side - M12-215523-W-TRSIL-20-H - Deck Balustrade Fixing Detail
  1

  0
LINE
  5
1E6
330
1E5
100
AcDbEntity
  8
A-DETL-GENF
100
AcDbLine
 10
6.000000000000078
 20
-104.1387645681305
 30
0.0
 11
6.000000000000078
 21
-0.0000000000000338
 31
0.0
  0
LINE
  5
1E7
330
1E5
100
AcDbEntity
  8
A-DETL-GENF
100
AcDbLine
 10
-5.999999999999917
 20
-104.1387645681305
 30
0.0
 11
-5.999999999999917
 21
-0.0000000000000338
 31
0.0
  0
LINE
  5
1E8
330
1E5
100
AcDbEntity
  8
A-DETL-GENF
100
AcDbLine
 10
10.90000000000008
 20
-0.0000000000000338
 30
0.0
 11
-10.69999999999971
 21
-0.0000000000000338
 31
0.0
  0
LINE
  5
1E9
330
1E5
100
AcDbEntity
  8
A-DETL-GENF
100
AcDbLine
 10
10.8
 20
-0.0000000000000338
 30
0.0
 11
-10.8
 21
-0.0000000000000338
 31
0.0
  0
LINE
  5
1EA
330
1E5
100
AcDbEntity
  8
A-DETL-GENF
100
AcDbLine
 10
4.199999999999999
 20
-0.0000000000000338
 30
0.0
 11
4.199999999999999
 21
8.400000000000002
 31
0.0
  0
LINE
  5
1EB
330
1E5
100
AcDbEntity
  8
A-DETL-GENF
100
AcDbLine
 10
-4.199999999999999
 20
-0.0000000000000338
 30
0.0
 11
-4.199999999999999
 21
8.400000000000002
 31
0.0
  0
LINE
  5
1EC
330
1E5
100
AcDbEntity
  8
A-DETL-GENF
100
AcDbLine
 10
10.8
 20
-0.0000000000000338
 30
0.0
 11
10.8
 21
8.400000000000002
 31
0.0
  0
LINE
  5
1ED
330
1E5
100
AcDbEntity
  8
A-DETL-GENF
100
AcDbLine
 10
-10.8
 20
-0.0000000000000338
 30
0.0
 11
-10.8
 21
8.400000000000002
 31
0.0
  0
LINE
  5
1EE
330
1E5
100
AcDbEntity
  8
A-DETL-GENF
100
AcDbLine
 10
10.8
 20
8.400000000000002
 30
0.0
 11
-10.8
 21
8.400000000000002
 31
0.0
  0
LINE
  5
1EF
330
1E5
100
AcDbEntity
  8
A-DETL-GENF
100
AcDbLine
 10
-5.107818696054845
 20
-192.9593371790966
 30
0.0
 11
-2.57133249366446
 21
-193.8804528124146
 31
0.0
1001
REVIT
1002
{
1070
     3
1000
15798
1002
}
  0
LINE
  5
1F0
330
1E5
100
AcDbEntity
  8
A-DETL-GENF
100
AcDbLine
 10
-2.571332493664485
 20
-193.8804528124146
 30
0.0
 11
0.0000000000012751
 21
-201.2724428059086
 31
0.0
1001
REVIT
1002
{
1070
     3
1000
15798
1002
}
  0
LINE
  5
1F1
330
1E5
100
AcDbEntity
  8
A-DETL-GENF
100
AcDbLine
 10
0.0000000000012767
 20
-201.2724428059086
 30
0.0
 11
1.194066055042464
 21
-197.2093643958606
 31
0.0
1001
REVIT
1002
{
1070
     3
1000
15798
1002
}
  0
LINE
  5
1F2
330
1E5
100
AcDbEntity
  8
A-DETL-GENF
100
AcDbLine
 10
1.194066055042464
 20
-197.2093643958606
 30
0.0
 11
4.053937420343876
 21
-195.8757844768798
 31
0.0
1001
REVIT
1002
{
1070
     3
1000
15798
1002
}
  0
LINE
  5
1F3
330
1E5
100
AcDbEntity
  8
A-DETL-GENF
100
AcDbLine
 10
4.053937420343959
 20
-195.8757844768797
 30
0.0
 11
2.147157759326907
 21
-194.6610318609266
 31
0.0
1001
REVIT
1002
{
1070
     3
1000
15798
1002
}
  0
LINE
  5
1F4
330
1E5
100
AcDbEntity
  8
A-DETL-GENF
100
AcDbLine
 10
2.147157759326902
 20
-194.6610318609266
 30
0.0
 11
3.288004409238335
 21
-191.1481991428814
 31
0.0
1001
REVIT
1002
{
1070
     3
1000
15798
1002
}
  0
LINE
  5
1F5
330
1E5
100
AcDbEntity
  8
A-DETL-GENF
100
AcDbLine
 10
4.053937420343844
 20
-195.8757844768798
 30
0.0
 11
-0.7127136059748533
 21
-195.9946117799075
 31
0.0
1001
REVIT
1002
{
1070
     3
1000
15798
1002
}
  0
LINE
  5
1F6
330
1E5
100
AcDbEntity
  8
A-DETL-GENF
100
AcDbLine
 10
-0.7127136059745212
 20
-195.9946117799075
 30
0.0
 11
1.194066055042474
 21
-197.2093643958606
 31
0.0
1001
REVIT
1002
{
1070
     3
1000
15798
1002
}
  0
LINE
  5
1F7
330
1E5
100
AcDbEntity
  8
A-DETL-GENF
100
AcDbLine
 10
2.147157759326829
 20
-194.6610318609265
 30
0.0
 11
-0.7127136059748553
 21
-195.9946117799075
 31
0.0
1001
REVIT
1002
{
1070
     3
1000
15798
1002
}
  0
LINE
  5
1F8
330
1E5
100
AcDbEntity
  8
A-DETL-GENF
100
AcDbLine
 10
5.999999999999894
 20
-184.7988290673153
 30
0.0
 11
-4.093220338982955
 21
-189.5053750068245
 31
0.0
1001
REVIT
1002
{
1070
     3
1000
15798
1002
}
  0
LINE
  5
1F9
330
1E5
100
AcDbEntity
  8
A-DETL-GENF
100
AcDbLine
 10
-4.093220338983011
 20
-189.5053750068246
 30
0.0
 11
-6.000000000000195
 21
-188.2906223908806
 31
0.0
1001
REVIT
1002
{
1070
     3
1000
15798
1002
}
  0
LINE
  5
1FA
330
1E5
100
AcDbEntity
  8
A-DETL-GENF
100
AcDbLine
 10
-6.000000000000103
 20
-183.205876628169
 30
0.0
 11
-4.093220338982971
 21
-184.420629244113
 31
0.0
1001
REVIT
1002
{
1070
     3
1000
15798
1002
}
  0
LINE
  5
1FB
330
1E5
100
AcDbEntity
  8
A-DETL-GENF
100
AcDbLine
 10
-4.093220338982964
 20
-184.420629244113
 30
0.0
 11
-4.093220338982963
 21
-187.4014764325331
 31
0.0
1001
REVIT
1002
{
1070
     3
1000
15798
1002
}
  0
LINE
  5
1FC
330
1E5
100
AcDbEntity
  8
A-DETL-GENF
100
AcDbLine
 10
4.093220338982775
 20
-180.6032292629495
 30
0.0
 11
4.093220338982777
 21
-183.5840764513621
 31
0.0
1001
REVIT
1002
{
1070
     3
1000
15798
1002
}
  0
LINE
  5
1FD
330
1E5
100
AcDbEntity
  8
A-DETL-GENF
100
AcDbLine
 10
4.093220338982683
 20
-183.5840764513621
 30
0.0
 11
5.999999999999893
 21
-184.7988290673153
 31
0.0
1001
REVIT
1002
{
1070
     3
1000
15798
1002
}
  0
LINE
  5
1FE
330
1E5
100
AcDbEntity
  8
A-DETL-GENF
100
AcDbLine
 10
6.000000000000242
 20
-184.7988290673152
 30
0.0
 11
-6.00000000000018
 21
-188.2906223908806
 31
0.0
1001
REVIT
1002
{
1070
     3
1000
15798
1002
}
  0
LINE
  5
1FF
330
1E5
100
AcDbEntity
  8
A-DETL-GENF
100
AcDbLine
 10
-6.000000000000207
 20
-188.2906223908806
 30
0.0
 11
4.093220338982779
 21
-183.5840764513621
 31
0.0
1001
REVIT
1002
{
1070
     3
1000
15798
1002
}
  0
LINE
  5
200
330
1E5
100
AcDbEntity
  8
A-DETL-GENF
100
AcDbLine
 10
4.093220338982775
 20
-185.687975025661
 30
0.0
 11
4.093220338982777
 21
-188.6688222140737
 31
0.0
1001
REVIT
1002
{
1070
     3
1000
15798
1002
}
  0
LINE
  5
201
330
1E5
100
AcDbEntity
  8
A-DETL-GENF
100
AcDbLine
 10
4.093220338982779
 20
-188.6688222140739
 30
0.0
 11
5.99999999999985
 21
-189.8835748300269
 31
0.0
1001
REVIT
1002
{
1070
     3
1000
15798
1002
}
  0
LINE
  5
202
330
1E5
100
AcDbEntity
  8
A-DETL-GENF
100
AcDbLine
 10
5.999999999999864
 20
-189.8835748300269
 30
0.0
 11
-5.107818696054803
 21
-192.9593371790966
 31
0.0
1001
REVIT
1002
{
1070
     3
1000
15798
1002
}
  0
LINE
  5
203
330
1E5
100
AcDbEntity
  8
A-DETL-GENF
100
AcDbLine
 10
-5.107818696054896
 20
-192.9593371790966
 30
0.0
 11
4.093220338982777
 21
-188.6688222140737
 31
0.0
1001
REVIT
1002
{
1070
     3
1000
15798
1002
}
  0
LINE
  5
204
330
1E5
100
AcDbEntity
  8
A-DETL-GENF
100
AcDbLine
 10
6.000000000000008
 20
-174.6293375418921
 30
0.0
 11
-4.093220338982962
 21
-179.3358834814013
 31
0.0
1001
REVIT
1002
{
1070
     3
1000
15798
1002
}
  0
LINE
  5
205
330
1E5
100
AcDbEntity
  8
A-DETL-GENF
100
AcDbLine
 10
-4.093220338982964
 20
-179.3358834814013
 30
0.0
 11
-4.093220338982963
 21
-182.3167306698215
 31
0.0
1001
REVIT
1002
{
1070
     3
1000
15798
1002
}
  0
LINE
  5
206
330
1E5
100
AcDbEntity
  8
A-DETL-GENF
100
AcDbLine
 10
-6.000000000000135
 20
-173.0363851027458
 30
0.0
 11
-4.093220338982959
 21
-174.2511377186897
 31
0.0
1001
REVIT
1002
{
1070
     3
1000
15798
1002
}
  0
LINE
  5
207
330
1E5
100
AcDbEntity
  8
A-DETL-GENF
100
AcDbLine
 10
-4.093220338982964
 20
-174.2511377186897
 30
0.0
 11
-4.093220338982963
 21
-177.2319849071099
 31
0.0
1001
REVIT
1002
{
1070
     3
1000
15798
1002
}
  0
LINE
  5
208
330
1E5
100
AcDbEntity
  8
A-DETL-GENF
100
AcDbLine
 10
4.093220338982775
 20
-175.5184835002378
 30
0.0
 11
4.093220338982777
 21
-178.4993306886506
 31
0.0
1001
REVIT
1002
{
1070
     3
1000
15798
1002
}
  0
LINE
  5
209
330
1E5
100
AcDbEntity
  8
A-DETL-GENF
100
AcDbLine
 10
4.093220338982816
 20
-178.4993306886506
 30
0.0
 11
6.000000000000034
 21
-179.7140833046038
 31
0.0
1001
REVIT
1002
{
1070
     3
1000
15798
1002
}
  0
LINE
  5
20A
330
1E5
100
AcDbEntity
  8
A-DETL-GENF
100
AcDbLine
 10
6.0
 20
-179.7140833046038
 30
0.0
 11
-4.09322033898296
 21
-184.420629244113
 31
0.0
1001
REVIT
1002
{
1070
     3
1000
15798
1002
}
  0
LINE
  5
20B
330
1E5
100
AcDbEntity
  8
A-DETL-GENF
100
AcDbLine
 10
4.093220338982775
 20
-170.4337377375261
 30
0.0
 11
4.093220338982777
 21
-173.4145849259388
 31
0.0
1001
REVIT
1002
{
1070
     3
1000
15798
1002
}
  0
LINE
  5
20C
330
1E5
100
AcDbEntity
  8
A-DETL-GENF
100
AcDbLine
 10
4.093220338982741
 20
-173.4145849259388
 30
0.0
 11
6.0
 21
-174.6293375418921
 31
0.0
1001
REVIT
1002
{
1070
     3
1000
15798
1002
}
  0
LINE
  5
20D
330
1E5
100
AcDbEntity
  8
A-DETL-GENF
100
AcDbLine
 10
6.000000000000535
 20
-174.6293375418918
 30
0.0
 11
-6.000000000000159
 21
-178.1211308654574
 31
0.0
1001
REVIT
1002
{
1070
     3
1000
15798
1002
}
  0
LINE
  5
20E
330
1E5
100
AcDbEntity
  8
A-DETL-GENF
100
AcDbLine
 10
-6.000000000000175
 20
-178.1211308654574
 30
0.0
 11
4.093220338982785
 21
-173.4145849259388
 31
0.0
1001
REVIT
1002
{
1070
     3
1000
15798
1002
}
  0
LINE
  5
20F
330
1E5
100
AcDbEntity
  8
A-DETL-GENF
100
AcDbLine
 10
5.999999999999955
 20
-159.3751002537572
 30
0.0
 11
-4.093220338982962
 21
-164.0816461932664
 31
0.0
1001
REVIT
1002
{
1070
     3
1000
15798
1002
}
  0
LINE
  5
210
330
1E5
100
AcDbEntity
  8
A-DETL-GENF
100
AcDbLine
 10
-4.093220338982964
 20
-164.0816461932664
 30
0.0
 11
-4.093220338982963
 21
-167.0624933816867
 31
0.0
1001
REVIT
1002
{
1070
     3
1000
15798
1002
}
  0
LINE
  5
211
330
1E5
100
AcDbEntity
  8
A-DETL-GENF
100
AcDbLine
 10
4.093220338982775
 20
-160.2642462121029
 30
0.0
 11
4.093220338982777
 21
-163.2450934005156
 31
0.0
1001
REVIT
1002
{
1070
     3
1000
15798
1002
}
  0
LINE
  5
212
330
1E5
100
AcDbEntity
  8
A-DETL-GENF
100
AcDbLine
 10
4.093220338982747
 20
-163.2450934005156
 30
0.0
 11
5.99999999999994
 21
-164.4598460164688
 31
0.0
1001
REVIT
1002
{
1070
     3
1000
15798
1002
}
  0
LINE
  5
213
330
1E5
100
AcDbEntity
  8
A-DETL-GENF
100
AcDbLine
 10
5.99999999999993
 20
-164.4598460164688
 30
0.0
 11
-4.093220338982958
 21
-169.166391955978
 31
0.0
1001
REVIT
1002
{
1070
     3
1000
15798
1002
}
  0
LINE
  5
214
330
1E5
100
AcDbEntity
  8
A-DETL-GENF
100
AcDbLine
 10
-4.093220338982964
 20
-169.166391955978
 30
0.0
 11
-4.093220338982963
 21
-172.1472391443983
 31
0.0
1001
REVIT
1002
{
1070
     3
1000
15798
1002
}
  0
LINE
  5
215
330
1E5
100
AcDbEntity
  8
A-DETL-GENF
100
AcDbLine
 10
4.093220338982775
 20
-165.3489919748145
 30
0.0
 11
4.093220338982777
 21
-168.3298391632272
 31
0.0
1001
REVIT
1002
{
1070
     3
1000
15798
1002
}
  0
LINE
  5
216
330
1E5
100
AcDbEntity
  8
A-DETL-GENF
100
AcDbLine
 10
4.093220338982686
 20
-168.3298391632273
 30
0.0
 11
5.999999999999876
 21
-169.5445917791805
 31
0.0
1001
REVIT
1002
{
1070
     3
1000
15798
1002
}
  0
LINE
  5
217
330
1E5
100
AcDbEntity
  8
A-DETL-GENF
100
AcDbLine
 10
5.999999999999872
 20
-169.5445917791805
 30
0.0
 11
-4.09322033898298
 21
-174.2511377186897
 31
0.0
1001
REVIT
1002
{
1070
     3
1000
15798
1002
}
  0
LINE
  5
218
330
1E5
100
AcDbEntity
  8
A-DETL-GENF
100
AcDbLine
 10
6.000000000000048
 20
-154.2903544910454
 30
0.0
 11
-4.09322033898301
 21
-158.9969004305548
 31
0.0
1001
REVIT
1002
{
1070
     3
1000
15798
1002
}
  0
LINE
  5
219
330
1E5
100
AcDbEntity
  8
A-DETL-GENF
100
AcDbLine
 10
-4.093220338982964
 20
-158.9969004305547
 30
0.0
 11
-4.093220338982963
 21
-161.9777476189751
 31
0.0
1001
REVIT
1002
{
1070
     3
1000
15798
1002
}
  0
LINE
  5
21A
330
1E5
100
AcDbEntity
  8
A-DETL-GENF
100
AcDbLine
 10
-4.09322033898296
 20
-153.9121546678432
 30
0.0
 11
-6.000000000000105
 21
-152.6974020518992
 31
0.0
1001
REVIT
1002
{
1070
     3
1000
15798
1002
}
  0
LINE
  5
21B
330
1E5
100
AcDbEntity
  8
A-DETL-GENF
100
AcDbLine
 10
-6.000000000000123
 20
-152.6974020518992
 30
0.0
 11
6.000000000000008
 21
-149.2056087283339
 31
0.0
1001
REVIT
1002
{
1070
     3
1000
15798
1002
}
  0
LINE
  5
21C
330
1E5
100
AcDbEntity
  8
A-DETL-GENF
100
AcDbLine
 10
6.000000000000148
 20
-149.2056087283338
 30
0.0
 11
-4.093220338982982
 21
-153.9121546678431
 31
0.0
1001
REVIT
1002
{
1070
     3
1000
15798
1002
}
  0
LINE
  5
21D
330
1E5
100
AcDbEntity
  8
A-DETL-GENF
100
AcDbLine
 10
-4.093220338982964
 20
-153.9121546678432
 30
0.0
 11
-4.093220338982963
 21
-156.8930018562634
 31
0.0
1001
REVIT
1002
{
1070
     3
1000
15798
1002
}
  0
LINE
  5
21E
330
1E5
100
AcDbEntity
  8
A-DETL-GENF
100
AcDbLine
 10
4.093220338982775
 20
-155.1795004493911
 30
0.0
 11
4.093220338982777
 21
-158.160347637804
 31
0.0
1001
REVIT
1002
{
1070
     3
1000
15798
1002
}
  0
LINE
  5
21F
330
1E5
100
AcDbEntity
  8
A-DETL-GENF
100
AcDbLine
 10
4.093220338982779
 20
-158.160347637804
 30
0.0
 11
5.999999999999949
 21
-159.3751002537572
 31
0.0
1001
REVIT
1002
{
1070
     3
1000
15798
1002
}
  0
LINE
  5
220
330
1E5
100
AcDbEntity
  8
A-DETL-GENF
100
AcDbLine
 10
6.000000000000222
 20
-159.3751002537571
 30
0.0
 11
-6.000000000000095
 21
-162.8668935773225
 31
0.0
1001
REVIT
1002
{
1070
     3
1000
15798
1002
}
  0
LINE
  5
221
330
1E5
100
AcDbEntity
  8
A-DETL-GENF
100
AcDbLine
 10
-6.000000000000015
 20
-162.8668935773225
 30
0.0
 11
4.093220338982805
 21
-158.160347637804
 31
0.0
1001
REVIT
1002
{
1070
     3
1000
15798
1002
}
  0
LINE
  5
222
330
1E5
100
AcDbEntity
  8
A-DETL-GENF
100
AcDbLine
 10
4.093220338982775
 20
-150.0947546866796
 30
0.0
 11
4.093220338982777
 21
-153.0756018750924
 31
0.0
1001
REVIT
1002
{
1070
     3
1000
15798
1002
}
  0
LINE
  5
223
330
1E5
100
AcDbEntity
  8
A-DETL-GENF
100
AcDbLine
 10
4.093220338982791
 20
-153.0756018750924
 30
0.0
 11
5.999999999999864
 21
-154.2903544910455
 31
0.0
1001
REVIT
1002
{
1070
     3
1000
15798
1002
}
  0
LINE
  5
224
330
1E5
100
AcDbEntity
  8
A-DETL-GENF
100
AcDbLine
 10
6.000000000000028
 20
-154.2903544910454
 30
0.0
 11
-5.99999999999988
 21
-157.7821478146107
 31
0.0
1001
REVIT
1002
{
1070
     3
1000
15798
1002
}
  0
LINE
  5
225
330
1E5
100
AcDbEntity
  8
A-DETL-GENF
100
AcDbLine
 10
-5.999999999999725
 20
-157.7821478146107
 30
0.0
 11
4.093220338982774
 21
-153.0756018750924
 31
0.0
1001
REVIT
1002
{
1070
     3
1000
15798
1002
}
  0
LINE
  5
226
330
1E5
100
AcDbEntity
  8
A-DETL-GENF
100
AcDbLine
 10
-6.000000000000167
 20
-157.7821478146108
 30
0.0
 11
-4.093220338983033
 21
-158.9969004305548
 31
0.0
1001
REVIT
1002
{
1070
     3
1000
15798
1002
}
  0
LINE
  5
227
330
1E5
100
AcDbEntity
  8
A-DETL-GENF
100
AcDbLine
 10
5.999999999999829
 20
-169.5445917791805
 30
0.0
 11
-6.00000000000013
 21
-173.0363851027458
 31
0.0
1001
REVIT
1002
{
1070
     3
1000
15798
1002
}
  0
LINE
  5
228
330
1E5
100
AcDbEntity
  8
A-DETL-GENF
100
AcDbLine
 10
-6.000000000000165
 20
-173.0363851027457
 30
0.0
 11
4.093220338982779
 21
-168.3298391632272
 31
0.0
1001
REVIT
1002
{
1070
     3
1000
15798
1002
}
  0
LINE
  5
229
330
1E5
100
AcDbEntity
  8
A-DETL-GENF
100
AcDbLine
 10
5.999999999999911
 20
-164.4598460164687
 30
0.0
 11
-6.000000000000297
 21
-167.9516393400342
 31
0.0
1001
REVIT
1002
{
1070
     3
1000
15798
1002
}
  0
LINE
  5
22A
330
1E5
100
AcDbEntity
  8
A-DETL-GENF
100
AcDbLine
 10
-6.000000000000262
 20
-167.9516393400342
 30
0.0
 11
4.093220338982785
 21
-163.2450934005156
 31
0.0
1001
REVIT
1002
{
1070
     3
1000
15798
1002
}
  0
LINE
  5
22B
330
1E5
100
AcDbEntity
  8
A-DETL-GENF
100
AcDbLine
 10
6.000000000000004
 20
-179.7140833046038
 30
0.0
 11
-6.000000000000097
 21
-183.205876628169
 31
0.0
1001
REVIT
1002
{
1070
     3
1000
15798
1002
}
  0
LINE
  5
22C
330
1E5
100
AcDbEntity
  8
A-DETL-GENF
100
AcDbLine
 10
-6.00000000000018
 20
-183.205876628169
 30
0.0
 11
4.093220338982774
 21
-178.4993306886506
 31
0.0
1001
REVIT
1002
{
1070
     3
1000
15798
1002
}
  0
LINE
  5
22D
330
1E5
100
AcDbEntity
  8
A-DETL-GENF
100
AcDbLine
 10
-6.000000000000154
 20
-167.9516393400342
 30
0.0
 11
-4.093220338983033
 21
-169.1663919559781
 31
0.0
1001
REVIT
1002
{
1070
     3
1000
15798
1002
}
  0
LINE
  5
22E
330
1E5
100
AcDbEntity
  8
A-DETL-GENF
100
AcDbLine
 10
-6.000000000000132
 20
-162.8668935773225
 30
0.0
 11
-4.093220338982991
 21
-164.0816461932664
 31
0.0
1001
REVIT
1002
{
1070
     3
1000
15798
1002
}
  0
LINE
  5
22F
330
1E5
100
AcDbEntity
  8
A-DETL-GENF
100
AcDbLine
 10
-6.000000000000145
 20
-178.1211308654574
 30
0.0
 11
-4.093220338982927
 21
-179.3358834814013
 31
0.0
1001
REVIT
1002
{
1070
     3
1000
15798
1002
}
  0
LINE
  5
230
330
1E5
100
AcDbEntity
  8
A-DETL-GENF
100
AcDbLine
 10
5.999999999999869
 20
-144.1208629656224
 30
0.0
 11
-4.093220338982962
 21
-148.8274089051316
 31
0.0
1001
REVIT
1002
{
1070
     3
1000
15798
1002
}
  0
LINE
  5
231
330
1E5
100
AcDbEntity
  8
A-DETL-GENF
100
AcDbLine
 10
-4.093220338982964
 20
-148.8274089051316
 30
0.0
 11
-6.000000000000099
 21
-147.6126562891876
 31
0.0
1001
REVIT
1002
{
1070
     3
1000
15798
1002
}
  0
LINE
  5
232
330
1E5
100
AcDbEntity
  8
A-DETL-GENF
100
AcDbLine
 10
6.000000000000165
 20
-139.0361172029105
 30
0.0
 11
-4.093220338982962
 21
-143.7426631424199
 31
0.0
1001
REVIT
1002
{
1070
     3
1000
15798
1002
}
  0
LINE
  5
233
330
1E5
100
AcDbEntity
  8
A-DETL-GENF
100
AcDbLine
 10
-4.093220338982964
 20
-143.7426631424199
 30
0.0
 11
-4.093220338982963
 21
-146.7235103308402
 31
0.0
1001
REVIT
1002
{
1070
     3
1000
15798
1002
}
  0
LINE
  5
234
330
1E5
100
AcDbEntity
  8
A-DETL-GENF
100
AcDbLine
 10
-4.093220338982964
 20
-138.6579173797083
 30
0.0
 11
-4.093220338982963
 21
-141.6387645681285
 31
0.0
1001
REVIT
1002
{
1070
     3
1000
15798
1002
}
  0
LINE
  5
235
330
1E5
100
AcDbEntity
  8
A-DETL-GENF
100
AcDbLine
 10
4.093220338982775
 20
-139.9252631612563
 30
0.0
 11
4.093220338982777
 21
-142.9061103496692
 31
0.0
1001
REVIT
1002
{
1070
     3
1000
15798
1002
}
  0
LINE
  5
236
330
1E5
100
AcDbEntity
  8
A-DETL-GENF
100
AcDbLine
 10
4.093220338982751
 20
-142.9061103496692
 30
0.0
 11
5.999999999999866
 21
-144.1208629656224
 31
0.0
1001
REVIT
1002
{
1070
     3
1000
15798
1002
}
  0
LINE
  5
237
330
1E5
100
AcDbEntity
  8
A-DETL-GENF
100
AcDbLine
 10
6.000000000000051
 20
-144.1208629656223
 30
0.0
 11
-6.000000000000096
 21
-147.6126562891876
 31
0.0
1001
REVIT
1002
{
1070
     3
1000
15798
1002
}
  0
LINE
  5
238
330
1E5
100
AcDbEntity
  8
A-DETL-GENF
100
AcDbLine
 10
-6.000000000000082
 20
-147.6126562891876
 30
0.0
 11
4.093220338982774
 21
-142.9061103496692
 31
0.0
1001
REVIT
1002
{
1070
     3
1000
15798
1002
}
  0
LINE
  5
239
330
1E5
100
AcDbEntity
  8
A-DETL-GENF
100
AcDbLine
 10
4.093220338982775
 20
-145.010008923968
 30
0.0
 11
4.093220338982777
 21
-147.9908561123807
 31
0.0
1001
REVIT
1002
{
1070
     3
1000
15798
1002
}
  0
LINE
  5
23A
330
1E5
100
AcDbEntity
  8
A-DETL-GENF
100
AcDbLine
 10
4.09322033898278
 20
-147.9908561123807
 30
0.0
 11
-6.000000000000131
 21
-152.6974020518992
 31
0.0
1001
REVIT
1002
{
1070
     3
1000
15798
1002
}
  0
LINE
  5
23B
330
1E5
100
AcDbEntity
  8
A-DETL-GENF
100
AcDbLine
 10
5.999999999999773
 20
-128.8666256774874
 30
0.0
 11
-4.093220338982962
 21
-133.5731716169965
 31
0.0
1001
REVIT
1002
{
1070
     3
1000
15798
1002
}
  0
LINE
  5
23C
330
1E5
100
AcDbEntity
  8
A-DETL-GENF
100
AcDbLine
 10
-4.093220338982964
 20
-133.5731716169965
 30
0.0
 11
-4.093220338982963
 21
-136.5540188054169
 31
0.0
1001
REVIT
1002
{
1070
     3
1000
15798
1002
}
  0
LINE
  5
23D
330
1E5
100
AcDbEntity
  8
A-DETL-GENF
100
AcDbLine
 10
-6.000000000000143
 20
-127.2736732383412
 30
0.0
 11
-4.093220338982967
 21
-128.4884258542851
 31
0.0
1001
REVIT
1002
{
1070
     3
1000
15798
1002
}
  0
LINE
  5
23E
330
1E5
100
AcDbEntity
  8
A-DETL-GENF
100
AcDbLine
 10
-4.093220338982964
 20
-128.4884258542851
 30
0.0
 11
-4.093220338982963
 21
-131.4692730427053
 31
0.0
1001
REVIT
1002
{
1070
     3
1000
15798
1002
}
  0
LINE
  5
23F
330
1E5
100
AcDbEntity
  8
A-DETL-GENF
100
AcDbLine
 10
4.093220338982775
 20
-134.8405173985447
 30
0.0
 11
4.093220338982777
 21
-137.8213645869575
 31
0.0
1001
REVIT
1002
{
1070
     3
1000
15798
1002
}
  0
LINE
  5
240
330
1E5
100
AcDbEntity
  8
A-DETL-GENF
100
AcDbLine
 10
4.093220338982722
 20
-137.8213645869575
 30
0.0
 11
5.999999999999833
 21
-139.0361172029106
 31
0.0
1001
REVIT
1002
{
1070
     3
1000
15798
1002
}
  0
LINE
  5
241
330
1E5
100
AcDbEntity
  8
A-DETL-GENF
100
AcDbLine
 10
6.00000000000018
 20
-139.0361172029105
 30
0.0
 11
-6.000000000000144
 21
-142.527910526476
 31
0.0
1001
REVIT
1002
{
1070
     3
1000
15798
1002
}
  0
LINE
  5
242
330
1E5
100
AcDbEntity
  8
A-DETL-GENF
100
AcDbLine
 10
-6.000000000000143
 20
-142.527910526476
 30
0.0
 11
4.093220338982779
 21
-137.8213645869575
 31
0.0
1001
REVIT
1002
{
1070
     3
1000
15798
1002
}
  0
LINE
  5
243
330
1E5
100
AcDbEntity
  8
A-DETL-GENF
100
AcDbLine
 10
4.093220338982775
 20
-129.755771635833
 30
0.0
 11
4.093220338982777
 21
-132.7366188242459
 31
0.0
1001
REVIT
1002
{
1070
     3
1000
15798
1002
}
  0
LINE
  5
244
330
1E5
100
AcDbEntity
  8
A-DETL-GENF
100
AcDbLine
 10
4.093220338982752
 20
-132.7366188242459
 30
0.0
 11
5.99999999999984
 21
-133.951371440199
 31
0.0
1001
REVIT
1002
{
1070
     3
1000
15798
1002
}
  0
LINE
  5
245
330
1E5
100
AcDbEntity
  8
A-DETL-GENF
100
AcDbLine
 10
5.999999999999869
 20
-133.9513714401991
 30
0.0
 11
-4.093220338982962
 21
-138.6579173797082
 31
0.0
1001
REVIT
1002
{
1070
     3
1000
15798
1002
}
  0
LINE
  5
246
330
1E5
100
AcDbEntity
  8
A-DETL-GENF
100
AcDbLine
 10
-4.093220338982964
 20
-138.6579173797083
 30
0.0
 11
-6.000000000000135
 21
-137.4431647637643
 31
0.0
1001
REVIT
1002
{
1070
     3
1000
15798
1002
}
  0
LINE
  5
247
330
1E5
100
AcDbEntity
  8
A-DETL-GENF
100
AcDbLine
 10
4.093220338982774
 20
-117.482381536111
 30
0.0
 11
-6.000000000000088
 21
-122.1889274756294
 31
0.0
1001
REVIT
1002
{
1070
     3
1000
15798
1002
}
  0
LINE
  5
248
330
1E5
100
AcDbEntity
  8
A-DETL-GENF
100
AcDbLine
 10
-6.000000000000078
 20
-122.1889274756294
 30
0.0
 11
6.000000000000022
 21
-118.6971341520641
 31
0.0
1001
REVIT
1002
{
1070
     3
1000
15798
1002
}
  0
LINE
  5
249
330
1E5
100
AcDbEntity
  8
A-DETL-GENF
100
AcDbLine
 10
6.000000000000055
 20
-118.697134152064
 30
0.0
 11
-4.093220338982965
 21
-123.4036800915734
 31
0.0
1001
REVIT
1002
{
1070
     3
1000
15798
1002
}
  0
LINE
  5
24A
330
1E5
100
AcDbEntity
  8
A-DETL-GENF
100
AcDbLine
 10
-4.093220338982964
 20
-123.4036800915734
 30
0.0
 11
-4.093220338982963
 21
-126.3845272799937
 31
0.0
1001
REVIT
1002
{
1070
     3
1000
15798
1002
}
  0
LINE
  5
24B
330
1E5
100
AcDbEntity
  8
A-DETL-GENF
100
AcDbLine
 10
-4.093220338982964
 20
-118.3189343288617
 30
0.0
 11
-4.093220338982963
 21
-121.299781517282
 31
0.0
1001
REVIT
1002
{
1070
     3
1000
15798
1002
}
  0
LINE
  5
24C
330
1E5
100
AcDbEntity
  8
A-DETL-GENF
100
AcDbLine
 10
4.093220338982775
 20
-119.5862801104098
 30
0.0
 11
4.093220338982777
 21
-122.5671272988227
 31
0.0
1001
REVIT
1002
{
1070
     3
1000
15798
1002
}
  0
LINE
  5
24D
330
1E5
100
AcDbEntity
  8
A-DETL-GENF
100
AcDbLine
 10
4.093220338982779
 20
-122.5671272988227
 30
0.0
 11
5.999999999999892
 21
-123.7818799147758
 31
0.0
1001
REVIT
1002
{
1070
     3
1000
15798
1002
}
  0
LINE
  5
24E
330
1E5
100
AcDbEntity
  8
A-DETL-GENF
100
AcDbLine
 10
5.999999999999866
 20
-123.7818799147758
 30
0.0
 11
-4.093220338983054
 21
-128.488425854285
 31
0.0
1001
REVIT
1002
{
1070
     3
1000
15798
1002
}
  0
LINE
  5
24F
330
1E5
100
AcDbEntity
  8
A-DETL-GENF
100
AcDbLine
 10
4.093220338982775
 20
-124.6710258731214
 30
0.0
 11
4.093220338982777
 21
-127.6518730615342
 31
0.0
1001
REVIT
1002
{
1070
     3
1000
15798
1002
}
  0
LINE
  5
250
330
1E5
100
AcDbEntity
  8
A-DETL-GENF
100
AcDbLine
 10
4.093220338982779
 20
-127.6518730615342
 30
0.0
 11
5.999999999999888
 21
-128.8666256774874
 31
0.0
1001
REVIT
1002
{
1070
     3
1000
15798
1002
}
  0
LINE
  5
251
330
1E5
100
AcDbEntity
  8
A-DETL-GENF
100
AcDbLine
 10
5.999999999999816
 20
-128.8666256774874
 30
0.0
 11
-6.000000000000136
 21
-132.3584190010527
 31
0.0
1001
REVIT
1002
{
1070
     3
1000
15798
1002
}
  0
LINE
  5
252
330
1E5
100
AcDbEntity
  8
A-DETL-GENF
100
AcDbLine
 10
-6.000000000000029
 20
-132.3584190010527
 30
0.0
 11
4.093220338982781
 21
-127.6518730615342
 31
0.0
1001
REVIT
1002
{
1070
     3
1000
15798
1002
}
  0
LINE
  5
253
330
1E5
100
AcDbEntity
  8
A-DETL-GENF
100
AcDbLine
 10
-4.093220338982964
 20
-113.2341885661501
 30
0.0
 11
-4.093220338982963
 21
-116.2150357545705
 31
0.0
1001
REVIT
1002
{
1070
     3
1000
15798
1002
}
  0
LINE
  5
254
330
1E5
100
AcDbEntity
  8
A-DETL-GENF
100
AcDbLine
 10
4.093220338982775
 20
-114.5015343476982
 30
0.0
 11
4.093220338982777
 21
-117.482381536111
 31
0.0
1001
REVIT
1002
{
1070
     3
1000
15798
1002
}
  0
LINE
  5
255
330
1E5
100
AcDbEntity
  8
A-DETL-GENF
100
AcDbLine
 10
4.093220338982771
 20
-117.482381536111
 30
0.0
 11
5.999999999999875
 21
-118.6971341520641
 31
0.0
1001
REVIT
1002
{
1070
     3
1000
15798
1002
}
  0
LINE
  5
256
330
1E5
100
AcDbEntity
  8
A-DETL-GENF
100
AcDbLine
 10
4.093220338982775
 20
-109.4167885849866
 30
0.0
 11
4.093220338982777
 21
-112.3976357733994
 31
0.0
1001
REVIT
1002
{
1070
     3
1000
15798
1002
}
  0
LINE
  5
257
330
1E5
100
AcDbEntity
  8
A-DETL-GENF
100
AcDbLine
 10
4.093220338982779
 20
-112.3976357733994
 30
0.0
 11
5.999999999999866
 21
-113.6123883893525
 31
0.0
1001
REVIT
1002
{
1070
     3
1000
15798
1002
}
  0
LINE
  5
258
330
1E5
100
AcDbEntity
  8
A-DETL-GENF
100
AcDbLine
 10
5.999999999999869
 20
-113.6123883893525
 30
0.0
 11
-4.093220338982962
 21
-118.3189343288617
 31
0.0
1001
REVIT
1002
{
1070
     3
1000
15798
1002
}
  0
LINE
  5
259
330
1E5
100
AcDbEntity
  8
A-DETL-GENF
100
AcDbLine
 10
-4.093220338982968
 20
-118.3189343288618
 30
0.0
 11
-6.000000000000116
 21
-117.1041817129179
 31
0.0
1001
REVIT
1002
{
1070
     3
1000
15798
1002
}
  0
LINE
  5
25A
330
1E5
100
AcDbEntity
  8
A-DETL-GENF
100
AcDbLine
 10
5.999999999999841
 20
-133.951371440199
 30
0.0
 11
-6.000000000000164
 21
-137.4431647637643
 31
0.0
1001
REVIT
1002
{
1070
     3
1000
15798
1002
}
  0
LINE
  5
25B
330
1E5
100
AcDbEntity
  8
A-DETL-GENF
100
AcDbLine
 10
-6.00000000000015
 20
-137.4431647637643
 30
0.0
 11
4.093220338982774
 21
-132.7366188242459
 31
0.0
1001
REVIT
1002
{
1070
     3
1000
15798
1002
}
  0
LINE
  5
25C
330
1E5
100
AcDbEntity
  8
A-DETL-GENF
100
AcDbLine
 10
5.999999999999887
 20
-113.6123883893525
 30
0.0
 11
-6.000000000000126
 21
-117.1041817129179
 31
0.0
1001
REVIT
1002
{
1070
     3
1000
15798
1002
}
  0
LINE
  5
25D
330
1E5
100
AcDbEntity
  8
A-DETL-GENF
100
AcDbLine
 10
-6.000000000000113
 20
-117.1041817129179
 30
0.0
 11
4.093220338982781
 21
-112.3976357733994
 31
0.0
1001
REVIT
1002
{
1070
     3
1000
15798
1002
}
  0
LINE
  5
25E
330
1E5
100
AcDbEntity
  8
A-DETL-GENF
100
AcDbLine
 10
5.999999999999886
 20
-123.7818799147758
 30
0.0
 11
-6.00000000000016
 21
-127.2736732383412
 31
0.0
1001
REVIT
1002
{
1070
     3
1000
15798
1002
}
  0
LINE
  5
25F
330
1E5
100
AcDbEntity
  8
A-DETL-GENF
100
AcDbLine
 10
-6.000000000000143
 20
-127.2736732383412
 30
0.0
 11
4.093220338982781
 21
-122.5671272988227
 31
0.0
1001
REVIT
1002
{
1070
     3
1000
15798
1002
}
  0
LINE
  5
260
330
1E5
100
AcDbEntity
  8
A-DETL-GENF
100
AcDbLine
 10
-6.000000000000155
 20
-122.1889274756295
 30
0.0
 11
-4.093220338983022
 21
-123.4036800915734
 31
0.0
1001
REVIT
1002
{
1070
     3
1000
15798
1002
}
  0
LINE
  5
261
330
1E5
100
AcDbEntity
  8
A-DETL-GENF
100
AcDbLine
 10
-6.000000000000139
 20
-132.3584190010527
 30
0.0
 11
-4.093220338983046
 21
-133.5731716169966
 31
0.0
1001
REVIT
1002
{
1070
     3
1000
15798
1002
}
  0
LINE
  5
262
330
1E5
100
AcDbEntity
  8
A-DETL-GENF
100
AcDbLine
 10
-6.000000000000144
 20
-142.527910526476
 30
0.0
 11
-4.093220338982978
 21
-143.7426631424199
 31
0.0
1001
REVIT
1002
{
1070
     3
1000
15798
1002
}
  0
LINE
  5
263
330
1E5
100
AcDbEntity
  8
A-DETL-GENF
100
AcDbLine
 10
-4.093220338982964
 20
-148.8274089051316
 30
0.0
 11
-4.093220338982963
 21
-151.8082560935518
 31
0.0
1001
REVIT
1002
{
1070
     3
1000
15798
1002
}
  0
LINE
  5
264
330
1E5
100
AcDbEntity
  8
A-DETL-GENF
100
AcDbLine
 10
4.093220338982723
 20
-147.9908561123808
 30
0.0
 11
5.999999999999838
 21
-149.2056087283339
 31
0.0
1001
REVIT
1002
{
1070
     3
1000
15798
1002
}
  0
LINE
  5
265
330
1E5
100
AcDbEntity
  8
A-DETL-GENF
100
AcDbLine
 10
5.999999999999906
 20
-189.883574830027
 30
0.0
 11
-2.571332493664434
 21
-193.8804528124146
 31
0.0
1001
REVIT
1002
{
1070
     3
1000
15798
1002
}
  0
LINE
  5
266
330
1E5
100
AcDbEntity
  8
A-DETL-GENF
100
AcDbLine
 10
-3.201039035038391
 20
-192.0701912207501
 30
0.0
 11
-4.093220338982969
 21
-189.5053750068245
 31
0.0
1001
REVIT
1002
{
1070
     3
1000
15798
1002
}
  0
LINE
  5
267
330
1E5
100
AcDbEntity
  8
A-DETL-GENF
100
AcDbLine
 10
-4.093220338982957
 20
-189.5053750068245
 30
0.0
 11
-3.201039035038379
 21
-192.0701912207501
 31
0.0
1001
REVIT
1002
{
1070
     3
1000
15798
1002
}
  0
LINE
  5
268
330
1E5
100
AcDbEntity
  8
A-DETL-GENF
100
AcDbLine
 10
4.093220338982735
 20
-106.0455442291477
 30
0.0
 11
4.093220338982736
 21
-107.3128900106878
 31
0.0
1001
REVIT
1002
{
1070
     3
1000
15798
1002
}
  0
LINE
  5
269
330
1E5
100
AcDbEntity
  8
A-DETL-GENF
100
AcDbLine
 10
4.093220338982738
 20
-107.3128900106878
 30
0.0
 11
5.999999999999853
 21
-108.5276426266409
 31
0.0
1001
REVIT
1002
{
1070
     3
1000
15798
1002
}
  0
LINE
  5
26A
330
1E5
100
AcDbEntity
  8
A-DETL-GENF
100
AcDbLine
 10
5.999999999999859
 20
-108.5276426266409
 30
0.0
 11
-4.093220338983064
 21
-113.2341885661502
 31
0.0
1001
REVIT
1002
{
1070
     3
1000
15798
1002
}
  0
LINE
  5
26B
330
1E5
100
AcDbEntity
  8
A-DETL-GENF
100
AcDbLine
 10
-4.093220338983005
 20
-108.1494428034387
 30
0.0
 11
-4.093220338983003
 21
-111.1302899918588
 31
0.0
1001
REVIT
1002
{
1070
     3
1000
15798
1002
}
  0
LINE
  5
26C
330
1E5
100
AcDbEntity
  8
A-DETL-GENF
100
AcDbLine
 10
5.999999999999865
 20
-108.5276426266409
 30
0.0
 11
-6.000000000000187
 21
-112.0194359502062
 31
0.0
1001
REVIT
1002
{
1070
     3
1000
15798
1002
}
  0
LINE
  5
26D
330
1E5
100
AcDbEntity
  8
A-DETL-GENF
100
AcDbLine
 10
-6.000000000000159
 20
-112.0194359502062
 30
0.0
 11
4.093220338982733
 21
-107.3128900106878
 31
0.0
1001
REVIT
1002
{
1070
     3
1000
15798
1002
}
  0
LINE
  5
26E
330
1E5
100
AcDbEntity
  8
A-DETL-GENF
100
AcDbLine
 10
-6.000000000000172
 20
-112.0194359502062
 30
0.0
 11
-4.093220338983061
 21
-113.2341885661502
 31
0.0
1001
REVIT
1002
{
1070
     3
1000
15798
1002
}
  0
LINE
  5
26F
330
1E5
100
AcDbEntity
  8
A-DETL-GENF
100
AcDbLine
 10
-0.1543815840179281
 20
-106.3127321277596
 30
0.0
 11
-2.061161245035065
 21
-105.0979795118156
 31
0.0
1001
REVIT
1002
{
1070
     3
1000
15798
1002
}
  0
LINE
  5
270
330
1E5
100
AcDbEntity
  8
A-DETL-GENF
100
AcDbLine
 10
-2.06116124503507
 20
-105.0979795118156
 30
0.0
 11
-6.000000000000216
 21
-106.9346901874947
 31
0.0
1001
REVIT
1002
{
1070
     3
1000
15798
1002
}
  0
LINE
  5
271
330
1E5
100
AcDbEntity
  8
A-DETL-GENF
100
AcDbLine
 10
-6.000000000000199
 20
-106.9346901874947
 30
0.0
 11
-4.093220338983004
 21
-108.1494428034387
 31
0.0
1001
REVIT
1002
{
1070
     3
1000
15798
1002
}
  0
LINE
  5
272
330
1E5
100
AcDbEntity
  8
A-DETL-GENF
100
AcDbLine
 10
-4.093220338983005
 20
-108.1494428034386
 30
0.0
 11
-0.1543815840179394
 21
-106.3127321277595
 31
0.0
1001
REVIT
1002
{
1070
     3
1000
15798
1002
}
  0
LINE
  5
273
330
1E5
100
AcDbEntity
  8
A-DETL-GENF
100
AcDbLine
 10
-0.1543815840179531
 20
-106.3127321277595
 30
0.0
 11
-6.00000000000015
 21
-106.9346901874946
 31
0.0
1001
REVIT
1002
{
1070
     3
1000
15798
1002
}
  0
LINE
  5
274
330
1E5
100
AcDbEntity
  8
A-DETL-GENF
100
AcDbLine
 10
-4.093220338983002
 20
-106.0455442291476
 30
0.0
 11
-6.000000000000134
 21
-104.1387645681305
 31
0.0
1001
REVIT
1002
{
1070
     3
1000
15798
1002
}
  0
LINE
  5
275
330
1E5
100
AcDbEntity
  8
A-DETL-GENF
100
AcDbLine
 10
4.093220338982735
 20
-106.0455442291477
 30
0.0
 11
5.999999999999864
 21
-104.1387645681305
 31
0.0
1001
REVIT
1002
{
1070
     3
1000
15798
1002
}
  0
LINE
  5
276
330
1E5
100
AcDbEntity
  8
A-DETL-GENF
100
AcDbLine
 10
-6.000000000000135
 20
-104.1387645681305
 30
0.0
 11
5.999999999999864
 21
-104.1387645681305
 31
0.0
1001
REVIT
1002
{
1070
     3
1000
15798
1002
}
  0
ENDBLK
  5
278
330
1E5
100
AcDbEntity
  8
0
100
AcDbBlockEnd
  0
BLOCK
  5
2AE
330
27B
100
AcDbEntity
  8
0
100
AcDbBlockBegin
  2
Hex head timberfix screw - Hex head timberfix screw-99997-W-TRSIL-20-H - Deck Balustrade Fixing Detail
 70
     0
 10
0.0
 20
0.0
 30
0.0
  3
Hex head timberfix screw - Hex head timberfix screw-99997-W-TRSIL-20-H - Deck Balustrade Fixing Detail
  1

  0
HATCH
  5
280
330
27B
100
AcDbEntity
  8
A-DETL-GENF
100
AcDbHatch
 10
0.0
 20
0.0
 30
0.0
210
0.0
220
0.0
230
1.0
  2
SOLID
 70
     1
 71
     0
 91
        1
 92
        0
 93
        4
 72
     1
 10
5.469624999994793
 20
0.0000000000006768
 11
5.469624999994793
 21
2.500000000000785
 72
     1
 10
5.469624999994793
 20
2.500000000000785
 11
-5.469625000001019
 21
2.50000000000092
 72
     1
 10
-5.469625000001019
 20
2.50000000000092
 11
-5.469625000001019
 21
0.0000000000008122
 72
     1
 10
-5.469625000001019
 20
0.0000000000008122
 11
5.469624999994793
 21
0.0000000000006768
 97
        0
 75
     0
 76
     1
 98
        1
 10
0.0
 20
0.0
450
        0
451
        0
460
0.0
461
0.0
452
        0
462
0.0
453
        0
470

  0
ARC
  5
281
330
27B
100
AcDbEntity
  8
A-DETL-GENF
100
AcDbCircle
 10
0.0
 20
0.5603125000006949
 30
0.0
 40
7.57968749999999
100
AcDbArc
 50
95.67863346827278
 51
106.2602047082808
1001
REVIT
1002
{
1070
     3
1000
15798
1002
}
  0
ARC
  5
282
330
27B
100
AcDbEntity
  8
A-DETL-GENF
100
AcDbCircle
 10
3.183468750001337
 20
6.131382812501231
 30
0.0
 40
2.008617187499675
100
AcDbArc
 50
58.10920819821509
 51
121.8907918018718
1001
REVIT
1002
{
1070
     3
1000
15798
1002
}
  0
ARC
  5
283
330
27B
100
AcDbEntity
  8
A-DETL-GENF
100
AcDbCircle
 10
-3.183468750001341
 20
6.131382812500318
 30
0.0
 40
2.008617187499676
100
AcDbArc
 50
58.10920819816176
 51
121.8907918016627
1001
REVIT
1002
{
1070
     3
1000
15798
1002
}
  0
ARC
  5
284
330
27B
100
AcDbEntity
  8
A-DETL-GENF
100
AcDbCircle
 10
0.0
 20
0.5603125000006949
 30
0.0
 40
7.579687499999996
100
AcDbArc
 50
73.73979529168228
 51
84.32136653172655
1001
REVIT
1002
{
1070
     3
1000
15798
1002
}
  0
LINE
  5
285
330
27B
100
AcDbEntity
  8
A-DETL-GENF
100
AcDbLine
 10
3.183468750001337
 20
8.140000000000341
 30
0.0
 11
0.7499999999999987
 21
8.140000000000341
 31
0.0
1001
REVIT
1002
{
1070
     3
1000
15798
1002
}
  0
LINE
  5
286
330
27B
100
AcDbEntity
  8
A-DETL-GENF
100
AcDbLine
 10
0.7499999999999987
 20
8.140000000000341
 30
0.0
 11
0.7499999999999987
 21
6.589999999999239
 31
0.0
1001
REVIT
1002
{
1070
     3
1000
15798
1002
}
  0
LINE
  5
287
330
27B
100
AcDbEntity
  8
A-DETL-GENF
100
AcDbLine
 10
0.7499999999999987
 20
6.589999999999239
 30
0.0
 11
-0.7500000000000029
 21
6.589999999999239
 31
0.0
1001
REVIT
1002
{
1070
     3
1000
15798
1002
}
  0
LINE
  5
288
330
27B
100
AcDbEntity
  8
A-DETL-GENF
100
AcDbLine
 10
-0.7500000000000029
 20
6.589999999999239
 30
0.0
 11
-0.7500000000000029
 21
8.139999999999428
 31
0.0
1001
REVIT
1002
{
1070
     3
1000
15798
1002
}
  0
LINE
  5
289
330
27B
100
AcDbEntity
  8
A-DETL-GENF
100
AcDbLine
 10
-0.7500000000000029
 20
8.139999999999428
 30
0.0
 11
-3.183468750001341
 21
8.139999999999428
 31
0.0
1001
REVIT
1002
{
1070
     3
1000
15798
1002
}
  0
LINE
  5
28A
330
27B
100
AcDbEntity
  8
A-DETL-GENF
100
AcDbLine
 10
4.244624999999357
 20
7.836812500002085
 30
0.0
 11
4.244624999999357
 21
4.375000000000003
 31
0.0
1001
REVIT
1002
{
1070
     3
1000
15798
1002
}
  0
LINE
  5
28B
330
27B
100
AcDbEntity
  8
A-DETL-GENF
100
AcDbLine
 10
4.244624999999357
 20
4.375000000000003
 30
0.0
 11
5.469625000001539
 21
4.02500000000054
 31
0.0
1001
REVIT
1002
{
1070
     3
1000
15798
1002
}
  0
LINE
  5
28C
330
27B
100
AcDbEntity
  8
A-DETL-GENF
100
AcDbLine
 10
5.469625000001539
 20
4.02500000000054
 30
0.0
 11
5.469625000001539
 21
3.000000000000011
 31
0.0
1001
REVIT
1002
{
1070
     3
1000
15798
1002
}
  0
LINE
  5
28D
330
27B
100
AcDbEntity
  8
A-DETL-GENF
100
AcDbLine
 10
5.469625000001539
 20
3.000000000000011
 30
0.0
 11
-5.469624999997906
 21
3.000000000000011
 31
0.0
1001
REVIT
1002
{
1070
     3
1000
15798
1002
}
  0
LINE
  5
28E
330
27B
100
AcDbEntity
  8
A-DETL-GENF
100
AcDbLine
 10
-5.469624999997906
 20
3.000000000000011
 30
0.0
 11
-5.469624999997906
 21
4.024999999999643
 31
0.0
1001
REVIT
1002
{
1070
     3
1000
15798
1002
}
  0
LINE
  5
28F
330
27B
100
AcDbEntity
  8
A-DETL-GENF
100
AcDbLine
 10
-5.469624999997906
 20
4.024999999999643
 30
0.0
 11
-4.244624999993025
 21
4.375000000000003
 31
0.0
1001
REVIT
1002
{
1070
     3
1000
15798
1002
}
  0
LINE
  5
290
330
27B
100
AcDbEntity
  8
A-DETL-GENF
100
AcDbLine
 10
4.244624999999357
 20
4.375000000000003
 30
0.0
 11
-4.244624999993023
 21
4.375000000000003
 31
0.0
1001
REVIT
1002
{
1070
     3
1000
15798
1002
}
  0
LINE
  5
291
330
27B
100
AcDbEntity
  8
A-DETL-GENF
100
AcDbLine
 10
-4.244624999995723
 20
4.375000000000003
 30
0.0
 11
-4.244624999995723
 21
7.836812500003434
 31
0.0
1001
REVIT
1002
{
1070
     3
1000
15798
1002
}
  0
LINE
  5
292
330
27B
100
AcDbEntity
  8
A-DETL-GENF
100
AcDbLine
 10
2.12231249999968
 20
4.375000000000003
 30
0.0
 11
2.12231249999968
 21
7.83681249999982
 31
0.0
1001
REVIT
1002
{
1070
     3
1000
15798
1002
}
  0
LINE
  5
293
330
27B
100
AcDbEntity
  8
A-DETL-GENF
100
AcDbLine
 10
-2.122312499996042
 20
4.375000000000003
 30
0.0
 11
-2.122312499996042
 21
7.836812500001842
 31
0.0
1001
REVIT
1002
{
1070
     3
1000
15798
1002
}
  0
LINE
  5
294
330
27B
100
AcDbEntity
  8
A-DETL-GENF
100
AcDbLine
 10
-1.500000000000001
 20
-42.05066079674497
 30
0.0
 11
1.499999999999997
 21
-41.24681321945308
 31
0.0
1001
REVIT
1002
{
1070
     3
1000
15798
1002
}
  0
LINE
  5
295
330
27B
100
AcDbEntity
  8
A-DETL-GENF
100
AcDbLine
 10
-1.500000000000001
 20
3.000000000000011
 30
0.0
 11
-1.500000000000001
 21
-63.84091346809912
 31
0.0
1001
REVIT
1002
{
1070
     3
1000
15798
1002
}
  0
LINE
  5
296
330
27B
100
AcDbEntity
  8
A-DETL-GENF
100
AcDbLine
 10
1.499999999999997
 20
-63.84091346809922
 30
0.0
 11
1.499999999999997
 21
3.000000000000011
 31
0.0
1001
REVIT
1002
{
1070
     3
1000
15798
1002
}
  0
LINE
  5
297
330
27B
100
AcDbEntity
  8
A-DETL-GENF
100
AcDbLine
 10
-1.500000000000001
 20
-38.83527048757332
 30
0.0
 11
1.499999999999997
 21
-38.03142291027955
 31
0.0
1001
REVIT
1002
{
1070
     3
1000
15798
1002
}
  0
LINE
  5
298
330
27B
100
AcDbEntity
  8
A-DETL-GENF
100
AcDbLine
 10
-1.500000000000001
 20
-29.18909956005427
 30
0.0
 11
1.499999999999997
 21
-28.38525198276146
 31
0.0
1001
REVIT
1002
{
1070
     3
1000
15798
1002
}
  0
LINE
  5
299
330
27B
100
AcDbEntity
  8
A-DETL-GENF
100
AcDbLine
 10
-1.500000000000001
 20
-25.97370925088125
 30
0.0
 11
1.499999999999997
 21
-25.16986167358845
 31
0.0
1001
REVIT
1002
{
1070
     3
1000
15798
1002
}
  0
LINE
  5
29A
330
27B
100
AcDbEntity
  8
A-DETL-GENF
100
AcDbLine
 10
-1.500000000000001
 20
-22.75831894170824
 30
0.0
 11
1.499999999999997
 21
-21.95447136441544
 31
0.0
1001
REVIT
1002
{
1070
     3
1000
15798
1002
}
  0
LINE
  5
29B
330
27B
100
AcDbEntity
  8
A-DETL-GENF
100
AcDbLine
 10
-1.500000000000001
 20
-19.54292863253522
 30
0.0
 11
1.499999999999997
 21
-18.73908105524241
 31
0.0
1001
REVIT
1002
{
1070
     3
1000
15798
1002
}
  0
LINE
  5
29C
330
27B
100
AcDbEntity
  8
A-DETL-GENF
100
AcDbLine
 10
-1.500000000000002
 20
-16.32753832336214
 30
0.0
 11
1.499999999999996
 21
-15.5236907460694
 31
0.0
1001
REVIT
1002
{
1070
     3
1000
15798
1002
}
  0
LINE
  5
29D
330
27B
100
AcDbEntity
  8
A-DETL-GENF
100
AcDbLine
 10
-1.500000000000001
 20
-13.11214801418919
 30
0.0
 11
1.499999999999997
 21
-12.30830043689639
 31
0.0
1001
REVIT
1002
{
1070
     3
1000
15798
1002
}
  0
LINE
  5
29E
330
27B
100
AcDbEntity
  8
A-DETL-GENF
100
AcDbLine
 10
-1.500000000000001
 20
-9.896757705017076
 30
0.0
 11
1.499999999999997
 21
-9.092910127723365
 31
0.0
1001
REVIT
1002
{
1070
     3
1000
15798
1002
}
  0
LINE
  5
29F
330
27B
100
AcDbEntity
  8
A-DETL-GENF
100
AcDbLine
 10
-1.500000000000001
 20
-6.681367395843151
 30
0.0
 11
1.499999999999997
 21
-5.877519818550356
 31
0.0
1001
REVIT
1002
{
1070
     3
1000
15798
1002
}
  0
LINE
  5
2A0
330
27B
100
AcDbEntity
  8
A-DETL-GENF
100
AcDbLine
 10
-1.500000000000001
 20
-3.465977086671038
 30
0.0
 11
1.499999999999997
 21
-2.662129509377329
 31
0.0
1001
REVIT
1002
{
1070
     3
1000
15798
1002
}
  0
LINE
  5
2A1
330
27B
100
AcDbEntity
  8
A-DETL-GENF
100
AcDbLine
 10
-1.500000000000001
 20
-0.2505867774980286
 30
0.0
 11
1.499999999999999
 21
0.5532607997956812
 31
0.0
1001
REVIT
1002
{
1070
     3
1000
15798
1002
}
  0
LINE
  5
2A2
330
27B
100
AcDbEntity
  8
A-DETL-GENF
100
AcDbLine
 10
-1.500000000000002
 20
-35.61988017839933
 30
0.0
 11
1.499999999999996
 21
-34.8160326011075
 31
0.0
1001
REVIT
1002
{
1070
     3
1000
15798
1002
}
  0
LINE
  5
2A3
330
27B
100
AcDbEntity
  8
A-DETL-GENF
100
AcDbLine
 10
-1.500000000000001
 20
-32.40448986922729
 30
0.0
 11
1.499999999999997
 21
-31.60064229193449
 31
0.0
1001
REVIT
1002
{
1070
     3
1000
15798
1002
}
  0
LINE
  5
2A4
330
27B
100
AcDbEntity
  8
A-DETL-GENF
100
AcDbLine
 10
-1.183643930274868
 20
-48.39667406168699
 30
0.0
 11
1.499999999999996
 21
-47.67759383779768
 31
0.0
1001
REVIT
1002
{
1070
     3
1000
15798
1002
}
  0
LINE
  5
2A5
330
27B
100
AcDbEntity
  8
A-DETL-GENF
100
AcDbLine
 10
-1.500000000000002
 20
-45.26605110591747
 30
0.0
 11
1.499999999999996
 21
-44.46220352862564
 31
0.0
1001
REVIT
1002
{
1070
     3
1000
15798
1002
}
  0
LINE
  5
2A6
330
27B
100
AcDbEntity
  8
A-DETL-GENF
100
AcDbLine
 10
-1.500000000000001
 20
-58.12761234260914
 30
0.0
 11
1.499999999999997
 21
-57.32376476531726
 31
0.0
1001
REVIT
1002
{
1070
     3
1000
15798
1002
}
  0
LINE
  5
2A7
330
27B
100
AcDbEntity
  8
A-DETL-GENF
100
AcDbLine
 10
-1.500000000000001
 20
-63.84091346809912
 30
0.0
 11
-0.0000000000036118
 21
-66.84091346810008
 31
0.0
1001
REVIT
1002
{
1070
     3
1000
15798
1002
}
  0
LINE
  5
2A8
330
27B
100
AcDbEntity
  8
A-DETL-GENF
100
AcDbLine
 10
-0.0000000000036118
 20
-66.84091346810008
 30
0.0
 11
1.499999999999998
 21
-63.84091346809922
 31
0.0
1001
REVIT
1002
{
1070
     3
1000
15798
1002
}
  0
LINE
  5
2A9
330
27B
100
AcDbEntity
  8
A-DETL-GENF
100
AcDbLine
 10
-1.500000000000001
 20
-54.9122220334375
 30
0.0
 11
1.499999999999996
 21
-54.10837445614373
 31
0.0
1001
REVIT
1002
{
1070
     3
1000
15798
1002
}
  0
LINE
  5
2AA
330
27B
100
AcDbEntity
  8
A-DETL-GENF
100
AcDbLine
 10
-1.5
 20
-51.69683172426351
 30
0.0
 11
1.499999999999996
 21
-50.89298414697168
 31
0.0
1001
REVIT
1002
{
1070
     3
1000
15798
1002
}
  0
LINE
  5
2AB
330
27B
100
AcDbEntity
  8
A-DETL-GENF
100
AcDbLine
 10
-1.500000000000001
 20
-48.48144141509147
 30
0.0
 11
1.499999999999997
 21
-47.67759383779867
 31
0.0
1001
REVIT
1002
{
1070
     3
1000
15798
1002
}
  0
LINE
  5
2AC
330
27B
100
AcDbEntity
  8
A-DETL-GENF
100
AcDbLine
 10
-1.183643930274843
 20
-64.47362560755117
 30
0.0
 11
1.549864636799416
 21
-63.74118419450059
 31
0.0
1001
REVIT
1002
{
1070
     3
1000
15798
1002
}
  0
LINE
  5
2AD
330
27B
100
AcDbEntity
  8
A-DETL-GENF
100
AcDbLine
 10
-1.5
 20
-61.34300265178165
 30
0.0
 11
1.499999999999996
 21
-60.53915507448982
 31
0.0
1001
REVIT
1002
{
1070
     3
1000
15798
1002
}
  0
ENDBLK
  5
2AF
330
27B
100
AcDbEntity
  8
0
100
AcDbBlockEnd
  0
BLOCK
  5
2C2
330
2BB
100
AcDbEntity
  8
0
100
AcDbBlockBegin
  2
FP Timber Nog Packer1 - Variable-216805-W-TRSIL-20-H - Deck Balustrade Fixing Detail
 70
     0
 10
0.0
 20
0.0
 30
0.0
  3
FP Timber Nog Packer1 - Variable-216805-W-TRSIL-20-H - Deck Balustrade Fixing Detail
  1

  0
LINE
  5
2BC
330
2BB
100
AcDbEntity
  8
A-DETL-GENF
100
AcDbLine
 10
90.00000000000047
 20
-5.65429576366052
 30
0.0
 11
0.0
 21
-5.65429576366052
 31
0.0
1001
REVIT
1002
{
1070
     3
1000
16257
1002
}
  0
LINE
  5
2BD
330
2BB
100
AcDbEntity
  8
A-DETL-GENF
100
AcDbLine
 10
0.0
 20
-5.65429576366052
 30
0.0
 11
0.0
 21
-24.99999999999865
 31
0.0
1001
REVIT
1002
{
1070
     3
1000
16257
1002
}
  0
LINE
  5
2BE
330
2BB
100
AcDbEntity
  8
A-DETL-GENF
100
AcDbLine
 10
0.0
 20
-24.99999999999865
 30
0.0
 11
90.00000000000047
 21
-24.99999999999865
 31
0.0
1001
REVIT
1002
{
1070
     3
1000
16257
1002
}
  0
LINE
  5
2BF
330
2BB
100
AcDbEntity
  8
A-DETL-GENF
100
AcDbLine
 10
90.00000000000047
 20
-24.99999999999865
 30
0.0
 11
90.00000000000047
 21
-5.65429576366052
 31
0.0
1001
REVIT
1002
{
1070
     3
1000
16257
1002
}
  0
LINE
  5
2C0
330
2BB
100
AcDbEntity
  8
A-DETL-GENF
100
AcDbLine
 10
0.0
 20
-24.99999999999866
 30
0.0
 11
90.00000000000005
 21
-5.654295763661845
 31
0.0
1001
REVIT
1002
{
1070
     3
1000
16362
1002
}
  0
LINE
  5
2C1
330
2BB
100
AcDbEntity
  8
A-DETL-GENF
100
AcDbLine
 10
-0.0000000000001438
 20
-5.654295763661845
 30
0.0
 11
90.00000000000005
 21
-24.99999999999895
 31
0.0
1001
REVIT
1002
{
1070
     3
1000
16362
1002
}
  0
ENDBLK
  5
2C3
330
2BB
100
AcDbEntity
  8
0
100
AcDbBlockEnd
  0
BLOCK
  5
362
330
337
100
AcDbEntity
  8
0
100
AcDbBlockBegin
  2
Titleblock A4 The roofing store - Titleblock A4 The roofing store-2694-Deck Balustrade Fixing Detail
 70
     0
 10
0.0
 20
0.0
 30
0.0
  3
Titleblock A4 The roofing store - Titleblock A4 The roofing store-2694-Deck Balustrade Fixing Detail
  1

  0
IMAGE
  5
33A
330
337
100
AcDbEntity
  8
G-ANNO-TTLB
160
               140
310
8C000000010000008400000006000000050000005617394A1B7A1640B7935150A3172A4000000000000000005617394A1B7A1640DCC928A8D10B3640000000000000000095168F065A825140DCC928A8D10B3640000000000000000095168F065A825140B7935150A3172A4000000000000000005617394A1B7A1640B79351
310
50A3172A400000000000000000
100
AcDbRasterImage
 90
        0
 10
5.619244727835242
 20
13.0461678599912
 30
0.0
 11
0.0225
 21
0.0
 31
0.0
 12
0.0
 22
0.0225
 32
0.0
 13
2863.0
 23
400.0
340
339
 70
     7
280
     0
281
    50
282
    50
283
     0
290
     0
360
33B
 71
     1
 91
        2
 14
-0.5
 24
-0.5
 14
2862.5
 24
399.5
  0
LINE
  5
33D
330
337
100
AcDbEntity
  8
G-ANNO-TTLB-THIN
100
AcDbLine
 10
291.9756745145733
 20
16.5981545959536
 30
0.0
 11
236.9756745145732
 21
16.5981545959536
 31
0.0
1001
REVIT
1002
{
1070
     3
1000
-2000281
1002
}
  0
LINE
  5
33E
330
337
100
AcDbEntity
  8
G-ANNO-TTLB
100
AcDbLine
 10
71.28674472783522
 20
23.02396756137834
 30
0.0
 11
71.28674472783522
 21
5.023967561378343
 31
0.0
  0
LINE
  5
340
330
337
100
AcDbEntity
  8
G-ANNO-TTLB-MEDM
100
AcDbLine
 10
291.9756745145733
 20
205.0239675613797
 30
0.0
 11
4.975674514620406
 21
205.0239675613797
 31
0.0
1001
REVIT
1002
{
1070
     3
1000
-2000282
1002
}
  0
LINE
  5
341
330
337
100
AcDbEntity
  8
G-ANNO-TTLB-MEDM
100
AcDbLine
 10
4.975674514620408
 20
205.0239675613797
 30
0.0
 11
4.975674514620408
 21
5.02396756137836
 31
0.0
1001
REVIT
1002
{
1070
     3
1000
-2000282
1002
}
  0
LINE
  5
342
330
337
100
AcDbEntity
  8
G-ANNO-TTLB-MEDM
100
AcDbLine
 10
4.975674514620408
 20
5.023967561378343
 30
0.0
 11
291.9756745145733
 21
5.023967561378343
 31
0.0
1001
REVIT
1002
{
1070
     3
1000
-2000282
1002
}
  0
LINE
  5
343
330
337
100
AcDbEntity
  8
G-ANNO-TTLB-MEDM
100
AcDbLine
 10
291.9756745145733
 20
5.023967561378343
 30
0.0
 11
291.9756745145733
 21
205.0239675613797
 31
0.0
1001
REVIT
1002
{
1070
     3
1000
-2000282
1002
}
  0
LINE
  5
344
330
337
100
AcDbEntity
  8
G-ANNO-TTLB-THIN
100
AcDbLine
 10
291.9756745145733
 20
23.02396756137834
 30
0.0
 11
4.975674514620406
 21
23.02396756137834
 31
0.0
1001
REVIT
1002
{
1070
     3
1000
-2000281
1002
}
  0
LINE
  5
345
330
337
100
AcDbEntity
  8
G-ANNO-TTLB
100
AcDbLine
 10
236.9756745145732
 20
23.02396756137834
 30
0.0
 11
236.9756745145732
 21
5.023967561378343
 31
0.0
  0
MTEXT
  5
347
330
337
100
AcDbEntity
  8
G-ANNO-TTLB
100
AcDbMText
 10
9.61486176751347
 20
34.25458782332127
 30
0.0
 40
1.8
 41
2.309769
 46
0.0
 71
     1
 72
     1
  1
\U+2022
  7
Century Gothic_1
 73
     2
 44
1.0
  0
MTEXT
  5
348
330
337
100
AcDbEntity
  8
G-ANNO-TTLB
100
AcDbMText
 10
9.61486176751347
 20
31.3441711566546
 30
0.0
 40
1.8
 41
2.309769
 46
0.0
 71
     1
 72
     1
  1
\U+2022
  7
Century Gothic_1
 73
     2
 44
1.0
  0
MTEXT
  5
349
330
337
100
AcDbEntity
  8
G-ANNO-TTLB
100
AcDbMText
 10
9.61486176751347
 20
28.43375448998793
 30
0.0
 40
1.8
 41
2.309769
 46
0.0
 71
     1
 72
     1
  1
\U+2022
  7
Century Gothic_1
 73
     2
 44
1.0
  0
MTEXT
  5
34A
330
337
100
AcDbEntity
  8
G-ANNO-TTLB
100
AcDbMText
 10
11.51986176751347
 20
34.25458782332127
 30
0.0
 40
1.8
 41
154.116405
 46
0.0
 71
     1
 72
     1
  1
These details are generally in accordance with NZBC E2/AS1 and or the NZ metal roof & wall caldding code of practice.
  7
Century Gothic_1
 73
     2
 44
1.0
  0
MTEXT
  5
34B
330
337
100
AcDbEntity
  8
G-ANNO-TTLB
100
AcDbMText
 10
11.51986176751347
 20
31.3441711566546
 30
0.0
 40
1.8
 41
137.0885625
 46
0.0
 71
     1
 72
     1
  1
The building Architect / Designer is ultimately responsible for details to meet the NZ Building Code & E2/AS1.
  7
Century Gothic_1
 73
     2
 44
1.0
  0
MTEXT
  5
34C
330
337
100
AcDbEntity
  8
G-ANNO-TTLB
100
AcDbMText
 10
11.51986176751347
 20
28.43375448998794
 30
0.0
 40
1.8
 41
118.401226875
 46
0.0
 71
     1
 72
     1
  1
For Further information please contact your nearest roofing store www.theroofingstore.co.nz.
  7
Century Gothic_1
 73
     2
 44
1.0
  0
MTEXT
  5
34D
330
337
100
AcDbEntity
  8
G-ANNO-TTLB
100
AcDbMText
 10
152.075785282666
 20
20.51531106318182
 30
0.0
 40
1.8
 41
20.77974
 46
0.0
 71
     1
 72
     1
  1
P: HEAD OFFICE 
  7
Century Gothic_1
 73
     2
 44
1.0
  0
MTEXT
  5
34E
330
337
100
AcDbEntity
  8
G-ANNO-TTLB
100
AcDbMText
 10
169.220785282666
 20
20.51531106318182
 30
0.0
 40
1.8
 41
6.926579999999998
 46
0.0
 71
     1
 72
     1
  1
^I
  7
Century Gothic_1
 73
     2
 44
1.0
  0
MTEXT
  5
34F
330
337
100
AcDbEntity
  8
G-ANNO-TTLB
100
AcDbMText
 10
174.935785282666
 20
20.51531106318182
 30
0.0
 40
1.8
 41
15.079741875
 46
0.0
 71
     1
 72
     1
  1
09 277 2717
  7
Century Gothic_1
 73
     2
 44
1.0
  0
MTEXT
  5
350
330
337
100
AcDbEntity
  8
G-ANNO-TTLB
100
AcDbMText
 10
152.075785282666
 20
17.60489439651515
 30
0.0
 40
1.8
 41
13.492400625
 46
0.0
 71
     1
 72
     1
  1
    ALBANY 
  7
Century Gothic_1
 73
     2
 44
1.0
  0
MTEXT
  5
351
330
337
100
AcDbEntity
  8
G-ANNO-TTLB
100
AcDbMText
 10
163.208129032666
 20
17.60489439651515
 30
0.0
 40
1.8
 41
14.213919375
 46
0.0
 71
     1
 72
     1
  1
^I^I
  7
Century Gothic_1
 73
     2
 44
1.0
  0
MTEXT
  5
352
330
337
100
AcDbEntity
  8
G-ANNO-TTLB
100
AcDbMText
 10
174.935785282666
 20
17.60489439651515
 30
0.0
 40
1.8
 41
15.079741875
 46
0.0
 71
     1
 72
     1
  1
09 972 0060
  7
Century Gothic_1
 73
     2
 44
1.0
  0
MTEXT
  5
353
330
337
100
AcDbEntity
  8
G-ANNO-TTLB
100
AcDbMText
 10
152.075785282666
 20
14.69447772984849
 30
0.0
 40
1.8
 41
13.99746375
 46
0.0
 71
     1
 72
     1
  1
    KATIKAIT 
  7
Century Gothic_1
 73
     2
 44
1.0
  0
MTEXT
  5
354
330
337
100
AcDbEntity
  8
G-ANNO-TTLB
100
AcDbMText
 10
163.624847782666
 20
14.69447772984849
 30
0.0
 40
1.8
 41
13.70885625
 46
0.0
 71
     1
 72
     1
  1
^I
  7
Century Gothic_1
 73
     2
 44
1.0
  0
MTEXT
  5
355
330
337
100
AcDbEntity
  8
G-ANNO-TTLB
100
AcDbMText
 10
174.935785282666
 20
14.69447772984849
 30
0.0
 40
1.8
 41
15.079741875
 46
0.0
 71
     1
 72
     1
  1
07 549 5190
  7
Century Gothic_1
 73
     2
 44
1.0
  0
MTEXT
  5
356
330
337
100
AcDbEntity
  8
G-ANNO-TTLB
100
AcDbMText
 10
152.075785282666
 20
11.78406106318182
 30
0.0
 40
1.8
 41
20.274676875
 46
0.0
 71
     1
 72
     1
  1
    WELLINGTON 
  7
Century Gothic_1
 73
     2
 44
1.0
  0
MTEXT
  5
357
330
337
100
AcDbEntity
  8
G-ANNO-TTLB
100
AcDbMText
 10
168.804066532666
 20
11.78406106318182
 30
0.0
 40
1.8
 41
7.431643124999999
 46
0.0
 71
     1
 72
     1
  1
^I
  7
Century Gothic_1
 73
     2
 44
1.0
  0
MTEXT
  5
358
330
337
100
AcDbEntity
  8
G-ANNO-TTLB
100
AcDbMText
 10
174.935785282666
 20
11.78406106318182
 30
0.0
 40
1.8
 41
15.079741875
 46
0.0
 71
     1
 72
     1
  1
04 974 5792
  7
Century Gothic_1
 73
     2
 44
1.0
  0
MTEXT
  5
359
330
337
100
AcDbEntity
  8
G-ANNO-TTLB
100
AcDbMText
 10
187.377816532666
 20
11.78406106318182
 30
0.0
 40
1.8
 41
12.626578125
 46
0.0
 71
     1
 72
     1
  1
^I
  7
Century Gothic_1
 73
     2
 44
1.0
  0
MTEXT
  5
35A
330
337
100
AcDbEntity
  8
G-ANNO-TTLB
100
AcDbMText
 10
197.795785282666
 20
11.78406106318182
 30
0.0
 40
1.8
 41
41.63163187500001
 46
0.0
 71
     1
 72
     1
  1
WEB: www.theroofingstore.co.nz
  7
Century Gothic_1
 73
     2
 44
1.0
  0
MTEXT
  5
35B
330
337
100
AcDbEntity
  8
G-ANNO-TTLB
100
AcDbMText
 10
152.075785282666
 20
8.873644396515153
 30
0.0
 40
1.8
 41
23.52151125
 46
0.0
 71
     1
 72
     1
  1
    CHRISTCHURCH 
  7
Century Gothic_1
 73
     2
 44
1.0
  0
MTEXT
  5
35C
330
337
100
AcDbEntity
  8
G-ANNO-TTLB
100
AcDbMText
 10
171.482972782666
 20
8.873644396515153
 30
0.0
 40
1.8
 41
4.184808749999999
 46
0.0
 71
     1
 72
     1
  1
^I
  7
Century Gothic_1
 73
     2
 44
1.0
  0
MTEXT
  5
35D
330
337
100
AcDbEntity
  8
G-ANNO-TTLB
100
AcDbMText
 10
174.935785282666
 20
8.873644396515153
 30
0.0
 40
1.8
 41
15.079741875
 46
0.0
 71
     1
 72
     1
  1
03 348 6528
  7
Century Gothic_1
 73
     2
 44
1.0
  0
MTEXT
  5
35E
330
337
100
AcDbEntity
  8
G-ANNO-TTLB
100
AcDbMText
 10
187.377816532666
 20
8.873644396515153
 30
0.0
 40
1.8
 41
12.626578125
 46
0.0
 71
     1
 72
     1
  1
^I
  7
Century Gothic_1
 73
     2
 44
1.0
  0
MTEXT
  5
35F
330
337
100
AcDbEntity
  8
G-ANNO-TTLB
100
AcDbMText
 10
197.795785282666
 20
8.873644396515153
 30
0.0
 40
1.8
 41
45.16707375
 46
0.0
 71
     1
 72
     1
  1
Copyright © The Roofing Store 2013
  7
Century Gothic_1
 73
     2
 44
1.0
  0
MTEXT
  5
360
330
337
100
AcDbEntity
  8
G-ANNO-TTLB
100
AcDbMText
 10
238.4531881313984
 20
13.76450265283994
 30
0.0
 40
1.8
 41
13.348096875
 46
0.0
 71
     1
 72
     1
  1
Detail No.:
  7
Century Gothic_1
 73
     2
 44
1.0
  0
MTEXT
  5
361
330
337
100
AcDbEntity
  8
G-ANNO-TTLB
100
AcDbMText
 10
238.4531881313984
 20
20.51531106318182
 30
0.0
 40
1.8
 41
14.502526875
 46
0.0
 71
     1
 72
     1
  1
Scale:  1 : 5
  7
Century Gothic_1
 73
     2
 44
1.0
  0
ENDBLK
  5
363
330
337
100
AcDbEntity
  8
0
100
AcDbBlockEnd
  0
ENDSEC
  0
SECTION
  2
ENTITIES
  0
HATCH
  5
C1
330
70
100
AcDbEntity
  8
A-DETL-GENF
100
AcDbHatch
 10
0.0
 20
0.0
 30
0.0
210
0.0
220
0.0
230
1.0
  2
SOLID
 70
     1
 71
     0
 91
        1
 92
        0
 93
        4
 72
     1
 10
887.1055588114719
 20
3172.680729618516
 11
887.1055588114719
 21
3174.907413757859
 72
     1
 10
887.1055588114719
 20
3174.907413757859
 11
882.1055588114719
 21
3174.907413757859
 72
     1
 10
882.1055588114719
 20
3174.907413757859
 11
882.1055588114719
 21
3172.680729618516
 72
     1
 10
882.1055588114719
 20
3172.680729618516
 11
887.1055588114719
 21
3172.680729618516
 97
        0
 75
     0
 76
     1
 98
        1
 10
0.0
 20
0.0
450
        0
451
        0
460
0.0
461
0.0
452
        0
462
0.0
453
        0
470

1001
REVIT
1002
{
1070
     1
1000
216162
1002
}
1002
{
1070
     5
1000
17867
1002
}
1002
{
1070
     2
1000
-2002000
1002
}
  0
LINE
  5
C3
330
70
100
AcDbEntity
  8
A-DETL-THIN
100
AcDbLine
 10
887.105558811471
 20
3174.907413757857
 30
0.0
 11
882.1055588114711
 21
3174.907413757857
 31
0.0
1001
REVIT
1002
{
1070
     1
1000
216162
1002
}
1002
{
1070
     5
1000
17867
1002
}
1002
{
1070
     2
1000
-2000051
1002
}
1002
{
1070
     3
1000
-2000042
1002
}
  0
LINE
  5
C4
330
70
100
AcDbEntity
  8
A-DETL-THIN
100
AcDbLine
 10
882.1055588114711
 20
3174.907413757857
 30
0.0
 11
882.1055588114711
 21
3172.680729618514
 31
0.0
1001
REVIT
1002
{
1070
     1
1000
216162
1002
}
1002
{
1070
     5
1000
17867
1002
}
1002
{
1070
     2
1000
-2000051
1002
}
1002
{
1070
     3
1000
-2000042
1002
}
  0
LINE
  5
C5
330
70
100
AcDbEntity
  8
A-DETL-THIN
100
AcDbLine
 10
882.1055588114711
 20
3172.680729618514
 30
0.0
 11
887.105558811471
 21
3172.680729618514
 31
0.0
1001
REVIT
1002
{
1070
     1
1000
216162
1002
}
1002
{
1070
     5
1000
17867
1002
}
1002
{
1070
     2
1000
-2000051
1002
}
1002
{
1070
     3
1000
-2000042
1002
}
  0
LINE
  5
C6
330
70
100
AcDbEntity
  8
A-DETL-THIN
100
AcDbLine
 10
887.105558811471
 20
3172.680729618514
 30
0.0
 11
887.105558811471
 21
3174.907413757857
 31
0.0
1001
REVIT
1002
{
1070
     1
1000
216162
1002
}
1002
{
1070
     5
1000
17867
1002
}
1002
{
1070
     2
1000
-2000051
1002
}
1002
{
1070
     3
1000
-2000042
1002
}
  0
INSERT
  5
D1
330
70
100
AcDbEntity
  8
A-DETL-GENF
100
AcDbBlockReference
  2
FP Timber Nog Packer1 - Variable-216047-W-TRSIL-20-H - Deck Balustrade Fixing Detail
 10
897.4339755883761
 20
3442.489099819231
 30
0.0
 50
269.9999999999998
1001
REVIT
1002
{
1070
     1
1000
215829
1002
}
1002
{
1070
     5
1000
44489
1002
}
1002
{
1070
     2
1000
-2002000
1002
}
  0
HATCH
  5
D6
330
70
100
AcDbEntity
  8
A-DETL-GENF
100
AcDbHatch
 10
0.0
 20
0.0
 30
0.0
210
0.0
220
0.0
230
1.0
  2
FP_1
 70
     0
 71
     0
 91
        1
 92
        0
 93
        4
 72
     1
 10
837.8660457476007
 20
3188.301599819234
 11
837.8660457476007
 21
3192.801599819235
 72
     1
 10
837.8660457476007
 20
3192.801599819235
 11
364.933436261666
 21
3192.801599819235
 72
     1
 10
364.933436261666
 20
3192.801599819235
 11
364.933436261666
 21
3188.301599819234
 72
     1
 10
364.933436261666
 20
3188.301599819234
 11
837.8660457476007
 21
3188.301599819234
 97
        0
 75
     0
 76
     2
 52
0.0
 41
1.0
 77
     0
 78
     9
 53
0.0
 43
0.0
 44
0.0
 45
20.32
 46
5.08
 79
     5
 49
1.675999999999999
 49
-13.564
 49
1.675999999999999
 49
-13.564
 49
-81.28
 53
0.0
 43
0.0
 44
0.0
 45
20.32
 46
5.08
 79
     6
 49
-30.48
 49
1.675999999999999
 49
-28.804
 49
1.675999999999999
 49
-13.564
 49
-35.56
 53
0.0
 43
0.0
 44
0.0
 45
20.32
 46
5.08
 79
     5
 49
-76.2
 49
1.675999999999999
 49
-8.483999999999999
 49
1.675999999999999
 49
-23.724
 53
120.0
 43
7.62
 44
2.54
 45
-14.55940905122494
 46
15.0576362048998
 79
     5
 49
1.675999999999999
 49
-13.564
 49
1.675999999999999
 49
-13.564
 49
-81.27999999999998
 53
120.0
 43
7.62
 44
2.54
 45
-14.55940905122494
 46
15.0576362048998
 79
     6
 49
-30.48
 49
1.675999999999999
 49
-28.804
 49
1.675999999999999
 49
-13.564
 49
-35.56
 53
120.0
 43
7.62
 44
2.54
 45
-14.55940905122494
 46
15.0576362048998
 79
     5
 49
-76.19999999999999
 49
1.675999999999999
 49
-8.483999999999998
 49
1.675999999999999
 49
-23.724
 53
240.0
 43
10.16
 44
12.7
 45
-5.760590948775045
 46
-20.1376362048998
 79
     5
 49
1.675999999999999
 49
-13.564
 49
1.675999999999999
 49
-13.564
 49
-81.28
 53
240.0
 43
10.16
 44
12.7
 45
-5.760590948775045
 46
-20.1376362048998
 79
     6
 49
-30.48
 49
1.675999999999999
 49
-28.804
 49
1.675999999999999
 49
-13.564
 49
-35.56
 53
240.0
 43
10.16
 44
12.7
 45
-5.760590948775045
 46
-20.1376362048998
 79
     5
 49
-76.2
 49
1.675999999999999
 49
-8.483999999999999
 49
1.675999999999999
 49
-23.724
 98
        1
 10
0.0
 20
0.0
1001
REVIT
1002
{
1070
     1
1000
209705
1002
}
1002
{
1070
     5
1000
17941
1002
}
1002
{
1070
     2
1000
-2002000
1002
}
  0
LINE
  5
D7
330
70
100
AcDbEntity
  8
A-DETL-THIN
100
AcDbLine
 10
364.9334362616656
 20
3188.301599819232
 30
0.0
 11
837.8660457476
 21
3188.301599819232
 31
0.0
1001
REVIT
1002
{
1070
     1
1000
209705
1002
}
1002
{
1070
     5
1000
17941
1002
}
1002
{
1070
     2
1000
-2000051
1002
}
1002
{
1070
     3
1000
-2000042
1002
}
  0
LINE
  5
D8
330
70
100
AcDbEntity
  8
A-DETL-THIN
100
AcDbLine
 10
837.8660457476
 20
3188.301599819232
 30
0.0
 11
837.8660457476
 21
3192.801599819232
 31
0.0
1001
REVIT
1002
{
1070
     1
1000
209705
1002
}
1002
{
1070
     5
1000
17941
1002
}
1002
{
1070
     2
1000
-2000051
1002
}
1002
{
1070
     3
1000
-2000042
1002
}
  0
LINE
  5
D9
330
70
100
AcDbEntity
  8
A-DETL-THIN
100
AcDbLine
 10
837.8660457476
 20
3192.801599819232
 30
0.0
 11
364.9334362616655
 21
3192.801599819232
 31
0.0
1001
REVIT
1002
{
1070
     1
1000
209705
1002
}
1002
{
1070
     5
1000
17941
1002
}
1002
{
1070
     2
1000
-2000051
1002
}
1002
{
1070
     3
1000
-2000042
1002
}
  0
INSERT
  5
DF
330
70
100
AcDbEntity
  8
A-DETL-GENF
100
AcDbBlockReference
  2
rs_building wrap - Building wrap-216406-W-TRSIL-20-H - Deck Balustrade Fixing Detail
 10
842.9334362616684
 20
3177.985128411472
 30
0.0
 50
90.0
1001
REVIT
1002
{
1070
     1
1000
205455
1002
}
1002
{
1070
     5
1000
10675
1002
}
1002
{
1070
     2
1000
-2002000
1002
}
  0
INSERT
  5
E7
330
70
100
AcDbEntity
  8
A-DETL-GENF
100
AcDbBlockReference
  2
rs_parapet framing - Parapet framing 2-216517-W-TRSIL-20-H - Deck Balustrade Fixing Detail
 10
794.9334362616659
 20
3480.584804055571
 30
0.0
 50
180.0
1001
REVIT
1002
{
1070
     1
1000
205456
1002
}
1002
{
1070
     5
1000
216507
1002
}
1002
{
1070
     2
1000
-2002000
1002
}
  0
HATCH
  5
EC
330
70
100
AcDbEntity
  8
A-DETL-GENF
100
AcDbHatch
 10
0.0
 20
0.0
 30
0.0
210
0.0
220
0.0
230
1.0
  2
FP_2
 70
     0
 71
     0
 91
        1
 92
        0
 93
        4
 72
     1
 10
575.9334362616664
 20
3338.739099819235
 11
749.9334362616666
 21
3338.739099819235
 72
     1
 10
749.9334362616666
 20
3338.739099819235
 11
749.9334362616666
 21
3350.739099819235
 72
     1
 10
749.9334362616666
 20
3350.739099819235
 11
575.9334362616664
 21
3350.739099819235
 72
     1
 10
575.9334362616664
 20
3350.739099819235
 11
575.9334362616664
 21
3338.739099819235
 97
        0
 75
     0
 76
     2
 52
0.0
 41
1.0
 77
     0
 78
     3
 53
216.87
 43
8.462999999999999
 44
21.158
 45
63.47512440516132
 46
42.31651339311042
 79
     2
 49
10.579
 49
-95.212
 53
206.565
 43
21.158
 44
14.811
 45
-21.15858852890061
 46
-21.15810351767557
 79
     2
 49
23.656
 49
-23.656
 53
198.435
 43
21.158
 44
4.232
 45
-42.31663206612067
 46
-21.15852139400503
 79
     2
 49
13.382
 49
-53.52599999999999
 98
        1
 10
0.0
 20
0.0
1001
REVIT
1002
{
1070
     1
1000
206489
1002
}
1002
{
1070
     5
1000
108656
1002
}
1002
{
1070
     2
1000
-2002000
1002
}
  0
LINE
  5
ED
330
70
100
AcDbEntity
  8
A-DETL-THIN
100
AcDbLine
 10
575.933436261666
 20
3338.739099819232
 30
0.0
 11
749.9334362616659
 21
3338.739099819232
 31
0.0
1001
REVIT
1002
{
1070
     1
1000
206489
1002
}
1002
{
1070
     5
1000
108656
1002
}
1002
{
1070
     2
1000
-2000051
1002
}
1002
{
1070
     3
1000
-2000042
1002
}
  0
LINE
  5
EE
330
70
100
AcDbEntity
  8
A-DETL-THIN
100
AcDbLine
 10
737.9334362616662
 20
3350.739099819231
 30
0.0
 11
587.9334362616659
 21
3350.739099819231
 31
0.0
1001
REVIT
1002
{
1070
     1
1000
206489
1002
}
1002
{
1070
     5
1000
108656
1002
}
1002
{
1070
     2
1000
-2000051
1002
}
1002
{
1070
     3
1000
-2000042
1002
}
  0
HATCH
  5
F4
330
70
100
AcDbEntity
  8
A-DETL-GENF
100
AcDbHatch
 10
0.0
 20
0.0
 30
0.0
210
0.0
220
0.0
230
1.0
  2
FP_2
 70
     0
 71
     0
 91
        1
 92
        0
 93
        5
 72
     1
 10
575.9334362616664
 20
3350.739099819235
 11
587.9334362616664
 21
3350.739099819235
 72
     1
 10
587.9334362616664
 20
3350.739099819235
 11
587.9334362616664
 21
3382.443695605704
 72
     1
 10
587.9334362616664
 20
3382.443695605704
 11
575.9334362616664
 21
3382.653156384843
 72
     1
 10
575.9334362616664
 20
3382.653156384843
 11
575.9334362616664
 21
3382.443695605704
 72
     1
 10
575.9334362616664
 20
3382.443695605704
 11
575.9334362616664
 21
3350.739099819235
 97
        0
 75
     0
 76
     2
 52
0.0
 41
1.0
 77
     0
 78
     3
 53
216.87
 43
8.462999999999999
 44
21.158
 45
63.47512440516132
 46
42.31651339311042
 79
     2
 49
10.579
 49
-95.212
 53
206.565
 43
21.158
 44
14.811
 45
-21.15858852890061
 46
-21.15810351767557
 79
     2
 49
23.656
 49
-23.656
 53
198.435
 43
21.158
 44
4.232
 45
-42.31663206612067
 46
-21.15852139400503
 79
     2
 49
13.382
 49
-53.52599999999999
 98
        1
 10
0.0
 20
0.0
1001
REVIT
1002
{
1070
     1
1000
206586
1002
}
1002
{
1070
     5
1000
108656
1002
}
1002
{
1070
     2
1000
-2002000
1002
}
  0
LINE
  5
F5
330
70
100
AcDbEntity
  8
A-DETL-THIN
100
AcDbLine
 10
575.933436261666
 20
3350.739099819231
 30
0.0
 11
587.9334362616659
 21
3350.739099819231
 31
0.0
1001
REVIT
1002
{
1070
     1
1000
206586
1002
}
1002
{
1070
     5
1000
108656
1002
}
1002
{
1070
     2
1000
-2000051
1002
}
1002
{
1070
     3
1000
-2000042
1002
}
  0
LINE
  5
F6
330
70
100
AcDbEntity
  8
A-DETL-THIN
100
AcDbLine
 10
587.9334362616659
 20
3350.739099819231
 30
0.0
 11
587.9334362616659
 21
3382.443695605701
 31
0.0
1001
REVIT
1002
{
1070
     1
1000
206586
1002
}
1002
{
1070
     5
1000
108656
1002
}
1002
{
1070
     2
1000
-2000051
1002
}
1002
{
1070
     3
1000
-2000042
1002
}
  0
HATCH
  5
FB
330
70
100
AcDbEntity
  8
A-DETL-GENF
100
AcDbHatch
 10
0.0
 20
0.0
 30
0.0
210
0.0
220
0.0
230
1.0
  2
FP_3
 70
     0
 71
     0
 91
        1
 92
        0
 93
        4
 72
     1
 10
866.0584362616761
 20
3178.258674992381
 11
866.0584362616743
 21
3463.584450868352
 72
     1
 10
866.0584362616743
 20
3463.584450868352
 11
846.0584362616691
 21
3463.584450868352
 72
     1
 10
846.0584362616691
 20
3463.584450868352
 11
846.058436261671
 21
3178.258674992381
 72
     1
 10
846.058436261671
 20
3178.258674992381
 11
866.0584362616761
 21
3178.258674992381
 97
        0
 75
     0
 76
     2
 52
0.0
 41
1.0
 77
     0
 78
     2
 53
0.0
 43
0.0
 44
0.0
 45
0.0
 46
11.0
 79
     0
 53
90.0
 43
0.0
 44
0.0
 45
-11.0
 46
0.0000000000000007
 79
     0
 98
        1
 10
0.0
 20
0.0
1001
REVIT
1002
{
1070
     1
1000
205471
1002
}
1002
{
1070
     5
1000
14996
1002
}
1002
{
1070
     2
1000
-2002000
1002
}
  0
LINE
  5
FC
330
70
100
AcDbEntity
  8
A-DETL-THIN
100
AcDbLine
 10
846.0584362616684
 20
3463.584450868348
 30
0.0
 11
846.0584362616701
 21
3178.258674992378
 31
0.0
1001
REVIT
1002
{
1070
     1
1000
205471
1002
}
1002
{
1070
     5
1000
14996
1002
}
1002
{
1070
     2
1000
-2000051
1002
}
1002
{
1070
     3
1000
-2000042
1002
}
  0
LINE
  5
FD
330
70
100
AcDbEntity
  8
A-DETL-THIN
100
AcDbLine
 10
846.0584362616701
 20
3178.258674992378
 30
0.0
 11
866.0584362616754
 21
3178.258674992378
 31
0.0
1001
REVIT
1002
{
1070
     1
1000
205471
1002
}
1002
{
1070
     5
1000
14996
1002
}
1002
{
1070
     2
1000
-2000051
1002
}
1002
{
1070
     3
1000
-2000042
1002
}
  0
LINE
  5
FE
330
70
100
AcDbEntity
  8
A-DETL-THIN
100
AcDbLine
 10
866.0584362616754
 20
3178.258674992378
 30
0.0
 11
866.0584362616734
 21
3463.584450868348
 31
0.0
1001
REVIT
1002
{
1070
     1
1000
205471
1002
}
1002
{
1070
     5
1000
14996
1002
}
1002
{
1070
     2
1000
-2000051
1002
}
1002
{
1070
     3
1000
-2000042
1002
}
  0
INSERT
  5
10B
330
70
100
AcDbEntity
  8
A-DETL-GENF
100
AcDbBlockReference
  2
FP Timber Nog Packer - Variable-40636-W-TRSIL-20-H - Deck Balustrade Fixing Detail
 10
871.0584362616653
 20
3508.584450868348
 30
0.0
 50
270.0000000000015
1001
REVIT
1002
{
1070
     1
1000
205476
1002
}
1002
{
1070
     5
1000
33622
1002
}
1002
{
1070
     2
1000
-2002000
1002
}
  0
INSERT
  5
116
330
70
100
AcDbEntity
  8
A-DETL-GENF
100
AcDbBlockReference
  2
rs_parapet capping 2 - Parapet capping - Deck-209493-W-TRSIL-20-H - Deck Balustrade Fixing Detail
 10
719.0218479162593
 20
3449.702447308544
 30
0.0
 50
180.0
1001
REVIT
1002
{
1070
     1
1000
205464
1002
}
1002
{
1070
     5
1000
207667
1002
}
1002
{
1070
     2
1000
-2002000
1002
}
  0
INSERT
  5
11F
330
70
100
AcDbEntity
  8
A-DETL-GENF
100
AcDbBlockReference
  2
rs_grab flashing notched around super seam upstands 2 - Parapet underclip - Deck-208999-W-TRSIL-20-H - Deck Balustrade Fixing Detail
 10
723.2319370978443
 20
3451.700369717501
 30
0.0
 50
180.0
1001
REVIT
1002
{
1070
     1
1000
205466
1002
}
1002
{
1070
     5
1000
205910
1002
}
1002
{
1070
     2
1000
-2002000
1002
}
  0
INSERT
  5
124
330
70
100
AcDbEntity
  8
A-DETL-GENF
100
AcDbBlockReference
  2
rs_building wrap - Building wrap-216427-W-TRSIL-20-H - Deck Balustrade Fixing Detail
 10
748.1994980629831
 20
3498.8091244026
 30
0.0
 50
5.00000000000021
1001
REVIT
1002
{
1070
     1
1000
205485
1002
}
1002
{
1070
     5
1000
10675
1002
}
1002
{
1070
     2
1000
-2002000
1002
}
  0
INSERT
  5
12B
330
70
100
AcDbEntity
  8
A-DETL-GENF
100
AcDbBlockReference
  2
rs_building wrap - Building wrap-208199-W-TRSIL-20-H - Deck Balustrade Fixing Detail
 10
735.2496487467931
 20
3523.823827065044
 30
0.0
 50
5.00000000000021
1001
REVIT
1002
{
1070
     1
1000
205487
1002
}
1002
{
1070
     5
1000
10675
1002
}
1002
{
1070
     2
1000
-2002000
1002
}
  0
INSERT
  5
139
330
70
100
AcDbEntity
  8
A-DETL-GENF
100
AcDbBlockReference
  2
FP Timber Nog Packer - Variable-205958-W-TRSIL-20-H - Deck Balustrade Fixing Detail
 10
865.310331056462
 20
3537.522505999749
 30
0.0
 41
0.9999999999999998
 42
0.9999999999999998
 43
0.9999999999999998
 50
185.0000000000001
1001
REVIT
1002
{
1070
     1
1000
205489
1002
}
1002
{
1070
     5
1000
33622
1002
}
1002
{
1070
     2
1000
-2002000
1002
}
  0
INSERT
  5
146
330
70
100
AcDbEntity
  8
A-DETL-GENF
100
AcDbBlockReference
  2
rs_fixing nail - nail 20 mm-47643-W-TRSIL-20-H - Deck Balustrade Fixing Detail
 10
773.9373830273291
 20
3531.065552630762
 30
0.0
 50
4.999999999999407
1001
REVIT
1002
{
1070
     1
1000
205465
1002
}
1002
{
1070
     5
1000
47643
1002
}
1002
{
1070
     2
1000
-2002000
1002
}
  0
INSERT
  5
147
330
70
100
AcDbEntity
  8
A-DETL-GENF
100
AcDbBlockReference
  2
rs_fixing nail - nail 20 mm-47643-W-TRSIL-20-H - Deck Balustrade Fixing Detail
 10
855.6278488810253
 20
3538.212542311111
 30
0.0
 50
4.999999999999407
1001
REVIT
1002
{
1070
     1
1000
205467
1002
}
1002
{
1070
     5
1000
47643
1002
}
1002
{
1070
     2
1000
-2002000
1002
}
  0
INSERT
  5
154
330
70
100
AcDbEntity
  8
A-DETL-GENF
100
AcDbBlockReference
  2
rs_fixing nail - nail 20 mm-157062-W-TRSIL-20-H - Deck Balustrade Fixing Detail
 10
873.6839755883746
 20
3493.706606994936
 30
0.0
 50
270.0000000000009
1001
REVIT
1002
{
1070
     1
1000
205491
1002
}
1002
{
1070
     5
1000
47643
1002
}
1002
{
1070
     2
1000
-2002000
1002
}
  0
INSERT
  5
159
330
70
100
AcDbEntity
  8
A-DETL-GENF
100
AcDbBlockReference
  2
rs_building wrap - Building wrap-210299-W-TRSIL-20-H - Deck Balustrade Fixing Detail
 10
867.9334362616684
 20
3178.442841362764
 30
0.0
 50
90.0
1001
REVIT
1002
{
1070
     1
1000
205493
1002
}
1002
{
1070
     5
1000
10675
1002
}
1002
{
1070
     2
1000
-2002000
1002
}
  0
INSERT
  5
170
330
70
100
AcDbEntity
  8
A-DETL-GENF
100
AcDbBlockReference
  2
TRS Interlocking profile - Interlocking 260-113920-W-TRSIL-20-H - Deck Balustrade Fixing Detail
 10
870.4334362616684
 20
2725.405493370677
 30
0.0
 50
270.0
1001
REVIT
1002
{
1070
     1
1000
205494
1002
}
1002
{
1070
     5
1000
113920
1002
}
1002
{
1070
     2
1000
-2002000
1002
}
  0
INSERT
  5
175
330
70
100
AcDbEntity
  8
A-DETL-GENF
100
AcDbBlockReference
  2
rs_building wrap - Building wrap-208308-W-TRSIL-20-H - Deck Balustrade Fixing Detail
 10
735.2496487467931
 20
3358.823827065044
 30
0.0
 50
90.0
1001
REVIT
1002
{
1070
     1
1000
205507
1002
}
1002
{
1070
     5
1000
10675
1002
}
1002
{
1070
     2
1000
-2002000
1002
}
  0
INSERT
  5
17D
330
70
100
AcDbEntity
  8
A-DETL-GENF
100
AcDbBlockReference
  2
FP Timber Nog Packer1 - Variable-205865-W-TRSIL-20-H - Deck Balustrade Fixing Detail
 10
774.9334362616656
 20
3438.739099819232
 30
0.0
 50
269.9999999999998
1001
REVIT
1002
{
1070
     1
1000
205538
1002
}
1002
{
1070
     5
1000
44489
1002
}
1002
{
1070
     2
1000
-2002000
1002
}
  0
INSERT
  5
186
330
70
100
AcDbEntity
  8
A-DETL-GENF
100
AcDbBlockReference
  2
FP Timber Nog Packer1 - Variable-V1-W-TRSIL-20-H - Deck Balustrade Fixing Detail
 10
819.9334362616653
 20
3438.739099819232
 30
0.0
 50
269.9999999999998
1001
REVIT
1002
{
1070
     1
1000
205860
1002
}
1002
{
1070
     5
1000
44489
1002
}
1002
{
1070
     2
1000
-2002000
1002
}
  0
LINE
  5
187
330
70
100
AcDbEntity
  8
A-DETL-THIN
100
AcDbLine
 10
749.9334362616656
 20
3198.739099819232
 30
0.0
 11
364.9334362616654
 21
3198.739099819233
 31
0.0
1001
REVIT
1002
{
1070
     1
1000
206138
1002
}
1002
{
1070
     2
1000
-2000051
1002
}
1002
{
1070
     3
1000
-2000042
1002
}
  0
LINE
  5
188
330
70
100
AcDbEntity
  8
A-DETL-THIN
100
AcDbLine
 10
749.9334362616659
 20
3338.739099819232
 30
0.0
 11
575.9334362616664
 21
3338.739099819232
 31
0.0
1001
REVIT
1002
{
1070
     1
1000
206278
1002
}
1002
{
1070
     2
1000
-2000051
1002
}
1002
{
1070
     3
1000
-2000042
1002
}
  0
LINE
  5
189
330
70
100
AcDbEntity
  8
A-DETL-THIN
100
AcDbLine
 10
485.9334362616659
 20
3338.739099819232
 30
0.0
 11
364.9334362616633
 21
3338.739099819232
 31
0.0
1001
REVIT
1002
{
1070
     1
1000
206278
1002
}
1002
{
1070
     2
1000
-2000051
1002
}
1002
{
1070
     3
1000
-2000042
1002
}
  0
HATCH
  5
19A
330
70
100
AcDbEntity
  8
A-DETL-GENF
100
AcDbHatch
 10
0.0
 20
0.0
 30
0.0
210
0.0
220
0.0
230
1.0
  2
FP_4
 70
     0
 71
     0
 91
        1
 92
        0
 93
       16
 72
     1
 10
925.0334362616687
 20
3217.605452888959
 11
975.0334362616685
 21
3217.605452888959
 72
     1
 10
975.0334362616685
 20
3217.605452888959
 11
975.0334362616685
 21
3743.73909981924
 72
     1
 10
975.0334362616685
 20
3743.73909981924
 11
956.2654907308626
 21
3743.739099819239
 72
     1
 10
956.2654907308626
 20
3743.739099819239
 11
954.3978134348577
 21
3733.146975525493
 72
     1
 10
954.3978134348577
 20
3733.146975525493
 11
950.671825714417
 21
3754.278101944544
 72
     1
 10
950.671825714417
 20
3754.278101944544
 11
948.813515289982
 21
3743.739099819238
 72
     1
 10
948.813515289982
 20
3743.739099819238
 11
925.0334362616692
 21
3743.739099819238
 72
     1
 10
925.0334362616692
 20
3743.739099819238
 11
925.0334362616687
 21
3412.489099819235
 72
     1
 10
925.0334362616687
 20
3412.489099819235
 11
895.0334362616686
 21
3412.489099819235
 72
     1
 10
895.0334362616686
 20
3412.489099819235
 11
895.0334362616686
 21
3362.489099819234
 72
     1
 10
895.0334362616686
 20
3362.489099819234
 11
925.0334362616687
 21
3362.489099819234
 72
     1
 10
925.0334362616687
 20
3362.489099819234
 11
925.0334362616687
 21
3310.489099819235
 72
     1
 10
925.0334362616687
 20
3310.489099819235
 11
895.0334362616683
 21
3310.489099819235
 72
     1
 10
895.0334362616683
 20
3310.489099819235
 11
895.0334362616683
 21
3260.489099819235
 72
     1
 10
895.0334362616683
 20
3260.489099819235
 11
925.0334362616687
 21
3260.489099819235
 72
     1
 10
925.0334362616687
 20
3260.489099819235
 11
925.0334362616687
 21
3217.605452888959
 97
        0
 75
     0
 76
     2
 52
0.0
 41
1.0
 77
     0
 78
     1
 53
45.0
 43
0.0
 44
0.0
 45
-7.071067811865475
 46
7.071067811865475
 79
     0
 98
        1
 10
0.0
 20
0.0
1001
REVIT
1002
{
1070
     1
1000
210817
1002
}
1002
{
1070
     5
1000
219786
1002
}
1002
{
1070
     2
1000
-2002000
1002
}
  0
LINE
  5
19B
330
70
100
AcDbEntity
  8
A-DETL-THIN
100
AcDbLine
 10
925.0334362616678
 20
3412.489099819231
 30
0.0
 11
895.0334362616679
 21
3412.489099819231
 31
0.0
1001
REVIT
1002
{
1070
     1
1000
210817
1002
}
1002
{
1070
     5
1000
219786
1002
}
1002
{
1070
     2
1000
-2000051
1002
}
1002
{
1070
     3
1000
-2000042
1002
}
  0
LINE
  5
19C
330
70
100
AcDbEntity
  8
A-DETL-THIN
100
AcDbLine
 10
895.0334362616679
 20
3412.489099819231
 30
0.0
 11
895.0334362616679
 21
3362.489099819232
 31
0.0
1001
REVIT
1002
{
1070
     1
1000
210817
1002
}
1002
{
1070
     5
1000
219786
1002
}
1002
{
1070
     2
1000
-2000051
1002
}
1002
{
1070
     3
1000
-2000042
1002
}
  0
LINE
  5
19D
330
70
100
AcDbEntity
  8
A-DETL-THIN
100
AcDbLine
 10
895.0334362616679
 20
3362.489099819232
 30
0.0
 11
925.0334362616678
 21
3362.489099819232
 31
0.0
1001
REVIT
1002
{
1070
     1
1000
210817
1002
}
1002
{
1070
     5
1000
219786
1002
}
1002
{
1070
     2
1000
-2000051
1002
}
1002
{
1070
     3
1000
-2000042
1002
}
  0
LINE
  5
19E
330
70
100
AcDbEntity
  8
A-DETL-THIN
100
AcDbLine
 10
925.0334362616678
 20
3362.489099819232
 30
0.0
 11
925.0334362616678
 21
3310.489099819232
 31
0.0
1001
REVIT
1002
{
1070
     1
1000
210817
1002
}
1002
{
1070
     5
1000
219786
1002
}
1002
{
1070
     2
1000
-2000051
1002
}
1002
{
1070
     3
1000
-2000042
1002
}
  0
LINE
  5
19F
330
70
100
AcDbEntity
  8
A-DETL-THIN
100
AcDbLine
 10
925.0334362616678
 20
3310.489099819232
 30
0.0
 11
895.0334362616674
 21
3310.489099819232
 31
0.0
1001
REVIT
1002
{
1070
     1
1000
210817
1002
}
1002
{
1070
     5
1000
219786
1002
}
1002
{
1070
     2
1000
-2000051
1002
}
1002
{
1070
     3
1000
-2000042
1002
}
  0
LINE
  5
1A0
330
70
100
AcDbEntity
  8
A-DETL-THIN
100
AcDbLine
 10
895.0334362616674
 20
3310.489099819232
 30
0.0
 11
895.0334362616674
 21
3260.489099819232
 31
0.0
1001
REVIT
1002
{
1070
     1
1000
210817
1002
}
1002
{
1070
     5
1000
219786
1002
}
1002
{
1070
     2
1000
-2000051
1002
}
1002
{
1070
     3
1000
-2000042
1002
}
  0
LINE
  5
1A1
330
70
100
AcDbEntity
  8
A-DETL-THIN
100
AcDbLine
 10
895.0334362616674
 20
3260.489099819232
 30
0.0
 11
925.0334362616678
 21
3260.489099819232
 31
0.0
1001
REVIT
1002
{
1070
     1
1000
210817
1002
}
1002
{
1070
     5
1000
219786
1002
}
1002
{
1070
     2
1000
-2000051
1002
}
1002
{
1070
     3
1000
-2000042
1002
}
  0
LINE
  5
1A2
330
70
100
AcDbEntity
  8
A-DETL-THIN
100
AcDbLine
 10
925.0334362616678
 20
3260.489099819232
 30
0.0
 11
925.0334362616678
 21
3217.605452888957
 31
0.0
1001
REVIT
1002
{
1070
     1
1000
210817
1002
}
1002
{
1070
     5
1000
219786
1002
}
1002
{
1070
     2
1000
-2000051
1002
}
1002
{
1070
     3
1000
-2000042
1002
}
  0
LINE
  5
1A3
330
70
100
AcDbEntity
  8
A-DETL-THIN
100
AcDbLine
 10
925.0334362616678
 20
3217.605452888957
 30
0.0
 11
975.0334362616678
 21
3217.605452888957
 31
0.0
1001
REVIT
1002
{
1070
     1
1000
210817
1002
}
1002
{
1070
     5
1000
219786
1002
}
1002
{
1070
     2
1000
-2000051
1002
}
1002
{
1070
     3
1000
-2000042
1002
}
  0
LINE
  5
1A4
330
70
100
AcDbEntity
  8
A-DETL-THIN
100
AcDbLine
 10
975.0334362616678
 20
3217.605452888957
 30
0.0
 11
975.0334362616678
 21
3743.739099819237
 31
0.0
1001
REVIT
1002
{
1070
     1
1000
210817
1002
}
1002
{
1070
     5
1000
219786
1002
}
1002
{
1070
     2
1000
-2000051
1002
}
1002
{
1070
     3
1000
-2000042
1002
}
  0
LINE
  5
1A5
330
70
100
AcDbEntity
  8
A-DETL-THIN
100
AcDbLine
 10
925.0334362616683
 20
3743.739099819235
 30
0.0
 11
925.0334362616678
 21
3412.489099819231
 31
0.0
1001
REVIT
1002
{
1070
     1
1000
210817
1002
}
1002
{
1070
     5
1000
219786
1002
}
1002
{
1070
     2
1000
-2000051
1002
}
1002
{
1070
     3
1000
-2000042
1002
}
  0
HATCH
  5
1AD
330
70
100
AcDbEntity
  8
A-DETL-GENF
100
AcDbHatch
 10
0.0
 20
0.0
 30
0.0
210
0.0
220
0.0
230
1.0
  2
FP_2
 70
     0
 71
     0
 91
        1
 92
        0
 93
        7
 72
     1
 10
587.9334362616664
 20
3382.443695605704
 11
587.9334362616664
 21
3401.446589838538
 72
     1
 10
587.9334362616664
 20
3401.446589838538
 11
364.933436261664
 21
3405.339069317531
 72
     1
 10
364.933436261664
 20
3405.339069317531
 11
364.933436261664
 21
3386.336175084696
 72
     1
 10
364.933436261664
 20
3386.336175084696
 11
513.7197785722622
 21
3383.739099819234
 72
     1
 10
513.7197785722622
 20
3383.739099819234
 11
575.9334362616669
 21
3383.739099819234
 72
     1
 10
575.9334362616669
 20
3383.739099819234
 11
575.9334362616669
 21
3382.653156384843
 72
     1
 10
575.9334362616669
 20
3382.653156384843
 11
587.9334362616664
 21
3382.443695605704
 97
        0
 75
     0
 76
     2
 52
0.0
 41
1.0
 77
     0
 78
     3
 53
216.87
 43
8.462999999999999
 44
21.158
 45
63.47512440516132
 46
42.31651339311042
 79
     2
 49
10.579
 49
-95.212
 53
206.565
 43
21.158
 44
14.811
 45
-21.15858852890061
 46
-21.15810351767557
 79
     2
 49
23.656
 49
-23.656
 53
198.435
 43
21.158
 44
4.232
 45
-42.31663206612067
 46
-21.15852139400503
 79
     2
 49
13.382
 49
-53.52599999999999
 98
        1
 10
0.0
 20
0.0
1001
REVIT
1002
{
1070
     1
1000
206416
1002
}
1002
{
1070
     5
1000
108656
1002
}
1002
{
1070
     2
1000
-2002000
1002
}
  0
LINE
  5
1AE
330
70
100
AcDbEntity
  8
A-DETL-THIN
100
AcDbLine
 10
587.9334362616659
 20
3401.446589838535
 30
0.0
 11
364.9334362616623
 21
3405.339069317528
 31
0.0
1001
REVIT
1002
{
1070
     1
1000
206416
1002
}
1002
{
1070
     5
1000
108656
1002
}
1002
{
1070
     2
1000
-2000051
1002
}
1002
{
1070
     3
1000
-2000042
1002
}
  0
LINE
  5
1AF
330
70
100
AcDbEntity
  8
A-DETL-THIN
100
AcDbLine
 10
364.9334362616625
 20
3386.336175084693
 30
0.0
 11
513.7197785722581
 21
3383.73909981923
 31
0.0
1001
REVIT
1002
{
1070
     1
1000
206416
1002
}
1002
{
1070
     5
1000
108656
1002
}
1002
{
1070
     2
1000
-2000051
1002
}
1002
{
1070
     3
1000
-2000042
1002
}
  0
LINE
  5
1B0
330
70
100
AcDbEntity
  8
A-DETL-THIN
100
AcDbLine
 10
575.9334362616664
 20
3382.653156384839
 30
0.0
 11
587.9334362616659
 21
3382.443695605701
 31
0.0
1001
REVIT
1002
{
1070
     1
1000
206416
1002
}
1002
{
1070
     5
1000
108656
1002
}
1002
{
1070
     2
1000
-2000051
1002
}
1002
{
1070
     3
1000
-2000042
1002
}
  0
LINE
  5
1B1
330
70
100
AcDbEntity
  8
A-DETL-THIN
100
AcDbLine
 10
587.9334362616659
 20
3382.443695605701
 30
0.0
 11
587.9334362616659
 21
3401.446589838535
 31
0.0
1001
REVIT
1002
{
1070
     1
1000
206416
1002
}
1002
{
1070
     5
1000
108656
1002
}
1002
{
1070
     2
1000
-2000051
1002
}
1002
{
1070
     3
1000
-2000042
1002
}
  0
INSERT
  5
1BB
330
70
100
AcDbEntity
  8
A-DETL-GENF
100
AcDbBlockReference
  2
FP Timber Nog Packer1 - Variable-86706-W-TRSIL-20-H - Deck Balustrade Fixing Detail
 10
485.9334362616658
 20
3363.73909981923
 30
0.0
1001
REVIT
1002
{
1070
     1
1000
206788
1002
}
1002
{
1070
     5
1000
44489
1002
}
1002
{
1070
     2
1000
-2002000
1002
}
  0
LINE
  5
1BC
330
70
100
AcDbEntity
  8
A-DETL
100
AcDbLine
 10
364.9334362616622
 20
3408.33952630166
 30
0.0
 11
590.9334362616659
 21
3404.394681627882
 31
0.0
1001
REVIT
1002
{
1070
     1
1000
208429
1002
}
1002
{
1070
     2
1000
-2000051
1002
}
1002
{
1070
     3
1000
16198
1002
}
  0
LINE
  5
1BD
330
70
100
AcDbEntity
  8
A-DETL
100
AcDbLine
 10
590.9334362616659
 20
3404.394681627882
 30
0.0
 11
590.9334362616659
 21
3353.739099819231
 31
0.0
1001
REVIT
1002
{
1070
     1
1000
208432
1002
}
1002
{
1070
     2
1000
-2000051
1002
}
1002
{
1070
     3
1000
16198
1002
}
  0
LINE
  5
1BE
330
70
100
AcDbEntity
  8
A-DETL
100
AcDbLine
 10
590.9334362616659
 20
3353.739099819231
 30
0.0
 11
732.495936261666
 21
3353.739099819231
 31
0.0
1001
REVIT
1002
{
1070
     1
1000
208435
1002
}
1002
{
1070
     2
1000
-2000051
1002
}
1002
{
1070
     3
1000
16198
1002
}
  0
LINE
  5
1BF
330
70
100
AcDbEntity
  8
A-DETL
100
AcDbLine
 10
732.495936261666
 20
3478.739099819232
 30
0.0
 11
732.495936261666
 21
3353.739099819231
 31
0.0
1001
REVIT
1002
{
1070
     1
1000
208438
1002
}
1002
{
1070
     2
1000
-2000051
1002
}
1002
{
1070
     3
1000
16198
1002
}
  0
INSERT
  5
1C8
330
70
100
AcDbEntity
  8
A-DETL-GENF
100
AcDbBlockReference
  2
breakline with fill detail1to5 - breakline with fill detail1to5-205520-W-TRSIL-20-H - Deck Balustrade Fixing Detail
 10
364.9334362616638
 20
3303.739099819233
 30
0.0
 50
270.0000000000009
1001
REVIT
1002
{
1070
     1
1000
208348
1002
}
1002
{
1070
     5
1000
10664
1002
}
1002
{
1070
     2
1000
-2002000
1002
}
  0
LINE
  5
1CA
330
70
100
AcDbEntity
  8
A-DETL-MEDM
100
AcDbLine
 10
895.0334362616681
 20
3175.710285182063
 30
0.0
 11
895.0334362616681
 21
3223.68730732089
 31
0.0
1001
REVIT
1002
{
1070
     1
1000
209601
1002
}
1002
{
1070
     2
1000
-2000051
1002
}
1002
{
1070
     3
1000
-2000043
1002
}
  0
ARC
  5
1CB
330
70
100
AcDbEntity
  8
A-DETL-MEDM
100
AcDbCircle
 10
893.5334362616682
 20
3223.68730732089
 30
0.0
 40
1.5
100
AcDbArc
 50
0.0
 51
90.0
1001
REVIT
1002
{
1070
     1
1000
209602
1002
}
1002
{
1070
     2
1000
-2000051
1002
}
1002
{
1070
     3
1000
-2000043
1002
}
  0
LINE
  5
1CC
330
70
100
AcDbEntity
  8
A-DETL-MEDM
100
AcDbLine
 10
893.5334362616682
 20
3225.18730732089
 30
0.0
 11
876.5456913190284
 21
3225.18730732089
 31
0.0
1001
REVIT
1002
{
1070
     1
1000
209603
1002
}
1002
{
1070
     2
1000
-2000051
1002
}
1002
{
1070
     3
1000
-2000043
1002
}
  0
ARC
  5
1CD
330
70
100
AcDbEntity
  8
A-DETL-MEDM
100
AcDbCircle
 10
876.5456913190284
 20
3223.67505226353
 30
0.0
 40
1.512255057360221
100
AcDbArc
 50
90.0
 51
180.0
1001
REVIT
1002
{
1070
     1
1000
209604
1002
}
1002
{
1070
     2
1000
-2000051
1002
}
1002
{
1070
     3
1000
-2000043
1002
}
  0
LINE
  5
1CE
330
70
100
AcDbEntity
  8
A-DETL-MEDM
100
AcDbLine
 10
875.0334362616682
 20
3223.67505226353
 30
0.0
 11
875.0334362616682
 21
3186.243795418477
 31
0.0
1001
REVIT
1002
{
1070
     1
1000
209605
1002
}
1002
{
1070
     2
1000
-2000051
1002
}
1002
{
1070
     3
1000
-2000043
1002
}
  0
ARC
  5
1CF
330
70
100
AcDbEntity
  8
A-DETL-MEDM
100
AcDbCircle
 10
873.9334362616682
 20
3186.243795418477
 30
0.0
 40
1.100000000000022
100
AcDbArc
 50
180.0
 51
0.0
1001
REVIT
1002
{
1070
     1
1000
209606
1002
}
1002
{
1070
     2
1000
-2000051
1002
}
1002
{
1070
     3
1000
-2000043
1002
}
  0
LINE
  5
1D0
330
70
100
AcDbEntity
  8
A-DETL-MEDM
100
AcDbLine
 10
872.8334362616681
 20
3186.243795418477
 30
0.0
 11
872.8334362616683
 21
3233.405493370677
 31
0.0
1001
REVIT
1002
{
1070
     1
1000
209607
1002
}
1002
{
1070
     2
1000
-2000051
1002
}
1002
{
1070
     3
1000
-2000043
1002
}
  0
LINE
  5
1D1
330
70
100
AcDbEntity
  8
A-DETL-MEDM
100
AcDbLine
 10
872.8334362616683
 20
3233.405493370677
 30
0.0
 11
870.446547436029
 21
3253.296233584338
 31
0.0
1001
REVIT
1002
{
1070
     1
1000
209608
1002
}
1002
{
1070
     2
1000
-2000051
1002
}
1002
{
1070
     3
1000
-2000043
1002
}
  0
LINE
  5
1D2
330
70
100
AcDbEntity
  8
A-DETL-MEDM
100
AcDbLine
 10
870.4334362616684
 20
3264.235483584334
 30
0.0
 11
870.4334362616684
 21
3273.405493370677
 31
0.0
1001
REVIT
1002
{
1070
     1
1000
209609
1002
}
1002
{
1070
     2
1000
-2000051
1002
}
1002
{
1070
     3
1000
-2000043
1002
}
  0
LINE
  5
1D3
330
70
100
AcDbEntity
  8
A-DETL-MEDM
100
AcDbLine
 10
893.0622508988358
 20
3173.739099819231
 30
0.0
 11
842.2169084728695
 21
3173.739099819231
 31
0.0
1001
REVIT
1002
{
1070
     1
1000
210132
1002
}
1002
{
1070
     2
1000
-2000051
1002
}
1002
{
1070
     3
1000
-2000043
1002
}
  0
LINE
  5
1D4
330
70
100
AcDbEntity
  8
A-DETL-MEDM
100
AcDbLine
 10
840.033436261668
 20
3175.922572030432
 30
0.0
 11
840.033436261668
 21
3194.386887768408
 31
0.0
1001
REVIT
1002
{
1070
     1
1000
210179
1002
}
1002
{
1070
     2
1000
-2000051
1002
}
1002
{
1070
     3
1000
-2000043
1002
}
  0
ARC
  5
1D5
330
70
100
AcDbEntity
  8
A-DETL-MEDM
100
AcDbCircle
 10
893.0622508988358
 20
3175.710285182063
 30
0.0
 40
1.971185362832102
100
AcDbArc
 50
269.9999999999997
 51
0.0
1001
REVIT
1002
{
1070
     1
1000
210231
1002
}
1002
{
1070
     2
1000
-2000051
1002
}
1002
{
1070
     3
1000
-2000043
1002
}
  0
ARC
  5
1D6
330
70
100
AcDbEntity
  8
A-DETL-MEDM
100
AcDbCircle
 10
842.2169084728695
 20
3175.922572030432
 30
0.0
 40
2.183472211201433
100
AcDbArc
 50
180.0
 51
269.9999999999997
1001
REVIT
1002
{
1070
     1
1000
210235
1002
}
1002
{
1070
     2
1000
-2000051
1002
}
1002
{
1070
     3
1000
-2000043
1002
}
  0
LINE
  5
1D7
330
70
100
AcDbEntity
  8
A-DETL-MEDM
100
AcDbLine
 10
840.033436261668
 20
3194.386887768408
 30
0.0
 11
811.4730868456817
 21
3194.386887768408
 31
0.0
1001
REVIT
1002
{
1070
     1
1000
210506
1002
}
1002
{
1070
     2
1000
-2000051
1002
}
1002
{
1070
     3
1000
-2000043
1002
}
  0
LINE
  5
1D8
330
70
100
AcDbEntity
  8
A-DETL-MEDM
100
AcDbLine
 10
811.4730868456817
 20
3196.761887768408
 30
0.0
 11
830.0334362616681
 21
3196.761887768408
 31
0.0
1001
REVIT
1002
{
1070
     1
1000
210571
1002
}
1002
{
1070
     2
1000
-2000051
1002
}
1002
{
1070
     3
1000
-2000043
1002
}
  0
ARC
  5
1D9
330
70
100
AcDbEntity
  8
A-DETL-MEDM
100
AcDbCircle
 10
811.4730868456817
 20
3195.574387768408
 30
0.0
 40
1.1875
100
AcDbArc
 50
90.0
 51
269.9999999999997
1001
REVIT
1002
{
1070
     1
1000
210597
1002
}
1002
{
1070
     2
1000
-2000051
1002
}
1002
{
1070
     3
1000
-2000043
1002
}
  0
LINE
  5
1DA
330
70
100
AcDbEntity
  8
A-DETL-THIN
100
AcDbLine
 10
925.0334362616678
 20
3260.489099819232
 30
0.0
 11
925.033436261668
 21
3310.489099819232
 31
0.0
1001
REVIT
1002
{
1070
     1
1000
211790
1002
}
1002
{
1070
     2
1000
-2000051
1002
}
1002
{
1070
     3
1000
-2000042
1002
}
  0
LINE
  5
1DB
330
70
100
AcDbEntity
  8
A-DETL-THIN
100
AcDbLine
 10
925.0334362616678
 20
3362.489099819232
 30
0.0
 11
925.033436261668
 21
3412.489099819231
 31
0.0
1001
REVIT
1002
{
1070
     1
1000
211878
1002
}
1002
{
1070
     2
1000
-2000051
1002
}
1002
{
1070
     3
1000
-2000042
1002
}
  0
INSERT
  5
1E4
330
70
100
AcDbEntity
  8
A-DETL-GENF
100
AcDbBlockReference
  2
breakline with fill detail1to5 - breakline with fill detail1to5-212168-W-TRSIL-20-H - Deck Balustrade Fixing Detail
 10
952.5301361388514
 20
3743.739099819237
 30
0.0
 50
180.0
1001
REVIT
1002
{
1070
     1
1000
211964
1002
}
1002
{
1070
     5
1000
10664
1002
}
1002
{
1070
     2
1000
-2002000
1002
}
  0
INSERT
  5
279
330
70
100
AcDbEntity
  8
A-DETL-GENF
100
AcDbBlockReference
  2
FP Fixing Coach Screw side - M12-215523-W-TRSIL-20-H - Deck Balustrade Fixing Detail
 10
975.0334362616678
 20
3387.48909981923
 30
0.0
 50
269.9999999999998
1001
REVIT
1002
{
1070
     1
1000
215174
1002
}
1002
{
1070
     5
1000
215162
1002
}
1002
{
1070
     2
1000
-2002000
1002
}
  0
INSERT
  5
27A
330
70
100
AcDbEntity
  8
A-DETL-GENF
100
AcDbBlockReference
  2
FP Fixing Coach Screw side - M12-215523-W-TRSIL-20-H - Deck Balustrade Fixing Detail
 10
975.0334362616676
 20
3285.48909981923
 30
0.0
 50
269.9999999999998
1001
REVIT
1002
{
1070
     1
1000
215713
1002
}
1002
{
1070
     5
1000
215162
1002
}
1002
{
1070
     2
1000
-2002000
1002
}
  0
INSERT
  5
2B0
330
70
100
AcDbEntity
  8
A-DETL-GENF
100
AcDbBlockReference
  2
Hex head timberfix screw - Hex head timberfix screw-99997-W-TRSIL-20-H - Deck Balustrade Fixing Detail
 10
870.4334362616684
 20
3258.765858584336
 30
0.0
 50
270.0000000000004
1001
REVIT
1002
{
1070
     1
1000
205515
1002
}
1002
{
1070
     5
1000
98793
1002
}
1002
{
1070
     2
1000
-2002000
1002
}
  0
HATCH
  5
2B5
330
70
100
AcDbEntity
  8
A-DETL-GENF
100
AcDbHatch
 10
0.0
 20
0.0
 30
0.0
210
0.0
220
0.0
230
1.0
  2
FP_2
 70
     0
 71
     0
 91
        1
 92
        0
 93
        4
 72
     1
 10
749.9334362616669
 20
3350.739099819235
 11
749.9334362616669
 21
3521.924948684741
 72
     1
 10
749.9334362616669
 20
3521.924948684741
 11
737.9334362616669
 21
3521.924948684741
 72
     1
 10
737.9334362616669
 20
3521.924948684741
 11
737.9334362616669
 21
3350.739099819235
 72
     1
 10
737.9334362616669
 20
3350.739099819235
 11
749.9334362616669
 21
3350.739099819235
 97
        0
 75
     0
 76
     2
 52
0.0
 41
1.0
 77
     0
 78
     3
 53
216.87
 43
8.462999999999999
 44
21.158
 45
63.47512440516132
 46
42.31651339311042
 79
     2
 49
10.579
 49
-95.212
 53
206.565
 43
21.158
 44
14.811
 45
-21.15858852890061
 46
-21.15810351767557
 79
     2
 49
23.656
 49
-23.656
 53
198.435
 43
21.158
 44
4.232
 45
-42.31663206612067
 46
-21.15852139400503
 79
     2
 49
13.382
 49
-53.52599999999999
 98
        1
 10
0.0
 20
0.0
1001
REVIT
1002
{
1070
     1
1000
205965
1002
}
1002
{
1070
     5
1000
108656
1002
}
1002
{
1070
     2
1000
-2002000
1002
}
  0
LINE
  5
2B6
330
70
100
AcDbEntity
  8
A-DETL-THIN
100
AcDbLine
 10
737.9334362616662
 20
3350.739099819231
 30
0.0
 11
749.9334362616662
 21
3350.739099819231
 31
0.0
1001
REVIT
1002
{
1070
     1
1000
205965
1002
}
1002
{
1070
     5
1000
108656
1002
}
1002
{
1070
     2
1000
-2000051
1002
}
1002
{
1070
     3
1000
-2000042
1002
}
  0
LINE
  5
2B7
330
70
100
AcDbEntity
  8
A-DETL-THIN
100
AcDbLine
 10
749.9334362616662
 20
3350.739099819231
 30
0.0
 11
749.9334362616662
 21
3438.739099819231
 31
0.0
1001
REVIT
1002
{
1070
     1
1000
205965
1002
}
1002
{
1070
     5
1000
108656
1002
}
1002
{
1070
     2
1000
-2000051
1002
}
1002
{
1070
     3
1000
-2000042
1002
}
  0
LINE
  5
2B8
330
70
100
AcDbEntity
  8
A-DETL-THIN
100
AcDbLine
 10
749.9334362616662
 20
3458.084804055569
 30
0.0
 11
749.9334362616662
 21
3521.924948684738
 31
0.0
1001
REVIT
1002
{
1070
     1
1000
205965
1002
}
1002
{
1070
     5
1000
108656
1002
}
1002
{
1070
     2
1000
-2000051
1002
}
1002
{
1070
     3
1000
-2000042
1002
}
  0
LINE
  5
2B9
330
70
100
AcDbEntity
  8
A-DETL-THIN
100
AcDbLine
 10
749.9334362616662
 20
3521.924948684738
 30
0.0
 11
737.9334362616662
 21
3521.924948684738
 31
0.0
1001
REVIT
1002
{
1070
     1
1000
205965
1002
}
1002
{
1070
     5
1000
108656
1002
}
1002
{
1070
     2
1000
-2000051
1002
}
1002
{
1070
     3
1000
-2000042
1002
}
  0
LINE
  5
2BA
330
70
100
AcDbEntity
  8
A-DETL-THIN
100
AcDbLine
 10
737.9334362616662
 20
3521.924948684738
 30
0.0
 11
737.9334362616662
 21
3350.739099819231
 31
0.0
1001
REVIT
1002
{
1070
     1
1000
205965
1002
}
1002
{
1070
     5
1000
108656
1002
}
1002
{
1070
     2
1000
-2000051
1002
}
1002
{
1070
     3
1000
-2000042
1002
}
  0
INSERT
  5
2C4
330
70
100
AcDbEntity
  8
A-DETL-GENF
100
AcDbBlockReference
  2
FP Timber Nog Packer1 - Variable-216805-W-TRSIL-20-H - Deck Balustrade Fixing Detail
 10
749.933436261667
 20
3463.739099819231
 30
0.0
1001
REVIT
1002
{
1070
     1
1000
216636
1002
}
1002
{
1070
     5
1000
44489
1002
}
1002
{
1070
     2
1000
-2002000
1002
}
  0
LINE
  5
2C6
330
70
100
AcDbEntity
  8
G-ANNO-TEXT
100
AcDbLine
 10
904.8188698061675
 20
3520.734524109752
 30
0.0
 11
919.8188698061676
 21
3518.759736645941
 31
0.0
1001
REVIT
1002
{
1070
     1
1000
205479
1002
}
1002
{
1070
     5
1000
16489
1002
}
1002
{
1070
     2
1000
-2000300
1002
}
  0
LINE
  5
2C7
330
70
100
AcDbEntity
  8
G-ANNO-TEXT
100
AcDbLine
 10
919.8188698061676
 20
3518.759736645941
 30
0.0
 11
919.8188698061676
 21
3522.709311573563
 31
0.0
1001
REVIT
1002
{
1070
     1
1000
205479
1002
}
1002
{
1070
     5
1000
16489
1002
}
1002
{
1070
     2
1000
-2000300
1002
}
  0
LINE
  5
2C8
330
70
100
AcDbEntity
  8
G-ANNO-TEXT
100
AcDbLine
 10
919.8188698061676
 20
3522.709311573563
 30
0.0
 11
904.8188698061675
 21
3520.734524109752
 31
0.0
1001
REVIT
1002
{
1070
     1
1000
205479
1002
}
1002
{
1070
     5
1000
16489
1002
}
1002
{
1070
     2
1000
-2000300
1002
}
  0
HATCH
  5
2C9
330
70
100
AcDbEntity
  8
G-ANNO-TEXT
100
AcDbHatch
 10
0.0
 20
0.0
 30
0.0
210
0.0
220
0.0
230
1.0
  2
SOLID
 70
     1
 71
     0
 91
        1
 92
        0
 93
        3
 72
     1
 10
904.8188698061675
 20
3520.734524109752
 11
919.8188698061676
 21
3518.759736645941
 72
     1
 10
919.8188698061676
 20
3518.759736645941
 11
919.8188698061676
 21
3522.709311573563
 72
     1
 10
919.8188698061676
 20
3522.709311573563
 11
904.8188698061675
 21
3520.734524109752
 97
        0
 75
     0
 76
     1
 98
        1
 10
0.0
 20
0.0
450
        0
451
        0
460
0.0
461
0.0
452
        0
462
0.0
453
        0
470

1001
REVIT
1002
{
1070
     1
1000
205479
1002
}
1002
{
1070
     5
1000
16489
1002
}
1002
{
1070
     2
1000
-2000300
1002
}
  0
LINE
  5
2CA
330
70
100
AcDbEntity
  8
G-ANNO-TEXT
100
AcDbLine
 10
904.8188698061675
 20
3520.734524109752
 30
0.0
 11
1020.684564889413
 21
3520.734524109751
 31
0.0
1001
REVIT
1002
{
1070
     1
1000
205479
1002
}
1002
{
1070
     5
1000
16489
1002
}
1002
{
1070
     2
1000
-2000300
1002
}
  0
MTEXT
  5
2CC
330
70
100
AcDbEntity
  8
G-ANNO-TEXT
100
AcDbMText
 10
1025.684564889413
 20
3526.984524109752
 30
0.0
 40
12.5
 41
227.27840625
 46
0.0
 71
     1
 72
     1
  1
Parapet metal underclip
  7
Century Gothic
 73
     2
 44
1.0
1001
REVIT
1002
{
1070
     1
1000
205479
1002
}
1002
{
1070
     5
1000
16489
1002
}
1002
{
1070
     2
1000
-2000300
1002
}
  0
LINE
  5
2CD
330
70
100
AcDbEntity
  8
G-ANNO-TEXT
100
AcDbLine
 10
693.3368799578848
 20
3624.466287665359
 30
0.0
 11
693.0518799578849
 21
3624.466287665359
 31
0.0
1001
REVIT
1002
{
1070
     1
1000
205480
1002
}
1002
{
1070
     5
1000
16489
1002
}
1002
{
1070
     2
1000
-2000300
1002
}
  0
LINE
  5
2CE
330
70
100
AcDbEntity
  8
G-ANNO-TEXT
100
AcDbLine
 10
752.8438997259626
 20
3529.454024060212
 30
0.0
 11
748.4724245560348
 21
3543.938152973126
 31
0.0
1001
REVIT
1002
{
1070
     1
1000
205480
1002
}
1002
{
1070
     5
1000
16489
1002
}
1002
{
1070
     2
1000
-2000300
1002
}
  0
LINE
  5
2CF
330
70
100
AcDbEntity
  8
G-ANNO-TEXT
100
AcDbLine
 10
748.4724245560348
 20
3543.938152973126
 30
0.0
 11
744.8726105459655
 21
3542.313197219326
 31
0.0
1001
REVIT
1002
{
1070
     1
1000
205480
1002
}
1002
{
1070
     5
1000
16489
1002
}
1002
{
1070
     2
1000
-2000300
1002
}
  0
LINE
  5
2D0
330
70
100
AcDbEntity
  8
G-ANNO-TEXT
100
AcDbLine
 10
744.8726105459655
 20
3542.313197219326
 30
0.0
 11
752.8438997259626
 21
3529.454024060212
 31
0.0
1001
REVIT
1002
{
1070
     1
1000
205480
1002
}
1002
{
1070
     5
1000
16489
1002
}
1002
{
1070
     2
1000
-2000300
1002
}
  0
HATCH
  5
2D1
330
70
100
AcDbEntity
  8
G-ANNO-TEXT
100
AcDbHatch
 10
0.0
 20
0.0
 30
0.0
210
0.0
220
0.0
230
1.0
  2
SOLID
 70
     1
 71
     0
 91
        1
 92
        0
 93
        3
 72
     1
 10
752.8438997259626
 20
3529.454024060212
 11
748.4724245560348
 21
3543.938152973126
 72
     1
 10
748.4724245560348
 20
3543.938152973126
 11
744.8726105459655
 21
3542.313197219326
 72
     1
 10
744.8726105459655
 20
3542.313197219326
 11
752.8438997259626
 21
3529.454024060212
 97
        0
 75
     0
 76
     1
 98
        1
 10
0.0
 20
0.0
450
        0
451
        0
460
0.0
461
0.0
452
        0
462
0.0
453
        0
470

1001
REVIT
1002
{
1070
     1
1000
205480
1002
}
1002
{
1070
     5
1000
16489
1002
}
1002
{
1070
     2
1000
-2000300
1002
}
  0
LINE
  5
2D2
330
70
100
AcDbEntity
  8
G-ANNO-TEXT
100
AcDbLine
 10
709.9553715978654
 20
3624.466287665359
 30
0.0
 11
693.3368799578848
 21
3624.466287665359
 31
0.0
1001
REVIT
1002
{
1070
     1
1000
205480
1002
}
1002
{
1070
     5
1000
16489
1002
}
1002
{
1070
     2
1000
-2000300
1002
}
  0
LINE
  5
2D3
330
70
100
AcDbEntity
  8
G-ANNO-TEXT
100
AcDbLine
 10
752.8438997259626
 20
3529.454024060212
 30
0.0
 11
709.9553715978654
 21
3624.466287665359
 31
0.0
1001
REVIT
1002
{
1070
     1
1000
205480
1002
}
1002
{
1070
     5
1000
16489
1002
}
1002
{
1070
     2
1000
-2000300
1002
}
  0
MTEXT
  5
2D4
330
70
100
AcDbEntity
  8
G-ANNO-TEXT
100
AcDbMText
 10
507.0768799578848
 20
3630.71628766536
 30
0.0
 40
12.5
 41
219.3417
 46
0.0
 71
     1
 72
     1
  1
Parapet metal capping
  7
Century Gothic
 73
     2
 44
1.0
1001
REVIT
1002
{
1070
     1
1000
205480
1002
}
1002
{
1070
     5
1000
16489
1002
}
1002
{
1070
     2
1000
-2000300
1002
}
  0
LINE
  5
2D5
330
70
100
AcDbEntity
  8
G-ANNO-TEXT
100
AcDbLine
 10
791.2226274786624
 20
3553.794362650194
 30
0.0
 11
806.3445457128343
 21
3553.317524683745
 31
0.0
1001
REVIT
1002
{
1070
     1
1000
205481
1002
}
1002
{
1070
     5
1000
16489
1002
}
1002
{
1070
     2
1000
-2000300
1002
}
  0
LINE
  5
2D6
330
70
100
AcDbEntity
  8
G-ANNO-TEXT
100
AcDbLine
 10
806.3445457128343
 20
3553.317524683745
 30
0.0
 11
805.9526935912257
 21
3557.247612980932
 31
0.0
1001
REVIT
1002
{
1070
     1
1000
205481
1002
}
1002
{
1070
     5
1000
16489
1002
}
1002
{
1070
     2
1000
-2000300
1002
}
  0
LINE
  5
2D7
330
70
100
AcDbEntity
  8
G-ANNO-TEXT
100
AcDbLine
 10
805.9526935912257
 20
3557.247612980932
 30
0.0
 11
791.2226274786624
 21
3553.794362650194
 31
0.0
1001
REVIT
1002
{
1070
     1
1000
205481
1002
}
1002
{
1070
     5
1000
16489
1002
}
1002
{
1070
     2
1000
-2000300
1002
}
  0
HATCH
  5
2D8
330
70
100
AcDbEntity
  8
G-ANNO-TEXT
100
AcDbHatch
 10
0.0
 20
0.0
 30
0.0
210
0.0
220
0.0
230
1.0
  2
SOLID
 70
     1
 71
     0
 91
        1
 92
        0
 93
        3
 72
     1
 10
791.2226274786624
 20
3553.794362650194
 11
806.3445457128343
 21
3553.317524683745
 72
     1
 10
806.3445457128343
 20
3553.317524683745
 11
805.9526935912257
 21
3557.247612980932
 72
     1
 10
805.9526935912257
 20
3557.247612980932
 11
791.2226274786624
 21
3553.794362650194
 97
        0
 75
     0
 76
     1
 98
        1
 10
0.0
 20
0.0
450
        0
451
        0
460
0.0
461
0.0
452
        0
462
0.0
453
        0
470

1001
REVIT
1002
{
1070
     1
1000
205481
1002
}
1002
{
1070
     5
1000
16489
1002
}
1002
{
1070
     2
1000
-2000300
1002
}
  0
LINE
  5
2D9
330
70
100
AcDbEntity
  8
G-ANNO-TEXT
100
AcDbLine
 10
791.2226274786624
 20
3553.794362650194
 30
0.0
 11
822.1515603328525
 21
3556.878152896505
 31
0.0
1001
REVIT
1002
{
1070
     1
1000
205481
1002
}
1002
{
1070
     5
1000
16489
1002
}
1002
{
1070
     2
1000
-2000300
1002
}
  0
MTEXT
  5
2DA
330
70
100
AcDbEntity
  8
G-ANNO-TEXT
100
AcDbMText
 10
826.5068051480813
 20
3563.593385029456
 30
0.0
 40
12.5
 41
95.24047499999999
 46
0.0
 71
     1
 72
     1
  1
5° fall min.
  7
Century Gothic
 11
0.9950661448911603
 21
0.099213745476342
 31
0.0
 73
     2
 44
1.0
1001
REVIT
1002
{
1070
     1
1000
205481
1002
}
1002
{
1070
     5
1000
16489
1002
}
1002
{
1070
     2
1000
-2000300
1002
}
  0
LINE
  5
2DB
330
70
100
AcDbEntity
  8
G-ANNO-TEXT
100
AcDbLine
 10
854.0269675566262
 20
3200.894874293087
 30
0.0
 11
868.6876719592305
 21
3197.158093332597
 31
0.0
1001
REVIT
1002
{
1070
     1
1000
205483
1002
}
1002
{
1070
     5
1000
16489
1002
}
1002
{
1070
     2
1000
-2000300
1002
}
  0
LINE
  5
2DC
330
70
100
AcDbEntity
  8
G-ANNO-TEXT
100
AcDbLine
 10
868.6876719592305
 20
3197.158093332597
 30
0.0
 11
869.1552706506429
 21
3201.079890570176
 31
0.0
1001
REVIT
1002
{
1070
     1
1000
205483
1002
}
1002
{
1070
     5
1000
16489
1002
}
1002
{
1070
     2
1000
-2000300
1002
}
  0
LINE
  5
2DD
330
70
100
AcDbEntity
  8
G-ANNO-TEXT
100
AcDbLine
 10
869.1552706506429
 20
3201.079890570176
 30
0.0
 11
854.0269675566262
 21
3200.894874293087
 31
0.0
1001
REVIT
1002
{
1070
     1
1000
205483
1002
}
1002
{
1070
     5
1000
16489
1002
}
1002
{
1070
     2
1000
-2000300
1002
}
  0
HATCH
  5
2DE
330
70
100
AcDbEntity
  8
G-ANNO-TEXT
100
AcDbHatch
 10
0.0
 20
0.0
 30
0.0
210
0.0
220
0.0
230
1.0
  2
SOLID
 70
     1
 71
     0
 91
        1
 92
        0
 93
        3
 72
     1
 10
854.0269675566262
 20
3200.894874293087
 11
868.6876719592305
 21
3197.158093332597
 72
     1
 10
868.6876719592305
 20
3197.158093332597
 11
869.1552706506429
 21
3201.079890570176
 72
     1
 10
869.1552706506429
 20
3201.079890570176
 11
854.0269675566262
 21
3200.894874293087
 97
        0
 75
     0
 76
     1
 98
        1
 10
0.0
 20
0.0
450
        0
451
        0
460
0.0
461
0.0
452
        0
462
0.0
453
        0
470

1001
REVIT
1002
{
1070
     1
1000
205483
1002
}
1002
{
1070
     5
1000
16489
1002
}
1002
{
1070
     2
1000
-2000300
1002
}
  0
LINE
  5
2DF
330
70
100
AcDbEntity
  8
G-ANNO-TEXT
100
AcDbLine
 10
961.2110945414613
 20
3188.115234122492
 30
0.0
 11
1020.684564889413
 21
3188.115234122492
 31
0.0
1001
REVIT
1002
{
1070
     1
1000
205483
1002
}
1002
{
1070
     5
1000
16489
1002
}
1002
{
1070
     2
1000
-2000300
1002
}
  0
LINE
  5
2E0
330
70
100
AcDbEntity
  8
G-ANNO-TEXT
100
AcDbLine
 10
854.0269675566262
 20
3200.894874293087
 30
0.0
 11
961.2110945414613
 21
3188.115234122492
 31
0.0
1001
REVIT
1002
{
1070
     1
1000
205483
1002
}
1002
{
1070
     5
1000
16489
1002
}
1002
{
1070
     2
1000
-2000300
1002
}
  0
MTEXT
  5
2E1
330
70
100
AcDbEntity
  8
G-ANNO-TEXT
100
AcDbMText
 10
1025.684564889413
 20
3194.365234122491
 30
0.0
 40
12.5
 41
289.689778125
 46
0.0
 71
     1
 72
     1
  1
Vertical support cavity battens 
  7
Century Gothic
 73
     2
 44
1.0
1001
REVIT
1002
{
1070
     1
1000
205483
1002
}
1002
{
1070
     5
1000
16489
1002
}
1002
{
1070
     2
1000
-2000300
1002
}
  0
MTEXT
  5
2E2
330
70
100
AcDbEntity
  8
G-ANNO-TEXT
100
AcDbMText
 10
1025.684564889413
 20
3173.529296622491
 30
0.0
 40
12.5
 41
181.461965625
 46
0.0
 71
     1
 72
     1
  1
@ 1100mm crs max.
  7
Century Gothic
 73
     2
 44
1.0
1001
REVIT
1002
{
1070
     1
1000
205483
1002
}
1002
{
1070
     5
1000
16489
1002
}
1002
{
1070
     2
1000
-2000300
1002
}
  0
LINE
  5
2E3
330
70
100
AcDbEntity
  8
G-ANNO-TEXT
100
AcDbLine
 10
842.8053073683912
 20
3247.459348161485
 30
0.0
 11
857.8053073683912
 21
3245.484560697674
 31
0.0
1001
REVIT
1002
{
1070
     1
1000
205484
1002
}
1002
{
1070
     5
1000
16489
1002
}
1002
{
1070
     2
1000
-2000300
1002
}
  0
LINE
  5
2E4
330
70
100
AcDbEntity
  8
G-ANNO-TEXT
100
AcDbLine
 10
857.8053073683912
 20
3245.484560697674
 30
0.0
 11
857.8053073683912
 21
3249.434135625296
 31
0.0
1001
REVIT
1002
{
1070
     1
1000
205484
1002
}
1002
{
1070
     5
1000
16489
1002
}
1002
{
1070
     2
1000
-2000300
1002
}
  0
LINE
  5
2E5
330
70
100
AcDbEntity
  8
G-ANNO-TEXT
100
AcDbLine
 10
857.8053073683912
 20
3249.434135625296
 30
0.0
 11
842.8053073683912
 21
3247.459348161485
 31
0.0
1001
REVIT
1002
{
1070
     1
1000
205484
1002
}
1002
{
1070
     5
1000
16489
1002
}
1002
{
1070
     2
1000
-2000300
1002
}
  0
HATCH
  5
2E6
330
70
100
AcDbEntity
  8
G-ANNO-TEXT
100
AcDbHatch
 10
0.0
 20
0.0
 30
0.0
210
0.0
220
0.0
230
1.0
  2
SOLID
 70
     1
 71
     0
 91
        1
 92
        0
 93
        3
 72
     1
 10
842.8053073683912
 20
3247.459348161485
 11
857.8053073683912
 21
3245.484560697674
 72
     1
 10
857.8053073683912
 20
3245.484560697674
 11
857.8053073683912
 21
3249.434135625296
 72
     1
 10
857.8053073683912
 20
3249.434135625296
 11
842.8053073683912
 21
3247.459348161485
 97
        0
 75
     0
 76
     1
 98
        1
 10
0.0
 20
0.0
450
        0
451
        0
460
0.0
461
0.0
452
        0
462
0.0
453
        0
470

1001
REVIT
1002
{
1070
     1
1000
205484
1002
}
1002
{
1070
     5
1000
16489
1002
}
1002
{
1070
     2
1000
-2000300
1002
}
  0
LINE
  5
2E7
330
70
100
AcDbEntity
  8
G-ANNO-TEXT
100
AcDbLine
 10
842.8053073683912
 20
3247.459348161485
 30
0.0
 11
1020.684564889413
 21
3247.459348161484
 31
0.0
1001
REVIT
1002
{
1070
     1
1000
205484
1002
}
1002
{
1070
     5
1000
16489
1002
}
1002
{
1070
     2
1000
-2000300
1002
}
  0
MTEXT
  5
2E8
330
70
100
AcDbEntity
  8
G-ANNO-TEXT
100
AcDbMText
 10
1025.684564889413
 20
3253.709348161484
 30
0.0
 40
12.5
 41
126.26578125
 46
0.0
 71
     1
 72
     1
  1
Wall underlay
  7
Century Gothic
 73
     2
 44
1.0
1001
REVIT
1002
{
1070
     1
1000
205484
1002
}
1002
{
1070
     5
1000
16489
1002
}
1002
{
1070
     2
1000
-2000300
1002
}
  0
LINE
  5
2E9
330
70
100
AcDbEntity
  8
G-ANNO-TEXT
100
AcDbLine
 10
679.5965711202835
 20
3690.891097373891
 30
0.0
 11
678.169067457885
 21
3690.891097373891
 31
0.0
1001
REVIT
1002
{
1070
     1
1000
205488
1002
}
1002
{
1070
     5
1000
16489
1002
}
1002
{
1070
     2
1000
-2000300
1002
}
  0
LINE
  5
2EA
330
70
100
AcDbEntity
  8
G-ANNO-TEXT
100
AcDbLine
 10
796.1516246302985
 20
3529.517965655581
 30
0.0
 11
791.2791834561169
 21
3543.841341742641
 31
0.0
1001
REVIT
1002
{
1070
     1
1000
205488
1002
}
1002
{
1070
     5
1000
16489
1002
}
1002
{
1070
     2
1000
-2000300
1002
}
  0
LINE
  5
2EB
330
70
100
AcDbEntity
  8
G-ANNO-TEXT
100
AcDbLine
 10
791.2791834561169
 20
3543.841341742641
 30
0.0
 11
787.7380453415851
 21
3542.092203965703
 31
0.0
1001
REVIT
1002
{
1070
     1
1000
205488
1002
}
1002
{
1070
     5
1000
16489
1002
}
1002
{
1070
     2
1000
-2000300
1002
}
  0
LINE
  5
2EC
330
70
100
AcDbEntity
  8
G-ANNO-TEXT
100
AcDbLine
 10
787.7380453415851
 20
3542.092203965703
 30
0.0
 11
796.1516246302985
 21
3529.517965655581
 31
0.0
1001
REVIT
1002
{
1070
     1
1000
205488
1002
}
1002
{
1070
     5
1000
16489
1002
}
1002
{
1070
     2
1000
-2000300
1002
}
  0
HATCH
  5
2ED
330
70
100
AcDbEntity
  8
G-ANNO-TEXT
100
AcDbHatch
 10
0.0
 20
0.0
 30
0.0
210
0.0
220
0.0
230
1.0
  2
SOLID
 70
     1
 71
     0
 91
        1
 92
        0
 93
        3
 72
     1
 10
796.1516246302985
 20
3529.517965655581
 11
791.2791834561169
 21
3543.841341742641
 72
     1
 10
791.2791834561169
 20
3543.841341742641
 11
787.7380453415851
 21
3542.092203965703
 72
     1
 10
787.7380453415851
 20
3542.092203965703
 11
796.1516246302985
 21
3529.517965655581
 97
        0
 75
     0
 76
     1
 98
        1
 10
0.0
 20
0.0
450
        0
451
        0
460
0.0
461
0.0
452
        0
462
0.0
453
        0
470

1001
REVIT
1002
{
1070
     1
1000
205488
1002
}
1002
{
1070
     5
1000
16489
1002
}
1002
{
1070
     2
1000
-2000300
1002
}
  0
LINE
  5
2EE
330
70
100
AcDbEntity
  8
G-ANNO-TEXT
100
AcDbLine
 10
716.4417032033825
 20
3690.891097373891
 30
0.0
 11
679.5965711202835
 21
3690.891097373891
 31
0.0
1001
REVIT
1002
{
1070
     1
1000
205488
1002
}
1002
{
1070
     5
1000
16489
1002
}
1002
{
1070
     2
1000
-2000300
1002
}
  0
LINE
  5
2EF
330
70
100
AcDbEntity
  8
G-ANNO-TEXT
100
AcDbLine
 10
796.1516246302985
 20
3529.517965655581
 30
0.0
 11
716.4417032033825
 21
3690.891097373891
 31
0.0
1001
REVIT
1002
{
1070
     1
1000
205488
1002
}
1002
{
1070
     5
1000
16489
1002
}
1002
{
1070
     2
1000
-2000300
1002
}
  0
MTEXT
  5
2F0
330
70
100
AcDbEntity
  8
G-ANNO-TEXT
100
AcDbMText
 10
507.0768799578848
 20
3697.141097373889
 30
0.0
 40
12.5
 41
201.30373125
 46
0.0
 71
     1
 72
     1
  1
Underlay to separate 
  7
Century Gothic
 73
     2
 44
1.0
1001
REVIT
1002
{
1070
     1
1000
205488
1002
}
1002
{
1070
     5
1000
16489
1002
}
1002
{
1070
     2
1000
-2000300
1002
}
  0
MTEXT
  5
2F1
330
70
100
AcDbEntity
  8
G-ANNO-TEXT
100
AcDbMText
 10
507.0768799578848
 20
3676.30515987389
 30
0.0
 40
12.5
 41
187.594875
 46
0.0
 71
     1
 72
     1
  1
capping and timber
  7
Century Gothic
 73
     2
 44
1.0
1001
REVIT
1002
{
1070
     1
1000
205488
1002
}
1002
{
1070
     5
1000
16489
1002
}
1002
{
1070
     2
1000
-2000300
1002
}
  0
LINE
  5
2F2
330
70
100
AcDbEntity
  8
G-ANNO-TEXT
100
AcDbLine
 10
895.4424242313651
 20
3420.26952103824
 30
0.0
 11
910.4424242313651
 21
3418.294733574429
 31
0.0
1001
REVIT
1002
{
1070
     1
1000
205492
1002
}
1002
{
1070
     5
1000
16489
1002
}
1002
{
1070
     2
1000
-2000300
1002
}
  0
LINE
  5
2F3
330
70
100
AcDbEntity
  8
G-ANNO-TEXT
100
AcDbLine
 10
910.4424242313651
 20
3418.294733574429
 30
0.0
 11
910.4424242313651
 21
3422.244308502051
 31
0.0
1001
REVIT
1002
{
1070
     1
1000
205492
1002
}
1002
{
1070
     5
1000
16489
1002
}
1002
{
1070
     2
1000
-2000300
1002
}
  0
LINE
  5
2F4
330
70
100
AcDbEntity
  8
G-ANNO-TEXT
100
AcDbLine
 10
910.4424242313651
 20
3422.244308502051
 30
0.0
 11
895.4424242313651
 21
3420.26952103824
 31
0.0
1001
REVIT
1002
{
1070
     1
1000
205492
1002
}
1002
{
1070
     5
1000
16489
1002
}
1002
{
1070
     2
1000
-2000300
1002
}
  0
HATCH
  5
2F5
330
70
100
AcDbEntity
  8
G-ANNO-TEXT
100
AcDbHatch
 10
0.0
 20
0.0
 30
0.0
210
0.0
220
0.0
230
1.0
  2
SOLID
 70
     1
 71
     0
 91
        1
 92
        0
 93
        3
 72
     1
 10
895.4424242313651
 20
3420.26952103824
 11
910.4424242313651
 21
3418.294733574429
 72
     1
 10
910.4424242313651
 20
3418.294733574429
 11
910.4424242313651
 21
3422.244308502051
 72
     1
 10
910.4424242313651
 20
3422.244308502051
 11
895.4424242313651
 21
3420.26952103824
 97
        0
 75
     0
 76
     1
 98
        1
 10
0.0
 20
0.0
450
        0
451
        0
460
0.0
461
0.0
452
        0
462
0.0
453
        0
470

1001
REVIT
1002
{
1070
     1
1000
205492
1002
}
1002
{
1070
     5
1000
16489
1002
}
1002
{
1070
     2
1000
-2000300
1002
}
  0
LINE
  5
2F6
330
70
100
AcDbEntity
  8
G-ANNO-TEXT
100
AcDbLine
 10
895.4424242313651
 20
3420.26952103824
 30
0.0
 11
1020.684564889413
 21
3420.26952103824
 31
0.0
1001
REVIT
1002
{
1070
     1
1000
205492
1002
}
1002
{
1070
     5
1000
16489
1002
}
1002
{
1070
     2
1000
-2000300
1002
}
  0
MTEXT
  5
2F7
330
70
100
AcDbEntity
  8
G-ANNO-TEXT
100
AcDbMText
 10
1025.684564889413
 20
3426.519521038239
 30
0.0
 40
12.5
 41
243.15181875
 46
0.0
 71
     1
 72
     1
  1
TRS Interlocking horizontal 
  7
Century Gothic
 73
     2
 44
1.0
1001
REVIT
1002
{
1070
     1
1000
205492
1002
}
1002
{
1070
     5
1000
16489
1002
}
1002
{
1070
     2
1000
-2000300
1002
}
  0
MTEXT
  5
2F8
330
70
100
AcDbEntity
  8
G-ANNO-TEXT
100
AcDbMText
 10
1025.684564889413
 20
3405.683583538239
 30
0.0
 40
12.5
 41
84.056934375
 46
0.0
 71
     1
 72
     1
  1
cladding
  7
Century Gothic
 73
     2
 44
1.0
1001
REVIT
1002
{
1070
     1
1000
205492
1002
}
1002
{
1070
     5
1000
16489
1002
}
1002
{
1070
     2
1000
-2000300
1002
}
  0
LINE
  5
2F9
330
70
100
AcDbEntity
  8
G-ANNO-TEXT
100
AcDbLine
 10
884.5733800083499
 20
3173.140805462513
 30
0.0
 11
894.3930983520033
 21
3161.631117492002
 31
0.0
1001
REVIT
1002
{
1070
     1
1000
210813
1002
}
1002
{
1070
     5
1000
16489
1002
}
1002
{
1070
     2
1000
-2000300
1002
}
  0
LINE
  5
2FA
330
70
100
AcDbEntity
  8
G-ANNO-TEXT
100
AcDbLine
 10
894.3930983520033
 20
3161.631117492002
 30
0.0
 11
897.0374260133249
 21
3164.564830724148
 31
0.0
1001
REVIT
1002
{
1070
     1
1000
210813
1002
}
1002
{
1070
     5
1000
16489
1002
}
1002
{
1070
     2
1000
-2000300
1002
}
  0
LINE
  5
2FB
330
70
100
AcDbEntity
  8
G-ANNO-TEXT
100
AcDbLine
 10
897.0374260133249
 20
3164.564830724148
 30
0.0
 11
884.5733800083499
 21
3173.140805462513
 31
0.0
1001
REVIT
1002
{
1070
     1
1000
210813
1002
}
1002
{
1070
     5
1000
16489
1002
}
1002
{
1070
     2
1000
-2000300
1002
}
  0
HATCH
  5
2FC
330
70
100
AcDbEntity
  8
G-ANNO-TEXT
100
AcDbHatch
 10
0.0
 20
0.0
 30
0.0
210
0.0
220
0.0
230
1.0
  2
SOLID
 70
     1
 71
     0
 91
        1
 92
        0
 93
        3
 72
     1
 10
884.5733800083499
 20
3173.140805462513
 11
894.3930983520033
 21
3161.631117492002
 72
     1
 10
894.3930983520033
 20
3161.631117492002
 11
897.0374260133249
 21
3164.564830724148
 72
     1
 10
897.0374260133249
 20
3164.564830724148
 11
884.5733800083499
 21
3173.140805462513
 97
        0
 75
     0
 76
     1
 98
        1
 10
0.0
 20
0.0
450
        0
451
        0
460
0.0
461
0.0
452
        0
462
0.0
453
        0
470

1001
REVIT
1002
{
1070
     1
1000
210813
1002
}
1002
{
1070
     5
1000
16489
1002
}
1002
{
1070
     2
1000
-2000300
1002
}
  0
LINE
  5
2FD
330
70
100
AcDbEntity
  8
G-ANNO-TEXT
100
AcDbLine
 10
935.3786560966767
 20
3127.347032768793
 30
0.0
 11
1020.684564889413
 21
3127.347032768793
 31
0.0
1001
REVIT
1002
{
1070
     1
1000
210813
1002
}
1002
{
1070
     5
1000
16489
1002
}
1002
{
1070
     2
1000
-2000300
1002
}
  0
LINE
  5
2FE
330
70
100
AcDbEntity
  8
G-ANNO-TEXT
100
AcDbLine
 10
884.5733800083499
 20
3173.140805462513
 30
0.0
 11
935.3786560966767
 21
3127.347032768793
 31
0.0
1001
REVIT
1002
{
1070
     1
1000
210813
1002
}
1002
{
1070
     5
1000
16489
1002
}
1002
{
1070
     2
1000
-2000300
1002
}
  0
MTEXT
  5
2FF
330
70
100
AcDbEntity
  8
G-ANNO-TEXT
100
AcDbMText
 10
1025.684564889413
 20
3133.597032768792
 30
0.0
 40
12.5
 41
330.4555875000001
 46
0.0
 71
     1
 72
     1
  1
Pre-finished purpose made flashing 
  7
Century Gothic
 73
     2
 44
1.0
1001
REVIT
1002
{
1070
     1
1000
210813
1002
}
1002
{
1070
     5
1000
16489
1002
}
1002
{
1070
     2
1000
-2000300
1002
}
  0
MTEXT
  5
300
330
70
100
AcDbEntity
  8
G-ANNO-TEXT
100
AcDbMText
 10
1025.684564889413
 20
3112.761095268792
 30
0.0
 40
12.5
 41
240.26574375
 46
0.0
 71
     1
 72
     1
  1
with weep holes @ 800 crs
  7
Century Gothic
 73
     2
 44
1.0
1001
REVIT
1002
{
1070
     1
1000
210813
1002
}
1002
{
1070
     5
1000
16489
1002
}
1002
{
1070
     2
1000
-2000300
1002
}
  0
LINE
  5
301
330
70
100
AcDbEntity
  8
G-ANNO-TEXT
100
AcDbLine
 10
889.2645882608087
 20
3339.155178729663
 30
0.0
 11
904.2645882608088
 21
3337.180391265852
 31
0.0
1001
REVIT
1002
{
1070
     1
1000
216141
1002
}
1002
{
1070
     5
1000
16489
1002
}
1002
{
1070
     2
1000
-2000300
1002
}
  0
LINE
  5
302
330
70
100
AcDbEntity
  8
G-ANNO-TEXT
100
AcDbLine
 10
904.2645882608088
 20
3337.180391265852
 30
0.0
 11
904.2645882608088
 21
3341.129966193474
 31
0.0
1001
REVIT
1002
{
1070
     1
1000
216141
1002
}
1002
{
1070
     5
1000
16489
1002
}
1002
{
1070
     2
1000
-2000300
1002
}
  0
LINE
  5
303
330
70
100
AcDbEntity
  8
G-ANNO-TEXT
100
AcDbLine
 10
904.2645882608088
 20
3341.129966193474
 30
0.0
 11
889.2645882608087
 21
3339.155178729663
 31
0.0
1001
REVIT
1002
{
1070
     1
1000
216141
1002
}
1002
{
1070
     5
1000
16489
1002
}
1002
{
1070
     2
1000
-2000300
1002
}
  0
HATCH
  5
304
330
70
100
AcDbEntity
  8
G-ANNO-TEXT
100
AcDbHatch
 10
0.0
 20
0.0
 30
0.0
210
0.0
220
0.0
230
1.0
  2
SOLID
 70
     1
 71
     0
 91
        1
 92
        0
 93
        3
 72
     1
 10
889.2645882608087
 20
3339.155178729663
 11
904.2645882608088
 21
3337.180391265852
 72
     1
 10
904.2645882608088
 20
3337.180391265852
 11
904.2645882608088
 21
3341.129966193474
 72
     1
 10
904.2645882608088
 20
3341.129966193474
 11
889.2645882608087
 21
3339.155178729663
 97
        0
 75
     0
 76
     1
 98
        1
 10
0.0
 20
0.0
450
        0
451
        0
460
0.0
461
0.0
452
        0
462
0.0
453
        0
470

1001
REVIT
1002
{
1070
     1
1000
216141
1002
}
1002
{
1070
     5
1000
16489
1002
}
1002
{
1070
     2
1000
-2000300
1002
}
  0
LINE
  5
305
330
70
100
AcDbEntity
  8
G-ANNO-TEXT
100
AcDbLine
 10
889.2645882608087
 20
3339.155178729663
 30
0.0
 11
1020.684564889413
 21
3339.155178729664
 31
0.0
1001
REVIT
1002
{
1070
     1
1000
216141
1002
}
1002
{
1070
     5
1000
16489
1002
}
1002
{
1070
     2
1000
-2000300
1002
}
  0
MTEXT
  5
306
330
70
100
AcDbEntity
  8
G-ANNO-TEXT
100
AcDbMText
 10
1025.684564889413
 20
3345.405178729663
 30
0.0
 40
12.5
 41
327.930271875
 46
0.0
 71
     1
 72
     1
  1
Timber nog behind TRS Interlocking 
  7
Century Gothic
 73
     2
 44
1.0
1001
REVIT
1002
{
1070
     1
1000
216141
1002
}
1002
{
1070
     5
1000
16489
1002
}
1002
{
1070
     2
1000
-2000300
1002
}
  0
MTEXT
  5
307
330
70
100
AcDbEntity
  8
G-ANNO-TEXT
100
AcDbMText
 10
1025.684564889413
 20
3324.569241229663
 30
0.0
 40
12.5
 41
226.196128125
 46
0.0
 71
     1
 72
     1
  1
for rigid fixing of baluster
  7
Century Gothic
 73
     2
 44
1.0
1001
REVIT
1002
{
1070
     1
1000
216141
1002
}
1002
{
1070
     5
1000
16489
1002
}
1002
{
1070
     2
1000
-2000300
1002
}
  0
LINE
  5
308
330
70
100
AcDbEntity
  8
G-ANNO-TEXT
100
AcDbLine
 10
970.6209569002369
 20
3615.25173855604
 30
0.0
 11
985.620956900237
 21
3613.276951092229
 31
0.0
1001
REVIT
1002
{
1070
     1
1000
216144
1002
}
1002
{
1070
     5
1000
16489
1002
}
1002
{
1070
     2
1000
-2000300
1002
}
  0
LINE
  5
309
330
70
100
AcDbEntity
  8
G-ANNO-TEXT
100
AcDbLine
 10
985.620956900237
 20
3613.276951092229
 30
0.0
 11
985.620956900237
 21
3617.226526019851
 31
0.0
1001
REVIT
1002
{
1070
     1
1000
216144
1002
}
1002
{
1070
     5
1000
16489
1002
}
1002
{
1070
     2
1000
-2000300
1002
}
  0
LINE
  5
30A
330
70
100
AcDbEntity
  8
G-ANNO-TEXT
100
AcDbLine
 10
985.620956900237
 20
3617.226526019851
 30
0.0
 11
970.6209569002369
 21
3615.25173855604
 31
0.0
1001
REVIT
1002
{
1070
     1
1000
216144
1002
}
1002
{
1070
     5
1000
16489
1002
}
1002
{
1070
     2
1000
-2000300
1002
}
  0
HATCH
  5
30B
330
70
100
AcDbEntity
  8
G-ANNO-TEXT
100
AcDbHatch
 10
0.0
 20
0.0
 30
0.0
210
0.0
220
0.0
230
1.0
  2
SOLID
 70
     1
 71
     0
 91
        1
 92
        0
 93
        3
 72
     1
 10
970.6209569002369
 20
3615.25173855604
 11
985.620956900237
 21
3613.276951092229
 72
     1
 10
985.620956900237
 20
3613.276951092229
 11
985.620956900237
 21
3617.226526019851
 72
     1
 10
985.620956900237
 20
3617.226526019851
 11
970.6209569002369
 21
3615.25173855604
 97
        0
 75
     0
 76
     1
 98
        1
 10
0.0
 20
0.0
450
        0
451
        0
460
0.0
461
0.0
452
        0
462
0.0
453
        0
470

1001
REVIT
1002
{
1070
     1
1000
216144
1002
}
1002
{
1070
     5
1000
16489
1002
}
1002
{
1070
     2
1000
-2000300
1002
}
  0
LINE
  5
30C
330
70
100
AcDbEntity
  8
G-ANNO-TEXT
100
AcDbLine
 10
995.3799908229207
 20
3615.25173855604
 30
0.0
 11
1020.684564889413
 21
3615.25173855604
 31
0.0
1001
REVIT
1002
{
1070
     1
1000
216144
1002
}
1002
{
1070
     5
1000
16489
1002
}
1002
{
1070
     2
1000
-2000300
1002
}
  0
LINE
  5
30D
330
70
100
AcDbEntity
  8
G-ANNO-TEXT
100
AcDbLine
 10
970.6209569002369
 20
3615.25173855604
 30
0.0
 11
995.3799908229207
 21
3615.25173855604
 31
0.0
1001
REVIT
1002
{
1070
     1
1000
216144
1002
}
1002
{
1070
     5
1000
16489
1002
}
1002
{
1070
     2
1000
-2000300
1002
}
  0
MTEXT
  5
30E
330
70
100
AcDbEntity
  8
G-ANNO-TEXT
100
AcDbMText
 10
1025.684564889413
 20
3621.50173855604
 30
0.0
 40
12.5
 41
348.49355625
 46
0.0
 71
     1
 72
     1
  1
Selected metal balustrade & handrail
  7
Century Gothic
 73
     2
 44
1.0
1001
REVIT
1002
{
1070
     1
1000
216144
1002
}
1002
{
1070
     5
1000
16489
1002
}
1002
{
1070
     2
1000
-2000300
1002
}
  0
LINE
  5
30F
330
70
100
AcDbEntity
  8
G-ANNO-TEXT
100
AcDbLine
 10
332.5260320993923
 20
3273.17676089244
 30
0.0
 11
332.2288445993924
 21
3273.17676089244
 31
0.0
1001
REVIT
1002
{
1070
     1
1000
216317
1002
}
1002
{
1070
     5
1000
16489
1002
}
1002
{
1070
     2
1000
-2000300
1002
}
  0
LINE
  5
310
330
70
100
AcDbEntity
  8
G-ANNO-TEXT
100
AcDbLine
 10
399.4944030298573
 20
3273.176760892441
 30
0.0
 11
384.4944030298572
 21
3275.151548356252
 31
0.0
1001
REVIT
1002
{
1070
     1
1000
216317
1002
}
1002
{
1070
     5
1000
16489
1002
}
1002
{
1070
     2
1000
-2000300
1002
}
  0
LINE
  5
311
330
70
100
AcDbEntity
  8
G-ANNO-TEXT
100
AcDbLine
 10
384.4944030298572
 20
3275.151548356252
 30
0.0
 11
384.4944030298573
 21
3271.20197342863
 31
0.0
1001
REVIT
1002
{
1070
     1
1000
216317
1002
}
1002
{
1070
     5
1000
16489
1002
}
1002
{
1070
     2
1000
-2000300
1002
}
  0
LINE
  5
312
330
70
100
AcDbEntity
  8
G-ANNO-TEXT
100
AcDbLine
 10
384.4944030298573
 20
3271.20197342863
 30
0.0
 11
399.4944030298573
 21
3273.176760892441
 31
0.0
1001
REVIT
1002
{
1070
     1
1000
216317
1002
}
1002
{
1070
     5
1000
16489
1002
}
1002
{
1070
     2
1000
-2000300
1002
}
  0
HATCH
  5
313
330
70
100
AcDbEntity
  8
G-ANNO-TEXT
100
AcDbHatch
 10
0.0
 20
0.0
 30
0.0
210
0.0
220
0.0
230
1.0
  2
SOLID
 70
     1
 71
     0
 91
        1
 92
        0
 93
        3
 72
     1
 10
399.4944030298573
 20
3273.176760892441
 11
384.4944030298572
 21
3275.151548356252
 72
     1
 10
384.4944030298572
 20
3275.151548356252
 11
384.4944030298573
 21
3271.20197342863
 72
     1
 10
384.4944030298573
 20
3271.20197342863
 11
399.4944030298573
 21
3273.176760892441
 97
        0
 75
     0
 76
     1
 98
        1
 10
0.0
 20
0.0
450
        0
451
        0
460
0.0
461
0.0
452
        0
462
0.0
453
        0
470

1001
REVIT
1002
{
1070
     1
1000
216317
1002
}
1002
{
1070
     5
1000
16489
1002
}
1002
{
1070
     2
1000
-2000300
1002
}
  0
LINE
  5
314
330
70
100
AcDbEntity
  8
G-ANNO-TEXT
100
AcDbLine
 10
399.4944030298573
 20
3273.176760892441
 30
0.0
 11
332.5260320993923
 21
3273.17676089244
 31
0.0
1001
REVIT
1002
{
1070
     1
1000
216317
1002
}
1002
{
1070
     5
1000
16489
1002
}
1002
{
1070
     2
1000
-2000300
1002
}
  0
MTEXT
  5
315
330
70
100
AcDbEntity
  8
G-ANNO-TEXT
100
AcDbMText
 10
217.0960320993924
 20
3279.426760892441
 30
0.0
 40
12.5
 41
133.48096875
 46
0.0
 71
     1
 72
     1
  1
Deck structure
  7
Century Gothic
 73
     2
 44
1.0
1001
REVIT
1002
{
1070
     1
1000
216317
1002
}
1002
{
1070
     5
1000
16489
1002
}
1002
{
1070
     2
1000
-2000300
1002
}
  0
LINE
  5
316
330
70
100
AcDbEntity
  8
G-ANNO-TEXT
100
AcDbLine
 10
375.5518695751764
 20
3467.376661233578
 30
0.0
 11
375.5460320993925
 21
3467.37666123358
 31
0.0
1001
REVIT
1002
{
1070
     1
1000
216320
1002
}
1002
{
1070
     5
1000
16489
1002
}
1002
{
1070
     2
1000
-2000300
1002
}
  0
LINE
  5
317
330
70
100
AcDbEntity
  8
G-ANNO-TEXT
100
AcDbLine
 10
421.8542505471132
 20
3397.122194267606
 30
0.0
 11
417.3566734378287
 21
3411.567663649848
 31
0.0
1001
REVIT
1002
{
1070
     1
1000
216320
1002
}
1002
{
1070
     5
1000
16489
1002
}
1002
{
1070
     2
1000
-2000300
1002
}
  0
LINE
  5
318
330
70
100
AcDbEntity
  8
G-ANNO-TEXT
100
AcDbLine
 10
417.3566734378287
 20
3411.567663649848
 30
0.0
 11
413.7711620699595
 21
3409.91138760408
 31
0.0
1001
REVIT
1002
{
1070
     1
1000
216320
1002
}
1002
{
1070
     5
1000
16489
1002
}
1002
{
1070
     2
1000
-2000300
1002
}
  0
LINE
  5
319
330
70
100
AcDbEntity
  8
G-ANNO-TEXT
100
AcDbLine
 10
413.7711620699595
 20
3409.91138760408
 30
0.0
 11
421.8542505471132
 21
3397.122194267606
 31
0.0
1001
REVIT
1002
{
1070
     1
1000
216320
1002
}
1002
{
1070
     5
1000
16489
1002
}
1002
{
1070
     2
1000
-2000300
1002
}
  0
HATCH
  5
31A
330
70
100
AcDbEntity
  8
G-ANNO-TEXT
100
AcDbHatch
 10
0.0
 20
0.0
 30
0.0
210
0.0
220
0.0
230
1.0
  2
SOLID
 70
     1
 71
     0
 91
        1
 92
        0
 93
        3
 72
     1
 10
421.8542505471132
 20
3397.122194267606
 11
417.3566734378287
 21
3411.567663649848
 72
     1
 10
417.3566734378287
 20
3411.567663649848
 11
413.7711620699595
 21
3409.91138760408
 72
     1
 10
413.7711620699595
 20
3409.91138760408
 11
421.8542505471132
 21
3397.122194267606
 97
        0
 75
     0
 76
     1
 98
        1
 10
0.0
 20
0.0
450
        0
451
        0
460
0.0
461
0.0
452
        0
462
0.0
453
        0
470

1001
REVIT
1002
{
1070
     1
1000
216320
1002
}
1002
{
1070
     5
1000
16489
1002
}
1002
{
1070
     2
1000
-2000300
1002
}
  0
LINE
  5
31B
330
70
100
AcDbEntity
  8
G-ANNO-TEXT
100
AcDbLine
 10
389.4011974661594
 20
3467.376661233577
 30
0.0
 11
375.5518695751764
 21
3467.376661233578
 31
0.0
1001
REVIT
1002
{
1070
     1
1000
216320
1002
}
1002
{
1070
     5
1000
16489
1002
}
1002
{
1070
     2
1000
-2000300
1002
}
  0
LINE
  5
31C
330
70
100
AcDbEntity
  8
G-ANNO-TEXT
100
AcDbLine
 10
421.8542505471132
 20
3397.122194267606
 30
0.0
 11
389.4011974661594
 21
3467.376661233577
 31
0.0
1001
REVIT
1002
{
1070
     1
1000
216320
1002
}
1002
{
1070
     5
1000
16489
1002
}
1002
{
1070
     2
1000
-2000300
1002
}
  0
MTEXT
  5
31D
330
70
100
AcDbEntity
  8
G-ANNO-TEXT
100
AcDbMText
 10
217.0960320993924
 20
3473.626661233577
 30
0.0
 40
12.5
 41
186.1518375
 46
0.0
 71
     1
 72
     1
  1
Selected hardwood 
  7
Century Gothic
 73
     2
 44
1.0
1001
REVIT
1002
{
1070
     1
1000
216320
1002
}
1002
{
1070
     5
1000
16489
1002
}
1002
{
1070
     2
1000
-2000300
1002
}
  0
MTEXT
  5
31E
330
70
100
AcDbEntity
  8
G-ANNO-TEXT
100
AcDbMText
 10
217.0960320993924
 20
3452.790723733578
 30
0.0
 40
12.5
 41
64.93668750000001
 46
0.0
 71
     1
 72
     1
  1
baords
  7
Century Gothic
 73
     2
 44
1.0
1001
REVIT
1002
{
1070
     1
1000
216320
1002
}
1002
{
1070
     5
1000
16489
1002
}
1002
{
1070
     2
1000
-2000300
1002
}
  0
LINE
  5
31F
330
70
100
AcDbEntity
  8
G-ANNO-TEXT
100
AcDbLine
 10
367.9410320993924
 20
3532.545936889795
 30
0.0
 11
367.6499383493924
 21
3532.545936889795
 31
0.0
1001
REVIT
1002
{
1070
     1
1000
216323
1002
}
1002
{
1070
     5
1000
16489
1002
}
1002
{
1070
     2
1000
-2000300
1002
}
  0
LINE
  5
320
330
70
100
AcDbEntity
  8
G-ANNO-TEXT
100
AcDbLine
 10
478.3804146048299
 20
3407.408246782106
 30
0.0
 11
473.2754923659007
 21
3421.650421983308
 31
0.0
1001
REVIT
1002
{
1070
     1
1000
216323
1002
}
1002
{
1070
     5
1000
16489
1002
}
1002
{
1070
     2
1000
-2000300
1002
}
  0
LINE
  5
321
330
70
100
AcDbEntity
  8
G-ANNO-TEXT
100
AcDbLine
 10
473.2754923659007
 20
3421.650421983308
 30
0.0
 11
469.763292187293
 21
3419.843880532277
 31
0.0
1001
REVIT
1002
{
1070
     1
1000
216323
1002
}
1002
{
1070
     5
1000
16489
1002
}
1002
{
1070
     2
1000
-2000300
1002
}
  0
LINE
  5
322
330
70
100
AcDbEntity
  8
G-ANNO-TEXT
100
AcDbLine
 10
469.763292187293
 20
3419.843880532277
 30
0.0
 11
478.3804146048299
 21
3407.408246782106
 31
0.0
1001
REVIT
1002
{
1070
     1
1000
216323
1002
}
1002
{
1070
     5
1000
16489
1002
}
1002
{
1070
     2
1000
-2000300
1002
}
  0
HATCH
  5
323
330
70
100
AcDbEntity
  8
G-ANNO-TEXT
100
AcDbHatch
 10
0.0
 20
0.0
 30
0.0
210
0.0
220
0.0
230
1.0
  2
SOLID
 70
     1
 71
     0
 91
        1
 92
        0
 93
        3
 72
     1
 10
478.3804146048299
 20
3407.408246782106
 11
473.2754923659007
 21
3421.650421983308
 72
     1
 10
473.2754923659007
 20
3421.650421983308
 11
469.763292187293
 21
3419.843880532277
 72
     1
 10
469.763292187293
 20
3419.843880532277
 11
478.3804146048299
 21
3407.408246782106
 97
        0
 75
     0
 76
     1
 98
        1
 10
0.0
 20
0.0
450
        0
451
        0
460
0.0
461
0.0
452
        0
462
0.0
453
        0
470

1001
REVIT
1002
{
1070
     1
1000
216323
1002
}
1002
{
1070
     5
1000
16489
1002
}
1002
{
1070
     2
1000
-2000300
1002
}
  0
LINE
  5
324
330
70
100
AcDbEntity
  8
G-ANNO-TEXT
100
AcDbLine
 10
414.0143725886114
 20
3532.545936889795
 30
0.0
 11
367.9410320993924
 21
3532.545936889795
 31
0.0
1001
REVIT
1002
{
1070
     1
1000
216323
1002
}
1002
{
1070
     5
1000
16489
1002
}
1002
{
1070
     2
1000
-2000300
1002
}
  0
LINE
  5
325
330
70
100
AcDbEntity
  8
G-ANNO-TEXT
100
AcDbLine
 10
478.3804146048299
 20
3407.408246782106
 30
0.0
 11
414.0143725886114
 21
3532.545936889795
 31
0.0
1001
REVIT
1002
{
1070
     1
1000
216323
1002
}
1002
{
1070
     5
1000
16489
1002
}
1002
{
1070
     2
1000
-2000300
1002
}
  0
MTEXT
  5
326
330
70
100
AcDbEntity
  8
G-ANNO-TEXT
100
AcDbMText
 10
217.0960320993924
 20
3538.795936889795
 30
0.0
 40
12.5
 41
176.411334375
 46
0.0
 71
     1
 72
     1
  1
Butynol membrane
  7
Century Gothic
 73
     2
 44
1.0
1001
REVIT
1002
{
1070
     1
1000
216323
1002
}
1002
{
1070
     5
1000
16489
1002
}
1002
{
1070
     2
1000
-2000300
1002
}
  0
LINE
  5
327
330
70
100
AcDbEntity
  8
G-ANNO-TEXT
100
AcDbLine
 10
367.5498240886061
 20
3145.140556521483
 30
0.0
 11
332.8241570993924
 21
3145.140556521483
 31
0.0
1001
REVIT
1002
{
1070
     1
1000
216832
1002
}
1002
{
1070
     5
1000
16489
1002
}
1002
{
1070
     2
1000
-2000300
1002
}
  0
LINE
  5
328
330
70
100
AcDbEntity
  8
G-ANNO-TEXT
100
AcDbLine
 10
423.5160006859007
 20
3189.652333189151
 30
0.0
 11
413.9858679378903
 21
3177.901743615324
 31
0.0
1001
REVIT
1002
{
1070
     1
1000
216832
1002
}
1002
{
1070
     5
1000
16489
1002
}
1002
{
1070
     2
1000
-2000300
1002
}
  0
LINE
  5
329
330
70
100
AcDbEntity
  8
G-ANNO-TEXT
100
AcDbLine
 10
413.9858679378903
 20
3177.901743615324
 30
0.0
 11
417.3518757095237
 21
3175.835555388129
 31
0.0
1001
REVIT
1002
{
1070
     1
1000
216832
1002
}
1002
{
1070
     5
1000
16489
1002
}
1002
{
1070
     2
1000
-2000300
1002
}
  0
LINE
  5
32A
330
70
100
AcDbEntity
  8
G-ANNO-TEXT
100
AcDbLine
 10
417.3518757095237
 20
3175.835555388129
 30
0.0
 11
423.5160006859007
 21
3189.652333189151
 31
0.0
1001
REVIT
1002
{
1070
     1
1000
216832
1002
}
1002
{
1070
     5
1000
16489
1002
}
1002
{
1070
     2
1000
-2000300
1002
}
  0
HATCH
  5
32B
330
70
100
AcDbEntity
  8
G-ANNO-TEXT
100
AcDbHatch
 10
0.0
 20
0.0
 30
0.0
210
0.0
220
0.0
230
1.0
  2
SOLID
 70
     1
 71
     0
 91
        1
 92
        0
 93
        3
 72
     1
 10
423.5160006859007
 20
3189.652333189151
 11
413.9858679378903
 21
3177.901743615324
 72
     1
 10
413.9858679378903
 20
3177.901743615324
 11
417.3518757095237
 21
3175.835555388129
 72
     1
 10
417.3518757095237
 20
3175.835555388129
 11
423.5160006859007
 21
3189.652333189151
 97
        0
 75
     0
 76
     1
 98
        1
 10
0.0
 20
0.0
450
        0
451
        0
460
0.0
461
0.0
452
        0
462
0.0
453
        0
470

1001
REVIT
1002
{
1070
     1
1000
216832
1002
}
1002
{
1070
     5
1000
16489
1002
}
1002
{
1070
     2
1000
-2000300
1002
}
  0
LINE
  5
32C
330
70
100
AcDbEntity
  8
G-ANNO-TEXT
100
AcDbLine
 10
396.192917923772
 20
3145.140556521483
 30
0.0
 11
367.5498240886061
 21
3145.140556521483
 31
0.0
1001
REVIT
1002
{
1070
     1
1000
216832
1002
}
1002
{
1070
     5
1000
16489
1002
}
1002
{
1070
     2
1000
-2000300
1002
}
  0
LINE
  5
32D
330
70
100
AcDbEntity
  8
G-ANNO-TEXT
100
AcDbLine
 10
423.5160006859007
 20
3189.652333189151
 30
0.0
 11
396.192917923772
 21
3145.140556521483
 31
0.0
1001
REVIT
1002
{
1070
     1
1000
216832
1002
}
1002
{
1070
     5
1000
16489
1002
}
1002
{
1070
     2
1000
-2000300
1002
}
  0
MTEXT
  5
32E
330
70
100
AcDbEntity
  8
G-ANNO-TEXT
100
AcDbMText
 10
217.0960320993924
 20
3151.390556521482
 30
0.0
 40
12.5
 41
134.2024875
 46
0.0
 71
     1
 72
     1
  1
Selected fibre 
  7
Century Gothic
 73
     2
 44
1.0
1001
REVIT
1002
{
1070
     1
1000
216832
1002
}
1002
{
1070
     5
1000
16489
1002
}
1002
{
1070
     2
1000
-2000300
1002
}
  0
MTEXT
  5
32F
330
70
100
AcDbEntity
  8
G-ANNO-TEXT
100
AcDbMText
 10
217.0960320993924
 20
3130.554619021482
 30
0.0
 40
12.5
 41
174.968296875
 46
0.0
 71
     1
 72
     1
  1
cement soffit lining
  7
Century Gothic
 73
     2
 44
1.0
1001
REVIT
1002
{
1070
     1
1000
216832
1002
}
1002
{
1070
     5
1000
16489
1002
}
1002
{
1070
     2
1000
-2000300
1002
}
  0
VIEWPORT
  5
331
330
6C
100
AcDbEntity
 67
     1
  8
G-ANNO-NPLT
100
AcDbViewport
 10
139.2613461563891
 20
86.70754965093429
 30
0.0
 40
240.3645119998889
 41
219.3307643990102
 68
    -1
 69
     2
 12
717.5932848896912
 22
3273.732404368203
 13
0.0
 23
0.0
 14
0.0
 24
0.0
 15
0.0
 25
0.0
 16
0.0
 26
0.0
 36
1.0
 17
0.0
 27
0.0
 37
0.0
 42
0.0
 43
0.0
 44
0.0
 45
1096.653821995051
 50
0.0
 51
0.0
 72
  1000
 90
    32768
  1

281
     0
 71
     1
 74
     1
110
0.0
120
0.0
130
0.0
111
1.0
121
0.0
131
0.0
112
0.0
122
1.0
132
0.0
 79
     0
146
0.0
170
     0
 61
     5
292
     1
282
     1
141
0.0
142
0.0
 63
   250
421
  3355443
  0
VIEWPORT
  5
333
330
6C
100
AcDbEntity
 67
     1
  8
0
100
AcDbViewport
 10
6.0
 20
4.5
 30
0.0
 40
12.0
 41
9.0
 68
    -1
 69
     1
 12
6.0
 22
4.5
 13
0.0
 23
0.0
 14
0.0
 24
0.0
 15
0.0
 25
0.0
 16
0.0
 26
0.0
 36
1.0
 17
0.0
 27
0.0
 37
0.0
 42
50.0
 43
0.0
 44
0.0
 45
12.0
 50
0.0
 51
0.0
 72
   100
 90
    32800
  1

281
     0
 71
     1
 74
     1
110
0.0
120
0.0
130
0.0
111
1.0
121
0.0
131
0.0
112
0.0
122
1.0
132
0.0
 79
     0
146
0.0
170
     0
 61
     5
292
     1
282
     1
141
0.0
142
0.0
 63
   250
421
  3355443
  0
INSERT
  5
364
330
6C
100
AcDbEntity
 67
     1
  8
G-ANNO-TTLB
100
AcDbBlockReference
  2
Titleblock A4 The roofing store - Titleblock A4 The roofing store-2694-Deck Balustrade Fixing Detail
 10
0.0
 20
0.0
 30
0.0
1001
REVIT
1002
{
1070
     1
1000
216853
1002
}
1002
{
1070
     5
1000
2694
1002
}
1002
{
1070
     2
1000
-2000280
1002
}
  0
MTEXT
  5
366
330
6C
100
AcDbEntity
 67
     1
  8
G-ANNO-TTLB
100
AcDbMText
 10
258.5275146630469
 20
12.52446433240663
 30
0.0
 40
4.0
 41
36.6531525
 46
0.0
 71
     1
 72
     1
  1
W-TRSIL-20-H
  7
Century Gothic_2
 73
     2
 44
1.0
1001
REVIT
1002
{
1070
     1
1000
216853
1002
}
1002
{
1070
     5
1000
2694
1002
}
1002
{
1070
     2
1000
-2000280
1002
}
  0
MTEXT
  5
368
330
6C
100
AcDbEntity
 67
     1
  8
G-ANNO-TTLB
100
AcDbMText
 10
76.05126760874208
 20
10.95227683240663
 30
0.0
 40
3.5
 41
75.75946874999999
 46
0.0
 71
     1
 72
     1
  1
Deck Balustrade Fixing Detail
  7
Century Gothic_3
 73
     2
 44
1.0
1001
REVIT
1002
{
1070
     1
1000
216853
1002
}
1002
{
1070
     5
1000
2694
1002
}
1002
{
1070
     2
1000
-2000280
1002
}
  0
MTEXT
  5
369
330
6C
100
AcDbEntity
 67
     1
  8
G-ANNO-TTLB
100
AcDbMText
 10
271.6845146630469
 20
20.51531106318182
 30
0.0
 40
1.8
 41
22.2227775
 46
0.0
 71
     1
 72
     1
  1
Date: 10/11/2020
  7
Century Gothic_1
 73
     2
 44
1.0
1001
REVIT
1002
{
1070
     1
1000
216853
1002
}
1002
{
1070
     5
1000
2694
1002
}
1002
{
1070
     2
1000
-2000280
1002
}
  0
MTEXT
  5
36B
330
6C
100
AcDbEntity
 67
     1
  8
G-ANNO-TTLB
100
AcDbMText
 10
75.81756651341409
 20
19.95645689651516
 30
0.0
 40
4.999999999999999
 41
63.814325
 46
0.0
 71
     1
 72
     1
  1
TRS Interlocking
  7
Century Gothic_4
 73
     2
 44
1.0
1001
REVIT
1002
{
1070
     1
1000
216853
1002
}
1002
{
1070
     5
1000
2694
1002
}
1002
{
1070
     2
1000
-2000280
1002
}
  0
ENDSEC
  0
SECTION
  2
OBJECTS
  0
DICTIONARY
  5
C
330
0
100
AcDbDictionary
281
     1
  3
ACAD_CIP_PREVIOUS_PRODUCT_INFO
350
79
  3
ACAD_COLOR
350
63
  3
ACAD_DETAILVIEWSTYLE
350
6A
  3
ACAD_GROUP
350
D
  3
ACAD_IMAGE_DICT
350
338
  3
ACAD_IMAGE_VARS
350
7A
  3
ACAD_LAYOUT
350
62
  3
ACAD_MATERIAL
350
10
  3
ACAD_MLEADERSTYLE
350
66
  3
ACAD_MLINESTYLE
350
5F
  3
ACAD_PLOTSETTINGS
350
61
  3
ACAD_PLOTSTYLENAME
350
E
  3
ACAD_SCALELIST
350
42
  3
ACAD_SECTIONVIEWSTYLE
350
68
  3
ACAD_TABLESTYLE
350
64
  3
ACAD_VISUALSTYLE
350
29
  3
ACDB_RECOMPOSE_DATA
350
376
  3
AcDbVariableDictionary
350
7B
  3
REVIT_DICTIONARY
350
36C
  0
DICTIONARY
  5
371
330
70
100
AcDbDictionary
280
     1
281
     1
  3
ACAD_SORTENTS
360
372
  0
IMAGEDEF_REACTOR
  5
33B
330
33A
100
AcDbRasterImageDefReactor
 90
        2
330
33A
  0
XRECORD
  5
79
102
{ACAD_REACTORS
330
C
102
}
330
C
100
AcDbXrecord
280
     1
300
RVT
300
2019
300
RVT2019
  0
DICTIONARY
  5
63
102
{ACAD_REACTORS
330
C
102
}
330
C
100
AcDbDictionary
281
     1
  0
DICTIONARY
  5
6A
102
{ACAD_REACTORS
330
C
102
}
330
C
100
AcDbDictionary
281
     1
  3
Imperial24
350
6B
  0
DICTIONARY
  5
D
102
{ACAD_REACTORS
330
C
102
}
330
C
100
AcDbDictionary
281
     1
  0
DICTIONARY
  5
338
102
{ACAD_REACTORS
330
C
102
}
330
C
100
AcDbDictionary
281
     1
  3
TRSInterlockingCladdingDetails-TheRoofingStore_w-107754
350
339
  0
RASTERVARIABLES
  5
7A
102
{ACAD_REACTORS
330
C
102
}
330
C
100
AcDbRasterVariables
 90
        0
 70
     0
 71
     1
 72
     1
  0
DICTIONARY
  5
62
102
{ACAD_REACTORS
330
C
102
}
330
C
100
AcDbDictionary
281
     1
  3
Layout1
350
6F
  3
Layout2
350
77
  3
Model
350
73
  0
DICTIONARY
  5
10
102
{ACAD_REACTORS
330
C
102
}
330
C
100
AcDbDictionary
281
     1
  3
ByBlock
350
19
  3
ByLayer
350
11
  3
Global
350
21
  0
DICTIONARY
  5
66
102
{ACAD_REACTORS
330
C
102
}
330
C
100
AcDbDictionary
281
     1
  3
Standard
350
67
  0
DICTIONARY
  5
5F
102
{ACAD_REACTORS
330
C
102
}
330
C
100
AcDbDictionary
281
     1
  3
Standard
350
60
  0
DICTIONARY
  5
61
102
{ACAD_REACTORS
330
C
102
}
330
C
100
AcDbDictionary
281
     1
  0
ACDBDICTIONARYWDFLT
  5
E
102
{ACAD_REACTORS
330
C
102
}
330
C
100
AcDbDictionary
281
     1
  3
Normal
350
F
100
AcDbDictionaryWithDefault
340
F
  0
DICTIONARY
  5
42
102
{ACAD_REACTORS
330
C
102
}
330
C
100
AcDbDictionary
281
     1
  3
A0
350
43
  3
A1
350
44
  3
A2
350
45
  3
A3
350
46
  3
A4
350
47
  3
A5
350
48
  3
A6
350
49
  3
A7
350
4A
  3
A8
350
4B
  3
A9
350
4C
  3
B0
350
4D
  3
B1
350
4E
  3
B2
350
4F
  3
B3
350
50
  3
B4
350
51
  3
B5
350
52
  3
B6
350
53
  0
DICTIONARY
  5
68
102
{ACAD_REACTORS
330
C
102
}
330
C
100
AcDbDictionary
281
     1
  3
Imperial24
350
69
  0
DICTIONARY
  5
64
102
{ACAD_REACTORS
330
C
102
}
330
C
100
AcDbDictionary
281
     1
  3
Standard
350
65
  0
DICTIONARY
  5
29
102
{ACAD_REACTORS
330
C
102
}
330
C
100
AcDbDictionary
281
     1
  3
2dWireframe
350
2F
  3
Basic
350
2E
  3
Brighten
350
35
  3
ColorChange
350
39
  3
Conceptual
350
32
  3
Dim
350
34
  3
EdgeColorOff
350
41
  3
Facepattern
350
38
  3
Flat
350
2A
  3
FlatWithEdges
350
2B
  3
Gouraud
350
2C
  3
GouraudWithEdges
350
2D
  3
Hidden
350
31
  3
JitterOff
350
3F
  3
Linepattern
350
37
  3
OverhangOff
350
40
  3
Realistic
350
33
  3
Shaded
350
3E
  3
Shaded with edges
350
3D
  3
Shades of Gray
350
3A
  3
Sketchy
350
3B
  3
Thicken
350
36
  3
Wireframe
350
30
  3
X-Ray
350
3C
  0
XRECORD
  5
376
102
{ACAD_REACTORS
330
C
102
}
330
C
100
AcDbXrecord
280
     1
 90
        1
330
65
  0
DICTIONARY
  5
7B
102
{ACAD_REACTORS
330
C
102
}
330
C
100
AcDbDictionary
281
     1
  3
CANNOSCALE
350
80
  3
CMLEADERSTYLE
350
7D
  3
CTABLESTYLE
350
7C
  3
CVIEWDETAILSTYLE
350
7E
  3
CVIEWSECTIONSTYLE
350
7F
  0
DICTIONARY
  5
36C
102
{ACAD_REACTORS
330
C
102
}
330
C
100
AcDbDictionary
281
     1
  3
DRAWING_TOOL
350
370
  3
REVIT_CATEGORY_MAPPING
350
36E
  3
REVIT_SUB_CATEGORY_MAPPING
350
36F
  3
REVIT_TYPE_MAPPING
350
36D
  0
SORTENTSTABLE
  5
372
102
{ACAD_REACTORS
330
371
102
}
330
371
100
AcDbSortentsTable
330
70
  0
ACDBDETAILVIEWSTYLE
  5
6B
102
{ACAD_XDICTIONARY
360
3AB
102
}
102
{ACAD_REACTORS
330
6A
102
}
330
6A
100
AcDbModelDocViewStyle
 70
     0
  3
Imperial24
290
     0
100
AcDbDetailViewStyle
 70
     0
 71
     0
 90
        3
 71
     1
340
55
 62
   256
 40
0.24
340
0
 62
   256
 40
0.24
300

 40
0.36
280
     3
 71
     2
340
5D
 90
       25
 62
   256
 71
     3
340
55
 62
   256
 40
0.24
 90
        1
 40
0.75
 90
        1
300
%<\AcVar ViewType \f "%tc1">% %<\AcVar ViewDetailId>%\PSCALE %<\AcVar ViewScale \f "%sn">%
 71
     4
340
5D
 90
       25
 62
   256
340
5D
 90
       25
 62
   256
280
     0
  0
IMAGEDEF
  5
339
102
{ACAD_REACTORS
330
338
330
33B
102
}
330
338
100
AcDbRasterImageDef
 90
        0
  1
E:\CAD Files\TRS Interlocking Panel\Custom Detail with TRS Weatherboard 20201110\TRSInterlockingCladdingDetails-TheRoofingStore_w-107754.jpg
 10
2863.0
 20
400.0
 11
0.0846666666666667
 21
0.0846666666666667
280
     1
281
     5
  0
LAYOUT
  5
6F
102
{ACAD_REACTORS
330
62
102
}
330
62
100
AcDbPlotSettings
  1

  2

  4

  6

 40
0.0
 41
0.0
 42
0.0
 43
0.0
 44
0.0
 45
0.0
 46
0.0
 47
0.0
 48
0.0
 49
0.0
140
0.0
141
0.0
142
1.0
143
1.0
 70
   688
 72
     0
 73
     0
 74
     5
  7

 75
    16
147
1.0
 76
     0
 77
     2
 78
   300
148
0.0
149
0.0
100
AcDbLayout
  1
Layout1
 70
     1
 71
     1
 10
0.0
 20
0.0
 11
12.0
 21
9.0
 12
0.0
 22
0.0
 32
0.0
 14
0.0
 24
0.0
 34
0.0
 15
0.0
 25
0.0
 35
0.0
146
0.0
 13
0.0
 23
0.0
 33
0.0
 16
1.0
 26
0.0
 36
0.0
 17
0.0
 27
1.0
 37
0.0
 76
     0
330
6C
  0
LAYOUT
  5
77
102
{ACAD_REACTORS
330
62
102
}
330
62
100
AcDbPlotSettings
  1

  2

  4

  6

 40
0.0
 41
0.0
 42
0.0
 43
0.0
 44
0.0
 45
0.0
 46
0.0
 47
0.0
 48
0.0
 49
0.0
140
0.0
141
0.0
142
1.0
143
1.0
 70
   688
 72
     0
 73
     0
 74
     5
  7

 75
    16
147
1.0
 76
     0
 77
     2
 78
   300
148
0.0
149
0.0
100
AcDbLayout
  1
Layout2
 70
     1
 71
     2
 10
0.0
 20
0.0
 11
12.0
 21
9.0
 12
0.0
 22
0.0
 32
0.0
 14
0.0
 24
0.0
 34
0.0
 15
0.0
 25
0.0
 35
0.0
146
0.0
 13
0.0
 23
0.0
 33
0.0
 16
1.0
 26
0.0
 36
0.0
 17
0.0
 27
1.0
 37
0.0
 76
     0
330
74
  0
LAYOUT
  5
73
102
{ACAD_REACTORS
330
62
102
}
330
62
100
AcDbPlotSettings
  1

  2

  4

  6

 40
0.0
 41
0.0
 42
0.0
 43
0.0
 44
0.0
 45
0.0
 46
0.0
 47
0.0
 48
0.0
 49
0.0
140
0.0
141
0.0
142
1.0
143
1.0
 70
  1712
 72
     0
 73
     0
 74
     0
  7

 75
     0
147
1.0
 76
     0
 77
     2
 78
   300
148
0.0
149
0.0
100
AcDbLayout
  1
Model
 70
     1
 71
     0
 10
0.0
 20
0.0
 11
12.0
 21
9.0
 12
0.0
 22
0.0
 32
0.0
 14
0.0
 24
0.0
 34
0.0
 15
0.0
 25
0.0
 35
0.0
146
0.0
 13
0.0
 23
0.0
 33
0.0
 16
1.0
 26
0.0
 36
0.0
 17
0.0
 27
1.0
 37
0.0
 76
     0
330
70
  0
MATERIAL
  5
19
102
{ACAD_XDICTIONARY
360
1A
102
}
102
{ACAD_REACTORS
330
10
102
}
330
10
100
AcDbMaterial
  1
ByBlock
 72
     0
 43
0.0208333333333333
 43
0.0
 43
0.0
 43
0.0
 43
0.0
 43
0.0208333333333333
 43
0.0
 43
0.0
 43
0.0
 43
0.0
 43
1.0
 43
0.0
 43
0.0
 43
0.0
 43
0.0
 43
1.0
 77
     0
 47
0.0208333333333333
 47
0.0
 47
0.0
 47
0.0
 47
0.0
 47
0.0208333333333333
 47
0.0
 47
0.0
 47
0.0
 47
0.0
 47
1.0
 47
0.0
 47
0.0
 47
0.0
 47
0.0
 47
1.0
171
     0
 49
0.0208333333333333
 49
0.0
 49
0.0
 49
0.0
 49
0.0
 49
0.0208333333333333
 49
0.0
 49
0.0
 49
0.0
 49
0.0
 49
1.0
 49
0.0
 49
0.0
 49
0.0
 49
0.0
 49
1.0
175
     0
142
0.0208333333333333
142
0.0
142
0.0
142
0.0
142
0.0
142
0.0208333333333333
142
0.0
142
0.0
142
0.0
142
0.0
142
1.0
142
0.0
142
0.0
142
0.0
142
0.0
142
1.0
179
     0
144
0.0208333333333333
144
0.0
144
0.0
144
0.0
144
0.0
144
0.0208333333333333
144
0.0
144
0.0
144
0.0
144
0.0
144
1.0
144
0.0
144
0.0
144
0.0
144
0.0
144
1.0
147
0.0208333333333333
147
0.0
147
0.0
147
0.0
147
0.0
147
0.0208333333333333
147
0.0
147
0.0
147
0.0
147
0.0
147
1.0
147
0.0
147
0.0
147
0.0
147
0.0
147
1.0
  0
MATERIAL
  5
11
102
{ACAD_XDICTIONARY
360
12
102
}
102
{ACAD_REACTORS
330
10
102
}
330
10
100
AcDbMaterial
  1
ByLayer
 72
     0
 43
0.0208333333333333
 43
0.0
 43
0.0
 43
0.0
 43
0.0
 43
0.0208333333333333
 43
0.0
 43
0.0
 43
0.0
 43
0.0
 43
1.0
 43
0.0
 43
0.0
 43
0.0
 43
0.0
 43
1.0
 77
     0
 47
0.0208333333333333
 47
0.0
 47
0.0
 47
0.0
 47
0.0
 47
0.0208333333333333
 47
0.0
 47
0.0
 47
0.0
 47
0.0
 47
1.0
 47
0.0
 47
0.0
 47
0.0
 47
0.0
 47
1.0
171
     0
 49
0.0208333333333333
 49
0.0
 49
0.0
 49
0.0
 49
0.0
 49
0.0208333333333333
 49
0.0
 49
0.0
 49
0.0
 49
0.0
 49
1.0
 49
0.0
 49
0.0
 49
0.0
 49
0.0
 49
1.0
175
     0
142
0.0208333333333333
142
0.0
142
0.0
142
0.0
142
0.0
142
0.0208333333333333
142
0.0
142
0.0
142
0.0
142
0.0
142
1.0
142
0.0
142
0.0
142
0.0
142
0.0
142
1.0
179
     0
144
0.0208333333333333
144
0.0
144
0.0
144
0.0
144
0.0
144
0.0208333333333333
144
0.0
144
0.0
144
0.0
144
0.0
144
1.0
144
0.0
144
0.0
144
0.0
144
0.0
144
1.0
147
0.0208333333333333
147
0.0
147
0.0
147
0.0
147
0.0
147
0.0208333333333333
147
0.0
147
0.0
147
0.0
147
0.0
147
1.0
147
0.0
147
0.0
147
0.0
147
0.0
147
1.0
  0
MATERIAL
  5
21
102
{ACAD_XDICTIONARY
360
22
102
}
102
{ACAD_REACTORS
330
10
102
}
330
10
100
AcDbMaterial
  1
Global
 72
     0
 43
0.0208333333333333
 43
0.0
 43
0.0
 43
0.0
 43
0.0
 43
0.0208333333333333
 43
0.0
 43
0.0
 43
0.0
 43
0.0
 43
1.0
 43
0.0
 43
0.0
 43
0.0
 43
0.0
 43
1.0
 77
     0
 47
0.0208333333333333
 47
0.0
 47
0.0
 47
0.0
 47
0.0
 47
0.0208333333333333
 47
0.0
 47
0.0
 47
0.0
 47
0.0
 47
1.0
 47
0.0
 47
0.0
 47
0.0
 47
0.0
 47
1.0
171
     0
 49
0.0208333333333333
 49
0.0
 49
0.0
 49
0.0
 49
0.0
 49
0.0208333333333333
 49
0.0
 49
0.0
 49
0.0
 49
0.0
 49
1.0
 49
0.0
 49
0.0
 49
0.0
 49
0.0
 49
1.0
175
     0
142
0.0208333333333333
142
0.0
142
0.0
142
0.0
142
0.0
142
0.0208333333333333
142
0.0
142
0.0
142
0.0
142
0.0
142
1.0
142
0.0
142
0.0
142
0.0
142
0.0
142
1.0
179
     0
144
0.0208333333333333
144
0.0
144
0.0
144
0.0
144
0.0
144
0.0208333333333333
144
0.0
144
0.0
144
0.0
144
0.0
144
1.0
144
0.0
144
0.0
144
0.0
144
0.0
144
1.0
147
0.0208333333333333
147
0.0
147
0.0
147
0.0
147
0.0
147
0.0208333333333333
147
0.0
147
0.0
147
0.0
147
0.0
147
1.0
147
0.0
147
0.0
147
0.0
147
0.0
147
1.0
  0
MLEADERSTYLE
  5
67
102
{ACAD_XDICTIONARY
360
3A7
102
}
102
{ACAD_REACTORS
330
66
102
}
330
66
100
AcDbMLeaderStyle
179
     2
170
     2
171
     1
172
     0
 90
        2
 40
0.0
 41
0.0
173
     1
 91
-1056964608
340
5B
 92
       -2
290
     1
 42
0.09
291
     1
 43
0.36
  3
Standard
 44
0.18
300

342
55
174
     1
178
     6
175
     1
176
     0
 93
-1056964608
 45
0.18
292
     0
297
     0
 46
0.18
 94
-1056964608
 47
1.0
 49
1.0
140
1.0
293
     1
141
0.0
294
     1
177
     0
142
1.0
295
     0
296
     0
143
0.125
271
     0
272
     9
273
     9
  0
MLINESTYLE
  5
60
102
{ACAD_REACTORS
330
5F
102
}
330
5F
100
AcDbMlineStyle
  2
STANDARD
 70
     0
  3

 62
   256
 51
90.0
 52
90.0
 71
     2
 49
0.5
 62
   256
  6
BYLAYER
 49
-0.5
 62
   256
  6
BYLAYER
  0
ACDBPLACEHOLDER
  5
F
102
{ACAD_REACTORS
330
E
102
}
330
E
  0
SCALE
  5
43
102
{ACAD_REACTORS
330
42
102
}
330
42
100
AcDbScale
 70
     0
300
1:1
140
1.0
141
1.0
290
     1
  0
SCALE
  5
44
102
{ACAD_REACTORS
330
42
102
}
330
42
100
AcDbScale
 70
     0
300
1/128" = 1'-0"
140
0.0078125
141
12.0
290
     0
  0
SCALE
  5
45
102
{ACAD_REACTORS
330
42
102
}
330
42
100
AcDbScale
 70
     0
300
1/64" = 1'-0"
140
0.015625
141
12.0
290
     0
  0
SCALE
  5
46
102
{ACAD_REACTORS
330
42
102
}
330
42
100
AcDbScale
 70
     0
300
1/32" = 1'-0"
140
0.03125
141
12.0
290
     0
  0
SCALE
  5
47
102
{ACAD_REACTORS
330
42
102
}
330
42
100
AcDbScale
 70
     0
300
1/16" = 1'-0"
140
0.0625
141
12.0
290
     0
  0
SCALE
  5
48
102
{ACAD_REACTORS
330
42
102
}
330
42
100
AcDbScale
 70
     0
300
3/32" = 1'-0"
140
0.09375
141
12.0
290
     0
  0
SCALE
  5
49
102
{ACAD_REACTORS
330
42
102
}
330
42
100
AcDbScale
 70
     0
300
1/8" = 1'-0"
140
0.125
141
12.0
290
     0
  0
SCALE
  5
4A
102
{ACAD_REACTORS
330
42
102
}
330
42
100
AcDbScale
 70
     0
300
3/16" = 1'-0"
140
0.1875
141
12.0
290
     0
  0
SCALE
  5
4B
102
{ACAD_REACTORS
330
42
102
}
330
42
100
AcDbScale
 70
     0
300
1/4" = 1'-0"
140
0.25
141
12.0
290
     0
  0
SCALE
  5
4C
102
{ACAD_REACTORS
330
42
102
}
330
42
100
AcDbScale
 70
     0
300
3/8" = 1'-0"
140
0.375
141
12.0
290
     0
  0
SCALE
  5
4D
102
{ACAD_REACTORS
330
42
102
}
330
42
100
AcDbScale
 70
     0
300
1/2" = 1'-0"
140
0.5
141
12.0
290
     0
  0
SCALE
  5
4E
102
{ACAD_REACTORS
330
42
102
}
330
42
100
AcDbScale
 70
     0
300
3/4" = 1'-0"
140
0.75
141
12.0
290
     0
  0
SCALE
  5
4F
102
{ACAD_REACTORS
330
42
102
}
330
42
100
AcDbScale
 70
     0
300
1" = 1'-0"
140
1.0
141
12.0
290
     0
  0
SCALE
  5
50
102
{ACAD_REACTORS
330
42
102
}
330
42
100
AcDbScale
 70
     0
300
1-1/2" = 1'-0"
140
1.5
141
12.0
290
     0
  0
SCALE
  5
51
102
{ACAD_REACTORS
330
42
102
}
330
42
100
AcDbScale
 70
     0
300
3" = 1'-0"
140
3.0
141
12.0
290
     0
  0
SCALE
  5
52
102
{ACAD_REACTORS
330
42
102
}
330
42
100
AcDbScale
 70
     0
300
6" = 1'-0"
140
6.0
141
12.0
290
     0
  0
SCALE
  5
53
102
{ACAD_REACTORS
330
42
102
}
330
42
100
AcDbScale
 70
     0
300
1'-0" = 1'-0"
140
12.0
141
12.0
290
     0
  0
ACDBSECTIONVIEWSTYLE
  5
69
102
{ACAD_XDICTIONARY
360
3A9
102
}
102
{ACAD_REACTORS
330
68
102
}
330
68
100
AcDbModelDocViewStyle
 70
     0
  3
Imperial24
290
     0
100
AcDbSectionViewStyle
 70
     0
 71
     0
 90
       78
 71
     1
340
55
 62
   256
 40
0.24
340
0
340
0
 62
   256
 40
0.24
300
I, O, Q, S, X, Z
 40
0.48
 90
        3
 40
0.18
 90
        1
 71
     2
340
5D
 90
       25
 62
   256
340
5D
 90
       50
 62
   256
 40
0.24
 40
0.0
 40
0.24
 71
     3
340
55
 62
   256
 40
0.24
 90
        1
 40
0.75
 90
        1
300
%<\AcVar ViewType \f "%tc1">% %<\AcVar ViewSectionStartId>%-%<\AcVar ViewSectionEndId>%\PSCALE %<\AcVar ViewScale \f "%sn">%
 71
     4
 62
   256
 62
   257
300
ANSI31
 40
1.0
 90
        0
290
     0
290
     0
 90
        6
 40
0.0
 40
1.570796326794896
 40
0.2617993877991494
 40
1.308996938995747
 40
-0.2617993877991494
 40
1.832595714594046
  0
TABLESTYLE
  5
65
102
{ACAD_XDICTIONARY
360
374
102
}
102
{ACAD_REACTORS
330
64
102
}
330
64
100
AcDbTableStyle
280
     0
  3
Standard
 70
     0
 71
     0
 40
0.06
 41
0.06
280
     0
281
     0
  7
Standard
140
0.18
170
     2
 62
     0
 63
     7
283
     0
 90
      512
 91
        0
  1

274
    -2
284
     1
 64
     0
275
    -2
285
     1
 65
     0
276
    -2
286
     1
 66
     0
277
    -2
287
     1
 67
     0
278
    -2
288
     1
 68
     0
279
    -2
289
     1
 69
     0
  7
Standard
140
0.25
170
     5
 62
     0
 63
     7
283
     0
 90
      512
 91
        0
  1

274
    -2
284
     1
 64
     0
275
    -2
285
     1
 65
     0
276
    -2
286
     1
 66
     0
277
    -2
287
     1
 67
     0
278
    -2
288
     1
 68
     0
279
    -2
289
     1
 69
     0
  7
Standard
140
0.18
170
     5
 62
     0
 63
     7
283
     0
 90
      512
 91
        0
  1

274
    -2
284
     1
 64
     0
275
    -2
285
     1
 65
     0
276
    -2
286
     1
 66
     0
277
    -2
287
     1
 67
     0
278
    -2
288
     1
 68
     0
279
    -2
289
     1
 69
     0
  0
VISUALSTYLE
  5
2F
102
{ACAD_XDICTIONARY
360
381
102
}
102
{ACAD_REACTORS
330
29
102
}
330
29
100
AcDbVisualStyle
  2
2dWireframe
 70
     4
177
     2
291
     0
 71
     0
176
     1
 72
     2
176
     1
 73
     0
176
     1
 90
        0
176
     1
 40
0.6
176
     1
 41
30.0
176
     1
 63
     7
421
 16777215
176
     1
 74
     1
176
     1
 91
        4
176
     1
 64
     7
176
     1
 65
   257
176
     1
 75
     1
176
     1
175
     1
176
     1
 42
1.0
176
     1
 92
        0
176
     1
 66
   257
176
     1
 43
1.0
176
     1
 76
     1
176
     1
 77
     6
176
     1
 78
     2
176
     1
 67
     7
176
     1
 79
     5
176
     1
170
     0
176
     1
171
     0
176
     1
290
     0
176
     1
 93
        1
176
     1
 44
0.0
176
     1
173
     0
176
     1
1001
ACAD
1000
AcDbSavedByObjectVersion
1070
     0
  0
VISUALSTYLE
  5
2E
102
{ACAD_XDICTIONARY
360
37F
102
}
102
{ACAD_REACTORS
330
29
102
}
330
29
100
AcDbVisualStyle
  2
Basic
 70
     7
177
     2
291
     1
 71
     1
176
     1
 72
     0
176
     1
 73
     1
176
     1
 90
        0
176
     1
 40
0.6
176
     1
 41
30.0
176
     1
 63
     7
421
 16777215
176
     1
 74
     0
176
     1
 91
        4
176
     1
 64
     7
176
     1
 65
   257
176
     1
 75
     1
176
     1
175
     1
176
     1
 42
1.0
176
     1
 92
        8
176
     1
 66
     7
176
     1
 43
1.0
176
     1
 76
     1
176
     1
 77
     6
176
     1
 78
     2
176
     1
 67
     7
176
     1
 79
     5
176
     1
170
     0
176
     1
171
     0
176
     1
290
     0
176
     1
 93
        1
176
     1
 44
0.0
176
     1
173
     0
176
     1
1001
ACAD
1000
AcDbSavedByObjectVersion
1070
     0
  0
VISUALSTYLE
  5
35
102
{ACAD_XDICTIONARY
360
38D
102
}
102
{ACAD_REACTORS
330
29
102
}
330
29
100
AcDbVisualStyle
  2
Brighten
 70
    12
177
     2
291
     1
 71
     2
176
     1
 72
     2
176
     1
 73
     0
176
     1
 90
        0
176
     1
 40
0.6
176
     1
 41
30.0
176
     1
 63
     7
421
 16777215
176
     1
 74
     1
176
     1
 91
        4
176
     1
 64
     7
176
     1
 65
   257
176
     1
 75
     1
176
     1
175
     1
176
     1
 42
1.0
176
     1
 92
        8
176
     1
 66
     7
176
     1
 43
1.0
176
     1
 76
     1
176
     1
 77
     6
176
     1
 78
     2
176
     1
 67
     7
176
     1
 79
     5
176
     1
170
     0
176
     1
171
     0
176
     1
290
     0
176
     1
 93
        1
176
     1
 44
50.0
176
     1
173
     0
176
     1
1001
ACAD
1000
AcDbSavedByObjectVersion
1070
     0
  0
VISUALSTYLE
  5
39
102
{ACAD_XDICTIONARY
360
395
102
}
102
{ACAD_REACTORS
330
29
102
}
330
29
100
AcDbVisualStyle
  2
ColorChange
 70
    16
177
     2
291
     1
 71
     2
176
     1
 72
     2
176
     1
 73
     3
176
     1
 90
        0
176
     1
 40
0.6
176
     1
 41
30.0
176
     1
 63
     8
421
  8421504
176
     1
 74
     1
176
     1
 91
        4
176
     1
 64
     7
176
     1
 65
   257
176
     1
 75
     1
176
     1
175
     1
176
     1
 42
1.0
176
     1
 92
        8
176
     1
 66
     8
424
  8421504
176
     1
 43
1.0
176
     1
 76
     1
176
     1
 77
     6
176
     1
 78
     2
176
     1
 67
     7
176
     1
 79
     5
176
     1
170
     0
176
     1
171
     0
176
     1
290
     0
176
     1
 93
        1
176
     1
 44
0.0
176
     1
173
     0
176
     1
1001
ACAD
1000
AcDbSavedByObjectVersion
1070
     0
  0
VISUALSTYLE
  5
32
102
{ACAD_XDICTIONARY
360
387
102
}
102
{ACAD_REACTORS
330
29
102
}
330
29
100
AcDbVisualStyle
  2
Conceptual
 70
     9
177
     2
291
     0
 71
     3
176
     1
 72
     2
176
     1
 73
     0
176
     1
 90
        0
176
     1
 40
0.6
176
     1
 41
30.0
176
     1
 63
     7
421
 16777215
176
     1
 74
     2
176
     1
 91
        2
176
     1
 64
     7
176
     1
 65
   257
176
     1
 75
     1
176
     1
175
     1
176
     1
 42
179.0
176
     1
 92
        8
176
     1
 66
     7
176
     1
 43
1.0
176
     1
 76
     1
176
     1
 77
     6
176
     1
 78
     2
176
     1
 67
     7
176
     1
 79
     3
176
     1
170
     0
176
     1
171
     0
176
     1
290
     0
176
     1
 93
        1
176
     1
 44
0.0
176
     1
173
     0
176
     1
1001
ACAD
1000
AcDbSavedByObjectVersion
1070
     0
  0
VISUALSTYLE
  5
34
102
{ACAD_XDICTIONARY
360
38B
102
}
102
{ACAD_REACTORS
330
29
102
}
330
29
100
AcDbVisualStyle
  2
Dim
 70
    11
177
     2
291
     1
 71
     2
176
     1
 72
     2
176
     1
 73
     0
176
     1
 90
        0
176
     1
 40
0.6
176
     1
 41
30.0
176
     1
 63
     7
421
 16777215
176
     1
 74
     1
176
     1
 91
        4
176
     1
 64
     7
176
     1
 65
   257
176
     1
 75
     1
176
     1
175
     1
176
     1
 42
1.0
176
     1
 92
        8
176
     1
 66
     7
176
     1
 43
1.0
176
     1
 76
     1
176
     1
 77
     6
176
     1
 78
     2
176
     1
 67
     7
176
     1
 79
     5
176
     1
170
     0
176
     1
171
     0
176
     1
290
     0
176
     1
 93
        1
176
     1
 44
-50.0
176
     1
173
     0
176
     1
1001
ACAD
1000
AcDbSavedByObjectVersion
1070
     0
  0
VISUALSTYLE
  5
41
102
{ACAD_XDICTIONARY
360
3A5
102
}
102
{ACAD_REACTORS
330
29
102
}
330
29
100
AcDbVisualStyle
  2
EdgeColorOff
 70
    22
177
     2
291
     1
 71
     2
176
     0
 72
     2
176
     0
 73
     0
176
     0
 90
        0
176
     0
 40
0.6
176
     0
 41
30.0
176
     0
 63
     7
421
 16777215
176
     0
 74
     1
176
     0
 91
        4
176
     0
 64
     7
176
     0
 65
   257
176
     0
 75
     1
176
     0
175
     1
176
     0
 42
1.0
176
     0
 92
        8
176
     2
 66
     7
176
     0
 43
1.0
176
     0
 76
     1
176
     0
 77
     6
176
     0
 78
     2
176
     0
 67
     7
176
     0
 79
     5
176
     0
170
     0
176
     0
171
     0
176
     0
290
     0
176
     0
 93
        1
176
     0
 44
0.0
176
     0
173
     0
176
     0
1001
ACAD
1000
AcDbSavedByObjectVersion
1070
     0
  0
VISUALSTYLE
  5
38
102
{ACAD_XDICTIONARY
360
393
102
}
102
{ACAD_REACTORS
330
29
102
}
330
29
100
AcDbVisualStyle
  2
Facepattern
 70
    15
177
     2
291
     1
 71
     2
176
     1
 72
     2
176
     1
 73
     0
176
     1
 90
        0
176
     1
 40
0.6
176
     1
 41
30.0
176
     1
 63
     7
421
 16777215
176
     1
 74
     1
176
     1
 91
        4
176
     1
 64
     7
176
     1
 65
   257
176
     1
 75
     1
176
     1
175
     1
176
     1
 42
1.0
176
     1
 92
        8
176
     1
 66
     7
176
     1
 43
1.0
176
     1
 76
     1
176
     1
 77
     6
176
     1
 78
     2
176
     1
 67
     7
176
     1
 79
     5
176
     1
170
     0
176
     1
171
     0
176
     1
290
     0
176
     1
 93
        1
176
     1
 44
0.0
176
     1
173
     0
176
     1
1001
ACAD
1000
AcDbSavedByObjectVersion
1070
     0
  0
VISUALSTYLE
  5
2A
102
{ACAD_XDICTIONARY
360
377
102
}
102
{ACAD_REACTORS
330
29
102
}
330
29
100
AcDbVisualStyle
  2
Flat
 70
     0
177
     2
291
     1
 71
     2
176
     1
 72
     1
176
     1
 73
     1
176
     1
 90
        2
176
     1
 40
0.6
176
     1
 41
30.0
176
     1
 63
     7
421
 16777215
176
     1
 74
     0
176
     1
 91
        0
176
     1
 64
     7
176
     1
 65
   257
176
     1
 75
     1
176
     1
175
     1
176
     1
 42
1.0
176
     1
 92
        8
176
     1
 66
     7
176
     1
 43
1.0
176
     1
 76
     1
176
     1
 77
     6
176
     1
 78
     2
176
     1
 67
     7
176
     1
 79
     5
176
     1
170
     0
176
     1
171
     0
176
     1
290
     0
176
     1
 93
       13
176
     1
 44
0.0
176
     1
173
     0
176
     1
1001
ACAD
1000
AcDbSavedByObjectVersion
1070
     0
  0
VISUALSTYLE
  5
2B
102
{ACAD_XDICTIONARY
360
379
102
}
102
{ACAD_REACTORS
330
29
102
}
330
29
100
AcDbVisualStyle
  2
FlatWithEdges
 70
     1
177
     2
291
     1
 71
     2
176
     1
 72
     1
176
     1
 73
     1
176
     1
 90
        2
176
     1
 40
0.6
176
     1
 41
30.0
176
     1
 63
     7
421
 16777215
176
     1
 74
     1
176
     1
 91
        0
176
     1
 64
     7
176
     1
 65
   257
176
     1
 75
     1
176
     1
175
     1
176
     1
 42
1.0
176
     1
 92
        0
176
     1
 66
   257
176
     1
 43
1.0
176
     1
 76
     1
176
     1
 77
     6
176
     1
 78
     2
176
     1
 67
     7
176
     1
 79
     5
176
     1
170
     0
176
     1
171
     0
176
     1
290
     0
176
     1
 93
       13
176
     1
 44
0.0
176
     1
173
     0
176
     1
1001
ACAD
1000
AcDbSavedByObjectVersion
1070
     0
  0
VISUALSTYLE
  5
2C
102
{ACAD_XDICTIONARY
360
37B
102
}
102
{ACAD_REACTORS
330
29
102
}
330
29
100
AcDbVisualStyle
  2
Gouraud
 70
     2
177
     2
291
     1
 71
     2
176
     1
 72
     2
176
     1
 73
     1
176
     1
 90
        2
176
     1
 40
0.6
176
     1
 41
30.0
176
     1
 63
     7
421
 16777215
176
     1
 74
     0
176
     1
 91
        0
176
     1
 64
     7
176
     1
 65
   257
176
     1
 75
     1
176
     1
175
     1
176
     1
 42
1.0
176
     1
 92
        0
176
     1
 66
     7
176
     1
 43
1.0
176
     1
 76
     1
176
     1
 77
     6
176
     1
 78
     2
176
     1
 67
     7
176
     1
 79
     5
176
     1
170
     0
176
     1
171
     0
176
     1
290
     0
176
     1
 93
       13
176
     1
 44
0.0
176
     1
173
     0
176
     1
1001
ACAD
1000
AcDbSavedByObjectVersion
1070
     0
  0
VISUALSTYLE
  5
2D
102
{ACAD_XDICTIONARY
360
37D
102
}
102
{ACAD_REACTORS
330
29
102
}
330
29
100
AcDbVisualStyle
  2
GouraudWithEdges
 70
     3
177
     2
291
     1
 71
     2
176
     1
 72
     2
176
     1
 73
     1
176
     1
 90
        2
176
     1
 40
0.6
176
     1
 41
30.0
176
     1
 63
     7
421
 16777215
176
     1
 74
     1
176
     1
 91
        0
176
     1
 64
     7
176
     1
 65
   257
176
     1
 75
     1
176
     1
175
     1
176
     1
 42
1.0
176
     1
 92
        0
176
     1
 66
   257
176
     1
 43
1.0
176
     1
 76
     1
176
     1
 77
     6
176
     1
 78
     2
176
     1
 67
     7
176
     1
 79
     5
176
     1
170
     0
176
     1
171
     0
176
     1
290
     0
176
     1
 93
       13
176
     1
 44
0.0
176
     1
173
     0
176
     1
1001
ACAD
1000
AcDbSavedByObjectVersion
1070
     0
  0
VISUALSTYLE
  5
31
102
{ACAD_XDICTIONARY
360
385
102
}
102
{ACAD_REACTORS
330
29
102
}
330
29
100
AcDbVisualStyle
  2
Hidden
 70
     6
177
     2
291
     0
 71
     1
176
     1
 72
     2
176
     1
 73
     2
176
     1
 90
        0
176
     1
 40
0.6
176
     1
 41
30.0
176
     1
 63
     7
421
 16777215
176
     1
 74
     2
176
     1
 91
        2
176
     1
 64
     7
176
     1
 65
   257
176
     1
 75
     2
176
     1
175
     1
176
     1
 42
40.0
176
     1
 92
        0
176
     1
 66
   257
176
     1
 43
1.0
176
     1
 76
     1
176
     1
 77
     6
176
     1
 78
     2
176
     1
 67
     7
176
     1
 79
     3
176
     1
170
     0
176
     1
171
     0
176
     1
290
     0
176
     1
 93
        1
176
     1
 44
0.0
176
     1
173
     0
176
     1
1001
ACAD
1000
AcDbSavedByObjectVersion
1070
     0
  0
VISUALSTYLE
  5
3F
102
{ACAD_XDICTIONARY
360
3A1
102
}
102
{ACAD_REACTORS
330
29
102
}
330
29
100
AcDbVisualStyle
  2
JitterOff
 70
    20
177
     2
291
     1
 71
     2
176
     0
 72
     2
176
     0
 73
     0
176
     0
 90
        0
176
     0
 40
0.6
176
     0
 41
30.0
176
     0
 63
     7
421
 16777215
176
     0
 74
     1
176
     0
 91
        4
176
     0
 64
     7
176
     0
 65
   257
176
     0
 75
     1
176
     0
175
     1
176
     0
 42
1.0
176
     0
 92
       10
176
     2
 66
     7
176
     0
 43
1.0
176
     0
 76
     1
176
     0
 77
     6
176
     0
 78
     2
176
     0
 67
     7
176
     0
 79
     5
176
     0
170
     0
176
     0
171
     0
176
     0
290
     0
176
     0
 93
        1
176
     0
 44
0.0
176
     0
173
     0
176
     0
1001
ACAD
1000
AcDbSavedByObjectVersion
1070
     0
  0
VISUALSTYLE
  5
37
102
{ACAD_XDICTIONARY
360
391
102
}
102
{ACAD_REACTORS
330
29
102
}
330
29
100
AcDbVisualStyle
  2
Linepattern
 70
    14
177
     2
291
     1
 71
     2
176
     1
 72
     2
176
     1
 73
     0
176
     1
 90
        0
176
     1
 40
0.6
176
     1
 41
30.0
176
     1
 63
     7
421
 16777215
176
     1
 74
     1
176
     1
 91
        4
176
     1
 64
     7
176
     1
 65
   257
176
     1
 75
     7
176
     1
175
     7
176
     1
 42
1.0
176
     1
 92
        8
176
     1
 66
     7
176
     1
 43
1.0
176
     1
 76
     1
176
     1
 77
     6
176
     1
 78
     2
176
     1
 67
     7
176
     1
 79
     5
176
     1
170
     0
176
     1
171
     0
176
     1
290
     0
176
     1
 93
        1
176
     1
 44
0.0
176
     1
173
     0
176
     1
1001
ACAD
1000
AcDbSavedByObjectVersion
1070
     0
  0
VISUALSTYLE
  5
40
102
{ACAD_XDICTIONARY
360
3A3
102
}
102
{ACAD_REACTORS
330
29
102
}
330
29
100
AcDbVisualStyle
  2
OverhangOff
 70
    21
177
     2
291
     1
 71
     2
176
     0
 72
     2
176
     0
 73
     0
176
     0
 90
        0
176
     0
 40
0.6
176
     0
 41
30.0
176
     0
 63
     7
421
 16777215
176
     0
 74
     1
176
     0
 91
        4
176
     0
 64
     7
176
     0
 65
   257
176
     0
 75
     1
176
     0
175
     1
176
     0
 42
1.0
176
     0
 92
        9
176
     2
 66
     7
176
     0
 43
1.0
176
     0
 76
     1
176
     0
 77
     6
176
     0
 78
     2
176
     0
 67
     7
176
     0
 79
     5
176
     0
170
     0
176
     0
171
     0
176
     0
290
     0
176
     0
 93
        1
176
     0
 44
0.0
176
     0
173
     0
176
     0
1001
ACAD
1000
AcDbSavedByObjectVersion
1070
     0
  0
VISUALSTYLE
  5
33
102
{ACAD_XDICTIONARY
360
389
102
}
102
{ACAD_REACTORS
330
29
102
}
330
29
100
AcDbVisualStyle
  2
Realistic
 70
     8
177
     2
291
     0
 71
     2
176
     1
 72
     3
176
     1
 73
     0
176
     1
 90
        2
176
     1
 40
0.6
176
     1
 41
30.0
176
     1
 63
     7
421
 16777215
176
     1
 74
     0
176
     1
 91
        0
176
     1
 64
     7
176
     1
 65
   257
176
     1
 75
     1
176
     1
175
     1
176
     1
 42
1.0
176
     1
 92
        8
176
     1
 66
   257
176
     1
 43
1.0
176
     1
 76
     1
176
     1
 77
     6
176
     1
 78
     2
176
     1
 67
     7
176
     1
 79
     3
176
     1
170
     0
176
     1
171
     0
176
     1
290
     0
176
     1
 93
       13
176
     1
 44
0.0
176
     1
173
     0
176
     1
1001
ACAD
1000
AcDbSavedByObjectVersion
1070
     0
  0
VISUALSTYLE
  5
3E
102
{ACAD_XDICTIONARY
360
39F
102
}
102
{ACAD_REACTORS
330
29
102
}
330
29
100
AcDbVisualStyle
  2
Shaded
 70
    27
177
     2
291
     0
 71
     2
176
     1
 72
     2
176
     1
 73
     1
176
     1
 90
        2
176
     1
 40
0.6
176
     1
 41
30.0
176
     1
 63
     7
421
 16777215
176
     1
 74
     0
176
     1
 91
        4
176
     1
 64
     7
176
     1
 65
   257
176
     1
 75
     1
176
     1
175
     1
176
     1
 42
1.0
176
     1
 92
        8
176
     1
 66
   257
176
     1
 43
1.0
176
     1
 76
     1
176
     1
 77
     6
176
     1
 78
     2
176
     1
 67
     8
425
  7895160
176
     1
 79
     3
176
     1
170
     0
176
     1
171
     0
176
     1
290
     0
176
     1
 93
        5
176
     1
 44
0.0
176
     1
173
     0
176
     1
1001
ACAD
1000
AcDbSavedByObjectVersion
1070
     0
  0
VISUALSTYLE
  5
3D
102
{ACAD_XDICTIONARY
360
39D
102
}
102
{ACAD_REACTORS
330
29
102
}
330
29
100
AcDbVisualStyle
  2
Shaded with edges
 70
    26
177
     2
291
     0
 71
     2
176
     1
 72
     2
176
     1
 73
     1
176
     1
 90
        2
176
     1
 40
0.6
176
     1
 41
30.0
176
     1
 63
     7
421
 16777215
176
     1
 74
     1
176
     1
 91
        2
176
     1
 64
     7
176
     1
 65
   257
176
     1
 75
     2
176
     1
175
     1
176
     1
 42
1.0
176
     1
 92
        8
176
     1
 66
   257
176
     1
 43
1.0
176
     1
 76
     1
176
     1
 77
     6
176
     1
 78
     2
176
     1
 67
     7
176
     1
 79
     3
176
     1
170
     0
176
     1
171
     0
176
     1
290
     0
176
     1
 93
        5
176
     1
 44
0.0
176
     1
173
     0
176
     1
1001
ACAD
1000
AcDbSavedByObjectVersion
1070
     0
  0
VISUALSTYLE
  5
3A
102
{ACAD_XDICTIONARY
360
397
102
}
102
{ACAD_REACTORS
330
29
102
}
330
29
100
AcDbVisualStyle
  2
Shades of Gray
 70
    23
177
     2
291
     0
 71
     2
176
     1
 72
     2
176
     1
 73
     3
176
     1
 90
        0
176
     1
 40
0.6
176
     1
 41
30.0
176
     1
 63
     7
421
 16777215
176
     1
 74
     2
176
     1
 91
        2
176
     1
 64
     7
176
     1
 65
     7
176
     1
 75
     1
176
     1
175
     1
176
     1
 42
40.0
176
     1
 92
        8
176
     1
 66
     7
176
     1
 43
1.0
176
     1
 76
     1
176
     1
 77
     6
176
     1
 78
     2
176
     1
 67
     7
176
     1
 79
     3
176
     1
170
     0
176
     1
171
     0
176
     1
290
     0
176
     1
 93
        1
176
     1
 44
0.0
176
     1
173
     0
176
     1
1001
ACAD
1000
AcDbSavedByObjectVersion
1070
     0
  0
VISUALSTYLE
  5
3B
102
{ACAD_XDICTIONARY
360
399
102
}
102
{ACAD_REACTORS
330
29
102
}
330
29
100
AcDbVisualStyle
  2
Sketchy
 70
    24
177
     2
291
     0
 71
     1
176
     1
 72
     2
176
     1
 73
     2
176
     1
 90
        0
176
     1
 40
0.6
176
     1
 41
30.0
176
     1
 63
     7
421
 16777215
176
     1
 74
     2
176
     1
 91
        2
176
     1
 64
     7
176
     1
 65
     7
176
     1
 75
     1
176
     1
175
     1
176
     1
 42
40.0
176
     1
 92
       11
176
     1
 66
     7
176
     1
 43
1.0
176
     1
 76
     1
176
     1
 77
     6
176
     1
 78
     2
176
     1
 67
     7
176
     1
 79
     6
176
     1
170
     0
176
     1
171
     0
176
     1
290
     0
176
     1
 93
        1
176
     1
 44
0.0
176
     1
173
     0
176
     1
1001
ACAD
1000
AcDbSavedByObjectVersion
1070
     0
  0
VISUALSTYLE
  5
36
102
{ACAD_XDICTIONARY
360
38F
102
}
102
{ACAD_REACTORS
330
29
102
}
330
29
100
AcDbVisualStyle
  2
Thicken
 70
    13
177
     2
291
     1
 71
     2
176
     1
 72
     2
176
     1
 73
     0
176
     1
 90
        0
176
     1
 40
0.6
176
     1
 41
30.0
176
     1
 63
     7
421
 16777215
176
     1
 74
     1
176
     1
 91
        4
176
     1
 64
     7
176
     1
 65
   257
176
     1
 75
     1
176
     1
175
     1
176
     1
 42
1.0
176
     1
 92
       12
176
     1
 66
     7
176
     1
 43
1.0
176
     1
 76
     1
176
     1
 77
     6
176
     1
 78
     2
176
     1
 67
     7
176
     1
 79
     5
176
     1
170
     0
176
     1
171
     0
176
     1
290
     0
176
     1
 93
        1
176
     1
 44
0.0
176
     1
173
     0
176
     1
1001
ACAD
1000
AcDbSavedByObjectVersion
1070
     0
  0
VISUALSTYLE
  5
30
102
{ACAD_XDICTIONARY
360
383
102
}
102
{ACAD_REACTORS
330
29
102
}
330
29
100
AcDbVisualStyle
  2
Wireframe
 70
     5
177
     2
291
     0
 71
     0
176
     1
 72
     2
176
     1
 73
     0
176
     1
 90
        0
176
     1
 40
0.6
176
     1
 41
30.0
176
     1
 63
     7
421
 16777215
176
     1
 74
     1
176
     1
 91
        4
176
     1
 64
     7
176
     1
 65
   257
176
     1
 75
     1
176
     1
175
     1
176
     1
 42
1.0
176
     1
 92
        0
176
     1
 66
   257
176
     1
 43
1.0
176
     1
 76
     1
176
     1
 77
     6
176
     1
 78
     2
176
     1
 67
     7
176
     1
 79
     3
176
     1
170
     0
176
     1
171
     0
176
     1
290
     0
176
     1
 93
        1
176
     1
 44
0.0
176
     1
173
     0
176
     1
1001
ACAD
1000
AcDbSavedByObjectVersion
1070
     0
  0
VISUALSTYLE
  5
3C
102
{ACAD_XDICTIONARY
360
39B
102
}
102
{ACAD_REACTORS
330
29
102
}
330
29
100
AcDbVisualStyle
  2
X-Ray
 70
    25
177
     2
291
     0
 71
     2
176
     1
 72
     2
176
     1
 73
     1
176
     1
 90
        1
176
     1
 40
0.5
176
     1
 41
30.0
176
     1
 63
     7
421
 16777215
176
     1
 74
     1
176
     1
 91
        0
176
     1
 64
     7
176
     1
 65
   257
176
     1
 75
     1
176
     1
175
     1
176
     1
 42
1.0
176
     1
 92
        8
176
     1
 66
     7
176
     1
 43
1.0
176
     1
 76
     1
176
     1
 77
     6
176
     1
 78
     2
176
     1
 67
     7
176
     1
 79
     3
176
     1
170
     0
176
     1
171
     0
176
     1
290
     0
176
     1
 93
       13
176
     1
 44
0.0
176
     1
173
     0
176
     1
1001
ACAD
1000
AcDbSavedByObjectVersion
1070
     0
  0
DICTIONARYVAR
  5
80
102
{ACAD_REACTORS
330
7B
102
}
330
7B
100
DictionaryVariables
280
     0
  1
1:1
  0
DICTIONARYVAR
  5
7D
102
{ACAD_REACTORS
330
7B
102
}
330
7B
100
DictionaryVariables
280
     0
  1
STANDARD
  0
DICTIONARYVAR
  5
7C
102
{ACAD_REACTORS
330
7B
102
}
330
7B
100
DictionaryVariables
280
     0
  1
STANDARD
  0
DICTIONARYVAR
  5
7E
102
{ACAD_REACTORS
330
7B
102
}
330
7B
100
DictionaryVariables
280
     0
  1
Imperial24
  0
DICTIONARYVAR
  5
7F
102
{ACAD_REACTORS
330
7B
102
}
330
7B
100
DictionaryVariables
280
     0
  1
Imperial24
  0
XRECORD
  5
370
102
{ACAD_REACTORS
330
36C
102
}
330
36C
100
AcDbXrecord
280
     1
  1
BUILDING_ID
  1
TRS Interlocking Cladding Details
  1
FLOOR_ID
  1
216848
  0
XRECORD
  5
36E
102
{ACAD_REACTORS
330
36C
102
}
330
36C
100
AcDbXrecord
280
     1
  1
-2000051
  1
Lines
  1
-2000280
  1
Title Blocks
  1
-2000300
  1
Text Notes
  1
-2002000
  1
Detail Items
  0
XRECORD
  5
36F
102
{ACAD_REACTORS
330
36C
102
}
330
36C
100
AcDbXrecord
280
     1
  1
-2000042
  1
Thin Lines
  1
-2000043
  1
Medium Lines
  1
-2000281
  1
Thin Lines
  1
-2000282
  1
Medium Lines
  1
10657
  1
mpt_underlay
  1
15798
  1
Light Lines
  1
16198
  1
Thin Lines Dashed Long
  1
16257
  1
Wide Lines
  1
16362
  1
Thin Lines
  1
2656
  1
Flashing profile
  1
41819
  1
met_lines 1
  0
XRECORD
  5
36D
102
{ACAD_REACTORS
330
36C
102
}
330
36C
100
AcDbXrecord
280
     1
  1
10664
  1
breakline with fill detail1to5 : breakline with fill detail1to5
  1
10675
  1
rs_building wrap : Building wrap
  1
108656
  1
Filled region : Wood
  1
113920
  1
TRS Interlocking profile : Interlocking 260
  1
14996
  1
Filled region : Crosshatch 3mm
  1
16489
  1
Text : Century Gothic 2.5mm
  1
17867
  1
Filled region : Grey LT - Solid
  1
17941
  1
Filled region : Plasterboard
  1
205910
  1
rs_grab flashing notched around super seam upstands 2 : Parapet underclip - Deck
  1
207667
  1
rs_parapet capping 2 : Parapet capping - Deck
  1
215162
  1
FP Fixing Coach Screw side : M12
  1
216507
  1
rs_parapet framing : Parapet framing 2
  1
219786
  1
Filled region : Diagonal Down 2.0mm
  1
2694
  1
Titleblock A4 The roofing store : Titleblock A4 The roofing store
  1
33622
  1
FP Timber Nog Packer : Variable
  1
44489
  1
FP Timber Nog Packer1 : Variable
  1
47643
  1
rs_fixing nail : nail 20 mm
  1
98793
  1
Hex head timberfix screw : Hex head timberfix screw
  0
DICTIONARY
  5
3AB
330
6B
100
AcDbDictionary
280
     1
281
     1
  3
ACAD_XREC_ROUNDTRIP
360
3AC
  0
DICTIONARY
  5
1A
330
19
100
AcDbDictionary
280
     1
281
     1
  3
BUMPTILE
360
1C
  3
DIFFUSETILE
360
1B
  3
OPACITYTILE
360
1F
  3
REFLECTIONTILE
360
1E
  3
REFRACTIONTILE
360
20
  3
SPECULARTILE
360
1D
  0
DICTIONARY
  5
12
330
11
100
AcDbDictionary
280
     1
281
     1
  3
BUMPTILE
360
14
  3
DIFFUSETILE
360
13
  3
OPACITYTILE
360
17
  3
REFLECTIONTILE
360
16
  3
REFRACTIONTILE
360
18
  3
SPECULARTILE
360
15
  0
DICTIONARY
  5
22
330
21
100
AcDbDictionary
280
     1
281
     1
  3
BUMPTILE
360
24
  3
DIFFUSETILE
360
23
  3
OPACITYTILE
360
27
  3
REFLECTIONTILE
360
26
  3
REFRACTIONTILE
360
28
  3
SPECULARTILE
360
25
  0
DICTIONARY
  5
3A7
330
67
100
AcDbDictionary
280
     1
281
     1
  3
ACAD_XREC_ROUNDTRIP
360
3A8
  0
DICTIONARY
  5
3A9
330
69
100
AcDbDictionary
280
     1
281
     1
  3
ACAD_XREC_ROUNDTRIP
360
3AA
  0
DICTIONARY
  5
374
330
65
100
AcDbDictionary
280
     1
281
     1
  3
ACAD_ROUNDTRIP_2008_TABLESTYLE_CELLSTYLEMAP
360
375
  0
DICTIONARY
  5
381
330
2F
100
AcDbDictionary
280
     1
281
     1
  3
ACAD_XREC_ROUNDTRIP
360
382
  0
DICTIONARY
  5
37F
330
2E
100
AcDbDictionary
280
     1
281
     1
  3
ACAD_XREC_ROUNDTRIP
360
380
  0
DICTIONARY
  5
38D
330
35
100
AcDbDictionary
280
     1
281
     1
  3
ACAD_XREC_ROUNDTRIP
360
38E
  0
DICTIONARY
  5
395
330
39
100
AcDbDictionary
280
     1
281
     1
  3
ACAD_XREC_ROUNDTRIP
360
396
  0
DICTIONARY
  5
387
330
32
100
AcDbDictionary
280
     1
281
     1
  3
ACAD_XREC_ROUNDTRIP
360
388
  0
DICTIONARY
  5
38B
330
34
100
AcDbDictionary
280
     1
281
     1
  3
ACAD_XREC_ROUNDTRIP
360
38C
  0
DICTIONARY
  5
3A5
330
41
100
AcDbDictionary
280
     1
281
     1
  3
ACAD_XREC_ROUNDTRIP
360
3A6
  0
DICTIONARY
  5
393
330
38
100
AcDbDictionary
280
     1
281
     1
  3
ACAD_XREC_ROUNDTRIP
360
394
  0
DICTIONARY
  5
377
330
2A
100
AcDbDictionary
280
     1
281
     1
  3
ACAD_XREC_ROUNDTRIP
360
378
  0
DICTIONARY
  5
379
330
2B
100
AcDbDictionary
280
     1
281
     1
  3
ACAD_XREC_ROUNDTRIP
360
37A
  0
DICTIONARY
  5
37B
330
2C
100
AcDbDictionary
280
     1
281
     1
  3
ACAD_XREC_ROUNDTRIP
360
37C
  0
DICTIONARY
  5
37D
330
2D
100
AcDbDictionary
280
     1
281
     1
  3
ACAD_XREC_ROUNDTRIP
360
37E
  0
DICTIONARY
  5
385
330
31
100
AcDbDictionary
280
     1
281
     1
  3
ACAD_XREC_ROUNDTRIP
360
386
  0
DICTIONARY
  5
3A1
330
3F
100
AcDbDictionary
280
     1
281
     1
  3
ACAD_XREC_ROUNDTRIP
360
3A2
  0
DICTIONARY
  5
391
330
37
100
AcDbDictionary
280
     1
281
     1
  3
ACAD_XREC_ROUNDTRIP
360
392
  0
DICTIONARY
  5
3A3
330
40
100
AcDbDictionary
280
     1
281
     1
  3
ACAD_XREC_ROUNDTRIP
360
3A4
  0
DICTIONARY
  5
389
330
33
100
AcDbDictionary
280
     1
281
     1
  3
ACAD_XREC_ROUNDTRIP
360
38A
  0
DICTIONARY
  5
39F
330
3E
100
AcDbDictionary
280
     1
281
     1
  3
ACAD_XREC_ROUNDTRIP
360
3A0
  0
DICTIONARY
  5
39D
330
3D
100
AcDbDictionary
280
     1
281
     1
  3
ACAD_XREC_ROUNDTRIP
360
39E
  0
DICTIONARY
  5
397
330
3A
100
AcDbDictionary
280
     1
281
     1
  3
ACAD_XREC_ROUNDTRIP
360
398
  0
DICTIONARY
  5
399
330
3B
100
AcDbDictionary
280
     1
281
     1
  3
ACAD_XREC_ROUNDTRIP
360
39A
  0
DICTIONARY
  5
38F
330
36
100
AcDbDictionary
280
     1
281
     1
  3
ACAD_XREC_ROUNDTRIP
360
390
  0
DICTIONARY
  5
383
330
30
100
AcDbDictionary
280
     1
281
     1
  3
ACAD_XREC_ROUNDTRIP
360
384
  0
DICTIONARY
  5
39B
330
3C
100
AcDbDictionary
280
     1
281
     1
  3
ACAD_XREC_ROUNDTRIP
360
39C
  0
XRECORD
  5
3AC
102
{ACAD_REACTORS
330
3AB
102
}
330
3AB
100
AcDbXrecord
280
     1
102
DISPLAYNAME
  1
Imperial24
102
FLAGS
 90
        0
  0
XRECORD
  5
1C
102
{ACAD_REACTORS
330
1A
102
}
330
1A
100
AcDbXrecord
280
     1
270
     1
271
     1
  0
XRECORD
  5
1B
102
{ACAD_REACTORS
330
1A
102
}
330
1A
100
AcDbXrecord
280
     1
270
     1
271
     1
  0
XRECORD
  5
1F
102
{ACAD_REACTORS
330
1A
102
}
330
1A
100
AcDbXrecord
280
     1
270
     1
271
     1
  0
XRECORD
  5
1E
102
{ACAD_REACTORS
330
1A
102
}
330
1A
100
AcDbXrecord
280
     1
270
     1
271
     1
  0
XRECORD
  5
20
102
{ACAD_REACTORS
330
1A
102
}
330
1A
100
AcDbXrecord
280
     1
270
     1
271
     1
  0
XRECORD
  5
1D
102
{ACAD_REACTORS
330
1A
102
}
330
1A
100
AcDbXrecord
280
     1
270
     1
271
     1
  0
XRECORD
  5
14
102
{ACAD_REACTORS
330
12
102
}
330
12
100
AcDbXrecord
280
     1
270
     1
271
     1
  0
XRECORD
  5
13
102
{ACAD_REACTORS
330
12
102
}
330
12
100
AcDbXrecord
280
     1
270
     1
271
     1
  0
XRECORD
  5
17
102
{ACAD_REACTORS
330
12
102
}
330
12
100
AcDbXrecord
280
     1
270
     1
271
     1
  0
XRECORD
  5
16
102
{ACAD_REACTORS
330
12
102
}
330
12
100
AcDbXrecord
280
     1
270
     1
271
     1
  0
XRECORD
  5
18
102
{ACAD_REACTORS
330
12
102
}
330
12
100
AcDbXrecord
280
     1
270
     1
271
     1
  0
XRECORD
  5
15
102
{ACAD_REACTORS
330
12
102
}
330
12
100
AcDbXrecord
280
     1
270
     1
271
     1
  0
XRECORD
  5
24
102
{ACAD_REACTORS
330
22
102
}
330
22
100
AcDbXrecord
280
     1
270
     1
271
     1
  0
XRECORD
  5
23
102
{ACAD_REACTORS
330
22
102
}
330
22
100
AcDbXrecord
280
     1
270
     1
271
     1
  0
XRECORD
  5
27
102
{ACAD_REACTORS
330
22
102
}
330
22
100
AcDbXrecord
280
     1
270
     1
271
     1
  0
XRECORD
  5
26
102
{ACAD_REACTORS
330
22
102
}
330
22
100
AcDbXrecord
280
     1
270
     1
271
     1
  0
XRECORD
  5
28
102
{ACAD_REACTORS
330
22
102
}
330
22
100
AcDbXrecord
280
     1
270
     1
271
     1
  0
XRECORD
  5
25
102
{ACAD_REACTORS
330
22
102
}
330
22
100
AcDbXrecord
280
     1
270
     1
271
     1
  0
XRECORD
  5
3A8
102
{ACAD_REACTORS
330
3A7
102
}
330
3A7
100
AcDbXrecord
280
     1
102
ACAD_ROUNDTRIP_2012_MLEADER_STYLE
298
     1
  0
XRECORD
  5
3AA
102
{ACAD_REACTORS
330
3A9
102
}
330
3A9
100
AcDbXrecord
280
     1
102
DISPLAYNAME
  1
Imperial24
102
FLAGS
 90
        0
  0
CELLSTYLEMAP
  5
375
102
{ACAD_REACTORS
330
374
102
}
330
374
100
AcDbCellStyleMap
 90
        3
300
CELLSTYLE
  1
TABLEFORMAT_BEGIN
 90
        5
170
     1
 91
        0
 92
    32768
 62
   257
 93
        1
300
CONTENTFORMAT
  1
CONTENTFORMAT_BEGIN
 90
        0
 91
        0
 92
      512
 93
        0
300

 40
0.0
140
1.0
 94
        5
 62
     0
340
55
144
0.25
309
CONTENTFORMAT_END
171
     0
 94
        0
309
TABLEFORMAT_END
  1
CELLSTYLE_BEGIN
 90
        1
 91
        1
300
_TITLE
309
CELLSTYLE_END
300
CELLSTYLE
  1
TABLEFORMAT_BEGIN
 90
        5
170
     1
 91
        0
 92
        0
 62
   257
 93
        1
300
CONTENTFORMAT
  1
CONTENTFORMAT_BEGIN
 90
        0
 91
        0
 92
      512
 93
        0
300

 40
0.0
140
1.0
 94
        5
 62
     0
340
55
144
0.18
309
CONTENTFORMAT_END
171
     0
 94
        0
309
TABLEFORMAT_END
  1
CELLSTYLE_BEGIN
 90
        2
 91
        1
300
_HEADER
309
CELLSTYLE_END
300
CELLSTYLE
  1
TABLEFORMAT_BEGIN
 90
        5
170
     1
 91
        0
 92
        0
 62
   257
 93
        1
300
CONTENTFORMAT
  1
CONTENTFORMAT_BEGIN
 90
        0
 91
        0
 92
      512
 93
        0
300

 40
0.0
140
1.0
 94
        2
 62
     0
340
55
144
0.18
309
CONTENTFORMAT_END
171
     0
 94
        0
309
TABLEFORMAT_END
  1
CELLSTYLE_BEGIN
 90
        3
 91
        2
300
_DATA
309
CELLSTYLE_END
  0
XRECORD
  5
382
102
{ACAD_REACTORS
330
381
102
}
330
381
100
AcDbXrecord
280
     1
102
RTVSPost2010Prop28
280
     1
102
RTVSPost2010PropOp28
 70
     1
102
RTVSPost2010Prop29
280
     1
102
RTVSPost2010PropOp29
 70
     1
102
RTVSPost2010Prop30
280
     0
102
RTVSPost2010PropOp30
 70
     1
102
RTVSPost2010Prop31
280
     0
102
RTVSPost2010PropOp31
 70
     1
102
RTVSPost2010Prop32
280
     0
102
RTVSPost2010PropOp32
 70
     1
102
RTVSPost2010Prop33
280
     0
102
RTVSPost2010PropOp33
 70
     1
102
RTVSPost2010Prop34
280
     0
102
RTVSPost2010PropOp34
 70
     1
102
RTVSPost2010Prop35
280
     0
102
RTVSPost2010PropOp35
 70
     1
102
RTVSPost2010Prop36
280
     0
102
RTVSPost2010PropOp36
 70
     1
102
RTVSPost2010Prop37
 90
       50
102
RTVSPost2010PropOp37
 70
     1
102
RTVSPost2010Prop38
140
0.0
102
RTVSPost2010PropOp38
 70
     1
102
RTVSPost2010Prop39
140
1.0
102
RTVSPost2010PropOp39
 70
     1
102
RTVSPost2010Prop40
 90
        0
102
RTVSPost2010PropOp40
 70
     1
102
RTVSPost2010Prop41ColorIndex
 90
       18
102
RTVSPost2010Prop41ColorRGB
 90
        0
102
RTVSPost2010PropOp41
 70
     1
102
RTVSPost2010Prop42
 90
       50
102
RTVSPost2010PropOp42
 70
     1
102
RTVSPost2010Prop43
 90
        3
102
RTVSPost2010PropOp43
 70
     1
102
RTVSPost2010Prop44ColorIndex
 90
        5
102
RTVSPost2010Prop44ColorRGB
 90
      255
102
RTVSPost2010PropOp44
 70
     1
102
RTVSPost2010Prop45
280
     0
102
RTVSPost2010PropOp45
 70
     1
102
RTVSPost2010Prop46
 90
       50
102
RTVSPost2010PropOp46
 70
     1
102
RTVSPost2010Prop47
 90
       50
102
RTVSPost2010PropOp47
 70
     1
102
RTVSPost2010Prop48
 90
       50
102
RTVSPost2010PropOp48
 70
     1
102
RTVSPost2010Prop49
280
     0
102
RTVSPost2010PropOp49
 70
     1
102
RTVSPost2010Prop50
 90
       50
102
RTVSPost2010PropOp50
 70
     1
102
RTVSPost2010Prop51ColorIndex
 90
      256
102
RTVSPost2010Prop51ColorRGB
 90
-16777216
102
RTVSPost2010PropOp51
 70
     0
102
RTVSPost2010Prop52
140
1.0
102
RTVSPost2010PropOp52
 70
     0
102
RTVSPost2010Prop53
 90
        2
102
RTVSPost2010PropOp53
 70
     1
102
RTVSPost2010Prop54
  1
strokes_ogs.tif
102
RTVSPost2010PropOp54
 70
     1
102
RTVSPost2010Prop55
280
     0
102
RTVSPost2010PropOp55
 70
     1
102
RTVSPost2010Prop56
140
1.0
102
RTVSPost2010PropOp56
 70
     1
102
RTVSPost2010Prop57
140
1.0
102
RTVSPost2010PropOp57
 70
     1
  0
XRECORD
  5
380
102
{ACAD_REACTORS
330
37F
102
}
330
37F
100
AcDbXrecord
280
     1
102
RTVSPost2010Prop28
280
     0
102
RTVSPost2010PropOp28
 70
     1
102
RTVSPost2010Prop29
280
     1
102
RTVSPost2010PropOp29
 70
     1
102
RTVSPost2010Prop30
280
     1
102
RTVSPost2010PropOp30
 70
     1
102
RTVSPost2010Prop31
280
     0
102
RTVSPost2010PropOp31
 70
     1
102
RTVSPost2010Prop32
280
     0
102
RTVSPost2010PropOp32
 70
     1
102
RTVSPost2010Prop33
280
     0
102
RTVSPost2010PropOp33
 70
     1
102
RTVSPost2010Prop34
280
     0
102
RTVSPost2010PropOp34
 70
     1
102
RTVSPost2010Prop35
280
     0
102
RTVSPost2010PropOp35
 70
     1
102
RTVSPost2010Prop36
280
     0
102
RTVSPost2010PropOp36
 70
     1
102
RTVSPost2010Prop37
 90
       50
102
RTVSPost2010PropOp37
 70
     1
102
RTVSPost2010Prop38
140
0.0
102
RTVSPost2010PropOp38
 70
     1
102
RTVSPost2010Prop39
140
1.0
102
RTVSPost2010PropOp39
 70
     1
102
RTVSPost2010Prop40
 90
        0
102
RTVSPost2010PropOp40
 70
     1
102
RTVSPost2010Prop41ColorIndex
 90
       18
102
RTVSPost2010Prop41ColorRGB
 90
        0
102
RTVSPost2010PropOp41
 70
     1
102
RTVSPost2010Prop42
 90
       50
102
RTVSPost2010PropOp42
 70
     1
102
RTVSPost2010Prop43
 90
        3
102
RTVSPost2010PropOp43
 70
     1
102
RTVSPost2010Prop44ColorIndex
 90
        5
102
RTVSPost2010Prop44ColorRGB
 90
      255
102
RTVSPost2010PropOp44
 70
     1
102
RTVSPost2010Prop45
280
     0
102
RTVSPost2010PropOp45
 70
     1
102
RTVSPost2010Prop46
 90
       50
102
RTVSPost2010PropOp46
 70
     1
102
RTVSPost2010Prop47
 90
       50
102
RTVSPost2010PropOp47
 70
     1
102
RTVSPost2010Prop48
 90
       50
102
RTVSPost2010PropOp48
 70
     1
102
RTVSPost2010Prop49
280
     0
102
RTVSPost2010PropOp49
 70
     1
102
RTVSPost2010Prop50
 90
       50
102
RTVSPost2010PropOp50
 70
     1
102
RTVSPost2010Prop51ColorIndex
 90
      256
102
RTVSPost2010Prop51ColorRGB
 90
-16777216
102
RTVSPost2010PropOp51
 70
     0
102
RTVSPost2010Prop52
140
1.0
102
RTVSPost2010PropOp52
 70
     0
102
RTVSPost2010Prop53
 90
        2
102
RTVSPost2010PropOp53
 70
     1
102
RTVSPost2010Prop54
  1
strokes_ogs.tif
102
RTVSPost2010PropOp54
 70
     1
102
RTVSPost2010Prop55
280
     0
102
RTVSPost2010PropOp55
 70
     1
102
RTVSPost2010Prop56
140
1.0
102
RTVSPost2010PropOp56
 70
     1
102
RTVSPost2010Prop57
140
1.0
102
RTVSPost2010PropOp57
 70
     1
  0
XRECORD
  5
38E
102
{ACAD_REACTORS
330
38D
102
}
330
38D
100
AcDbXrecord
280
     1
102
RTVSPost2010Prop28
280
     0
102
RTVSPost2010PropOp28
 70
     1
102
RTVSPost2010Prop29
280
     1
102
RTVSPost2010PropOp29
 70
     1
102
RTVSPost2010Prop30
280
     1
102
RTVSPost2010PropOp30
 70
     1
102
RTVSPost2010Prop31
280
     0
102
RTVSPost2010PropOp31
 70
     1
102
RTVSPost2010Prop32
280
     0
102
RTVSPost2010PropOp32
 70
     1
102
RTVSPost2010Prop33
280
     0
102
RTVSPost2010PropOp33
 70
     1
102
RTVSPost2010Prop34
280
     0
102
RTVSPost2010PropOp34
 70
     1
102
RTVSPost2010Prop35
280
     0
102
RTVSPost2010PropOp35
 70
     1
102
RTVSPost2010Prop36
280
     0
102
RTVSPost2010PropOp36
 70
     1
102
RTVSPost2010Prop37
 90
       50
102
RTVSPost2010PropOp37
 70
     1
102
RTVSPost2010Prop38
140
0.0
102
RTVSPost2010PropOp38
 70
     1
102
RTVSPost2010Prop39
140
1.0
102
RTVSPost2010PropOp39
 70
     1
102
RTVSPost2010Prop40
 90
        0
102
RTVSPost2010PropOp40
 70
     1
102
RTVSPost2010Prop41ColorIndex
 90
       18
102
RTVSPost2010Prop41ColorRGB
 90
        0
102
RTVSPost2010PropOp41
 70
     1
102
RTVSPost2010Prop42
 90
       50
102
RTVSPost2010PropOp42
 70
     1
102
RTVSPost2010Prop43
 90
        3
102
RTVSPost2010PropOp43
 70
     1
102
RTVSPost2010Prop44ColorIndex
 90
        5
102
RTVSPost2010Prop44ColorRGB
 90
      255
102
RTVSPost2010PropOp44
 70
     1
102
RTVSPost2010Prop45
280
     0
102
RTVSPost2010PropOp45
 70
     1
102
RTVSPost2010Prop46
 90
       50
102
RTVSPost2010PropOp46
 70
     1
102
RTVSPost2010Prop47
 90
       50
102
RTVSPost2010PropOp47
 70
     1
102
RTVSPost2010Prop48
 90
       50
102
RTVSPost2010PropOp48
 70
     1
102
RTVSPost2010Prop49
280
     0
102
RTVSPost2010PropOp49
 70
     1
102
RTVSPost2010Prop50
 90
       50
102
RTVSPost2010PropOp50
 70
     1
102
RTVSPost2010Prop51ColorIndex
 90
      256
102
RTVSPost2010Prop51ColorRGB
 90
-16777216
102
RTVSPost2010PropOp51
 70
     0
102
RTVSPost2010Prop52
140
1.0
102
RTVSPost2010PropOp52
 70
     0
102
RTVSPost2010Prop53
 90
        2
102
RTVSPost2010PropOp53
 70
     1
102
RTVSPost2010Prop54
  1
strokes_ogs.tif
102
RTVSPost2010PropOp54
 70
     1
102
RTVSPost2010Prop55
280
     0
102
RTVSPost2010PropOp55
 70
     1
102
RTVSPost2010Prop56
140
1.0
102
RTVSPost2010PropOp56
 70
     1
102
RTVSPost2010Prop57
140
1.0
102
RTVSPost2010PropOp57
 70
     1
  0
XRECORD
  5
396
102
{ACAD_REACTORS
330
395
102
}
330
395
100
AcDbXrecord
280
     1
102
RTVSPost2010Prop28
280
     0
102
RTVSPost2010PropOp28
 70
     1
102
RTVSPost2010Prop29
280
     1
102
RTVSPost2010PropOp29
 70
     1
102
RTVSPost2010Prop30
280
     1
102
RTVSPost2010PropOp30
 70
     1
102
RTVSPost2010Prop31
280
     0
102
RTVSPost2010PropOp31
 70
     1
102
RTVSPost2010Prop32
280
     0
102
RTVSPost2010PropOp32
 70
     1
102
RTVSPost2010Prop33
280
     0
102
RTVSPost2010PropOp33
 70
     1
102
RTVSPost2010Prop34
280
     0
102
RTVSPost2010PropOp34
 70
     1
102
RTVSPost2010Prop35
280
     0
102
RTVSPost2010PropOp35
 70
     1
102
RTVSPost2010Prop36
280
     0
102
RTVSPost2010PropOp36
 70
     1
102
RTVSPost2010Prop37
 90
       50
102
RTVSPost2010PropOp37
 70
     1
102
RTVSPost2010Prop38
140
0.0
102
RTVSPost2010PropOp38
 70
     1
102
RTVSPost2010Prop39
140
1.0
102
RTVSPost2010PropOp39
 70
     1
102
RTVSPost2010Prop40
 90
        0
102
RTVSPost2010PropOp40
 70
     1
102
RTVSPost2010Prop41ColorIndex
 90
       18
102
RTVSPost2010Prop41ColorRGB
 90
        0
102
RTVSPost2010PropOp41
 70
     1
102
RTVSPost2010Prop42
 90
       50
102
RTVSPost2010PropOp42
 70
     1
102
RTVSPost2010Prop43
 90
        3
102
RTVSPost2010PropOp43
 70
     1
102
RTVSPost2010Prop44ColorIndex
 90
        5
102
RTVSPost2010Prop44ColorRGB
 90
      255
102
RTVSPost2010PropOp44
 70
     1
102
RTVSPost2010Prop45
280
     0
102
RTVSPost2010PropOp45
 70
     1
102
RTVSPost2010Prop46
 90
       50
102
RTVSPost2010PropOp46
 70
     1
102
RTVSPost2010Prop47
 90
       50
102
RTVSPost2010PropOp47
 70
     1
102
RTVSPost2010Prop48
 90
       50
102
RTVSPost2010PropOp48
 70
     1
102
RTVSPost2010Prop49
280
     0
102
RTVSPost2010PropOp49
 70
     1
102
RTVSPost2010Prop50
 90
       50
102
RTVSPost2010PropOp50
 70
     1
102
RTVSPost2010Prop51ColorIndex
 90
      256
102
RTVSPost2010Prop51ColorRGB
 90
-16777216
102
RTVSPost2010PropOp51
 70
     0
102
RTVSPost2010Prop52
140
1.0
102
RTVSPost2010PropOp52
 70
     0
102
RTVSPost2010Prop53
 90
        2
102
RTVSPost2010PropOp53
 70
     1
102
RTVSPost2010Prop54
  1
strokes_ogs.tif
102
RTVSPost2010PropOp54
 70
     1
102
RTVSPost2010Prop55
280
     0
102
RTVSPost2010PropOp55
 70
     1
102
RTVSPost2010Prop56
140
1.0
102
RTVSPost2010PropOp56
 70
     1
102
RTVSPost2010Prop57
140
1.0
102
RTVSPost2010PropOp57
 70
     1
  0
XRECORD
  5
388
102
{ACAD_REACTORS
330
387
102
}
330
387
100
AcDbXrecord
280
     1
102
RTVSPost2010Prop28
280
     0
102
RTVSPost2010PropOp28
 70
     1
102
RTVSPost2010Prop29
280
     1
102
RTVSPost2010PropOp29
 70
     1
102
RTVSPost2010Prop30
280
     1
102
RTVSPost2010PropOp30
 70
     1
102
RTVSPost2010Prop31
280
     0
102
RTVSPost2010PropOp31
 70
     1
102
RTVSPost2010Prop32
280
     0
102
RTVSPost2010PropOp32
 70
     1
102
RTVSPost2010Prop33
280
     0
102
RTVSPost2010PropOp33
 70
     1
102
RTVSPost2010Prop34
280
     0
102
RTVSPost2010PropOp34
 70
     1
102
RTVSPost2010Prop35
280
     0
102
RTVSPost2010PropOp35
 70
     1
102
RTVSPost2010Prop36
280
     0
102
RTVSPost2010PropOp36
 70
     1
102
RTVSPost2010Prop37
 90
       50
102
RTVSPost2010PropOp37
 70
     1
102
RTVSPost2010Prop38
140
0.0
102
RTVSPost2010PropOp38
 70
     1
102
RTVSPost2010Prop39
140
1.0
102
RTVSPost2010PropOp39
 70
     1
102
RTVSPost2010Prop40
 90
        0
102
RTVSPost2010PropOp40
 70
     1
102
RTVSPost2010Prop41ColorIndex
 90
       18
102
RTVSPost2010Prop41ColorRGB
 90
        0
102
RTVSPost2010PropOp41
 70
     1
102
RTVSPost2010Prop42
 90
       50
102
RTVSPost2010PropOp42
 70
     1
102
RTVSPost2010Prop43
 90
        3
102
RTVSPost2010PropOp43
 70
     1
102
RTVSPost2010Prop44ColorIndex
 90
        5
102
RTVSPost2010Prop44ColorRGB
 90
      255
102
RTVSPost2010PropOp44
 70
     1
102
RTVSPost2010Prop45
280
     0
102
RTVSPost2010PropOp45
 70
     1
102
RTVSPost2010Prop46
 90
       50
102
RTVSPost2010PropOp46
 70
     1
102
RTVSPost2010Prop47
 90
       50
102
RTVSPost2010PropOp47
 70
     1
102
RTVSPost2010Prop48
 90
       50
102
RTVSPost2010PropOp48
 70
     1
102
RTVSPost2010Prop49
280
     0
102
RTVSPost2010PropOp49
 70
     1
102
RTVSPost2010Prop50
 90
       50
102
RTVSPost2010PropOp50
 70
     1
102
RTVSPost2010Prop51ColorIndex
 90
      256
102
RTVSPost2010Prop51ColorRGB
 90
-16777216
102
RTVSPost2010PropOp51
 70
     0
102
RTVSPost2010Prop52
140
1.0
102
RTVSPost2010PropOp52
 70
     0
102
RTVSPost2010Prop53
 90
        2
102
RTVSPost2010PropOp53
 70
     1
102
RTVSPost2010Prop54
  1
strokes_ogs.tif
102
RTVSPost2010PropOp54
 70
     1
102
RTVSPost2010Prop55
280
     0
102
RTVSPost2010PropOp55
 70
     1
102
RTVSPost2010Prop56
140
1.0
102
RTVSPost2010PropOp56
 70
     1
102
RTVSPost2010Prop57
140
1.0
102
RTVSPost2010PropOp57
 70
     1
  0
XRECORD
  5
38C
102
{ACAD_REACTORS
330
38B
102
}
330
38B
100
AcDbXrecord
280
     1
102
RTVSPost2010Prop28
280
     0
102
RTVSPost2010PropOp28
 70
     1
102
RTVSPost2010Prop29
280
     1
102
RTVSPost2010PropOp29
 70
     1
102
RTVSPost2010Prop30
280
     1
102
RTVSPost2010PropOp30
 70
     1
102
RTVSPost2010Prop31
280
     0
102
RTVSPost2010PropOp31
 70
     1
102
RTVSPost2010Prop32
280
     0
102
RTVSPost2010PropOp32
 70
     1
102
RTVSPost2010Prop33
280
     0
102
RTVSPost2010PropOp33
 70
     1
102
RTVSPost2010Prop34
280
     0
102
RTVSPost2010PropOp34
 70
     1
102
RTVSPost2010Prop35
280
     0
102
RTVSPost2010PropOp35
 70
     1
102
RTVSPost2010Prop36
280
     0
102
RTVSPost2010PropOp36
 70
     1
102
RTVSPost2010Prop37
 90
       50
102
RTVSPost2010PropOp37
 70
     1
102
RTVSPost2010Prop38
140
0.0
102
RTVSPost2010PropOp38
 70
     1
102
RTVSPost2010Prop39
140
1.0
102
RTVSPost2010PropOp39
 70
     1
102
RTVSPost2010Prop40
 90
        0
102
RTVSPost2010PropOp40
 70
     1
102
RTVSPost2010Prop41ColorIndex
 90
       18
102
RTVSPost2010Prop41ColorRGB
 90
        0
102
RTVSPost2010PropOp41
 70
     1
102
RTVSPost2010Prop42
 90
       50
102
RTVSPost2010PropOp42
 70
     1
102
RTVSPost2010Prop43
 90
        3
102
RTVSPost2010PropOp43
 70
     1
102
RTVSPost2010Prop44ColorIndex
 90
        5
102
RTVSPost2010Prop44ColorRGB
 90
      255
102
RTVSPost2010PropOp44
 70
     1
102
RTVSPost2010Prop45
280
     0
102
RTVSPost2010PropOp45
 70
     1
102
RTVSPost2010Prop46
 90
       50
102
RTVSPost2010PropOp46
 70
     1
102
RTVSPost2010Prop47
 90
       50
102
RTVSPost2010PropOp47
 70
     1
102
RTVSPost2010Prop48
 90
       50
102
RTVSPost2010PropOp48
 70
     1
102
RTVSPost2010Prop49
280
     0
102
RTVSPost2010PropOp49
 70
     1
102
RTVSPost2010Prop50
 90
       50
102
RTVSPost2010PropOp50
 70
     1
102
RTVSPost2010Prop51ColorIndex
 90
      256
102
RTVSPost2010Prop51ColorRGB
 90
-16777216
102
RTVSPost2010PropOp51
 70
     0
102
RTVSPost2010Prop52
140
1.0
102
RTVSPost2010PropOp52
 70
     0
102
RTVSPost2010Prop53
 90
        2
102
RTVSPost2010PropOp53
 70
     1
102
RTVSPost2010Prop54
  1
strokes_ogs.tif
102
RTVSPost2010PropOp54
 70
     1
102
RTVSPost2010Prop55
280
     0
102
RTVSPost2010PropOp55
 70
     1
102
RTVSPost2010Prop56
140
1.0
102
RTVSPost2010PropOp56
 70
     1
102
RTVSPost2010Prop57
140
1.0
102
RTVSPost2010PropOp57
 70
     1
  0
XRECORD
  5
3A6
102
{ACAD_REACTORS
330
3A5
102
}
330
3A5
100
AcDbXrecord
280
     1
102
RTVSPost2010Prop28
280
     0
102
RTVSPost2010PropOp28
 70
     0
102
RTVSPost2010Prop29
280
     1
102
RTVSPost2010PropOp29
 70
     0
102
RTVSPost2010Prop30
280
     1
102
RTVSPost2010PropOp30
 70
     0
102
RTVSPost2010Prop31
280
     0
102
RTVSPost2010PropOp31
 70
     0
102
RTVSPost2010Prop32
280
     0
102
RTVSPost2010PropOp32
 70
     0
102
RTVSPost2010Prop33
280
     0
102
RTVSPost2010PropOp33
 70
     0
102
RTVSPost2010Prop34
280
     0
102
RTVSPost2010PropOp34
 70
     0
102
RTVSPost2010Prop35
280
     0
102
RTVSPost2010PropOp35
 70
     0
102
RTVSPost2010Prop36
280
     0
102
RTVSPost2010PropOp36
 70
     0
102
RTVSPost2010Prop37
 90
       50
102
RTVSPost2010PropOp37
 70
     0
102
RTVSPost2010Prop38
140
0.0
102
RTVSPost2010PropOp38
 70
     0
102
RTVSPost2010Prop39
140
1.0
102
RTVSPost2010PropOp39
 70
     0
102
RTVSPost2010Prop40
 90
        0
102
RTVSPost2010PropOp40
 70
     0
102
RTVSPost2010Prop41ColorIndex
 90
       18
102
RTVSPost2010Prop41ColorRGB
 90
        0
102
RTVSPost2010PropOp41
 70
     0
102
RTVSPost2010Prop42
 90
       50
102
RTVSPost2010PropOp42
 70
     0
102
RTVSPost2010Prop43
 90
        3
102
RTVSPost2010PropOp43
 70
     0
102
RTVSPost2010Prop44ColorIndex
 90
        5
102
RTVSPost2010Prop44ColorRGB
 90
      255
102
RTVSPost2010PropOp44
 70
     0
102
RTVSPost2010Prop45
280
     0
102
RTVSPost2010PropOp45
 70
     0
102
RTVSPost2010Prop46
 90
       50
102
RTVSPost2010PropOp46
 70
     0
102
RTVSPost2010Prop47
 90
       50
102
RTVSPost2010PropOp47
 70
     0
102
RTVSPost2010Prop48
 90
       50
102
RTVSPost2010PropOp48
 70
     0
102
RTVSPost2010Prop49
280
     0
102
RTVSPost2010PropOp49
 70
     0
102
RTVSPost2010Prop50
 90
       50
102
RTVSPost2010PropOp50
 70
     0
102
RTVSPost2010Prop51ColorIndex
 90
      256
102
RTVSPost2010Prop51ColorRGB
 90
-16777216
102
RTVSPost2010PropOp51
 70
     0
102
RTVSPost2010Prop52
140
1.0
102
RTVSPost2010PropOp52
 70
     0
102
RTVSPost2010Prop53
 90
        2
102
RTVSPost2010PropOp53
 70
     0
102
RTVSPost2010Prop54
  1
strokes_ogs.tif
102
RTVSPost2010PropOp54
 70
     0
102
RTVSPost2010Prop55
280
     0
102
RTVSPost2010PropOp55
 70
     0
102
RTVSPost2010Prop56
140
1.0
102
RTVSPost2010PropOp56
 70
     0
102
RTVSPost2010Prop57
140
1.0
102
RTVSPost2010PropOp57
 70
     0
  0
XRECORD
  5
394
102
{ACAD_REACTORS
330
393
102
}
330
393
100
AcDbXrecord
280
     1
102
RTVSPost2010Prop28
280
     0
102
RTVSPost2010PropOp28
 70
     1
102
RTVSPost2010Prop29
280
     1
102
RTVSPost2010PropOp29
 70
     1
102
RTVSPost2010Prop30
280
     1
102
RTVSPost2010PropOp30
 70
     1
102
RTVSPost2010Prop31
280
     0
102
RTVSPost2010PropOp31
 70
     1
102
RTVSPost2010Prop32
280
     0
102
RTVSPost2010PropOp32
 70
     1
102
RTVSPost2010Prop33
280
     0
102
RTVSPost2010PropOp33
 70
     1
102
RTVSPost2010Prop34
280
     0
102
RTVSPost2010PropOp34
 70
     1
102
RTVSPost2010Prop35
280
     0
102
RTVSPost2010PropOp35
 70
     1
102
RTVSPost2010Prop36
280
     0
102
RTVSPost2010PropOp36
 70
     1
102
RTVSPost2010Prop37
 90
       50
102
RTVSPost2010PropOp37
 70
     1
102
RTVSPost2010Prop38
140
0.0
102
RTVSPost2010PropOp38
 70
     1
102
RTVSPost2010Prop39
140
1.0
102
RTVSPost2010PropOp39
 70
     1
102
RTVSPost2010Prop40
 90
        0
102
RTVSPost2010PropOp40
 70
     1
102
RTVSPost2010Prop41ColorIndex
 90
       18
102
RTVSPost2010Prop41ColorRGB
 90
        0
102
RTVSPost2010PropOp41
 70
     1
102
RTVSPost2010Prop42
 90
       50
102
RTVSPost2010PropOp42
 70
     1
102
RTVSPost2010Prop43
 90
        3
102
RTVSPost2010PropOp43
 70
     1
102
RTVSPost2010Prop44ColorIndex
 90
        5
102
RTVSPost2010Prop44ColorRGB
 90
      255
102
RTVSPost2010PropOp44
 70
     1
102
RTVSPost2010Prop45
280
     0
102
RTVSPost2010PropOp45
 70
     1
102
RTVSPost2010Prop46
 90
       50
102
RTVSPost2010PropOp46
 70
     1
102
RTVSPost2010Prop47
 90
       50
102
RTVSPost2010PropOp47
 70
     1
102
RTVSPost2010Prop48
 90
       50
102
RTVSPost2010PropOp48
 70
     1
102
RTVSPost2010Prop49
280
     0
102
RTVSPost2010PropOp49
 70
     1
102
RTVSPost2010Prop50
 90
       50
102
RTVSPost2010PropOp50
 70
     1
102
RTVSPost2010Prop51ColorIndex
 90
      256
102
RTVSPost2010Prop51ColorRGB
 90
-16777216
102
RTVSPost2010PropOp51
 70
     0
102
RTVSPost2010Prop52
140
1.0
102
RTVSPost2010PropOp52
 70
     0
102
RTVSPost2010Prop53
 90
        2
102
RTVSPost2010PropOp53
 70
     1
102
RTVSPost2010Prop54
  1
strokes_ogs.tif
102
RTVSPost2010PropOp54
 70
     1
102
RTVSPost2010Prop55
280
     0
102
RTVSPost2010PropOp55
 70
     1
102
RTVSPost2010Prop56
140
1.0
102
RTVSPost2010PropOp56
 70
     1
102
RTVSPost2010Prop57
140
1.0
102
RTVSPost2010PropOp57
 70
     1
  0
XRECORD
  5
378
102
{ACAD_REACTORS
330
377
102
}
330
377
100
AcDbXrecord
280
     1
102
RTVSPost2010Prop28
280
     0
102
RTVSPost2010PropOp28
 70
     1
102
RTVSPost2010Prop29
280
     1
102
RTVSPost2010PropOp29
 70
     1
102
RTVSPost2010Prop30
280
     1
102
RTVSPost2010PropOp30
 70
     1
102
RTVSPost2010Prop31
280
     0
102
RTVSPost2010PropOp31
 70
     1
102
RTVSPost2010Prop32
280
     0
102
RTVSPost2010PropOp32
 70
     1
102
RTVSPost2010Prop33
280
     0
102
RTVSPost2010PropOp33
 70
     1
102
RTVSPost2010Prop34
280
     0
102
RTVSPost2010PropOp34
 70
     1
102
RTVSPost2010Prop35
280
     0
102
RTVSPost2010PropOp35
 70
     1
102
RTVSPost2010Prop36
280
     0
102
RTVSPost2010PropOp36
 70
     1
102
RTVSPost2010Prop37
 90
       50
102
RTVSPost2010PropOp37
 70
     1
102
RTVSPost2010Prop38
140
0.0
102
RTVSPost2010PropOp38
 70
     1
102
RTVSPost2010Prop39
140
1.0
102
RTVSPost2010PropOp39
 70
     1
102
RTVSPost2010Prop40
 90
        0
102
RTVSPost2010PropOp40
 70
     1
102
RTVSPost2010Prop41ColorIndex
 90
       18
102
RTVSPost2010Prop41ColorRGB
 90
        0
102
RTVSPost2010PropOp41
 70
     1
102
RTVSPost2010Prop42
 90
       50
102
RTVSPost2010PropOp42
 70
     1
102
RTVSPost2010Prop43
 90
        3
102
RTVSPost2010PropOp43
 70
     1
102
RTVSPost2010Prop44ColorIndex
 90
        5
102
RTVSPost2010Prop44ColorRGB
 90
      255
102
RTVSPost2010PropOp44
 70
     1
102
RTVSPost2010Prop45
280
     0
102
RTVSPost2010PropOp45
 70
     1
102
RTVSPost2010Prop46
 90
       50
102
RTVSPost2010PropOp46
 70
     1
102
RTVSPost2010Prop47
 90
       50
102
RTVSPost2010PropOp47
 70
     1
102
RTVSPost2010Prop48
 90
       50
102
RTVSPost2010PropOp48
 70
     1
102
RTVSPost2010Prop49
280
     0
102
RTVSPost2010PropOp49
 70
     1
102
RTVSPost2010Prop50
 90
       50
102
RTVSPost2010PropOp50
 70
     1
102
RTVSPost2010Prop51ColorIndex
 90
      256
102
RTVSPost2010Prop51ColorRGB
 90
-16777216
102
RTVSPost2010PropOp51
 70
     0
102
RTVSPost2010Prop52
140
1.0
102
RTVSPost2010PropOp52
 70
     0
102
RTVSPost2010Prop53
 90
        2
102
RTVSPost2010PropOp53
 70
     1
102
RTVSPost2010Prop54
  1
strokes_ogs.tif
102
RTVSPost2010PropOp54
 70
     1
102
RTVSPost2010Prop55
280
     0
102
RTVSPost2010PropOp55
 70
     1
102
RTVSPost2010Prop56
140
1.0
102
RTVSPost2010PropOp56
 70
     1
102
RTVSPost2010Prop57
140
1.0
102
RTVSPost2010PropOp57
 70
     1
  0
XRECORD
  5
37A
102
{ACAD_REACTORS
330
379
102
}
330
379
100
AcDbXrecord
280
     1
102
RTVSPost2010Prop28
280
     0
102
RTVSPost2010PropOp28
 70
     1
102
RTVSPost2010Prop29
280
     1
102
RTVSPost2010PropOp29
 70
     1
102
RTVSPost2010Prop30
280
     1
102
RTVSPost2010PropOp30
 70
     1
102
RTVSPost2010Prop31
280
     0
102
RTVSPost2010PropOp31
 70
     1
102
RTVSPost2010Prop32
280
     0
102
RTVSPost2010PropOp32
 70
     1
102
RTVSPost2010Prop33
280
     0
102
RTVSPost2010PropOp33
 70
     1
102
RTVSPost2010Prop34
280
     0
102
RTVSPost2010PropOp34
 70
     1
102
RTVSPost2010Prop35
280
     0
102
RTVSPost2010PropOp35
 70
     1
102
RTVSPost2010Prop36
280
     0
102
RTVSPost2010PropOp36
 70
     1
102
RTVSPost2010Prop37
 90
       50
102
RTVSPost2010PropOp37
 70
     1
102
RTVSPost2010Prop38
140
0.0
102
RTVSPost2010PropOp38
 70
     1
102
RTVSPost2010Prop39
140
1.0
102
RTVSPost2010PropOp39
 70
     1
102
RTVSPost2010Prop40
 90
        0
102
RTVSPost2010PropOp40
 70
     1
102
RTVSPost2010Prop41ColorIndex
 90
       18
102
RTVSPost2010Prop41ColorRGB
 90
        0
102
RTVSPost2010PropOp41
 70
     1
102
RTVSPost2010Prop42
 90
       50
102
RTVSPost2010PropOp42
 70
     1
102
RTVSPost2010Prop43
 90
        3
102
RTVSPost2010PropOp43
 70
     1
102
RTVSPost2010Prop44ColorIndex
 90
        5
102
RTVSPost2010Prop44ColorRGB
 90
      255
102
RTVSPost2010PropOp44
 70
     1
102
RTVSPost2010Prop45
280
     0
102
RTVSPost2010PropOp45
 70
     1
102
RTVSPost2010Prop46
 90
       50
102
RTVSPost2010PropOp46
 70
     1
102
RTVSPost2010Prop47
 90
       50
102
RTVSPost2010PropOp47
 70
     1
102
RTVSPost2010Prop48
 90
       50
102
RTVSPost2010PropOp48
 70
     1
102
RTVSPost2010Prop49
280
     0
102
RTVSPost2010PropOp49
 70
     1
102
RTVSPost2010Prop50
 90
       50
102
RTVSPost2010PropOp50
 70
     1
102
RTVSPost2010Prop51ColorIndex
 90
      256
102
RTVSPost2010Prop51ColorRGB
 90
-16777216
102
RTVSPost2010PropOp51
 70
     0
102
RTVSPost2010Prop52
140
1.0
102
RTVSPost2010PropOp52
 70
     0
102
RTVSPost2010Prop53
 90
        2
102
RTVSPost2010PropOp53
 70
     1
102
RTVSPost2010Prop54
  1
strokes_ogs.tif
102
RTVSPost2010PropOp54
 70
     1
102
RTVSPost2010Prop55
280
     0
102
RTVSPost2010PropOp55
 70
     1
102
RTVSPost2010Prop56
140
1.0
102
RTVSPost2010PropOp56
 70
     1
102
RTVSPost2010Prop57
140
1.0
102
RTVSPost2010PropOp57
 70
     1
  0
XRECORD
  5
37C
102
{ACAD_REACTORS
330
37B
102
}
330
37B
100
AcDbXrecord
280
     1
102
RTVSPost2010Prop28
280
     0
102
RTVSPost2010PropOp28
 70
     1
102
RTVSPost2010Prop29
280
     1
102
RTVSPost2010PropOp29
 70
     1
102
RTVSPost2010Prop30
280
     1
102
RTVSPost2010PropOp30
 70
     1
102
RTVSPost2010Prop31
280
     0
102
RTVSPost2010PropOp31
 70
     1
102
RTVSPost2010Prop32
280
     0
102
RTVSPost2010PropOp32
 70
     1
102
RTVSPost2010Prop33
280
     0
102
RTVSPost2010PropOp33
 70
     1
102
RTVSPost2010Prop34
280
     0
102
RTVSPost2010PropOp34
 70
     1
102
RTVSPost2010Prop35
280
     0
102
RTVSPost2010PropOp35
 70
     1
102
RTVSPost2010Prop36
280
     0
102
RTVSPost2010PropOp36
 70
     1
102
RTVSPost2010Prop37
 90
       50
102
RTVSPost2010PropOp37
 70
     1
102
RTVSPost2010Prop38
140
0.0
102
RTVSPost2010PropOp38
 70
     1
102
RTVSPost2010Prop39
140
1.0
102
RTVSPost2010PropOp39
 70
     1
102
RTVSPost2010Prop40
 90
        0
102
RTVSPost2010PropOp40
 70
     1
102
RTVSPost2010Prop41ColorIndex
 90
       18
102
RTVSPost2010Prop41ColorRGB
 90
        0
102
RTVSPost2010PropOp41
 70
     1
102
RTVSPost2010Prop42
 90
       50
102
RTVSPost2010PropOp42
 70
     1
102
RTVSPost2010Prop43
 90
        3
102
RTVSPost2010PropOp43
 70
     1
102
RTVSPost2010Prop44ColorIndex
 90
        5
102
RTVSPost2010Prop44ColorRGB
 90
      255
102
RTVSPost2010PropOp44
 70
     1
102
RTVSPost2010Prop45
280
     0
102
RTVSPost2010PropOp45
 70
     1
102
RTVSPost2010Prop46
 90
       50
102
RTVSPost2010PropOp46
 70
     1
102
RTVSPost2010Prop47
 90
       50
102
RTVSPost2010PropOp47
 70
     1
102
RTVSPost2010Prop48
 90
       50
102
RTVSPost2010PropOp48
 70
     1
102
RTVSPost2010Prop49
280
     0
102
RTVSPost2010PropOp49
 70
     1
102
RTVSPost2010Prop50
 90
       50
102
RTVSPost2010PropOp50
 70
     1
102
RTVSPost2010Prop51ColorIndex
 90
      256
102
RTVSPost2010Prop51ColorRGB
 90
-16777216
102
RTVSPost2010PropOp51
 70
     0
102
RTVSPost2010Prop52
140
1.0
102
RTVSPost2010PropOp52
 70
     0
102
RTVSPost2010Prop53
 90
        2
102
RTVSPost2010PropOp53
 70
     1
102
RTVSPost2010Prop54
  1
strokes_ogs.tif
102
RTVSPost2010PropOp54
 70
     1
102
RTVSPost2010Prop55
280
     0
102
RTVSPost2010PropOp55
 70
     1
102
RTVSPost2010Prop56
140
1.0
102
RTVSPost2010PropOp56
 70
     1
102
RTVSPost2010Prop57
140
1.0
102
RTVSPost2010PropOp57
 70
     1
  0
XRECORD
  5
37E
102
{ACAD_REACTORS
330
37D
102
}
330
37D
100
AcDbXrecord
280
     1
102
RTVSPost2010Prop28
280
     0
102
RTVSPost2010PropOp28
 70
     1
102
RTVSPost2010Prop29
280
     1
102
RTVSPost2010PropOp29
 70
     1
102
RTVSPost2010Prop30
280
     1
102
RTVSPost2010PropOp30
 70
     1
102
RTVSPost2010Prop31
280
     0
102
RTVSPost2010PropOp31
 70
     1
102
RTVSPost2010Prop32
280
     0
102
RTVSPost2010PropOp32
 70
     1
102
RTVSPost2010Prop33
280
     0
102
RTVSPost2010PropOp33
 70
     1
102
RTVSPost2010Prop34
280
     0
102
RTVSPost2010PropOp34
 70
     1
102
RTVSPost2010Prop35
280
     0
102
RTVSPost2010PropOp35
 70
     1
102
RTVSPost2010Prop36
280
     0
102
RTVSPost2010PropOp36
 70
     1
102
RTVSPost2010Prop37
 90
       50
102
RTVSPost2010PropOp37
 70
     1
102
RTVSPost2010Prop38
140
0.0
102
RTVSPost2010PropOp38
 70
     1
102
RTVSPost2010Prop39
140
1.0
102
RTVSPost2010PropOp39
 70
     1
102
RTVSPost2010Prop40
 90
        0
102
RTVSPost2010PropOp40
 70
     1
102
RTVSPost2010Prop41ColorIndex
 90
       18
102
RTVSPost2010Prop41ColorRGB
 90
        0
102
RTVSPost2010PropOp41
 70
     1
102
RTVSPost2010Prop42
 90
       50
102
RTVSPost2010PropOp42
 70
     1
102
RTVSPost2010Prop43
 90
        3
102
RTVSPost2010PropOp43
 70
     1
102
RTVSPost2010Prop44ColorIndex
 90
        5
102
RTVSPost2010Prop44ColorRGB
 90
      255
102
RTVSPost2010PropOp44
 70
     1
102
RTVSPost2010Prop45
280
     0
102
RTVSPost2010PropOp45
 70
     1
102
RTVSPost2010Prop46
 90
       50
102
RTVSPost2010PropOp46
 70
     1
102
RTVSPost2010Prop47
 90
       50
102
RTVSPost2010PropOp47
 70
     1
102
RTVSPost2010Prop48
 90
       50
102
RTVSPost2010PropOp48
 70
     1
102
RTVSPost2010Prop49
280
     0
102
RTVSPost2010PropOp49
 70
     1
102
RTVSPost2010Prop50
 90
       50
102
RTVSPost2010PropOp50
 70
     1
102
RTVSPost2010Prop51ColorIndex
 90
      256
102
RTVSPost2010Prop51ColorRGB
 90
-16777216
102
RTVSPost2010PropOp51
 70
     0
102
RTVSPost2010Prop52
140
1.0
102
RTVSPost2010PropOp52
 70
     0
102
RTVSPost2010Prop53
 90
        2
102
RTVSPost2010PropOp53
 70
     1
102
RTVSPost2010Prop54
  1
strokes_ogs.tif
102
RTVSPost2010PropOp54
 70
     1
102
RTVSPost2010Prop55
280
     0
102
RTVSPost2010PropOp55
 70
     1
102
RTVSPost2010Prop56
140
1.0
102
RTVSPost2010PropOp56
 70
     1
102
RTVSPost2010Prop57
140
1.0
102
RTVSPost2010PropOp57
 70
     1
  0
XRECORD
  5
386
102
{ACAD_REACTORS
330
385
102
}
330
385
100
AcDbXrecord
280
     1
102
RTVSPost2010Prop28
280
     0
102
RTVSPost2010PropOp28
 70
     1
102
RTVSPost2010Prop29
280
     1
102
RTVSPost2010PropOp29
 70
     1
102
RTVSPost2010Prop30
280
     1
102
RTVSPost2010PropOp30
 70
     1
102
RTVSPost2010Prop31
280
     0
102
RTVSPost2010PropOp31
 70
     1
102
RTVSPost2010Prop32
280
     0
102
RTVSPost2010PropOp32
 70
     1
102
RTVSPost2010Prop33
280
     0
102
RTVSPost2010PropOp33
 70
     1
102
RTVSPost2010Prop34
280
     0
102
RTVSPost2010PropOp34
 70
     1
102
RTVSPost2010Prop35
280
     0
102
RTVSPost2010PropOp35
 70
     1
102
RTVSPost2010Prop36
280
     0
102
RTVSPost2010PropOp36
 70
     1
102
RTVSPost2010Prop37
 90
       50
102
RTVSPost2010PropOp37
 70
     1
102
RTVSPost2010Prop38
140
0.0
102
RTVSPost2010PropOp38
 70
     1
102
RTVSPost2010Prop39
140
1.0
102
RTVSPost2010PropOp39
 70
     1
102
RTVSPost2010Prop40
 90
        0
102
RTVSPost2010PropOp40
 70
     1
102
RTVSPost2010Prop41ColorIndex
 90
       18
102
RTVSPost2010Prop41ColorRGB
 90
        0
102
RTVSPost2010PropOp41
 70
     1
102
RTVSPost2010Prop42
 90
       50
102
RTVSPost2010PropOp42
 70
     1
102
RTVSPost2010Prop43
 90
        3
102
RTVSPost2010PropOp43
 70
     1
102
RTVSPost2010Prop44ColorIndex
 90
        5
102
RTVSPost2010Prop44ColorRGB
 90
      255
102
RTVSPost2010PropOp44
 70
     1
102
RTVSPost2010Prop45
280
     0
102
RTVSPost2010PropOp45
 70
     1
102
RTVSPost2010Prop46
 90
       50
102
RTVSPost2010PropOp46
 70
     1
102
RTVSPost2010Prop47
 90
       50
102
RTVSPost2010PropOp47
 70
     1
102
RTVSPost2010Prop48
 90
       50
102
RTVSPost2010PropOp48
 70
     1
102
RTVSPost2010Prop49
280
     0
102
RTVSPost2010PropOp49
 70
     1
102
RTVSPost2010Prop50
 90
       50
102
RTVSPost2010PropOp50
 70
     1
102
RTVSPost2010Prop51ColorIndex
 90
      256
102
RTVSPost2010Prop51ColorRGB
 90
-16777216
102
RTVSPost2010PropOp51
 70
     0
102
RTVSPost2010Prop52
140
1.0
102
RTVSPost2010PropOp52
 70
     0
102
RTVSPost2010Prop53
 90
        2
102
RTVSPost2010PropOp53
 70
     1
102
RTVSPost2010Prop54
  1
strokes_ogs.tif
102
RTVSPost2010PropOp54
 70
     1
102
RTVSPost2010Prop55
280
     0
102
RTVSPost2010PropOp55
 70
     1
102
RTVSPost2010Prop56
140
1.0
102
RTVSPost2010PropOp56
 70
     1
102
RTVSPost2010Prop57
140
1.0
102
RTVSPost2010PropOp57
 70
     1
  0
XRECORD
  5
3A2
102
{ACAD_REACTORS
330
3A1
102
}
330
3A1
100
AcDbXrecord
280
     1
102
RTVSPost2010Prop28
280
     0
102
RTVSPost2010PropOp28
 70
     0
102
RTVSPost2010Prop29
280
     1
102
RTVSPost2010PropOp29
 70
     0
102
RTVSPost2010Prop30
280
     1
102
RTVSPost2010PropOp30
 70
     0
102
RTVSPost2010Prop31
280
     0
102
RTVSPost2010PropOp31
 70
     0
102
RTVSPost2010Prop32
280
     0
102
RTVSPost2010PropOp32
 70
     0
102
RTVSPost2010Prop33
280
     0
102
RTVSPost2010PropOp33
 70
     0
102
RTVSPost2010Prop34
280
     0
102
RTVSPost2010PropOp34
 70
     0
102
RTVSPost2010Prop35
280
     0
102
RTVSPost2010PropOp35
 70
     0
102
RTVSPost2010Prop36
280
     0
102
RTVSPost2010PropOp36
 70
     0
102
RTVSPost2010Prop37
 90
       50
102
RTVSPost2010PropOp37
 70
     0
102
RTVSPost2010Prop38
140
0.0
102
RTVSPost2010PropOp38
 70
     0
102
RTVSPost2010Prop39
140
1.0
102
RTVSPost2010PropOp39
 70
     0
102
RTVSPost2010Prop40
 90
        0
102
RTVSPost2010PropOp40
 70
     0
102
RTVSPost2010Prop41ColorIndex
 90
       18
102
RTVSPost2010Prop41ColorRGB
 90
        0
102
RTVSPost2010PropOp41
 70
     0
102
RTVSPost2010Prop42
 90
       50
102
RTVSPost2010PropOp42
 70
     0
102
RTVSPost2010Prop43
 90
        3
102
RTVSPost2010PropOp43
 70
     0
102
RTVSPost2010Prop44ColorIndex
 90
        5
102
RTVSPost2010Prop44ColorRGB
 90
      255
102
RTVSPost2010PropOp44
 70
     0
102
RTVSPost2010Prop45
280
     0
102
RTVSPost2010PropOp45
 70
     0
102
RTVSPost2010Prop46
 90
       50
102
RTVSPost2010PropOp46
 70
     0
102
RTVSPost2010Prop47
 90
       50
102
RTVSPost2010PropOp47
 70
     0
102
RTVSPost2010Prop48
 90
       50
102
RTVSPost2010PropOp48
 70
     0
102
RTVSPost2010Prop49
280
     0
102
RTVSPost2010PropOp49
 70
     0
102
RTVSPost2010Prop50
 90
       50
102
RTVSPost2010PropOp50
 70
     0
102
RTVSPost2010Prop51ColorIndex
 90
      256
102
RTVSPost2010Prop51ColorRGB
 90
-16777216
102
RTVSPost2010PropOp51
 70
     0
102
RTVSPost2010Prop52
140
1.0
102
RTVSPost2010PropOp52
 70
     0
102
RTVSPost2010Prop53
 90
        2
102
RTVSPost2010PropOp53
 70
     0
102
RTVSPost2010Prop54
  1
strokes_ogs.tif
102
RTVSPost2010PropOp54
 70
     0
102
RTVSPost2010Prop55
280
     0
102
RTVSPost2010PropOp55
 70
     0
102
RTVSPost2010Prop56
140
1.0
102
RTVSPost2010PropOp56
 70
     0
102
RTVSPost2010Prop57
140
1.0
102
RTVSPost2010PropOp57
 70
     0
  0
XRECORD
  5
392
102
{ACAD_REACTORS
330
391
102
}
330
391
100
AcDbXrecord
280
     1
102
RTVSPost2010Prop28
280
     0
102
RTVSPost2010PropOp28
 70
     1
102
RTVSPost2010Prop29
280
     1
102
RTVSPost2010PropOp29
 70
     1
102
RTVSPost2010Prop30
280
     1
102
RTVSPost2010PropOp30
 70
     1
102
RTVSPost2010Prop31
280
     0
102
RTVSPost2010PropOp31
 70
     1
102
RTVSPost2010Prop32
280
     0
102
RTVSPost2010PropOp32
 70
     1
102
RTVSPost2010Prop33
280
     0
102
RTVSPost2010PropOp33
 70
     1
102
RTVSPost2010Prop34
280
     0
102
RTVSPost2010PropOp34
 70
     1
102
RTVSPost2010Prop35
280
     0
102
RTVSPost2010PropOp35
 70
     1
102
RTVSPost2010Prop36
280
     0
102
RTVSPost2010PropOp36
 70
     1
102
RTVSPost2010Prop37
 90
       50
102
RTVSPost2010PropOp37
 70
     1
102
RTVSPost2010Prop38
140
0.0
102
RTVSPost2010PropOp38
 70
     1
102
RTVSPost2010Prop39
140
1.0
102
RTVSPost2010PropOp39
 70
     1
102
RTVSPost2010Prop40
 90
        0
102
RTVSPost2010PropOp40
 70
     1
102
RTVSPost2010Prop41ColorIndex
 90
       18
102
RTVSPost2010Prop41ColorRGB
 90
        0
102
RTVSPost2010PropOp41
 70
     1
102
RTVSPost2010Prop42
 90
       50
102
RTVSPost2010PropOp42
 70
     1
102
RTVSPost2010Prop43
 90
        3
102
RTVSPost2010PropOp43
 70
     1
102
RTVSPost2010Prop44ColorIndex
 90
        5
102
RTVSPost2010Prop44ColorRGB
 90
      255
102
RTVSPost2010PropOp44
 70
     1
102
RTVSPost2010Prop45
280
     0
102
RTVSPost2010PropOp45
 70
     1
102
RTVSPost2010Prop46
 90
       50
102
RTVSPost2010PropOp46
 70
     1
102
RTVSPost2010Prop47
 90
       50
102
RTVSPost2010PropOp47
 70
     1
102
RTVSPost2010Prop48
 90
       50
102
RTVSPost2010PropOp48
 70
     1
102
RTVSPost2010Prop49
280
     0
102
RTVSPost2010PropOp49
 70
     1
102
RTVSPost2010Prop50
 90
       50
102
RTVSPost2010PropOp50
 70
     1
102
RTVSPost2010Prop51ColorIndex
 90
      256
102
RTVSPost2010Prop51ColorRGB
 90
-16777216
102
RTVSPost2010PropOp51
 70
     0
102
RTVSPost2010Prop52
140
1.0
102
RTVSPost2010PropOp52
 70
     0
102
RTVSPost2010Prop53
 90
        2
102
RTVSPost2010PropOp53
 70
     1
102
RTVSPost2010Prop54
  1
strokes_ogs.tif
102
RTVSPost2010PropOp54
 70
     1
102
RTVSPost2010Prop55
280
     0
102
RTVSPost2010PropOp55
 70
     1
102
RTVSPost2010Prop56
140
1.0
102
RTVSPost2010PropOp56
 70
     1
102
RTVSPost2010Prop57
140
1.0
102
RTVSPost2010PropOp57
 70
     1
  0
XRECORD
  5
3A4
102
{ACAD_REACTORS
330
3A3
102
}
330
3A3
100
AcDbXrecord
280
     1
102
RTVSPost2010Prop28
280
     0
102
RTVSPost2010PropOp28
 70
     0
102
RTVSPost2010Prop29
280
     1
102
RTVSPost2010PropOp29
 70
     0
102
RTVSPost2010Prop30
280
     1
102
RTVSPost2010PropOp30
 70
     0
102
RTVSPost2010Prop31
280
     0
102
RTVSPost2010PropOp31
 70
     0
102
RTVSPost2010Prop32
280
     0
102
RTVSPost2010PropOp32
 70
     0
102
RTVSPost2010Prop33
280
     0
102
RTVSPost2010PropOp33
 70
     0
102
RTVSPost2010Prop34
280
     0
102
RTVSPost2010PropOp34
 70
     0
102
RTVSPost2010Prop35
280
     0
102
RTVSPost2010PropOp35
 70
     0
102
RTVSPost2010Prop36
280
     0
102
RTVSPost2010PropOp36
 70
     0
102
RTVSPost2010Prop37
 90
       50
102
RTVSPost2010PropOp37
 70
     0
102
RTVSPost2010Prop38
140
0.0
102
RTVSPost2010PropOp38
 70
     0
102
RTVSPost2010Prop39
140
1.0
102
RTVSPost2010PropOp39
 70
     0
102
RTVSPost2010Prop40
 90
        0
102
RTVSPost2010PropOp40
 70
     0
102
RTVSPost2010Prop41ColorIndex
 90
       18
102
RTVSPost2010Prop41ColorRGB
 90
        0
102
RTVSPost2010PropOp41
 70
     0
102
RTVSPost2010Prop42
 90
       50
102
RTVSPost2010PropOp42
 70
     0
102
RTVSPost2010Prop43
 90
        3
102
RTVSPost2010PropOp43
 70
     0
102
RTVSPost2010Prop44ColorIndex
 90
        5
102
RTVSPost2010Prop44ColorRGB
 90
      255
102
RTVSPost2010PropOp44
 70
     0
102
RTVSPost2010Prop45
280
     0
102
RTVSPost2010PropOp45
 70
     0
102
RTVSPost2010Prop46
 90
       50
102
RTVSPost2010PropOp46
 70
     0
102
RTVSPost2010Prop47
 90
       50
102
RTVSPost2010PropOp47
 70
     0
102
RTVSPost2010Prop48
 90
       50
102
RTVSPost2010PropOp48
 70
     0
102
RTVSPost2010Prop49
280
     0
102
RTVSPost2010PropOp49
 70
     0
102
RTVSPost2010Prop50
 90
       50
102
RTVSPost2010PropOp50
 70
     0
102
RTVSPost2010Prop51ColorIndex
 90
      256
102
RTVSPost2010Prop51ColorRGB
 90
-16777216
102
RTVSPost2010PropOp51
 70
     0
102
RTVSPost2010Prop52
140
1.0
102
RTVSPost2010PropOp52
 70
     0
102
RTVSPost2010Prop53
 90
        2
102
RTVSPost2010PropOp53
 70
     0
102
RTVSPost2010Prop54
  1
strokes_ogs.tif
102
RTVSPost2010PropOp54
 70
     0
102
RTVSPost2010Prop55
280
     0
102
RTVSPost2010PropOp55
 70
     0
102
RTVSPost2010Prop56
140
1.0
102
RTVSPost2010PropOp56
 70
     0
102
RTVSPost2010Prop57
140
1.0
102
RTVSPost2010PropOp57
 70
     0
  0
XRECORD
  5
38A
102
{ACAD_REACTORS
330
389
102
}
330
389
100
AcDbXrecord
280
     1
102
RTVSPost2010Prop28
280
     0
102
RTVSPost2010PropOp28
 70
     1
102
RTVSPost2010Prop29
280
     1
102
RTVSPost2010PropOp29
 70
     1
102
RTVSPost2010Prop30
280
     1
102
RTVSPost2010PropOp30
 70
     1
102
RTVSPost2010Prop31
280
     0
102
RTVSPost2010PropOp31
 70
     1
102
RTVSPost2010Prop32
280
     0
102
RTVSPost2010PropOp32
 70
     1
102
RTVSPost2010Prop33
280
     0
102
RTVSPost2010PropOp33
 70
     1
102
RTVSPost2010Prop34
280
     0
102
RTVSPost2010PropOp34
 70
     1
102
RTVSPost2010Prop35
280
     0
102
RTVSPost2010PropOp35
 70
     1
102
RTVSPost2010Prop36
280
     0
102
RTVSPost2010PropOp36
 70
     1
102
RTVSPost2010Prop37
 90
       50
102
RTVSPost2010PropOp37
 70
     1
102
RTVSPost2010Prop38
140
0.0
102
RTVSPost2010PropOp38
 70
     1
102
RTVSPost2010Prop39
140
1.0
102
RTVSPost2010PropOp39
 70
     1
102
RTVSPost2010Prop40
 90
        0
102
RTVSPost2010PropOp40
 70
     1
102
RTVSPost2010Prop41ColorIndex
 90
       18
102
RTVSPost2010Prop41ColorRGB
 90
        0
102
RTVSPost2010PropOp41
 70
     1
102
RTVSPost2010Prop42
 90
       50
102
RTVSPost2010PropOp42
 70
     1
102
RTVSPost2010Prop43
 90
        3
102
RTVSPost2010PropOp43
 70
     1
102
RTVSPost2010Prop44ColorIndex
 90
        5
102
RTVSPost2010Prop44ColorRGB
 90
      255
102
RTVSPost2010PropOp44
 70
     1
102
RTVSPost2010Prop45
280
     0
102
RTVSPost2010PropOp45
 70
     1
102
RTVSPost2010Prop46
 90
       50
102
RTVSPost2010PropOp46
 70
     1
102
RTVSPost2010Prop47
 90
       50
102
RTVSPost2010PropOp47
 70
     1
102
RTVSPost2010Prop48
 90
       50
102
RTVSPost2010PropOp48
 70
     1
102
RTVSPost2010Prop49
280
     0
102
RTVSPost2010PropOp49
 70
     1
102
RTVSPost2010Prop50
 90
       50
102
RTVSPost2010PropOp50
 70
     1
102
RTVSPost2010Prop51ColorIndex
 90
      256
102
RTVSPost2010Prop51ColorRGB
 90
-16777216
102
RTVSPost2010PropOp51
 70
     0
102
RTVSPost2010Prop52
140
1.0
102
RTVSPost2010PropOp52
 70
     0
102
RTVSPost2010Prop53
 90
        2
102
RTVSPost2010PropOp53
 70
     1
102
RTVSPost2010Prop54
  1
strokes_ogs.tif
102
RTVSPost2010PropOp54
 70
     1
102
RTVSPost2010Prop55
280
     0
102
RTVSPost2010PropOp55
 70
     1
102
RTVSPost2010Prop56
140
1.0
102
RTVSPost2010PropOp56
 70
     1
102
RTVSPost2010Prop57
140
1.0
102
RTVSPost2010PropOp57
 70
     1
  0
XRECORD
  5
3A0
102
{ACAD_REACTORS
330
39F
102
}
330
39F
100
AcDbXrecord
280
     1
102
RTVSPost2010Prop28
280
     0
102
RTVSPost2010PropOp28
 70
     1
102
RTVSPost2010Prop29
280
     1
102
RTVSPost2010PropOp29
 70
     1
102
RTVSPost2010Prop30
280
     1
102
RTVSPost2010PropOp30
 70
     1
102
RTVSPost2010Prop31
280
     0
102
RTVSPost2010PropOp31
 70
     1
102
RTVSPost2010Prop32
280
     0
102
RTVSPost2010PropOp32
 70
     1
102
RTVSPost2010Prop33
280
     0
102
RTVSPost2010PropOp33
 70
     1
102
RTVSPost2010Prop34
280
     0
102
RTVSPost2010PropOp34
 70
     1
102
RTVSPost2010Prop35
280
     0
102
RTVSPost2010PropOp35
 70
     1
102
RTVSPost2010Prop36
280
     0
102
RTVSPost2010PropOp36
 70
     1
102
RTVSPost2010Prop37
 90
       50
102
RTVSPost2010PropOp37
 70
     1
102
RTVSPost2010Prop38
140
0.0
102
RTVSPost2010PropOp38
 70
     1
102
RTVSPost2010Prop39
140
1.0
102
RTVSPost2010PropOp39
 70
     1
102
RTVSPost2010Prop40
 90
        0
102
RTVSPost2010PropOp40
 70
     1
102
RTVSPost2010Prop41ColorIndex
 90
       18
102
RTVSPost2010Prop41ColorRGB
 90
        0
102
RTVSPost2010PropOp41
 70
     1
102
RTVSPost2010Prop42
 90
       50
102
RTVSPost2010PropOp42
 70
     1
102
RTVSPost2010Prop43
 90
        3
102
RTVSPost2010PropOp43
 70
     1
102
RTVSPost2010Prop44ColorIndex
 90
        5
102
RTVSPost2010Prop44ColorRGB
 90
      255
102
RTVSPost2010PropOp44
 70
     1
102
RTVSPost2010Prop45
280
     0
102
RTVSPost2010PropOp45
 70
     1
102
RTVSPost2010Prop46
 90
       50
102
RTVSPost2010PropOp46
 70
     1
102
RTVSPost2010Prop47
 90
       50
102
RTVSPost2010PropOp47
 70
     1
102
RTVSPost2010Prop48
 90
       50
102
RTVSPost2010PropOp48
 70
     1
102
RTVSPost2010Prop49
280
     0
102
RTVSPost2010PropOp49
 70
     1
102
RTVSPost2010Prop50
 90
       50
102
RTVSPost2010PropOp50
 70
     1
102
RTVSPost2010Prop51ColorIndex
 90
      256
102
RTVSPost2010Prop51ColorRGB
 90
-16777216
102
RTVSPost2010PropOp51
 70
     0
102
RTVSPost2010Prop52
140
1.0
102
RTVSPost2010PropOp52
 70
     0
102
RTVSPost2010Prop53
 90
        2
102
RTVSPost2010PropOp53
 70
     1
102
RTVSPost2010Prop54
  1
strokes_ogs.tif
102
RTVSPost2010PropOp54
 70
     1
102
RTVSPost2010Prop55
280
     0
102
RTVSPost2010PropOp55
 70
     1
102
RTVSPost2010Prop56
140
1.0
102
RTVSPost2010PropOp56
 70
     1
102
RTVSPost2010Prop57
140
1.0
102
RTVSPost2010PropOp57
 70
     1
  0
XRECORD
  5
39E
102
{ACAD_REACTORS
330
39D
102
}
330
39D
100
AcDbXrecord
280
     1
102
RTVSPost2010Prop28
280
     0
102
RTVSPost2010PropOp28
 70
     1
102
RTVSPost2010Prop29
280
     1
102
RTVSPost2010PropOp29
 70
     1
102
RTVSPost2010Prop30
280
     1
102
RTVSPost2010PropOp30
 70
     1
102
RTVSPost2010Prop31
280
     0
102
RTVSPost2010PropOp31
 70
     1
102
RTVSPost2010Prop32
280
     0
102
RTVSPost2010PropOp32
 70
     1
102
RTVSPost2010Prop33
280
     0
102
RTVSPost2010PropOp33
 70
     1
102
RTVSPost2010Prop34
280
     0
102
RTVSPost2010PropOp34
 70
     1
102
RTVSPost2010Prop35
280
     0
102
RTVSPost2010PropOp35
 70
     1
102
RTVSPost2010Prop36
280
     0
102
RTVSPost2010PropOp36
 70
     1
102
RTVSPost2010Prop37
 90
       50
102
RTVSPost2010PropOp37
 70
     1
102
RTVSPost2010Prop38
140
0.0
102
RTVSPost2010PropOp38
 70
     1
102
RTVSPost2010Prop39
140
1.0
102
RTVSPost2010PropOp39
 70
     1
102
RTVSPost2010Prop40
 90
        0
102
RTVSPost2010PropOp40
 70
     1
102
RTVSPost2010Prop41ColorIndex
 90
       18
102
RTVSPost2010Prop41ColorRGB
 90
        0
102
RTVSPost2010PropOp41
 70
     1
102
RTVSPost2010Prop42
 90
       50
102
RTVSPost2010PropOp42
 70
     1
102
RTVSPost2010Prop43
 90
        3
102
RTVSPost2010PropOp43
 70
     1
102
RTVSPost2010Prop44ColorIndex
 90
        5
102
RTVSPost2010Prop44ColorRGB
 90
      255
102
RTVSPost2010PropOp44
 70
     1
102
RTVSPost2010Prop45
280
     0
102
RTVSPost2010PropOp45
 70
     1
102
RTVSPost2010Prop46
 90
       50
102
RTVSPost2010PropOp46
 70
     1
102
RTVSPost2010Prop47
 90
       50
102
RTVSPost2010PropOp47
 70
     1
102
RTVSPost2010Prop48
 90
       50
102
RTVSPost2010PropOp48
 70
     1
102
RTVSPost2010Prop49
280
     0
102
RTVSPost2010PropOp49
 70
     1
102
RTVSPost2010Prop50
 90
       50
102
RTVSPost2010PropOp50
 70
     1
102
RTVSPost2010Prop51ColorIndex
 90
      256
102
RTVSPost2010Prop51ColorRGB
 90
-16777216
102
RTVSPost2010PropOp51
 70
     0
102
RTVSPost2010Prop52
140
1.0
102
RTVSPost2010PropOp52
 70
     0
102
RTVSPost2010Prop53
 90
        2
102
RTVSPost2010PropOp53
 70
     1
102
RTVSPost2010Prop54
  1
strokes_ogs.tif
102
RTVSPost2010PropOp54
 70
     1
102
RTVSPost2010Prop55
280
     0
102
RTVSPost2010PropOp55
 70
     1
102
RTVSPost2010Prop56
140
1.0
102
RTVSPost2010PropOp56
 70
     1
102
RTVSPost2010Prop57
140
1.0
102
RTVSPost2010PropOp57
 70
     1
  0
XRECORD
  5
398
102
{ACAD_REACTORS
330
397
102
}
330
397
100
AcDbXrecord
280
     1
102
RTVSPost2010Prop28
280
     0
102
RTVSPost2010PropOp28
 70
     1
102
RTVSPost2010Prop29
280
     1
102
RTVSPost2010PropOp29
 70
     1
102
RTVSPost2010Prop30
280
     1
102
RTVSPost2010PropOp30
 70
     1
102
RTVSPost2010Prop31
280
     0
102
RTVSPost2010PropOp31
 70
     1
102
RTVSPost2010Prop32
280
     0
102
RTVSPost2010PropOp32
 70
     1
102
RTVSPost2010Prop33
280
     0
102
RTVSPost2010PropOp33
 70
     1
102
RTVSPost2010Prop34
280
     0
102
RTVSPost2010PropOp34
 70
     1
102
RTVSPost2010Prop35
280
     0
102
RTVSPost2010PropOp35
 70
     1
102
RTVSPost2010Prop36
280
     0
102
RTVSPost2010PropOp36
 70
     1
102
RTVSPost2010Prop37
 90
       50
102
RTVSPost2010PropOp37
 70
     1
102
RTVSPost2010Prop38
140
0.0
102
RTVSPost2010PropOp38
 70
     1
102
RTVSPost2010Prop39
140
1.0
102
RTVSPost2010PropOp39
 70
     1
102
RTVSPost2010Prop40
 90
        0
102
RTVSPost2010PropOp40
 70
     1
102
RTVSPost2010Prop41ColorIndex
 90
       18
102
RTVSPost2010Prop41ColorRGB
 90
        0
102
RTVSPost2010PropOp41
 70
     1
102
RTVSPost2010Prop42
 90
       50
102
RTVSPost2010PropOp42
 70
     1
102
RTVSPost2010Prop43
 90
        3
102
RTVSPost2010PropOp43
 70
     1
102
RTVSPost2010Prop44ColorIndex
 90
        5
102
RTVSPost2010Prop44ColorRGB
 90
      255
102
RTVSPost2010PropOp44
 70
     1
102
RTVSPost2010Prop45
280
     0
102
RTVSPost2010PropOp45
 70
     1
102
RTVSPost2010Prop46
 90
       50
102
RTVSPost2010PropOp46
 70
     1
102
RTVSPost2010Prop47
 90
       50
102
RTVSPost2010PropOp47
 70
     1
102
RTVSPost2010Prop48
 90
       50
102
RTVSPost2010PropOp48
 70
     1
102
RTVSPost2010Prop49
280
     0
102
RTVSPost2010PropOp49
 70
     1
102
RTVSPost2010Prop50
 90
       50
102
RTVSPost2010PropOp50
 70
     1
102
RTVSPost2010Prop51ColorIndex
 90
      256
102
RTVSPost2010Prop51ColorRGB
 90
-16777216
102
RTVSPost2010PropOp51
 70
     0
102
RTVSPost2010Prop52
140
1.0
102
RTVSPost2010PropOp52
 70
     0
102
RTVSPost2010Prop53
 90
        2
102
RTVSPost2010PropOp53
 70
     1
102
RTVSPost2010Prop54
  1
strokes_ogs.tif
102
RTVSPost2010PropOp54
 70
     1
102
RTVSPost2010Prop55
280
     0
102
RTVSPost2010PropOp55
 70
     1
102
RTVSPost2010Prop56
140
1.0
102
RTVSPost2010PropOp56
 70
     1
102
RTVSPost2010Prop57
140
1.0
102
RTVSPost2010PropOp57
 70
     1
  0
XRECORD
  5
39A
102
{ACAD_REACTORS
330
399
102
}
330
399
100
AcDbXrecord
280
     1
102
RTVSPost2010Prop28
280
     0
102
RTVSPost2010PropOp28
 70
     1
102
RTVSPost2010Prop29
280
     1
102
RTVSPost2010PropOp29
 70
     1
102
RTVSPost2010Prop30
280
     1
102
RTVSPost2010PropOp30
 70
     1
102
RTVSPost2010Prop31
280
     0
102
RTVSPost2010PropOp31
 70
     1
102
RTVSPost2010Prop32
280
     0
102
RTVSPost2010PropOp32
 70
     1
102
RTVSPost2010Prop33
280
     0
102
RTVSPost2010PropOp33
 70
     1
102
RTVSPost2010Prop34
280
     0
102
RTVSPost2010PropOp34
 70
     1
102
RTVSPost2010Prop35
280
     0
102
RTVSPost2010PropOp35
 70
     1
102
RTVSPost2010Prop36
280
     0
102
RTVSPost2010PropOp36
 70
     1
102
RTVSPost2010Prop37
 90
       50
102
RTVSPost2010PropOp37
 70
     1
102
RTVSPost2010Prop38
140
0.0
102
RTVSPost2010PropOp38
 70
     1
102
RTVSPost2010Prop39
140
1.0
102
RTVSPost2010PropOp39
 70
     1
102
RTVSPost2010Prop40
 90
        0
102
RTVSPost2010PropOp40
 70
     1
102
RTVSPost2010Prop41ColorIndex
 90
       18
102
RTVSPost2010Prop41ColorRGB
 90
        0
102
RTVSPost2010PropOp41
 70
     1
102
RTVSPost2010Prop42
 90
       50
102
RTVSPost2010PropOp42
 70
     1
102
RTVSPost2010Prop43
 90
        3
102
RTVSPost2010PropOp43
 70
     1
102
RTVSPost2010Prop44ColorIndex
 90
        5
102
RTVSPost2010Prop44ColorRGB
 90
      255
102
RTVSPost2010PropOp44
 70
     1
102
RTVSPost2010Prop45
280
     0
102
RTVSPost2010PropOp45
 70
     1
102
RTVSPost2010Prop46
 90
       50
102
RTVSPost2010PropOp46
 70
     1
102
RTVSPost2010Prop47
 90
       50
102
RTVSPost2010PropOp47
 70
     1
102
RTVSPost2010Prop48
 90
       50
102
RTVSPost2010PropOp48
 70
     1
102
RTVSPost2010Prop49
280
     0
102
RTVSPost2010PropOp49
 70
     1
102
RTVSPost2010Prop50
 90
       50
102
RTVSPost2010PropOp50
 70
     1
102
RTVSPost2010Prop51ColorIndex
 90
      256
102
RTVSPost2010Prop51ColorRGB
 90
-16777216
102
RTVSPost2010PropOp51
 70
     0
102
RTVSPost2010Prop52
140
1.0
102
RTVSPost2010PropOp52
 70
     0
102
RTVSPost2010Prop53
 90
        2
102
RTVSPost2010PropOp53
 70
     1
102
RTVSPost2010Prop54
  1
strokes_ogs.tif
102
RTVSPost2010PropOp54
 70
     1
102
RTVSPost2010Prop55
280
     0
102
RTVSPost2010PropOp55
 70
     1
102
RTVSPost2010Prop56
140
1.0
102
RTVSPost2010PropOp56
 70
     1
102
RTVSPost2010Prop57
140
1.0
102
RTVSPost2010PropOp57
 70
     1
  0
XRECORD
  5
390
102
{ACAD_REACTORS
330
38F
102
}
330
38F
100
AcDbXrecord
280
     1
102
RTVSPost2010Prop28
280
     0
102
RTVSPost2010PropOp28
 70
     1
102
RTVSPost2010Prop29
280
     1
102
RTVSPost2010PropOp29
 70
     1
102
RTVSPost2010Prop30
280
     1
102
RTVSPost2010PropOp30
 70
     1
102
RTVSPost2010Prop31
280
     0
102
RTVSPost2010PropOp31
 70
     1
102
RTVSPost2010Prop32
280
     0
102
RTVSPost2010PropOp32
 70
     1
102
RTVSPost2010Prop33
280
     0
102
RTVSPost2010PropOp33
 70
     1
102
RTVSPost2010Prop34
280
     0
102
RTVSPost2010PropOp34
 70
     1
102
RTVSPost2010Prop35
280
     0
102
RTVSPost2010PropOp35
 70
     1
102
RTVSPost2010Prop36
280
     0
102
RTVSPost2010PropOp36
 70
     1
102
RTVSPost2010Prop37
 90
       50
102
RTVSPost2010PropOp37
 70
     1
102
RTVSPost2010Prop38
140
0.0
102
RTVSPost2010PropOp38
 70
     1
102
RTVSPost2010Prop39
140
1.0
102
RTVSPost2010PropOp39
 70
     1
102
RTVSPost2010Prop40
 90
        0
102
RTVSPost2010PropOp40
 70
     1
102
RTVSPost2010Prop41ColorIndex
 90
       18
102
RTVSPost2010Prop41ColorRGB
 90
        0
102
RTVSPost2010PropOp41
 70
     1
102
RTVSPost2010Prop42
 90
       50
102
RTVSPost2010PropOp42
 70
     1
102
RTVSPost2010Prop43
 90
        3
102
RTVSPost2010PropOp43
 70
     1
102
RTVSPost2010Prop44ColorIndex
 90
        5
102
RTVSPost2010Prop44ColorRGB
 90
      255
102
RTVSPost2010PropOp44
 70
     1
102
RTVSPost2010Prop45
280
     0
102
RTVSPost2010PropOp45
 70
     1
102
RTVSPost2010Prop46
 90
       50
102
RTVSPost2010PropOp46
 70
     1
102
RTVSPost2010Prop47
 90
       50
102
RTVSPost2010PropOp47
 70
     1
102
RTVSPost2010Prop48
 90
       50
102
RTVSPost2010PropOp48
 70
     1
102
RTVSPost2010Prop49
280
     0
102
RTVSPost2010PropOp49
 70
     1
102
RTVSPost2010Prop50
 90
       50
102
RTVSPost2010PropOp50
 70
     1
102
RTVSPost2010Prop51ColorIndex
 90
      256
102
RTVSPost2010Prop51ColorRGB
 90
-16777216
102
RTVSPost2010PropOp51
 70
     0
102
RTVSPost2010Prop52
140
1.0
102
RTVSPost2010PropOp52
 70
     0
102
RTVSPost2010Prop53
 90
        2
102
RTVSPost2010PropOp53
 70
     1
102
RTVSPost2010Prop54
  1
strokes_ogs.tif
102
RTVSPost2010PropOp54
 70
     1
102
RTVSPost2010Prop55
280
     0
102
RTVSPost2010PropOp55
 70
     1
102
RTVSPost2010Prop56
140
1.0
102
RTVSPost2010PropOp56
 70
     1
102
RTVSPost2010Prop57
140
1.0
102
RTVSPost2010PropOp57
 70
     1
  0
XRECORD
  5
384
102
{ACAD_REACTORS
330
383
102
}
330
383
100
AcDbXrecord
280
     1
102
RTVSPost2010Prop28
280
     0
102
RTVSPost2010PropOp28
 70
     1
102
RTVSPost2010Prop29
280
     1
102
RTVSPost2010PropOp29
 70
     1
102
RTVSPost2010Prop30
280
     1
102
RTVSPost2010PropOp30
 70
     1
102
RTVSPost2010Prop31
280
     0
102
RTVSPost2010PropOp31
 70
     1
102
RTVSPost2010Prop32
280
     0
102
RTVSPost2010PropOp32
 70
     1
102
RTVSPost2010Prop33
280
     0
102
RTVSPost2010PropOp33
 70
     1
102
RTVSPost2010Prop34
280
     0
102
RTVSPost2010PropOp34
 70
     1
102
RTVSPost2010Prop35
280
     0
102
RTVSPost2010PropOp35
 70
     1
102
RTVSPost2010Prop36
280
     0
102
RTVSPost2010PropOp36
 70
     1
102
RTVSPost2010Prop37
 90
       50
102
RTVSPost2010PropOp37
 70
     1
102
RTVSPost2010Prop38
140
0.0
102
RTVSPost2010PropOp38
 70
     1
102
RTVSPost2010Prop39
140
1.0
102
RTVSPost2010PropOp39
 70
     1
102
RTVSPost2010Prop40
 90
        0
102
RTVSPost2010PropOp40
 70
     1
102
RTVSPost2010Prop41ColorIndex
 90
       18
102
RTVSPost2010Prop41ColorRGB
 90
        0
102
RTVSPost2010PropOp41
 70
     1
102
RTVSPost2010Prop42
 90
       50
102
RTVSPost2010PropOp42
 70
     1
102
RTVSPost2010Prop43
 90
        3
102
RTVSPost2010PropOp43
 70
     1
102
RTVSPost2010Prop44ColorIndex
 90
        5
102
RTVSPost2010Prop44ColorRGB
 90
      255
102
RTVSPost2010PropOp44
 70
     1
102
RTVSPost2010Prop45
280
     0
102
RTVSPost2010PropOp45
 70
     1
102
RTVSPost2010Prop46
 90
       50
102
RTVSPost2010PropOp46
 70
     1
102
RTVSPost2010Prop47
 90
       50
102
RTVSPost2010PropOp47
 70
     1
102
RTVSPost2010Prop48
 90
       50
102
RTVSPost2010PropOp48
 70
     1
102
RTVSPost2010Prop49
280
     0
102
RTVSPost2010PropOp49
 70
     1
102
RTVSPost2010Prop50
 90
       50
102
RTVSPost2010PropOp50
 70
     1
102
RTVSPost2010Prop51ColorIndex
 90
      256
102
RTVSPost2010Prop51ColorRGB
 90
-16777216
102
RTVSPost2010PropOp51
 70
     0
102
RTVSPost2010Prop52
140
1.0
102
RTVSPost2010PropOp52
 70
     0
102
RTVSPost2010Prop53
 90
        2
102
RTVSPost2010PropOp53
 70
     1
102
RTVSPost2010Prop54
  1
strokes_ogs.tif
102
RTVSPost2010PropOp54
 70
     1
102
RTVSPost2010Prop55
280
     0
102
RTVSPost2010PropOp55
 70
     1
102
RTVSPost2010Prop56
140
1.0
102
RTVSPost2010PropOp56
 70
     1
102
RTVSPost2010Prop57
140
1.0
102
RTVSPost2010PropOp57
 70
     1
  0
XRECORD
  5
39C
102
{ACAD_REACTORS
330
39B
102
}
330
39B
100
AcDbXrecord
280
     1
102
RTVSPost2010Prop28
280
     0
102
RTVSPost2010PropOp28
 70
     1
102
RTVSPost2010Prop29
280
     1
102
RTVSPost2010PropOp29
 70
     1
102
RTVSPost2010Prop30
280
     1
102
RTVSPost2010PropOp30
 70
     1
102
RTVSPost2010Prop31
280
     0
102
RTVSPost2010PropOp31
 70
     1
102
RTVSPost2010Prop32
280
     0
102
RTVSPost2010PropOp32
 70
     1
102
RTVSPost2010Prop33
280
     0
102
RTVSPost2010PropOp33
 70
     1
102
RTVSPost2010Prop34
280
     0
102
RTVSPost2010PropOp34
 70
     1
102
RTVSPost2010Prop35
280
     0
102
RTVSPost2010PropOp35
 70
     1
102
RTVSPost2010Prop36
280
     0
102
RTVSPost2010PropOp36
 70
     1
102
RTVSPost2010Prop37
 90
       50
102
RTVSPost2010PropOp37
 70
     1
102
RTVSPost2010Prop38
140
0.0
102
RTVSPost2010PropOp38
 70
     1
102
RTVSPost2010Prop39
140
1.0
102
RTVSPost2010PropOp39
 70
     1
102
RTVSPost2010Prop40
 90
        0
102
RTVSPost2010PropOp40
 70
     1
102
RTVSPost2010Prop41ColorIndex
 90
       18
102
RTVSPost2010Prop41ColorRGB
 90
        0
102
RTVSPost2010PropOp41
 70
     1
102
RTVSPost2010Prop42
 90
       50
102
RTVSPost2010PropOp42
 70
     1
102
RTVSPost2010Prop43
 90
        3
102
RTVSPost2010PropOp43
 70
     1
102
RTVSPost2010Prop44ColorIndex
 90
        5
102
RTVSPost2010Prop44ColorRGB
 90
      255
102
RTVSPost2010PropOp44
 70
     1
102
RTVSPost2010Prop45
280
     0
102
RTVSPost2010PropOp45
 70
     1
102
RTVSPost2010Prop46
 90
       50
102
RTVSPost2010PropOp46
 70
     1
102
RTVSPost2010Prop47
 90
       50
102
RTVSPost2010PropOp47
 70
     1
102
RTVSPost2010Prop48
 90
       50
102
RTVSPost2010PropOp48
 70
     1
102
RTVSPost2010Prop49
280
     0
102
RTVSPost2010PropOp49
 70
     1
102
RTVSPost2010Prop50
 90
       50
102
RTVSPost2010PropOp50
 70
     1
102
RTVSPost2010Prop51ColorIndex
 90
      256
102
RTVSPost2010Prop51ColorRGB
 90
-16777216
102
RTVSPost2010PropOp51
 70
     0
102
RTVSPost2010Prop52
140
1.0
102
RTVSPost2010PropOp52
 70
     0
102
RTVSPost2010Prop53
 90
        2
102
RTVSPost2010PropOp53
 70
     1
102
RTVSPost2010Prop54
  1
strokes_ogs.tif
102
RTVSPost2010PropOp54
 70
     1
102
RTVSPost2010Prop55
280
     0
102
RTVSPost2010PropOp55
 70
     1
102
RTVSPost2010Prop56
140
1.0
102
RTVSPost2010PropOp56
 70
     1
102
RTVSPost2010Prop57
140
1.0
102
RTVSPost2010PropOp57
 70
     1
  0
ENDSEC
  0
EOF
