  0
SECTION
  2
HEADER
  9
$ACADVER
  1
AC1015
  9
$ACADMAINTVER
 70
     6
  9
$DWGCODEPAGE
  3
ANSI_949
  9
$INSBASE
 10
0.0
 20
0.0
 30
0.0
  9
$EXTMIN
 10
1.000000000000000E+20
 20
1.000000000000000E+20
 30
1.000000000000000E+20
  9
$EXTMAX
 10
-1.000000000000000E+20
 20
-1.000000000000000E+20
 30
-1.000000000000000E+20
  9
$LIMMIN
 10
0.0
 20
0.0
  9
$LIMMAX
 10
12.0
 20
9.0
  9
$ORTHOMODE
 70
     0
  9
$REGENMODE
 70
     1
  9
$FILLMODE
 70
     1
  9
$QTEXTMODE
 70
     0
  9
$MIRRTEXT
 70
     1
  9
$LTSCALE
 40
1.0
  9
$ATTMODE
 70
     1
  9
$TEXTSIZE
 40
0.2
  9
$TRACEWID
 40
0.05
  9
$TEXTSTYLE
  7
Standard
  9
$CLAYER
  8
0
  9
$CELTYPE
  6
ByLayer
  9
$CECOLOR
 62
   256
  9
$CELTSCALE
 40
1.0
  9
$DISPSILH
 70
     0
  9
$DIMSCALE
 40
1.0
  9
$DIMASZ
 40
0.18
  9
$DIMEXO
 40
0.0625
  9
$DIMDLI
 40
0.38
  9
$DIMRND
 40
0.0
  9
$DIMDLE
 40
0.0
  9
$DIMEXE
 40
0.18
  9
$DIMTP
 40
0.0
  9
$DIMTM
 40
0.0
  9
$DIMTXT
 40
0.18
  9
$DIMCEN
 40
0.09
  9
$DIMTSZ
 40
0.0
  9
$DIMTOL
 70
     0
  9
$DIMLIM
 70
     0
  9
$DIMTIH
 70
     1
  9
$DIMTOH
 70
     1
  9
$DIMSE1
 70
     0
  9
$DIMSE2
 70
     0
  9
$DIMTAD
 70
     0
  9
$DIMZIN
 70
     0
  9
$DIMBLK
  1

  9
$DIMASO
 70
     1
  9
$DIMSHO
 70
     1
  9
$DIMPOST
  1

  9
$DIMAPOST
  1

  9
$DIMALT
 70
     0
  9
$DIMALTD
 70
     2
  9
$DIMALTF
 40
25.4
  9
$DIMLFAC
 40
1.0
  9
$DIMTOFL
 70
     0
  9
$DIMTVP
 40
0.0
  9
$DIMTIX
 70
     0
  9
$DIMSOXD
 70
     0
  9
$DIMSAH
 70
     0
  9
$DIMBLK1
  1

  9
$DIMBLK2
  1

  9
$DIMSTYLE
  2
Standard
  9
$DIMCLRD
 70
     0
  9
$DIMCLRE
 70
     0
  9
$DIMCLRT
 70
     0
  9
$DIMTFAC
 40
1.0
  9
$DIMGAP
 40
0.09
  9
$DIMJUST
 70
     0
  9
$DIMSD1
 70
     0
  9
$DIMSD2
 70
     0
  9
$DIMTOLJ
 70
     1
  9
$DIMTZIN
 70
     0
  9
$DIMALTZ
 70
     0
  9
$DIMALTTZ
 70
     0
  9
$DIMUPT
 70
     0
  9
$DIMDEC
 70
     4
  9
$DIMTDEC
 70
     4
  9
$DIMALTU
 70
     2
  9
$DIMALTTD
 70
     2
  9
$DIMTXSTY
  7
Standard
  9
$DIMAUNIT
 70
     0
  9
$DIMADEC
 70
     0
  9
$DIMALTRND
 40
0.0
  9
$DIMAZIN
 70
     0
  9
$DIMDSEP
 70
    46
  9
$DIMATFIT
 70
     3
  9
$DIMFRAC
 70
     0
  9
$DIMLDRBLK
  1

  9
$DIMLUNIT
 70
     2
  9
$DIMLWD
 70
    -2
  9
$DIMLWE
 70
    -2
  9
$DIMTMOVE
 70
     0
  9
$LUNITS
 70
     2
  9
$LUPREC
 70
     4
  9
$SKETCHINC
 40
0.1
  9
$FILLETRAD
 40
0.5
  9
$AUNITS
 70
     0
  9
$AUPREC
 70
     0
  9
$MENU
  1
.
  9
$ELEVATION
 40
0.0
  9
$PELEVATION
 40
0.0
  9
$THICKNESS
 40
0.0
  9
$LIMCHECK
 70
     0
  9
$CHAMFERA
 40
0.5
  9
$CHAMFERB
 40
0.5
  9
$CHAMFERC
 40
1.0
  9
$CHAMFERD
 40
0.0
  9
$SKPOLY
 70
     0
  9
$TDCREATE
 40
2456522.580921852
  9
$TDUCREATE
 40
2456522.080921852
  9
$TDUPDATE
 40
2456522.580950914
  9
$TDUUPDATE
 40
2456522.080950914
  9
$TDINDWG
 40
0.0000000116
  9
$TDUSRTIMER
 40
0.0000000116
  9
$USRTIMER
 70
     1
  9
$ANGBASE
 50
0.0
  9
$ANGDIR
 70
     0
  9
$PDMODE
 70
     0
  9
$PDSIZE
 40
0.0
  9
$PLINEWID
 40
0.0
  9
$SPLFRAME
 70
     0
  9
$SPLINETYPE
 70
     6
  9
$SPLINESEGS
 70
     8
  9
$HANDSEED
  5
5DA
  9
$SURFTAB1
 70
     6
  9
$SURFTAB2
 70
     6
  9
$SURFTYPE
 70
     6
  9
$SURFU
 70
     6
  9
$SURFV
 70
     6
  9
$UCSBASE
  2

  9
$UCSNAME
  2

  9
$UCSORG
 10
0.0
 20
0.0
 30
0.0
  9
$UCSXDIR
 10
1.0
 20
0.0
 30
0.0
  9
$UCSYDIR
 10
0.0
 20
1.0
 30
0.0
  9
$UCSORTHOREF
  2

  9
$UCSORTHOVIEW
 70
     0
  9
$UCSORGTOP
 10
0.0
 20
0.0
 30
0.0
  9
$UCSORGBOTTOM
 10
0.0
 20
0.0
 30
0.0
  9
$UCSORGLEFT
 10
0.0
 20
0.0
 30
0.0
  9
$UCSORGRIGHT
 10
0.0
 20
0.0
 30
0.0
  9
$UCSORGFRONT
 10
0.0
 20
0.0
 30
0.0
  9
$UCSORGBACK
 10
0.0
 20
0.0
 30
0.0
  9
$PUCSBASE
  2

  9
$PUCSNAME
  2

  9
$PUCSORG
 10
0.0
 20
0.0
 30
0.0
  9
$PUCSXDIR
 10
1.0
 20
0.0
 30
0.0
  9
$PUCSYDIR
 10
0.0
 20
1.0
 30
0.0
  9
$PUCSORTHOREF
  2

  9
$PUCSORTHOVIEW
 70
     0
  9
$PUCSORGTOP
 10
0.0
 20
0.0
 30
0.0
  9
$PUCSORGBOTTOM
 10
0.0
 20
0.0
 30
0.0
  9
$PUCSORGLEFT
 10
0.0
 20
0.0
 30
0.0
  9
$PUCSORGRIGHT
 10
0.0
 20
0.0
 30
0.0
  9
$PUCSORGFRONT
 10
0.0
 20
0.0
 30
0.0
  9
$PUCSORGBACK
 10
0.0
 20
0.0
 30
0.0
  9
$USERI1
 70
     0
  9
$USERI2
 70
     0
  9
$USERI3
 70
     0
  9
$USERI4
 70
     0
  9
$USERI5
 70
     0
  9
$USERR1
 40
0.0
  9
$USERR2
 40
0.0
  9
$USERR3
 40
0.0
  9
$USERR4
 40
0.0
  9
$USERR5
 40
0.0
  9
$WORLDVIEW
 70
     1
  9
$SHADEDGE
 70
     3
  9
$SHADEDIF
 70
    70
  9
$TILEMODE
 70
     1
  9
$MAXACTVP
 70
    64
  9
$PINSBASE
 10
0.0
 20
0.0
 30
0.0
  9
$PLIMCHECK
 70
     0
  9
$PEXTMIN
 10
1.000000000000000E+20
 20
1.000000000000000E+20
 30
1.000000000000000E+20
  9
$PEXTMAX
 10
-1.000000000000000E+20
 20
-1.000000000000000E+20
 30
-1.000000000000000E+20
  9
$PLIMMIN
 10
0.0
 20
0.0
  9
$PLIMMAX
 10
12.0
 20
9.0
  9
$UNITMODE
 70
     0
  9
$VISRETAIN
 70
     1
  9
$PLINEGEN
 70
     0
  9
$PSLTSCALE
 70
     1
  9
$TREEDEPTH
 70
  3020
  9
$CMLSTYLE
  2
Standard
  9
$CMLJUST
 70
     0
  9
$CMLSCALE
 40
1.0
  9
$PROXYGRAPHICS
 70
     1
  9
$MEASUREMENT
 70
     0
  9
$CELWEIGHT
370
    -1
  9
$ENDCAPS
280
     0
  9
$JOINSTYLE
280
     0
  9
$LWDISPLAY
290
     1
  9
$INSUNITS
 70
     4
  9
$HYPERLINKBASE
  1

  9
$STYLESHEET
  1

  9
$XEDIT
290
     1
  9
$CEPSNTYPE
380
     0
  9
$PSTYLEMODE
290
     1
  9
$FINGERPRINTGUID
  2
{B52013CB-6100-4D48-A182-6D0C6B220C08}
  9
$VERSIONGUID
  2
{FAEB1C32-E019-11D5-929B-00C0DF256EC4}
  9
$EXTNAMES
290
     1
  9
$PSVPSCALE
 40
0.0
  9
$OLESTARTUP
290
     0
  0
ENDSEC
  0
SECTION
  2
CLASSES
  0
CLASS
  1
ACDBDICTIONARYWDFLT
  2
AcDbDictionaryWithDefault
  3
ObjectDBX Classes
 90
        0
280
     0
281
     0
  0
CLASS
  1
VISUALSTYLE
  2
AcDbVisualStyle
  3
ObjectDBX Classes
 90
     4095
280
     0
281
     0
  0
CLASS
  1
MATERIAL
  2
AcDbMaterial
  3
ObjectDBX Classes
 90
     1153
280
     0
281
     0
  0
CLASS
  1
SPATIAL_FILTER
  2
AcDbSpatialFilter
  3
ObjectDBX Classes
 90
        0
280
     0
281
     0
  0
CLASS
  1
SCALE
  2
AcDbScale
  3
ObjectDBX Classes
 90
     1153
280
     0
281
     0
  0
CLASS
  1
DICTIONARYVAR
  2
AcDbDictionaryVar
  3
ObjectDBX Classes
 90
        0
280
     0
281
     0
  0
CLASS
  1
ACDBPLACEHOLDER
  2
AcDbPlaceHolder
  3
ObjectDBX Classes
 90
        0
280
     0
281
     0
  0
CLASS
  1
LAYOUT
  2
AcDbLayout
  3
ObjectDBX Classes
 90
        0
280
     0
281
     0
  0
ENDSEC
  0
SECTION
  2
TABLES
  0
TABLE
  2
VPORT
  5
8
330
0
100
AcDbSymbolTable
 70
     1
  0
VPORT
  5
29
330
8
100
AcDbSymbolTableRecord
100
AcDbViewportTableRecord
  2
*Active
 70
     0
 10
0.0
 20
0.0
 11
1.0
 21
1.0
 12
148.6203422501967
 22
97.27060520811655
 13
0.0
 23
0.0
 14
0.5
 24
0.5
 15
0.5
 25
0.5
 16
0.0
 26
0.0
 36
1.0
 17
0.0
 27
0.0
 37
0.0
 40
194.2971225111692
 41
1.486926277925945
 42
50.0
 43
0.0
 44
0.0
 50
0.0
 51
0.0
 71
     0
 72
   100
 73
     1
 74
     3
 75
     0
 76
     0
 77
     0
 78
     0
281
     0
 65
     1
110
0.0
120
0.0
130
0.0
111
1.0
121
0.0
131
0.0
112
0.0
122
1.0
132
0.0
 79
     0
146
0.0
  0
ENDTAB
  0
TABLE
  2
LTYPE
  5
5
330
0
100
AcDbSymbolTable
 70
     2
  0
LTYPE
  5
14
330
5
100
AcDbSymbolTableRecord
100
AcDbLinetypeTableRecord
  2
ByBlock
 70
     0
  3

 72
    65
 73
     0
 40
0.0
  0
LTYPE
  5
15
330
5
100
AcDbSymbolTableRecord
100
AcDbLinetypeTableRecord
  2
ByLayer
 70
     0
  3

 72
    65
 73
     0
 40
0.0
  0
LTYPE
  5
16
330
5
100
AcDbSymbolTableRecord
100
AcDbLinetypeTableRecord
  2
Continuous
 70
     0
  3
Solid line
 72
    65
 73
     0
 40
0.0
  0
LTYPE
  5
131
330
5
100
AcDbSymbolTableRecord
100
AcDbLinetypeTableRecord
  2
Dashed
 70
     0
  3
- - - - - 
 72
    65
 73
     2
 40
5.644444465637207
 49
2.822222232818604
 74
     0
 49
-2.822222232818603
 74
     0
  0
ENDTAB
  0
TABLE
  2
LAYER
  5
2
330
0
100
AcDbSymbolTable
 70
     3
  0
LAYER
  5
10
330
2
100
AcDbSymbolTableRecord
100
AcDbLayerTableRecord
  2
0
 70
     0
 62
     7
  6
Continuous
370
    -3
390
F
  0
LAYER
  5
40
330
2
100
AcDbSymbolTableRecord
100
AcDbLayerTableRecord
  2
Doc_ Finishes
 70
     0
 62
     7
  6
Continuous
370
    -3
390
F
  0
LAYER
  5
DB
330
2
100
AcDbSymbolTableRecord
100
AcDbLayerTableRecord
  2
Doc_ Floor
 70
     0
 62
     7
  6
Continuous
370
    -3
390
F
  0
ENDTAB
  0
TABLE
  2
STYLE
  5
3
330
0
100
AcDbSymbolTable
 70
     4
  0
STYLE
  5
11
330
3
100
AcDbSymbolTableRecord
100
AcDbTextStyleTableRecord
  2
Standard
 70
     0
 40
0.0
 41
1.0
 50
0.0
 71
     0
 42
0.2
  3
txt
  4

  0
STYLE
  5
D6
330
3
100
AcDbSymbolTableRecord
100
AcDbTextStyleTableRecord
  2
GENERATED_STYLE_1
 70
     0
 40
0.0
 41
1.0
 50
0.0
 71
     0
 42
0.2
  3

  4

1001
ACAD
1000
Century Gothic
1071
       34
  0
STYLE
  5
D9
330
3
100
AcDbSymbolTableRecord
100
AcDbTextStyleTableRecord
  2
GENERATED_STYLE_2
 70
     0
 40
0.0
 41
1.0
 50
0.0
 71
     0
 42
0.2
  3

  4

1001
ACAD
1000
DilleniaUPC
1071
 33554450
  0
STYLE
  5
168
330
3
100
AcDbSymbolTableRecord
100
AcDbTextStyleTableRecord
  2
GENERATED_STYLE_3
 70
     0
 40
0.0
 41
1.0
 50
0.0
 71
     0
 42
0.2
  3

  4

1001
ACAD
1000
Arial
1071
       34
  0
ENDTAB
  0
TABLE
  2
VIEW
  5
6
330
0
100
AcDbSymbolTable
 70
     0
  0
ENDTAB
  0
TABLE
  2
UCS
  5
7
330
0
100
AcDbSymbolTable
 70
     0
  0
ENDTAB
  0
TABLE
  2
APPID
  5
9
330
0
100
AcDbSymbolTable
 70
     1
  0
APPID
  5
12
330
9
100
AcDbSymbolTableRecord
100
AcDbRegAppTableRecord
  2
ACAD
 70
     0
  0
ENDTAB
  0
TABLE
  2
DIMSTYLE
  5
A
330
0
100
AcDbSymbolTable
 70
     1
100
AcDbDimStyleTable
  0
DIMSTYLE
105
27
330
A
100
AcDbSymbolTableRecord
100
AcDbDimStyleTableRecord
  2
Standard
 70
     0
178
     0
340
11
  0
ENDTAB
  0
TABLE
  2
BLOCK_RECORD
  5
1
330
0
100
AcDbSymbolTable
 70
     3
  0
BLOCK_RECORD
  5
1F
330
1
100
AcDbSymbolTableRecord
100
AcDbBlockTableRecord
  2
*Model_Space
340
22
  0
BLOCK_RECORD
  5
1B
330
1
100
AcDbSymbolTableRecord
100
AcDbBlockTableRecord
  2
*Paper_Space
340
1E
  0
BLOCK_RECORD
  5
E3
330
1
100
AcDbSymbolTableRecord
100
AcDbBlockTableRecord
  2
Drawing_1_2
340
0
102
{BLKREFS
331
580
102
}
  0
BLOCK_RECORD
  5
584
330
1
100
AcDbSymbolTableRecord
100
AcDbBlockTableRecord
  2
R-TRS6-08 APRON DETAIL - HEAD_STORY_MARKER
340
0
  0
ENDTAB
  0
ENDSEC
  0
SECTION
  2
BLOCKS
  0
BLOCK
  5
20
330
1F
100
AcDbEntity
  8
0
100
AcDbBlockBegin
  2
*Model_Space
 70
     0
 10
0.0
 20
0.0
 30
0.0
  3
*Model_Space
  1

  0
ENDBLK
  5
21
330
1F
100
AcDbEntity
  8
0
100
AcDbBlockEnd
  0
BLOCK
  5
1C
330
1B
100
AcDbEntity
 67
     1
  8
0
100
AcDbBlockBegin
  2
*Paper_Space
 70
     0
 10
0.0
 20
0.0
 30
0.0
  3
*Paper_Space
  1

  0
ENDBLK
  5
1D
330
1B
100
AcDbEntity
 67
     1
  8
0
100
AcDbBlockEnd
  0
BLOCK
  5
E4
330
E3
100
AcDbEntity
  8
0
100
AcDbBlockBegin
  2
Drawing_1_2
 70
     0
 10
28.8753134188689
 20
84.42632391951834
 30
0.0
  3
Drawing_1_2
  1

  0
HATCH
  5
E6
330
E3
100
AcDbEntity
  8
0
  6
Continuous
 62
   255
370
     0
100
AcDbHatch
 10
0.0
 20
0.0
 30
0.0
210
0.0
220
0.0
230
1.0
  2
SOLID
 70
     1
 71
     0
 91
        1
 92
        3
 72
     0
 73
     1
 93
        4
 10
164.0614679563564
 20
192.5142914063299
 10
164.0614679563564
 20
145.9934618480937
 10
168.0614672234631
 20
145.9934618480937
 10
168.0614672234631
 20
192.5142914063299
 97
        0
 75
     0
 76
     1
 98
        0
  0
LINE
  5
E7
330
E3
100
AcDbEntity
  8
0
  6
Continuous
100
AcDbLine
 10
164.0614679563564
 20
192.5142914063299
 30
0.0
 11
164.0614679563564
 21
145.9934618480937
 31
0.0
  0
LINE
  5
E8
330
E3
100
AcDbEntity
  8
0
  6
Continuous
100
AcDbLine
 10
164.0614679563564
 20
145.9934618480937
 30
0.0
 11
168.0614672234631
 21
145.9934618480937
 31
0.0
  0
LINE
  5
E9
330
E3
100
AcDbEntity
  8
0
  6
Continuous
100
AcDbLine
 10
168.0614672234631
 20
145.9934618480937
 30
0.0
 11
168.0614672234631
 21
192.5142914063299
 31
0.0
  0
HATCH
  5
EA
330
E3
100
AcDbEntity
  8
0
  6
Continuous
 62
   255
370
     0
100
AcDbHatch
 10
0.0
 20
0.0
 30
0.0
210
0.0
220
0.0
230
1.0
  2
SOLID
 70
     1
 71
     0
 91
        1
 92
        3
 72
     0
 73
     1
 93
        4
 10
164.0614669763566
 20
143.9934614727524
 10
168.0614669763566
 20
143.9934614727524
 10
168.0614669763566
 20
152.9934614727524
 10
164.0614669763566
 20
152.9934614727524
 97
        0
 75
     0
 76
     1
 98
        0
  0
LINE
  5
EB
330
E3
100
AcDbEntity
  8
0
  6
Continuous
100
AcDbLine
 10
164.0614679563564
 20
143.993460519871
 30
0.0
 11
168.0614672234631
 21
152.9934631075344
 31
0.0
  0
LINE
  5
EC
330
E3
100
AcDbEntity
  8
0
  6
Continuous
100
AcDbLine
 10
164.0614679563564
 20
143.993460519871
 30
0.0
 11
168.0614672234631
 21
143.993460519871
 31
0.0
  0
LINE
  5
ED
330
E3
100
AcDbEntity
  8
0
  6
Continuous
100
AcDbLine
 10
168.0614672234631
 20
143.993460519871
 30
0.0
 11
168.0614672234631
 21
152.9934631075344
 31
0.0
  0
LINE
  5
EE
330
E3
100
AcDbEntity
  8
0
  6
Continuous
100
AcDbLine
 10
168.0614672234631
 20
152.9934631075344
 30
0.0
 11
164.0614679563564
 21
152.9934631075344
 31
0.0
  0
LINE
  5
EF
330
E3
100
AcDbEntity
  8
0
  6
Continuous
100
AcDbLine
 10
164.0614679563564
 20
152.9934631075344
 30
0.0
 11
164.0614679563564
 21
143.993460519871
 31
0.0
  0
HATCH
  5
F0
330
E3
100
AcDbEntity
  8
0
  6
Continuous
 62
   255
370
     0
100
AcDbHatch
 10
0.0
 20
0.0
 30
0.0
210
0.0
220
0.0
230
1.0
  2
SOLID
 70
     1
 71
     0
 91
        1
 92
        3
 72
     0
 73
     1
 93
        4
 10
172.1431044428645
 20
192.5142948764787
 10
172.1431044428645
 20
28.70874527642625
 10
190.1431026398223
 20
28.70874527642625
 10
190.1431026398223
 20
192.5142948764787
 97
        0
 75
     0
 76
     1
 98
        0
  0
LINE
  5
F1
330
E3
100
AcDbEntity
  8
0
  6
Continuous
100
AcDbLine
 10
190.1431026398223
 20
28.70874527642625
 30
0.0
 11
190.1431026398223
 21
192.5142948764787
 31
0.0
  0
LINE
  5
F2
330
E3
100
AcDbEntity
  8
0
  6
Continuous
100
AcDbLine
 10
172.1431044428645
 20
192.5142948764787
 30
0.0
 11
172.1431044428645
 21
28.70874527642625
 31
0.0
  0
HATCH
  5
F3
330
E3
100
AcDbEntity
  8
0
  6
Continuous
 62
   255
370
     0
100
AcDbHatch
 10
0.0
 20
0.0
 30
0.0
210
0.0
220
0.0
230
1.0
  2
SOLID
 70
     1
 71
     0
 91
        1
 92
        3
 72
     0
 73
     1
 93
        4
 10
190.1431035861495
 20
51.48412375138037
 10
190.1431035861495
 20
60.48412375138036
 10
172.1431035861495
 20
60.48412375138036
 10
172.1431035861495
 20
51.48412375138037
 97
        0
 75
     0
 76
     1
 98
        0
  0
LINE
  5
F4
330
E3
100
AcDbEntity
  8
0
  6
Continuous
100
AcDbLine
 10
190.1431038889798
 20
51.48412416416243
 30
0.0
 11
190.1431038889798
 21
60.48412336248715
 31
0.0
  0
LINE
  5
F5
330
E3
100
AcDbEntity
  8
0
  6
Continuous
100
AcDbLine
 10
190.1431038889798
 20
60.48412336248715
 30
0.0
 11
172.1431021029916
 21
60.48412336248715
 31
0.0
  0
LINE
  5
F6
330
E3
100
AcDbEntity
  8
0
  6
Continuous
100
AcDbLine
 10
172.1431021029916
 20
60.48412336248715
 30
0.0
 11
172.1431021029916
 21
51.48412416416243
 31
0.0
  0
LINE
  5
F7
330
E3
100
AcDbEntity
  8
0
  6
Continuous
100
AcDbLine
 10
172.1431021029916
 20
51.48412416416243
 30
0.0
 11
190.1431038889798
 21
51.48412416416243
 31
0.0
  0
LINE
  5
F8
330
E3
100
AcDbEntity
  8
0
  6
Continuous
100
AcDbLine
 10
172.1431021029916
 20
51.48412416416243
 30
0.0
 11
190.1431038889798
 21
60.48412336248715
 31
0.0
  0
HATCH
  5
F9
330
E3
100
AcDbEntity
  8
0
  6
Continuous
 62
   255
370
     0
100
AcDbHatch
 10
0.0
 20
0.0
 30
0.0
210
0.0
220
0.0
230
1.0
  2
SOLID
 70
     1
 71
     0
 91
        1
 92
        3
 72
     0
 73
     1
 93
        4
 10
161.2614674525801
 20
192.5142914063299
 10
161.2614674525801
 20
142.9934598557597
 10
163.0614672922451
 20
142.9934598557597
 10
163.0614672922451
 20
192.5142914063299
 97
        0
 75
     0
 76
     1
 98
        0
  0
HATCH
  5
FA
330
E3
100
AcDbEntity
  8
0
  6
Continuous
100
AcDbHatch
 10
0.0
 20
0.0
 30
0.0
210
0.0
220
0.0
230
1.0
  2
Plaster_0002
 70
     0
 71
     0
 91
        1
 92
        3
 72
     0
 73
     1
 93
        4
 10
161.2614674525801
 20
192.5142914063299
 10
161.2614674525801
 20
142.9934598557597
 10
163.0614672922451
 20
142.9934598557597
 10
163.0614672922451
 20
192.5142914063299
 97
        0
 75
     0
 76
     2
 52
0.0
 41
1.0
 77
     0
 78
     2
 53
0.0
 43
28.8753134188689
 44
84.42632391951834
 45
0.0
 46
1.732050807568877
 79
     2
 49
0.0
 49
-1.0
 53
0.0
 43
29.3753134188689
 44
85.29234930775915
 45
0.0
 46
1.732050807568877
 79
     2
 49
0.0
 49
-1.0
 98
        0
  0
LINE
  5
FB
330
E3
100
AcDbEntity
  8
0
  6
Continuous
100
AcDbLine
 10
161.2614674525801
 20
192.5142914063299
 30
0.0
 11
161.2614674525801
 21
142.9934598557597
 31
0.0
  0
LINE
  5
FC
330
E3
100
AcDbEntity
  8
0
  6
Continuous
100
AcDbLine
 10
161.2614674525801
 20
142.9934598557597
 30
0.0
 11
163.0614672922451
 21
142.9934598557597
 31
0.0
  0
LINE
  5
FD
330
E3
100
AcDbEntity
  8
0
  6
Continuous
100
AcDbLine
 10
163.0614672922451
 20
142.9934598557597
 30
0.0
 11
163.0614672922451
 21
192.5142914063299
 31
0.0
  0
HATCH
  5
FE
330
E3
100
AcDbEntity
  8
0
  6
Continuous
 62
   255
370
     0
100
AcDbHatch
 10
0.0
 20
0.0
 30
0.0
210
0.0
220
0.0
230
1.0
  2
SOLID
 70
     1
 71
     0
 91
        1
 92
        3
 72
     0
 73
     1
 93
        4
 10
181.1431035861495
 20
157.1934614727524
 10
172.1431035861495
 20
157.1934614727524
 10
172.1431035861495
 20
139.1934614727524
 10
181.1431035861495
 20
139.1934614727524
 97
        0
 75
     0
 76
     1
 98
        0
  0
LINE
  5
FF
330
E3
100
AcDbEntity
  8
0
  6
Continuous
100
AcDbLine
 10
181.1431046906551
 20
157.1934604738602
 30
0.0
 11
172.1431021029916
 21
139.1934620772107
 31
0.0
  0
LINE
  5
100
330
E3
100
AcDbEntity
  8
0
  6
Continuous
100
AcDbLine
 10
181.1431046906551
 20
157.1934604738602
 30
0.0
 11
172.1431021029916
 21
157.1934604738602
 31
0.0
  0
LINE
  5
101
330
E3
100
AcDbEntity
  8
0
  6
Continuous
100
AcDbLine
 10
172.1431021029916
 20
157.1934604738602
 30
0.0
 11
172.1431021029916
 21
139.1934620772107
 31
0.0
  0
LINE
  5
102
330
E3
100
AcDbEntity
  8
0
  6
Continuous
100
AcDbLine
 10
172.1431021029916
 20
139.1934620772107
 30
0.0
 11
181.1431046906551
 21
139.1934620772107
 31
0.0
  0
LINE
  5
103
330
E3
100
AcDbEntity
  8
0
  6
Continuous
100
AcDbLine
 10
181.1431046906551
 20
139.1934620772107
 30
0.0
 11
181.1431046906551
 21
157.1934604738602
 31
0.0
  0
HATCH
  5
104
330
E3
100
AcDbEntity
  8
0
  6
Continuous
 62
   255
370
     0
100
AcDbHatch
 10
0.0
 20
0.0
 30
0.0
210
0.0
220
0.0
230
1.0
  2
SOLID
 70
     1
 71
     0
 91
        1
 92
        3
 72
     0
 73
     1
 93
        4
 10
181.1431035861495
 20
136.5511166022701
 10
172.1431035861495
 20
136.5511166022701
 10
172.1431035861495
 20
118.5511166022701
 10
181.1431035861495
 20
118.5511166022701
 97
        0
 75
     0
 76
     1
 98
        0
  0
LINE
  5
105
330
E3
100
AcDbEntity
  8
0
  6
Continuous
100
AcDbLine
 10
181.1431046906551
 20
136.5511166640183
 30
0.0
 11
172.1431021029916
 21
118.5511182673689
 31
0.0
  0
LINE
  5
106
330
E3
100
AcDbEntity
  8
0
  6
Continuous
100
AcDbLine
 10
181.1431046906551
 20
136.5511166640183
 30
0.0
 11
172.1431021029916
 21
136.5511166640183
 31
0.0
  0
LINE
  5
107
330
E3
100
AcDbEntity
  8
0
  6
Continuous
100
AcDbLine
 10
172.1431021029916
 20
136.5511166640183
 30
0.0
 11
172.1431021029916
 21
118.5511182673689
 31
0.0
  0
LINE
  5
108
330
E3
100
AcDbEntity
  8
0
  6
Continuous
100
AcDbLine
 10
172.1431021029916
 20
118.5511182673689
 30
0.0
 11
181.1431046906551
 21
118.5511182673689
 31
0.0
  0
LINE
  5
109
330
E3
100
AcDbEntity
  8
0
  6
Continuous
100
AcDbLine
 10
181.1431046906551
 20
118.5511182673689
 30
0.0
 11
181.1431046906551
 21
136.5511166640183
 31
0.0
  0
HATCH
  5
10A
330
E3
100
AcDbEntity
  8
0
  6
Continuous
 62
   255
370
     0
100
AcDbHatch
 10
0.0
 20
0.0
 30
0.0
210
0.0
220
0.0
230
1.0
  2
SOLID
 70
     1
 71
     0
 91
        1
 92
        3
 72
     0
 73
     1
 93
        4
 10
172.1431030874204
 20
102.5389254599213
 10
35.31938941328067
 20
78.41321135362739
 10
35.31938941328067
 20
28.7087466410241
 10
172.1431030874204
 20
28.7087466410241
 97
        0
 75
     0
 76
     1
 98
        0
  0
HATCH
  5
10B
330
E3
100
AcDbEntity
  8
0
  6
Continuous
 62
   255
370
     0
100
AcDbHatch
 10
0.0
 20
0.0
 30
0.0
210
0.0
220
0.0
230
1.0
  2
SOLID
 70
     1
 71
     0
 91
        1
 92
        3
 72
     0
 73
     1
 93
        4
 10
172.1431050269107
 20
120.8166022915522
 10
35.31939153784569
 20
96.69088921764823
 10
35.31939153784569
 20
78.4132126871615
 10
172.1431050269107
 20
102.5389257610655
 97
        0
 75
     0
 76
     1
 98
        0
  0
LINE
  5
10C
330
E3
100
AcDbEntity
  8
0
  6
Continuous
100
AcDbLine
 10
35.31938941328067
 20
78.41321135362739
 30
0.0
 11
172.1431030874204
 21
102.5389254599213
 31
0.0
  0
LINE
  5
10D
330
E3
100
AcDbEntity
  8
0
  6
Continuous
100
AcDbLine
 10
172.1431021029916
 20
102.5389229688871
 30
0.0
 11
172.1431021029916
 21
120.8166031082293
 31
0.0
  0
LINE
  5
10E
330
E3
100
AcDbEntity
  8
0
  6
Continuous
100
AcDbLine
 10
172.1431050269107
 20
120.816604775009
 30
0.0
 11
35.31939153784569
 21
96.69089170110493
 31
0.0
  0
HATCH
  5
10F
330
E3
100
AcDbEntity
  8
0
  6
Continuous
 62
   255
370
     0
100
AcDbHatch
 10
0.0
 20
0.0
 30
0.0
210
0.0
220
0.0
230
1.0
  2
SOLID
 70
     1
 71
     0
 91
        1
 92
        3
 72
     0
 73
     1
 93
        4
 10
162.1431022405556
 20
100.7756562056509
 10
162.1431022405556
 20
28.70874690469444
 10
172.1431021029916
 20
28.70874690469444
 10
172.1431021029916
 20
102.5389257816018
 97
        0
 75
     0
 76
     1
 98
        0
  0
LINE
  5
110
330
E3
100
AcDbEntity
  8
0
  6
Continuous
100
AcDbLine
 10
172.1431021029916
 20
28.70874690469444
 30
0.0
 11
172.1431021029916
 21
102.5389257816018
 31
0.0
  0
LINE
  5
111
330
E3
100
AcDbEntity
  8
0
  6
Continuous
100
AcDbLine
 10
172.1431021029916
 20
102.5389229688871
 30
0.0
 11
162.1431022405556
 21
100.7756533929362
 31
0.0
  0
LINE
  5
112
330
E3
100
AcDbEntity
  8
0
  6
Continuous
100
AcDbLine
 10
162.1431022405556
 20
100.7756562056509
 30
0.0
 11
162.1431022405556
 21
28.70874690469444
 31
0.0
  0
HATCH
  5
113
330
E3
100
AcDbEntity
  8
0
  6
Continuous
 62
   255
370
     0
100
AcDbHatch
 10
0.0
 20
0.0
 30
0.0
210
0.0
220
0.0
230
1.0
  2
SOLID
 70
     1
 71
     0
 91
        1
 92
        3
 72
     0
 73
     1
 93
        4
 10
139.9280922574479
 20
28.70874831981048
 10
35.31939329414725
 20
69.2247062776317
 10
35.31939329414725
 20
58.50086102426148
 10
112.24005036449
 20
28.70874831981048
 97
        0
 75
     0
 76
     1
 98
        0
  0
LINE
  5
114
330
E3
100
AcDbEntity
  8
0
  6
Continuous
100
AcDbLine
 10
139.9280952367266
 20
28.70874659496576
 30
0.0
 11
35.31939279626983
 21
69.22470760201318
 31
0.0
  0
LINE
  5
115
330
E3
100
AcDbEntity
  8
0
  6
Continuous
100
AcDbLine
 10
35.31939329414725
 20
58.50086102426148
 30
0.0
 11
112.24005036449
 21
28.70874831981048
 31
0.0
  0
HATCH
  5
116
330
E3
100
AcDbEntity
  8
0
  6
Continuous
 62
   253
370
    25
100
AcDbHatch
 10
0.0
 20
0.0
 30
0.0
210
0.0
220
0.0
230
1.0
  2
SOLID
 70
     1
 71
     0
 91
        1
 92
        3
 72
     0
 73
     1
 93
        4
 10
170.1888661653691
 20
131.7112212649197
 10
169.2858956415011
 20
136.8322215805831
 10
64.27635355478803
 20
118.3162060788545
 10
65.1793240786561
 20
113.195205763191
 97
        0
 75
     0
 76
     1
 98
        0
  0
LINE
  5
117
330
E3
100
AcDbEntity
  8
0
  6
Continuous
100
AcDbLine
 10
169.2858963402908
 20
136.8322216388188
 30
0.0
 11
170.1888670155118
 21
131.7112223152791
 31
0.0
  0
LINE
  5
118
330
E3
100
AcDbEntity
  8
0
  6
Continuous
100
AcDbLine
 10
64.2763534068752
 20
118.31620658999
 30
0.0
 11
169.2858963402908
 21
136.8322216388188
 31
0.0
  0
LINE
  5
119
330
E3
100
AcDbEntity
  8
0
  6
Continuous
100
AcDbLine
 10
65.17932408209619
 20
113.1952072664503
 30
0.0
 11
64.2763534068752
 21
118.31620658999
 31
0.0
  0
LINE
  5
11A
330
E3
100
AcDbEntity
  8
0
  6
Continuous
100
AcDbLine
 10
170.1888670155118
 20
131.7112223152791
 30
0.0
 11
65.17932408209619
 21
113.1952072664503
 31
0.0
  0
HATCH
  5
11B
330
E3
100
AcDbEntity
  8
0
  6
Continuous
 62
   255
370
     0
100
AcDbHatch
 10
0.0
 20
0.0
 30
0.0
210
0.0
220
0.0
230
1.0
  2
SOLID
 70
     1
 71
     0
 91
        1
 92
        3
 72
     0
 73
     1
 93
        4
 10
160.2022524963973
 20
127.8499487897371
 10
146.4149439542264
 20
125.4188743024001
 10
147.9777775532288
 20
116.5556045252902
 10
161.7650860953997
 20
118.9866790126273
 97
        0
 75
     0
 76
     1
 98
        0
  0
LINE
  5
11C
330
E3
100
AcDbEntity
  8
0
  6
Continuous
100
AcDbLine
 10
161.7650859037199
 20
118.9866787970011
 30
0.0
 11
146.4149436948675
 21
125.4188743086133
 31
0.0
  0
LINE
  5
11D
330
E3
100
AcDbEntity
  8
0
  6
Continuous
100
AcDbLine
 10
160.202251651683
 20
127.8499486820023
 30
0.0
 11
147.9777779469045
 21
116.5556044236121
 31
0.0
  0
LINE
  5
11E
330
E3
100
AcDbEntity
  8
0
  6
Continuous
100
AcDbLine
 10
160.202251651683
 20
127.8499486820023
 30
0.0
 11
161.7650859037199
 21
118.9866787970011
 31
0.0
  0
LINE
  5
11F
330
E3
100
AcDbEntity
  8
0
  6
Continuous
100
AcDbLine
 10
161.7650859037199
 20
118.9866787970011
 30
0.0
 11
147.9777779469045
 21
116.5556044236121
 31
0.0
  0
LINE
  5
120
330
E3
100
AcDbEntity
  8
0
  6
Continuous
100
AcDbLine
 10
147.9777779469045
 20
116.5556044236121
 30
0.0
 11
146.4149436948675
 21
125.4188743086133
 31
0.0
  0
LINE
  5
121
330
E3
100
AcDbEntity
  8
0
  6
Continuous
100
AcDbLine
 10
146.4149436948675
 20
125.4188743086133
 30
0.0
 11
160.202251651683
 21
127.8499486820023
 31
0.0
  0
HATCH
  5
122
330
E3
100
AcDbEntity
  8
0
  6
Continuous
 62
   255
370
     0
100
AcDbHatch
 10
0.0
 20
0.0
 30
0.0
210
0.0
220
0.0
230
1.0
  2
SOLID
 70
     1
 71
     0
 91
        1
 92
        3
 72
     0
 73
     1
 93
        9
 10
35.31939137848009
 20
130.1708836776592
 10
35.31939137848009
 20
109.4544118487777
 10
40.10157342136979
 20
82.33331144094922
 10
117.7124420704056
 20
82.33331144094922
 10
113.842211870671
 20
104.2824810412963
 10
107.6106809891257
 20
105.595556424121
 10
119.379147949273
 20
106.9086352507166
 10
113.1476170677277
 20
108.2217106335413
 10
109.2773868679931
 20
130.1708836776592
 97
        0
 75
     0
 76
     1
 98
        0
  0
LINE
  5
123
330
E3
100
AcDbEntity
  8
0
  6
Continuous
100
AcDbLine
 10
109.2773865361472
 20
130.1708831043301
 30
0.0
 11
113.1476181916623
 21
108.2217119640265
 31
0.0
  0
LINE
  5
124
330
E3
100
AcDbEntity
  8
0
  6
Continuous
100
AcDbLine
 10
113.8422089330085
 20
104.2824801508396
 30
0.0
 11
117.7124405885235
 21
82.33331239987477
 31
0.0
  0
LINE
  5
125
330
E3
100
AcDbEntity
  8
0
  6
Continuous
100
AcDbLine
 10
113.8422089330085
 20
104.2824801508396
 30
0.0
 11
107.6106792203433
 21
105.5955574219019
 31
0.0
  0
LINE
  5
126
330
E3
100
AcDbEntity
  8
0
  6
Continuous
100
AcDbLine
 10
107.6106792203433
 20
105.5955574219019
 30
0.0
 11
119.3791479043275
 21
106.9086346929642
 31
0.0
  0
LINE
  5
127
330
E3
100
AcDbEntity
  8
0
  6
Continuous
100
AcDbLine
 10
119.3791479043275
 20
106.9086346929642
 30
0.0
 11
113.1476181916623
 21
108.2217119640265
 31
0.0
  0
HATCH
  5
128
330
E3
100
AcDbEntity
  8
Doc_ Finishes
  6
Continuous
 62
   255
370
    18
100
AcDbHatch
 10
0.0
 20
0.0
 30
0.0
210
0.0
220
0.0
230
1.0
  2
SOLID
 70
     1
 71
     0
 91
        1
 92
        3
 72
     0
 73
     1
 93
        4
 10
35.31939101362769
 20
28.70874774669871
 10
161.8305645617754
 20
28.70874774669871
 10
65.10936523507551
 20
110.5185131266177
 10
35.31939101362769
 20
109.5666333625265
 97
        0
 75
     0
 76
     1
 98
        0
  0
LINE
  5
129
330
E3
100
AcDbEntity
  8
Doc_ Finishes
  6
Continuous
 62
   255
370
    18
100
AcDbLine
 10
35.3193913749998
 20
109.5666300440814
 30
0.0
 11
65.10936570738224
 21
110.5185100367246
 31
0.0
  0
LINE
  5
12A
330
E3
100
AcDbEntity
  8
Doc_ Finishes
  6
Continuous
 62
   255
370
    18
100
AcDbLine
 10
65.10936474156642
 20
110.5185101510925
 30
0.0
 11
161.8305611491224
 21
28.70874672708527
 31
0.0
  0
HATCH
  5
12B
330
E3
100
AcDbEntity
  8
0
  6
Continuous
 62
   255
370
     0
100
AcDbHatch
 10
0.0
 20
0.0
 30
0.0
210
0.0
220
0.0
230
1.0
  2
SOLID
 70
     1
 71
     0
 91
        1
 92
        3
 72
     0
 73
     1
 93
        8
 10
153.4794459646313
 20
68.80288870772434
 10
153.4794459646313
 20
28.70875044434523
 10
201.317013537832
 20
28.70875044434523
 10
201.317013537832
 20
77.23794242281807
 10
179.3678445436156
 20
73.36770593514608
 10
178.0547727990724
 20
79.13618182915793
 10
176.74169387896
 20
66.9046493013844
 10
175.4286149588477
 20
72.67311801982717
 97
        0
 75
     0
 76
     1
 98
        0
  0
LINE
  5
12C
330
E3
100
AcDbEntity
  8
0
  6
Continuous
100
AcDbLine
 10
153.4794440701593
 20
68.80288581402445
 30
0.0
 11
175.4286152104629
 21
72.6731174695395
 31
0.0
  0
LINE
  5
12D
330
E3
100
AcDbEntity
  8
0
  6
Continuous
100
AcDbLine
 10
179.3678470236497
 20
73.36770821088567
 30
0.0
 11
201.3170181639533
 21
77.23793986640071
 31
0.0
  0
LINE
  5
12E
330
E3
100
AcDbEntity
  8
0
  6
Continuous
100
AcDbLine
 10
179.3678470236497
 20
73.36770821088567
 30
0.0
 11
178.0547697525875
 21
79.13617968887924
 31
0.0
  0
LINE
  5
12F
330
E3
100
AcDbEntity
  8
0
  6
Continuous
100
AcDbLine
 10
178.0547697525875
 20
79.13617968887924
 30
0.0
 11
176.7416924815251
 21
66.90464599154595
 31
0.0
  0
LINE
  5
130
330
E3
100
AcDbEntity
  8
0
  6
Continuous
100
AcDbLine
 10
176.7416924815251
 20
66.90464599154595
 30
0.0
 11
175.4286152104629
 21
72.6731174695395
 31
0.0
  0
LINE
  5
132
330
E3
100
AcDbEntity
  8
0
  6
Dashed
100
AcDbLine
 10
169.2633707951544
 20
159.6084626030366
 30
0.0
 11
169.2633707951544
 21
145.9392459859206
 31
0.0
  0
LINE
  5
133
330
E3
100
AcDbEntity
  8
0
  6
Dashed
100
AcDbLine
 10
171.3216721387084
 20
131.1379563427718
 30
0.0
 11
171.3216721387084
 21
161.9073832703747
 31
0.0
  0
LINE
  5
134
330
E3
100
AcDbEntity
  8
0
  6
Dashed
100
AcDbLine
 10
169.2633707951544
 20
159.6084626030366
 30
0.0
 11
170.0084084540164
 21
160.2510812244427
 31
0.0
  0
LINE
  5
135
330
E3
100
AcDbEntity
  8
0
  6
Dashed
100
AcDbLine
 10
170.0084084540164
 20
160.2510812244427
 30
0.0
 11
170.0084084540164
 21
192.5142914063299
 31
0.0
  0
LINE
  5
136
330
E3
100
AcDbEntity
  8
0
  6
Continuous
100
AcDbLine
 10
77.50904692216226
 20
52.80019083197621
 30
0.0
 11
201.872151174306
 21
52.80019083197621
 31
0.0
  0
LINE
  5
137
330
E3
100
AcDbEntity
  8
0
  6
Continuous
100
AcDbLine
 10
177.9021342726486
 20
60.88655649546526
 30
0.0
 11
177.9021342726486
 21
31.27900504926459
 31
0.0
  0
LINE
  5
138
330
E3
100
AcDbEntity
  8
0
  6
Continuous
100
AcDbLine
 10
77.50904692216226
 20
31.27900504926459
 30
0.0
 11
77.50904692216226
 21
52.80019083197621
 31
0.0
  0
LINE
  5
139
330
E3
100
AcDbEntity
  8
0
  6
Continuous
100
AcDbLine
 10
153.9321173709913
 20
60.88655649546526
 30
0.0
 11
153.9321173709913
 21
31.27900504926459
 31
0.0
  0
LINE
  5
13A
330
E3
100
AcDbEntity
  8
0
  6
Continuous
100
AcDbLine
 10
77.50904692216226
 20
42.03959624595105
 30
0.0
 11
201.872151174306
 21
42.03959624595105
 31
0.0
  0
LINE
  5
13B
330
E3
100
AcDbEntity
  8
0
  6
Continuous
100
AcDbLine
 10
77.50904692216226
 20
31.27900504926459
 30
0.0
 11
201.872151174306
 21
31.27900504926459
 31
0.0
  0
LINE
  5
13C
330
E3
100
AcDbEntity
  8
0
  6
Continuous
100
AcDbLine
 10
153.9321173709913
 20
60.88655649546526
 30
0.0
 11
177.9021342726486
 21
60.88655649546526
 31
0.0
  0
LINE
  5
13D
330
E3
100
AcDbEntity
  8
0
  6
Continuous
100
AcDbLine
 10
201.872151174306
 20
60.88655649546526
 30
0.0
 11
201.872151174306
 21
31.27900504926459
 31
0.0
  0
LINE
  5
13E
330
E3
100
AcDbEntity
  8
0
  6
Continuous
100
AcDbLine
 10
177.9021342726486
 20
60.88655649546526
 30
0.0
 11
201.872151174306
 21
60.88655649546526
 31
0.0
  0
LINE
  5
13F
330
E3
100
AcDbEntity
  8
0
  6
Dashed
100
AcDbLine
 10
171.3216721387084
 20
131.1379563427718
 30
0.0
 11
110.9828712762524
 21
120.4985984027788
 31
0.0
  0
LINE
  5
140
330
E3
100
AcDbEntity
  8
0
  6
Dashed
100
AcDbLine
 10
153.9940100853663
 20
135.7379600755518
 30
0.0
 11
151.3273359988382
 21
135.2677537255186
 31
0.0
  0
LINE
  5
141
330
E3
100
AcDbEntity
  8
0
  6
Continuous
 62
     9
370
    18
100
AcDbLine
 10
169.5637339925648
 20
135.2565282356763
 30
0.0
 11
168.2571303584586
 21
131.3706039418854
 31
0.0
  0
LWPOLYLINE
  5
142
330
E3
100
AcDbEntity
  8
0
  6
Continuous
100
AcDbPolyline
 90
        4
 70
   128
 43
0.0
 10
163.581717680206
 20
145.3869026451522
 10
163.581717680206
 20
143.4372883669138
 10
168.6556742533892
 20
143.4372883669138
 10
168.6556742533892
 20
155.3599295299867
  0
LWPOLYLINE
  5
143
330
E3
100
AcDbEntity
  8
0
  6
Continuous
100
AcDbPolyline
 90
        9
 70
   128
 43
0.0
 10
147.3133382413222
 20
133.155401011848
 10
144.9529255515327
 20
132.8167280937637
 10
144.5307918521371
 20
133.2388617931593
 10
144.7839858652657
 20
133.760878896382
 10
170.384568453797
 20
138.2750681237821
 10
170.384568453797
 20
159.329131574292
 10
170.1242965052128
 20
159.5697979812986
 10
169.8391386366046
 20
159.2587166700896
 10
169.8391386366046
 20
157.132994376828
  0
LWPOLYLINE
  5
144
330
E3
100
AcDbEntity
  8
0
  6
Continuous
100
AcDbPolyline
 90
        7
 70
   128
 43
0.0
 10
145.1015862519976
 20
133.3304064338038
 10
147.758729951953
 20
133.74630718684
 10
147.758729951953
 20
132.6102819817864
 10
144.2928903433155
 20
132.0711513759984
 10
144.2086329800121
 20
130.3371089618379
 10
143.5379822095444
 20
128.580642658232
 10
142.2169214292961
 20
127.1318388740852
  0
HATCH
  5
145
330
E3
100
AcDbEntity
  8
0
  6
Continuous
 62
   255
370
     0
100
AcDbHatch
 10
0.0
 20
0.0
 30
0.0
210
0.0
220
0.0
230
1.0
  2
SOLID
 70
     1
 71
     0
 91
        1
 92
        3
 72
     0
 73
     1
 93
        8
 10
152.5676181117994
 20
174.3594628117657
 10
174.715964741455
 20
178.264813347643
 10
176.0290395269705
 20
172.4963465586998
 10
177.342119413965
 20
184.7278771135459
 10
178.6551941994804
 20
178.9594052231237
 10
200.8035408291361
 20
182.864755759001
 10
200.8035408291361
 20
192.5142951451823
 10
152.5676181117994
 20
192.5142951451823
 97
        0
 75
     0
 76
     1
 98
        0
  0
LINE
  5
146
330
E3
100
AcDbEntity
  8
0
  6
Continuous
100
AcDbLine
 10
152.5676170528616
 20
174.3594646275894
 30
0.0
 11
174.7159626830752
 21
178.2648132215875
 31
0.0
  0
LINE
  5
147
330
E3
100
AcDbEntity
  8
0
  6
Continuous
100
AcDbLine
 10
178.6551944962621
 20
178.9594073522724
 30
0.0
 11
200.8035401264756
 21
182.8647593356093
 31
0.0
  0
LINE
  5
148
330
E3
100
AcDbEntity
  8
0
  6
Continuous
100
AcDbLine
 10
178.6551944962621
 20
178.9594073522724
 30
0.0
 11
177.3421172251998
 21
184.7278754409272
 31
0.0
  0
LINE
  5
149
330
E3
100
AcDbEntity
  8
0
  6
Continuous
100
AcDbLine
 10
177.3421172251998
 20
184.7278754409272
 30
0.0
 11
176.0290399541375
 21
172.4963451329327
 31
0.0
  0
LINE
  5
14A
330
E3
100
AcDbEntity
  8
0
  6
Continuous
100
AcDbLine
 10
176.0290399541375
 20
172.4963451329327
 30
0.0
 11
174.7159626830752
 21
178.2648132215875
 31
0.0
  0
LINE
  5
14B
330
E3
100
AcDbEntity
  8
Doc_ Floor
  6
Continuous
100
AcDbLine
 10
149.6044266683709
 20
135.0970666275544
 30
0.0
 11
149.6044266683709
 21
136.0750670940311
 31
0.0
  0
LINE
  5
14C
330
E3
100
AcDbEntity
  8
Doc_ Floor
  6
Continuous
100
AcDbLine
 10
149.6044266683709
 20
136.0750670940311
 30
0.0
 11
149.6044266683709
 21
142.9934598557597
 31
0.0
  0
LINE
  5
14D
330
E3
100
AcDbEntity
  8
Doc_ Floor
  6
Continuous
100
AcDbLine
 10
148.6044260042596
 20
136.6524172196965
 30
0.0
 11
150.6044273324823
 21
135.4977169683656
 31
0.0
  0
LINE
  5
14E
330
E3
100
AcDbEntity
  8
Doc_ Floor
  6
Continuous
100
AcDbLine
 10
150.6044273324823
 20
142.4161131194329
 30
0.0
 11
148.6044260042596
 21
143.5708099814252
 31
0.0
  0
LINE
  5
14F
330
E3
100
AcDbEntity
  8
Doc_ Floor
  6
Continuous
100
AcDbLine
 10
149.6044266683709
 20
142.9934598557597
 30
0.0
 11
149.6044266683709
 21
143.9714603222363
 31
0.0
  0
LINE
  5
150
330
E3
100
AcDbEntity
  8
Doc_ Floor
  6
Continuous
100
AcDbLine
 10
151.1044259698686
 20
136.0750670940311
 30
0.0
 11
148.1044273668732
 21
136.0750670940311
 31
0.0
  0
LINE
  5
151
330
E3
100
AcDbEntity
  8
Doc_ Floor
  6
Continuous
100
AcDbLine
 10
151.1044259698686
 20
142.9934598557597
 30
0.0
 11
148.1044273668732
 21
142.9934598557597
 31
0.0
  0
MTEXT
  5
152
330
E3
100
AcDbEntity
  8
Doc_ Floor
  6
Continuous
100
AcDbMText
 10
136.9638256135995
 20
138.4715294500545
 30
0.0
 40
2.5
 41
0.0
 71
     7
 72
     1
  1
{35 MIN.}
  7
GENERATED_STYLE_1
 73
     1
 44
1.0
  0
LINE
  5
153
330
E3
100
AcDbEntity
  8
Doc_ Floor
  6
Continuous
100
AcDbLine
 10
149.6044266683709
 20
142.0154627786218
 30
0.0
 11
149.6044266683709
 21
142.9934598557597
 31
0.0
  0
LINE
  5
154
330
E3
100
AcDbEntity
  8
Doc_ Floor
  6
Continuous
100
AcDbLine
 10
149.6044266683709
 20
142.9934598557597
 30
0.0
 11
149.6044266683709
 21
159.3291302523869
 31
0.0
  0
LINE
  5
155
330
E3
100
AcDbEntity
  8
Doc_ Floor
  6
Continuous
100
AcDbLine
 10
148.6044260042596
 20
143.5708099814252
 30
0.0
 11
150.6044273324823
 21
142.4161131194329
 31
0.0
  0
LINE
  5
156
330
E3
100
AcDbEntity
  8
Doc_ Floor
  6
Continuous
100
AcDbLine
 10
150.6044273324823
 20
158.7517801267214
 30
0.0
 11
148.6044260042596
 21
159.9064803780524
 31
0.0
  0
LINE
  5
157
330
E3
100
AcDbEntity
  8
Doc_ Floor
  6
Continuous
100
AcDbLine
 10
149.6044266683709
 20
159.3291302523869
 30
0.0
 11
149.6044266683709
 21
160.3071307188635
 31
0.0
  0
LINE
  5
158
330
E3
100
AcDbEntity
  8
Doc_ Floor
  6
Continuous
100
AcDbLine
 10
151.1044259698686
 20
142.9934598557597
 30
0.0
 11
148.1044273668732
 21
142.9934598557597
 31
0.0
  0
LINE
  5
159
330
E3
100
AcDbEntity
  8
Doc_ Floor
  6
Continuous
100
AcDbLine
 10
151.1044259698686
 20
159.3291302523869
 30
0.0
 11
148.1044273668732
 21
159.3291302523869
 31
0.0
  0
MTEXT
  5
15A
330
E3
100
AcDbEntity
  8
Doc_ Floor
  6
Continuous
100
AcDbMText
 10
146.3203519561371
 20
151.295618133549
 30
0.0
 40
2.5
 41
0.0
 71
     7
 72
     1
  1
{A}
  7
GENERATED_STYLE_1
 73
     1
 44
1.0
  0
LINE
  5
15B
330
E3
100
AcDbEntity
  8
Doc_ Floor
  6
Continuous
100
AcDbLine
 10
169.6612317101985
 20
140.3356590580018
 30
0.0
 11
168.6980901046726
 21
140.1658294627339
 31
0.0
  0
LINE
  5
15C
330
E3
100
AcDbEntity
  8
Doc_ Floor
  6
Continuous
100
AcDbLine
 10
168.6980901046726
 20
140.1658294627339
 30
0.0
 11
144.074944242237
 21
135.8241035084719
 31
0.0
  0
LINE
  5
15D
330
E3
100
AcDbEntity
  8
Doc_ Floor
  6
Continuous
100
AcDbLine
 10
168.3031609676217
 20
139.0807665647542
 30
0.0
 11
169.0930226310623
 21
141.2508923607135
 31
0.0
  0
LINE
  5
15E
330
E3
100
AcDbEntity
  8
Doc_ Floor
  6
Continuous
100
AcDbLine
 10
144.4698733792879
 20
136.9091697957903
 30
0.0
 11
143.6800117158473
 21
134.7390406104923
 31
0.0
  0
LINE
  5
15F
330
E3
100
AcDbEntity
  8
Doc_ Floor
  6
Continuous
100
AcDbLine
 10
144.074944242237
 20
135.8241035084719
 30
0.0
 11
143.111802636711
 21
135.6542773025427
 31
0.0
  0
LINE
  5
160
330
E3
100
AcDbEntity
  8
Doc_ Floor
  6
Continuous
100
AcDbLine
 10
168.4376194240025
 20
141.6430422400137
 30
0.0
 11
168.9585641746814
 21
138.6886200747929
 31
0.0
  0
LINE
  5
161
330
E3
100
AcDbEntity
  8
Doc_ Floor
  6
Continuous
100
AcDbLine
 10
143.8144701722281
 20
137.3013162857517
 30
0.0
 11
144.3354149229071
 21
134.3468941205309
 31
0.0
  0
MTEXT
  5
162
330
E3
100
AcDbEntity
  8
Doc_ Floor
  6
Continuous
100
AcDbMText
 10
155.3032990002574
 20
138.311680341389
 30
0.0
 40
2.5
 41
0.0
 71
     7
 72
     1
  1
{B}
  7
GENERATED_STYLE_1
 11
0.9848077530122079
 21
0.173648177666931
 31
0.0
 73
     1
 44
1.0
  0
MTEXT
  5
163
330
E3
100
AcDbEntity
  8
Doc_ Floor
  6
Continuous
100
AcDbMText
 10
200.4460231647613
 20
177.6695520222605
 30
0.0
 40
2.499999999999999
 41
0.0
 71
     4
 72
     1
  1
{HEM TO FLASHING EDGE}
  7
GENERATED_STYLE_1
 73
     1
 44
1.0
  0
LINE
  5
164
330
E3
100
AcDbEntity
  8
Doc_ Floor
  6
Continuous
100
AcDbLine
 10
170.3845674332333
 20
156.1275812330385
 30
0.0
 11
172.5096150242099
 21
159.3544011618869
 31
0.0
  0
LINE
  5
165
330
E3
100
AcDbEntity
  8
Doc_ Floor
  6
Continuous
100
AcDbLine
 10
170.3845674332333
 20
156.1275812330385
 30
0.0
 11
173.8383239254512
 21
157.8595638232605
 31
0.0
  0
LINE
  5
166
330
E3
100
AcDbEntity
  8
Doc_ Floor
  6
Continuous
100
AcDbLine
 10
172.5096150242099
 20
159.3544011618869
 30
0.0
 11
173.8383239254512
 21
157.8595638232605
 31
0.0
  0
LWPOLYLINE
  5
167
330
E3
100
AcDbEntity
  8
Doc_ Floor
  6
Continuous
100
AcDbPolyline
 90
        9
 70
   128
 43
0.0
 10
173.1739701144869
 20
158.6069833482173
 10
183.5796378950876
 20
167.5988932679498
 10
187.6422660050661
 20
170.9053244533409
 10
191.0411794085974
 20
173.4902757882468
 10
193.8486949660071
 20
175.4073992720415
 10
196.1371295376206
 20
176.7103469040987
 10
197.9787999837635
 20
177.4527706837922
 10
198.7546976786352
 20
177.6305523788069
 10
199.4460231647613
 20
177.6883226104958
  0
MTEXT
  5
169
330
E3
100
AcDbEntity
  8
Doc_ Floor
  6
Continuous
100
AcDbMText
 10
114.3049395485372
 20
138.7731514917907
 30
0.0
 40
2.499999999999999
 41
56.6835322004004
 71
     6
 72
     1
  1
\A1;{\fCentury Gothic|b0|i0|c0|p34;TRS 6\PMIN. ROOF PITCH 4\fArial|b0|i0|c0|p34;\H1.029412x;\U+00B0}
  7
GENERATED_STYLE_1
 73
     1
 44
1.056356172275314
  0
LINE
  5
16A
330
E3
100
AcDbEntity
  8
Doc_ Floor
  6
Continuous
100
AcDbLine
 10
133.0187281436714
 20
128.8126598415108
 30
0.0
 11
129.6929632495556
 21
130.7792524579655
 31
0.0
  0
LINE
  5
16B
330
E3
100
AcDbEntity
  8
Doc_ Floor
  6
Continuous
100
AcDbLine
 10
133.0187281436714
 20
128.8126598415108
 30
0.0
 11
131.1218271099875
 21
132.1786595755776
 31
0.0
  0
LINE
  5
16C
330
E3
100
AcDbEntity
  8
Doc_ Floor
  6
Continuous
100
AcDbLine
 10
129.6929632495556
 20
130.7792524579655
 30
0.0
 11
131.1218271099875
 21
132.1786595755776
 31
0.0
  0
LWPOLYLINE
  5
16D
330
E3
100
AcDbEntity
  8
Doc_ Floor
  6
Continuous
100
AcDbPolyline
 90
        9
 70
   128
 43
0.0
 10
130.4073954656925
 20
131.4789564183482
 10
128.377104785445
 20
133.3503193974558
 10
126.4559359280536
 20
134.9096452965733
 10
124.6096827950335
 20
136.1762046001181
 10
122.8041392879001
 20
137.1692677925072
 10
121.0050993081685
 20
137.9081053581577
 10
119.178356757354
 20
138.4119877814868
 10
117.2897055369718
 20
138.7001855469117
 10
115.3049395485372
 20
138.7919691388495
  0
MTEXT
  5
16E
330
E3
100
AcDbEntity
  8
Doc_ Floor
  6
Continuous
100
AcDbMText
 10
91.91517509131607
 20
113.1694531874993
 30
0.0
 40
2.5
 41
0.0
 71
     6
 72
     1
  1
{UNDERLAY}
  7
GENERATED_STYLE_1
 73
     1
 44
1.0
  0
LINE
  5
16F
330
E3
100
AcDbEntity
  8
Doc_ Floor
  6
Continuous
100
AcDbLine
 10
119.2904997500929
 20
121.9634570404223
 30
0.0
 11
117.2817573173101
 21
118.6629766131614
 31
0.0
  0
LINE
  5
170
330
E3
100
AcDbEntity
  8
Doc_ Floor
  6
Continuous
100
AcDbLine
 10
119.2904997500929
 20
121.9634570404223
 30
0.0
 11
115.9006390714338
 21
120.1095294323756
 31
0.0
  0
LINE
  5
171
330
E3
100
AcDbEntity
  8
Doc_ Floor
  6
Continuous
100
AcDbLine
 10
117.2817573173101
 20
118.6629766131614
 30
0.0
 11
115.9006390714338
 21
120.1095294323756
 31
0.0
  0
LWPOLYLINE
  5
172
330
E3
100
AcDbEntity
  8
Doc_ Floor
  6
Continuous
100
AcDbPolyline
 90
        9
 70
   128
 43
0.0
 10
116.5911987232457
 20
119.3862536451253
 10
114.4856759865963
 20
117.8101035511923
 10
112.2328850766837
 20
116.4961232048868
 10
109.7844629062335
 20
115.4282801536087
 10
107.0920463879714
 20
114.5905419447575
 10
104.1072724346229
 20
113.9668761257331
 10
100.7817779589138
 20
113.5412502439351
 10
97.06719987356962
 20
113.2976318467631
 10
92.91517509131607
 20
113.219988481617
  0
MTEXT
  5
173
330
E3
100
AcDbEntity
  8
Doc_ Floor
  6
Continuous
100
AcDbMText
 10
200.4460231647613
 20
106.4103931793979
 30
0.0
 40
2.5
 41
0.0
 71
     4
 72
     1
  1
{ROOF FIXING}
  7
GENERATED_STYLE_1
 73
     1
 44
1.0
  0
LINE
  5
174
330
E3
100
AcDbEntity
  8
Doc_ Floor
  6
Continuous
100
AcDbLine
 10
154.4887349117035
 20
125.0284089306573
 30
0.0
 11
157.3199546144343
 21
122.3992649917812
 31
0.0
  0
LINE
  5
175
330
E3
100
AcDbEntity
  8
Doc_ Floor
  6
Continuous
100
AcDbLine
 10
154.4887349117035
 20
125.0284089306573
 30
0.0
 11
155.6260681914306
 21
121.3358938616127
 31
0.0
  0
LINE
  5
176
330
E3
100
AcDbEntity
  8
Doc_ Floor
  6
Continuous
100
AcDbLine
 10
157.3199546144343
 20
122.3992649917812
 30
0.0
 11
155.6260681914306
 21
121.3358938616127
 31
0.0
  0
LWPOLYLINE
  5
177
330
E3
100
AcDbEntity
  8
Doc_ Floor
  6
Continuous
100
AcDbPolyline
 90
       17
 70
   128
 43
0.0
 10
156.4730117023165
 20
121.8675782633272
 10
158.0003891642899
 20
119.7990008898474
 10
159.6223405552775
 20
117.9023550111807
 10
161.3516981977599
 20
116.1723317775099
 10
163.2012944142179
 20
114.6036223390179
 10
165.183961527132
 20
113.1909178458877
 10
167.3125318589829
 20
111.928909448302
 10
169.5998377322513
 20
110.8122882964439
 10
172.0587114694178
 20
109.8357455404961
 10
174.7019853929631
 20
108.9939723306416
 10
177.5424918253678
 20
108.2816598170632
 10
180.5930630891127
 20
107.6934991499438
 10
183.8665315066783
 20
107.2241814794664
 10
187.3757294005453
 20
106.8683979558137
 10
191.1334890931943
 20
106.6208397291687
 10
195.1526429071061
 20
106.4761979497142
 10
199.4460231647613
 20
106.4291637676332
  0
MTEXT
  5
178
330
E3
100
AcDbEntity
  8
Doc_ Floor
  6
Continuous
100
AcDbMText
 10
139.667516328832
 20
92.25528789756783
 30
0.0
 40
2.499999999999999
 41
0.0
 71
     6
 72
     1
  1
{PURLIN}
  7
GENERATED_STYLE_1
 73
     1
 44
1.0
  0
LINE
  5
179
330
E3
100
AcDbEntity
  8
Doc_ Floor
  6
Continuous
100
AcDbLine
 10
152.8659568150559
 20
119.9635675603774
 30
0.0
 11
153.2407431120909
 21
116.1180848561994
 31
0.0
  0
LINE
  5
17A
330
E3
100
AcDbEntity
  8
Doc_ Floor
  6
Continuous
100
AcDbLine
 10
152.8659568150559
 20
119.9635675603774
 30
0.0
 11
151.2677887068577
 21
116.4458881398909
 31
0.0
  0
LINE
  5
17B
330
E3
100
AcDbEntity
  8
Doc_ Floor
  6
Continuous
100
AcDbLine
 10
153.2407431120909
 20
116.1180848561994
 30
0.0
 11
151.2677887068577
 21
116.4458881398909
 31
0.0
  0
LWPOLYLINE
  5
17C
330
E3
100
AcDbEntity
  8
Doc_ Floor
  6
Continuous
100
AcDbPolyline
 90
       14
 70
   128
 43
0.0
 10
152.2542666494834
 20
116.281986560521
 10
151.0924473763438
 20
110.1158731366919
 10
149.9078142337513
 20
104.9891006036638
 10
148.6708420825835
 20
100.8347260878539
 10
148.0235022728081
 20
99.10126843841118
 10
147.3520057837181
 20
97.58580671567957
 10
146.6526619729229
 20
96.27997306046119
 10
145.9217801980325
 20
95.1753996135582
 10
145.1556698166565
 20
94.26371851577281
 10
144.3506401864046
 20
93.53656190790716
 10
143.5030006648865
 20
92.98556193076344
 10
142.6090606097119
 20
92.6023507251438
 10
141.6651293784905
 20
92.37856043185043
 10
140.667516328832
 20
92.30582319168548
  0
MTEXT
  5
17D
330
E3
100
AcDbEntity
  8
Doc_ Floor
  6
Continuous
100
AcDbMText
 10
114.3049395485372
 20
148.5130455153593
 30
0.0
 40
2.5
 41
0.0
 71
     6
 72
     1
  1
{SOFT EDGE DRESSED OVER ROOFING}
  7
GENERATED_STYLE_1
 73
     1
 44
1.0
  0
LINE
  5
17E
330
E3
100
AcDbEntity
  8
Doc_ Floor
  6
Continuous
100
AcDbLine
 10
145.1015851086914
 20
131.1304048961026
 30
0.0
 11
141.566928490554
 21
132.6906598613732
 31
0.0
  0
LINE
  5
17F
330
E3
100
AcDbEntity
  8
Doc_ Floor
  6
Continuous
100
AcDbLine
 10
145.1015851086914
 20
131.1304048961026
 30
0.0
 11
142.8206076005396
 21
134.2489557888634
 31
0.0
  0
LINE
  5
180
330
E3
100
AcDbEntity
  8
Doc_ Floor
  6
Continuous
100
AcDbLine
 10
141.566928490554
 20
132.6906598613732
 30
0.0
 11
142.8206076005396
 21
134.2489557888634
 31
0.0
  0
LWPOLYLINE
  5
181
330
E3
100
AcDbEntity
  8
Doc_ Floor
  6
Continuous
100
AcDbPolyline
 90
        9
 70
   128
 43
0.0
 10
142.1937685551834
 20
133.4698069595958
 10
137.231178642974
 20
137.3432277527113
 10
132.8701005042705
 20
140.5638215274287
 10
129.0385620075167
 20
143.173620414359
 10
125.6645910211569
 20
145.2146565441135
 10
122.6762154136349
 20
146.7289620473031
 10
120.001463053395
 20
147.7585690545392
 10
117.568361808881
 20
148.3455096964326
 10
115.3049395485372
 20
148.5318161035946
  0
MTEXT
  5
182
330
E3
100
AcDbEntity
  8
Doc_ Floor
  6
Continuous
100
AcDbMText
 10
200.4460231647613
 20
119.44354036551
 30
0.0
 40
2.500000000000001
 41
0.0
 71
     4
 72
     1
  1
{STOPEND}
  7
GENERATED_STYLE_1
 73
     1
 44
1.0
  0
LINE
  5
183
330
E3
100
AcDbEntity
  8
Doc_ Floor
  6
Continuous
100
AcDbLine
 10
169.1606399385361
 20
132.4312669904162
 30
0.0
 11
172.8939118056947
 21
131.4358351549001
 31
0.0
  0
LINE
  5
184
330
E3
100
AcDbEntity
  8
Doc_ Floor
  6
Continuous
100
AcDbLine
 10
169.1606399385361
 20
132.4312669904162
 30
0.0
 11
171.8960328676224
 21
129.7025612266255
 31
0.0
  0
LINE
  5
185
330
E3
100
AcDbEntity
  8
Doc_ Floor
  6
Continuous
100
AcDbLine
 10
172.8939118056947
 20
131.4358351549001
 30
0.0
 11
171.8960328676224
 21
129.7025612266255
 31
0.0
  0
LWPOLYLINE
  5
186
330
E3
100
AcDbEntity
  8
Doc_ Floor
  6
Continuous
100
AcDbPolyline
 90
        9
 70
   128
 43
0.0
 10
172.3949714998111
 20
130.5691981273233
 10
177.4986414568468
 20
127.7138099674511
 10
181.9659915333714
 20
125.3393385305835
 10
185.8691404555095
 20
123.4149007785289
 10
189.2802069493857
 20
121.9096136730958
 10
192.2713097411245
 20
120.7925941760925
 10
194.9145675568503
 20
120.0329592493274
 10
197.2820991226877
 20
119.5998258546089
 10
199.4460231647613
 20
119.4623109537453
  0
MTEXT
  5
187
330
E3
100
AcDbEntity
  8
Doc_ Floor
  6
Continuous
100
AcDbMText
 10
101.4918736050076
 20
92.41867514365721
 30
0.0
 40
2.5
 41
0.0
 71
     6
 72
     1
  1
{ROOF FRAME}
  7
GENERATED_STYLE_1
 73
     1
 44
1.0
  0
LINE
  5
188
330
E3
100
AcDbEntity
  8
Doc_ Floor
  6
Continuous
100
AcDbLine
 10
128.9516335272538
 20
104.3539511364387
 30
0.0
 11
127.4907370265745
 21
100.7770836938762
 31
0.0
  0
LINE
  5
189
330
E3
100
AcDbEntity
  8
Doc_ Floor
  6
Continuous
100
AcDbLine
 10
128.9516335272538
 20
104.3539511364387
 30
0.0
 11
125.8980257537164
 21
101.9867386832213
 31
0.0
  0
LINE
  5
18A
330
E3
100
AcDbEntity
  8
Doc_ Floor
  6
Continuous
100
AcDbLine
 10
127.4907370265745
 20
100.7770836938762
 30
0.0
 11
125.8980257537164
 21
101.9867386832213
 31
0.0
  0
LWPOLYLINE
  5
18B
330
E3
100
AcDbEntity
  8
Doc_ Floor
  6
Continuous
100
AcDbPolyline
 90
       11
 70
   128
 43
0.0
 10
126.6943821636134
 20
101.3819108531095
 10
124.5385283402276
 20
99.0914559659033
 10
122.2398026470681
 20
97.18350526138705
 10
121.0203714117235
 20
96.36554183958586
 10
119.7454324838159
 20
95.63429189779497
 10
118.4083892883055
 20
94.98678458079365
 10
117.0026452501523
 20
94.4200490333612
 10
113.9586683457585
 20
93.51700982631989
 10
110.5607291703156
 20
92.90140743490524
 10
106.7560551235049
 20
92.54947501735138
 10
102.4918736050076
 20
92.43744573189251
  0
MTEXT
  5
18C
330
E3
100
AcDbEntity
  8
Doc_ Floor
  6
Continuous
100
AcDbMText
 10
114.230057081854
 20
176.6805839226762
 30
0.0
 40
2.5
 41
56.71228972547952
 71
     6
 72
     1
  1
{CLADDING ON CAVITY BATTENS WITH BUILDING WRAP OVER METAL HIDDEN GUTTER}
  7
GENERATED_STYLE_1
 73
     1
 44
1.065340909090909
  0
LINE
  5
18D
330
E3
100
AcDbEntity
  8
Doc_ Floor
  6
Continuous
100
AcDbLine
 10
161.0614659640223
 20
156.7586727134562
 30
0.0
 11
157.4724850248728
 21
158.1895498410881
 31
0.0
  0
LINE
  5
18E
330
E3
100
AcDbEntity
  8
Doc_ Floor
  6
Continuous
100
AcDbLine
 10
161.0614659640223
 20
156.7586727134562
 30
0.0
 11
158.6687555156107
 21
159.7923376179622
 31
0.0
  0
LINE
  5
18F
330
E3
100
AcDbEntity
  8
Doc_ Floor
  6
Continuous
100
AcDbLine
 10
157.4724850248728
 20
158.1895498410881
 30
0.0
 11
158.6687555156107
 21
159.7923376179622
 31
0.0
  0
LWPOLYLINE
  5
190
330
E3
100
AcDbEntity
  8
Doc_ Floor
  6
Continuous
100
AcDbPolyline
 90
       15
 70
   128
 43
0.0
 10
158.0706211529338
 20
158.9909433510778
 10
151.6379870397263
 20
163.5484575823993
 10
145.7423766130802
 20
167.336568325234
 10
142.9601508492426
 20
168.9576754526682
 10
140.2692156874751
 20
170.4051253850201
 10
137.6552493545879
 20
171.6851493479693
 10
135.1039300773908
 20
172.8039785671958
 10
132.6009360826938
 20
173.7678442683792
 10
130.1319455973069
 20
174.5829776771993
 10
127.6826368480399
 20
175.2556100193359
 10
125.238688061703
 20
175.7919725204687
 10
122.7857774651059
 20
176.1982964062777
 10
120.3095832850588
 20
176.4808129024424
 10
117.7957837483715
 20
176.6457532346428
 10
115.230057081854
 20
176.6993486285585
  0
MTEXT
  5
191
330
E3
100
AcDbEntity
  8
0
  6
Continuous
100
AcDbMText
 10
81.06497497887133
 20
43.95654790381578
 30
0.0
 40
2.499999999999999
 41
69.01187578516152
 71
     7
 72
     1
  1
\A1;{\fCentury Gothic|b0|i0|c0|p34;LOW, MEDIUM OR HIGH WIND ZONE.\P ROOF PITCH \fArial|b0|i0|c0|p34;\H1.029412x;\U+2265\fCentury Gothic|b0|i0|c0|p34;\H0.971429x; 10\fArial|b0|i0|c0|p34;\H1.029412x;\U+00B0}
  7
GENERATED_STYLE_1
 73
     1
 44
1.056355725756043
  0
MTEXT
  5
192
330
E3
100
AcDbEntity
  8
0
  6
Continuous
100
AcDbMText
 10
81.06497497887133
 20
33.53369551768854
 30
0.0
 40
2.5
 41
69.01187578516152
 71
     7
 72
     1
  1
\A1;{\fCentury Gothic|b0|i0|c0|p34;VERY HIGH OR EXTRA WIND ZONE.\P ROOF PITCH \fArial|b0|i0|c0|p34;\H1.029412x;<\fCentury Gothic|b0|i0|c0|p34;\H0.971429x; 10\fArial|b0|i0|c0|p34;\H1.029412x;\U+00B0}
  7
GENERATED_STYLE_1
 73
     1
 44
1.056355725756043
  0
MTEXT
  5
193
330
E3
100
AcDbEntity
  8
0
  6
Continuous
100
AcDbMText
 10
165.5643090354594
 20
45.99637563526121
 30
0.0
 40
2.499999999999999
 41
0.0
 71
     8
 72
     1
  1
{75MM}
  7
GENERATED_STYLE_1
 73
     1
 44
1.0
  0
MTEXT
  5
194
330
E3
100
AcDbEntity
  8
0
  6
Continuous
100
AcDbMText
 10
165.5643090354594
 20
34.75759611380344
 30
0.0
 40
2.499999999999999
 41
0.0
 71
     8
 72
     1
  1
{100MM}
  7
GENERATED_STYLE_1
 73
     1
 44
1.0
  0
MTEXT
  5
195
330
E3
100
AcDbEntity
  8
0
  6
Continuous
100
AcDbMText
 10
165.5643090354594
 20
55.87843970067759
 30
0.0
 40
2.499999999999999
 41
0.0
 71
     8
 72
     1
  1
{A}
  7
GENERATED_STYLE_1
 73
     1
 44
1.0
  0
MTEXT
  5
196
330
E3
100
AcDbEntity
  8
0
  6
Continuous
100
AcDbMText
 10
189.5343258722474
 20
45.99637875386539
 30
0.0
 40
2.499999999999999
 41
0.0
 71
     8
 72
     1
  1
{150MM}
  7
GENERATED_STYLE_1
 73
     1
 44
1.0
  0
MTEXT
  5
197
330
E3
100
AcDbEntity
  8
0
  6
Continuous
100
AcDbMText
 10
189.5343258722474
 20
34.75759923240764
 30
0.0
 40
2.499999999999999
 41
0.0
 71
     8
 72
     1
  1
{200MM}
  7
GENERATED_STYLE_1
 73
     1
 44
1.0
  0
MTEXT
  5
198
330
E3
100
AcDbEntity
  8
0
  6
Continuous
100
AcDbMText
 10
189.5343258722474
 20
55.87843970067765
 30
0.0
 40
2.499999999999999
 41
0.0
 71
     8
 72
     1
  1
{B}
  7
GENERATED_STYLE_1
 73
     1
 44
1.0
  0
HATCH
  5
199
330
E3
100
AcDbEntity
  8
0
  6
Continuous
 62
   255
370
     0
100
AcDbHatch
 10
0.0
 20
0.0
 30
0.0
210
0.0
220
0.0
230
1.0
  2
SOLID
 70
     1
 71
     0
 91
        1
 92
        3
 72
     0
 73
     1
 93
        4
 10
151.7596024959184
 20
136.1870067696154
 10
151.8464265847519
 20
135.6946028931093
 10
153.3236382142702
 20
135.9550751596097
 10
153.2368141254368
 20
136.4474790361158
 97
        0
 75
     0
 76
     1
 98
        0
  0
HATCH
  5
19A
330
E3
100
AcDbEntity
  8
0
  6
Continuous
 62
   255
370
     0
100
AcDbHatch
 10
0.0
 20
0.0
 30
0.0
210
0.0
220
0.0
230
1.0
  2
SOLID
 70
     1
 71
     0
 91
        1
 92
        3
 72
     1
 73
     1
 93
        4
 10
152.0202751156437
 20
136.1483515012811
 42
0.0
 10
152.0781578415327
 20
135.820082250277
 42
0.1666666666666667
 10
153.0629655945449
 20
135.993730427944
 42
0.0
 10
153.0050828686559
 20
136.321999678948
 42
0.1666666666666667
 97
        0
 75
     0
 76
     1
 98
        0
  0
LINE
  5
19B
330
E3
100
AcDbEntity
  8
0
  6
Continuous
100
AcDbLine
 10
152.0781592588961
 20
135.8200837527494
 30
0.0
 11
152.0202761322275
 21
136.1483513758456
 31
0.0
  0
ARC
  5
19C
330
E3
100
AcDbEntity
  8
0
  6
Continuous
100
AcDbCircle
 10
152.3173247922746
 20
137.3430843122533
 30
0.0
 40
1.541666666666656
100
AcDbArc
 50
261.0753555839476
 51
298.9246444160499
  0
LINE
  5
19D
330
E3
100
AcDbEntity
  8
0
  6
Continuous
100
AcDbLine
 10
153.0050823908548
 20
136.3220007558515
 30
0.0
 11
153.0629655175235
 21
135.9937297434166
 31
0.0
  0
ARC
  5
19E
330
E3
100
AcDbEntity
  8
0
  6
Continuous
100
AcDbCircle
 10
152.7659159179141
 20
134.7989976169717
 30
0.0
 40
1.541666666666738
100
AcDbArc
 50
81.07535558394811
 51
118.9246444160493
  0
HATCH
  5
19F
330
E3
100
AcDbEntity
  8
0
  6
Continuous
 62
   255
370
     0
100
AcDbHatch
 10
0.0
 20
0.0
 30
0.0
210
0.0
220
0.0
230
1.0
  2
SOLID
 70
     1
 71
     0
 91
        1
 92
        3
 72
     1
 73
     1
 93
        4
 10
151.5278712391376
 20
136.0615274124476
 42
0.0
 10
151.5857539650266
 20
135.7332581614436
 42
0.3333333333333333
 10
152.0781578415327
 20
135.820082250277
 42
0.0
 10
152.0202751156437
 20
136.1483515012811
 42
0.3333333333333333
 97
        0
 75
     0
 76
     1
 98
        0
  0
LINE
  5
1A0
330
E3
100
AcDbEntity
  8
0
  6
Continuous
100
AcDbLine
 10
151.5857527402437
 20
135.7332590627464
 30
0.0
 11
151.527869613575
 21
136.0615266858426
 31
0.0
  0
ARC
  5
1A1
330
E3
100
AcDbEntity
  8
0
  6
Continuous
100
AcDbCircle
 10
151.7740731773907
 20
136.1049394568644
 30
0.0
 40
0.4166666666666698
100
AcDbArc
 50
243.1301023541581
 51
316.8698976458473
  0
LINE
  5
1A2
330
E3
100
AcDbEntity
  8
0
  6
Continuous
100
AcDbLine
 10
152.0202761322275
 20
136.1483513758456
 30
0.0
 11
152.0781592588961
 21
135.8200837527494
 31
0.0
  0
ARC
  5
1A3
330
E3
100
AcDbEntity
  8
0
  6
Continuous
100
AcDbCircle
 10
151.8319559032796
 20
135.7766702058603
 30
0.0
 40
0.416666666666707
100
AcDbArc
 50
63.13010235415638
 51
136.8698976458365
  0
HATCH
  5
1A4
330
E3
100
AcDbEntity
  8
0
  6
Continuous
 62
   255
370
     0
100
AcDbHatch
 10
0.0
 20
0.0
 30
0.0
210
0.0
220
0.0
230
1.0
  2
SOLID
 70
     1
 71
     0
 91
        1
 92
        3
 72
     1
 73
     1
 93
        4
 10
153.4974867451621
 20
136.4088237677815
 42
0.3333333333333333
 10
153.0050828686559
 20
136.321999678948
 42
0.0
 10
153.0629655945449
 20
135.993730427944
 42
0.3333333333333333
 10
153.555369471051
 20
136.0805545167774
 42
0.0
 97
        0
 75
     0
 76
     1
 98
        0
  0
ARC
  5
1A5
330
E3
100
AcDbEntity
  8
0
  6
Continuous
100
AcDbCircle
 10
153.309167532798
 20
136.0371424723607
 30
0.0
 40
0.4166666666666698
100
AcDbArc
 50
63.13010235415805
 51
136.8698976458473
  0
LINE
  5
1A6
330
E3
100
AcDbEntity
  8
0
  6
Continuous
100
AcDbLine
 10
153.0050823908548
 20
136.3220007558515
 30
0.0
 11
153.0629655175235
 21
135.9937297434166
 31
0.0
  0
ARC
  5
1A7
330
E3
100
AcDbEntity
  8
0
  6
Continuous
100
AcDbCircle
 10
153.251284806909
 20
136.3654117233648
 30
0.0
 40
0.4166666666667196
100
AcDbArc
 50
243.1301023541529
 51
316.8698976458365
  0
LINE
  5
1A8
330
E3
100
AcDbEntity
  8
0
  6
Continuous
100
AcDbLine
 10
153.5553686468371
 20
136.0805544334195
 30
0.0
 11
153.4974855201685
 21
136.4088254458545
 31
0.0
  0
HATCH
  5
1A9
330
E3
100
AcDbEntity
  8
0
  6
Continuous
 62
   255
370
     0
100
AcDbHatch
 10
0.0
 20
0.0
 30
0.0
210
0.0
220
0.0
230
1.0
  2
SOLID
 70
     1
 71
     0
 91
        1
 92
        3
 72
     0
 73
     1
 93
        4
 10
152.9133013222459
 20
135.8827216943657
 10
152.2567634767763
 20
135.7669563583532
 10
152.5346005610433
 20
134.1912639535337
 10
153.191138406513
 20
134.3070292895462
 97
        0
 75
     0
 76
     1
 98
        0
  0
LINE
  5
1AA
330
E3
100
AcDbEntity
  8
0
  6
Continuous
100
AcDbLine
 10
152.2567638521113
 20
135.7669558683056
 30
0.0
 11
152.9133024876425
 21
135.8827221216429
 31
0.0
  0
LINE
  5
1AB
330
E3
100
AcDbEntity
  8
0
  6
Continuous
100
AcDbLine
 10
152.5346015043853
 20
134.1912624651631
 30
0.0
 11
152.2567638521113
 21
135.7669558683056
 31
0.0
  0
LINE
  5
1AC
330
E3
100
AcDbEntity
  8
0
  6
Continuous
100
AcDbLine
 10
153.1911367505777
 20
134.3070287185004
 30
0.0
 11
152.5346015043853
 21
134.1912624651631
 31
0.0
  0
LINE
  5
1AD
330
E3
100
AcDbEntity
  8
0
  6
Continuous
100
AcDbLine
 10
152.9133024876425
 20
135.8827221216429
 30
0.0
 11
153.1911367505777
 21
134.3070287185004
 31
0.0
  0
HATCH
  5
1AE
330
E3
100
AcDbEntity
  8
0
  6
Continuous
 62
   255
370
     0
100
AcDbHatch
 10
0.0
 20
0.0
 30
0.0
210
0.0
220
0.0
230
1.0
  2
SOLID
 70
     1
 71
     0
 91
        1
 92
        3
 72
     0
 73
     1
 93
        5
 10
153.1583118096818
 20
134.30124107484
 10
152.5674271578745
 20
134.1970521682399
 10
154.3733682056106
 20
123.9550515369129
 10
154.7729994381144
 20
123.4162613384057
 10
154.9642528574179
 20
124.0592404435131
 97
        0
 75
     0
 76
     1
 98
        0
  0
LINE
  5
1AF
330
E3
100
AcDbEntity
  8
0
  6
Continuous
100
AcDbLine
 10
152.5674272498933
 20
134.1970514556977
 30
0.0
 11
153.1583110050697
 21
134.3012397279658
 31
0.0
  0
LINE
  5
1B0
330
E3
100
AcDbEntity
  8
0
  6
Continuous
100
AcDbLine
 10
154.3733686003353
 20
123.9550528086182
 30
0.0
 11
152.5674272498933
 21
134.1970514556977
 31
0.0
  0
LINE
  5
1B1
330
E3
100
AcDbEntity
  8
0
  6
Continuous
100
AcDbLine
 10
154.7729987501915
 20
123.4162598002371
 30
0.0
 11
154.3733686003353
 21
123.9550528086182
 31
0.0
  0
LINE
  5
1B2
330
E3
100
AcDbEntity
  8
0
  6
Continuous
100
AcDbLine
 10
154.9642523555117
 20
124.0592410808863
 30
0.0
 11
154.7729987501915
 21
123.4162598002371
 31
0.0
  0
LINE
  5
1B3
330
E3
100
AcDbEntity
  8
0
  6
Continuous
100
AcDbLine
 10
153.1583110050697
 20
134.3012397279658
 30
0.0
 11
154.9642523555117
 21
124.0592410808863
 31
0.0
  0
LINE
  5
1B4
330
E3
100
AcDbEntity
  8
0
  6
Continuous
100
AcDbLine
 10
151.7596020912341
 20
136.1870067839529
 30
0.0
 11
153.2368148685139
 21
136.447477464623
 31
0.0
  0
LINE
  5
1B5
330
E3
100
AcDbEntity
  8
0
  6
Continuous
100
AcDbLine
 10
153.3236395585168
 20
135.9550743353093
 30
0.0
 11
151.8464267812371
 21
135.6946036546392
 31
0.0
  0
LINE
  5
1B6
330
E3
100
AcDbEntity
  8
0
  6
Continuous
100
AcDbLine
 10
153.3552733602843
 20
134.3359707103734
 30
0.0
 11
153.3543470999697
 21
134.330266863501
 31
0.0
  0
LINE
  5
1B7
330
E3
100
AcDbEntity
  8
0
  6
Continuous
100
AcDbLine
 10
153.3543470999697
 20
134.330266863501
 30
0.0
 11
153.3496876091674
 21
134.3239047473683
 31
0.0
  0
LINE
  5
1B8
330
E3
100
AcDbEntity
  8
0
  6
Continuous
100
AcDbLine
 10
153.3496876091674
 20
134.3239047473683
 30
0.0
 11
153.3413386853152
 21
134.316891694177
 31
0.0
  0
LINE
  5
1B9
330
E3
100
AcDbEntity
  8
0
  6
Continuous
100
AcDbLine
 10
153.3413386853152
 20
134.316891694177
 30
0.0
 11
153.3293675409545
 21
134.3092419566849
 31
0.0
  0
LINE
  5
1BA
330
E3
100
AcDbEntity
  8
0
  6
Continuous
100
AcDbLine
 10
153.3293675409545
 20
134.3092419566849
 30
0.0
 11
153.3138748736631
 21
134.3009685808681
 31
0.0
  0
LINE
  5
1BB
330
E3
100
AcDbEntity
  8
0
  6
Continuous
100
AcDbLine
 10
153.3138748736631
 20
134.3009685808681
 30
0.0
 11
153.2949894783124
 21
134.2920986814366
 31
0.0
  0
LINE
  5
1BC
330
E3
100
AcDbEntity
  8
0
  6
Continuous
100
AcDbLine
 10
153.2949894783124
 20
134.2920986814366
 30
0.0
 11
153.2728570964676
 21
134.2826559837613
 31
0.0
  0
LINE
  5
1BD
330
E3
100
AcDbEntity
  8
0
  6
Continuous
100
AcDbLine
 10
153.2728570964676
 20
134.2826559837613
 30
0.0
 11
153.247653973742
 21
134.2726709918907
 31
0.0
  0
LINE
  5
1BE
330
E3
100
AcDbEntity
  8
0
  6
Continuous
100
AcDbLine
 10
153.247653973742
 20
134.2726709918907
 30
0.0
 11
153.2195800811201
 21
134.2621809885508
 31
0.0
  0
LINE
  5
1BF
330
E3
100
AcDbEntity
  8
0
  6
Continuous
100
AcDbLine
 10
153.2195800811201
 20
134.2621809885508
 30
0.0
 11
153.1888557256188
 21
134.2512198671287
 31
0.0
  0
LINE
  5
1C0
330
E3
100
AcDbEntity
  8
0
  6
Continuous
100
AcDbLine
 10
153.1888557256188
 20
134.2512198671287
 30
0.0
 11
153.1557215502873
 21
134.2398384677053
 31
0.0
  0
LINE
  5
1C1
330
E3
100
AcDbEntity
  8
0
  6
Continuous
100
AcDbLine
 10
153.1557215502873
 20
134.2398384677053
 30
0.0
 11
153.1204419235456
 21
134.2280774623451
 31
0.0
  0
LINE
  5
1C2
330
E3
100
AcDbEntity
  8
0
  6
Continuous
100
AcDbLine
 10
153.1204419235456
 20
134.2280774623451
 30
0.0
 11
153.0832846031528
 21
134.2159843017904
 31
0.0
  0
LINE
  5
1C3
330
E3
100
AcDbEntity
  8
0
  6
Continuous
100
AcDbLine
 10
153.0832846031528
 20
134.2159843017904
 30
0.0
 11
153.0445478509162
 21
134.2036132154606
 31
0.0
  0
LINE
  5
1C4
330
E3
100
AcDbEntity
  8
0
  6
Continuous
100
AcDbLine
 10
153.0445478509162
 20
134.2036132154606
 30
0.0
 11
153.0045265393047
 21
134.1910150434365
 31
0.0
  0
LINE
  5
1C5
330
E3
100
AcDbEntity
  8
0
  6
Continuous
100
AcDbLine
 10
153.0045265393047
 20
134.1910150434365
 30
0.0
 11
152.963535876819
 21
134.1782474044764
 31
0.0
  0
LINE
  5
1C6
330
E3
100
AcDbEntity
  8
0
  6
Continuous
100
AcDbLine
 10
152.963535876819
 20
134.1782474044764
 30
0.0
 11
152.9218910719603
 21
134.1653645279998
 31
0.0
  0
LINE
  5
1C7
330
E3
100
AcDbEntity
  8
0
  6
Continuous
100
AcDbLine
 10
152.9218910719603
 20
134.1653645279998
 30
0.0
 11
152.879924279923
 21
134.1524240327649
 31
0.0
  0
LINE
  5
1C8
330
E3
100
AcDbEntity
  8
0
  6
Continuous
100
AcDbLine
 10
152.879924279923
 20
134.1524240327649
 30
0.0
 11
152.8379574878859
 21
134.1394835375301
 31
0.0
  0
LINE
  5
1C9
330
E3
100
AcDbEntity
  8
0
  6
Continuous
100
AcDbLine
 10
152.8379574878859
 20
134.1394835375301
 30
0.0
 11
152.7963126830271
 21
134.1266006610535
 31
0.0
  0
LINE
  5
1CA
330
E3
100
AcDbEntity
  8
0
  6
Continuous
100
AcDbLine
 10
152.7963126830271
 20
134.1266006610535
 30
0.0
 11
152.7553220205415
 21
134.1138330220934
 31
0.0
  0
LINE
  5
1CB
330
E3
100
AcDbEntity
  8
0
  6
Continuous
100
AcDbLine
 10
152.7553220205415
 20
134.1138330220934
 30
0.0
 11
152.7153007089298
 21
134.1012348500693
 31
0.0
  0
LINE
  5
1CC
330
E3
100
AcDbEntity
  8
0
  6
Continuous
100
AcDbLine
 10
152.7153007089298
 20
134.1012348500693
 30
0.0
 11
152.6765639566933
 21
134.0888637637395
 31
0.0
  0
LINE
  5
1CD
330
E3
100
AcDbEntity
  8
0
  6
Continuous
100
AcDbLine
 10
152.6765639566933
 20
134.0888637637395
 30
0.0
 11
152.6394066363005
 21
134.0767706031847
 31
0.0
  0
LINE
  5
1CE
330
E3
100
AcDbEntity
  8
0
  6
Continuous
100
AcDbLine
 10
152.6394066363005
 20
134.0767706031847
 30
0.0
 11
152.6041270095588
 21
134.0650095978246
 31
0.0
  0
LINE
  5
1CF
330
E3
100
AcDbEntity
  8
0
  6
Continuous
100
AcDbLine
 10
152.6041270095588
 20
134.0650095978246
 30
0.0
 11
152.5709928342273
 21
134.0536281984012
 31
0.0
  0
LINE
  5
1D0
330
E3
100
AcDbEntity
  8
0
  6
Continuous
100
AcDbLine
 10
152.5709928342273
 20
134.0536281984012
 30
0.0
 11
152.540268478726
 21
134.0426704663178
 31
0.0
  0
LINE
  5
1D1
330
E3
100
AcDbEntity
  8
0
  6
Continuous
100
AcDbLine
 10
152.540268478726
 20
134.0426704663178
 30
0.0
 11
152.5121945861041
 21
134.0321804629779
 31
0.0
  0
LINE
  5
1D2
330
E3
100
AcDbEntity
  8
0
  6
Continuous
100
AcDbLine
 10
152.5121945861041
 20
134.0321804629779
 30
0.0
 11
152.4869914633785
 21
134.0221954711073
 31
0.0
  0
LINE
  5
1D3
330
E3
100
AcDbEntity
  8
0
  6
Continuous
100
AcDbLine
 10
152.4869914633785
 20
134.0221954711073
 30
0.0
 11
152.4648590815337
 21
134.012752773432
 31
0.0
  0
LINE
  5
1D4
330
E3
100
AcDbEntity
  8
0
  6
Continuous
100
AcDbLine
 10
152.4648590815337
 20
134.012752773432
 30
0.0
 11
152.445973686183
 21
134.0038794846618
 31
0.0
  0
LINE
  5
1D5
330
E3
100
AcDbEntity
  8
0
  6
Continuous
100
AcDbLine
 10
152.445973686183
 20
134.0038794846618
 30
0.0
 11
152.4304810188917
 21
133.9956094981837
 31
0.0
  0
LINE
  5
1D6
330
E3
100
AcDbEntity
  8
0
  6
Continuous
100
AcDbLine
 10
152.4304810188917
 20
133.9956094981837
 30
0.0
 11
152.4185098745309
 21
133.9879563713529
 31
0.0
  0
LINE
  5
1D7
330
E3
100
AcDbEntity
  8
0
  6
Continuous
100
AcDbLine
 10
152.4185098745309
 20
133.9879563713529
 30
0.0
 11
152.4101619332623
 21
133.9809438295401
 31
0.0
  0
LINE
  5
1D8
330
E3
100
AcDbEntity
  8
0
  6
Continuous
100
AcDbLine
 10
152.4101619332623
 20
133.9809438295401
 30
0.0
 11
152.4055013310569
 21
133.974581999523
 31
0.0
  0
LINE
  5
1D9
330
E3
100
AcDbEntity
  8
0
  6
Continuous
100
AcDbLine
 10
152.4055013310569
 20
133.974581999523
 30
0.0
 11
152.4045750707423
 21
133.9688781526505
 31
0.0
  0
LINE
  5
1DA
330
E3
100
AcDbEntity
  8
0
  6
Continuous
100
AcDbLine
 10
153.4234922872249
 20
133.9490819502615
 30
0.0
 11
153.4225660269103
 21
133.943378103389
 31
0.0
  0
LINE
  5
1DB
330
E3
100
AcDbEntity
  8
0
  6
Continuous
100
AcDbLine
 10
153.4225660269103
 20
133.943378103389
 30
0.0
 11
153.417906536108
 21
133.9370159872563
 31
0.0
  0
LINE
  5
1DC
330
E3
100
AcDbEntity
  8
0
  6
Continuous
100
AcDbLine
 10
153.417906536108
 20
133.9370159872563
 30
0.0
 11
153.4095559057427
 21
133.9300020685711
 31
0.0
  0
LINE
  5
1DD
330
E3
100
AcDbEntity
  8
0
  6
Continuous
100
AcDbLine
 10
153.4095559057427
 20
133.9300020685711
 30
0.0
 11
153.3975881507206
 21
133.9223523310789
 31
0.0
  0
LINE
  5
1DE
330
E3
100
AcDbEntity
  8
0
  6
Continuous
100
AcDbLine
 10
153.3975881507206
 20
133.9223523310789
 30
0.0
 11
153.3820954834292
 21
133.9140789552622
 31
0.0
  0
LINE
  5
1DF
330
E3
100
AcDbEntity
  8
0
  6
Continuous
100
AcDbLine
 10
153.3820954834292
 20
133.9140789552622
 30
0.0
 11
153.3632066987399
 21
133.9052090558307
 31
0.0
  0
LINE
  5
1E0
330
E3
100
AcDbEntity
  8
0
  6
Continuous
100
AcDbLine
 10
153.3632066987399
 20
133.9052090558307
 30
0.0
 11
153.341074316895
 21
133.8957663581554
 31
0.0
  0
LINE
  5
1E1
330
E3
100
AcDbEntity
  8
0
  6
Continuous
100
AcDbLine
 10
153.341074316895
 20
133.8957663581554
 30
0.0
 11
153.3158711941695
 21
133.8857813662848
 31
0.0
  0
LINE
  5
1E2
330
E3
100
AcDbEntity
  8
0
  6
Continuous
100
AcDbLine
 10
153.3158711941695
 20
133.8857813662848
 30
0.0
 11
153.2877973015476
 21
133.8752913629448
 31
0.0
  0
LINE
  5
1E3
330
E3
100
AcDbEntity
  8
0
  6
Continuous
100
AcDbLine
 10
153.2877973015476
 20
133.8752913629448
 30
0.0
 11
153.2570729460463
 21
133.8643336308615
 31
0.0
  0
LINE
  5
1E4
330
E3
100
AcDbEntity
  8
0
  6
Continuous
100
AcDbLine
 10
153.2570729460463
 20
133.8643336308615
 30
0.0
 11
153.2239421600534
 21
133.8529488420993
 31
0.0
  0
LINE
  5
1E5
330
E3
100
AcDbEntity
  8
0
  6
Continuous
100
AcDbLine
 10
153.2239421600534
 20
133.8529488420993
 30
0.0
 11
153.1886591439731
 21
133.8411878367392
 31
0.0
  0
LINE
  5
1E6
330
E3
100
AcDbEntity
  8
0
  6
Continuous
100
AcDbLine
 10
153.1886591439731
 20
133.8411878367392
 30
0.0
 11
153.151505212919
 21
133.8290980655232
 31
0.0
  0
LINE
  5
1E7
330
E3
100
AcDbEntity
  8
0
  6
Continuous
100
AcDbLine
 10
153.151505212919
 20
133.8290980655232
 30
0.0
 11
153.1127650713437
 21
133.8167235898547
 31
0.0
  0
LINE
  5
1E8
330
E3
100
AcDbEntity
  8
0
  6
Continuous
100
AcDbLine
 10
153.1127650713437
 20
133.8167235898547
 30
0.0
 11
153.0727437597321
 21
133.8041288071693
 31
0.0
  0
LINE
  5
1E9
330
E3
100
AcDbEntity
  8
0
  6
Continuous
100
AcDbLine
 10
153.0727437597321
 20
133.8041288071693
 30
0.0
 11
153.0317530972464
 21
133.7913577788705
 31
0.0
  0
LINE
  5
1EA
330
E3
100
AcDbEntity
  8
0
  6
Continuous
100
AcDbLine
 10
153.0317530972464
 20
133.7913577788705
 30
0.0
 11
152.9901116817264
 21
133.7784749023939
 31
0.0
  0
LINE
  5
1EB
330
E3
100
AcDbEntity
  8
0
  6
Continuous
100
AcDbLine
 10
152.9901116817264
 20
133.7784749023939
 30
0.0
 11
152.9481415003505
 21
133.765534407159
 31
0.0
  0
LINE
  5
1EC
330
E3
100
AcDbEntity
  8
0
  6
Continuous
100
AcDbLine
 10
152.9481415003505
 20
133.765534407159
 30
0.0
 11
152.9061747083133
 21
133.7525939119242
 31
0.0
  0
LINE
  5
1ED
330
E3
100
AcDbEntity
  8
0
  6
Continuous
100
AcDbLine
 10
152.9061747083133
 20
133.7525939119242
 30
0.0
 11
152.8645332927933
 21
133.7397110354476
 31
0.0
  0
LINE
  5
1EE
330
E3
100
AcDbEntity
  8
0
  6
Continuous
100
AcDbLine
 10
152.8645332927933
 20
133.7397110354476
 30
0.0
 11
152.8235426303076
 21
133.7269433964875
 31
0.0
  0
LINE
  5
1EF
330
E3
100
AcDbEntity
  8
0
  6
Continuous
100
AcDbLine
 10
152.8235426303076
 20
133.7269433964875
 30
0.0
 11
152.783521318696
 21
133.7143452244634
 31
0.0
  0
LINE
  5
1F0
330
E3
100
AcDbEntity
  8
0
  6
Continuous
100
AcDbLine
 10
152.783521318696
 20
133.7143452244634
 30
0.0
 11
152.7447811771207
 21
133.7019741381336
 31
0.0
  0
LINE
  5
1F1
330
E3
100
AcDbEntity
  8
0
  6
Continuous
100
AcDbLine
 10
152.7447811771207
 20
133.7019741381336
 30
0.0
 11
152.7076272460666
 21
133.6898843669176
 31
0.0
  0
LINE
  5
1F2
330
E3
100
AcDbEntity
  8
0
  6
Continuous
100
AcDbLine
 10
152.7076272460666
 20
133.6898843669176
 30
0.0
 11
152.6723442299863
 21
133.6781199722187
 31
0.0
  0
LINE
  5
1F3
330
E3
100
AcDbEntity
  8
0
  6
Continuous
100
AcDbLine
 10
152.6723442299863
 20
133.6781199722187
 30
0.0
 11
152.6392134439934
 21
133.6667385727953
 31
0.0
  0
LINE
  5
1F4
330
E3
100
AcDbEntity
  8
0
  6
Continuous
100
AcDbLine
 10
152.6392134439934
 20
133.6667385727953
 30
0.0
 11
152.6084890884921
 21
133.6557808407119
 31
0.0
  0
LINE
  5
1F5
330
E3
100
AcDbEntity
  8
0
  6
Continuous
100
AcDbLine
 10
152.6084890884921
 20
133.6557808407119
 30
0.0
 11
152.5804151958702
 21
133.645290837372
 31
0.0
  0
LINE
  5
1F6
330
E3
100
AcDbEntity
  8
0
  6
Continuous
100
AcDbLine
 10
152.5804151958702
 20
133.645290837372
 30
0.0
 11
152.5552120731446
 21
133.6353058455014
 31
0.0
  0
LINE
  5
1F7
330
E3
100
AcDbEntity
  8
0
  6
Continuous
100
AcDbLine
 10
152.5552120731446
 20
133.6353058455014
 30
0.0
 11
152.5330796912998
 21
133.6258631478261
 31
0.0
  0
LINE
  5
1F8
330
E3
100
AcDbEntity
  8
0
  6
Continuous
100
AcDbLine
 10
152.5330796912998
 20
133.6258631478261
 30
0.0
 11
152.5141909066105
 21
133.6169898590558
 31
0.0
  0
LINE
  5
1F9
330
E3
100
AcDbEntity
  8
0
  6
Continuous
100
AcDbLine
 10
152.5141909066105
 20
133.6169898590558
 30
0.0
 11
152.4986982393191
 21
133.6087198725778
 31
0.0
  0
LINE
  5
1FA
330
E3
100
AcDbEntity
  8
0
  6
Continuous
100
AcDbLine
 10
152.4986982393191
 20
133.6087198725778
 30
0.0
 11
152.486730484297
 21
133.6010667457469
 31
0.0
  0
LINE
  5
1FB
330
E3
100
AcDbEntity
  8
0
  6
Continuous
100
AcDbLine
 10
152.486730484297
 20
133.6010667457469
 30
0.0
 11
152.4783791536897
 21
133.5940542039342
 31
0.0
  0
LINE
  5
1FC
330
E3
100
AcDbEntity
  8
0
  6
Continuous
100
AcDbLine
 10
152.4783791536897
 20
133.5940542039342
 30
0.0
 11
152.4737202579974
 21
133.5876932394111
 31
0.0
  0
LINE
  5
1FD
330
E3
100
AcDbEntity
  8
0
  6
Continuous
100
AcDbLine
 10
152.4737202579974
 20
133.5876932394111
 30
0.0
 11
152.4727939976829
 21
133.5819893925386
 31
0.0
  0
LINE
  5
1FE
330
E3
100
AcDbEntity
  8
0
  6
Continuous
100
AcDbLine
 10
153.4917112141654
 20
133.5621931901496
 30
0.0
 11
153.4907849538509
 21
133.5564893432771
 31
0.0
  0
LINE
  5
1FF
330
E3
100
AcDbEntity
  8
0
  6
Continuous
100
AcDbLine
 10
153.4907849538509
 20
133.5564893432771
 30
0.0
 11
153.4861254630486
 21
133.5501272271444
 31
0.0
  0
LINE
  5
200
330
E3
100
AcDbEntity
  8
0
  6
Continuous
100
AcDbLine
 10
153.4861254630486
 20
133.5501272271444
 30
0.0
 11
153.4777765155088
 21
133.5431158323039
 31
0.0
  0
LINE
  5
201
330
E3
100
AcDbEntity
  8
0
  6
Continuous
100
AcDbLine
 10
153.4777765155088
 20
133.5431158323039
 30
0.0
 11
153.465805371148
 21
133.535462705473
 31
0.0
  0
LINE
  5
202
330
E3
100
AcDbEntity
  8
0
  6
Continuous
100
AcDbLine
 10
153.465805371148
 20
133.535462705473
 30
0.0
 11
153.4503127038566
 21
133.527192718995
 31
0.0
  0
LINE
  5
203
330
E3
100
AcDbEntity
  8
0
  6
Continuous
100
AcDbLine
 10
153.4503127038566
 20
133.527192718995
 30
0.0
 11
153.431427308506
 21
133.5183194302248
 31
0.0
  0
LINE
  5
204
330
E3
100
AcDbEntity
  8
0
  6
Continuous
100
AcDbLine
 10
153.431427308506
 20
133.5183194302248
 30
0.0
 11
153.4092949266612
 21
133.5088767325495
 31
0.0
  0
LINE
  5
205
330
E3
100
AcDbEntity
  8
0
  6
Continuous
100
AcDbLine
 10
153.4092949266612
 20
133.5088767325495
 30
0.0
 11
153.3840918039356
 21
133.4988917406789
 31
0.0
  0
LINE
  5
206
330
E3
100
AcDbEntity
  8
0
  6
Continuous
100
AcDbLine
 10
153.3840918039356
 20
133.4988917406789
 30
0.0
 11
153.3560179113137
 21
133.4884017373389
 31
0.0
  0
LINE
  5
207
330
E3
100
AcDbEntity
  8
0
  6
Continuous
100
AcDbLine
 10
153.3560179113137
 20
133.4884017373389
 30
0.0
 11
153.3252935558124
 21
133.4774440052556
 31
0.0
  0
LINE
  5
208
330
E3
100
AcDbEntity
  8
0
  6
Continuous
100
AcDbLine
 10
153.3252935558124
 20
133.4774440052556
 30
0.0
 11
153.2921593804809
 21
133.4660626058321
 31
0.0
  0
LINE
  5
209
330
E3
100
AcDbEntity
  8
0
  6
Continuous
100
AcDbLine
 10
153.2921593804809
 20
133.4660626058321
 30
0.0
 11
153.2568797537392
 21
133.4542982111333
 31
0.0
  0
LINE
  5
20A
330
E3
100
AcDbEntity
  8
0
  6
Continuous
100
AcDbLine
 10
153.2568797537392
 20
133.4542982111333
 30
0.0
 11
153.2197224333464
 21
133.4422084399173
 31
0.0
  0
LINE
  5
20B
330
E3
100
AcDbEntity
  8
0
  6
Continuous
100
AcDbLine
 10
153.2197224333464
 20
133.4422084399173
 30
0.0
 11
153.1809856811099
 21
133.4298373535875
 31
0.0
  0
LINE
  5
20C
330
E3
100
AcDbEntity
  8
0
  6
Continuous
100
AcDbLine
 10
153.1809856811099
 20
133.4298373535875
 30
0.0
 11
153.1409643694982
 21
133.4172391815634
 31
0.0
  0
LINE
  5
20D
330
E3
100
AcDbEntity
  8
0
  6
Continuous
100
AcDbLine
 10
153.1409643694982
 20
133.4172391815634
 30
0.0
 11
153.0999737070126
 21
133.4044715426033
 31
0.0
  0
LINE
  5
20E
330
E3
100
AcDbEntity
  8
0
  6
Continuous
100
AcDbLine
 10
153.0999737070126
 20
133.4044715426033
 30
0.0
 11
153.0583289021538
 21
133.3915886661267
 31
0.0
  0
LINE
  5
20F
330
E3
100
AcDbEntity
  8
0
  6
Continuous
100
AcDbLine
 10
153.0583289021538
 20
133.3915886661267
 30
0.0
 11
153.0163621101166
 21
133.3786481708918
 31
0.0
  0
LINE
  5
210
330
E3
100
AcDbEntity
  8
0
  6
Continuous
100
AcDbLine
 10
153.0163621101166
 20
133.3786481708918
 30
0.0
 11
152.9743953180794
 21
133.365707675657
 31
0.0
  0
LINE
  5
211
330
E3
100
AcDbEntity
  8
0
  6
Continuous
100
AcDbLine
 10
152.9743953180794
 20
133.365707675657
 30
0.0
 11
152.9327505132207
 21
133.3528247991804
 31
0.0
  0
LINE
  5
212
330
E3
100
AcDbEntity
  8
0
  6
Continuous
100
AcDbLine
 10
152.9327505132207
 20
133.3528247991804
 30
0.0
 11
152.891759850735
 21
133.3400537708815
 31
0.0
  0
LINE
  5
213
330
E3
100
AcDbEntity
  8
0
  6
Continuous
100
AcDbLine
 10
152.891759850735
 20
133.3400537708815
 30
0.0
 11
152.8517385391234
 21
133.3274589881962
 31
0.0
  0
LINE
  5
214
330
E3
100
AcDbEntity
  8
0
  6
Continuous
100
AcDbLine
 10
152.8517385391234
 20
133.3274589881962
 30
0.0
 11
152.8130017868869
 21
133.3150845125276
 31
0.0
  0
LINE
  5
215
330
E3
100
AcDbEntity
  8
0
  6
Continuous
100
AcDbLine
 10
152.8130017868869
 20
133.3150845125276
 30
0.0
 11
152.775844466494
 21
133.3029947413116
 31
0.0
  0
LINE
  5
216
330
E3
100
AcDbEntity
  8
0
  6
Continuous
100
AcDbLine
 10
152.775844466494
 20
133.3029947413116
 30
0.0
 11
152.7405648397524
 21
133.2912337359515
 31
0.0
  0
LINE
  5
217
330
E3
100
AcDbEntity
  8
0
  6
Continuous
100
AcDbLine
 10
152.7405648397524
 20
133.2912337359515
 30
0.0
 11
152.7074306644208
 21
133.2798489471894
 31
0.0
  0
LINE
  5
218
330
E3
100
AcDbEntity
  8
0
  6
Continuous
100
AcDbLine
 10
152.7074306644208
 20
133.2798489471894
 30
0.0
 11
152.6767063089196
 21
133.268891215106
 31
0.0
  0
LINE
  5
219
330
E3
100
AcDbEntity
  8
0
  6
Continuous
100
AcDbLine
 10
152.6767063089196
 20
133.268891215106
 30
0.0
 11
152.6486324162977
 21
133.2584012117661
 31
0.0
  0
LINE
  5
21A
330
E3
100
AcDbEntity
  8
0
  6
Continuous
100
AcDbLine
 10
152.6486324162977
 20
133.2584012117661
 30
0.0
 11
152.6234292935721
 21
133.2484162198955
 31
0.0
  0
LINE
  5
21B
330
E3
100
AcDbEntity
  8
0
  6
Continuous
100
AcDbLine
 10
152.6234292935721
 20
133.2484162198955
 30
0.0
 11
152.6012969117272
 21
133.2389735222202
 31
0.0
  0
LINE
  5
21C
330
E3
100
AcDbEntity
  8
0
  6
Continuous
100
AcDbLine
 10
152.6012969117272
 20
133.2389735222202
 30
0.0
 11
152.5824115163766
 21
133.2301036227886
 31
0.0
  0
LINE
  5
21D
330
E3
100
AcDbEntity
  8
0
  6
Continuous
100
AcDbLine
 10
152.5824115163766
 20
133.2301036227886
 30
0.0
 11
152.5669188490853
 21
133.2218302469719
 31
0.0
  0
LINE
  5
21E
330
E3
100
AcDbEntity
  8
0
  6
Continuous
100
AcDbLine
 10
152.5669188490853
 20
133.2218302469719
 30
0.0
 11
152.5549477047244
 21
133.2141805094797
 31
0.0
  0
LINE
  5
21F
330
E3
100
AcDbEntity
  8
0
  6
Continuous
100
AcDbLine
 10
152.5549477047244
 20
133.2141805094797
 30
0.0
 11
152.5465997634558
 21
133.207167967667
 31
0.0
  0
LINE
  5
220
330
E3
100
AcDbEntity
  8
0
  6
Continuous
100
AcDbLine
 10
152.5465997634558
 20
133.207167967667
 30
0.0
 11
152.541939184938
 21
133.2008044792991
 31
0.0
  0
LINE
  5
221
330
E3
100
AcDbEntity
  8
0
  6
Continuous
100
AcDbLine
 10
152.541939184938
 20
133.2008044792991
 30
0.0
 11
152.5410129246235
 21
133.1951006324266
 31
0.0
  0
LINE
  5
222
330
E3
100
AcDbEntity
  8
0
  6
Continuous
100
AcDbLine
 10
153.559930141106
 20
133.1753044300376
 30
0.0
 11
153.5590038807915
 21
133.1696005831651
 31
0.0
  0
LINE
  5
223
330
E3
100
AcDbEntity
  8
0
  6
Continuous
100
AcDbLine
 10
153.5590038807915
 20
133.1696005831651
 30
0.0
 11
153.5543443899892
 21
133.1632384670324
 31
0.0
  0
LINE
  5
224
330
E3
100
AcDbEntity
  8
0
  6
Continuous
100
AcDbLine
 10
153.5543443899892
 20
133.1632384670324
 30
0.0
 11
153.5459937359362
 21
133.156226206698
 31
0.0
  0
LINE
  5
225
330
E3
100
AcDbEntity
  8
0
  6
Continuous
100
AcDbLine
 10
153.5459937359362
 20
133.156226206698
 30
0.0
 11
153.5340259809142
 21
133.1485730798671
 31
0.0
  0
LINE
  5
226
330
E3
100
AcDbEntity
  8
0
  6
Continuous
100
AcDbLine
 10
153.5340259809142
 20
133.1485730798671
 30
0.0
 11
153.5185333136228
 21
133.1403030933891
 31
0.0
  0
LINE
  5
227
330
E3
100
AcDbEntity
  8
0
  6
Continuous
100
AcDbLine
 10
153.5185333136228
 20
133.1403030933891
 30
0.0
 11
153.4996445289334
 21
133.1314298046188
 31
0.0
  0
LINE
  5
228
330
E3
100
AcDbEntity
  8
0
  6
Continuous
100
AcDbLine
 10
153.4996445289334
 20
133.1314298046188
 30
0.0
 11
153.4775121470886
 21
133.1219871069435
 31
0.0
  0
LINE
  5
229
330
E3
100
AcDbEntity
  8
0
  6
Continuous
100
AcDbLine
 10
153.4775121470886
 20
133.1219871069435
 30
0.0
 11
153.452309024363
 21
133.1120055044117
 31
0.0
  0
LINE
  5
22A
330
E3
100
AcDbEntity
  8
0
  6
Continuous
100
AcDbLine
 10
153.452309024363
 20
133.1120055044117
 30
0.0
 11
153.4242351317411
 21
133.101512111733
 31
0.0
  0
LINE
  5
22B
330
E3
100
AcDbEntity
  8
0
  6
Continuous
100
AcDbLine
 10
153.4242351317411
 20
133.101512111733
 30
0.0
 11
153.3935107762399
 21
133.0905543796496
 31
0.0
  0
LINE
  5
22C
330
E3
100
AcDbEntity
  8
0
  6
Continuous
100
AcDbLine
 10
153.3935107762399
 20
133.0905543796496
 30
0.0
 11
153.360379990247
 21
133.0791729802262
 31
0.0
  0
LINE
  5
22D
330
E3
100
AcDbEntity
  8
0
  6
Continuous
100
AcDbLine
 10
153.360379990247
 20
133.0791729802262
 30
0.0
 11
153.3250969741666
 21
133.0674119748661
 31
0.0
  0
LINE
  5
22E
330
E3
100
AcDbEntity
  8
0
  6
Continuous
100
AcDbLine
 10
153.3250969741666
 20
133.0674119748661
 30
0.0
 11
153.2879430431126
 21
133.0553188143114
 31
0.0
  0
LINE
  5
22F
330
E3
100
AcDbEntity
  8
0
  6
Continuous
100
AcDbLine
 10
153.2879430431126
 20
133.0553188143114
 30
0.0
 11
153.2492029015373
 21
133.0429477279816
 31
0.0
  0
LINE
  5
230
330
E3
100
AcDbEntity
  8
0
  6
Continuous
100
AcDbLine
 10
153.2492029015373
 20
133.0429477279816
 30
0.0
 11
153.2091815899256
 21
133.0303495559575
 31
0.0
  0
LINE
  5
231
330
E3
100
AcDbEntity
  8
0
  6
Continuous
100
AcDbLine
 10
153.2091815899256
 20
133.0303495559575
 30
0.0
 11
153.16819092744
 21
133.0175819169974
 31
0.0
  0
LINE
  5
232
330
E3
100
AcDbEntity
  8
0
  6
Continuous
100
AcDbLine
 10
153.16819092744
 20
133.0175819169974
 30
0.0
 11
153.12654951192
 21
133.0046990405208
 31
0.0
  0
LINE
  5
233
330
E3
100
AcDbEntity
  8
0
  6
Continuous
100
AcDbLine
 10
153.12654951192
 20
133.0046990405208
 30
0.0
 11
153.084579330544
 21
132.9917585452859
 31
0.0
  0
LINE
  5
234
330
E3
100
AcDbEntity
  8
0
  6
Continuous
100
AcDbLine
 10
153.084579330544
 20
132.9917585452859
 30
0.0
 11
153.0426125385069
 21
132.9788180500511
 31
0.0
  0
LINE
  5
235
330
E3
100
AcDbEntity
  8
0
  6
Continuous
100
AcDbLine
 10
153.0426125385069
 20
132.9788180500511
 30
0.0
 11
153.0009711229868
 21
132.9659351735745
 31
0.0
  0
LINE
  5
236
330
E3
100
AcDbEntity
  8
0
  6
Continuous
100
AcDbLine
 10
153.0009711229868
 20
132.9659351735745
 30
0.0
 11
152.9599804605012
 21
132.9531675346143
 31
0.0
  0
LINE
  5
237
330
E3
100
AcDbEntity
  8
0
  6
Continuous
100
AcDbLine
 10
152.9599804605012
 20
132.9531675346143
 30
0.0
 11
152.9199591488896
 21
132.9405693625903
 31
0.0
  0
LINE
  5
238
330
E3
100
AcDbEntity
  8
0
  6
Continuous
100
AcDbLine
 10
152.9199591488896
 20
132.9405693625903
 30
0.0
 11
152.8812190073143
 21
132.9281982762604
 31
0.0
  0
LINE
  5
239
330
E3
100
AcDbEntity
  8
0
  6
Continuous
100
AcDbLine
 10
152.8812190073143
 20
132.9281982762604
 30
0.0
 11
152.8440650762602
 21
132.9161051157057
 31
0.0
  0
LINE
  5
23A
330
E3
100
AcDbEntity
  8
0
  6
Continuous
100
AcDbLine
 10
152.8440650762602
 20
132.9161051157057
 30
0.0
 11
152.8087820601799
 21
132.9043441103456
 31
0.0
  0
LINE
  5
23B
330
E3
100
AcDbEntity
  8
0
  6
Continuous
100
AcDbLine
 10
152.8087820601799
 20
132.9043441103456
 30
0.0
 11
152.775651274187
 21
132.8929627109222
 31
0.0
  0
LINE
  5
23C
330
E3
100
AcDbEntity
  8
0
  6
Continuous
100
AcDbLine
 10
152.775651274187
 20
132.8929627109222
 30
0.0
 11
152.7449269186857
 21
132.8820015895001
 31
0.0
  0
LINE
  5
23D
330
E3
100
AcDbEntity
  8
0
  6
Continuous
100
AcDbLine
 10
152.7449269186857
 20
132.8820015895001
 30
0.0
 11
152.7168530260638
 21
132.8715115861602
 31
0.0
  0
LINE
  5
23E
330
E3
100
AcDbEntity
  8
0
  6
Continuous
100
AcDbLine
 10
152.7168530260638
 20
132.8715115861602
 30
0.0
 11
152.6916499033382
 21
132.8615265942896
 31
0.0
  0
LINE
  5
23F
330
E3
100
AcDbEntity
  8
0
  6
Continuous
100
AcDbLine
 10
152.6916499033382
 20
132.8615265942896
 30
0.0
 11
152.6695175214934
 21
132.8520838966143
 31
0.0
  0
LINE
  5
240
330
E3
100
AcDbEntity
  8
0
  6
Continuous
100
AcDbLine
 10
152.6695175214934
 20
132.8520838966143
 30
0.0
 11
152.650628736804
 21
132.8432139971827
 31
0.0
  0
LINE
  5
241
330
E3
100
AcDbEntity
  8
0
  6
Continuous
100
AcDbLine
 10
152.650628736804
 20
132.8432139971827
 30
0.0
 11
152.6351360695126
 21
132.834940621366
 31
0.0
  0
LINE
  5
242
330
E3
100
AcDbEntity
  8
0
  6
Continuous
100
AcDbLine
 10
152.6351360695126
 20
132.834940621366
 30
0.0
 11
152.6231683144906
 21
132.8272908838738
 31
0.0
  0
LINE
  5
243
330
E3
100
AcDbEntity
  8
0
  6
Continuous
100
AcDbLine
 10
152.6231683144906
 20
132.8272908838738
 30
0.0
 11
152.6148169838833
 21
132.8202783420611
 31
0.0
  0
LINE
  5
244
330
E3
100
AcDbEntity
  8
0
  6
Continuous
100
AcDbLine
 10
152.6148169838833
 20
132.8202783420611
 30
0.0
 11
152.6101581118786
 21
132.8139157191872
 31
0.0
  0
LINE
  5
245
330
E3
100
AcDbEntity
  8
0
  6
Continuous
100
AcDbLine
 10
152.6101581118786
 20
132.8139157191872
 30
0.0
 11
152.6092318515641
 21
132.8082118723147
 31
0.0
  0
LINE
  5
246
330
E3
100
AcDbEntity
  8
0
  6
Continuous
100
AcDbLine
 10
153.6281490680466
 20
132.7884156699257
 30
0.0
 11
153.6272228077321
 21
132.7827118230532
 31
0.0
  0
LINE
  5
247
330
E3
100
AcDbEntity
  8
0
  6
Continuous
100
AcDbLine
 10
153.6272228077321
 20
132.7827118230532
 30
0.0
 11
153.6225633169298
 21
132.7763497069205
 31
0.0
  0
LINE
  5
248
330
E3
100
AcDbEntity
  8
0
  6
Continuous
100
AcDbLine
 10
153.6225633169298
 20
132.7763497069205
 30
0.0
 11
153.6142143457024
 21
132.7693365810921
 31
0.0
  0
LINE
  5
249
330
E3
100
AcDbEntity
  8
0
  6
Continuous
100
AcDbLine
 10
153.6142143457024
 20
132.7693365810921
 30
0.0
 11
153.6022432013416
 21
132.7616868435999
 31
0.0
  0
LINE
  5
24A
330
E3
100
AcDbEntity
  8
0
  6
Continuous
100
AcDbLine
 10
153.6022432013416
 20
132.7616868435999
 30
0.0
 11
153.5867505340502
 21
132.7534134677832
 31
0.0
  0
LINE
  5
24B
330
E3
100
AcDbEntity
  8
0
  6
Continuous
100
AcDbLine
 10
153.5867505340502
 20
132.7534134677832
 30
0.0
 11
153.5678651386996
 21
132.7445435683516
 31
0.0
  0
LINE
  5
24C
330
E3
100
AcDbEntity
  8
0
  6
Continuous
100
AcDbLine
 10
153.5678651386996
 20
132.7445435683516
 30
0.0
 11
153.5457327568548
 21
132.7351008706763
 31
0.0
  0
LINE
  5
24D
330
E3
100
AcDbEntity
  8
0
  6
Continuous
100
AcDbLine
 10
153.5457327568548
 20
132.7351008706763
 30
0.0
 11
153.5205296341292
 21
132.7251158788058
 31
0.0
  0
LINE
  5
24E
330
E3
100
AcDbEntity
  8
0
  6
Continuous
100
AcDbLine
 10
153.5205296341292
 20
132.7251158788058
 30
0.0
 11
153.4924557415073
 21
132.7146258754658
 31
0.0
  0
LINE
  5
24F
330
E3
100
AcDbEntity
  8
0
  6
Continuous
100
AcDbLine
 10
153.4924557415073
 20
132.7146258754658
 30
0.0
 11
153.461731386006
 21
132.7036681433825
 31
0.0
  0
LINE
  5
250
330
E3
100
AcDbEntity
  8
0
  6
Continuous
100
AcDbLine
 10
153.461731386006
 20
132.7036681433825
 30
0.0
 11
153.4285972106744
 21
132.6922833546203
 31
0.0
  0
LINE
  5
251
330
E3
100
AcDbEntity
  8
0
  6
Continuous
100
AcDbLine
 10
153.4285972106744
 20
132.6922833546203
 30
0.0
 11
153.3933175839328
 21
132.6805223492602
 31
0.0
  0
LINE
  5
252
330
E3
100
AcDbEntity
  8
0
  6
Continuous
100
AcDbLine
 10
153.3933175839328
 20
132.6805223492602
 30
0.0
 11
153.3561602635399
 21
132.6684291887054
 31
0.0
  0
LINE
  5
253
330
E3
100
AcDbEntity
  8
0
  6
Continuous
100
AcDbLine
 10
153.3561602635399
 20
132.6684291887054
 30
0.0
 11
153.3174235113034
 21
132.6560581023757
 31
0.0
  0
LINE
  5
254
330
E3
100
AcDbEntity
  8
0
  6
Continuous
100
AcDbLine
 10
153.3174235113034
 20
132.6560581023757
 30
0.0
 11
153.2774021996918
 21
132.6434599303516
 31
0.0
  0
LINE
  5
255
330
E3
100
AcDbEntity
  8
0
  6
Continuous
100
AcDbLine
 10
153.2774021996918
 20
132.6434599303516
 30
0.0
 11
153.2364115372061
 21
132.6306922913915
 31
0.0
  0
LINE
  5
256
330
E3
100
AcDbEntity
  8
0
  6
Continuous
100
AcDbLine
 10
153.2364115372061
 20
132.6306922913915
 30
0.0
 11
153.1947667323474
 21
132.6178094149149
 31
0.0
  0
LINE
  5
257
330
E3
100
AcDbEntity
  8
0
  6
Continuous
100
AcDbLine
 10
153.1947667323474
 20
132.6178094149149
 30
0.0
 11
153.1527999403102
 21
132.60486891968
 31
0.0
  0
LINE
  5
258
330
E3
100
AcDbEntity
  8
0
  6
Continuous
100
AcDbLine
 10
153.1527999403102
 20
132.60486891968
 30
0.0
 11
153.110833148273
 21
132.5919284244451
 31
0.0
  0
LINE
  5
259
330
E3
100
AcDbEntity
  8
0
  6
Continuous
100
AcDbLine
 10
153.110833148273
 20
132.5919284244451
 30
0.0
 11
153.0691883434143
 21
132.5790455479685
 31
0.0
  0
LINE
  5
25A
330
E3
100
AcDbEntity
  8
0
  6
Continuous
100
AcDbLine
 10
153.0691883434143
 20
132.5790455479685
 30
0.0
 11
153.0281976809286
 21
132.5662779090084
 31
0.0
  0
LINE
  5
25B
330
E3
100
AcDbEntity
  8
0
  6
Continuous
100
AcDbLine
 10
153.0281976809286
 20
132.5662779090084
 30
0.0
 11
152.988176369317
 21
132.5536797369843
 31
0.0
  0
LINE
  5
25C
330
E3
100
AcDbEntity
  8
0
  6
Continuous
100
AcDbLine
 10
152.988176369317
 20
132.5536797369843
 30
0.0
 11
152.9494396170804
 21
132.5413086506545
 31
0.0
  0
LINE
  5
25D
330
E3
100
AcDbEntity
  8
0
  6
Continuous
100
AcDbLine
 10
152.9494396170804
 20
132.5413086506545
 30
0.0
 11
152.9122822966876
 21
132.5292154900998
 31
0.0
  0
LINE
  5
25E
330
E3
100
AcDbEntity
  8
0
  6
Continuous
100
AcDbLine
 10
152.9122822966876
 20
132.5292154900998
 30
0.0
 11
152.877002669946
 21
132.5174544847397
 31
0.0
  0
LINE
  5
25F
330
E3
100
AcDbEntity
  8
0
  6
Continuous
100
AcDbLine
 10
152.877002669946
 20
132.5174544847397
 30
0.0
 11
152.8438684946144
 21
132.5060730853162
 31
0.0
  0
LINE
  5
260
330
E3
100
AcDbEntity
  8
0
  6
Continuous
100
AcDbLine
 10
152.8438684946144
 20
132.5060730853162
 30
0.0
 11
152.8131441391131
 21
132.4951153532329
 31
0.0
  0
LINE
  5
261
330
E3
100
AcDbEntity
  8
0
  6
Continuous
100
AcDbLine
 10
152.8131441391131
 20
132.4951153532329
 30
0.0
 11
152.7850702464912
 21
132.484625349893
 31
0.0
  0
LINE
  5
262
330
E3
100
AcDbEntity
  8
0
  6
Continuous
100
AcDbLine
 10
152.7850702464912
 20
132.484625349893
 30
0.0
 11
152.7598671237656
 21
132.4746403580224
 31
0.0
  0
LINE
  5
263
330
E3
100
AcDbEntity
  8
0
  6
Continuous
100
AcDbLine
 10
152.7598671237656
 20
132.4746403580224
 30
0.0
 11
152.7377347419208
 21
132.4651976603471
 31
0.0
  0
LINE
  5
264
330
E3
100
AcDbEntity
  8
0
  6
Continuous
100
AcDbLine
 10
152.7377347419208
 20
132.4651976603471
 30
0.0
 11
152.7188493465702
 21
132.4563243715768
 31
0.0
  0
LINE
  5
265
330
E3
100
AcDbEntity
  8
0
  6
Continuous
100
AcDbLine
 10
152.7188493465702
 20
132.4563243715768
 30
0.0
 11
152.7033566792788
 21
132.4480543850988
 31
0.0
  0
LINE
  5
266
330
E3
100
AcDbEntity
  8
0
  6
Continuous
100
AcDbLine
 10
152.7033566792788
 20
132.4480543850988
 30
0.0
 11
152.691385534918
 21
132.4404012582679
 31
0.0
  0
LINE
  5
267
330
E3
100
AcDbEntity
  8
0
  6
Continuous
100
AcDbLine
 10
152.691385534918
 20
132.4404012582679
 30
0.0
 11
152.6830375936494
 21
132.4333887164552
 31
0.0
  0
LINE
  5
268
330
E3
100
AcDbEntity
  8
0
  6
Continuous
100
AcDbLine
 10
152.6830375936494
 20
132.4333887164552
 30
0.0
 11
152.6783770388191
 21
132.4270269590752
 31
0.0
  0
LINE
  5
269
330
E3
100
AcDbEntity
  8
0
  6
Continuous
100
AcDbLine
 10
152.6783770388191
 20
132.4270269590752
 30
0.0
 11
152.6774507785047
 21
132.4213231122027
 31
0.0
  0
LINE
  5
26A
330
E3
100
AcDbEntity
  8
0
  6
Continuous
100
AcDbLine
 10
153.6963679949872
 20
132.4015269098137
 30
0.0
 11
153.6954417346726
 21
132.3958230629412
 31
0.0
  0
LINE
  5
26B
330
E3
100
AcDbEntity
  8
0
  6
Continuous
100
AcDbLine
 10
153.6954417346726
 20
132.3958230629412
 30
0.0
 11
153.6907822438703
 21
132.3894609468086
 31
0.0
  0
LINE
  5
26C
330
E3
100
AcDbEntity
  8
0
  6
Continuous
100
AcDbLine
 10
153.6907822438703
 20
132.3894609468086
 30
0.0
 11
153.6824315661298
 21
132.3824469554862
 31
0.0
  0
LINE
  5
26D
330
E3
100
AcDbEntity
  8
0
  6
Continuous
100
AcDbLine
 10
153.6824315661298
 20
132.3824469554862
 30
0.0
 11
153.6704638111078
 21
132.374797217994
 31
0.0
  0
LINE
  5
26E
330
E3
100
AcDbEntity
  8
0
  6
Continuous
100
AcDbLine
 10
153.6704638111078
 20
132.374797217994
 30
0.0
 11
153.6549711438163
 21
132.3665238421773
 31
0.0
  0
LINE
  5
26F
330
E3
100
AcDbEntity
  8
0
  6
Continuous
100
AcDbLine
 10
153.6549711438163
 20
132.3665238421773
 30
0.0
 11
153.636082359127
 21
132.3576539427457
 31
0.0
  0
LINE
  5
270
330
E3
100
AcDbEntity
  8
0
  6
Continuous
100
AcDbLine
 10
153.636082359127
 20
132.3576539427457
 30
0.0
 11
153.6139499772822
 21
132.3482112450704
 31
0.0
  0
LINE
  5
271
330
E3
100
AcDbEntity
  8
0
  6
Continuous
100
AcDbLine
 10
153.6139499772822
 20
132.3482112450704
 30
0.0
 11
153.5887468545566
 21
132.3382262531998
 31
0.0
  0
LINE
  5
272
330
E3
100
AcDbEntity
  8
0
  6
Continuous
100
AcDbLine
 10
153.5887468545566
 20
132.3382262531998
 30
0.0
 11
153.5606729619347
 21
132.3277362498599
 31
0.0
  0
LINE
  5
273
330
E3
100
AcDbEntity
  8
0
  6
Continuous
100
AcDbLine
 10
153.5606729619347
 20
132.3277362498599
 30
0.0
 11
153.5299486064334
 21
132.3167785177765
 31
0.0
  0
LINE
  5
274
330
E3
100
AcDbEntity
  8
0
  6
Continuous
100
AcDbLine
 10
153.5299486064334
 20
132.3167785177765
 30
0.0
 11
153.4968178204406
 21
132.3053937290144
 31
0.0
  0
LINE
  5
275
330
E3
100
AcDbEntity
  8
0
  6
Continuous
100
AcDbLine
 10
153.4968178204406
 20
132.3053937290144
 30
0.0
 11
153.4615348043602
 21
132.2936327236543
 31
0.0
  0
LINE
  5
276
330
E3
100
AcDbEntity
  8
0
  6
Continuous
100
AcDbLine
 10
153.4615348043602
 20
132.2936327236543
 30
0.0
 11
153.4243808733061
 21
132.2815429524383
 31
0.0
  0
LINE
  5
277
330
E3
100
AcDbEntity
  8
0
  6
Continuous
100
AcDbLine
 10
153.4243808733061
 20
132.2815429524383
 30
0.0
 11
153.3856407317308
 21
132.2691684767697
 31
0.0
  0
LINE
  5
278
330
E3
100
AcDbEntity
  8
0
  6
Continuous
100
AcDbLine
 10
153.3856407317308
 20
132.2691684767697
 30
0.0
 11
153.3456194201192
 21
132.2565736940844
 31
0.0
  0
LINE
  5
279
330
E3
100
AcDbEntity
  8
0
  6
Continuous
100
AcDbLine
 10
153.3456194201192
 20
132.2565736940844
 30
0.0
 11
153.3046287576335
 21
132.2438060551243
 31
0.0
  0
LINE
  5
27A
330
E3
100
AcDbEntity
  8
0
  6
Continuous
100
AcDbLine
 10
153.3046287576335
 20
132.2438060551243
 30
0.0
 11
153.2629873421135
 21
132.2309197893089
 31
0.0
  0
LINE
  5
27B
330
E3
100
AcDbEntity
  8
0
  6
Continuous
100
AcDbLine
 10
153.2629873421135
 20
132.2309197893089
 30
0.0
 11
153.2210171607376
 21
132.2179792940741
 31
0.0
  0
LINE
  5
27C
330
E3
100
AcDbEntity
  8
0
  6
Continuous
100
AcDbLine
 10
153.2210171607376
 20
132.2179792940741
 30
0.0
 11
153.1790503687004
 21
132.2050387988392
 31
0.0
  0
LINE
  5
27D
330
E3
100
AcDbEntity
  8
0
  6
Continuous
100
AcDbLine
 10
153.1790503687004
 20
132.2050387988392
 30
0.0
 11
153.1374089531804
 21
132.1921559223626
 31
0.0
  0
LINE
  5
27E
330
E3
100
AcDbEntity
  8
0
  6
Continuous
100
AcDbLine
 10
153.1374089531804
 20
132.1921559223626
 30
0.0
 11
153.0964182906948
 21
132.1793882834025
 31
0.0
  0
LINE
  5
27F
330
E3
100
AcDbEntity
  8
0
  6
Continuous
100
AcDbLine
 10
153.0964182906948
 20
132.1793882834025
 30
0.0
 11
153.0563969790831
 21
132.1667901113784
 31
0.0
  0
LINE
  5
280
330
E3
100
AcDbEntity
  8
0
  6
Continuous
100
AcDbLine
 10
153.0563969790831
 20
132.1667901113784
 30
0.0
 11
153.0176568375078
 21
132.1544190250486
 31
0.0
  0
LINE
  5
281
330
E3
100
AcDbEntity
  8
0
  6
Continuous
100
AcDbLine
 10
153.0176568375078
 20
132.1544190250486
 30
0.0
 11
152.9805029064538
 21
132.1423292538326
 31
0.0
  0
LINE
  5
282
330
E3
100
AcDbEntity
  8
0
  6
Continuous
100
AcDbLine
 10
152.9805029064538
 20
132.1423292538326
 30
0.0
 11
152.9452198903734
 21
132.1305648591338
 31
0.0
  0
LINE
  5
283
330
E3
100
AcDbEntity
  8
0
  6
Continuous
100
AcDbLine
 10
152.9452198903734
 20
132.1305648591338
 30
0.0
 11
152.9120891043806
 21
132.1191834597103
 31
0.0
  0
LINE
  5
284
330
E3
100
AcDbEntity
  8
0
  6
Continuous
100
AcDbLine
 10
152.9120891043806
 20
132.1191834597103
 30
0.0
 11
152.8813647488793
 21
132.108225727627
 31
0.0
  0
LINE
  5
285
330
E3
100
AcDbEntity
  8
0
  6
Continuous
100
AcDbLine
 10
152.8813647488793
 20
132.108225727627
 30
0.0
 11
152.8532908562574
 21
132.097735724287
 31
0.0
  0
LINE
  5
286
330
E3
100
AcDbEntity
  8
0
  6
Continuous
100
AcDbLine
 10
152.8532908562574
 20
132.097735724287
 30
0.0
 11
152.8280877335318
 21
132.0877507324165
 31
0.0
  0
LINE
  5
287
330
E3
100
AcDbEntity
  8
0
  6
Continuous
100
AcDbLine
 10
152.8280877335318
 20
132.0877507324165
 30
0.0
 11
152.8059553516869
 21
132.0783080347412
 31
0.0
  0
LINE
  5
288
330
E3
100
AcDbEntity
  8
0
  6
Continuous
100
AcDbLine
 10
152.8059553516869
 20
132.0783080347412
 30
0.0
 11
152.7870665669977
 21
132.0694347459709
 31
0.0
  0
LINE
  5
289
330
E3
100
AcDbEntity
  8
0
  6
Continuous
100
AcDbLine
 10
152.7870665669977
 20
132.0694347459709
 30
0.0
 11
152.7715738997063
 21
132.0611647594929
 31
0.0
  0
LINE
  5
28A
330
E3
100
AcDbEntity
  8
0
  6
Continuous
100
AcDbLine
 10
152.7715738997063
 20
132.0611647594929
 30
0.0
 11
152.7596061446841
 21
132.053511632662
 31
0.0
  0
LINE
  5
28B
330
E3
100
AcDbEntity
  8
0
  6
Continuous
100
AcDbLine
 10
152.7596061446841
 20
132.053511632662
 30
0.0
 11
152.7512548140769
 21
132.0464990908493
 31
0.0
  0
LINE
  5
28C
330
E3
100
AcDbEntity
  8
0
  6
Continuous
100
AcDbLine
 10
152.7512548140769
 20
132.0464990908493
 30
0.0
 11
152.7465959657598
 21
132.0401381989633
 31
0.0
  0
LINE
  5
28D
330
E3
100
AcDbEntity
  8
0
  6
Continuous
100
AcDbLine
 10
152.7465959657598
 20
132.0401381989633
 30
0.0
 11
152.7456697054452
 21
132.0344343520908
 31
0.0
  0
LINE
  5
28E
330
E3
100
AcDbEntity
  8
0
  6
Continuous
100
AcDbLine
 10
153.7645869219277
 20
132.0146381497018
 30
0.0
 11
153.7636606616132
 21
132.0089343028293
 31
0.0
  0
LINE
  5
28F
330
E3
100
AcDbEntity
  8
0
  6
Continuous
100
AcDbLine
 10
153.7636606616132
 20
132.0089343028293
 30
0.0
 11
153.7590011708109
 21
132.0025721866967
 31
0.0
  0
LINE
  5
290
330
E3
100
AcDbEntity
  8
0
  6
Continuous
100
AcDbLine
 10
153.7590011708109
 20
132.0025721866967
 30
0.0
 11
153.750652175896
 21
131.995560719219
 31
0.0
  0
LINE
  5
291
330
E3
100
AcDbEntity
  8
0
  6
Continuous
100
AcDbLine
 10
153.750652175896
 20
131.995560719219
 30
0.0
 11
153.7386810315352
 21
131.9879075923881
 31
0.0
  0
LINE
  5
292
330
E3
100
AcDbEntity
  8
0
  6
Continuous
100
AcDbLine
 10
153.7386810315352
 20
131.9879075923881
 30
0.0
 11
153.7231883642438
 21
131.9796376059101
 31
0.0
  0
LINE
  5
293
330
E3
100
AcDbEntity
  8
0
  6
Continuous
100
AcDbLine
 10
153.7231883642438
 20
131.9796376059101
 30
0.0
 11
153.7043029688932
 21
131.9707643171398
 31
0.0
  0
LINE
  5
294
330
E3
100
AcDbEntity
  8
0
  6
Continuous
100
AcDbLine
 10
153.7043029688932
 20
131.9707643171398
 30
0.0
 11
153.6821705870483
 21
131.9613216194645
 31
0.0
  0
LINE
  5
295
330
E3
100
AcDbEntity
  8
0
  6
Continuous
100
AcDbLine
 10
153.6821705870483
 20
131.9613216194645
 30
0.0
 11
153.6569674643227
 21
131.9513366275939
 31
0.0
  0
LINE
  5
296
330
E3
100
AcDbEntity
  8
0
  6
Continuous
100
AcDbLine
 10
153.6569674643227
 20
131.9513366275939
 30
0.0
 11
153.6288935717008
 21
131.940846624254
 31
0.0
  0
LINE
  5
297
330
E3
100
AcDbEntity
  8
0
  6
Continuous
100
AcDbLine
 10
153.6288935717008
 20
131.940846624254
 30
0.0
 11
153.5981692161996
 21
131.9298888921706
 31
0.0
  0
LINE
  5
298
330
E3
100
AcDbEntity
  8
0
  6
Continuous
100
AcDbLine
 10
153.5981692161996
 20
131.9298888921706
 30
0.0
 11
153.565035040868
 21
131.9185074927472
 31
0.0
  0
LINE
  5
299
330
E3
100
AcDbEntity
  8
0
  6
Continuous
100
AcDbLine
 10
153.565035040868
 20
131.9185074927472
 30
0.0
 11
153.5297554141263
 21
131.9067430980484
 31
0.0
  0
LINE
  5
29A
330
E3
100
AcDbEntity
  8
0
  6
Continuous
100
AcDbLine
 10
153.5297554141263
 20
131.9067430980484
 30
0.0
 11
153.4925980937336
 21
131.8946533268323
 31
0.0
  0
LINE
  5
29B
330
E3
100
AcDbEntity
  8
0
  6
Continuous
100
AcDbLine
 10
153.4925980937336
 20
131.8946533268323
 30
0.0
 11
153.453861341497
 21
131.8822822405025
 31
0.0
  0
LINE
  5
29C
330
E3
100
AcDbEntity
  8
0
  6
Continuous
100
AcDbLine
 10
153.453861341497
 20
131.8822822405025
 30
0.0
 11
153.4138400298854
 21
131.8696840684784
 31
0.0
  0
LINE
  5
29D
330
E3
100
AcDbEntity
  8
0
  6
Continuous
100
AcDbLine
 10
153.4138400298854
 20
131.8696840684784
 30
0.0
 11
153.3728493673997
 21
131.8569164295183
 31
0.0
  0
LINE
  5
29E
330
E3
100
AcDbEntity
  8
0
  6
Continuous
100
AcDbLine
 10
153.3728493673997
 20
131.8569164295183
 30
0.0
 11
153.331204562541
 21
131.8440335530417
 31
0.0
  0
LINE
  5
29F
330
E3
100
AcDbEntity
  8
0
  6
Continuous
100
AcDbLine
 10
153.331204562541
 20
131.8440335530417
 30
0.0
 11
153.2892377705038
 21
131.8310930578069
 31
0.0
  0
LINE
  5
2A0
330
E3
100
AcDbEntity
  8
0
  6
Continuous
100
AcDbLine
 10
153.2892377705038
 20
131.8310930578069
 30
0.0
 11
153.2472709784666
 21
131.818152562572
 31
0.0
  0
LINE
  5
2A1
330
E3
100
AcDbEntity
  8
0
  6
Continuous
100
AcDbLine
 10
153.2472709784666
 20
131.818152562572
 30
0.0
 11
153.2056261736079
 21
131.8052696860954
 31
0.0
  0
LINE
  5
2A2
330
E3
100
AcDbEntity
  8
0
  6
Continuous
100
AcDbLine
 10
153.2056261736079
 20
131.8052696860954
 30
0.0
 11
153.1646355111222
 21
131.7924986577966
 31
0.0
  0
LINE
  5
2A3
330
E3
100
AcDbEntity
  8
0
  6
Continuous
100
AcDbLine
 10
153.1646355111222
 20
131.7924986577966
 30
0.0
 11
153.1246141995106
 21
131.7799038751112
 31
0.0
  0
LINE
  5
2A4
330
E3
100
AcDbEntity
  8
0
  6
Continuous
100
AcDbLine
 10
153.1246141995106
 20
131.7799038751112
 30
0.0
 11
153.085877447274
 21
131.7675327887814
 31
0.0
  0
LINE
  5
2A5
330
E3
100
AcDbEntity
  8
0
  6
Continuous
100
AcDbLine
 10
153.085877447274
 20
131.7675327887814
 30
0.0
 11
153.0487201268812
 21
131.7554396282267
 31
0.0
  0
LINE
  5
2A6
330
E3
100
AcDbEntity
  8
0
  6
Continuous
100
AcDbLine
 10
153.0487201268812
 20
131.7554396282267
 30
0.0
 11
153.0134405001396
 21
131.7436786228666
 31
0.0
  0
LINE
  5
2A7
330
E3
100
AcDbEntity
  8
0
  6
Continuous
100
AcDbLine
 10
153.0134405001396
 20
131.7436786228666
 30
0.0
 11
152.980306324808
 21
131.7322938341044
 31
0.0
  0
LINE
  5
2A8
330
E3
100
AcDbEntity
  8
0
  6
Continuous
100
AcDbLine
 10
152.980306324808
 20
131.7322938341044
 30
0.0
 11
152.9495819693067
 21
131.721336102021
 31
0.0
  0
LINE
  5
2A9
330
E3
100
AcDbEntity
  8
0
  6
Continuous
100
AcDbLine
 10
152.9495819693067
 20
131.721336102021
 30
0.0
 11
152.9215080766848
 21
131.7108460986811
 31
0.0
  0
LINE
  5
2AA
330
E3
100
AcDbEntity
  8
0
  6
Continuous
100
AcDbLine
 10
152.9215080766848
 20
131.7108460986811
 30
0.0
 11
152.8963049539592
 21
131.7008611068105
 31
0.0
  0
LINE
  5
2AB
330
E3
100
AcDbEntity
  8
0
  6
Continuous
100
AcDbLine
 10
152.8963049539592
 20
131.7008611068105
 30
0.0
 11
152.8741725721144
 21
131.6914184091352
 31
0.0
  0
LINE
  5
2AC
330
E3
100
AcDbEntity
  8
0
  6
Continuous
100
AcDbLine
 10
152.8741725721144
 20
131.6914184091352
 30
0.0
 11
152.8552871767638
 21
131.6825485097037
 31
0.0
  0
LINE
  5
2AD
330
E3
100
AcDbEntity
  8
0
  6
Continuous
100
AcDbLine
 10
152.8552871767638
 20
131.6825485097037
 30
0.0
 11
152.8397945094724
 21
131.674275133887
 31
0.0
  0
LINE
  5
2AE
330
E3
100
AcDbEntity
  8
0
  6
Continuous
100
AcDbLine
 10
152.8397945094724
 20
131.674275133887
 30
0.0
 11
152.8278233651116
 21
131.6666253963948
 31
0.0
  0
LINE
  5
2AF
330
E3
100
AcDbEntity
  8
0
  6
Continuous
100
AcDbLine
 10
152.8278233651116
 20
131.6666253963948
 30
0.0
 11
152.819475423843
 21
131.6596128545821
 31
0.0
  0
LINE
  5
2B0
330
E3
100
AcDbEntity
  8
0
  6
Continuous
100
AcDbLine
 10
152.819475423843
 20
131.6596128545821
 30
0.0
 11
152.8148148927003
 21
131.6532494388514
 31
0.0
  0
LINE
  5
2B1
330
E3
100
AcDbEntity
  8
0
  6
Continuous
100
AcDbLine
 10
152.8148148927003
 20
131.6532494388514
 30
0.0
 11
152.8138886323858
 21
131.6475455919789
 31
0.0
  0
LINE
  5
2B2
330
E3
100
AcDbEntity
  8
0
  6
Continuous
100
AcDbLine
 10
153.8328058488683
 20
131.6277493895898
 30
0.0
 11
153.8318795885538
 21
131.6220455427174
 31
0.0
  0
LINE
  5
2B3
330
E3
100
AcDbEntity
  8
0
  6
Continuous
100
AcDbLine
 10
153.8318795885538
 20
131.6220455427174
 30
0.0
 11
153.8272200977515
 21
131.6156834265847
 31
0.0
  0
LINE
  5
2B4
330
E3
100
AcDbEntity
  8
0
  6
Continuous
100
AcDbLine
 10
153.8272200977515
 20
131.6156834265847
 30
0.0
 11
153.8188693963234
 21
131.6086710936131
 31
0.0
  0
LINE
  5
2B5
330
E3
100
AcDbEntity
  8
0
  6
Continuous
100
AcDbLine
 10
153.8188693963234
 20
131.6086710936131
 30
0.0
 11
153.8069016413013
 21
131.6010179667822
 31
0.0
  0
LINE
  5
2B6
330
E3
100
AcDbEntity
  8
0
  6
Continuous
100
AcDbLine
 10
153.8069016413013
 20
131.6010179667822
 30
0.0
 11
153.79140897401
 21
131.5927479803042
 31
0.0
  0
LINE
  5
2B7
330
E3
100
AcDbEntity
  8
0
  6
Continuous
100
AcDbLine
 10
153.79140897401
 20
131.5927479803042
 30
0.0
 11
153.7725201893206
 21
131.5838780808726
 31
0.0
  0
LINE
  5
2B8
330
E3
100
AcDbEntity
  8
0
  6
Continuous
100
AcDbLine
 10
153.7725201893206
 20
131.5838780808726
 30
0.0
 11
153.7503878074757
 21
131.5744319938586
 31
0.0
  0
LINE
  5
2B9
330
E3
100
AcDbEntity
  8
0
  6
Continuous
100
AcDbLine
 10
153.7503878074757
 20
131.5744319938586
 30
0.0
 11
153.7251846847502
 21
131.5644503913267
 31
0.0
  0
LINE
  5
2BA
330
E3
100
AcDbEntity
  8
0
  6
Continuous
100
AcDbLine
 10
153.7251846847502
 20
131.5644503913267
 30
0.0
 11
153.6971107921283
 21
131.5539569986481
 31
0.0
  0
LINE
  5
2BB
330
E3
100
AcDbEntity
  8
0
  6
Continuous
100
AcDbLine
 10
153.6971107921283
 20
131.5539569986481
 30
0.0
 11
153.666386436627
 21
131.5429992665647
 31
0.0
  0
LINE
  5
2BC
330
E3
100
AcDbEntity
  8
0
  6
Continuous
100
AcDbLine
 10
153.666386436627
 20
131.5429992665647
 30
0.0
 11
153.6332556506341
 21
131.5316178671413
 31
0.0
  0
LINE
  5
2BD
330
E3
100
AcDbEntity
  8
0
  6
Continuous
100
AcDbLine
 10
153.6332556506341
 20
131.5316178671413
 30
0.0
 11
153.5979726345538
 21
131.5198568617812
 31
0.0
  0
LINE
  5
2BE
330
E3
100
AcDbEntity
  8
0
  6
Continuous
100
AcDbLine
 10
153.5979726345538
 20
131.5198568617812
 30
0.0
 11
153.5608187034997
 21
131.5077637012265
 31
0.0
  0
LINE
  5
2BF
330
E3
100
AcDbEntity
  8
0
  6
Continuous
100
AcDbLine
 10
153.5608187034997
 20
131.5077637012265
 30
0.0
 11
153.5220785619244
 21
131.4953926148966
 31
0.0
  0
LINE
  5
2C0
330
E3
100
AcDbEntity
  8
0
  6
Continuous
100
AcDbLine
 10
153.5220785619244
 20
131.4953926148966
 30
0.0
 11
153.4820572503128
 21
131.4827944428725
 31
0.0
  0
LINE
  5
2C1
330
E3
100
AcDbEntity
  8
0
  6
Continuous
100
AcDbLine
 10
153.4820572503128
 20
131.4827944428725
 30
0.0
 11
153.4410665878271
 21
131.4700268039124
 31
0.0
  0
LINE
  5
2C2
330
E3
100
AcDbEntity
  8
0
  6
Continuous
100
AcDbLine
 10
153.4410665878271
 20
131.4700268039124
 30
0.0
 11
153.3994251723071
 21
131.4571439274358
 31
0.0
  0
LINE
  5
2C3
330
E3
100
AcDbEntity
  8
0
  6
Continuous
100
AcDbLine
 10
153.3994251723071
 20
131.4571439274358
 30
0.0
 11
153.3574583802699
 21
131.444203432201
 31
0.0
  0
LINE
  5
2C4
330
E3
100
AcDbEntity
  8
0
  6
Continuous
100
AcDbLine
 10
153.3574583802699
 20
131.444203432201
 30
0.0
 11
153.315488198894
 21
131.4312629369661
 31
0.0
  0
LINE
  5
2C5
330
E3
100
AcDbEntity
  8
0
  6
Continuous
100
AcDbLine
 10
153.315488198894
 20
131.4312629369661
 30
0.0
 11
153.273846783374
 21
131.4183800604895
 31
0.0
  0
LINE
  5
2C6
330
E3
100
AcDbEntity
  8
0
  6
Continuous
100
AcDbLine
 10
153.273846783374
 20
131.4183800604895
 30
0.0
 11
153.2328561208883
 21
131.4056124215294
 31
0.0
  0
LINE
  5
2C7
330
E3
100
AcDbEntity
  8
0
  6
Continuous
100
AcDbLine
 10
153.2328561208883
 20
131.4056124215294
 30
0.0
 11
153.1928348092767
 21
131.3930142495053
 31
0.0
  0
LINE
  5
2C8
330
E3
100
AcDbEntity
  8
0
  6
Continuous
100
AcDbLine
 10
153.1928348092767
 20
131.3930142495053
 30
0.0
 11
153.1540946677014
 21
131.3806431631755
 31
0.0
  0
LINE
  5
2C9
330
E3
100
AcDbEntity
  8
0
  6
Continuous
100
AcDbLine
 10
153.1540946677014
 20
131.3806431631755
 30
0.0
 11
153.1169407366474
 21
131.3685500026208
 31
0.0
  0
LINE
  5
2CA
330
E3
100
AcDbEntity
  8
0
  6
Continuous
100
AcDbLine
 10
153.1169407366474
 20
131.3685500026208
 30
0.0
 11
153.081657720567
 21
131.3567889972607
 31
0.0
  0
LINE
  5
2CB
330
E3
100
AcDbEntity
  8
0
  6
Continuous
100
AcDbLine
 10
153.081657720567
 20
131.3567889972607
 30
0.0
 11
153.0485269345741
 21
131.3454075978372
 31
0.0
  0
LINE
  5
2CC
330
E3
100
AcDbEntity
  8
0
  6
Continuous
100
AcDbLine
 10
153.0485269345741
 20
131.3454075978372
 30
0.0
 11
153.0178025790728
 21
131.3344464764151
 31
0.0
  0
LINE
  5
2CD
330
E3
100
AcDbEntity
  8
0
  6
Continuous
100
AcDbLine
 10
153.0178025790728
 20
131.3344464764151
 30
0.0
 11
152.989728686451
 21
131.3239564730752
 31
0.0
  0
LINE
  5
2CE
330
E3
100
AcDbEntity
  8
0
  6
Continuous
100
AcDbLine
 10
152.989728686451
 20
131.3239564730752
 30
0.0
 11
152.9645255637254
 21
131.3139714812046
 31
0.0
  0
LINE
  5
2CF
330
E3
100
AcDbEntity
  8
0
  6
Continuous
100
AcDbLine
 10
152.9645255637254
 20
131.3139714812046
 30
0.0
 11
152.9423931818805
 21
131.3045287835293
 31
0.0
  0
LINE
  5
2D0
330
E3
100
AcDbEntity
  8
0
  6
Continuous
100
AcDbLine
 10
152.9423931818805
 20
131.3045287835293
 30
0.0
 11
152.9235043971912
 21
131.2956588840978
 31
0.0
  0
LINE
  5
2D1
330
E3
100
AcDbEntity
  8
0
  6
Continuous
100
AcDbLine
 10
152.9235043971912
 20
131.2956588840978
 30
0.0
 11
152.9080117298998
 21
131.287385508281
 31
0.0
  0
LINE
  5
2D2
330
E3
100
AcDbEntity
  8
0
  6
Continuous
100
AcDbLine
 10
152.9080117298998
 20
131.287385508281
 30
0.0
 11
152.8960439748778
 21
131.2797357707889
 31
0.0
  0
LINE
  5
2D3
330
E3
100
AcDbEntity
  8
0
  6
Continuous
100
AcDbLine
 10
152.8960439748778
 20
131.2797357707889
 30
0.0
 11
152.8876926442704
 21
131.2727232289762
 31
0.0
  0
LINE
  5
2D4
330
E3
100
AcDbEntity
  8
0
  6
Continuous
100
AcDbLine
 10
152.8876926442704
 20
131.2727232289762
 30
0.0
 11
152.8830338196409
 21
131.2663606787394
 31
0.0
  0
LINE
  5
2D5
330
E3
100
AcDbEntity
  8
0
  6
Continuous
100
AcDbLine
 10
152.8830338196409
 20
131.2663606787394
 30
0.0
 11
152.8821075593264
 21
131.260656831867
 31
0.0
  0
LINE
  5
2D6
330
E3
100
AcDbEntity
  8
0
  6
Continuous
100
AcDbLine
 10
153.9010247758089
 20
131.2408606294779
 30
0.0
 11
153.9000985154944
 21
131.2351567826055
 31
0.0
  0
LINE
  5
2D7
330
E3
100
AcDbEntity
  8
0
  6
Continuous
100
AcDbLine
 10
153.9000985154944
 20
131.2351567826055
 30
0.0
 11
153.8954390246921
 21
131.2287946664727
 31
0.0
  0
LINE
  5
2D8
330
E3
100
AcDbEntity
  8
0
  6
Continuous
100
AcDbLine
 10
153.8954390246921
 20
131.2287946664727
 30
0.0
 11
153.8870900060895
 21
131.2217814680071
 31
0.0
  0
LINE
  5
2D9
330
E3
100
AcDbEntity
  8
0
  6
Continuous
100
AcDbLine
 10
153.8870900060895
 20
131.2217814680071
 30
0.0
 11
153.8751188617287
 21
131.214131730515
 31
0.0
  0
LINE
  5
2DA
330
E3
100
AcDbEntity
  8
0
  6
Continuous
100
AcDbLine
 10
153.8751188617287
 20
131.214131730515
 30
0.0
 11
153.8596261944373
 21
131.2058583546982
 31
0.0
  0
LINE
  5
2DB
330
E3
100
AcDbEntity
  8
0
  6
Continuous
100
AcDbLine
 10
153.8596261944373
 20
131.2058583546982
 30
0.0
 11
153.8407407990868
 21
131.1969884552667
 31
0.0
  0
LINE
  5
2DC
330
E3
100
AcDbEntity
  8
0
  6
Continuous
100
AcDbLine
 10
153.8407407990868
 20
131.1969884552667
 30
0.0
 11
153.8186084172419
 21
131.1875457575914
 31
0.0
  0
LINE
  5
2DD
330
E3
100
AcDbEntity
  8
0
  6
Continuous
100
AcDbLine
 10
153.8186084172419
 20
131.1875457575914
 30
0.0
 11
153.7934052945163
 21
131.1775607657208
 31
0.0
  0
LINE
  5
2DE
330
E3
100
AcDbEntity
  8
0
  6
Continuous
100
AcDbLine
 10
153.7934052945163
 20
131.1775607657208
 30
0.0
 11
153.7653314018944
 21
131.1670707623809
 31
0.0
  0
LINE
  5
2DF
330
E3
100
AcDbEntity
  8
0
  6
Continuous
100
AcDbLine
 10
153.7653314018944
 20
131.1670707623809
 30
0.0
 11
153.7346070463931
 21
131.1561130302975
 31
0.0
  0
LINE
  5
2E0
330
E3
100
AcDbEntity
  8
0
  6
Continuous
100
AcDbLine
 10
153.7346070463931
 20
131.1561130302975
 30
0.0
 11
153.7014728710616
 21
131.1447282415354
 31
0.0
  0
LINE
  5
2E1
330
E3
100
AcDbEntity
  8
0
  6
Continuous
100
AcDbLine
 10
153.7014728710616
 20
131.1447282415354
 30
0.0
 11
153.6661932443199
 21
131.1329672361752
 31
0.0
  0
LINE
  5
2E2
330
E3
100
AcDbEntity
  8
0
  6
Continuous
100
AcDbLine
 10
153.6661932443199
 20
131.1329672361752
 30
0.0
 11
153.6290359239271
 21
131.1208740756205
 31
0.0
  0
LINE
  5
2E3
330
E3
100
AcDbEntity
  8
0
  6
Continuous
100
AcDbLine
 10
153.6290359239271
 20
131.1208740756205
 30
0.0
 11
153.5902991716906
 21
131.1085029892907
 31
0.0
  0
LINE
  5
2E4
330
E3
100
AcDbEntity
  8
0
  6
Continuous
100
AcDbLine
 10
153.5902991716906
 20
131.1085029892907
 30
0.0
 11
153.5502778600789
 21
131.0959048172666
 31
0.0
  0
LINE
  5
2E5
330
E3
100
AcDbEntity
  8
0
  6
Continuous
100
AcDbLine
 10
153.5502778600789
 20
131.0959048172666
 30
0.0
 11
153.5092871975933
 21
131.0831371783065
 31
0.0
  0
LINE
  5
2E6
330
E3
100
AcDbEntity
  8
0
  6
Continuous
100
AcDbLine
 10
153.5092871975933
 20
131.0831371783065
 30
0.0
 11
153.4676423927345
 21
131.0702543018299
 31
0.0
  0
LINE
  5
2E7
330
E3
100
AcDbEntity
  8
0
  6
Continuous
100
AcDbLine
 10
153.4676423927345
 20
131.0702543018299
 30
0.0
 11
153.4256756006974
 21
131.0573138065951
 31
0.0
  0
LINE
  5
2E8
330
E3
100
AcDbEntity
  8
0
  6
Continuous
100
AcDbLine
 10
153.4256756006974
 20
131.0573138065951
 30
0.0
 11
153.3837088086601
 21
131.0443733113602
 31
0.0
  0
LINE
  5
2E9
330
E3
100
AcDbEntity
  8
0
  6
Continuous
100
AcDbLine
 10
153.3837088086601
 20
131.0443733113602
 30
0.0
 11
153.3420640038014
 21
131.0314904348836
 31
0.0
  0
LINE
  5
2EA
330
E3
100
AcDbEntity
  8
0
  6
Continuous
100
AcDbLine
 10
153.3420640038014
 20
131.0314904348836
 30
0.0
 11
153.3010733413157
 21
131.0187227959235
 31
0.0
  0
LINE
  5
2EB
330
E3
100
AcDbEntity
  8
0
  6
Continuous
100
AcDbLine
 10
153.3010733413157
 20
131.0187227959235
 30
0.0
 11
153.2610520297041
 21
131.0061246238994
 31
0.0
  0
LINE
  5
2EC
330
E3
100
AcDbEntity
  8
0
  6
Continuous
100
AcDbLine
 10
153.2610520297041
 20
131.0061246238994
 30
0.0
 11
153.2223152774675
 21
130.9937535375696
 31
0.0
  0
LINE
  5
2ED
330
E3
100
AcDbEntity
  8
0
  6
Continuous
100
AcDbLine
 10
153.2223152774675
 20
130.9937535375696
 30
0.0
 11
153.1851579570748
 21
130.9816603770149
 31
0.0
  0
LINE
  5
2EE
330
E3
100
AcDbEntity
  8
0
  6
Continuous
100
AcDbLine
 10
153.1851579570748
 20
130.9816603770149
 30
0.0
 11
153.1498783303331
 21
130.9698993716547
 31
0.0
  0
LINE
  5
2EF
330
E3
100
AcDbEntity
  8
0
  6
Continuous
100
AcDbLine
 10
153.1498783303331
 20
130.9698993716547
 30
0.0
 11
153.1167441550016
 21
130.9585179722313
 31
0.0
  0
LINE
  5
2F0
330
E3
100
AcDbEntity
  8
0
  6
Continuous
100
AcDbLine
 10
153.1167441550016
 20
130.9585179722313
 30
0.0
 11
153.0860197995003
 21
130.9475602401479
 31
0.0
  0
LINE
  5
2F1
330
E3
100
AcDbEntity
  8
0
  6
Continuous
100
AcDbLine
 10
153.0860197995003
 20
130.9475602401479
 30
0.0
 11
153.0579459068784
 21
130.937070236808
 31
0.0
  0
LINE
  5
2F2
330
E3
100
AcDbEntity
  8
0
  6
Continuous
100
AcDbLine
 10
153.0579459068784
 20
130.937070236808
 30
0.0
 11
153.0327427841528
 21
130.9270852449374
 31
0.0
  0
LINE
  5
2F3
330
E3
100
AcDbEntity
  8
0
  6
Continuous
100
AcDbLine
 10
153.0327427841528
 20
130.9270852449374
 30
0.0
 11
153.0106104023079
 21
130.9176425472621
 31
0.0
  0
LINE
  5
2F4
330
E3
100
AcDbEntity
  8
0
  6
Continuous
100
AcDbLine
 10
153.0106104023079
 20
130.9176425472621
 30
0.0
 11
152.9917250069574
 21
130.9087692584919
 31
0.0
  0
LINE
  5
2F5
330
E3
100
AcDbEntity
  8
0
  6
Continuous
100
AcDbLine
 10
152.9917250069574
 20
130.9087692584919
 30
0.0
 11
152.976232339666
 21
130.9004992720139
 31
0.0
  0
LINE
  5
2F6
330
E3
100
AcDbEntity
  8
0
  6
Continuous
100
AcDbLine
 10
152.976232339666
 20
130.9004992720139
 30
0.0
 11
152.9642611953051
 21
130.892846145183
 31
0.0
  0
LINE
  5
2F7
330
E3
100
AcDbEntity
  8
0
  6
Continuous
100
AcDbLine
 10
152.9642611953051
 20
130.892846145183
 30
0.0
 11
152.9559132540366
 21
130.8858336033703
 31
0.0
  0
LINE
  5
2F8
330
E3
100
AcDbEntity
  8
0
  6
Continuous
100
AcDbLine
 10
152.9559132540366
 20
130.8858336033703
 30
0.0
 11
152.9512527465815
 21
130.8794719186275
 31
0.0
  0
LINE
  5
2F9
330
E3
100
AcDbEntity
  8
0
  6
Continuous
100
AcDbLine
 10
152.9512527465815
 20
130.8794719186275
 30
0.0
 11
152.950326486267
 21
130.873768071755
 31
0.0
  0
LINE
  5
2FA
330
E3
100
AcDbEntity
  8
0
  6
Continuous
100
AcDbLine
 10
153.9692437027495
 20
130.853971869366
 30
0.0
 11
153.968317442435
 21
130.8482680224935
 31
0.0
  0
LINE
  5
2FB
330
E3
100
AcDbEntity
  8
0
  6
Continuous
100
AcDbLine
 10
153.968317442435
 20
130.8482680224935
 30
0.0
 11
153.9636579516327
 21
130.8419059063608
 31
0.0
  0
LINE
  5
2FC
330
E3
100
AcDbEntity
  8
0
  6
Continuous
100
AcDbLine
 10
153.9636579516327
 20
130.8419059063608
 30
0.0
 11
153.955307226517
 21
130.8348918424012
 31
0.0
  0
LINE
  5
2FD
330
E3
100
AcDbEntity
  8
0
  6
Continuous
100
AcDbLine
 10
153.955307226517
 20
130.8348918424012
 30
0.0
 11
153.9433394714949
 21
130.827242104909
 31
0.0
  0
LINE
  5
2FE
330
E3
100
AcDbEntity
  8
0
  6
Continuous
100
AcDbLine
 10
153.9433394714949
 20
130.827242104909
 30
0.0
 11
153.9278468042035
 21
130.8189687290923
 31
0.0
  0
LINE
  5
2FF
330
E3
100
AcDbEntity
  8
0
  6
Continuous
100
AcDbLine
 10
153.9278468042035
 20
130.8189687290923
 30
0.0
 11
153.9089580195142
 21
130.8100988296608
 31
0.0
  0
LINE
  5
300
330
E3
100
AcDbEntity
  8
0
  6
Continuous
100
AcDbLine
 10
153.9089580195142
 20
130.8100988296608
 30
0.0
 11
153.8868256376693
 21
130.8006561319855
 31
0.0
  0
LINE
  5
301
330
E3
100
AcDbEntity
  8
0
  6
Continuous
100
AcDbLine
 10
153.8868256376693
 20
130.8006561319855
 30
0.0
 11
153.8616225149437
 21
130.7906711401149
 31
0.0
  0
LINE
  5
302
330
E3
100
AcDbEntity
  8
0
  6
Continuous
100
AcDbLine
 10
153.8616225149437
 20
130.7906711401149
 30
0.0
 11
153.8335486223218
 21
130.780181136775
 31
0.0
  0
LINE
  5
303
330
E3
100
AcDbEntity
  8
0
  6
Continuous
100
AcDbLine
 10
153.8335486223218
 20
130.780181136775
 30
0.0
 11
153.8028242668206
 21
130.7692234046916
 31
0.0
  0
LINE
  5
304
330
E3
100
AcDbEntity
  8
0
  6
Continuous
100
AcDbLine
 10
153.8028242668206
 20
130.7692234046916
 30
0.0
 11
153.7696934808277
 21
130.7578386159295
 31
0.0
  0
LINE
  5
305
330
E3
100
AcDbEntity
  8
0
  6
Continuous
100
AcDbLine
 10
153.7696934808277
 20
130.7578386159295
 30
0.0
 11
153.7344104647473
 21
130.7460776105693
 31
0.0
  0
LINE
  5
306
330
E3
100
AcDbEntity
  8
0
  6
Continuous
100
AcDbLine
 10
153.7344104647473
 20
130.7460776105693
 30
0.0
 11
153.6972565336933
 21
130.7339878393533
 31
0.0
  0
LINE
  5
307
330
E3
100
AcDbEntity
  8
0
  6
Continuous
100
AcDbLine
 10
153.6972565336933
 20
130.7339878393533
 30
0.0
 11
153.658516392118
 21
130.7216133636848
 31
0.0
  0
LINE
  5
308
330
E3
100
AcDbEntity
  8
0
  6
Continuous
100
AcDbLine
 10
153.658516392118
 20
130.7216133636848
 30
0.0
 11
153.6184950805064
 21
130.7090185809994
 31
0.0
  0
LINE
  5
309
330
E3
100
AcDbEntity
  8
0
  6
Continuous
100
AcDbLine
 10
153.6184950805064
 20
130.7090185809994
 30
0.0
 11
153.5775044180207
 21
130.6962509420393
 31
0.0
  0
LINE
  5
30A
330
E3
100
AcDbEntity
  8
0
  6
Continuous
100
AcDbLine
 10
153.5775044180207
 20
130.6962509420393
 30
0.0
 11
153.5358630025007
 21
130.683364676224
 31
0.0
  0
LINE
  5
30B
330
E3
100
AcDbEntity
  8
0
  6
Continuous
100
AcDbLine
 10
153.5358630025007
 20
130.683364676224
 30
0.0
 11
153.4938962104635
 21
130.6704241809892
 31
0.0
  0
LINE
  5
30C
330
E3
100
AcDbEntity
  8
0
  6
Continuous
100
AcDbLine
 10
153.4938962104635
 20
130.6704241809892
 30
0.0
 11
153.4519260290876
 21
130.6574836857543
 31
0.0
  0
LINE
  5
30D
330
E3
100
AcDbEntity
  8
0
  6
Continuous
100
AcDbLine
 10
153.4519260290876
 20
130.6574836857543
 30
0.0
 11
153.4102846135676
 21
130.6446008092777
 31
0.0
  0
LINE
  5
30E
330
E3
100
AcDbEntity
  8
0
  6
Continuous
100
AcDbLine
 10
153.4102846135676
 20
130.6446008092777
 30
0.0
 11
153.3692939510819
 21
130.6318331703176
 31
0.0
  0
LINE
  5
30F
330
E3
100
AcDbEntity
  8
0
  6
Continuous
100
AcDbLine
 10
153.3692939510819
 20
130.6318331703176
 30
0.0
 11
153.3292726394703
 21
130.6192349982935
 31
0.0
  0
LINE
  5
310
330
E3
100
AcDbEntity
  8
0
  6
Continuous
100
AcDbLine
 10
153.3292726394703
 20
130.6192349982935
 30
0.0
 11
153.290532497895
 21
130.6068639119637
 31
0.0
  0
LINE
  5
311
330
E3
100
AcDbEntity
  8
0
  6
Continuous
100
AcDbLine
 10
153.290532497895
 20
130.6068639119637
 30
0.0
 11
153.2533785668409
 21
130.5947741407477
 31
0.0
  0
LINE
  5
312
330
E3
100
AcDbEntity
  8
0
  6
Continuous
100
AcDbLine
 10
153.2533785668409
 20
130.5947741407477
 30
0.0
 11
153.2180955507606
 21
130.5830097460488
 31
0.0
  0
LINE
  5
313
330
E3
100
AcDbEntity
  8
0
  6
Continuous
100
AcDbLine
 10
153.2180955507606
 20
130.5830097460488
 30
0.0
 11
153.1849647647677
 21
130.5716283466254
 31
0.0
  0
LINE
  5
314
330
E3
100
AcDbEntity
  8
0
  6
Continuous
100
AcDbLine
 10
153.1849647647677
 20
130.5716283466254
 30
0.0
 11
153.1542404092664
 21
130.560670614542
 31
0.0
  0
LINE
  5
315
330
E3
100
AcDbEntity
  8
0
  6
Continuous
100
AcDbLine
 10
153.1542404092664
 20
130.560670614542
 30
0.0
 11
153.1261665166445
 21
130.5501806112021
 31
0.0
  0
LINE
  5
316
330
E3
100
AcDbEntity
  8
0
  6
Continuous
100
AcDbLine
 10
153.1261665166445
 20
130.5501806112021
 30
0.0
 11
153.1009633939189
 21
130.5401956193315
 31
0.0
  0
LINE
  5
317
330
E3
100
AcDbEntity
  8
0
  6
Continuous
100
AcDbLine
 10
153.1009633939189
 20
130.5401956193315
 30
0.0
 11
153.0788310120741
 21
130.5307529216562
 31
0.0
  0
LINE
  5
318
330
E3
100
AcDbEntity
  8
0
  6
Continuous
100
AcDbLine
 10
153.0788310120741
 20
130.5307529216562
 30
0.0
 11
153.0599422273848
 21
130.5218830222247
 31
0.0
  0
LINE
  5
319
330
E3
100
AcDbEntity
  8
0
  6
Continuous
100
AcDbLine
 10
153.0599422273848
 20
130.5218830222247
 30
0.0
 11
153.0444495600934
 21
130.5136096464079
 31
0.0
  0
LINE
  5
31A
330
E3
100
AcDbEntity
  8
0
  6
Continuous
100
AcDbLine
 10
153.0444495600934
 20
130.5136096464079
 30
0.0
 11
153.0324818050713
 21
130.505956519577
 31
0.0
  0
LINE
  5
31B
330
E3
100
AcDbEntity
  8
0
  6
Continuous
100
AcDbLine
 10
153.0324818050713
 20
130.505956519577
 30
0.0
 11
153.024130474464
 21
130.4989439777644
 31
0.0
  0
LINE
  5
31C
330
E3
100
AcDbEntity
  8
0
  6
Continuous
100
AcDbLine
 10
153.024130474464
 20
130.4989439777644
 30
0.0
 11
153.0194716735221
 21
130.4925831585155
 31
0.0
  0
LINE
  5
31D
330
E3
100
AcDbEntity
  8
0
  6
Continuous
100
AcDbLine
 10
153.0194716735221
 20
130.4925831585155
 30
0.0
 11
153.0185454132076
 21
130.4868793116431
 31
0.0
  0
LINE
  5
31E
330
E3
100
AcDbEntity
  8
0
  6
Continuous
100
AcDbLine
 10
154.0374626296901
 20
130.467083109254
 30
0.0
 11
154.0365363693756
 21
130.4613792623815
 31
0.0
  0
LINE
  5
31F
330
E3
100
AcDbEntity
  8
0
  6
Continuous
100
AcDbLine
 10
154.0365363693756
 20
130.4613792623815
 30
0.0
 11
154.0318768785733
 21
130.4550171462488
 31
0.0
  0
LINE
  5
320
330
E3
100
AcDbEntity
  8
0
  6
Continuous
100
AcDbLine
 10
154.0318768785733
 20
130.4550171462488
 30
0.0
 11
154.0235278362831
 21
130.448005606134
 31
0.0
  0
LINE
  5
321
330
E3
100
AcDbEntity
  8
0
  6
Continuous
100
AcDbLine
 10
154.0235278362831
 20
130.448005606134
 30
0.0
 11
154.0115566919223
 21
130.4403524793031
 31
0.0
  0
LINE
  5
322
330
E3
100
AcDbEntity
  8
0
  6
Continuous
100
AcDbLine
 10
154.0115566919223
 20
130.4403524793031
 30
0.0
 11
153.9960640246309
 21
130.4320824928251
 31
0.0
  0
LINE
  5
323
330
E3
100
AcDbEntity
  8
0
  6
Continuous
100
AcDbLine
 10
153.9960640246309
 20
130.4320824928251
 30
0.0
 11
153.9771786292803
 21
130.4232092040549
 31
0.0
  0
LINE
  5
324
330
E3
100
AcDbEntity
  8
0
  6
Continuous
100
AcDbLine
 10
153.9771786292803
 20
130.4232092040549
 30
0.0
 11
153.9550462474355
 21
130.4137665063796
 31
0.0
  0
LINE
  5
325
330
E3
100
AcDbEntity
  8
0
  6
Continuous
100
AcDbLine
 10
153.9550462474355
 20
130.4137665063796
 30
0.0
 11
153.9298431247099
 21
130.4037815145089
 31
0.0
  0
LINE
  5
326
330
E3
100
AcDbEntity
  8
0
  6
Continuous
100
AcDbLine
 10
153.9298431247099
 20
130.4037815145089
 30
0.0
 11
153.901769232088
 21
130.3932915111691
 31
0.0
  0
LINE
  5
327
330
E3
100
AcDbEntity
  8
0
  6
Continuous
100
AcDbLine
 10
153.901769232088
 20
130.3932915111691
 30
0.0
 11
153.8710448765867
 21
130.3823337790857
 31
0.0
  0
LINE
  5
328
330
E3
100
AcDbEntity
  8
0
  6
Continuous
100
AcDbLine
 10
153.8710448765867
 20
130.3823337790857
 30
0.0
 11
153.8379107012551
 21
130.3709523796623
 31
0.0
  0
LINE
  5
329
330
E3
100
AcDbEntity
  8
0
  6
Continuous
100
AcDbLine
 10
153.8379107012551
 20
130.3709523796623
 30
0.0
 11
153.8026310745135
 21
130.3591879849634
 31
0.0
  0
LINE
  5
32A
330
E3
100
AcDbEntity
  8
0
  6
Continuous
100
AcDbLine
 10
153.8026310745135
 20
130.3591879849634
 30
0.0
 11
153.7654737541207
 21
130.3470982137474
 31
0.0
  0
LINE
  5
32B
330
E3
100
AcDbEntity
  8
0
  6
Continuous
100
AcDbLine
 10
153.7654737541207
 20
130.3470982137474
 30
0.0
 11
153.7267370018842
 21
130.3347271274176
 31
0.0
  0
LINE
  5
32C
330
E3
100
AcDbEntity
  8
0
  6
Continuous
100
AcDbLine
 10
153.7267370018842
 20
130.3347271274176
 30
0.0
 11
153.6867156902725
 21
130.3221289553935
 31
0.0
  0
LINE
  5
32D
330
E3
100
AcDbEntity
  8
0
  6
Continuous
100
AcDbLine
 10
153.6867156902725
 20
130.3221289553935
 30
0.0
 11
153.6457250277869
 21
130.3093613164334
 31
0.0
  0
LINE
  5
32E
330
E3
100
AcDbEntity
  8
0
  6
Continuous
100
AcDbLine
 10
153.6457250277869
 20
130.3093613164334
 30
0.0
 11
153.6040802229281
 21
130.2964784399568
 31
0.0
  0
LINE
  5
32F
330
E3
100
AcDbEntity
  8
0
  6
Continuous
100
AcDbLine
 10
153.6040802229281
 20
130.2964784399568
 30
0.0
 11
153.5621134308909
 21
130.283537944722
 31
0.0
  0
LINE
  5
330
330
E3
100
AcDbEntity
  8
0
  6
Continuous
100
AcDbLine
 10
153.5621134308909
 20
130.283537944722
 30
0.0
 11
153.5201466388537
 21
130.2705974494871
 31
0.0
  0
LINE
  5
331
330
E3
100
AcDbEntity
  8
0
  6
Continuous
100
AcDbLine
 10
153.5201466388537
 20
130.2705974494871
 30
0.0
 11
153.478501833995
 21
130.2577145730105
 31
0.0
  0
LINE
  5
332
330
E3
100
AcDbEntity
  8
0
  6
Continuous
100
AcDbLine
 10
153.478501833995
 20
130.2577145730105
 30
0.0
 11
153.4375111715093
 21
130.2449435447116
 31
0.0
  0
LINE
  5
333
330
E3
100
AcDbEntity
  8
0
  6
Continuous
100
AcDbLine
 10
153.4375111715093
 20
130.2449435447116
 30
0.0
 11
153.3974898598977
 21
130.2323487620263
 31
0.0
  0
LINE
  5
334
330
E3
100
AcDbEntity
  8
0
  6
Continuous
100
AcDbLine
 10
153.3974898598977
 20
130.2323487620263
 30
0.0
 11
153.3587531076612
 21
130.2199776756965
 31
0.0
  0
LINE
  5
335
330
E3
100
AcDbEntity
  8
0
  6
Continuous
100
AcDbLine
 10
153.3587531076612
 20
130.2199776756965
 30
0.0
 11
153.3215957872683
 21
130.2078845151417
 31
0.0
  0
LINE
  5
336
330
E3
100
AcDbEntity
  8
0
  6
Continuous
100
AcDbLine
 10
153.3215957872683
 20
130.2078845151417
 30
0.0
 11
153.2863161605267
 21
130.1961235097816
 31
0.0
  0
LINE
  5
337
330
E3
100
AcDbEntity
  8
0
  6
Continuous
100
AcDbLine
 10
153.2863161605267
 20
130.1961235097816
 30
0.0
 11
153.2531819851952
 21
130.1847387210195
 31
0.0
  0
LINE
  5
338
330
E3
100
AcDbEntity
  8
0
  6
Continuous
100
AcDbLine
 10
153.2531819851952
 20
130.1847387210195
 30
0.0
 11
153.2224576296938
 21
130.1737809889361
 31
0.0
  0
LINE
  5
339
330
E3
100
AcDbEntity
  8
0
  6
Continuous
100
AcDbLine
 10
153.2224576296938
 20
130.1737809889361
 30
0.0
 11
153.1943837370719
 21
130.1632909855962
 31
0.0
  0
LINE
  5
33A
330
E3
100
AcDbEntity
  8
0
  6
Continuous
100
AcDbLine
 10
153.1943837370719
 20
130.1632909855962
 30
0.0
 11
153.1691806143463
 21
130.1533059937256
 31
0.0
  0
LINE
  5
33B
330
E3
100
AcDbEntity
  8
0
  6
Continuous
100
AcDbLine
 10
153.1691806143463
 20
130.1533059937256
 30
0.0
 11
153.1470482325015
 21
130.1438632960503
 31
0.0
  0
LINE
  5
33C
330
E3
100
AcDbEntity
  8
0
  6
Continuous
100
AcDbLine
 10
153.1470482325015
 20
130.1438632960503
 30
0.0
 11
153.1281628371509
 21
130.1349933966187
 31
0.0
  0
LINE
  5
33D
330
E3
100
AcDbEntity
  8
0
  6
Continuous
100
AcDbLine
 10
153.1281628371509
 20
130.1349933966187
 30
0.0
 11
153.1126701698595
 21
130.126720020802
 31
0.0
  0
LINE
  5
33E
330
E3
100
AcDbEntity
  8
0
  6
Continuous
100
AcDbLine
 10
153.1126701698595
 20
130.126720020802
 30
0.0
 11
153.1006990254987
 21
130.1190702833098
 31
0.0
  0
LINE
  5
33F
330
E3
100
AcDbEntity
  8
0
  6
Continuous
100
AcDbLine
 10
153.1006990254987
 20
130.1190702833098
 30
0.0
 11
153.0923510842301
 21
130.1120577414972
 31
0.0
  0
LINE
  5
340
330
E3
100
AcDbEntity
  8
0
  6
Continuous
100
AcDbLine
 10
153.0923510842301
 20
130.1120577414972
 30
0.0
 11
153.0876906004627
 21
130.1056943984036
 31
0.0
  0
LINE
  5
341
330
E3
100
AcDbEntity
  8
0
  6
Continuous
100
AcDbLine
 10
153.0876906004627
 20
130.1056943984036
 30
0.0
 11
153.0867643401482
 21
130.0999905515311
 31
0.0
  0
LINE
  5
342
330
E3
100
AcDbEntity
  8
0
  6
Continuous
100
AcDbLine
 10
154.1056815566307
 20
130.0801943491421
 30
0.0
 11
154.1047552963161
 21
130.0744905022696
 31
0.0
  0
LINE
  5
343
330
E3
100
AcDbEntity
  8
0
  6
Continuous
100
AcDbLine
 10
154.1047552963161
 20
130.0744905022696
 30
0.0
 11
154.1000958055138
 21
130.0681283861369
 31
0.0
  0
LINE
  5
344
330
E3
100
AcDbEntity
  8
0
  6
Continuous
100
AcDbLine
 10
154.1000958055138
 20
130.0681283861369
 30
0.0
 11
154.0917450567105
 21
130.0611159805281
 31
0.0
  0
LINE
  5
345
330
E3
100
AcDbEntity
  8
0
  6
Continuous
100
AcDbLine
 10
154.0917450567105
 20
130.0611159805281
 30
0.0
 11
154.0797773016885
 21
130.0534628536972
 31
0.0
  0
LINE
  5
346
330
E3
100
AcDbEntity
  8
0
  6
Continuous
100
AcDbLine
 10
154.0797773016885
 20
130.0534628536972
 30
0.0
 11
154.0642846343971
 21
130.0451928672192
 31
0.0
  0
LINE
  5
347
330
E3
100
AcDbEntity
  8
0
  6
Continuous
100
AcDbLine
 10
154.0642846343971
 20
130.0451928672192
 30
0.0
 11
154.0453958497077
 21
130.0363229677877
 31
0.0
  0
LINE
  5
348
330
E3
100
AcDbEntity
  8
0
  6
Continuous
100
AcDbLine
 10
154.0453958497077
 20
130.0363229677877
 30
0.0
 11
154.0232634678629
 21
130.0268768807736
 31
0.0
  0
LINE
  5
349
330
E3
100
AcDbEntity
  8
0
  6
Continuous
100
AcDbLine
 10
154.0232634678629
 20
130.0268768807736
 30
0.0
 11
153.9980603451373
 21
130.0168952782418
 31
0.0
  0
LINE
  5
34A
330
E3
100
AcDbEntity
  8
0
  6
Continuous
100
AcDbLine
 10
153.9980603451373
 20
130.0168952782418
 30
0.0
 11
153.9699864525154
 21
130.0064018855631
 31
0.0
  0
LINE
  5
34B
330
E3
100
AcDbEntity
  8
0
  6
Continuous
100
AcDbLine
 10
153.9699864525154
 20
130.0064018855631
 30
0.0
 11
153.9392620970141
 21
129.9954441534798
 31
0.0
  0
LINE
  5
34C
330
E3
100
AcDbEntity
  8
0
  6
Continuous
100
AcDbLine
 10
153.9392620970141
 20
129.9954441534798
 30
0.0
 11
153.9061313110213
 21
129.9840627540563
 31
0.0
  0
LINE
  5
34D
330
E3
100
AcDbEntity
  8
0
  6
Continuous
100
AcDbLine
 10
153.9061313110213
 20
129.9840627540563
 30
0.0
 11
153.8708482949409
 21
129.9723017486962
 31
0.0
  0
LINE
  5
34E
330
E3
100
AcDbEntity
  8
0
  6
Continuous
100
AcDbLine
 10
153.8708482949409
 20
129.9723017486962
 30
0.0
 11
153.8336943638868
 21
129.9602085881415
 31
0.0
  0
LINE
  5
34F
330
E3
100
AcDbEntity
  8
0
  6
Continuous
100
AcDbLine
 10
153.8336943638868
 20
129.9602085881415
 30
0.0
 11
153.7949542223116
 21
129.9478375018116
 31
0.0
  0
LINE
  5
350
330
E3
100
AcDbEntity
  8
0
  6
Continuous
100
AcDbLine
 10
153.7949542223116
 20
129.9478375018116
 30
0.0
 11
153.7549329107
 21
129.9352393297876
 31
0.0
  0
LINE
  5
351
330
E3
100
AcDbEntity
  8
0
  6
Continuous
100
AcDbLine
 10
153.7549329107
 20
129.9352393297876
 30
0.0
 11
153.7139422482143
 21
129.9224716908275
 31
0.0
  0
LINE
  5
352
330
E3
100
AcDbEntity
  8
0
  6
Continuous
100
AcDbLine
 10
153.7139422482143
 20
129.9224716908275
 30
0.0
 11
153.6723008326942
 21
129.9095888143509
 31
0.0
  0
LINE
  5
353
330
E3
100
AcDbEntity
  8
0
  6
Continuous
100
AcDbLine
 10
153.6723008326942
 20
129.9095888143509
 30
0.0
 11
153.6303340406571
 21
129.896648319116
 31
0.0
  0
LINE
  5
354
330
E3
100
AcDbEntity
  8
0
  6
Continuous
100
AcDbLine
 10
153.6303340406571
 20
129.896648319116
 30
0.0
 11
153.5883638592812
 21
129.8837078238812
 31
0.0
  0
LINE
  5
355
330
E3
100
AcDbEntity
  8
0
  6
Continuous
100
AcDbLine
 10
153.5883638592812
 20
129.8837078238812
 30
0.0
 11
153.5467224437612
 21
129.8708249474046
 31
0.0
  0
LINE
  5
356
330
E3
100
AcDbEntity
  8
0
  6
Continuous
100
AcDbLine
 10
153.5467224437612
 20
129.8708249474046
 30
0.0
 11
153.5057317812755
 21
129.8580573084444
 31
0.0
  0
LINE
  5
357
330
E3
100
AcDbEntity
  8
0
  6
Continuous
100
AcDbLine
 10
153.5057317812755
 20
129.8580573084444
 30
0.0
 11
153.4657104696638
 21
129.8454591364204
 31
0.0
  0
LINE
  5
358
330
E3
100
AcDbEntity
  8
0
  6
Continuous
100
AcDbLine
 10
153.4657104696638
 20
129.8454591364204
 30
0.0
 11
153.4269703280886
 21
129.8330880500906
 31
0.0
  0
LINE
  5
359
330
E3
100
AcDbEntity
  8
0
  6
Continuous
100
AcDbLine
 10
153.4269703280886
 20
129.8330880500906
 30
0.0
 11
153.3898163970345
 21
129.8209948895358
 31
0.0
  0
LINE
  5
35A
330
E3
100
AcDbEntity
  8
0
  6
Continuous
100
AcDbLine
 10
153.3898163970345
 20
129.8209948895358
 30
0.0
 11
153.3545333809541
 21
129.8092338841757
 31
0.0
  0
LINE
  5
35B
330
E3
100
AcDbEntity
  8
0
  6
Continuous
100
AcDbLine
 10
153.3545333809541
 20
129.8092338841757
 30
0.0
 11
153.3214025949613
 21
129.7978524847523
 31
0.0
  0
LINE
  5
35C
330
E3
100
AcDbEntity
  8
0
  6
Continuous
100
AcDbLine
 10
153.3214025949613
 20
129.7978524847523
 30
0.0
 11
153.29067823946
 21
129.7868947526689
 31
0.0
  0
LINE
  5
35D
330
E3
100
AcDbEntity
  8
0
  6
Continuous
100
AcDbLine
 10
153.29067823946
 20
129.7868947526689
 30
0.0
 11
153.2626043468381
 21
129.7764013599902
 31
0.0
  0
LINE
  5
35E
330
E3
100
AcDbEntity
  8
0
  6
Continuous
100
AcDbLine
 10
153.2626043468381
 20
129.7764013599902
 30
0.0
 11
153.2374012241125
 21
129.7664163681197
 31
0.0
  0
LINE
  5
35F
330
E3
100
AcDbEntity
  8
0
  6
Continuous
100
AcDbLine
 10
153.2374012241125
 20
129.7664163681197
 30
0.0
 11
153.2152688422676
 21
129.7569736704444
 31
0.0
  0
LINE
  5
360
330
E3
100
AcDbEntity
  8
0
  6
Continuous
100
AcDbLine
 10
153.2152688422676
 20
129.7569736704444
 30
0.0
 11
153.1963800575783
 21
129.7481037710128
 31
0.0
  0
LINE
  5
361
330
E3
100
AcDbEntity
  8
0
  6
Continuous
100
AcDbLine
 10
153.1963800575783
 20
129.7481037710128
 30
0.0
 11
153.180887390287
 21
129.7398303951961
 31
0.0
  0
LINE
  5
362
330
E3
100
AcDbEntity
  8
0
  6
Continuous
100
AcDbLine
 10
153.180887390287
 20
129.7398303951961
 30
0.0
 11
153.1689196352648
 21
129.7321806577039
 31
0.0
  0
LINE
  5
363
330
E3
100
AcDbEntity
  8
0
  6
Continuous
100
AcDbLine
 10
153.1689196352648
 20
129.7321806577039
 30
0.0
 11
153.1605683046576
 21
129.7251681158912
 31
0.0
  0
LINE
  5
364
330
E3
100
AcDbEntity
  8
0
  6
Continuous
100
AcDbLine
 10
153.1605683046576
 20
129.7251681158912
 30
0.0
 11
153.1559095274033
 21
129.7188056382917
 31
0.0
  0
LINE
  5
365
330
E3
100
AcDbEntity
  8
0
  6
Continuous
100
AcDbLine
 10
153.1559095274033
 20
129.7188056382917
 30
0.0
 11
153.1549832670887
 21
129.7131017914192
 31
0.0
  0
LINE
  5
366
330
E3
100
AcDbEntity
  8
0
  6
Continuous
100
AcDbLine
 10
154.1739004835712
 20
129.6933055890301
 30
0.0
 11
154.1729742232567
 21
129.6876017421577
 31
0.0
  0
LINE
  5
367
330
E3
100
AcDbEntity
  8
0
  6
Continuous
100
AcDbLine
 10
154.1729742232567
 20
129.6876017421577
 30
0.0
 11
154.1683147324544
 21
129.681239626025
 31
0.0
  0
LINE
  5
368
330
E3
100
AcDbEntity
  8
0
  6
Continuous
100
AcDbLine
 10
154.1683147324544
 20
129.681239626025
 30
0.0
 11
154.1599656664767
 21
129.6742263549222
 31
0.0
  0
LINE
  5
369
330
E3
100
AcDbEntity
  8
0
  6
Continuous
100
AcDbLine
 10
154.1599656664767
 20
129.6742263549222
 30
0.0
 11
154.1479945221159
 21
129.66657661743
 31
0.0
  0
LINE
  5
36A
330
E3
100
AcDbEntity
  8
0
  6
Continuous
100
AcDbLine
 10
154.1479945221159
 20
129.66657661743
 30
0.0
 11
154.1325018548245
 21
129.6583032416133
 31
0.0
  0
LINE
  5
36B
330
E3
100
AcDbEntity
  8
0
  6
Continuous
100
AcDbLine
 10
154.1325018548245
 20
129.6583032416133
 30
0.0
 11
154.1136164594739
 21
129.6494333421817
 31
0.0
  0
LINE
  5
36C
330
E3
100
AcDbEntity
  8
0
  6
Continuous
100
AcDbLine
 10
154.1136164594739
 20
129.6494333421817
 30
0.0
 11
154.0914840776291
 21
129.6399906445064
 31
0.0
  0
LINE
  5
36D
330
E3
100
AcDbEntity
  8
0
  6
Continuous
100
AcDbLine
 10
154.0914840776291
 20
129.6399906445064
 30
0.0
 11
154.0662809549034
 21
129.6300056526358
 31
0.0
  0
LINE
  5
36E
330
E3
100
AcDbEntity
  8
0
  6
Continuous
100
AcDbLine
 10
154.0662809549034
 20
129.6300056526358
 30
0.0
 11
154.0382070622816
 21
129.6195156492959
 31
0.0
  0
LINE
  5
36F
330
E3
100
AcDbEntity
  8
0
  6
Continuous
100
AcDbLine
 10
154.0382070622816
 20
129.6195156492959
 30
0.0
 11
154.0074827067803
 21
129.6085579172126
 31
0.0
  0
LINE
  5
370
330
E3
100
AcDbEntity
  8
0
  6
Continuous
100
AcDbLine
 10
154.0074827067803
 20
129.6085579172126
 30
0.0
 11
153.9743485314487
 21
129.5971731284504
 31
0.0
  0
LINE
  5
371
330
E3
100
AcDbEntity
  8
0
  6
Continuous
100
AcDbLine
 10
153.9743485314487
 20
129.5971731284504
 30
0.0
 11
153.9390689047071
 21
129.5854121230903
 31
0.0
  0
LINE
  5
372
330
E3
100
AcDbEntity
  8
0
  6
Continuous
100
AcDbLine
 10
153.9390689047071
 20
129.5854121230903
 30
0.0
 11
153.9019115843143
 21
129.5733189625356
 31
0.0
  0
LINE
  5
373
330
E3
100
AcDbEntity
  8
0
  6
Continuous
100
AcDbLine
 10
153.9019115843143
 20
129.5733189625356
 30
0.0
 11
153.8631748320777
 21
129.5609478762057
 31
0.0
  0
LINE
  5
374
330
E3
100
AcDbEntity
  8
0
  6
Continuous
100
AcDbLine
 10
153.8631748320777
 20
129.5609478762057
 30
0.0
 11
153.8231535204661
 21
129.5483530935204
 31
0.0
  0
LINE
  5
375
330
E3
100
AcDbEntity
  8
0
  6
Continuous
100
AcDbLine
 10
153.8231535204661
 20
129.5483530935204
 30
0.0
 11
153.7821628579804
 21
129.5355820652215
 31
0.0
  0
LINE
  5
376
330
E3
100
AcDbEntity
  8
0
  6
Continuous
100
AcDbLine
 10
153.7821628579804
 20
129.5355820652215
 30
0.0
 11
153.7405180531217
 21
129.522699188745
 31
0.0
  0
LINE
  5
377
330
E3
100
AcDbEntity
  8
0
  6
Continuous
100
AcDbLine
 10
153.7405180531217
 20
129.522699188745
 30
0.0
 11
153.6985512610845
 21
129.5097586935101
 31
0.0
  0
LINE
  5
378
330
E3
100
AcDbEntity
  8
0
  6
Continuous
100
AcDbLine
 10
153.6985512610845
 20
129.5097586935101
 30
0.0
 11
153.6565844690473
 21
129.4968181982752
 31
0.0
  0
LINE
  5
379
330
E3
100
AcDbEntity
  8
0
  6
Continuous
100
AcDbLine
 10
153.6565844690473
 20
129.4968181982752
 30
0.0
 11
153.6149396641886
 21
129.4839353217986
 31
0.0
  0
LINE
  5
37A
330
E3
100
AcDbEntity
  8
0
  6
Continuous
100
AcDbLine
 10
153.6149396641886
 20
129.4839353217986
 30
0.0
 11
153.5739490017029
 21
129.4711676828385
 31
0.0
  0
LINE
  5
37B
330
E3
100
AcDbEntity
  8
0
  6
Continuous
100
AcDbLine
 10
153.5739490017029
 20
129.4711676828385
 30
0.0
 11
153.5339276900913
 21
129.4585695108144
 31
0.0
  0
LINE
  5
37C
330
E3
100
AcDbEntity
  8
0
  6
Continuous
100
AcDbLine
 10
153.5339276900913
 20
129.4585695108144
 30
0.0
 11
153.4951909378547
 21
129.4461984244846
 31
0.0
  0
LINE
  5
37D
330
E3
100
AcDbEntity
  8
0
  6
Continuous
100
AcDbLine
 10
153.4951909378547
 20
129.4461984244846
 30
0.0
 11
153.4580336174619
 21
129.4341052639299
 31
0.0
  0
LINE
  5
37E
330
E3
100
AcDbEntity
  8
0
  6
Continuous
100
AcDbLine
 10
153.4580336174619
 20
129.4341052639299
 30
0.0
 11
153.4227539907203
 21
129.4223442585698
 31
0.0
  0
LINE
  5
37F
330
E3
100
AcDbEntity
  8
0
  6
Continuous
100
AcDbLine
 10
153.4227539907203
 20
129.4223442585698
 30
0.0
 11
153.3896198153887
 21
129.4109628591464
 31
0.0
  0
LINE
  5
380
330
E3
100
AcDbEntity
  8
0
  6
Continuous
100
AcDbLine
 10
153.3896198153887
 20
129.4109628591464
 30
0.0
 11
153.3588954598874
 21
129.400005127063
 31
0.0
  0
LINE
  5
381
330
E3
100
AcDbEntity
  8
0
  6
Continuous
100
AcDbLine
 10
153.3588954598874
 20
129.400005127063
 30
0.0
 11
153.3308215672655
 21
129.389515123723
 31
0.0
  0
LINE
  5
382
330
E3
100
AcDbEntity
  8
0
  6
Continuous
100
AcDbLine
 10
153.3308215672655
 20
129.389515123723
 30
0.0
 11
153.3056184445399
 21
129.3795301318525
 31
0.0
  0
LINE
  5
383
330
E3
100
AcDbEntity
  8
0
  6
Continuous
100
AcDbLine
 10
153.3056184445399
 20
129.3795301318525
 30
0.0
 11
153.2834860626951
 21
129.3700874341772
 31
0.0
  0
LINE
  5
384
330
E3
100
AcDbEntity
  8
0
  6
Continuous
100
AcDbLine
 10
153.2834860626951
 20
129.3700874341772
 30
0.0
 11
153.2646006673445
 21
129.3612141454069
 31
0.0
  0
LINE
  5
385
330
E3
100
AcDbEntity
  8
0
  6
Continuous
100
AcDbLine
 10
153.2646006673445
 20
129.3612141454069
 30
0.0
 11
153.2491080000531
 21
129.3529441589289
 31
0.0
  0
LINE
  5
386
330
E3
100
AcDbEntity
  8
0
  6
Continuous
100
AcDbLine
 10
153.2491080000531
 20
129.3529441589289
 30
0.0
 11
153.2371368556923
 21
129.345291032098
 31
0.0
  0
LINE
  5
387
330
E3
100
AcDbEntity
  8
0
  6
Continuous
100
AcDbLine
 10
153.2371368556923
 20
129.345291032098
 30
0.0
 11
153.2287889144237
 21
129.3382784902853
 31
0.0
  0
LINE
  5
388
330
E3
100
AcDbEntity
  8
0
  6
Continuous
100
AcDbLine
 10
153.2287889144237
 20
129.3382784902853
 30
0.0
 11
153.2241284543438
 21
129.3319168781798
 31
0.0
  0
LINE
  5
389
330
E3
100
AcDbEntity
  8
0
  6
Continuous
100
AcDbLine
 10
153.2241284543438
 20
129.3319168781798
 30
0.0
 11
153.2232021940293
 21
129.3262130313072
 31
0.0
  0
LINE
  5
38A
330
E3
100
AcDbEntity
  8
0
  6
Continuous
100
AcDbLine
 10
154.2421194105118
 20
129.3064168289182
 30
0.0
 11
154.2411931501973
 21
129.3007129820457
 31
0.0
  0
LINE
  5
38B
330
E3
100
AcDbEntity
  8
0
  6
Continuous
100
AcDbLine
 10
154.2411931501973
 20
129.3007129820457
 30
0.0
 11
154.236533659395
 21
129.2943508659131
 31
0.0
  0
LINE
  5
38C
330
E3
100
AcDbEntity
  8
0
  6
Continuous
100
AcDbLine
 10
154.236533659395
 20
129.2943508659131
 30
0.0
 11
154.2281828869041
 21
129.2873367293163
 31
0.0
  0
LINE
  5
38D
330
E3
100
AcDbEntity
  8
0
  6
Continuous
100
AcDbLine
 10
154.2281828869041
 20
129.2873367293163
 30
0.0
 11
154.216215131882
 21
129.2796869918241
 31
0.0
  0
LINE
  5
38E
330
E3
100
AcDbEntity
  8
0
  6
Continuous
100
AcDbLine
 10
154.216215131882
 20
129.2796869918241
 30
0.0
 11
154.2007224645907
 21
129.2714136160074
 31
0.0
  0
LINE
  5
38F
330
E3
100
AcDbEntity
  8
0
  6
Continuous
100
AcDbLine
 10
154.2007224645907
 20
129.2714136160074
 30
0.0
 11
154.1818336799013
 21
129.2625437165758
 31
0.0
  0
LINE
  5
390
330
E3
100
AcDbEntity
  8
0
  6
Continuous
100
AcDbLine
 10
154.1818336799013
 20
129.2625437165758
 30
0.0
 11
154.1597012980565
 21
129.2531010189005
 31
0.0
  0
LINE
  5
391
330
E3
100
AcDbEntity
  8
0
  6
Continuous
100
AcDbLine
 10
154.1597012980565
 20
129.2531010189005
 30
0.0
 11
154.1344981753309
 21
129.2431160270299
 31
0.0
  0
LINE
  5
392
330
E3
100
AcDbEntity
  8
0
  6
Continuous
100
AcDbLine
 10
154.1344981753309
 20
129.2431160270299
 30
0.0
 11
154.106424282709
 21
129.23262602369
 31
0.0
  0
LINE
  5
393
330
E3
100
AcDbEntity
  8
0
  6
Continuous
100
AcDbLine
 10
154.106424282709
 20
129.23262602369
 30
0.0
 11
154.0756999272077
 21
129.2216682916066
 31
0.0
  0
LINE
  5
394
330
E3
100
AcDbEntity
  8
0
  6
Continuous
100
AcDbLine
 10
154.0756999272077
 20
129.2216682916066
 30
0.0
 11
154.0425691412148
 21
129.2102835028445
 31
0.0
  0
LINE
  5
395
330
E3
100
AcDbEntity
  8
0
  6
Continuous
100
AcDbLine
 10
154.0425691412148
 20
129.2102835028445
 30
0.0
 11
154.0072861251345
 21
129.1985224974844
 31
0.0
  0
LINE
  5
396
330
E3
100
AcDbEntity
  8
0
  6
Continuous
100
AcDbLine
 10
154.0072861251345
 20
129.1985224974844
 30
0.0
 11
153.9701321940804
 21
129.1864327262684
 31
0.0
  0
LINE
  5
397
330
E3
100
AcDbEntity
  8
0
  6
Continuous
100
AcDbLine
 10
153.9701321940804
 20
129.1864327262684
 30
0.0
 11
153.9313920525051
 21
129.1740616399385
 31
0.0
  0
LINE
  5
398
330
E3
100
AcDbEntity
  8
0
  6
Continuous
100
AcDbLine
 10
153.9313920525051
 20
129.1740616399385
 30
0.0
 11
153.8913707408935
 21
129.1614634679145
 31
0.0
  0
LINE
  5
399
330
E3
100
AcDbEntity
  8
0
  6
Continuous
100
AcDbLine
 10
153.8913707408935
 20
129.1614634679145
 30
0.0
 11
153.8503800784079
 21
129.1486958289543
 31
0.0
  0
LINE
  5
39A
330
E3
100
AcDbEntity
  8
0
  6
Continuous
100
AcDbLine
 10
153.8503800784079
 20
129.1486958289543
 30
0.0
 11
153.8087386628878
 21
129.135809563139
 31
0.0
  0
LINE
  5
39B
330
E3
100
AcDbEntity
  8
0
  6
Continuous
100
AcDbLine
 10
153.8087386628878
 20
129.135809563139
 30
0.0
 11
153.7667718708506
 21
129.1228690679042
 31
0.0
  0
LINE
  5
39C
330
E3
100
AcDbEntity
  8
0
  6
Continuous
100
AcDbLine
 10
153.7667718708506
 20
129.1228690679042
 30
0.0
 11
153.7248016894747
 21
129.1099285726693
 31
0.0
  0
LINE
  5
39D
330
E3
100
AcDbEntity
  8
0
  6
Continuous
100
AcDbLine
 10
153.7248016894747
 20
129.1099285726693
 30
0.0
 11
153.6831602739547
 21
129.0970456961927
 31
0.0
  0
LINE
  5
39E
330
E3
100
AcDbEntity
  8
0
  6
Continuous
100
AcDbLine
 10
153.6831602739547
 20
129.0970456961927
 30
0.0
 11
153.642169611469
 21
129.0842780572326
 31
0.0
  0
LINE
  5
39F
330
E3
100
AcDbEntity
  8
0
  6
Continuous
100
AcDbLine
 10
153.642169611469
 20
129.0842780572326
 30
0.0
 11
153.6021482998574
 21
129.0716798852085
 31
0.0
  0
LINE
  5
3A0
330
E3
100
AcDbEntity
  8
0
  6
Continuous
100
AcDbLine
 10
153.6021482998574
 20
129.0716798852085
 30
0.0
 11
153.5634081582822
 21
129.0593087988787
 31
0.0
  0
LINE
  5
3A1
330
E3
100
AcDbEntity
  8
0
  6
Continuous
100
AcDbLine
 10
153.5634081582822
 20
129.0593087988787
 30
0.0
 11
153.526254227228
 21
129.0472190276627
 31
0.0
  0
LINE
  5
3A2
330
E3
100
AcDbEntity
  8
0
  6
Continuous
100
AcDbLine
 10
153.526254227228
 20
129.0472190276627
 30
0.0
 11
153.4909712111477
 21
129.0354546329639
 31
0.0
  0
LINE
  5
3A3
330
E3
100
AcDbEntity
  8
0
  6
Continuous
100
AcDbLine
 10
153.4909712111477
 20
129.0354546329639
 30
0.0
 11
153.4578404251549
 21
129.0240732335405
 31
0.0
  0
LINE
  5
3A4
330
E3
100
AcDbEntity
  8
0
  6
Continuous
100
AcDbLine
 10
153.4578404251549
 20
129.0240732335405
 30
0.0
 11
153.4271160696536
 21
129.0131155014571
 31
0.0
  0
LINE
  5
3A5
330
E3
100
AcDbEntity
  8
0
  6
Continuous
100
AcDbLine
 10
153.4271160696536
 20
129.0131155014571
 30
0.0
 11
153.3990421770317
 21
129.0026254981171
 31
0.0
  0
LINE
  5
3A6
330
E3
100
AcDbEntity
  8
0
  6
Continuous
100
AcDbLine
 10
153.3990421770317
 20
129.0026254981171
 30
0.0
 11
153.3738390543061
 21
128.9926405062466
 31
0.0
  0
LINE
  5
3A7
330
E3
100
AcDbEntity
  8
0
  6
Continuous
100
AcDbLine
 10
153.3738390543061
 20
128.9926405062466
 30
0.0
 11
153.3517066724612
 21
128.9831978085712
 31
0.0
  0
LINE
  5
3A8
330
E3
100
AcDbEntity
  8
0
  6
Continuous
100
AcDbLine
 10
153.3517066724612
 20
128.9831978085712
 30
0.0
 11
153.3328178877719
 21
128.9743279091397
 31
0.0
  0
LINE
  5
3A9
330
E3
100
AcDbEntity
  8
0
  6
Continuous
100
AcDbLine
 10
153.3328178877719
 20
128.9743279091397
 30
0.0
 11
153.3173252204805
 21
128.966054533323
 31
0.0
  0
LINE
  5
3AA
330
E3
100
AcDbEntity
  8
0
  6
Continuous
100
AcDbLine
 10
153.3173252204805
 20
128.966054533323
 30
0.0
 11
153.3053574654584
 21
128.9584014064921
 31
0.0
  0
LINE
  5
3AB
330
E3
100
AcDbEntity
  8
0
  6
Continuous
100
AcDbLine
 10
153.3053574654584
 20
128.9584014064921
 30
0.0
 11
153.2970061348511
 21
128.9513888646794
 31
0.0
  0
LINE
  5
3AC
330
E3
100
AcDbEntity
  8
0
  6
Continuous
100
AcDbLine
 10
153.2970061348511
 20
128.9513888646794
 30
0.0
 11
153.2923473812844
 21
128.9450281180678
 31
0.0
  0
LINE
  5
3AD
330
E3
100
AcDbEntity
  8
0
  6
Continuous
100
AcDbLine
 10
153.2923473812844
 20
128.9450281180678
 30
0.0
 11
153.2914211209699
 21
128.9393242711953
 31
0.0
  0
LINE
  5
3AE
330
E3
100
AcDbEntity
  8
0
  6
Continuous
100
AcDbLine
 10
154.3103383374524
 20
128.9195280688063
 30
0.0
 11
154.3094120771379
 21
128.9138242219338
 31
0.0
  0
LINE
  5
3AF
330
E3
100
AcDbEntity
  8
0
  6
Continuous
100
AcDbLine
 10
154.3094120771379
 20
128.9138242219338
 30
0.0
 11
154.3047525863356
 21
128.9074621058011
 31
0.0
  0
LINE
  5
3B0
330
E3
100
AcDbEntity
  8
0
  6
Continuous
100
AcDbLine
 10
154.3047525863356
 20
128.9074621058011
 30
0.0
 11
154.2964034966702
 21
128.9004504930491
 31
0.0
  0
LINE
  5
3B1
330
E3
100
AcDbEntity
  8
0
  6
Continuous
100
AcDbLine
 10
154.2964034966702
 20
128.9004504930491
 30
0.0
 11
154.2844323523095
 21
128.8927973662182
 31
0.0
  0
LINE
  5
3B2
330
E3
100
AcDbEntity
  8
0
  6
Continuous
100
AcDbLine
 10
154.2844323523095
 20
128.8927973662182
 30
0.0
 11
154.2689396850181
 21
128.8845273797402
 31
0.0
  0
LINE
  5
3B3
330
E3
100
AcDbEntity
  8
0
  6
Continuous
100
AcDbLine
 10
154.2689396850181
 20
128.8845273797402
 30
0.0
 11
154.2500542896674
 21
128.8756540909699
 31
0.0
  0
LINE
  5
3B4
330
E3
100
AcDbEntity
  8
0
  6
Continuous
100
AcDbLine
 10
154.2500542896674
 20
128.8756540909699
 30
0.0
 11
154.2279219078226
 21
128.8662113932946
 31
0.0
  0
LINE
  5
3B5
330
E3
100
AcDbEntity
  8
0
  6
Continuous
100
AcDbLine
 10
154.2279219078226
 20
128.8662113932946
 30
0.0
 11
154.202718785097
 21
128.856226401424
 31
0.0
  0
LINE
  5
3B6
330
E3
100
AcDbEntity
  8
0
  6
Continuous
100
AcDbLine
 10
154.202718785097
 20
128.856226401424
 30
0.0
 11
154.1746448924752
 21
128.8457363980841
 31
0.0
  0
LINE
  5
3B7
330
E3
100
AcDbEntity
  8
0
  6
Continuous
100
AcDbLine
 10
154.1746448924752
 20
128.8457363980841
 30
0.0
 11
154.1439205369738
 21
128.8347786660007
 31
0.0
  0
LINE
  5
3B8
330
E3
100
AcDbEntity
  8
0
  6
Continuous
100
AcDbLine
 10
154.1439205369738
 20
128.8347786660007
 30
0.0
 11
154.110789750981
 21
128.8233972665773
 31
0.0
  0
LINE
  5
3B9
330
E3
100
AcDbEntity
  8
0
  6
Continuous
100
AcDbLine
 10
154.110789750981
 20
128.8233972665773
 30
0.0
 11
154.0755067349006
 21
128.8116328718785
 31
0.0
  0
LINE
  5
3BA
330
E3
100
AcDbEntity
  8
0
  6
Continuous
100
AcDbLine
 10
154.0755067349006
 20
128.8116328718785
 30
0.0
 11
154.0383494145078
 21
128.7995431006625
 31
0.0
  0
LINE
  5
3BB
330
E3
100
AcDbEntity
  8
0
  6
Continuous
100
AcDbLine
 10
154.0383494145078
 20
128.7995431006625
 30
0.0
 11
153.9996126622713
 21
128.7871720143326
 31
0.0
  0
LINE
  5
3BC
330
E3
100
AcDbEntity
  8
0
  6
Continuous
100
AcDbLine
 10
153.9996126622713
 20
128.7871720143326
 30
0.0
 11
153.9595913506597
 21
128.7745738423086
 31
0.0
  0
LINE
  5
3BD
330
E3
100
AcDbEntity
  8
0
  6
Continuous
100
AcDbLine
 10
153.9595913506597
 20
128.7745738423086
 30
0.0
 11
153.918600688174
 21
128.7618062033484
 31
0.0
  0
LINE
  5
3BE
330
E3
100
AcDbEntity
  8
0
  6
Continuous
100
AcDbLine
 10
153.918600688174
 20
128.7618062033484
 30
0.0
 11
153.8769558833152
 21
128.7489233268718
 31
0.0
  0
LINE
  5
3BF
330
E3
100
AcDbEntity
  8
0
  6
Continuous
100
AcDbLine
 10
153.8769558833152
 20
128.7489233268718
 30
0.0
 11
153.8349890912781
 21
128.735982831637
 31
0.0
  0
LINE
  5
3C0
330
E3
100
AcDbEntity
  8
0
  6
Continuous
100
AcDbLine
 10
153.8349890912781
 20
128.735982831637
 30
0.0
 11
153.7930222992409
 21
128.7230423364021
 31
0.0
  0
LINE
  5
3C1
330
E3
100
AcDbEntity
  8
0
  6
Continuous
100
AcDbLine
 10
153.7930222992409
 20
128.7230423364021
 30
0.0
 11
153.7513774943822
 21
128.7101594599255
 31
0.0
  0
LINE
  5
3C2
330
E3
100
AcDbEntity
  8
0
  6
Continuous
100
AcDbLine
 10
153.7513774943822
 20
128.7101594599255
 30
0.0
 11
153.7103868318965
 21
128.6973884316267
 31
0.0
  0
LINE
  5
3C3
330
E3
100
AcDbEntity
  8
0
  6
Continuous
100
AcDbLine
 10
153.7103868318965
 20
128.6973884316267
 30
0.0
 11
153.6703655202848
 21
128.6847936489413
 31
0.0
  0
LINE
  5
3C4
330
E3
100
AcDbEntity
  8
0
  6
Continuous
100
AcDbLine
 10
153.6703655202848
 20
128.6847936489413
 30
0.0
 11
153.6316287680483
 21
128.6724225626115
 31
0.0
  0
LINE
  5
3C5
330
E3
100
AcDbEntity
  8
0
  6
Continuous
100
AcDbLine
 10
153.6316287680483
 20
128.6724225626115
 30
0.0
 11
153.5944714476555
 21
128.6603294020568
 31
0.0
  0
LINE
  5
3C6
330
E3
100
AcDbEntity
  8
0
  6
Continuous
100
AcDbLine
 10
153.5944714476555
 20
128.6603294020568
 30
0.0
 11
153.5591918209139
 21
128.6485683966967
 31
0.0
  0
LINE
  5
3C7
330
E3
100
AcDbEntity
  8
0
  6
Continuous
100
AcDbLine
 10
153.5591918209139
 20
128.6485683966967
 30
0.0
 11
153.5260576455823
 21
128.6371836079345
 31
0.0
  0
LINE
  5
3C8
330
E3
100
AcDbEntity
  8
0
  6
Continuous
100
AcDbLine
 10
153.5260576455823
 20
128.6371836079345
 30
0.0
 11
153.495333290081
 21
128.6262258758512
 31
0.0
  0
LINE
  5
3C9
330
E3
100
AcDbEntity
  8
0
  6
Continuous
100
AcDbLine
 10
153.495333290081
 20
128.6262258758512
 30
0.0
 11
153.4672593974591
 21
128.6157358725112
 31
0.0
  0
LINE
  5
3CA
330
E3
100
AcDbEntity
  8
0
  6
Continuous
100
AcDbLine
 10
153.4672593974591
 20
128.6157358725112
 30
0.0
 11
153.4420562747335
 21
128.6057508806406
 31
0.0
  0
LINE
  5
3CB
330
E3
100
AcDbEntity
  8
0
  6
Continuous
100
AcDbLine
 10
153.4420562747335
 20
128.6057508806406
 30
0.0
 11
153.4199238928887
 21
128.5963081829653
 31
0.0
  0
LINE
  5
3CC
330
E3
100
AcDbEntity
  8
0
  6
Continuous
100
AcDbLine
 10
153.4199238928887
 20
128.5963081829653
 30
0.0
 11
153.4010384975381
 21
128.5874382835338
 31
0.0
  0
LINE
  5
3CD
330
E3
100
AcDbEntity
  8
0
  6
Continuous
100
AcDbLine
 10
153.4010384975381
 20
128.5874382835338
 30
0.0
 11
153.3855458302467
 21
128.5791649077171
 31
0.0
  0
LINE
  5
3CE
330
E3
100
AcDbEntity
  8
0
  6
Continuous
100
AcDbLine
 10
153.3855458302467
 20
128.5791649077171
 30
0.0
 11
153.3735746858859
 21
128.5715151702249
 31
0.0
  0
LINE
  5
3CF
330
E3
100
AcDbEntity
  8
0
  6
Continuous
100
AcDbLine
 10
153.3735746858859
 20
128.5715151702249
 30
0.0
 11
153.3652267446173
 21
128.5645026284122
 31
0.0
  0
LINE
  5
3D0
330
E3
100
AcDbEntity
  8
0
  6
Continuous
100
AcDbLine
 10
153.3652267446173
 20
128.5645026284122
 30
0.0
 11
153.360566308225
 21
128.5581393579558
 31
0.0
  0
LINE
  5
3D1
330
E3
100
AcDbEntity
  8
0
  6
Continuous
100
AcDbLine
 10
153.360566308225
 20
128.5581393579558
 30
0.0
 11
153.3596400479105
 21
128.5524355110834
 31
0.0
  0
LINE
  5
3D2
330
E3
100
AcDbEntity
  8
0
  6
Continuous
100
AcDbLine
 10
154.378557264393
 20
128.5326393086943
 30
0.0
 11
154.3776310040785
 21
128.5269354618219
 31
0.0
  0
LINE
  5
3D3
330
E3
100
AcDbEntity
  8
0
  6
Continuous
100
AcDbLine
 10
154.3776310040785
 20
128.5269354618219
 30
0.0
 11
154.3729715132762
 21
128.5205733456892
 31
0.0
  0
LINE
  5
3D4
330
E3
100
AcDbEntity
  8
0
  6
Continuous
100
AcDbLine
 10
154.3729715132762
 20
128.5205733456892
 30
0.0
 11
154.3646207170977
 21
128.5135608674431
 31
0.0
  0
LINE
  5
3D5
330
E3
100
AcDbEntity
  8
0
  6
Continuous
100
AcDbLine
 10
154.3646207170977
 20
128.5135608674431
 30
0.0
 11
154.3526529620756
 21
128.5059077406123
 31
0.0
  0
LINE
  5
3D6
330
E3
100
AcDbEntity
  8
0
  6
Continuous
100
AcDbLine
 10
154.3526529620756
 20
128.5059077406123
 30
0.0
 11
154.3371602947842
 21
128.4976377541342
 31
0.0
  0
LINE
  5
3D7
330
E3
100
AcDbEntity
  8
0
  6
Continuous
100
AcDbLine
 10
154.3371602947842
 20
128.4976377541342
 30
0.0
 11
154.3182715100949
 21
128.4887678547027
 31
0.0
  0
LINE
  5
3D8
330
E3
100
AcDbEntity
  8
0
  6
Continuous
100
AcDbLine
 10
154.3182715100949
 20
128.4887678547027
 30
0.0
 11
154.29613912825
 21
128.4793217676887
 31
0.0
  0
LINE
  5
3D9
330
E3
100
AcDbEntity
  8
0
  6
Continuous
100
AcDbLine
 10
154.29613912825
 20
128.4793217676887
 30
0.0
 11
154.2709360055244
 21
128.4693401651568
 31
0.0
  0
LINE
  5
3DA
330
E3
100
AcDbEntity
  8
0
  6
Continuous
100
AcDbLine
 10
154.2709360055244
 20
128.4693401651568
 30
0.0
 11
154.2428621129025
 21
128.4588467724782
 31
0.0
  0
LINE
  5
3DB
330
E3
100
AcDbEntity
  8
0
  6
Continuous
100
AcDbLine
 10
154.2428621129025
 20
128.4588467724782
 30
0.0
 11
154.2121377574013
 21
128.4478890403948
 31
0.0
  0
LINE
  5
3DC
330
E3
100
AcDbEntity
  8
0
  6
Continuous
100
AcDbLine
 10
154.2121377574013
 20
128.4478890403948
 30
0.0
 11
154.1790069714084
 21
128.4365076409714
 31
0.0
  0
LINE
  5
3DD
330
E3
100
AcDbEntity
  8
0
  6
Continuous
100
AcDbLine
 10
154.1790069714084
 20
128.4365076409714
 30
0.0
 11
154.1437239553281
 21
128.4247466356113
 31
0.0
  0
LINE
  5
3DE
330
E3
100
AcDbEntity
  8
0
  6
Continuous
100
AcDbLine
 10
154.1437239553281
 20
128.4247466356113
 30
0.0
 11
154.106570024274
 21
128.4126534750565
 31
0.0
  0
LINE
  5
3DF
330
E3
100
AcDbEntity
  8
0
  6
Continuous
100
AcDbLine
 10
154.106570024274
 20
128.4126534750565
 30
0.0
 11
154.0678298826987
 21
128.4002823887267
 31
0.0
  0
LINE
  5
3E0
330
E3
100
AcDbEntity
  8
0
  6
Continuous
100
AcDbLine
 10
154.0678298826987
 20
128.4002823887267
 30
0.0
 11
154.0278085710871
 21
128.3876842167026
 31
0.0
  0
LINE
  5
3E1
330
E3
100
AcDbEntity
  8
0
  6
Continuous
100
AcDbLine
 10
154.0278085710871
 20
128.3876842167026
 30
0.0
 11
153.9868179086014
 21
128.3749165777425
 31
0.0
  0
LINE
  5
3E2
330
E3
100
AcDbEntity
  8
0
  6
Continuous
100
AcDbLine
 10
153.9868179086014
 20
128.3749165777425
 30
0.0
 11
153.9451764930814
 21
128.3620337012659
 31
0.0
  0
LINE
  5
3E3
330
E3
100
AcDbEntity
  8
0
  6
Continuous
100
AcDbLine
 10
153.9451764930814
 20
128.3620337012659
 30
0.0
 11
153.9032097010442
 21
128.3490932060311
 31
0.0
  0
LINE
  5
3E4
330
E3
100
AcDbEntity
  8
0
  6
Continuous
100
AcDbLine
 10
153.9032097010442
 20
128.3490932060311
 30
0.0
 11
153.8612395196683
 21
128.3361527107962
 31
0.0
  0
LINE
  5
3E5
330
E3
100
AcDbEntity
  8
0
  6
Continuous
100
AcDbLine
 10
153.8612395196683
 20
128.3361527107962
 30
0.0
 11
153.8195981041483
 21
128.3232698343196
 31
0.0
  0
LINE
  5
3E6
330
E3
100
AcDbEntity
  8
0
  6
Continuous
100
AcDbLine
 10
153.8195981041483
 20
128.3232698343196
 30
0.0
 11
153.7786074416626
 21
128.3105021953595
 31
0.0
  0
LINE
  5
3E7
330
E3
100
AcDbEntity
  8
0
  6
Continuous
100
AcDbLine
 10
153.7786074416626
 20
128.3105021953595
 30
0.0
 11
153.738586130051
 21
128.2979040233354
 31
0.0
  0
LINE
  5
3E8
330
E3
100
AcDbEntity
  8
0
  6
Continuous
100
AcDbLine
 10
153.738586130051
 20
128.2979040233354
 30
0.0
 11
153.6998459884757
 21
128.2855329370056
 31
0.0
  0
LINE
  5
3E9
330
E3
100
AcDbEntity
  8
0
  6
Continuous
100
AcDbLine
 10
153.6998459884757
 20
128.2855329370056
 30
0.0
 11
153.6626920574217
 21
128.2734397764509
 31
0.0
  0
LINE
  5
3EA
330
E3
100
AcDbEntity
  8
0
  6
Continuous
100
AcDbLine
 10
153.6626920574217
 20
128.2734397764509
 30
0.0
 11
153.6274090413413
 21
128.2616787710908
 31
0.0
  0
LINE
  5
3EB
330
E3
100
AcDbEntity
  8
0
  6
Continuous
100
AcDbLine
 10
153.6274090413413
 20
128.2616787710908
 30
0.0
 11
153.5942782553484
 21
128.2502973716673
 31
0.0
  0
LINE
  5
3EC
330
E3
100
AcDbEntity
  8
0
  6
Continuous
100
AcDbLine
 10
153.5942782553484
 20
128.2502973716673
 30
0.0
 11
153.5635538998471
 21
128.239339639584
 31
0.0
  0
LINE
  5
3ED
330
E3
100
AcDbEntity
  8
0
  6
Continuous
100
AcDbLine
 10
153.5635538998471
 20
128.239339639584
 30
0.0
 11
153.5354800072253
 21
128.2288462469053
 31
0.0
  0
LINE
  5
3EE
330
E3
100
AcDbEntity
  8
0
  6
Continuous
100
AcDbLine
 10
153.5354800072253
 20
128.2288462469053
 30
0.0
 11
153.5102768844996
 21
128.2188612550347
 31
0.0
  0
LINE
  5
3EF
330
E3
100
AcDbEntity
  8
0
  6
Continuous
100
AcDbLine
 10
153.5102768844996
 20
128.2188612550347
 30
0.0
 11
153.4881445026548
 21
128.2094185573594
 31
0.0
  0
LINE
  5
3F0
330
E3
100
AcDbEntity
  8
0
  6
Continuous
100
AcDbLine
 10
153.4881445026548
 20
128.2094185573594
 30
0.0
 11
153.4692557179655
 21
128.2005486579279
 31
0.0
  0
LINE
  5
3F1
330
E3
100
AcDbEntity
  8
0
  6
Continuous
100
AcDbLine
 10
153.4692557179655
 20
128.2005486579279
 30
0.0
 11
153.4537630506741
 21
128.1922752821112
 31
0.0
  0
LINE
  5
3F2
330
E3
100
AcDbEntity
  8
0
  6
Continuous
100
AcDbLine
 10
153.4537630506741
 20
128.1922752821112
 30
0.0
 11
153.441795295652
 21
128.184625544619
 31
0.0
  0
LINE
  5
3F3
330
E3
100
AcDbEntity
  8
0
  6
Continuous
100
AcDbLine
 10
153.441795295652
 20
128.184625544619
 30
0.0
 11
153.4334439650447
 21
128.1776130028063
 31
0.0
  0
LINE
  5
3F4
330
E3
100
AcDbEntity
  8
0
  6
Continuous
100
AcDbLine
 10
153.4334439650447
 20
128.1776130028063
 30
0.0
 11
153.4287852351656
 21
128.1712505978439
 31
0.0
  0
LINE
  5
3F5
330
E3
100
AcDbEntity
  8
0
  6
Continuous
100
AcDbLine
 10
153.4287852351656
 20
128.1712505978439
 30
0.0
 11
153.4278589748511
 21
128.1655467509714
 31
0.0
  0
LINE
  5
3F6
330
E3
100
AcDbEntity
  8
0
  6
Continuous
100
AcDbLine
 10
154.4467761913335
 20
128.1457505485824
 30
0.0
 11
154.4458499310191
 21
128.1400467017099
 31
0.0
  0
LINE
  5
3F7
330
E3
100
AcDbEntity
  8
0
  6
Continuous
100
AcDbLine
 10
154.4458499310191
 20
128.1400467017099
 30
0.0
 11
154.4411904402167
 21
128.1336845855772
 31
0.0
  0
LINE
  5
3F8
330
E3
100
AcDbEntity
  8
0
  6
Continuous
100
AcDbLine
 10
154.4411904402167
 20
128.1336845855772
 30
0.0
 11
154.4328413268638
 21
128.1266712418372
 31
0.0
  0
LINE
  5
3F9
330
E3
100
AcDbEntity
  8
0
  6
Continuous
100
AcDbLine
 10
154.4328413268638
 20
128.1266712418372
 30
0.0
 11
154.4208701825031
 21
128.1190215043451
 31
0.0
  0
LINE
  5
3FA
330
E3
100
AcDbEntity
  8
0
  6
Continuous
100
AcDbLine
 10
154.4208701825031
 20
128.1190215043451
 30
0.0
 11
154.4053775152117
 21
128.1107481285283
 31
0.0
  0
LINE
  5
3FB
330
E3
100
AcDbEntity
  8
0
  6
Continuous
100
AcDbLine
 10
154.4053775152117
 20
128.1107481285283
 30
0.0
 11
154.3864921198611
 21
128.1018782290968
 31
0.0
  0
LINE
  5
3FC
330
E3
100
AcDbEntity
  8
0
  6
Continuous
100
AcDbLine
 10
154.3864921198611
 20
128.1018782290968
 30
0.0
 11
154.3643597380162
 21
128.0924355314215
 31
0.0
  0
LINE
  5
3FD
330
E3
100
AcDbEntity
  8
0
  6
Continuous
100
AcDbLine
 10
154.3643597380162
 20
128.0924355314215
 30
0.0
 11
154.3391566152906
 21
128.0824505395509
 31
0.0
  0
LINE
  5
3FE
330
E3
100
AcDbEntity
  8
0
  6
Continuous
100
AcDbLine
 10
154.3391566152906
 20
128.0824505395509
 30
0.0
 11
154.3110827226687
 21
128.071960536211
 31
0.0
  0
LINE
  5
3FF
330
E3
100
AcDbEntity
  8
0
  6
Continuous
100
AcDbLine
 10
154.3110827226687
 20
128.071960536211
 30
0.0
 11
154.2803583671674
 21
128.0610028041276
 31
0.0
  0
LINE
  5
400
330
E3
100
AcDbEntity
  8
0
  6
Continuous
100
AcDbLine
 10
154.2803583671674
 20
128.0610028041276
 30
0.0
 11
154.2472275811746
 21
128.0496180153655
 31
0.0
  0
LINE
  5
401
330
E3
100
AcDbEntity
  8
0
  6
Continuous
100
AcDbLine
 10
154.2472275811746
 20
128.0496180153655
 30
0.0
 11
154.2119445650942
 21
128.0378570100053
 31
0.0
  0
LINE
  5
402
330
E3
100
AcDbEntity
  8
0
  6
Continuous
100
AcDbLine
 10
154.2119445650942
 20
128.0378570100053
 30
0.0
 11
154.1747872447014
 21
128.0257638494506
 31
0.0
  0
LINE
  5
403
330
E3
100
AcDbEntity
  8
0
  6
Continuous
100
AcDbLine
 10
154.1747872447014
 20
128.0257638494506
 30
0.0
 11
154.1360504924649
 21
128.0133927631208
 31
0.0
  0
LINE
  5
404
330
E3
100
AcDbEntity
  8
0
  6
Continuous
100
AcDbLine
 10
154.1360504924649
 20
128.0133927631208
 30
0.0
 11
154.0960291808532
 21
128.0007979804354
 31
0.0
  0
LINE
  5
405
330
E3
100
AcDbEntity
  8
0
  6
Continuous
100
AcDbLine
 10
154.0960291808532
 20
128.0007979804354
 30
0.0
 11
154.0550385183676
 21
127.9880269521366
 31
0.0
  0
LINE
  5
406
330
E3
100
AcDbEntity
  8
0
  6
Continuous
100
AcDbLine
 10
154.0550385183676
 20
127.9880269521366
 30
0.0
 11
154.0133937135088
 21
127.97514407566
 31
0.0
  0
LINE
  5
407
330
E3
100
AcDbEntity
  8
0
  6
Continuous
100
AcDbLine
 10
154.0133937135088
 20
127.97514407566
 30
0.0
 11
153.9714269214716
 21
127.9622035804252
 31
0.0
  0
LINE
  5
408
330
E3
100
AcDbEntity
  8
0
  6
Continuous
100
AcDbLine
 10
153.9714269214716
 20
127.9622035804252
 30
0.0
 11
153.9294601294345
 21
127.9492630851903
 31
0.0
  0
LINE
  5
409
330
E3
100
AcDbEntity
  8
0
  6
Continuous
100
AcDbLine
 10
153.9294601294345
 20
127.9492630851903
 30
0.0
 11
153.8878153245757
 21
127.9363802087137
 31
0.0
  0
LINE
  5
40A
330
E3
100
AcDbEntity
  8
0
  6
Continuous
100
AcDbLine
 10
153.8878153245757
 20
127.9363802087137
 30
0.0
 11
153.84682466209
 21
127.9236125697536
 31
0.0
  0
LINE
  5
40B
330
E3
100
AcDbEntity
  8
0
  6
Continuous
100
AcDbLine
 10
153.84682466209
 20
127.9236125697536
 30
0.0
 11
153.8068033504784
 21
127.9110143977295
 31
0.0
  0
LINE
  5
40C
330
E3
100
AcDbEntity
  8
0
  6
Continuous
100
AcDbLine
 10
153.8068033504784
 20
127.9110143977295
 30
0.0
 11
153.7680665982419
 21
127.8986433113997
 31
0.0
  0
LINE
  5
40D
330
E3
100
AcDbEntity
  8
0
  6
Continuous
100
AcDbLine
 10
153.7680665982419
 20
127.8986433113997
 30
0.0
 11
153.7309092778491
 21
127.886550150845
 31
0.0
  0
LINE
  5
40E
330
E3
100
AcDbEntity
  8
0
  6
Continuous
100
AcDbLine
 10
153.7309092778491
 20
127.886550150845
 30
0.0
 11
153.6956296511074
 21
127.8747891454848
 31
0.0
  0
LINE
  5
40F
330
E3
100
AcDbEntity
  8
0
  6
Continuous
100
AcDbLine
 10
153.6956296511074
 20
127.8747891454848
 30
0.0
 11
153.6624954757758
 21
127.8634077460614
 31
0.0
  0
LINE
  5
410
330
E3
100
AcDbEntity
  8
0
  6
Continuous
100
AcDbLine
 10
153.6624954757758
 20
127.8634077460614
 30
0.0
 11
153.6317711202745
 21
127.852450013978
 31
0.0
  0
LINE
  5
411
330
E3
100
AcDbEntity
  8
0
  6
Continuous
100
AcDbLine
 10
153.6317711202745
 20
127.852450013978
 30
0.0
 11
153.6036972276527
 21
127.8419600106381
 31
0.0
  0
LINE
  5
412
330
E3
100
AcDbEntity
  8
0
  6
Continuous
100
AcDbLine
 10
153.6036972276527
 20
127.8419600106381
 30
0.0
 11
153.5784941049271
 21
127.8319750187675
 31
0.0
  0
LINE
  5
413
330
E3
100
AcDbEntity
  8
0
  6
Continuous
100
AcDbLine
 10
153.5784941049271
 20
127.8319750187675
 30
0.0
 11
153.5563617230822
 21
127.8225323210922
 31
0.0
  0
LINE
  5
414
330
E3
100
AcDbEntity
  8
0
  6
Continuous
100
AcDbLine
 10
153.5563617230822
 20
127.8225323210922
 30
0.0
 11
153.5374763277316
 21
127.813659032322
 31
0.0
  0
LINE
  5
415
330
E3
100
AcDbEntity
  8
0
  6
Continuous
100
AcDbLine
 10
153.5374763277316
 20
127.813659032322
 30
0.0
 11
153.5219836604402
 21
127.805389045844
 31
0.0
  0
LINE
  5
416
330
E3
100
AcDbEntity
  8
0
  6
Continuous
100
AcDbLine
 10
153.5219836604402
 20
127.805389045844
 30
0.0
 11
153.5100125160795
 21
127.7977359190131
 31
0.0
  0
LINE
  5
417
330
E3
100
AcDbEntity
  8
0
  6
Continuous
100
AcDbLine
 10
153.5100125160795
 20
127.7977359190131
 30
0.0
 11
153.5016645748109
 21
127.7907233772004
 31
0.0
  0
LINE
  5
418
330
E3
100
AcDbEntity
  8
0
  6
Continuous
100
AcDbLine
 10
153.5016645748109
 20
127.7907233772004
 30
0.0
 11
153.4970041621062
 21
127.784361837732
 31
0.0
  0
LINE
  5
419
330
E3
100
AcDbEntity
  8
0
  6
Continuous
100
AcDbLine
 10
153.4970041621062
 20
127.784361837732
 30
0.0
 11
153.4960779017916
 21
127.7786579908595
 31
0.0
  0
LINE
  5
41A
330
E3
100
AcDbEntity
  8
0
  6
Continuous
100
AcDbLine
 10
154.5149951182741
 20
127.7588617884705
 30
0.0
 11
154.5140688579596
 21
127.753157941598
 31
0.0
  0
LINE
  5
41B
330
E3
100
AcDbEntity
  8
0
  6
Continuous
100
AcDbLine
 10
154.5140688579596
 20
127.753157941598
 30
0.0
 11
154.5094093671573
 21
127.7467958254653
 31
0.0
  0
LINE
  5
41C
330
E3
100
AcDbEntity
  8
0
  6
Continuous
100
AcDbLine
 10
154.5094093671573
 20
127.7467958254653
 30
0.0
 11
154.5010585472912
 21
127.7397816162313
 31
0.0
  0
LINE
  5
41D
330
E3
100
AcDbEntity
  8
0
  6
Continuous
100
AcDbLine
 10
154.5010585472912
 20
127.7397816162313
 30
0.0
 11
154.4890907922692
 21
127.7321318787392
 31
0.0
  0
LINE
  5
41E
330
E3
100
AcDbEntity
  8
0
  6
Continuous
100
AcDbLine
 10
154.4890907922692
 20
127.7321318787392
 30
0.0
 11
154.4735981249778
 21
127.7238585029224
 31
0.0
  0
LINE
  5
41F
330
E3
100
AcDbEntity
  8
0
  6
Continuous
100
AcDbLine
 10
154.4735981249778
 20
127.7238585029224
 30
0.0
 11
154.4547093402885
 21
127.7149886034909
 31
0.0
  0
LINE
  5
420
330
E3
100
AcDbEntity
  8
0
  6
Continuous
100
AcDbLine
 10
154.4547093402885
 20
127.7149886034909
 30
0.0
 11
154.4325769584436
 21
127.7055459058156
 31
0.0
  0
LINE
  5
421
330
E3
100
AcDbEntity
  8
0
  6
Continuous
100
AcDbLine
 10
154.4325769584436
 20
127.7055459058156
 30
0.0
 11
154.407373835718
 21
127.695560913945
 31
0.0
  0
LINE
  5
422
330
E3
100
AcDbEntity
  8
0
  6
Continuous
100
AcDbLine
 10
154.407373835718
 20
127.695560913945
 30
0.0
 11
154.3792999430961
 21
127.685070910605
 31
0.0
  0
LINE
  5
423
330
E3
100
AcDbEntity
  8
0
  6
Continuous
100
AcDbLine
 10
154.3792999430961
 20
127.685070910605
 30
0.0
 11
154.3485755875948
 21
127.6741131785217
 31
0.0
  0
LINE
  5
424
330
E3
100
AcDbEntity
  8
0
  6
Continuous
100
AcDbLine
 10
154.3485755875948
 20
127.6741131785217
 30
0.0
 11
154.315444801602
 21
127.6627283897596
 31
0.0
  0
LINE
  5
425
330
E3
100
AcDbEntity
  8
0
  6
Continuous
100
AcDbLine
 10
154.315444801602
 20
127.6627283897596
 30
0.0
 11
154.2801617855216
 21
127.6509673843994
 31
0.0
  0
LINE
  5
426
330
E3
100
AcDbEntity
  8
0
  6
Continuous
100
AcDbLine
 10
154.2801617855216
 20
127.6509673843994
 30
0.0
 11
154.2430078544675
 21
127.6388776131834
 31
0.0
  0
LINE
  5
427
330
E3
100
AcDbEntity
  8
0
  6
Continuous
100
AcDbLine
 10
154.2430078544675
 20
127.6388776131834
 30
0.0
 11
154.2042677128923
 21
127.6265065268536
 31
0.0
  0
LINE
  5
428
330
E3
100
AcDbEntity
  8
0
  6
Continuous
100
AcDbLine
 10
154.2042677128923
 20
127.6265065268536
 30
0.0
 11
154.1642464012806
 21
127.6139083548295
 31
0.0
  0
LINE
  5
429
330
E3
100
AcDbEntity
  8
0
  6
Continuous
100
AcDbLine
 10
154.1642464012806
 20
127.6139083548295
 30
0.0
 11
154.123255738795
 21
127.6011407158694
 31
0.0
  0
LINE
  5
42A
330
E3
100
AcDbEntity
  8
0
  6
Continuous
100
AcDbLine
 10
154.123255738795
 20
127.6011407158694
 30
0.0
 11
154.0816143232749
 21
127.5882578393928
 31
0.0
  0
LINE
  5
42B
330
E3
100
AcDbEntity
  8
0
  6
Continuous
100
AcDbLine
 10
154.0816143232749
 20
127.5882578393928
 30
0.0
 11
154.0396475312378
 21
127.5753139548193
 31
0.0
  0
LINE
  5
42C
330
E3
100
AcDbEntity
  8
0
  6
Continuous
100
AcDbLine
 10
154.0396475312378
 20
127.5753139548193
 30
0.0
 11
153.9976773498619
 21
127.5623734595844
 31
0.0
  0
LINE
  5
42D
330
E3
100
AcDbEntity
  8
0
  6
Continuous
100
AcDbLine
 10
153.9976773498619
 20
127.5623734595844
 30
0.0
 11
153.9560359343419
 21
127.5494905831078
 31
0.0
  0
LINE
  5
42E
330
E3
100
AcDbEntity
  8
0
  6
Continuous
100
AcDbLine
 10
153.9560359343419
 20
127.5494905831078
 30
0.0
 11
153.9150452718562
 21
127.5367229441477
 31
0.0
  0
LINE
  5
42F
330
E3
100
AcDbEntity
  8
0
  6
Continuous
100
AcDbLine
 10
153.9150452718562
 20
127.5367229441477
 30
0.0
 11
153.8750239602446
 21
127.5241247721236
 31
0.0
  0
LINE
  5
430
330
E3
100
AcDbEntity
  8
0
  6
Continuous
100
AcDbLine
 10
153.8750239602446
 20
127.5241247721236
 30
0.0
 11
153.8362838186693
 21
127.5117536857938
 31
0.0
  0
LINE
  5
431
330
E3
100
AcDbEntity
  8
0
  6
Continuous
100
AcDbLine
 10
153.8362838186693
 20
127.5117536857938
 30
0.0
 11
153.7991298876152
 21
127.4996639145778
 31
0.0
  0
LINE
  5
432
330
E3
100
AcDbEntity
  8
0
  6
Continuous
100
AcDbLine
 10
153.7991298876152
 20
127.4996639145778
 30
0.0
 11
153.7638468715349
 21
127.4878995198789
 31
0.0
  0
LINE
  5
433
330
E3
100
AcDbEntity
  8
0
  6
Continuous
100
AcDbLine
 10
153.7638468715349
 20
127.4878995198789
 30
0.0
 11
153.730716085542
 21
127.4765181204555
 31
0.0
  0
LINE
  5
434
330
E3
100
AcDbEntity
  8
0
  6
Continuous
100
AcDbLine
 10
153.730716085542
 20
127.4765181204555
 30
0.0
 11
153.6999917300407
 21
127.4655603883721
 31
0.0
  0
LINE
  5
435
330
E3
100
AcDbEntity
  8
0
  6
Continuous
100
AcDbLine
 10
153.6999917300407
 20
127.4655603883721
 30
0.0
 11
153.6719178374188
 21
127.4550703850322
 31
0.0
  0
LINE
  5
436
330
E3
100
AcDbEntity
  8
0
  6
Continuous
100
AcDbLine
 10
153.6719178374188
 20
127.4550703850322
 30
0.0
 11
153.6467147146932
 21
127.4450853931616
 31
0.0
  0
LINE
  5
437
330
E3
100
AcDbEntity
  8
0
  6
Continuous
100
AcDbLine
 10
153.6467147146932
 20
127.4450853931616
 30
0.0
 11
153.6245823328484
 21
127.4356426954863
 31
0.0
  0
LINE
  5
438
330
E3
100
AcDbEntity
  8
0
  6
Continuous
100
AcDbLine
 10
153.6245823328484
 20
127.4356426954863
 30
0.0
 11
153.6056935481591
 21
127.4267727960548
 31
0.0
  0
LINE
  5
439
330
E3
100
AcDbEntity
  8
0
  6
Continuous
100
AcDbLine
 10
153.6056935481591
 20
127.4267727960548
 30
0.0
 11
153.5902008808677
 21
127.418499420238
 31
0.0
  0
LINE
  5
43A
330
E3
100
AcDbEntity
  8
0
  6
Continuous
100
AcDbLine
 10
153.5902008808677
 20
127.418499420238
 30
0.0
 11
153.5782331258456
 21
127.4108496827459
 31
0.0
  0
LINE
  5
43B
330
E3
100
AcDbEntity
  8
0
  6
Continuous
100
AcDbLine
 10
153.5782331258456
 20
127.4108496827459
 30
0.0
 11
153.5698817952383
 21
127.4038337515944
 31
0.0
  0
LINE
  5
43C
330
E3
100
AcDbEntity
  8
0
  6
Continuous
100
AcDbLine
 10
153.5698817952383
 20
127.4038337515944
 30
0.0
 11
153.5652230890467
 21
127.39747307762
 31
0.0
  0
LINE
  5
43D
330
E3
100
AcDbEntity
  8
0
  6
Continuous
100
AcDbLine
 10
153.5652230890467
 20
127.39747307762
 30
0.0
 11
153.5642968287322
 21
127.3917692307476
 31
0.0
  0
LINE
  5
43E
330
E3
100
AcDbEntity
  8
0
  6
Continuous
100
AcDbLine
 10
154.5832140452147
 20
127.3719730283585
 30
0.0
 11
154.5822877849002
 21
127.366269181486
 31
0.0
  0
LINE
  5
43F
330
E3
100
AcDbEntity
  8
0
  6
Continuous
100
AcDbLine
 10
154.5822877849002
 20
127.366269181486
 30
0.0
 11
154.5776282940979
 21
127.3599070653534
 31
0.0
  0
LINE
  5
440
330
E3
100
AcDbEntity
  8
0
  6
Continuous
100
AcDbLine
 10
154.5776282940979
 20
127.3599070653534
 30
0.0
 11
154.5692791570574
 21
127.3528953799641
 31
0.0
  0
LINE
  5
441
330
E3
100
AcDbEntity
  8
0
  6
Continuous
100
AcDbLine
 10
154.5692791570574
 20
127.3528953799641
 30
0.0
 11
154.5573080126966
 21
127.3452422531332
 31
0.0
  0
LINE
  5
442
330
E3
100
AcDbEntity
  8
0
  6
Continuous
100
AcDbLine
 10
154.5573080126966
 20
127.3452422531332
 30
0.0
 11
154.5418187347439
 21
127.3369722666552
 31
0.0
  0
LINE
  5
443
330
E3
100
AcDbEntity
  8
0
  6
Continuous
100
AcDbLine
 10
154.5418187347439
 20
127.3369722666552
 30
0.0
 11
154.5229299500546
 21
127.328098977885
 31
0.0
  0
LINE
  5
444
330
E3
100
AcDbEntity
  8
0
  6
Continuous
100
AcDbLine
 10
154.5229299500546
 20
127.328098977885
 30
0.0
 11
154.5007975682098
 21
127.3186562802097
 31
0.0
  0
LINE
  5
445
330
E3
100
AcDbEntity
  8
0
  6
Continuous
100
AcDbLine
 10
154.5007975682098
 20
127.3186562802097
 30
0.0
 11
154.4755944454842
 21
127.3086712883391
 31
0.0
  0
LINE
  5
446
330
E3
100
AcDbEntity
  8
0
  6
Continuous
100
AcDbLine
 10
154.4755944454842
 20
127.3086712883391
 30
0.0
 11
154.4475205528623
 21
127.2981812849991
 31
0.0
  0
LINE
  5
447
330
E3
100
AcDbEntity
  8
0
  6
Continuous
100
AcDbLine
 10
154.4475205528623
 20
127.2981812849991
 30
0.0
 11
154.416796197361
 21
127.2872235529158
 31
0.0
  0
LINE
  5
448
330
E3
100
AcDbEntity
  8
0
  6
Continuous
100
AcDbLine
 10
154.416796197361
 20
127.2872235529158
 30
0.0
 11
154.3836654113681
 21
127.2758421534924
 31
0.0
  0
LINE
  5
449
330
E3
100
AcDbEntity
  8
0
  6
Continuous
100
AcDbLine
 10
154.3836654113681
 20
127.2758421534924
 30
0.0
 11
154.3483823952878
 21
127.2640811481322
 31
0.0
  0
LINE
  5
44A
330
E3
100
AcDbEntity
  8
0
  6
Continuous
100
AcDbLine
 10
154.3483823952878
 20
127.2640811481322
 30
0.0
 11
154.311225074895
 21
127.2519879875775
 31
0.0
  0
LINE
  5
44B
330
E3
100
AcDbEntity
  8
0
  6
Continuous
100
AcDbLine
 10
154.311225074895
 20
127.2519879875775
 30
0.0
 11
154.2724883226584
 21
127.2396169012477
 31
0.0
  0
LINE
  5
44C
330
E3
100
AcDbEntity
  8
0
  6
Continuous
100
AcDbLine
 10
154.2724883226584
 20
127.2396169012477
 30
0.0
 11
154.2324670110468
 21
127.2270187292236
 31
0.0
  0
LINE
  5
44D
330
E3
100
AcDbEntity
  8
0
  6
Continuous
100
AcDbLine
 10
154.2324670110468
 20
127.2270187292236
 30
0.0
 11
154.1914763485611
 21
127.2142510902635
 31
0.0
  0
LINE
  5
44E
330
E3
100
AcDbEntity
  8
0
  6
Continuous
100
AcDbLine
 10
154.1914763485611
 20
127.2142510902635
 30
0.0
 11
154.1498349330411
 21
127.2013682137869
 31
0.0
  0
LINE
  5
44F
330
E3
100
AcDbEntity
  8
0
  6
Continuous
100
AcDbLine
 10
154.1498349330411
 20
127.2013682137869
 30
0.0
 11
154.1078647516652
 21
127.188427718552
 31
0.0
  0
LINE
  5
450
330
E3
100
AcDbEntity
  8
0
  6
Continuous
100
AcDbLine
 10
154.1078647516652
 20
127.188427718552
 30
0.0
 11
154.065897959628
 21
127.1754872233172
 31
0.0
  0
LINE
  5
451
330
E3
100
AcDbEntity
  8
0
  6
Continuous
100
AcDbLine
 10
154.065897959628
 20
127.1754872233172
 30
0.0
 11
154.0242531547693
 21
127.1626043468406
 31
0.0
  0
LINE
  5
452
330
E3
100
AcDbEntity
  8
0
  6
Continuous
100
AcDbLine
 10
154.0242531547693
 20
127.1626043468406
 30
0.0
 11
153.9832624922836
 21
127.1498333185417
 31
0.0
  0
LINE
  5
453
330
E3
100
AcDbEntity
  8
0
  6
Continuous
100
AcDbLine
 10
153.9832624922836
 20
127.1498333185417
 30
0.0
 11
153.943241180672
 21
127.1372385358564
 31
0.0
  0
LINE
  5
454
330
E3
100
AcDbEntity
  8
0
  6
Continuous
100
AcDbLine
 10
153.943241180672
 20
127.1372385358564
 30
0.0
 11
153.9045044284354
 21
127.1248674495266
 31
0.0
  0
LINE
  5
455
330
E3
100
AcDbEntity
  8
0
  6
Continuous
100
AcDbLine
 10
153.9045044284354
 20
127.1248674495266
 30
0.0
 11
153.8673471080427
 21
127.1127742889718
 31
0.0
  0
LINE
  5
456
330
E3
100
AcDbEntity
  8
0
  6
Continuous
100
AcDbLine
 10
153.8673471080427
 20
127.1127742889718
 30
0.0
 11
153.832067481301
 21
127.1010132836117
 31
0.0
  0
LINE
  5
457
330
E3
100
AcDbEntity
  8
0
  6
Continuous
100
AcDbLine
 10
153.832067481301
 20
127.1010132836117
 30
0.0
 11
153.7989333059695
 21
127.0896284948496
 31
0.0
  0
LINE
  5
458
330
E3
100
AcDbEntity
  8
0
  6
Continuous
100
AcDbLine
 10
153.7989333059695
 20
127.0896284948496
 30
0.0
 11
153.7682089504681
 21
127.0786707627662
 31
0.0
  0
LINE
  5
459
330
E3
100
AcDbEntity
  8
0
  6
Continuous
100
AcDbLine
 10
153.7682089504681
 20
127.0786707627662
 30
0.0
 11
153.7401350578463
 21
127.0681807594263
 31
0.0
  0
LINE
  5
45A
330
E3
100
AcDbEntity
  8
0
  6
Continuous
100
AcDbLine
 10
153.7401350578463
 20
127.0681807594263
 30
0.0
 11
153.7149319351207
 21
127.0581957675557
 31
0.0
  0
LINE
  5
45B
330
E3
100
AcDbEntity
  8
0
  6
Continuous
100
AcDbLine
 10
153.7149319351207
 20
127.0581957675557
 30
0.0
 11
153.6927995532758
 21
127.0487530698804
 31
0.0
  0
LINE
  5
45C
330
E3
100
AcDbEntity
  8
0
  6
Continuous
100
AcDbLine
 10
153.6927995532758
 20
127.0487530698804
 30
0.0
 11
153.6739141579252
 21
127.0398831704488
 31
0.0
  0
LINE
  5
45D
330
E3
100
AcDbEntity
  8
0
  6
Continuous
100
AcDbLine
 10
153.6739141579252
 20
127.0398831704488
 30
0.0
 11
153.6584214906338
 21
127.0316097946321
 31
0.0
  0
LINE
  5
45E
330
E3
100
AcDbEntity
  8
0
  6
Continuous
100
AcDbLine
 10
153.6584214906338
 20
127.0316097946321
 30
0.0
 11
153.646450346273
 21
127.0239600571399
 31
0.0
  0
LINE
  5
45F
330
E3
100
AcDbEntity
  8
0
  6
Continuous
100
AcDbLine
 10
153.646450346273
 20
127.0239600571399
 30
0.0
 11
153.6381024050044
 21
127.0169475153272
 31
0.0
  0
LINE
  5
460
330
E3
100
AcDbEntity
  8
0
  6
Continuous
100
AcDbLine
 10
153.6381024050044
 20
127.0169475153272
 30
0.0
 11
153.6334420159873
 21
127.0105843175081
 31
0.0
  0
LINE
  5
461
330
E3
100
AcDbEntity
  8
0
  6
Continuous
100
AcDbLine
 10
153.6334420159873
 20
127.0105843175081
 30
0.0
 11
153.6325157556728
 21
127.0048804706356
 31
0.0
  0
LINE
  5
462
330
E3
100
AcDbEntity
  8
0
  6
Continuous
100
AcDbLine
 10
154.6514329721553
 20
126.9850842682466
 30
0.0
 11
154.6505067118408
 21
126.9793804213741
 31
0.0
  0
LINE
  5
463
330
E3
100
AcDbEntity
  8
0
  6
Continuous
100
AcDbLine
 10
154.6505067118408
 20
126.9793804213741
 30
0.0
 11
154.6458472210385
 21
126.9730183052414
 31
0.0
  0
LINE
  5
464
330
E3
100
AcDbEntity
  8
0
  6
Continuous
100
AcDbLine
 10
154.6458472210385
 20
126.9730183052414
 30
0.0
 11
154.6374963774848
 21
126.9660057543582
 31
0.0
  0
LINE
  5
465
330
E3
100
AcDbEntity
  8
0
  6
Continuous
100
AcDbLine
 10
154.6374963774848
 20
126.9660057543582
 30
0.0
 11
154.6255286224628
 21
126.9583526275273
 31
0.0
  0
LINE
  5
466
330
E3
100
AcDbEntity
  8
0
  6
Continuous
100
AcDbLine
 10
154.6255286224628
 20
126.9583526275273
 30
0.0
 11
154.6100359551714
 21
126.9500826410493
 31
0.0
  0
LINE
  5
467
330
E3
100
AcDbEntity
  8
0
  6
Continuous
100
AcDbLine
 10
154.6100359551714
 20
126.9500826410493
 30
0.0
 11
154.5911471704821
 21
126.9412127416178
 31
0.0
  0
LINE
  5
468
330
E3
100
AcDbEntity
  8
0
  6
Continuous
100
AcDbLine
 10
154.5911471704821
 20
126.9412127416178
 30
0.0
 11
154.5690147886372
 21
126.9317666546037
 31
0.0
  0
LINE
  5
469
330
E3
100
AcDbEntity
  8
0
  6
Continuous
100
AcDbLine
 10
154.5690147886372
 20
126.9317666546037
 30
0.0
 11
154.5438116659116
 21
126.9217850520719
 31
0.0
  0
LINE
  5
46A
330
E3
100
AcDbEntity
  8
0
  6
Continuous
100
AcDbLine
 10
154.5438116659116
 20
126.9217850520719
 30
0.0
 11
154.5157377732897
 21
126.9112916593932
 31
0.0
  0
LINE
  5
46B
330
E3
100
AcDbEntity
  8
0
  6
Continuous
100
AcDbLine
 10
154.5157377732897
 20
126.9112916593932
 30
0.0
 11
154.4850134177884
 21
126.9003339273099
 31
0.0
  0
LINE
  5
46C
330
E3
100
AcDbEntity
  8
0
  6
Continuous
100
AcDbLine
 10
154.4850134177884
 20
126.9003339273099
 30
0.0
 11
154.4518826317956
 21
126.8889525278864
 31
0.0
  0
LINE
  5
46D
330
E3
100
AcDbEntity
  8
0
  6
Continuous
100
AcDbLine
 10
154.4518826317956
 20
126.8889525278864
 30
0.0
 11
154.4165996157152
 21
126.8771915225263
 31
0.0
  0
LINE
  5
46E
330
E3
100
AcDbEntity
  8
0
  6
Continuous
100
AcDbLine
 10
154.4165996157152
 20
126.8771915225263
 30
0.0
 11
154.3794456846611
 21
126.8650983619716
 31
0.0
  0
LINE
  5
46F
330
E3
100
AcDbEntity
  8
0
  6
Continuous
100
AcDbLine
 10
154.3794456846611
 20
126.8650983619716
 30
0.0
 11
154.3407055430859
 21
126.8527272756418
 31
0.0
  0
LINE
  5
470
330
E3
100
AcDbEntity
  8
0
  6
Continuous
100
AcDbLine
 10
154.3407055430859
 20
126.8527272756418
 30
0.0
 11
154.3006842314742
 21
126.8401291036177
 31
0.0
  0
LINE
  5
471
330
E3
100
AcDbEntity
  8
0
  6
Continuous
100
AcDbLine
 10
154.3006842314742
 20
126.8401291036177
 30
0.0
 11
154.2596935689886
 21
126.8273614646576
 31
0.0
  0
LINE
  5
472
330
E3
100
AcDbEntity
  8
0
  6
Continuous
100
AcDbLine
 10
154.2596935689886
 20
126.8273614646576
 30
0.0
 11
154.2180521534685
 21
126.814478588181
 31
0.0
  0
LINE
  5
473
330
E3
100
AcDbEntity
  8
0
  6
Continuous
100
AcDbLine
 10
154.2180521534685
 20
126.814478588181
 30
0.0
 11
154.1760853614313
 21
126.8015380929461
 31
0.0
  0
LINE
  5
474
330
E3
100
AcDbEntity
  8
0
  6
Continuous
100
AcDbLine
 10
154.1760853614313
 20
126.8015380929461
 30
0.0
 11
154.1341151800554
 21
126.7885975977113
 31
0.0
  0
LINE
  5
475
330
E3
100
AcDbEntity
  8
0
  6
Continuous
100
AcDbLine
 10
154.1341151800554
 20
126.7885975977113
 30
0.0
 11
154.0924737645354
 21
126.7757147212347
 31
0.0
  0
LINE
  5
476
330
E3
100
AcDbEntity
  8
0
  6
Continuous
100
AcDbLine
 10
154.0924737645354
 20
126.7757147212347
 30
0.0
 11
154.0514831020498
 21
126.7629470822746
 31
0.0
  0
LINE
  5
477
330
E3
100
AcDbEntity
  8
0
  6
Continuous
100
AcDbLine
 10
154.0514831020498
 20
126.7629470822746
 30
0.0
 11
154.0114617904381
 21
126.7503489102505
 31
0.0
  0
LINE
  5
478
330
E3
100
AcDbEntity
  8
0
  6
Continuous
100
AcDbLine
 10
154.0114617904381
 20
126.7503489102505
 30
0.0
 11
153.9727216488629
 21
126.7379778239207
 31
0.0
  0
LINE
  5
479
330
E3
100
AcDbEntity
  8
0
  6
Continuous
100
AcDbLine
 10
153.9727216488629
 20
126.7379778239207
 30
0.0
 11
153.9355677178088
 21
126.7258846633659
 31
0.0
  0
LINE
  5
47A
330
E3
100
AcDbEntity
  8
0
  6
Continuous
100
AcDbLine
 10
153.9355677178088
 20
126.7258846633659
 30
0.0
 11
153.9002847017284
 21
126.7141236580058
 31
0.0
  0
LINE
  5
47B
330
E3
100
AcDbEntity
  8
0
  6
Continuous
100
AcDbLine
 10
153.9002847017284
 20
126.7141236580058
 30
0.0
 11
153.8671539157356
 21
126.7027422585824
 31
0.0
  0
LINE
  5
47C
330
E3
100
AcDbEntity
  8
0
  6
Continuous
100
AcDbLine
 10
153.8671539157356
 20
126.7027422585824
 30
0.0
 11
153.8364295602343
 21
126.691784526499
 31
0.0
  0
LINE
  5
47D
330
E3
100
AcDbEntity
  8
0
  6
Continuous
100
AcDbLine
 10
153.8364295602343
 20
126.691784526499
 30
0.0
 11
153.8083556676124
 21
126.6812911338204
 31
0.0
  0
LINE
  5
47E
330
E3
100
AcDbEntity
  8
0
  6
Continuous
100
AcDbLine
 10
153.8083556676124
 20
126.6812911338204
 30
0.0
 11
153.7831525448868
 21
126.6713095312885
 31
0.0
  0
LINE
  5
47F
330
E3
100
AcDbEntity
  8
0
  6
Continuous
100
AcDbLine
 10
153.7831525448868
 20
126.6713095312885
 30
0.0
 11
153.761020163042
 21
126.6618634442745
 31
0.0
  0
LINE
  5
480
330
E3
100
AcDbEntity
  8
0
  6
Continuous
100
AcDbLine
 10
153.761020163042
 20
126.6618634442745
 30
0.0
 11
153.7421313783526
 21
126.6529935448429
 31
0.0
  0
LINE
  5
481
330
E3
100
AcDbEntity
  8
0
  6
Continuous
100
AcDbLine
 10
153.7421313783526
 20
126.6529935448429
 30
0.0
 11
153.7266387110612
 21
126.6447201690262
 31
0.0
  0
LINE
  5
482
330
E3
100
AcDbEntity
  8
0
  6
Continuous
100
AcDbLine
 10
153.7266387110612
 20
126.6447201690262
 30
0.0
 11
153.7146709560392
 21
126.6370704315341
 31
0.0
  0
LINE
  5
483
330
E3
100
AcDbEntity
  8
0
  6
Continuous
100
AcDbLine
 10
153.7146709560392
 20
126.6370704315341
 30
0.0
 11
153.7063196254319
 21
126.6300578897213
 31
0.0
  0
LINE
  5
484
330
E3
100
AcDbEntity
  8
0
  6
Continuous
100
AcDbLine
 10
153.7063196254319
 20
126.6300578897213
 30
0.0
 11
153.7016609429279
 21
126.6236955573962
 31
0.0
  0
LINE
  5
485
330
E3
100
AcDbEntity
  8
0
  6
Continuous
100
AcDbLine
 10
153.7016609429279
 20
126.6236955573962
 30
0.0
 11
153.7007346826134
 21
126.6179917105237
 31
0.0
  0
LINE
  5
486
330
E3
100
AcDbEntity
  8
0
  6
Continuous
100
AcDbLine
 10
154.7196518990959
 20
126.5981955081346
 30
0.0
 11
154.7187256387814
 21
126.5924916612622
 31
0.0
  0
LINE
  5
487
330
E3
100
AcDbEntity
  8
0
  6
Continuous
100
AcDbLine
 10
154.7187256387814
 20
126.5924916612622
 30
0.0
 11
154.714066147979
 21
126.5861295451295
 31
0.0
  0
LINE
  5
488
330
E3
100
AcDbEntity
  8
0
  6
Continuous
100
AcDbLine
 10
154.714066147979
 20
126.5861295451295
 30
0.0
 11
154.705716987251
 21
126.5791161287523
 31
0.0
  0
LINE
  5
489
330
E3
100
AcDbEntity
  8
0
  6
Continuous
100
AcDbLine
 10
154.705716987251
 20
126.5791161287523
 30
0.0
 11
154.6937458428902
 21
126.5714663912601
 31
0.0
  0
LINE
  5
48A
330
E3
100
AcDbEntity
  8
0
  6
Continuous
100
AcDbLine
 10
154.6937458428902
 20
126.5714663912601
 30
0.0
 11
154.6782565649375
 21
126.5631930154434
 31
0.0
  0
LINE
  5
48B
330
E3
100
AcDbEntity
  8
0
  6
Continuous
100
AcDbLine
 10
154.6782565649375
 20
126.5631930154434
 30
0.0
 11
154.6593677802482
 21
126.5543231160119
 31
0.0
  0
LINE
  5
48C
330
E3
100
AcDbEntity
  8
0
  6
Continuous
100
AcDbLine
 10
154.6593677802482
 20
126.5543231160119
 30
0.0
 11
154.6372353984034
 21
126.5448804183365
 31
0.0
  0
LINE
  5
48D
330
E3
100
AcDbEntity
  8
0
  6
Continuous
100
AcDbLine
 10
154.6372353984034
 20
126.5448804183365
 30
0.0
 11
154.6120322756777
 21
126.534895426466
 31
0.0
  0
LINE
  5
48E
330
E3
100
AcDbEntity
  8
0
  6
Continuous
100
AcDbLine
 10
154.6120322756777
 20
126.534895426466
 30
0.0
 11
154.5839583830559
 21
126.524405423126
 31
0.0
  0
LINE
  5
48F
330
E3
100
AcDbEntity
  8
0
  6
Continuous
100
AcDbLine
 10
154.5839583830559
 20
126.524405423126
 30
0.0
 11
154.5532340275546
 21
126.5134476910427
 31
0.0
  0
LINE
  5
490
330
E3
100
AcDbEntity
  8
0
  6
Continuous
100
AcDbLine
 10
154.5532340275546
 20
126.5134476910427
 30
0.0
 11
154.5201032415617
 21
126.5020629022805
 31
0.0
  0
LINE
  5
491
330
E3
100
AcDbEntity
  8
0
  6
Continuous
100
AcDbLine
 10
154.5201032415617
 20
126.5020629022805
 30
0.0
 11
154.4848202254814
 21
126.4903018969204
 31
0.0
  0
LINE
  5
492
330
E3
100
AcDbEntity
  8
0
  6
Continuous
100
AcDbLine
 10
154.4848202254814
 20
126.4903018969204
 30
0.0
 11
154.4476629050886
 21
126.4782087363657
 31
0.0
  0
LINE
  5
493
330
E3
100
AcDbEntity
  8
0
  6
Continuous
100
AcDbLine
 10
154.4476629050886
 20
126.4782087363657
 30
0.0
 11
154.408926152852
 21
126.4658376500359
 31
0.0
  0
LINE
  5
494
330
E3
100
AcDbEntity
  8
0
  6
Continuous
100
AcDbLine
 10
154.408926152852
 20
126.4658376500359
 30
0.0
 11
154.3689048412404
 21
126.4532428673505
 31
0.0
  0
LINE
  5
495
330
E3
100
AcDbEntity
  8
0
  6
Continuous
100
AcDbLine
 10
154.3689048412404
 20
126.4532428673505
 30
0.0
 11
154.3279141787547
 21
126.4404718390517
 31
0.0
  0
LINE
  5
496
330
E3
100
AcDbEntity
  8
0
  6
Continuous
100
AcDbLine
 10
154.3279141787547
 20
126.4404718390517
 30
0.0
 11
154.2862727632347
 21
126.4275889625751
 31
0.0
  0
LINE
  5
497
330
E3
100
AcDbEntity
  8
0
  6
Continuous
100
AcDbLine
 10
154.2862727632347
 20
126.4275889625751
 30
0.0
 11
154.2443025818588
 21
126.4146484673402
 31
0.0
  0
LINE
  5
498
330
E3
100
AcDbEntity
  8
0
  6
Continuous
100
AcDbLine
 10
154.2443025818588
 20
126.4146484673402
 30
0.0
 11
154.2023357898216
 21
126.4017079721053
 31
0.0
  0
LINE
  5
499
330
E3
100
AcDbEntity
  8
0
  6
Continuous
100
AcDbLine
 10
154.2023357898216
 20
126.4017079721053
 30
0.0
 11
154.1606943743016
 21
126.3888250956287
 31
0.0
  0
LINE
  5
49A
330
E3
100
AcDbEntity
  8
0
  6
Continuous
100
AcDbLine
 10
154.1606943743016
 20
126.3888250956287
 30
0.0
 11
154.1197003224772
 21
126.3760574566686
 31
0.0
  0
LINE
  5
49B
330
E3
100
AcDbEntity
  8
0
  6
Continuous
100
AcDbLine
 10
154.1197003224772
 20
126.3760574566686
 30
0.0
 11
154.0796790108656
 21
126.3634592846445
 31
0.0
  0
LINE
  5
49C
330
E3
100
AcDbEntity
  8
0
  6
Continuous
100
AcDbLine
 10
154.0796790108656
 20
126.3634592846445
 30
0.0
 11
154.040942258629
 21
126.3510881983147
 31
0.0
  0
LINE
  5
49D
330
E3
100
AcDbEntity
  8
0
  6
Continuous
100
AcDbLine
 10
154.040942258629
 20
126.3510881983147
 30
0.0
 11
154.0037849382362
 21
126.33899503776
 31
0.0
  0
LINE
  5
49E
330
E3
100
AcDbEntity
  8
0
  6
Continuous
100
AcDbLine
 10
154.0037849382362
 20
126.33899503776
 30
0.0
 11
153.9685053114946
 21
126.3272340323999
 31
0.0
  0
LINE
  5
49F
330
E3
100
AcDbEntity
  8
0
  6
Continuous
100
AcDbLine
 10
153.9685053114946
 20
126.3272340323999
 30
0.0
 11
153.935371136163
 21
126.3158526329765
 31
0.0
  0
LINE
  5
4A0
330
E3
100
AcDbEntity
  8
0
  6
Continuous
100
AcDbLine
 10
153.935371136163
 20
126.3158526329765
 30
0.0
 11
153.9046467806617
 21
126.3048949008931
 31
0.0
  0
LINE
  5
4A1
330
E3
100
AcDbEntity
  8
0
  6
Continuous
100
AcDbLine
 10
153.9046467806617
 20
126.3048949008931
 30
0.0
 11
153.8765728880398
 21
126.2944048975532
 31
0.0
  0
LINE
  5
4A2
330
E3
100
AcDbEntity
  8
0
  6
Continuous
100
AcDbLine
 10
153.8765728880398
 20
126.2944048975532
 30
0.0
 11
153.8513697653142
 21
126.2844199056826
 31
0.0
  0
LINE
  5
4A3
330
E3
100
AcDbEntity
  8
0
  6
Continuous
100
AcDbLine
 10
153.8513697653142
 20
126.2844199056826
 30
0.0
 11
153.8292373834694
 21
126.2749772080073
 31
0.0
  0
LINE
  5
4A4
330
E3
100
AcDbEntity
  8
0
  6
Continuous
100
AcDbLine
 10
153.8292373834694
 20
126.2749772080073
 30
0.0
 11
153.8103519881188
 21
126.266103919237
 31
0.0
  0
LINE
  5
4A5
330
E3
100
AcDbEntity
  8
0
  6
Continuous
100
AcDbLine
 10
153.8103519881188
 20
126.266103919237
 30
0.0
 11
153.7948593208274
 21
126.257833932759
 31
0.0
  0
LINE
  5
4A6
330
E3
100
AcDbEntity
  8
0
  6
Continuous
100
AcDbLine
 10
153.7948593208274
 20
126.257833932759
 30
0.0
 11
153.7828881764666
 21
126.2501808059281
 31
0.0
  0
LINE
  5
4A7
330
E3
100
AcDbEntity
  8
0
  6
Continuous
100
AcDbLine
 10
153.7828881764666
 20
126.2501808059281
 30
0.0
 11
153.774540235198
 21
126.2431682641154
 31
0.0
  0
LINE
  5
4A8
330
E3
100
AcDbEntity
  8
0
  6
Continuous
100
AcDbLine
 10
153.774540235198
 20
126.2431682641154
 30
0.0
 11
153.7698798698684
 21
126.2368067972842
 31
0.0
  0
LINE
  5
4A9
330
E3
100
AcDbEntity
  8
0
  6
Continuous
100
AcDbLine
 10
153.7698798698684
 20
126.2368067972842
 30
0.0
 11
153.768953609554
 21
126.2311029504117
 31
0.0
  0
LINE
  5
4AA
330
E3
100
AcDbEntity
  8
0
  6
Continuous
100
AcDbLine
 10
154.7878708260365
 20
126.2113067480227
 30
0.0
 11
154.786944565722
 21
126.2056029011502
 31
0.0
  0
LINE
  5
4AB
330
E3
100
AcDbEntity
  8
0
  6
Continuous
100
AcDbLine
 10
154.786944565722
 20
126.2056029011502
 30
0.0
 11
154.7822850749197
 21
126.1992407850175
 31
0.0
  0
LINE
  5
4AC
330
E3
100
AcDbEntity
  8
0
  6
Continuous
100
AcDbLine
 10
154.7822850749197
 20
126.1992407850175
 30
0.0
 11
154.7739342076784
 21
126.1922265031464
 31
0.0
  0
LINE
  5
4AD
330
E3
100
AcDbEntity
  8
0
  6
Continuous
100
AcDbLine
 10
154.7739342076784
 20
126.1922265031464
 30
0.0
 11
154.7619664526563
 21
126.1845767656542
 31
0.0
  0
LINE
  5
4AE
330
E3
100
AcDbEntity
  8
0
  6
Continuous
100
AcDbLine
 10
154.7619664526563
 20
126.1845767656542
 30
0.0
 11
154.7464737853649
 21
126.1763033898375
 31
0.0
  0
LINE
  5
4AF
330
E3
100
AcDbEntity
  8
0
  6
Continuous
100
AcDbLine
 10
154.7464737853649
 20
126.1763033898375
 30
0.0
 11
154.7275850006756
 21
126.1674334904059
 31
0.0
  0
LINE
  5
4B0
330
E3
100
AcDbEntity
  8
0
  6
Continuous
100
AcDbLine
 10
154.7275850006756
 20
126.1674334904059
 30
0.0
 11
154.7054526188308
 21
126.1579907927306
 31
0.0
  0
LINE
  5
4B1
330
E3
100
AcDbEntity
  8
0
  6
Continuous
100
AcDbLine
 10
154.7054526188308
 20
126.1579907927306
 30
0.0
 11
154.6802494961051
 21
126.14800580086
 31
0.0
  0
LINE
  5
4B2
330
E3
100
AcDbEntity
  8
0
  6
Continuous
100
AcDbLine
 10
154.6802494961051
 20
126.14800580086
 30
0.0
 11
154.6521756034833
 21
126.1375157975201
 31
0.0
  0
LINE
  5
4B3
330
E3
100
AcDbEntity
  8
0
  6
Continuous
100
AcDbLine
 10
154.6521756034833
 20
126.1375157975201
 30
0.0
 11
154.621451247982
 21
126.1265580654367
 31
0.0
  0
LINE
  5
4B4
330
E3
100
AcDbEntity
  8
0
  6
Continuous
100
AcDbLine
 10
154.621451247982
 20
126.1265580654367
 30
0.0
 11
154.5883204619892
 21
126.1151732766746
 31
0.0
  0
LINE
  5
4B5
330
E3
100
AcDbEntity
  8
0
  6
Continuous
100
AcDbLine
 10
154.5883204619892
 20
126.1151732766746
 30
0.0
 11
154.5530374459088
 21
126.1034122713145
 31
0.0
  0
LINE
  5
4B6
330
E3
100
AcDbEntity
  8
0
  6
Continuous
100
AcDbLine
 10
154.5530374459088
 20
126.1034122713145
 30
0.0
 11
154.5158835148547
 21
126.0913225000985
 31
0.0
  0
LINE
  5
4B7
330
E3
100
AcDbEntity
  8
0
  6
Continuous
100
AcDbLine
 10
154.5158835148547
 20
126.0913225000985
 30
0.0
 11
154.4771433732794
 21
126.0789514137686
 31
0.0
  0
LINE
  5
4B8
330
E3
100
AcDbEntity
  8
0
  6
Continuous
100
AcDbLine
 10
154.4771433732794
 20
126.0789514137686
 30
0.0
 11
154.4371220616678
 21
126.0663532417446
 31
0.0
  0
LINE
  5
4B9
330
E3
100
AcDbEntity
  8
0
  6
Continuous
100
AcDbLine
 10
154.4371220616678
 20
126.0663532417446
 30
0.0
 11
154.3961313991821
 21
126.0535856027845
 31
0.0
  0
LINE
  5
4BA
330
E3
100
AcDbEntity
  8
0
  6
Continuous
100
AcDbLine
 10
154.3961313991821
 20
126.0535856027845
 30
0.0
 11
154.3544899836621
 21
126.0407027263079
 31
0.0
  0
LINE
  5
4BB
330
E3
100
AcDbEntity
  8
0
  6
Continuous
100
AcDbLine
 10
154.3544899836621
 20
126.0407027263079
 30
0.0
 11
154.3125231916249
 21
126.0277588417343
 31
0.0
  0
LINE
  5
4BC
330
E3
100
AcDbEntity
  8
0
  6
Continuous
100
AcDbLine
 10
154.3125231916249
 20
126.0277588417343
 30
0.0
 11
154.270553010249
 21
126.0148183464994
 31
0.0
  0
LINE
  5
4BD
330
E3
100
AcDbEntity
  8
0
  6
Continuous
100
AcDbLine
 10
154.270553010249
 20
126.0148183464994
 30
0.0
 11
154.228911594729
 21
126.0019354700228
 31
0.0
  0
LINE
  5
4BE
330
E3
100
AcDbEntity
  8
0
  6
Continuous
100
AcDbLine
 10
154.228911594729
 20
126.0019354700228
 30
0.0
 11
154.1879209322433
 21
125.9891678310627
 31
0.0
  0
LINE
  5
4BF
330
E3
100
AcDbEntity
  8
0
  6
Continuous
100
AcDbLine
 10
154.1879209322433
 20
125.9891678310627
 30
0.0
 11
154.1478996206317
 21
125.9765696590386
 31
0.0
  0
LINE
  5
4C0
330
E3
100
AcDbEntity
  8
0
  6
Continuous
100
AcDbLine
 10
154.1478996206317
 20
125.9765696590386
 30
0.0
 11
154.1091594790564
 21
125.9641985727088
 31
0.0
  0
LINE
  5
4C1
330
E3
100
AcDbEntity
  8
0
  6
Continuous
100
AcDbLine
 10
154.1091594790564
 20
125.9641985727088
 30
0.0
 11
154.0720055480024
 21
125.9521088014928
 31
0.0
  0
LINE
  5
4C2
330
E3
100
AcDbEntity
  8
0
  6
Continuous
100
AcDbLine
 10
154.0720055480024
 20
125.9521088014928
 30
0.0
 11
154.036722531922
 21
125.940344406794
 31
0.0
  0
LINE
  5
4C3
330
E3
100
AcDbEntity
  8
0
  6
Continuous
100
AcDbLine
 10
154.036722531922
 20
125.940344406794
 30
0.0
 11
154.0035917459292
 21
125.9289630073706
 31
0.0
  0
LINE
  5
4C4
330
E3
100
AcDbEntity
  8
0
  6
Continuous
100
AcDbLine
 10
154.0035917459292
 20
125.9289630073706
 30
0.0
 11
153.9728673904278
 21
125.9180052752872
 31
0.0
  0
LINE
  5
4C5
330
E3
100
AcDbEntity
  8
0
  6
Continuous
100
AcDbLine
 10
153.9728673904278
 20
125.9180052752872
 30
0.0
 11
153.944793497806
 21
125.9075152719472
 31
0.0
  0
LINE
  5
4C6
330
E3
100
AcDbEntity
  8
0
  6
Continuous
100
AcDbLine
 10
153.944793497806
 20
125.9075152719472
 30
0.0
 11
153.9195903750804
 21
125.8975302800767
 31
0.0
  0
LINE
  5
4C7
330
E3
100
AcDbEntity
  8
0
  6
Continuous
100
AcDbLine
 10
153.9195903750804
 20
125.8975302800767
 30
0.0
 11
153.8974579932355
 21
125.8880875824014
 31
0.0
  0
LINE
  5
4C8
330
E3
100
AcDbEntity
  8
0
  6
Continuous
100
AcDbLine
 10
153.8974579932355
 20
125.8880875824014
 30
0.0
 11
153.8785692085462
 21
125.8792176829698
 31
0.0
  0
LINE
  5
4C9
330
E3
100
AcDbEntity
  8
0
  6
Continuous
100
AcDbLine
 10
153.8785692085462
 20
125.8792176829698
 30
0.0
 11
153.8630765412548
 21
125.8709443071531
 31
0.0
  0
LINE
  5
4CA
330
E3
100
AcDbEntity
  8
0
  6
Continuous
100
AcDbLine
 10
153.8630765412548
 20
125.8709443071531
 30
0.0
 11
153.8511087862328
 21
125.8632945696609
 31
0.0
  0
LINE
  5
4CB
330
E3
100
AcDbEntity
  8
0
  6
Continuous
100
AcDbLine
 10
153.8511087862328
 20
125.8632945696609
 30
0.0
 11
153.8427574556254
 21
125.8562786385095
 31
0.0
  0
LINE
  5
4CC
330
E3
100
AcDbEntity
  8
0
  6
Continuous
100
AcDbLine
 10
153.8427574556254
 20
125.8562786385095
 30
0.0
 11
153.838098796809
 21
125.8499180371723
 31
0.0
  0
LINE
  5
4CD
330
E3
100
AcDbEntity
  8
0
  6
Continuous
100
AcDbLine
 10
153.838098796809
 20
125.8499180371723
 30
0.0
 11
153.8371725364945
 21
125.8442141902998
 31
0.0
  0
LINE
  5
4CE
330
E3
100
AcDbEntity
  8
0
  6
Continuous
100
AcDbLine
 10
154.8560897529771
 20
125.8244179879108
 30
0.0
 11
154.8551634926625
 21
125.8187141410383
 31
0.0
  0
LINE
  5
4CF
330
E3
100
AcDbEntity
  8
0
  6
Continuous
100
AcDbLine
 10
154.8551634926625
 20
125.8187141410383
 30
0.0
 11
154.8505040018602
 21
125.8123520249056
 31
0.0
  0
LINE
  5
4D0
330
E3
100
AcDbEntity
  8
0
  6
Continuous
100
AcDbLine
 10
154.8505040018602
 20
125.8123520249056
 30
0.0
 11
154.8421548174446
 21
125.8053402668792
 31
0.0
  0
LINE
  5
4D1
330
E3
100
AcDbEntity
  8
0
  6
Continuous
100
AcDbLine
 10
154.8421548174446
 20
125.8053402668792
 30
0.0
 11
154.8301836730838
 21
125.7976871400483
 31
0.0
  0
LINE
  5
4D2
330
E3
100
AcDbEntity
  8
0
  6
Continuous
100
AcDbLine
 10
154.8301836730838
 20
125.7976871400483
 30
0.0
 11
154.8146943951311
 21
125.7894171535703
 31
0.0
  0
LINE
  5
4D3
330
E3
100
AcDbEntity
  8
0
  6
Continuous
100
AcDbLine
 10
154.8146943951311
 20
125.7894171535703
 30
0.0
 11
154.7958056104418
 21
125.7805438648
 31
0.0
  0
LINE
  5
4D4
330
E3
100
AcDbEntity
  8
0
  6
Continuous
100
AcDbLine
 10
154.7958056104418
 20
125.7805438648
 30
0.0
 11
154.7736732285969
 21
125.7711011671247
 31
0.0
  0
LINE
  5
4D5
330
E3
100
AcDbEntity
  8
0
  6
Continuous
100
AcDbLine
 10
154.7736732285969
 20
125.7711011671247
 30
0.0
 11
154.7484701058713
 21
125.7611161752541
 31
0.0
  0
LINE
  5
4D6
330
E3
100
AcDbEntity
  8
0
  6
Continuous
100
AcDbLine
 10
154.7484701058713
 20
125.7611161752541
 30
0.0
 11
154.7203962132494
 21
125.7506261719142
 31
0.0
  0
LINE
  5
4D7
330
E3
100
AcDbEntity
  8
0
  6
Continuous
100
AcDbLine
 10
154.7203962132494
 20
125.7506261719142
 30
0.0
 11
154.6896718577481
 21
125.7396684398308
 31
0.0
  0
LINE
  5
4D8
330
E3
100
AcDbEntity
  8
0
  6
Continuous
100
AcDbLine
 10
154.6896718577481
 20
125.7396684398308
 30
0.0
 11
154.6565410717553
 21
125.7282870404074
 31
0.0
  0
LINE
  5
4D9
330
E3
100
AcDbEntity
  8
0
  6
Continuous
100
AcDbLine
 10
154.6565410717553
 20
125.7282870404074
 30
0.0
 11
154.621258055675
 21
125.7165260350473
 31
0.0
  0
LINE
  5
4DA
330
E3
100
AcDbEntity
  8
0
  6
Continuous
100
AcDbLine
 10
154.621258055675
 20
125.7165260350473
 30
0.0
 11
154.5841007352821
 21
125.7044328744926
 31
0.0
  0
LINE
  5
4DB
330
E3
100
AcDbEntity
  8
0
  6
Continuous
100
AcDbLine
 10
154.5841007352821
 20
125.7044328744926
 30
0.0
 11
154.5453639830456
 21
125.6920617881627
 31
0.0
  0
LINE
  5
4DC
330
E3
100
AcDbEntity
  8
0
  6
Continuous
100
AcDbLine
 10
154.5453639830456
 20
125.6920617881627
 30
0.0
 11
154.505342671434
 21
125.6794636161387
 31
0.0
  0
LINE
  5
4DD
330
E3
100
AcDbEntity
  8
0
  6
Continuous
100
AcDbLine
 10
154.505342671434
 20
125.6794636161387
 30
0.0
 11
154.4643520089483
 21
125.6666959771785
 31
0.0
  0
LINE
  5
4DE
330
E3
100
AcDbEntity
  8
0
  6
Continuous
100
AcDbLine
 10
154.4643520089483
 20
125.6666959771785
 30
0.0
 11
154.4227105934283
 21
125.653813100702
 31
0.0
  0
LINE
  5
4DF
330
E3
100
AcDbEntity
  8
0
  6
Continuous
100
AcDbLine
 10
154.4227105934283
 20
125.653813100702
 30
0.0
 11
154.3807404120523
 21
125.6408726054671
 31
0.0
  0
LINE
  5
4E0
330
E3
100
AcDbEntity
  8
0
  6
Continuous
100
AcDbLine
 10
154.3807404120523
 20
125.6408726054671
 30
0.0
 11
154.3387736200152
 21
125.6279321102322
 31
0.0
  0
LINE
  5
4E1
330
E3
100
AcDbEntity
  8
0
  6
Continuous
100
AcDbLine
 10
154.3387736200152
 20
125.6279321102322
 30
0.0
 11
154.2971322044951
 21
125.6150492337556
 31
0.0
  0
LINE
  5
4E2
330
E3
100
AcDbEntity
  8
0
  6
Continuous
100
AcDbLine
 10
154.2971322044951
 20
125.6150492337556
 30
0.0
 11
154.2561381526708
 21
125.6022782054568
 31
0.0
  0
LINE
  5
4E3
330
E3
100
AcDbEntity
  8
0
  6
Continuous
100
AcDbLine
 10
154.2561381526708
 20
125.6022782054568
 30
0.0
 11
154.2161168410591
 21
125.5896834227714
 31
0.0
  0
LINE
  5
4E4
330
E3
100
AcDbEntity
  8
0
  6
Continuous
100
AcDbLine
 10
154.2161168410591
 20
125.5896834227714
 30
0.0
 11
154.1773800888226
 21
125.5773123364416
 31
0.0
  0
LINE
  5
4E5
330
E3
100
AcDbEntity
  8
0
  6
Continuous
100
AcDbLine
 10
154.1773800888226
 20
125.5773123364416
 30
0.0
 11
154.1402227684298
 21
125.5652191758869
 31
0.0
  0
LINE
  5
4E6
330
E3
100
AcDbEntity
  8
0
  6
Continuous
100
AcDbLine
 10
154.1402227684298
 20
125.5652191758869
 30
0.0
 11
154.1049431416882
 21
125.5534581705268
 31
0.0
  0
LINE
  5
4E7
330
E3
100
AcDbEntity
  8
0
  6
Continuous
100
AcDbLine
 10
154.1049431416882
 20
125.5534581705268
 30
0.0
 11
154.0718089663566
 21
125.5420733817646
 31
0.0
  0
LINE
  5
4E8
330
E3
100
AcDbEntity
  8
0
  6
Continuous
100
AcDbLine
 10
154.0718089663566
 20
125.5420733817646
 30
0.0
 11
154.0410846108553
 21
125.5311156496813
 31
0.0
  0
LINE
  5
4E9
330
E3
100
AcDbEntity
  8
0
  6
Continuous
100
AcDbLine
 10
154.0410846108553
 20
125.5311156496813
 30
0.0
 11
154.0130107182334
 21
125.5206256463413
 31
0.0
  0
LINE
  5
4EA
330
E3
100
AcDbEntity
  8
0
  6
Continuous
100
AcDbLine
 10
154.0130107182334
 20
125.5206256463413
 30
0.0
 11
153.9878109848465
 21
125.5106406544707
 31
0.0
  0
LINE
  5
4EB
330
E3
100
AcDbEntity
  8
0
  6
Continuous
100
AcDbLine
 10
153.9878109848465
 20
125.5106406544707
 30
0.0
 11
153.9656752136629
 21
125.5011979567954
 31
0.0
  0
LINE
  5
4EC
330
E3
100
AcDbEntity
  8
0
  6
Continuous
100
AcDbLine
 10
153.9656752136629
 20
125.5011979567954
 30
0.0
 11
153.9467898183123
 21
125.4923280573639
 31
0.0
  0
LINE
  5
4ED
330
E3
100
AcDbEntity
  8
0
  6
Continuous
100
AcDbLine
 10
153.9467898183123
 20
125.4923280573639
 30
0.0
 11
153.931297151021
 21
125.4840546815472
 31
0.0
  0
LINE
  5
4EE
330
E3
100
AcDbEntity
  8
0
  6
Continuous
100
AcDbLine
 10
153.931297151021
 20
125.4840546815472
 30
0.0
 11
153.9193260066601
 21
125.476404944055
 31
0.0
  0
LINE
  5
4EF
330
E3
100
AcDbEntity
  8
0
  6
Continuous
100
AcDbLine
 10
153.9193260066601
 20
125.476404944055
 30
0.0
 11
153.9109780653916
 21
125.4693924022423
 31
0.0
  0
LINE
  5
4F0
330
E3
100
AcDbEntity
  8
0
  6
Continuous
100
AcDbLine
 10
153.9109780653916
 20
125.4693924022423
 30
0.0
 11
153.9063177237496
 21
125.4630292770603
 31
0.0
  0
LINE
  5
4F1
330
E3
100
AcDbEntity
  8
0
  6
Continuous
100
AcDbLine
 10
153.9063177237496
 20
125.4630292770603
 30
0.0
 11
153.9053914634351
 21
125.4573254301879
 31
0.0
  0
LINE
  5
4F2
330
E3
100
AcDbEntity
  8
0
  6
Continuous
100
AcDbLine
 10
154.9243086799176
 20
125.4375292277988
 30
0.0
 11
154.9233824196031
 21
125.4318253809263
 31
0.0
  0
LINE
  5
4F3
330
E3
100
AcDbEntity
  8
0
  6
Continuous
100
AcDbLine
 10
154.9233824196031
 20
125.4318253809263
 30
0.0
 11
154.9187229288008
 21
125.4254632647937
 31
0.0
  0
LINE
  5
4F4
330
E3
100
AcDbEntity
  8
0
  6
Continuous
100
AcDbLine
 10
154.9187229288008
 20
125.4254632647937
 30
0.0
 11
154.910372037872
 21
125.4184506412732
 31
0.0
  0
LINE
  5
4F5
330
E3
100
AcDbEntity
  8
0
  6
Continuous
100
AcDbLine
 10
154.910372037872
 20
125.4184506412732
 30
0.0
 11
154.8984042828499
 21
125.4108009037811
 31
0.0
  0
LINE
  5
4F6
330
E3
100
AcDbEntity
  8
0
  6
Continuous
100
AcDbLine
 10
154.8984042828499
 20
125.4108009037811
 30
0.0
 11
154.8829116155585
 21
125.4025275279644
 31
0.0
  0
LINE
  5
4F7
330
E3
100
AcDbEntity
  8
0
  6
Continuous
100
AcDbLine
 10
154.8829116155585
 20
125.4025275279644
 30
0.0
 11
154.8640228308692
 21
125.3936576285328
 31
0.0
  0
LINE
  5
4F8
330
E3
100
AcDbEntity
  8
0
  6
Continuous
100
AcDbLine
 10
154.8640228308692
 20
125.3936576285328
 30
0.0
 11
154.8418904490244
 21
125.3842115415188
 31
0.0
  0
LINE
  5
4F9
330
E3
100
AcDbEntity
  8
0
  6
Continuous
100
AcDbLine
 10
154.8418904490244
 20
125.3842115415188
 30
0.0
 11
154.8166873262987
 21
125.3742299389869
 31
0.0
  0
LINE
  5
4FA
330
E3
100
AcDbEntity
  8
0
  6
Continuous
100
AcDbLine
 10
154.8166873262987
 20
125.3742299389869
 30
0.0
 11
154.7886134336769
 21
125.3637365463083
 31
0.0
  0
LINE
  5
4FB
330
E3
100
AcDbEntity
  8
0
  6
Continuous
100
AcDbLine
 10
154.7886134336769
 20
125.3637365463083
 30
0.0
 11
154.7578890781756
 21
125.3527788142249
 31
0.0
  0
LINE
  5
4FC
330
E3
100
AcDbEntity
  8
0
  6
Continuous
100
AcDbLine
 10
154.7578890781756
 20
125.3527788142249
 30
0.0
 11
154.7247582921827
 21
125.3413974148015
 31
0.0
  0
LINE
  5
4FD
330
E3
100
AcDbEntity
  8
0
  6
Continuous
100
AcDbLine
 10
154.7247582921827
 20
125.3413974148015
 30
0.0
 11
154.6894752761023
 21
125.3296364094414
 31
0.0
  0
LINE
  5
4FE
330
E3
100
AcDbEntity
  8
0
  6
Continuous
100
AcDbLine
 10
154.6894752761023
 20
125.3296364094414
 30
0.0
 11
154.6523213450483
 21
125.3175432488866
 31
0.0
  0
LINE
  5
4FF
330
E3
100
AcDbEntity
  8
0
  6
Continuous
100
AcDbLine
 10
154.6523213450483
 20
125.3175432488866
 30
0.0
 11
154.613581203473
 21
125.3051721625568
 31
0.0
  0
LINE
  5
500
330
E3
100
AcDbEntity
  8
0
  6
Continuous
100
AcDbLine
 10
154.613581203473
 20
125.3051721625568
 30
0.0
 11
154.5735598918614
 21
125.2925739905327
 31
0.0
  0
LINE
  5
501
330
E3
100
AcDbEntity
  8
0
  6
Continuous
100
AcDbLine
 10
154.5735598918614
 20
125.2925739905327
 30
0.0
 11
154.5325692293757
 21
125.2798063515726
 31
0.0
  0
LINE
  5
502
330
E3
100
AcDbEntity
  8
0
  6
Continuous
100
AcDbLine
 10
154.5325692293757
 20
125.2798063515726
 30
0.0
 11
154.4909278138557
 21
125.266923475096
 31
0.0
  0
LINE
  5
503
330
E3
100
AcDbEntity
  8
0
  6
Continuous
100
AcDbLine
 10
154.4909278138557
 20
125.266923475096
 30
0.0
 11
154.4489610218185
 21
125.2539829798612
 31
0.0
  0
LINE
  5
504
330
E3
100
AcDbEntity
  8
0
  6
Continuous
100
AcDbLine
 10
154.4489610218185
 20
125.2539829798612
 30
0.0
 11
154.4069908404426
 21
125.2410424846263
 31
0.0
  0
LINE
  5
505
330
E3
100
AcDbEntity
  8
0
  6
Continuous
100
AcDbLine
 10
154.4069908404426
 20
125.2410424846263
 30
0.0
 11
154.3653494249226
 21
125.2281596081497
 31
0.0
  0
LINE
  5
506
330
E3
100
AcDbEntity
  8
0
  6
Continuous
100
AcDbLine
 10
154.3653494249226
 20
125.2281596081497
 30
0.0
 11
154.3243587624369
 21
125.2153919691896
 31
0.0
  0
LINE
  5
507
330
E3
100
AcDbEntity
  8
0
  6
Continuous
100
AcDbLine
 10
154.3243587624369
 20
125.2153919691896
 30
0.0
 11
154.2843374508253
 21
125.2027937971655
 31
0.0
  0
LINE
  5
508
330
E3
100
AcDbEntity
  8
0
  6
Continuous
100
AcDbLine
 10
154.2843374508253
 20
125.2027937971655
 30
0.0
 11
154.24559730925
 21
125.1904227108357
 31
0.0
  0
LINE
  5
509
330
E3
100
AcDbEntity
  8
0
  6
Continuous
100
AcDbLine
 10
154.24559730925
 20
125.1904227108357
 30
0.0
 11
154.2084433781959
 21
125.178329550281
 31
0.0
  0
LINE
  5
50A
330
E3
100
AcDbEntity
  8
0
  6
Continuous
100
AcDbLine
 10
154.2084433781959
 20
125.178329550281
 30
0.0
 11
154.1731603621156
 21
125.1665685449209
 31
0.0
  0
LINE
  5
50B
330
E3
100
AcDbEntity
  8
0
  6
Continuous
100
AcDbLine
 10
154.1731603621156
 20
125.1665685449209
 30
0.0
 11
154.1400295761227
 21
125.1551871454974
 31
0.0
  0
LINE
  5
50C
330
E3
100
AcDbEntity
  8
0
  6
Continuous
100
AcDbLine
 10
154.1400295761227
 20
125.1551871454974
 30
0.0
 11
154.1093052206214
 21
125.1442294134141
 31
0.0
  0
LINE
  5
50D
330
E3
100
AcDbEntity
  8
0
  6
Continuous
100
AcDbLine
 10
154.1093052206214
 20
125.1442294134141
 30
0.0
 11
154.0812313279995
 21
125.1337360207354
 31
0.0
  0
LINE
  5
50E
330
E3
100
AcDbEntity
  8
0
  6
Continuous
100
AcDbLine
 10
154.0812313279995
 20
125.1337360207354
 30
0.0
 11
154.0560282052739
 21
125.1237544182036
 31
0.0
  0
LINE
  5
50F
330
E3
100
AcDbEntity
  8
0
  6
Continuous
100
AcDbLine
 10
154.0560282052739
 20
125.1237544182036
 30
0.0
 11
154.0338958234291
 21
125.1143083311895
 31
0.0
  0
LINE
  5
510
330
E3
100
AcDbEntity
  8
0
  6
Continuous
100
AcDbLine
 10
154.0338958234291
 20
125.1143083311895
 30
0.0
 11
154.0150070387398
 21
125.105438431758
 31
0.0
  0
LINE
  5
511
330
E3
100
AcDbEntity
  8
0
  6
Continuous
100
AcDbLine
 10
154.0150070387398
 20
125.105438431758
 30
0.0
 11
153.9995143714484
 21
125.0971650559413
 31
0.0
  0
LINE
  5
512
330
E3
100
AcDbEntity
  8
0
  6
Continuous
100
AcDbLine
 10
153.9995143714484
 20
125.0971650559413
 30
0.0
 11
153.9875466164263
 21
125.0895153184491
 31
0.0
  0
LINE
  5
513
330
E3
100
AcDbEntity
  8
0
  6
Continuous
100
AcDbLine
 10
153.9875466164263
 20
125.0895153184491
 30
0.0
 11
153.979195285819
 21
125.0825027766364
 31
0.0
  0
LINE
  5
514
330
E3
100
AcDbEntity
  8
0
  6
Continuous
100
AcDbLine
 10
153.979195285819
 20
125.0825027766364
 30
0.0
 11
153.9745366506902
 21
125.0761405169484
 31
0.0
  0
LINE
  5
515
330
E3
100
AcDbEntity
  8
0
  6
Continuous
100
AcDbLine
 10
153.9745366506902
 20
125.0761405169484
 30
0.0
 11
153.9736103903757
 21
125.0704366700759
 31
0.0
  0
LINE
  5
516
330
E3
100
AcDbEntity
  8
0
  6
Continuous
100
AcDbLine
 10
154.9925276068582
 20
125.0506404676869
 30
0.0
 11
154.9916013465437
 21
125.0449366208144
 31
0.0
  0
LINE
  5
517
330
E3
100
AcDbEntity
  8
0
  6
Continuous
100
AcDbLine
 10
154.9916013465437
 20
125.0449366208144
 30
0.0
 11
154.9869418557414
 21
125.0385745046817
 31
0.0
  0
LINE
  5
518
330
E3
100
AcDbEntity
  8
0
  6
Continuous
100
AcDbLine
 10
154.9869418557414
 20
125.0385745046817
 30
0.0
 11
154.9785926476381
 21
125.0315610156673
 31
0.0
  0
LINE
  5
519
330
E3
100
AcDbEntity
  8
0
  6
Continuous
100
AcDbLine
 10
154.9785926476381
 20
125.0315610156673
 30
0.0
 11
154.9666215032773
 21
125.0239112781752
 31
0.0
  0
LINE
  5
51A
330
E3
100
AcDbEntity
  8
0
  6
Continuous
100
AcDbLine
 10
154.9666215032773
 20
125.0239112781752
 30
0.0
 11
154.9511322253247
 21
125.0156379023584
 31
0.0
  0
LINE
  5
51B
330
E3
100
AcDbEntity
  8
0
  6
Continuous
100
AcDbLine
 10
154.9511322253247
 20
125.0156379023584
 30
0.0
 11
154.9322434406353
 21
125.0067680029269
 31
0.0
  0
LINE
  5
51C
330
E3
100
AcDbEntity
  8
0
  6
Continuous
100
AcDbLine
 10
154.9322434406353
 20
125.0067680029269
 30
0.0
 11
154.9101110587905
 21
124.9973253052516
 31
0.0
  0
LINE
  5
51D
330
E3
100
AcDbEntity
  8
0
  6
Continuous
100
AcDbLine
 10
154.9101110587905
 20
124.9973253052516
 30
0.0
 11
154.8849079360649
 21
124.987340313381
 31
0.0
  0
LINE
  5
51E
330
E3
100
AcDbEntity
  8
0
  6
Continuous
100
AcDbLine
 10
154.8849079360649
 20
124.987340313381
 30
0.0
 11
154.856834043443
 21
124.9768503100411
 31
0.0
  0
LINE
  5
51F
330
E3
100
AcDbEntity
  8
0
  6
Continuous
100
AcDbLine
 10
154.856834043443
 20
124.9768503100411
 30
0.0
 11
154.8261096879417
 21
124.9658925779577
 31
0.0
  0
LINE
  5
520
330
E3
100
AcDbEntity
  8
0
  6
Continuous
100
AcDbLine
 10
154.8261096879417
 20
124.9658925779577
 30
0.0
 11
154.7929789019489
 21
124.9545077891956
 31
0.0
  0
LINE
  5
521
330
E3
100
AcDbEntity
  8
0
  6
Continuous
100
AcDbLine
 10
154.7929789019489
 20
124.9545077891956
 30
0.0
 11
154.7576958858685
 21
124.9427467838354
 31
0.0
  0
LINE
  5
522
330
E3
100
AcDbEntity
  8
0
  6
Continuous
100
AcDbLine
 10
154.7576958858685
 20
124.9427467838354
 30
0.0
 11
154.7205385654757
 21
124.9306536232807
 31
0.0
  0
LINE
  5
523
330
E3
100
AcDbEntity
  8
0
  6
Continuous
100
AcDbLine
 10
154.7205385654757
 20
124.9306536232807
 30
0.0
 11
154.6818018132392
 21
124.9182825369509
 31
0.0
  0
LINE
  5
524
330
E3
100
AcDbEntity
  8
0
  6
Continuous
100
AcDbLine
 10
154.6818018132392
 20
124.9182825369509
 30
0.0
 11
154.6417805016275
 21
124.9056877542655
 31
0.0
  0
LINE
  5
525
330
E3
100
AcDbEntity
  8
0
  6
Continuous
100
AcDbLine
 10
154.6417805016275
 20
124.9056877542655
 30
0.0
 11
154.6007898391419
 21
124.8929167259667
 31
0.0
  0
LINE
  5
526
330
E3
100
AcDbEntity
  8
0
  6
Continuous
100
AcDbLine
 10
154.6007898391419
 20
124.8929167259667
 30
0.0
 11
154.5591484236218
 21
124.8800338494901
 31
0.0
  0
LINE
  5
527
330
E3
100
AcDbEntity
  8
0
  6
Continuous
100
AcDbLine
 10
154.5591484236218
 20
124.8800338494901
 30
0.0
 11
154.5171782422459
 21
124.8670933542552
 31
0.0
  0
LINE
  5
528
330
E3
100
AcDbEntity
  8
0
  6
Continuous
100
AcDbLine
 10
154.5171782422459
 20
124.8670933542552
 30
0.0
 11
154.4752114502087
 21
124.8541528590204
 31
0.0
  0
LINE
  5
529
330
E3
100
AcDbEntity
  8
0
  6
Continuous
100
AcDbLine
 10
154.4752114502087
 20
124.8541528590204
 30
0.0
 11
154.4335700346887
 21
124.8412699825438
 31
0.0
  0
LINE
  5
52A
330
E3
100
AcDbEntity
  8
0
  6
Continuous
100
AcDbLine
 10
154.4335700346887
 20
124.8412699825438
 30
0.0
 11
154.3925759828643
 21
124.8285023435837
 31
0.0
  0
LINE
  5
52B
330
E3
100
AcDbEntity
  8
0
  6
Continuous
100
AcDbLine
 10
154.3925759828643
 20
124.8285023435837
 30
0.0
 11
154.3525546712527
 21
124.8159041715596
 31
0.0
  0
LINE
  5
52C
330
E3
100
AcDbEntity
  8
0
  6
Continuous
100
AcDbLine
 10
154.3525546712527
 20
124.8159041715596
 30
0.0
 11
154.3138179190162
 21
124.8035330852298
 31
0.0
  0
LINE
  5
52D
330
E3
100
AcDbEntity
  8
0
  6
Continuous
100
AcDbLine
 10
154.3138179190162
 20
124.8035330852298
 30
0.0
 11
154.2766605986234
 21
124.791439924675
 31
0.0
  0
LINE
  5
52E
330
E3
100
AcDbEntity
  8
0
  6
Continuous
100
AcDbLine
 10
154.2766605986234
 20
124.791439924675
 30
0.0
 11
154.2413809718817
 21
124.7796789193149
 31
0.0
  0
LINE
  5
52F
330
E3
100
AcDbEntity
  8
0
  6
Continuous
100
AcDbLine
 10
154.2413809718817
 20
124.7796789193149
 30
0.0
 11
154.2082467965502
 21
124.7682975198915
 31
0.0
  0
LINE
  5
530
330
E3
100
AcDbEntity
  8
0
  6
Continuous
100
AcDbLine
 10
154.2082467965502
 20
124.7682975198915
 30
0.0
 11
154.1775224410488
 21
124.7573397878081
 31
0.0
  0
LINE
  5
531
330
E3
100
AcDbEntity
  8
0
  6
Continuous
100
AcDbLine
 10
154.1775224410488
 20
124.7573397878081
 30
0.0
 11
154.149448548427
 21
124.7468497844682
 31
0.0
  0
LINE
  5
532
330
E3
100
AcDbEntity
  8
0
  6
Continuous
100
AcDbLine
 10
154.149448548427
 20
124.7468497844682
 30
0.0
 11
154.1242488150401
 21
124.7368647925976
 31
0.0
  0
LINE
  5
533
330
E3
100
AcDbEntity
  8
0
  6
Continuous
100
AcDbLine
 10
154.1242488150401
 20
124.7368647925976
 30
0.0
 11
154.1021130438565
 21
124.7274220949223
 31
0.0
  0
LINE
  5
534
330
E3
100
AcDbEntity
  8
0
  6
Continuous
100
AcDbLine
 10
154.1021130438565
 20
124.7274220949223
 30
0.0
 11
154.0832276485059
 21
124.7185488061521
 31
0.0
  0
LINE
  5
535
330
E3
100
AcDbEntity
  8
0
  6
Continuous
100
AcDbLine
 10
154.0832276485059
 20
124.7185488061521
 30
0.0
 11
154.0677349812145
 21
124.710278819674
 31
0.0
  0
LINE
  5
536
330
E3
100
AcDbEntity
  8
0
  6
Continuous
100
AcDbLine
 10
154.0677349812145
 20
124.710278819674
 30
0.0
 11
154.0557638368537
 21
124.7026256928432
 31
0.0
  0
LINE
  5
537
330
E3
100
AcDbEntity
  8
0
  6
Continuous
100
AcDbLine
 10
154.0557638368537
 20
124.7026256928432
 30
0.0
 11
154.0474158955851
 21
124.6956131510305
 31
0.0
  0
LINE
  5
538
330
E3
100
AcDbEntity
  8
0
  6
Continuous
100
AcDbLine
 10
154.0474158955851
 20
124.6956131510305
 30
0.0
 11
154.0427555776308
 21
124.6892517568365
 31
0.0
  0
LINE
  5
539
330
E3
100
AcDbEntity
  8
0
  6
Continuous
100
AcDbLine
 10
154.0427555776308
 20
124.6892517568365
 30
0.0
 11
154.0418293173163
 21
124.683547909964
 31
0.0
  0
LINE
  5
53A
330
E3
100
AcDbEntity
  8
0
  6
Continuous
100
AcDbLine
 10
155.0607465337988
 20
124.6637517075749
 30
0.0
 11
155.0598202734843
 21
124.6580478607025
 31
0.0
  0
LINE
  5
53B
330
E3
100
AcDbEntity
  8
0
  6
Continuous
100
AcDbLine
 10
155.0598202734843
 20
124.6580478607025
 30
0.0
 11
155.055160782682
 21
124.6516857445698
 31
0.0
  0
LINE
  5
53C
330
E3
100
AcDbEntity
  8
0
  6
Continuous
100
AcDbLine
 10
155.055160782682
 20
124.6516857445698
 30
0.0
 11
155.0468098680655
 21
124.6446713900614
 31
0.0
  0
LINE
  5
53D
330
E3
100
AcDbEntity
  8
0
  6
Continuous
100
AcDbLine
 10
155.0468098680655
 20
124.6446713900614
 30
0.0
 11
155.0348421130435
 21
124.6370216525692
 31
0.0
  0
LINE
  5
53E
330
E3
100
AcDbEntity
  8
0
  6
Continuous
100
AcDbLine
 10
155.0348421130435
 20
124.6370216525692
 30
0.0
 11
155.0193494457521
 21
124.6287482767525
 31
0.0
  0
LINE
  5
53F
330
E3
100
AcDbEntity
  8
0
  6
Continuous
100
AcDbLine
 10
155.0193494457521
 20
124.6287482767525
 30
0.0
 11
155.0004606610628
 21
124.619878377321
 31
0.0
  0
LINE
  5
540
330
E3
100
AcDbEntity
  8
0
  6
Continuous
100
AcDbLine
 10
155.0004606610628
 20
124.619878377321
 30
0.0
 11
154.9783282792179
 21
124.6104356796457
 31
0.0
  0
LINE
  5
541
330
E3
100
AcDbEntity
  8
0
  6
Continuous
100
AcDbLine
 10
154.9783282792179
 20
124.6104356796457
 30
0.0
 11
154.9531251564923
 21
124.6004506877751
 31
0.0
  0
LINE
  5
542
330
E3
100
AcDbEntity
  8
0
  6
Continuous
100
AcDbLine
 10
154.9531251564923
 20
124.6004506877751
 30
0.0
 11
154.9250512638705
 21
124.5899606844352
 31
0.0
  0
LINE
  5
543
330
E3
100
AcDbEntity
  8
0
  6
Continuous
100
AcDbLine
 10
154.9250512638705
 20
124.5899606844352
 30
0.0
 11
154.8943302977079
 21
124.5790029523518
 31
0.0
  0
LINE
  5
544
330
E3
100
AcDbEntity
  8
0
  6
Continuous
100
AcDbLine
 10
154.8943302977079
 20
124.5790029523518
 30
0.0
 11
154.8611961223763
 21
124.5676215529284
 31
0.0
  0
LINE
  5
545
330
E3
100
AcDbEntity
  8
0
  6
Continuous
100
AcDbLine
 10
154.8611961223763
 20
124.5676215529284
 30
0.0
 11
154.8259131062959
 21
124.5558571582295
 31
0.0
  0
LINE
  5
546
330
E3
100
AcDbEntity
  8
0
  6
Continuous
100
AcDbLine
 10
154.8259131062959
 20
124.5558571582295
 30
0.0
 11
154.7887591752418
 21
124.5437673870135
 31
0.0
  0
LINE
  5
547
330
E3
100
AcDbEntity
  8
0
  6
Continuous
100
AcDbLine
 10
154.7887591752418
 20
124.5437673870135
 30
0.0
 11
154.7500190336666
 21
124.5313963006837
 31
0.0
  0
LINE
  5
548
330
E3
100
AcDbEntity
  8
0
  6
Continuous
100
AcDbLine
 10
154.7500190336666
 20
124.5313963006837
 30
0.0
 11
154.709997722055
 21
124.5187981286596
 31
0.0
  0
LINE
  5
549
330
E3
100
AcDbEntity
  8
0
  6
Continuous
100
AcDbLine
 10
154.709997722055
 20
124.5187981286596
 30
0.0
 11
154.6690070595693
 21
124.5060304896995
 31
0.0
  0
LINE
  5
54A
330
E3
100
AcDbEntity
  8
0
  6
Continuous
100
AcDbLine
 10
154.6690070595693
 20
124.5060304896995
 30
0.0
 11
154.6273656440493
 21
124.4931476132229
 31
0.0
  0
LINE
  5
54B
330
E3
100
AcDbEntity
  8
0
  6
Continuous
100
AcDbLine
 10
154.6273656440493
 20
124.4931476132229
 30
0.0
 11
154.585398852012
 21
124.4802071179881
 31
0.0
  0
LINE
  5
54C
330
E3
100
AcDbEntity
  8
0
  6
Continuous
100
AcDbLine
 10
154.585398852012
 20
124.4802071179881
 30
0.0
 11
154.5434286706362
 21
124.4672632334145
 31
0.0
  0
LINE
  5
54D
330
E3
100
AcDbEntity
  8
0
  6
Continuous
100
AcDbLine
 10
154.5434286706362
 20
124.4672632334145
 30
0.0
 11
154.5017872551161
 21
124.4543803569379
 31
0.0
  0
LINE
  5
54E
330
E3
100
AcDbEntity
  8
0
  6
Continuous
100
AcDbLine
 10
154.5017872551161
 20
124.4543803569379
 30
0.0
 11
154.4607965926305
 21
124.4416127179778
 31
0.0
  0
LINE
  5
54F
330
E3
100
AcDbEntity
  8
0
  6
Continuous
100
AcDbLine
 10
154.4607965926305
 20
124.4416127179778
 30
0.0
 11
154.4207752810189
 21
124.4290145459537
 31
0.0
  0
LINE
  5
550
330
E3
100
AcDbEntity
  8
0
  6
Continuous
100
AcDbLine
 10
154.4207752810189
 20
124.4290145459537
 30
0.0
 11
154.3820351394436
 21
124.4166434596239
 31
0.0
  0
LINE
  5
551
330
E3
100
AcDbEntity
  8
0
  6
Continuous
100
AcDbLine
 10
154.3820351394436
 20
124.4166434596239
 30
0.0
 11
154.3448812083895
 21
124.4045536884079
 31
0.0
  0
LINE
  5
552
330
E3
100
AcDbEntity
  8
0
  6
Continuous
100
AcDbLine
 10
154.3448812083895
 20
124.4045536884079
 30
0.0
 11
154.3095981923092
 21
124.3927926830477
 31
0.0
  0
LINE
  5
553
330
E3
100
AcDbEntity
  8
0
  6
Continuous
100
AcDbLine
 10
154.3095981923092
 20
124.3927926830477
 30
0.0
 11
154.2764674063163
 21
124.3814078942856
 31
0.0
  0
LINE
  5
554
330
E3
100
AcDbEntity
  8
0
  6
Continuous
100
AcDbLine
 10
154.2764674063163
 20
124.3814078942856
 30
0.0
 11
154.245743050815
 21
124.3704501622022
 31
0.0
  0
LINE
  5
555
330
E3
100
AcDbEntity
  8
0
  6
Continuous
100
AcDbLine
 10
154.245743050815
 20
124.3704501622022
 30
0.0
 11
154.2176691581931
 21
124.3599601588623
 31
0.0
  0
LINE
  5
556
330
E3
100
AcDbEntity
  8
0
  6
Continuous
100
AcDbLine
 10
154.2176691581931
 20
124.3599601588623
 30
0.0
 11
154.1924660354675
 21
124.3499751669917
 31
0.0
  0
LINE
  5
557
330
E3
100
AcDbEntity
  8
0
  6
Continuous
100
AcDbLine
 10
154.1924660354675
 20
124.3499751669917
 30
0.0
 11
154.1703336536227
 21
124.3405324693164
 31
0.0
  0
LINE
  5
558
330
E3
100
AcDbEntity
  8
0
  6
Continuous
100
AcDbLine
 10
154.1703336536227
 20
124.3405324693164
 30
0.0
 11
154.1514448689333
 21
124.3316625698849
 31
0.0
  0
LINE
  5
559
330
E3
100
AcDbEntity
  8
0
  6
Continuous
100
AcDbLine
 10
154.1514448689333
 20
124.3316625698849
 30
0.0
 11
154.1359522016419
 21
124.3233891940681
 31
0.0
  0
LINE
  5
55A
330
E3
100
AcDbEntity
  8
0
  6
Continuous
100
AcDbLine
 10
154.1359522016419
 20
124.3233891940681
 30
0.0
 11
154.1239844466199
 21
124.315739456576
 31
0.0
  0
LINE
  5
55B
330
E3
100
AcDbEntity
  8
0
  6
Continuous
100
AcDbLine
 10
154.1239844466199
 20
124.315739456576
 30
0.0
 11
154.1156331160126
 21
124.3087235254245
 31
0.0
  0
LINE
  5
55C
330
E3
100
AcDbEntity
  8
0
  6
Continuous
100
AcDbLine
 10
154.1156331160126
 20
124.3087235254245
 30
0.0
 11
154.1109745045714
 21
124.3023629967245
 31
0.0
  0
LINE
  5
55D
330
E3
100
AcDbEntity
  8
0
  6
Continuous
100
AcDbLine
 10
154.1109745045714
 20
124.3023629967245
 30
0.0
 11
154.1100482442569
 21
124.296659149852
 31
0.0
  0
LINE
  5
55E
330
E3
100
AcDbEntity
  8
0
  6
Continuous
100
AcDbLine
 10
155.1289654607394
 20
124.276862947463
 30
0.0
 11
155.1280392004249
 21
124.2711591005905
 31
0.0
  0
LINE
  5
55F
330
E3
100
AcDbEntity
  8
0
  6
Continuous
100
AcDbLine
 10
155.1280392004249
 20
124.2711591005905
 30
0.0
 11
155.1233797096225
 21
124.2647969844579
 31
0.0
  0
LINE
  5
560
330
E3
100
AcDbEntity
  8
0
  6
Continuous
100
AcDbLine
 10
155.1233797096225
 20
124.2647969844579
 30
0.0
 11
155.1150304778317
 21
124.2577851537942
 31
0.0
  0
LINE
  5
561
330
E3
100
AcDbEntity
  8
0
  6
Continuous
100
AcDbLine
 10
155.1150304778317
 20
124.2577851537942
 30
0.0
 11
155.1030593334709
 21
124.2501320269633
 31
0.0
  0
LINE
  5
562
330
E3
100
AcDbEntity
  8
0
  6
Continuous
100
AcDbLine
 10
155.1030593334709
 20
124.2501320269633
 30
0.0
 11
155.0875700555182
 21
124.2418620404853
 31
0.0
  0
LINE
  5
563
330
E3
100
AcDbEntity
  8
0
  6
Continuous
100
AcDbLine
 10
155.0875700555182
 20
124.2418620404853
 30
0.0
 11
155.0686812708289
 21
124.2329887517151
 31
0.0
  0
LINE
  5
564
330
E3
100
AcDbEntity
  8
0
  6
Continuous
100
AcDbLine
 10
155.0686812708289
 20
124.2329887517151
 30
0.0
 11
155.0465488889841
 21
124.2235460540398
 31
0.0
  0
LINE
  5
565
330
E3
100
AcDbEntity
  8
0
  6
Continuous
100
AcDbLine
 10
155.0465488889841
 20
124.2235460540398
 30
0.0
 11
155.0213457662585
 21
124.2135610621692
 31
0.0
  0
LINE
  5
566
330
E3
100
AcDbEntity
  8
0
  6
Continuous
100
AcDbLine
 10
155.0213457662585
 20
124.2135610621692
 30
0.0
 11
154.9932718736366
 21
124.2030710588293
 31
0.0
  0
LINE
  5
567
330
E3
100
AcDbEntity
  8
0
  6
Continuous
100
AcDbLine
 10
154.9932718736366
 20
124.2030710588293
 30
0.0
 11
154.9625475181353
 21
124.1921133267459
 31
0.0
  0
LINE
  5
568
330
E3
100
AcDbEntity
  8
0
  6
Continuous
100
AcDbLine
 10
154.9625475181353
 20
124.1921133267459
 30
0.0
 11
154.9294167321424
 21
124.1807319273225
 31
0.0
  0
LINE
  5
569
330
E3
100
AcDbEntity
  8
0
  6
Continuous
100
AcDbLine
 10
154.9294167321424
 20
124.1807319273225
 30
0.0
 11
154.8941337160621
 21
124.1689709219623
 31
0.0
  0
LINE
  5
56A
330
E3
100
AcDbEntity
  8
0
  6
Continuous
100
AcDbLine
 10
154.8941337160621
 20
124.1689709219623
 30
0.0
 11
154.8569763956692
 21
124.1568777614076
 31
0.0
  0
LINE
  5
56B
330
E3
100
AcDbEntity
  8
0
  6
Continuous
100
AcDbLine
 10
154.8569763956692
 20
124.1568777614076
 30
0.0
 11
154.8182396434327
 21
124.1445066750778
 31
0.0
  0
LINE
  5
56C
330
E3
100
AcDbEntity
  8
0
  6
Continuous
100
AcDbLine
 10
154.8182396434327
 20
124.1445066750778
 30
0.0
 11
154.7782183318211
 21
124.1319085030537
 31
0.0
  0
LINE
  5
56D
330
E3
100
AcDbEntity
  8
0
  6
Continuous
100
AcDbLine
 10
154.7782183318211
 20
124.1319085030537
 30
0.0
 11
154.7372276693354
 21
124.1191408640936
 31
0.0
  0
LINE
  5
56E
330
E3
100
AcDbEntity
  8
0
  6
Continuous
100
AcDbLine
 10
154.7372276693354
 20
124.1191408640936
 30
0.0
 11
154.6955862538154
 21
124.106257987617
 31
0.0
  0
LINE
  5
56F
330
E3
100
AcDbEntity
  8
0
  6
Continuous
100
AcDbLine
 10
154.6955862538154
 20
124.106257987617
 30
0.0
 11
154.6536160724395
 21
124.0933174923821
 31
0.0
  0
LINE
  5
570
330
E3
100
AcDbEntity
  8
0
  6
Continuous
100
AcDbLine
 10
154.6536160724395
 20
124.0933174923821
 30
0.0
 11
154.6116492804023
 21
124.0803769971473
 31
0.0
  0
LINE
  5
571
330
E3
100
AcDbEntity
  8
0
  6
Continuous
100
AcDbLine
 10
154.6116492804023
 20
124.0803769971473
 30
0.0
 11
154.5700078648823
 21
124.0674941206707
 31
0.0
  0
LINE
  5
572
330
E3
100
AcDbEntity
  8
0
  6
Continuous
100
AcDbLine
 10
154.5700078648823
 20
124.0674941206707
 30
0.0
 11
154.5290138130579
 21
124.0547230923719
 31
0.0
  0
LINE
  5
573
330
E3
100
AcDbEntity
  8
0
  6
Continuous
100
AcDbLine
 10
154.5290138130579
 20
124.0547230923719
 30
0.0
 11
154.488995890785
 21
124.0421283096865
 31
0.0
  0
LINE
  5
574
330
E3
100
AcDbEntity
  8
0
  6
Continuous
100
AcDbLine
 10
154.488995890785
 20
124.0421283096865
 30
0.0
 11
154.4502557492097
 21
124.0297572233567
 31
0.0
  0
LINE
  5
575
330
E3
100
AcDbEntity
  8
0
  6
Continuous
100
AcDbLine
 10
154.4502557492097
 20
124.0297572233567
 30
0.0
 11
154.4130984288169
 21
124.0176640628019
 31
0.0
  0
LINE
  5
576
330
E3
100
AcDbEntity
  8
0
  6
Continuous
100
AcDbLine
 10
154.4130984288169
 20
124.0176640628019
 30
0.0
 11
154.3778188020753
 21
124.0059030574418
 31
0.0
  0
LINE
  5
577
330
E3
100
AcDbEntity
  8
0
  6
Continuous
100
AcDbLine
 10
154.3778188020753
 20
124.0059030574418
 30
0.0
 11
154.3446846267437
 21
123.9945182686797
 31
0.0
  0
LINE
  5
578
330
E3
100
AcDbEntity
  8
0
  6
Continuous
100
AcDbLine
 10
154.3446846267437
 20
123.9945182686797
 30
0.0
 11
154.3139602712425
 21
123.9835605365963
 31
0.0
  0
LINE
  5
579
330
E3
100
AcDbEntity
  8
0
  6
Continuous
100
AcDbLine
 10
154.3139602712425
 20
123.9835605365963
 30
0.0
 11
154.2858863786206
 21
123.9730705332564
 31
0.0
  0
LINE
  5
57A
330
E3
100
AcDbEntity
  8
0
  6
Continuous
100
AcDbLine
 10
154.2858863786206
 20
123.9730705332564
 30
0.0
 11
154.2606866452337
 21
123.9630855413858
 31
0.0
  0
LINE
  5
57B
330
E3
100
AcDbEntity
  8
0
  6
Continuous
100
AcDbLine
 10
154.2606866452337
 20
123.9630855413858
 30
0.0
 11
154.2385508740501
 21
123.9536428437105
 31
0.0
  0
LINE
  5
57C
330
E3
100
AcDbEntity
  8
0
  6
Continuous
100
AcDbLine
 10
154.2385508740501
 20
123.9536428437105
 30
0.0
 11
154.2196654786995
 21
123.944772944279
 31
0.0
  0
LINE
  5
57D
330
E3
100
AcDbEntity
  8
0
  6
Continuous
100
AcDbLine
 10
154.2196654786995
 20
123.944772944279
 30
0.0
 11
154.2041728114081
 21
123.9364995684622
 31
0.0
  0
LINE
  5
57E
330
E3
100
AcDbEntity
  8
0
  6
Continuous
100
AcDbLine
 10
154.2041728114081
 20
123.9364995684622
 30
0.0
 11
154.1922016670473
 21
123.9288498309701
 31
0.0
  0
LINE
  5
57F
330
E3
100
AcDbEntity
  8
0
  6
Continuous
100
AcDbLine
 10
154.1922016670473
 20
123.9288498309701
 30
0.0
 11
154.1838537257788
 21
123.9218372891573
 31
0.0
  0
ENDBLK
  5
E5
330
E3
100
AcDbEntity
  8
0
100
AcDbBlockEnd
  0
BLOCK
  5
585
330
584
100
AcDbEntity
  8
0
100
AcDbBlockBegin
  2
R-TRS6-08 APRON DETAIL - HEAD_STORY_MARKER
 70
     0
 10
0.0
 20
0.0
 30
0.0
  3
R-TRS6-08 APRON DETAIL - HEAD_STORY_MARKER
  1

  0
ENDBLK
  5
586
330
584
100
AcDbEntity
  8
0
100
AcDbBlockEnd
  0
ENDSEC
  0
SECTION
  2
ENTITIES
  0
HATCH
  5
3F
330
1F
100
AcDbEntity
  8
Doc_ Finishes
  6
Continuous
100
AcDbHatch
 10
0.0
 20
0.0
 30
0.0
210
0.0
220
0.0
230
1.0
  2
SOLID
 70
     1
 71
     0
 91
        1
 92
        3
 72
     0
 73
     1
 93
       54
 10
27.4117749414874
 20
16.87044408857867
 10
26.89356552397386
 20
16.5825499677378
 10
26.5480925789648
 20
16.29465584689693
 10
26.12584786839819
 20
16.02595466744544
 10
25.76118198199976
 20
15.60370995687884
 10
25.39651609560134
 20
15.33500877742737
 10
25.07023609198168
 20
14.89357112547136
 10
24.49444785029994
 20
14.45213347351537
 10
23.93785255000758
 20
14.02988876294876
 10
23.43883607388344
 20
13.81876640766546
 10
22.74789018386533
 20
13.39652169709885
 10
22.09533017662603
 20
12.99346992792163
 10
21.63469958328064
 20
12.55203227596564
 10
20.90536781048376
 20
12.12978756539902
 10
20.59828074825351
 20
11.7459287376112
 10
20.04168544796116
 20
11.28529814426581
 10
19.36993249933246
 20
10.8630534336992
 10
18.73656543348255
 20
10.42161578174319
 10
18.04561954346447
 20
10.15291460229172
 10
17.1051654153843
 20
9.692284008946325
 10
16.39502658397681
 20
9.020531060317637
 10
15.83843128368446
 20
8.598286349751023
 10
15.12829245227699
 20
8.137655756405634
 10
14.84039833143612
 20
7.98411222529051
 10
14.37976773809073
 20
7.81137575278599
 10
14.07268067586046
 20
7.523481631945121
 10
14.0151018516923
 20
7.216394569714853
 10
14.14945244141803
 20
6.890114566095209
 10
14.4373465622589
 20
6.563834562475543
 10
14.8787842142149
 20
6.659799269422514
 10
15.51215128006482
 20
7.06285103859973
 10
16.01116775618899
 20
7.389131042219374
 10
16.33744775980864
 20
7.696218104449641
 10
16.51018423231316
 20
7.907340459732938
 10
17.01303929671522
 20
8.421711288968723
 10
17.33548071205699
 20
8.652026585641417
 10
17.75004824606785
 20
8.99749953065046
 10
18.14158425041142
 20
9.204783297655894
 10
19.24709767444037
 20
9.75754000967037
 10
20.23745345013295
 20
10.47151742935572
 10
21.4120614631637
 20
11.1624633193738
 10
21.84966052684182
 20
11.64612544238645
 10
22.49454335752537
 20
12.06069297639732
 10
23.78430901889248
 20
12.9819541630881
 10
24.3600972605742
 20
13.25833251909534
 10
25.6498629219413
 20
14.24868829478776
 10
25.85714668894673
 20
14.64022429913134
 10
26.68628175696843
 20
15.23904407048036
 10
27.28510152831745
 20
15.72270619349301
 10
27.81482671066464
 20
16.1142421978366
 10
28.27545730401003
 20
16.52880973184745
 10
28.22939424467549
 20
16.7821565581874
 10
28.09120506667188
 20
16.89731420652375
 10
27.56147988432467
 20
16.89731420652375
 97
        0
 75
     0
 76
     1
 98
        0
  0
LINE
  5
41
330
1F
100
AcDbEntity
  8
Doc_ Finishes
  6
Continuous
100
AcDbLine
 10
27.41177566876475
 20
16.87044600708104
 30
0.0
 11
26.89356756490952
 21
16.58254868214004
 31
0.0
  0
LINE
  5
42
330
1F
100
AcDbEntity
  8
Doc_ Finishes
  6
Continuous
100
AcDbLine
 10
26.89356756490952
 20
16.58254868214004
 30
0.0
 11
26.54809254523997
 21
16.29465578284815
 31
0.0
  0
LINE
  5
43
330
1F
100
AcDbEntity
  8
Doc_ Finishes
  6
Continuous
100
AcDbLine
 10
26.54809254523997
 20
16.29465578284815
 30
0.0
 11
26.12584579071597
 21
16.02595249803305
 31
0.0
  0
LINE
  5
44
330
1F
100
AcDbEntity
  8
Doc_ Finishes
  6
Continuous
100
AcDbLine
 10
26.12584579071597
 20
16.02595249803305
 30
0.0
 11
25.76118115656963
 21
15.60371016915814
 31
0.0
  0
LINE
  5
45
330
1F
100
AcDbEntity
  8
Doc_ Finishes
  6
Continuous
100
AcDbLine
 10
25.76118115656963
 20
15.60371016915814
 30
0.0
 11
25.39651652242329
 21
15.33500688434304
 31
0.0
  0
LINE
  5
46
330
1F
100
AcDbEntity
  8
Doc_ Finishes
  6
Continuous
100
AcDbLine
 10
25.39651652242329
 20
15.33500688434304
 30
0.0
 11
25.07023554287962
 21
14.89357051534225
 31
0.0
  0
LINE
  5
47
330
1F
100
AcDbEntity
  8
Doc_ Finishes
  6
Continuous
100
AcDbLine
 10
25.07023554287962
 20
14.89357051534225
 30
0.0
 11
24.49444974429583
 21
14.45213414634146
 31
0.0
  0
LINE
  5
48
330
1F
100
AcDbEntity
  8
Doc_ Finishes
  6
Continuous
100
AcDbLine
 10
24.49444974429583
 20
14.45213414634146
 30
0.0
 11
23.93785356018882
 21
14.02988739181747
 31
0.0
  0
LINE
  5
49
330
1F
100
AcDbEntity
  8
Doc_ Finishes
  6
Continuous
100
AcDbLine
 10
23.93785356018882
 20
14.02988739181747
 30
0.0
 11
23.43883507081038
 21
13.81876622738001
 31
0.0
  0
LINE
  5
4A
330
1F
100
AcDbEntity
  8
Doc_ Finishes
  6
Continuous
100
AcDbLine
 10
23.43883507081038
 20
13.81876622738001
 30
0.0
 11
22.74788945712038
 21
13.39652389850511
 31
0.0
  0
LINE
  5
4B
330
1F
100
AcDbEntity
  8
Doc_ Finishes
  6
Continuous
100
AcDbLine
 10
22.74788945712038
 20
13.39652389850511
 30
0.0
 11
22.09533192368214
 21
12.993471184107
 31
0.0
  0
LINE
  5
4C
330
1F
100
AcDbEntity
  8
Doc_ Finishes
  6
Continuous
100
AcDbLine
 10
22.09533192368214
 20
12.993471184107
 30
0.0
 11
21.63470151455547
 21
12.55203038945712
 31
0.0
  0
LINE
  5
4D
330
1F
100
AcDbEntity
  8
Doc_ Finishes
  6
Continuous
100
AcDbLine
 10
21.63470151455547
 20
12.55203038945712
 30
0.0
 11
20.90536782061369
 21
12.12978806058222
 31
0.0
  0
LINE
  5
4E
330
1F
100
AcDbEntity
  8
Doc_ Finishes
  6
Continuous
100
AcDbLine
 10
20.90536782061369
 20
12.12978806058222
 30
0.0
 11
20.59828088119591
 21
11.74592938630999
 31
0.0
  0
LINE
  5
4F
330
1F
100
AcDbEntity
  8
Doc_ Finishes
  6
Continuous
100
AcDbLine
 10
20.59828088119591
 20
11.74592938630999
 30
0.0
 11
20.0416846970889
 21
11.28529897718332
 31
0.0
  0
LINE
  5
50
330
1F
100
AcDbEntity
  8
Doc_ Finishes
  6
Continuous
100
AcDbLine
 10
20.0416846970889
 20
11.28529897718332
 30
0.0
 11
19.36993312352478
 21
10.86305222265932
 31
0.0
  0
LINE
  5
51
330
1F
100
AcDbEntity
  8
Doc_ Finishes
  6
Continuous
100
AcDbLine
 10
19.36993312352478
 20
10.86305222265932
 30
0.0
 11
18.73656520456333
 21
10.42161585365854
 31
0.0
  0
LINE
  5
52
330
1F
100
AcDbEntity
  8
Doc_ Finishes
  6
Continuous
100
AcDbLine
 10
18.73656520456333
 20
10.42161585365854
 30
0.0
 11
18.04561959087333
 21
10.15291256884343
 31
0.0
  0
LINE
  5
53
330
1F
100
AcDbEntity
  8
Doc_ Finishes
  6
Continuous
100
AcDbLine
 10
18.04561959087333
 20
10.15291256884343
 30
0.0
 11
17.1051647324941
 21
9.692282159716758
 31
0.0
  0
LINE
  5
54
330
1F
100
AcDbEntity
  8
Doc_ Finishes
  6
Continuous
100
AcDbLine
 10
17.1051647324941
 20
9.692282159716758
 30
0.0
 11
16.3950250786782
 21
9.020530586152635
 31
0.0
  0
LINE
  5
55
330
1F
100
AcDbEntity
  8
Doc_ Finishes
  6
Continuous
100
AcDbLine
 10
16.3950250786782
 20
9.020530586152635
 30
0.0
 11
15.8384333202203
 21
8.598288257277733
 31
0.0
  0
LINE
  5
56
330
1F
100
AcDbEntity
  8
Doc_ Finishes
  6
Continuous
100
AcDbLine
 10
15.8384333202203
 20
8.598288257277733
 30
0.0
 11
15.1282936664044
 21
8.137657848151063
 31
0.0
  0
LINE
  5
57
330
1F
100
AcDbEntity
  8
Doc_ Finishes
  6
Continuous
100
AcDbLine
 10
15.1282936664044
 20
8.137657848151063
 30
0.0
 11
14.84039634146341
 21
7.984114378442171
 31
0.0
  0
LINE
  5
58
330
1F
100
AcDbEntity
  8
Doc_ Finishes
  6
Continuous
100
AcDbLine
 10
14.84039634146341
 20
7.984114378442171
 30
0.0
 11
14.37976593233674
 21
7.811376868607396
 31
0.0
  0
LINE
  5
59
330
1F
100
AcDbEntity
  8
Doc_ Finishes
  6
Continuous
100
AcDbLine
 10
14.37976593233674
 20
7.811376868607396
 30
0.0
 11
14.07267899291896
 21
7.523479543666405
 31
0.0
  0
LINE
  5
5A
330
1F
100
AcDbEntity
  8
Doc_ Finishes
  6
Continuous
100
AcDbLine
 10
14.07267899291896
 20
7.523479543666405
 30
0.0
 11
14.0151012981904
 21
7.216392604248622
 31
0.0
  0
LINE
  5
5B
330
1F
100
AcDbEntity
  8
Doc_ Finishes
  6
Continuous
100
AcDbLine
 10
14.0151012981904
 20
7.216392604248622
 30
0.0
 11
14.14945072777341
 21
6.890116050354051
 31
0.0
  0
LINE
  5
5C
330
1F
100
AcDbEntity
  8
Doc_ Finishes
  6
Continuous
100
AcDbLine
 10
14.14945072777341
 20
6.890116050354051
 30
0.0
 11
14.4373480527144
 21
6.563835070810386
 31
0.0
  0
LINE
  5
5D
330
1F
100
AcDbEntity
  8
Doc_ Finishes
  6
Continuous
100
AcDbLine
 10
14.4373480527144
 20
6.563835070810386
 30
0.0
 11
14.87878442171519
 21
6.659800845790715
 31
0.0
  0
LINE
  5
5E
330
1F
100
AcDbEntity
  8
Doc_ Finishes
  6
Continuous
100
AcDbLine
 10
14.87878442171519
 20
6.659800845790715
 30
0.0
 11
15.51215234067663
 21
7.062849134539732
 31
0.0
  0
LINE
  5
5F
330
1F
100
AcDbEntity
  8
Doc_ Finishes
  6
Continuous
100
AcDbLine
 10
15.51215234067663
 20
7.062849134539732
 30
0.0
 11
16.01116640440598
 21
7.389130114083398
 31
0.0
  0
LINE
  5
60
330
1F
100
AcDbEntity
  8
Doc_ Finishes
  6
Continuous
100
AcDbLine
 10
16.01116640440598
 20
7.389130114083398
 30
0.0
 11
16.33744738394964
 21
7.69621705350118
 31
0.0
  0
LINE
  5
61
330
1F
100
AcDbEntity
  8
Doc_ Finishes
  6
Continuous
100
AcDbLine
 10
16.33744738394964
 20
7.69621705350118
 30
0.0
 11
16.51018489378442
 21
7.907342643587726
 31
0.0
  0
LINE
  5
62
330
1F
100
AcDbEntity
  8
Doc_ Finishes
  6
Continuous
100
AcDbLine
 10
16.51018489378442
 20
7.907342643587726
 30
0.0
 11
17.0130404209284
 21
8.421709284028323
 31
0.0
  0
LINE
  5
63
330
1F
100
AcDbEntity
  8
Doc_ Finishes
  6
Continuous
100
AcDbLine
 10
17.0130404209284
 20
8.421709284028323
 30
0.0
 11
17.33547993705743
 21
8.65202448859166
 31
0.0
  0
LINE
  5
64
330
1F
100
AcDbEntity
  8
Doc_ Finishes
  6
Continuous
100
AcDbLine
 10
17.33547993705743
 20
8.65202448859166
 30
0.0
 11
17.75004819040126
 21
8.997499508261212
 31
0.0
  0
LINE
  5
65
330
1F
100
AcDbEntity
  8
Doc_ Finishes
  6
Continuous
100
AcDbLine
 10
17.75004819040126
 20
8.997499508261212
 30
0.0
 11
18.14158536585366
 21
9.204783634933122
 31
0.0
  0
LINE
  5
66
330
1F
100
AcDbEntity
  8
Doc_ Finishes
  6
Continuous
100
AcDbLine
 10
18.14158536585366
 20
9.204783634933122
 30
0.0
 11
19.24709923288749
 21
9.75753835562549
 31
0.0
  0
LINE
  5
67
330
1F
100
AcDbEntity
  8
Doc_ Finishes
  6
Continuous
100
AcDbLine
 10
19.24709923288749
 20
9.75753835562549
 30
0.0
 11
20.23745328481511
 21
10.47151947285602
 31
0.0
  0
LINE
  5
68
330
1F
100
AcDbEntity
  8
Doc_ Finishes
  6
Continuous
100
AcDbLine
 10
20.23745328481511
 20
10.47151947285602
 30
0.0
 11
21.41206038552321
 21
11.16246508654602
 31
0.0
  0
LINE
  5
69
330
1F
100
AcDbEntity
  8
Doc_ Finishes
  6
Continuous
100
AcDbLine
 10
21.41206038552321
 20
11.16246508654602
 30
0.0
 11
21.84965971675846
 21
11.64612657356412
 31
0.0
  0
LINE
  5
6A
330
1F
100
AcDbEntity
  8
Doc_ Finishes
  6
Continuous
100
AcDbLine
 10
21.84965971675846
 20
11.64612657356412
 30
0.0
 11
22.49454317466562
 21
12.06069482690795
 31
0.0
  0
LINE
  5
6B
330
1F
100
AcDbEntity
  8
Doc_ Finishes
  6
Continuous
100
AcDbLine
 10
22.49454317466562
 20
12.06069482690795
 30
0.0
 11
23.78431009047993
 21
12.98195564516129
 31
0.0
  0
LINE
  5
6C
330
1F
100
AcDbEntity
  8
Doc_ Finishes
  6
Continuous
100
AcDbLine
 10
23.78431009047993
 20
12.98195564516129
 30
0.0
 11
24.36009588906373
 21
13.25833300550747
 31
0.0
  0
LINE
  5
6D
330
1F
100
AcDbEntity
  8
Doc_ Finishes
  6
Continuous
100
AcDbLine
 10
24.36009588906373
 20
13.25833300550747
 30
0.0
 11
25.64986280487805
 21
14.24868705743509
 31
0.0
  0
LINE
  5
6E
330
1F
100
AcDbEntity
  8
Doc_ Finishes
  6
Continuous
100
AcDbLine
 10
25.64986280487805
 20
14.24868705743509
 30
0.0
 11
25.85714693154996
 21
14.64022423288749
 31
0.0
  0
LINE
  5
6F
330
1F
100
AcDbEntity
  8
Doc_ Finishes
  6
Continuous
100
AcDbLine
 10
25.85714693154996
 20
14.64022423288749
 30
0.0
 11
26.68628343823761
 21
15.2390455350118
 31
0.0
  0
LINE
  5
70
330
1F
100
AcDbEntity
  8
Doc_ Finishes
  6
Continuous
100
AcDbLine
 10
26.68628343823761
 20
15.2390455350118
 30
0.0
 11
27.28510031471282
 21
15.7227070220299
 31
0.0
  0
LINE
  5
71
330
1F
100
AcDbEntity
  8
Doc_ Finishes
  6
Continuous
100
AcDbLine
 10
27.28510031471282
 20
15.7227070220299
 30
0.0
 11
27.81482838316287
 21
16.1142441974823
 31
0.0
  0
LINE
  5
72
330
1F
100
AcDbEntity
  8
Doc_ Finishes
  6
Continuous
100
AcDbLine
 10
27.81482838316287
 20
16.1142441974823
 30
0.0
 11
28.27545879228953
 21
16.52880802517702
 31
0.0
  0
LINE
  5
73
330
1F
100
AcDbEntity
  8
Doc_ Finishes
  6
Continuous
100
AcDbLine
 10
28.27545879228953
 20
16.52880802517702
 30
0.0
 11
28.22939221085759
 21
16.78215873328088
 31
0.0
  0
LINE
  5
74
330
1F
100
AcDbEntity
  8
Doc_ Finishes
  6
Continuous
100
AcDbLine
 10
28.22939221085759
 20
16.78215873328088
 30
0.0
 11
28.09120574350905
 21
16.897314122738
 31
0.0
  0
LINE
  5
75
330
1F
100
AcDbEntity
  8
Doc_ Finishes
  6
Continuous
100
AcDbLine
 10
28.09120574350905
 20
16.897314122738
 30
0.0
 11
27.56147767505901
 21
16.897314122738
 31
0.0
  0
LINE
  5
76
330
1F
100
AcDbEntity
  8
Doc_ Finishes
  6
Continuous
100
AcDbLine
 10
27.56147767505901
 20
16.897314122738
 30
0.0
 11
27.41177566876475
 21
16.87044600708104
 31
0.0
  0
HATCH
  5
77
330
1F
100
AcDbEntity
  8
Doc_ Finishes
  6
Continuous
100
AcDbHatch
 10
0.0
 20
0.0
 30
0.0
210
0.0
220
0.0
230
1.0
  2
SOLID
 70
     1
 71
     0
 91
        1
 92
        3
 72
     0
 73
     1
 93
       39
 10
27.65360600299377
 20
13.12014334109181
 10
27.21600693931564
 20
12.77467039608275
 10
26.54809257896482
 20
12.24494521373555
 10
25.92624127794851
 20
11.85340920939199
 10
25.32742150659951
 20
11.32368402704478
 10
24.72860173525052
 20
11.04730567103754
 10
24.08371890456698
 20
10.56364354802488
 10
23.62308831122158
 20
10.33332825135219
 10
23.231552306878
 20
10.03391836567767
 10
22.81698477286715
 20
9.619350831666825
 10
22.40241723885631
 20
9.38903553499415
 10
21.91875511584363
 20
9.043562589985086
 10
21.66540828950367
 20
8.859310352646935
 10
21.25084075549282
 20
8.582931996639696
 10
20.09926427212933
 20
7.753796928618002
 10
19.75379132712029
 20
7.477418572610764
 10
19.2931607337749
 20
7.316197864939873
 10
19.22406614477309
 20
6.993756449598113
 10
19.3622553227767
 20
6.717378093590874
 10
19.63863367878394
 20
6.602220445254527
 10
20.00713815346026
 20
6.8325357419272
 10
20.26048497980021
 20
7.131945627601722
 10
20.55989486547472
 20
7.362260924274415
 10
21.31993534449462
 20
7.707733869283458
 10
21.84966052684182
 20
8.122301403294307
 10
22.88607936186895
 20
8.882341882314256
 10
23.20852077721072
 20
9.342972475659646
 10
24.01462431556515
 20
9.734508480003234
 10
24.5673810275796
 20
10.05694989534501
 10
25.46561068460312
 20
10.60970660735953
 10
25.88017821861399
 20
11.07033720070492
 10
26.31777728229212
 20
11.34671555671216
 10
26.70931328663569
 20
11.30065249737762
 10
27.21600693931562
 20
11.55399932371759
 10
28.0681735370046
 20
12.17585062473387
 10
28.41364648201364
 20
12.49829204007566
 10
28.39061495234636
 20
12.77467039608289
 10
28.22939424467547
 20
13.00498569275559
 10
28.04514200733732
 20
13.05104875209013
 97
        0
 75
     0
 76
     1
 98
        0
  0
LINE
  5
78
330
1F
100
AcDbEntity
  8
Doc_ Finishes
  6
Continuous
100
AcDbLine
 10
27.6536064122738
 20
13.12014211250983
 30
0.0
 11
27.21600708103855
 21
12.77467151848938
 31
0.0
  0
LINE
  5
79
330
1F
100
AcDbEntity
  8
Doc_ Finishes
  6
Continuous
100
AcDbLine
 10
27.21600708103855
 20
12.77467151848938
 30
0.0
 11
26.54809254523997
 21
12.24494345003934
 31
0.0
  0
LINE
  5
7A
330
1F
100
AcDbEntity
  8
Doc_ Finishes
  6
Continuous
100
AcDbLine
 10
26.54809254523997
 20
12.24494345003934
 30
0.0
 11
25.92624016522423
 21
11.85341070023603
 31
0.0
  0
LINE
  5
7B
330
1F
100
AcDbEntity
  8
Doc_ Finishes
  6
Continuous
100
AcDbLine
 10
25.92624016522423
 20
11.85341070023603
 30
0.0
 11
25.32742328874902
 21
11.32368263178599
 31
0.0
  0
LINE
  5
7C
330
1F
100
AcDbEntity
  8
Doc_ Finishes
  6
Continuous
100
AcDbLine
 10
25.32742328874902
 20
11.32368263178599
 30
0.0
 11
24.72860198662471
 21
11.04730527143981
 31
0.0
  0
LINE
  5
7D
330
1F
100
AcDbEntity
  8
Doc_ Finishes
  6
Continuous
100
AcDbLine
 10
24.72860198662471
 20
11.04730527143981
 30
0.0
 11
24.08371852871754
 21
10.56364378442171
 31
0.0
  0
LINE
  5
7E
330
1F
100
AcDbEntity
  8
Doc_ Finishes
  6
Continuous
100
AcDbLine
 10
24.08371852871754
 20
10.56364378442171
 30
0.0
 11
23.62308811959087
 21
10.33332857985838
 31
0.0
  0
LINE
  5
7F
330
1F
100
AcDbEntity
  8
Doc_ Finishes
  6
Continuous
100
AcDbLine
 10
23.62308811959087
 20
10.33332857985838
 30
0.0
 11
23.23155094413847
 21
10.03392014162077
 31
0.0
  0
LINE
  5
80
330
1F
100
AcDbEntity
  8
Doc_ Finishes
  6
Continuous
100
AcDbLine
 10
23.23155094413847
 20
10.03392014162077
 30
0.0
 11
22.81698269079465
 21
9.619351888276947
 31
0.0
  0
LINE
  5
81
330
1F
100
AcDbEntity
  8
Doc_ Finishes
  6
Continuous
100
AcDbLine
 10
22.81698269079465
 20
9.619351888276947
 30
0.0
 11
22.40241886309992
 21
9.389036683713611
 31
0.0
  0
LINE
  5
82
330
1F
100
AcDbEntity
  8
Doc_ Finishes
  6
Continuous
100
AcDbLine
 10
22.40241886309992
 20
9.389036683713611
 30
0.0
 11
21.91875295043273
 21
9.04356166404406
 31
0.0
  0
LINE
  5
83
330
1F
100
AcDbEntity
  8
Doc_ Finishes
  6
Continuous
100
AcDbLine
 10
21.91875295043273
 20
9.04356166404406
 30
0.0
 11
21.66540666797797
 21
8.859308615263572
 31
0.0
  0
LINE
  5
84
330
1F
100
AcDbEntity
  8
Doc_ Finishes
  6
Continuous
100
AcDbLine
 10
21.66540666797797
 20
8.859308615263572
 30
0.0
 11
21.25084284028324
 21
8.582931254917387
 31
0.0
  0
LINE
  5
85
330
1F
100
AcDbEntity
  8
Doc_ Finishes
  6
Continuous
100
AcDbLine
 10
21.25084284028324
 20
8.582931254917387
 30
0.0
 11
20.09926239181747
 21
7.75379474822974
 31
0.0
  0
LINE
  5
86
330
1F
100
AcDbEntity
  8
Doc_ Finishes
  6
Continuous
100
AcDbLine
 10
20.09926239181747
 20
7.75379474822974
 30
0.0
 11
19.75379179779701
 21
7.477417387883556
 31
0.0
  0
LINE
  5
87
330
1F
100
AcDbEntity
  8
Doc_ Finishes
  6
Continuous
100
AcDbLine
 10
19.75379179779701
 20
7.477417387883556
 30
0.0
 11
19.29316138867033
 21
7.316199842643588
 31
0.0
  0
LINE
  5
88
330
1F
100
AcDbEntity
  8
Doc_ Finishes
  6
Continuous
100
AcDbLine
 10
19.29316138867033
 20
7.316199842643588
 30
0.0
 11
19.22406815499606
 21
6.993755900865461
 31
0.0
  0
LINE
  5
89
330
1F
100
AcDbEntity
  8
Doc_ Finishes
  6
Continuous
100
AcDbLine
 10
19.22406815499606
 20
6.993755900865461
 30
0.0
 11
19.36225462234461
 21
6.717378540519276
 31
0.0
  0
LINE
  5
8A
330
1F
100
AcDbEntity
  8
Doc_ Finishes
  6
Continuous
100
AcDbLine
 10
19.36225462234461
 20
6.717378540519276
 30
0.0
 11
19.63863198269079
 21
6.602218725413059
 31
0.0
  0
LINE
  5
8B
330
1F
100
AcDbEntity
  8
Doc_ Finishes
  6
Continuous
100
AcDbLine
 10
19.63863198269079
 20
6.602218725413059
 30
0.0
 11
20.00713808025177
 21
6.832533929976396
 31
0.0
  0
LINE
  5
8C
330
1F
100
AcDbEntity
  8
Doc_ Finishes
  6
Continuous
100
AcDbLine
 10
20.00713808025177
 20
6.832533929976396
 30
0.0
 11
20.26048436270653
 21
7.1319467938631
 31
0.0
  0
LINE
  5
8D
330
1F
100
AcDbEntity
  8
Doc_ Finishes
  6
Continuous
100
AcDbLine
 10
20.26048436270653
 20
7.1319467938631
 30
0.0
 11
20.55989280094414
 21
7.362261998426435
 31
0.0
  0
LINE
  5
8E
330
1F
100
AcDbEntity
  8
Doc_ Finishes
  6
Continuous
100
AcDbLine
 10
20.55989280094414
 20
7.362261998426435
 30
0.0
 11
21.31993607395751
 21
7.707732592446892
 31
0.0
  0
LINE
  5
8F
330
1F
100
AcDbEntity
  8
Doc_ Finishes
  6
Continuous
100
AcDbLine
 10
21.31993607395751
 20
7.707732592446892
 30
0.0
 11
21.84965971675846
 21
8.122300845790717
 31
0.0
  0
LINE
  5
90
330
1F
100
AcDbEntity
  8
Doc_ Finishes
  6
Continuous
100
AcDbLine
 10
21.84965971675846
 20
8.122300845790717
 30
0.0
 11
22.88608035011802
 21
8.882339693154996
 31
0.0
  0
LINE
  5
91
330
1F
100
AcDbEntity
  8
Doc_ Finishes
  6
Continuous
100
AcDbLine
 10
22.88608035011802
 20
8.882339693154996
 30
0.0
 11
23.20851986624705
 21
9.342974527930762
 31
0.0
  0
LINE
  5
92
330
1F
100
AcDbEntity
  8
Doc_ Finishes
  6
Continuous
100
AcDbLine
 10
23.20851986624705
 20
9.342974527930762
 30
0.0
 11
24.01462529504327
 21
9.734507277734066
 31
0.0
  0
LINE
  5
93
330
1F
100
AcDbEntity
  8
Doc_ Finishes
  6
Continuous
100
AcDbLine
 10
24.01462529504327
 20
9.734507277734066
 30
0.0
 11
24.56738001573564
 21
10.05695121951219
 31
0.0
  0
LINE
  5
94
330
1F
100
AcDbEntity
  8
Doc_ Finishes
  6
Continuous
100
AcDbLine
 10
24.56738001573564
 20
10.05695121951219
 30
0.0
 11
25.46560975609756
 21
10.60970594020456
 31
0.0
  0
LINE
  5
95
330
1F
100
AcDbEntity
  8
Doc_ Finishes
  6
Continuous
100
AcDbLine
 10
25.46560975609756
 20
10.60970594020456
 30
0.0
 11
25.88017800944139
 21
11.07033634933124
 31
0.0
  0
LINE
  5
96
330
1F
100
AcDbEntity
  8
Doc_ Finishes
  6
Continuous
100
AcDbLine
 10
25.88017800944139
 20
11.07033634933124
 30
0.0
 11
26.31777734067663
 21
11.34671370967742
 31
0.0
  0
LINE
  5
97
330
1F
100
AcDbEntity
  8
Doc_ Finishes
  6
Continuous
100
AcDbLine
 10
26.31777734067663
 20
11.34671370967742
 30
0.0
 11
26.70931451612903
 21
11.30065155389457
 31
0.0
  0
LINE
  5
98
330
1F
100
AcDbEntity
  8
Doc_ Finishes
  6
Continuous
100
AcDbLine
 10
26.70931451612903
 20
11.30065155389457
 30
0.0
 11
27.21600708103855
 21
11.55399783634933
 31
0.0
  0
LINE
  5
99
330
1F
100
AcDbEntity
  8
Doc_ Finishes
  6
Continuous
100
AcDbLine
 10
27.21600708103855
 20
11.55399783634933
 30
0.0
 11
28.06817466561763
 21
12.17585021636507
 31
0.0
  0
LINE
  5
9A
330
1F
100
AcDbEntity
  8
Doc_ Finishes
  6
Continuous
100
AcDbLine
 10
28.06817466561763
 20
12.17585021636507
 30
0.0
 11
28.41364525963808
 21
12.49829415814319
 31
0.0
  0
LINE
  5
9B
330
1F
100
AcDbEntity
  8
Doc_ Finishes
  6
Continuous
100
AcDbLine
 10
28.41364525963808
 20
12.49829415814319
 30
0.0
 11
28.39061418174666
 21
12.77467151848938
 31
0.0
  0
LINE
  5
9C
330
1F
100
AcDbEntity
  8
Doc_ Finishes
  6
Continuous
100
AcDbLine
 10
28.39061418174666
 20
12.77467151848938
 30
0.0
 11
28.22939221085759
 21
13.00498672305271
 31
0.0
  0
LINE
  5
9D
330
1F
100
AcDbEntity
  8
Doc_ Finishes
  6
Continuous
100
AcDbLine
 10
28.22939221085759
 20
13.00498672305271
 30
0.0
 11
28.04514358772619
 21
13.05104887883556
 31
0.0
  0
LINE
  5
9E
330
1F
100
AcDbEntity
  8
Doc_ Finishes
  6
Continuous
100
AcDbLine
 10
28.04514358772619
 20
13.05104887883556
 30
0.0
 11
27.6536064122738
 21
13.12014211250983
 31
0.0
  0
HATCH
  5
9F
330
1F
100
AcDbEntity
  8
Doc_ Finishes
  6
Continuous
100
AcDbHatch
 10
0.0
 20
0.0
 30
0.0
210
0.0
220
0.0
230
1.0
  2
SOLID
 70
     1
 71
     0
 91
        1
 92
        3
 72
     0
 73
     1
 93
       47
 10
28.06817353700456
 20
15.74573772316067
 10
28.30309513961077
 20
15.62136746295728
 10
28.4412843176144
 20
15.4002647781515
 10
28.93876535842742
 20
15.17916209334572
 10
29.82317609765057
 20
14.40530269652538
 10
30.92868952167951
 20
13.74199464210799
 10
31.59199757609689
 20
13.3827027792986
 10
32.20002995931279
 20
13.07868658769064
 10
33.55428390374828
 20
12.08372450606458
 10
34.07940278016201
 20
11.69679480765445
 10
34.88090001258301
 20
11.08876242443854
 10
35.59948373820179
 20
10.50836787682334
 10
36.5668079842271
 20
9.817421986805197
 10
37.06428902504012
 20
9.458130123995785
 10
37.81051058625966
 20
8.933011247582023
 10
38.61200781868061
 20
8.407892371168286
 10
38.77783483228498
 20
8.186789686362482
 10
39.38586721550092
 20
7.744584316750918
 10
40.18736444792187
 20
6.915449248729224
 10
40.7953968311378
 20
6.44560604351692
 10
41.56925622795804
 20
6.169227687509681
 10
42.23256428237543
 20
6.086314180707507
 10
42.48130480278193
 20
6.30741686551329
 10
42.14965077557326
 20
6.611433057121246
 10
41.48634272115586
 20
6.998362755531397
 10
40.76775899553709
 20
7.357654618340788
 10
40.18736444792187
 20
8.048600508358874
 10
38.99893751709079
 20
8.822459905179112
 10
38.47381864067705
 20
9.319940945992132
 10
38.22507812027052
 20
9.734508480003
 10
37.17484036744301
 20
10.31490302761817
 10
36.73263499783144
 20
10.78474623283046
 10
36.2351539570184
 20
11.17167593124059
 10
35.48893239579888
 20
11.61388130085215
 10
34.85326217698223
 20
12.16663801286669
 10
34.35578113616919
 20
12.58120554687754
 10
33.69247308175183
 20
12.99577308088841
 10
33.22262987653953
 20
13.32742710809708
 10
32.7251488357265
 20
13.5761676285036
 10
31.93747052110588
 20
14.06443605744977
 10
31.43077686842594
 20
14.38687747279155
 10
30.92408321574601
 20
14.70931888813342
 10
30.62467333007151
 20
15.100854892477
 10
29.95675896972068
 20
15.67664313415887
 10
29.47309684670803
 20
15.9530214901661
 10
28.82821401602447
 20
16.36758902417695
 10
28.50577260068269
 20
16.22939984617334
 97
        0
 75
     0
 76
     1
 98
        0
  0
LINE
  5
A0
330
1F
100
AcDbEntity
  8
Doc_ Finishes
  6
Continuous
100
AcDbLine
 10
28.30309697088906
 20
15.62136850904799
 30
0.0
 11
28.06817466561763
 21
15.74573809992132
 31
0.0
  0
LINE
  5
A1
330
1F
100
AcDbEntity
  8
Doc_ Finishes
  6
Continuous
100
AcDbLine
 10
28.44128343823761
 20
15.40026308025177
 30
0.0
 11
28.30309697088906
 21
15.62136850904799
 31
0.0
  0
LINE
  5
A2
330
1F
100
AcDbEntity
  8
Doc_ Finishes
  6
Continuous
100
AcDbLine
 10
28.93876622738001
 20
15.17916207710464
 30
0.0
 11
28.44128343823761
 21
15.40026308025177
 31
0.0
  0
LINE
  5
A3
330
1F
100
AcDbEntity
  8
Doc_ Finishes
  6
Continuous
100
AcDbLine
 10
29.82317466561762
 20
14.40530192761605
 30
0.0
 11
28.93876622738001
 21
15.17916207710464
 31
0.0
  0
LINE
  5
A4
330
1F
100
AcDbEntity
  8
Doc_ Finishes
  6
Continuous
100
AcDbLine
 10
30.92868853265146
 20
13.74199449252557
 30
0.0
 11
29.82317466561762
 21
14.40530192761605
 31
0.0
  0
LINE
  5
A5
330
1F
100
AcDbEntity
  8
Doc_ Finishes
  6
Continuous
100
AcDbLine
 10
31.59199596774193
 20
13.3827025963808
 30
0.0
 11
30.92868853265146
 21
13.74199449252557
 31
0.0
  0
LINE
  5
A6
330
1F
100
AcDbEntity
  8
Doc_ Finishes
  6
Continuous
100
AcDbLine
 10
32.20003147128246
 20
13.07868705743509
 30
0.0
 11
31.59199596774193
 21
13.3827025963808
 31
0.0
  0
LINE
  5
A7
330
1F
100
AcDbEntity
  8
Doc_ Finishes
  6
Continuous
100
AcDbLine
 10
33.55428452006294
 20
12.08372590479937
 30
0.0
 11
32.20003147128246
 21
13.07868705743509
 31
0.0
  0
LINE
  5
A8
330
1F
100
AcDbEntity
  8
Doc_ Finishes
  6
Continuous
100
AcDbLine
 10
34.07940106215578
 20
11.69679583005508
 30
0.0
 11
33.55428452006294
 21
12.08372590479937
 31
0.0
  0
LINE
  5
A9
330
1F
100
AcDbEntity
  8
Doc_ Finishes
  6
Continuous
100
AcDbLine
 10
34.8808993902439
 20
11.08876032651456
 30
0.0
 11
34.07940106215578
 21
11.69679583005508
 31
0.0
  0
LINE
  5
AA
330
1F
100
AcDbEntity
  8
Doc_ Finishes
  6
Continuous
100
AcDbLine
 10
35.59948318253343
 20
10.50836742722266
 30
0.0
 11
34.8808993902439
 21
11.08876032651456
 31
0.0
  0
LINE
  5
AB
330
1F
100
AcDbEntity
  8
Doc_ Finishes
  6
Continuous
100
AcDbLine
 10
36.56680615656963
 20
9.817421813532652
 30
0.0
 11
35.59948318253343
 21
10.50836742722266
 31
0.0
  0
LINE
  5
AC
330
1F
100
AcDbEntity
  8
Doc_ Finishes
  6
Continuous
100
AcDbLine
 10
37.06428894571204
 20
9.458129917387884
 30
0.0
 11
36.56680615656963
 21
9.817421813532652
 31
0.0
  0
LINE
  5
AD
330
1F
100
AcDbEntity
  8
Doc_ Finishes
  6
Continuous
100
AcDbLine
 10
37.8105109166011
 20
8.933013375295044
 30
0.0
 11
37.06428894571204
 21
9.458129917387884
 31
0.0
  0
LINE
  5
AE
330
1F
100
AcDbEntity
  8
Doc_ Finishes
  6
Continuous
100
AcDbLine
 10
38.61200924468922
 20
8.407892407553108
 30
0.0
 11
37.8105109166011
 21
8.933013375295044
 31
0.0
  0
LINE
  5
AF
330
1F
100
AcDbEntity
  8
Doc_ Finishes
  6
Continuous
100
AcDbLine
 10
38.77783389063729
 20
8.18679140440598
 30
0.0
 11
38.61200924468922
 21
8.407892407553108
 31
0.0
  0
LINE
  5
B0
330
1F
100
AcDbEntity
  8
Doc_ Finishes
  6
Continuous
100
AcDbLine
 10
39.3858693941778
 20
7.744584972462627
 30
0.0
 11
38.77783389063729
 21
8.18679140440598
 31
0.0
  0
LINE
  5
B1
330
1F
100
AcDbEntity
  8
Doc_ Finishes
  6
Continuous
100
AcDbLine
 10
40.18736329661684
 20
6.915448465774981
 30
0.0
 11
39.3858693941778
 21
7.744584972462627
 31
0.0
  0
LINE
  5
B2
330
1F
100
AcDbEntity
  8
Doc_ Finishes
  6
Continuous
100
AcDbLine
 10
40.79539880015735
 20
6.4456038552321
 30
0.0
 11
40.18736329661684
 21
6.915448465774981
 31
0.0
  0
LINE
  5
B3
330
1F
100
AcDbEntity
  8
Doc_ Finishes
  6
Continuous
100
AcDbLine
 10
41.56925452399685
 20
6.169226494885916
 30
0.0
 11
40.79539880015735
 21
6.4456038552321
 31
0.0
  0
LINE
  5
B4
330
1F
100
AcDbEntity
  8
Doc_ Finishes
  6
Continuous
100
AcDbLine
 10
42.23256638473643
 20
6.086316384736428
 30
0.0
 11
41.56925452399685
 21
6.169226494885916
 31
0.0
  0
LINE
  5
B5
330
1F
100
AcDbEntity
  8
Doc_ Finishes
  6
Continuous
100
AcDbLine
 10
42.48130556648308
 20
6.307417387883556
 30
0.0
 11
42.23256638473643
 21
6.086316384736428
 31
0.0
  0
LINE
  5
B6
330
1F
100
AcDbEntity
  8
Doc_ Finishes
  6
Continuous
100
AcDbLine
 10
42.14965184893784
 20
6.611432926829268
 30
0.0
 11
42.48130556648308
 21
6.307417387883556
 31
0.0
  0
LINE
  5
B7
330
1F
100
AcDbEntity
  8
Doc_ Finishes
  6
Continuous
100
AcDbLine
 10
41.48634441384736
 20
6.998363001573564
 30
0.0
 11
42.14965184893784
 21
6.611432926829268
 31
0.0
  0
LINE
  5
B8
330
1F
100
AcDbEntity
  8
Doc_ Finishes
  6
Continuous
100
AcDbLine
 10
40.76776062155783
 20
7.357654897718332
 30
0.0
 11
41.48634441384736
 21
6.998363001573564
 31
0.0
  0
LINE
  5
B9
330
1F
100
AcDbEntity
  8
Doc_ Finishes
  6
Continuous
100
AcDbLine
 10
40.18736329661684
 20
8.048600511408338
 30
0.0
 11
40.76776062155783
 21
7.357654897718332
 31
0.0
  0
LINE
  5
BA
330
1F
100
AcDbEntity
  8
Doc_ Finishes
  6
Continuous
100
AcDbLine
 10
38.99893931943352
 20
8.822460660896931
 30
0.0
 11
40.18736329661684
 21
8.048600511408338
 31
0.0
  0
LINE
  5
BB
330
1F
100
AcDbEntity
  8
Doc_ Finishes
  6
Continuous
100
AcDbLine
 10
38.47381835169158
 20
9.319939024390242
 30
0.0
 11
38.99893931943352
 21
8.822460660896931
 31
0.0
  0
LINE
  5
BC
330
1F
100
AcDbEntity
  8
Doc_ Finishes
  6
Continuous
100
AcDbLine
 10
38.22507916994492
 20
9.734507277734066
 30
0.0
 11
38.47381835169158
 21
9.319939024390242
 31
0.0
  0
LINE
  5
BD
330
1F
100
AcDbEntity
  8
Doc_ Finishes
  6
Continuous
100
AcDbLine
 10
37.17484166011014
 20
10.31490460267506
 30
0.0
 11
38.22507916994492
 21
9.734507277734066
 31
0.0
  0
LINE
  5
BE
330
1F
100
AcDbEntity
  8
Doc_ Finishes
  6
Continuous
100
AcDbLine
 10
36.7326352281668
 20
10.78474478756884
 30
0.0
 11
37.17484166011014
 21
10.31490460267506
 31
0.0
  0
LINE
  5
BF
330
1F
100
AcDbEntity
  8
Doc_ Finishes
  6
Continuous
100
AcDbLine
 10
36.23515243902439
 20
11.17167486231314
 30
0.0
 11
36.7326352281668
 21
10.78474478756884
 31
0.0
  0
LINE
  5
C0
330
1F
100
AcDbEntity
  8
Doc_ Finishes
  6
Continuous
100
AcDbLine
 10
35.48893046813532
 20
11.61388129425649
 30
0.0
 11
36.23515243902439
 21
11.17167486231314
 31
0.0
  0
LINE
  5
C1
330
1F
100
AcDbEntity
  8
Doc_ Finishes
  6
Continuous
100
AcDbLine
 10
34.85326121164437
 20
12.16663601494886
 30
0.0
 11
35.48893046813532
 21
11.61388129425649
 31
0.0
  0
LINE
  5
C2
330
1F
100
AcDbEntity
  8
Doc_ Finishes
  6
Continuous
100
AcDbLine
 10
34.35578284815106
 20
12.58120426829268
 30
0.0
 11
34.85326121164437
 21
12.16663601494886
 31
0.0
  0
LINE
  5
C3
330
1F
100
AcDbEntity
  8
Doc_ Finishes
  6
Continuous
100
AcDbLine
 10
33.69247098741149
 20
12.99577252163651
 30
0.0
 11
34.35578284815106
 21
12.58120426829268
 31
0.0
  0
LINE
  5
C4
330
1F
100
AcDbEntity
  8
Doc_ Finishes
  6
Continuous
100
AcDbLine
 10
33.2226308025177
 20
13.32742623918175
 30
0.0
 11
33.69247098741149
 21
12.99577252163651
 31
0.0
  0
LINE
  5
C5
330
1F
100
AcDbEntity
  8
Doc_ Finishes
  6
Continuous
100
AcDbLine
 10
32.7251480133753
 20
13.5761654209284
 30
0.0
 11
33.2226308025177
 21
13.32742623918175
 31
0.0
  0
LINE
  5
C6
330
1F
100
AcDbEntity
  8
Doc_ Finishes
  6
Continuous
100
AcDbLine
 10
31.93747098741148
 20
14.0644340086546
 30
0.0
 11
32.7251480133753
 21
13.5761654209284
 31
0.0
  0
LINE
  5
C7
330
1F
100
AcDbEntity
  8
Doc_ Finishes
  6
Continuous
100
AcDbLine
 10
31.43077842250197
 20
14.38687795043273
 30
0.0
 11
31.93747098741148
 21
14.0644340086546
 31
0.0
  0
LINE
  5
C8
330
1F
100
AcDbEntity
  8
Doc_ Finishes
  6
Continuous
100
AcDbLine
 10
30.92408143194335
 20
14.70931746656176
 30
0.0
 11
31.43077842250197
 21
14.38687795043273
 31
0.0
  0
LINE
  5
C9
330
1F
100
AcDbEntity
  8
Doc_ Finishes
  6
Continuous
100
AcDbLine
 10
30.62467299370574
 20
15.10085464201416
 30
0.0
 11
30.92408143194335
 21
14.70931746656176
 31
0.0
  0
LINE
  5
CA
330
1F
100
AcDbEntity
  8
Doc_ Finishes
  6
Continuous
100
AcDbLine
 10
29.95675845790716
 20
15.67664486624705
 30
0.0
 11
30.62467299370574
 21
15.10085464201416
 31
0.0
  0
LINE
  5
CB
330
1F
100
AcDbEntity
  8
Doc_ Finishes
  6
Continuous
100
AcDbLine
 10
29.47309697088906
 20
15.95302222659323
 30
0.0
 11
29.95675845790716
 21
15.67664486624705
 31
0.0
  0
LINE
  5
CC
330
1F
100
AcDbEntity
  8
Doc_ Finishes
  6
Continuous
100
AcDbLine
 10
28.8282135129819
 20
16.36759047993706
 30
0.0
 11
29.47309697088906
 21
15.95302222659323
 31
0.0
  0
LINE
  5
CD
330
1F
100
AcDbEntity
  8
Doc_ Finishes
  6
Continuous
100
AcDbLine
 10
28.50577399685287
 20
16.22939958693942
 30
0.0
 11
28.8282135129819
 21
16.36759047993706
 31
0.0
  0
LINE
  5
CE
330
1F
100
AcDbEntity
  8
Doc_ Finishes
  6
Continuous
100
AcDbLine
 10
28.06817466561763
 20
15.74573809992132
 30
0.0
 11
28.50577399685287
 21
16.22939958693942
 31
0.0
  0
LINE
  5
CF
330
1F
100
AcDbEntity
  8
Doc_ Finishes
  6
Continuous
 62
   254
370
    18
100
AcDbLine
 10
97.43333792289535
 20
5.093360051140834
 30
0.0
 11
97.43333792289535
 21
20.69901750590086
 31
0.0
  0
LINE
  5
D0
330
1F
100
AcDbEntity
  8
Doc_ Finishes
  6
Continuous
 62
   254
370
    18
100
AcDbLine
 10
7.000000491738787
 20
20.69901750590086
 30
0.0
 11
290.2406840086546
 21
20.69901750590086
 31
0.0
  0
LINE
  5
D1
330
1F
100
AcDbEntity
  8
Doc_ Finishes
  6
Continuous
 62
   254
370
    18
100
AcDbLine
 10
290.2406840086546
 20
20.69901750590086
 30
0.0
 11
290.2406840086546
 21
5.000000983477577
 31
0.0
  0
LINE
  5
D2
330
1F
100
AcDbEntity
  8
Doc_ Finishes
  6
Continuous
 62
   254
370
    18
100
AcDbLine
 10
290.2406840086546
 20
5.000000983477577
 30
0.0
 11
7.000000491738787
 21
5.000000983477577
 31
0.0
  0
LINE
  5
D3
330
1F
100
AcDbEntity
  8
Doc_ Finishes
  6
Continuous
 62
   254
370
    18
100
AcDbLine
 10
7.000000491738787
 20
20.69901750590086
 30
0.0
 11
7.000000491738787
 21
5.000000983477577
 31
0.0
  0
LINE
  5
D4
330
1F
100
AcDbEntity
  8
Doc_ Finishes
  6
Continuous
 62
   254
370
    18
100
AcDbLine
 10
190.2919443351691
 20
5.093360051140834
 30
0.0
 11
190.2919443351691
 21
20.69901750590086
 31
0.0
  0
LINE
  5
D5
330
1F
100
AcDbEntity
  8
Doc_ Finishes
  6
Continuous
 62
   254
370
    18
100
AcDbLine
 10
190.2919443351691
 20
12.8961909913454
 30
0.0
 11
290.2406840086546
 21
12.8961909913454
 31
0.0
  0
MTEXT
  5
D7
330
1F
100
AcDbEntity
  8
0
  6
Continuous
100
AcDbMText
 10
210.3494767103412
 20
15.00228372306228
 30
0.0
 40
2.25
 41
0.0
 71
     7
 72
     1
  1
{R-TRS6-08}
  7
GENERATED_STYLE_1
 73
     1
 44
1.0
  0
MTEXT
  5
D8
330
1F
100
AcDbEntity
  8
0
  6
Continuous
100
AcDbMText
 10
210.3494767103412
 20
11.03300550383743
 30
0.0
 40
3.0
 41
0.0
 71
     1
 72
     1
  1
{APRON DETAIL - HEAD}
  7
GENERATED_STYLE_1
 73
     1
 44
1.0
  0
MTEXT
  5
DA
330
1F
100
AcDbEntity
  8
Doc_ Floor
  6
Continuous
100
AcDbMText
 10
29.78353726544612
 20
13.33283672870609
 30
0.0
 40
5.603347280334726
 41
0.0
 71
     1
 72
     1
  1
{The Roofing Store}
  7
GENERATED_STYLE_2
 73
     1
 44
1.0
  0
MTEXT
  5
DC
102
{ACAD_XDICTIONARY
360
5B2
102
}
330
1F
100
AcDbEntity
  8
0
  6
Continuous
100
AcDbMText
 10
102.7389238446655
 20
6.378784417288156
 30
0.0
 40
1.5
 41
0.0
 71
     7
 72
     1
  1
{P: HEAD OFFICE              09 277 2717\P    ALBANY             09 972 0060\P    KATIKAIT            07 549 5190\P    WELLINGTON              04 974 5792\P    CHRISTCHURCH          03 348 6528}
  7
GENERATED_STYLE_1
 73
     1
 44
1.062946161486498
  0
MTEXT
  5
DD
330
1F
100
AcDbEntity
  8
0
  6
Continuous
100
AcDbMText
 10
149.4184566143587
 20
9.199084231526156
 30
0.0
 40
1.5
 41
0.0
 71
     7
 72
     1
  1
{WEB: www.theroofingstore.co.nz}
  7
GENERATED_STYLE_1
 73
     1
 44
1.0
  0
MTEXT
  5
DE
330
1F
100
AcDbEntity
  8
0
  6
Continuous
100
AcDbMText
 10
149.4184566143587
 20
6.620946023411263
 30
0.0
 40
1.5
 41
0.0
 71
     7
 72
     1
  1
{Copyright \U+00A9 The Roofing Store 2013}
  7
GENERATED_STYLE_1
 73
     1
 44
1.0
  0
MTEXT
  5
DF
330
1F
100
AcDbEntity
  8
0
  6
Continuous
100
AcDbMText
 10
273.9546684065315
 20
15.01595205690762
 30
0.0
 40
2.25
 41
0.0
 71
     7
 72
     1
  1
{1:5}
  7
GENERATED_STYLE_1
 73
     1
 44
1.0
  0
MTEXT
  5
E0
330
1F
100
AcDbEntity
  8
0
  6
Continuous
100
AcDbMText
 10
264.8396605309016
 20
15.51746459162148
 30
0.0
 40
1.5
 41
0.0
 71
     7
 72
     1
  1
{SCALE:}
  7
GENERATED_STYLE_1
 73
     1
 44
1.0
  0
MTEXT
  5
E1
330
1F
100
AcDbEntity
  8
0
  6
Continuous
100
AcDbMText
 10
191.5066235617487
 20
15.48695559872207
 30
0.0
 40
1.5
 41
0.0
 71
     7
 72
     1
  1
{DETAIL NUMBER:}
  7
GENERATED_STYLE_1
 73
     1
 44
1.0
  0
MTEXT
  5
E2
330
1F
100
AcDbEntity
  8
0
  6
Continuous
100
AcDbMText
 10
191.5066235617487
 20
9.005462392315325
 30
0.0
 40
1.5
 41
0.0
 71
     7
 72
     1
  1
{TITLE:}
  7
GENERATED_STYLE_1
 73
     1
 44
1.0
  0
INSERT
  5
580
102
{ACAD_XDICTIONARY
360
581
102
}
330
1F
100
AcDbEntity
  8
0
  6
Continuous
100
AcDbBlockReference
  2
Drawing_1_2
 10
28.8753134188689
 20
84.42632391951834
 30
0.0
  0
ENDSEC
  0
SECTION
  2
OBJECTS
  0
DICTIONARY
  5
C
330
0
100
AcDbDictionary
281
     1
  3
ACAD_GROUP
350
D
  3
ACAD_LAYOUT
350
1A
  3
ACAD_MATERIAL
350
3B
  3
ACAD_MLEADERSTYLE
350
5AD
  3
ACAD_MLINESTYLE
350
17
  3
ACAD_PLOTSETTINGS
350
19
  3
ACAD_PLOTSTYLENAME
350
E
  3
ACAD_SCALELIST
350
587
  3
ACAD_VISUALSTYLE
350
2A
  3
AcDbVariableDictionary
350
5AB
  3
WATERMARKS
350
5A9
  0
DICTIONARY
  5
5B2
330
DC
100
AcDbDictionary
280
     1
281
     1
  3
ACAD_MTEXT_RT
360
5B3
  0
DICTIONARY
  5
581
330
580
100
AcDbDictionary
280
     1
281
     1
  3
ACAD_FILTER
360
582
  0
DICTIONARY
  5
D
102
{ACAD_REACTORS
330
C
102
}
330
C
100
AcDbDictionary
281
     1
  0
DICTIONARY
  5
1A
102
{ACAD_REACTORS
330
C
102
}
330
C
100
AcDbDictionary
281
     1
  3
Layout1
350
1E
  3
Model
350
22
  0
DICTIONARY
  5
3B
102
{ACAD_REACTORS
330
C
102
}
330
C
100
AcDbDictionary
281
     1
  3
ByBlock
350
3D
  3
ByLayer
350
3C
  3
Global
350
3E
  0
DICTIONARY
  5
5AD
102
{ACAD_REACTORS
330
C
102
}
330
C
100
AcDbDictionary
281
     1
  0
DICTIONARY
  5
17
102
{ACAD_REACTORS
330
C
102
}
330
C
100
AcDbDictionary
281
     1
  3
Standard
350
18
  0
DICTIONARY
  5
19
102
{ACAD_REACTORS
330
C
102
}
330
C
100
AcDbDictionary
281
     1
  0
ACDBDICTIONARYWDFLT
  5
E
102
{ACAD_REACTORS
330
C
102
}
330
C
100
AcDbDictionary
281
     1
  3
Normal
350
F
100
AcDbDictionaryWithDefault
340
F
  0
DICTIONARY
  5
587
102
{ACAD_REACTORS
330
C
102
}
330
C
100
AcDbDictionary
281
     1
  3
A0
350
588
  3
A1
350
589
  3
A2
350
58A
  3
A3
350
58B
  3
A4
350
58C
  3
A5
350
58D
  3
A6
350
58E
  3
A7
350
58F
  3
A8
350
590
  3
A9
350
591
  3
B0
350
592
  3
B1
350
593
  3
B2
350
594
  3
B3
350
595
  3
B4
350
596
  3
B5
350
597
  3
B6
350
598
  3
B7
350
599
  3
B8
350
59A
  3
B9
350
59B
  3
C0
350
59C
  3
C1
350
59D
  3
C2
350
59E
  3
C3
350
59F
  3
C4
350
5A0
  3
C5
350
5A1
  3
C6
350
5A2
  3
C7
350
5A3
  3
C8
350
5A4
  3
C9
350
5A5
  3
D0
350
5A6
  3
D1
350
5A7
  3
D2
350
5A8
  0
DICTIONARY
  5
2A
102
{ACAD_REACTORS
330
C
102
}
330
C
100
AcDbDictionary
281
     1
  3
2dWireframe
350
2F
  3
3D Hidden
350
31
  3
3dWireframe
350
30
  3
Basic
350
32
  3
Brighten
350
36
  3
ColorChange
350
3A
  3
Conceptual
350
34
  3
Dim
350
35
  3
Facepattern
350
39
  3
Flat
350
2B
  3
FlatWithEdges
350
2C
  3
Gouraud
350
2D
  3
GouraudWithEdges
350
2E
  3
Linepattern
350
38
  3
Realistic
350
33
  3
Thicken
350
37
  0
DICTIONARY
  5
5AB
102
{ACAD_REACTORS
330
C
102
}
330
C
100
AcDbDictionary
281
     1
  3
CANNOSCALE
350
5AF
  3
DIMASSOC
350
5B0
  3
HIDETEXT
350
5B1
  3
XCLIPFRAME
350
5AE
  0
DICTIONARY
  5
5A9
102
{ACAD_REACTORS
330
C
102
}
330
C
100
AcDbDictionary
281
     1
  3
AC_WATERMARK
350
5AA
  0
XRECORD
  5
5B3
102
{ACAD_REACTORS
330
5B2
102
}
330
5B2
100
AcDbXrecord
280
     1
 40
956118.0
  1
{P: HEAD OFFICE ^I^I09 277 2717\P    ALBANY ^I^I09 972 0060\P    KATIKAIT^I^I07 549 5190\P    WELLINGTON^I^I04 974 5792\P    CHRISTCHURCH^I^I03 348 6528}
  0
DICTIONARY
  5
582
102
{ACAD_REACTORS
330
581
102
}
330
581
100
AcDbDictionary
280
     1
281
     1
  3
SPATIAL
360
583
  0
LAYOUT
  5
1E
102
{ACAD_REACTORS
330
1A
102
}
330
1A
100
AcDbPlotSettings
  1

  2
none_device
  4

  6

 40
0.0
 41
0.0
 42
0.0
 43
0.0
 44
0.0
 45
0.0
 46
0.0
 47
0.0
 48
0.0
 49
0.0
140
0.0
141
0.0
142
1.0
143
1.0
 70
   688
 72
     0
 73
     0
 74
     5
  7

 75
    16
147
1.0
148
0.0
149
0.0
100
AcDbLayout
  1
Layout1
 70
     1
 71
     1
 10
0.0
 20
0.0
 11
12.0
 21
9.0
 12
0.0
 22
0.0
 32
0.0
 14
1.000000000000000E+20
 24
1.000000000000000E+20
 34
1.000000000000000E+20
 15
-1.000000000000000E+20
 25
-1.000000000000000E+20
 35
-1.000000000000000E+20
146
0.0
 13
0.0
 23
0.0
 33
0.0
 16
1.0
 26
0.0
 36
0.0
 17
0.0
 27
1.0
 37
0.0
 76
     0
330
1B
  0
LAYOUT
  5
22
102
{ACAD_REACTORS
330
1A
102
}
330
1A
100
AcDbPlotSettings
  1

  2
none_device
  4

  6

 40
0.0
 41
0.0
 42
0.0
 43
0.0
 44
0.0
 45
0.0
 46
0.0
 47
0.0
 48
0.0
 49
0.0
140
0.0
141
0.0
142
1.0
143
1.0
 70
  1712
 72
     0
 73
     0
 74
     0
  7

 75
     0
147
1.0
148
0.0
149
0.0
100
AcDbLayout
  1
Model
 70
     1
 71
     0
 10
0.0
 20
0.0
 11
12.0
 21
9.0
 12
0.0
 22
0.0
 32
0.0
 14
1.000000000000000E+20
 24
1.000000000000000E+20
 34
1.000000000000000E+20
 15
-1.000000000000000E+20
 25
-1.000000000000000E+20
 35
-1.000000000000000E+20
146
0.0
 13
0.0
 23
0.0
 33
0.0
 16
1.0
 26
0.0
 36
0.0
 17
0.0
 27
1.0
 37
0.0
 76
     0
330
1F
331
29
  0
MATERIAL
  5
3D
102
{ACAD_REACTORS
330
3B
102
}
102
{ACAD_XDICTIONARY
360
5D6
102
}
330
3B
100
AcDbMaterial
  1
ByBlock
  0
MATERIAL
  5
3C
102
{ACAD_REACTORS
330
3B
102
}
102
{ACAD_XDICTIONARY
360
5D4
102
}
330
3B
100
AcDbMaterial
  1
ByLayer
  0
MATERIAL
  5
3E
102
{ACAD_REACTORS
330
3B
102
}
102
{ACAD_XDICTIONARY
360
5D8
102
}
330
3B
100
AcDbMaterial
  1
Global
  0
MLINESTYLE
  5
18
102
{ACAD_REACTORS
330
17
102
}
330
17
100
AcDbMlineStyle
  2
Standard
 70
     0
  3

 62
   256
 51
90.0
 52
90.0
 71
     2
 49
0.5
 62
   256
  6
BYLAYER
 49
-0.5
 62
   256
  6
BYLAYER
  0
ACDBPLACEHOLDER
  5
F
102
{ACAD_REACTORS
330
E
102
}
330
E
  0
SCALE
  5
588
102
{ACAD_REACTORS
330
587
102
}
330
587
100
AcDbScale
 70
     0
300
1:1
140
1.0
141
1.0
290
     1
  0
SCALE
  5
589
102
{ACAD_REACTORS
330
587
102
}
330
587
100
AcDbScale
 70
     0
300
1:2
140
1.0
141
2.0
290
     0
  0
SCALE
  5
58A
102
{ACAD_REACTORS
330
587
102
}
330
587
100
AcDbScale
 70
     0
300
1:4
140
1.0
141
4.0
290
     0
  0
SCALE
  5
58B
102
{ACAD_REACTORS
330
587
102
}
330
587
100
AcDbScale
 70
     0
300
1:5
140
1.0
141
5.0
290
     0
  0
SCALE
  5
58C
102
{ACAD_REACTORS
330
587
102
}
330
587
100
AcDbScale
 70
     0
300
1:8
140
1.0
141
8.0
290
     0
  0
SCALE
  5
58D
102
{ACAD_REACTORS
330
587
102
}
330
587
100
AcDbScale
 70
     0
300
1:10
140
1.0
141
10.0
290
     0
  0
SCALE
  5
58E
102
{ACAD_REACTORS
330
587
102
}
330
587
100
AcDbScale
 70
     0
300
1:16
140
1.0
141
16.0
290
     0
  0
SCALE
  5
58F
102
{ACAD_REACTORS
330
587
102
}
330
587
100
AcDbScale
 70
     0
300
1:20
140
1.0
141
20.0
290
     0
  0
SCALE
  5
590
102
{ACAD_REACTORS
330
587
102
}
330
587
100
AcDbScale
 70
     0
300
1:30
140
1.0
141
30.0
290
     0
  0
SCALE
  5
591
102
{ACAD_REACTORS
330
587
102
}
330
587
100
AcDbScale
 70
     0
300
1:40
140
1.0
141
40.0
290
     0
  0
SCALE
  5
592
102
{ACAD_REACTORS
330
587
102
}
330
587
100
AcDbScale
 70
     0
300
1:50
140
1.0
141
50.0
290
     0
  0
SCALE
  5
593
102
{ACAD_REACTORS
330
587
102
}
330
587
100
AcDbScale
 70
     0
300
1:100
140
1.0
141
100.0
290
     0
  0
SCALE
  5
594
102
{ACAD_REACTORS
330
587
102
}
330
587
100
AcDbScale
 70
     0
300
2:1
140
2.0
141
1.0
290
     0
  0
SCALE
  5
595
102
{ACAD_REACTORS
330
587
102
}
330
587
100
AcDbScale
 70
     0
300
4:1
140
4.0
141
1.0
290
     0
  0
SCALE
  5
596
102
{ACAD_REACTORS
330
587
102
}
330
587
100
AcDbScale
 70
     0
300
8:1
140
8.0
141
1.0
290
     0
  0
SCALE
  5
597
102
{ACAD_REACTORS
330
587
102
}
330
587
100
AcDbScale
 70
     0
300
10:1
140
10.0
141
1.0
290
     0
  0
SCALE
  5
598
102
{ACAD_REACTORS
330
587
102
}
330
587
100
AcDbScale
 70
     0
300
100:1
140
100.0
141
1.0
290
     0
  0
SCALE
  5
599
102
{ACAD_REACTORS
330
587
102
}
330
587
100
AcDbScale
 70
     0
300
1/128" = 1'-0"
140
0.0078125
141
12.0
290
     0
  0
SCALE
  5
59A
102
{ACAD_REACTORS
330
587
102
}
330
587
100
AcDbScale
 70
     0
300
1/64" = 1'-0"
140
0.015625
141
12.0
290
     0
  0
SCALE
  5
59B
102
{ACAD_REACTORS
330
587
102
}
330
587
100
AcDbScale
 70
     0
300
1/32" = 1'-0"
140
0.03125
141
12.0
290
     0
  0
SCALE
  5
59C
102
{ACAD_REACTORS
330
587
102
}
330
587
100
AcDbScale
 70
     0
300
1/16" = 1'-0"
140
0.0625
141
12.0
290
     0
  0
SCALE
  5
59D
102
{ACAD_REACTORS
330
587
102
}
330
587
100
AcDbScale
 70
     0
300
3/32" = 1'-0"
140
0.09375
141
12.0
290
     0
  0
SCALE
  5
59E
102
{ACAD_REACTORS
330
587
102
}
330
587
100
AcDbScale
 70
     0
300
1/8" = 1'-0"
140
0.125
141
12.0
290
     0
  0
SCALE
  5
59F
102
{ACAD_REACTORS
330
587
102
}
330
587
100
AcDbScale
 70
     0
300
3/16" = 1'-0"
140
0.1875
141
12.0
290
     0
  0
SCALE
  5
5A0
102
{ACAD_REACTORS
330
587
102
}
330
587
100
AcDbScale
 70
     0
300
1/4" = 1'-0"
140
0.25
141
12.0
290
     0
  0
SCALE
  5
5A1
102
{ACAD_REACTORS
330
587
102
}
330
587
100
AcDbScale
 70
     0
300
3/8" = 1'-0"
140
0.375
141
12.0
290
     0
  0
SCALE
  5
5A2
102
{ACAD_REACTORS
330
587
102
}
330
587
100
AcDbScale
 70
     0
300
1/2" = 1'-0"
140
0.5
141
12.0
290
     0
  0
SCALE
  5
5A3
102
{ACAD_REACTORS
330
587
102
}
330
587
100
AcDbScale
 70
     0
300
3/4" = 1'-0"
140
0.75
141
12.0
290
     0
  0
SCALE
  5
5A4
102
{ACAD_REACTORS
330
587
102
}
330
587
100
AcDbScale
 70
     0
300
1" = 1'-0"
140
1.0
141
12.0
290
     0
  0
SCALE
  5
5A5
102
{ACAD_REACTORS
330
587
102
}
330
587
100
AcDbScale
 70
     0
300
1-1/2" = 1'-0"
140
1.5
141
12.0
290
     0
  0
SCALE
  5
5A6
102
{ACAD_REACTORS
330
587
102
}
330
587
100
AcDbScale
 70
     0
300
3" = 1'-0"
140
3.0
141
12.0
290
     0
  0
SCALE
  5
5A7
102
{ACAD_REACTORS
330
587
102
}
330
587
100
AcDbScale
 70
     0
300
6" = 1'-0"
140
6.0
141
12.0
290
     0
  0
SCALE
  5
5A8
102
{ACAD_REACTORS
330
587
102
}
330
587
100
AcDbScale
 70
     0
300
1'-0" = 1'-0"
140
12.0
141
12.0
290
     0
  0
VISUALSTYLE
  5
2F
102
{ACAD_REACTORS
330
2A
102
}
102
{ACAD_XDICTIONARY
360
5BC
102
}
330
2A
100
AcDbVisualStyle
  2
2dWireframe
 70
     4
 71
     0
 72
     2
 73
     0
 90
        0
 40
-0.6
 41
-30.0
 62
     5
 63
     7
 74
     1
 91
        4
 64
     7
 65
   257
 75
     1
175
     1
 42
1.0
 92
        0
 66
   257
 43
1.0
 76
     1
 77
     6
 78
     2
 67
     7
 79
     5
170
     0
171
     0
290
     0
174
     0
 93
        1
 44
0.0
173
     0
291
     0
 45
0.0
1001
ACAD
1000
AcDbSavedByObjectVersion
1070
     0
  0
VISUALSTYLE
  5
31
102
{ACAD_REACTORS
330
2A
102
}
102
{ACAD_XDICTIONARY
360
5C0
102
}
330
2A
100
AcDbVisualStyle
  2
3D Hidden
 70
     6
 71
     1
 72
     2
 73
     2
 90
        0
 40
-0.6
 41
-30.0
 62
     5
 63
     7
 74
     2
 91
        2
 64
     7
 65
   257
 75
     2
175
     1
 42
40.0
 92
        0
 66
   257
 43
1.0
 76
     1
 77
     6
 78
     2
 67
     7
 79
     3
170
     0
171
     0
290
     0
174
     0
 93
        1
 44
0.0
173
     0
291
     0
 45
0.0
1001
ACAD
1000
AcDbSavedByObjectVersion
1070
     0
  0
VISUALSTYLE
  5
30
102
{ACAD_REACTORS
330
2A
102
}
102
{ACAD_XDICTIONARY
360
5BE
102
}
330
2A
100
AcDbVisualStyle
  2
3dWireframe
 70
     5
 71
     0
 72
     2
 73
     0
 90
        0
 40
-0.6
 41
-30.0
 62
     5
 63
     7
 74
     1
 91
        4
 64
     7
 65
   257
 75
     1
175
     1
 42
1.0
 92
        0
 66
   257
 43
1.0
 76
     1
 77
     6
 78
     2
 67
     7
 79
     5
170
     0
171
     0
290
     0
174
     0
 93
        1
 44
0.0
173
     0
291
     0
 45
0.0
1001
ACAD
1000
AcDbSavedByObjectVersion
1070
     0
  0
VISUALSTYLE
  5
32
102
{ACAD_REACTORS
330
2A
102
}
102
{ACAD_XDICTIONARY
360
5C2
102
}
330
2A
100
AcDbVisualStyle
  2
Basic
 70
     7
 71
     1
 72
     0
 73
     1
 90
        0
 40
-0.6
 41
-30.0
 62
     5
 63
     7
 74
     0
 91
        4
 64
     7
 65
   257
 75
     1
175
     1
 42
1.0
 92
        8
 66
     7
 43
1.0
 76
     1
 77
     6
 78
     2
 67
     7
 79
     5
170
     0
171
     0
290
     0
174
     0
 93
        1
 44
0.0
173
     0
291
     1
 45
0.0
1001
ACAD
1000
AcDbSavedByObjectVersion
1070
     0
  0
VISUALSTYLE
  5
36
102
{ACAD_REACTORS
330
2A
102
}
102
{ACAD_XDICTIONARY
360
5CA
102
}
330
2A
100
AcDbVisualStyle
  2
Brighten
 70
    12
 71
     2
 72
     2
 73
     0
 90
        0
 40
-0.6
 41
-30.0
 62
     5
 63
     7
 74
     1
 91
        4
 64
     7
 65
   257
 75
     1
175
     1
 42
1.0
 92
        8
 66
     7
 43
1.0
 76
     1
 77
     6
 78
     2
 67
     7
 79
     5
170
     0
171
     0
290
     0
174
     0
 93
        1
 44
50.0
173
     0
291
     1
 45
0.0
1001
ACAD
1000
AcDbSavedByObjectVersion
1070
     0
  0
VISUALSTYLE
  5
3A
102
{ACAD_REACTORS
330
2A
102
}
102
{ACAD_XDICTIONARY
360
5D2
102
}
330
2A
100
AcDbVisualStyle
  2
ColorChange
 70
    16
 71
     2
 72
     2
 73
     3
 90
        0
 40
-0.6
 41
-30.0
 62
     5
 63
     8
 74
     1
 91
        4
 64
     7
 65
   257
 75
     1
175
     1
 42
1.0
 92
        8
 66
     8
 43
1.0
 76
     1
 77
     6
 78
     2
 67
     7
 79
     5
170
     0
171
     0
290
     0
174
     0
 93
        1
 44
0.0
173
     0
291
     1
 45
0.0
1001
ACAD
1000
AcDbSavedByObjectVersion
1070
     0
  0
VISUALSTYLE
  5
34
102
{ACAD_REACTORS
330
2A
102
}
102
{ACAD_XDICTIONARY
360
5C6
102
}
330
2A
100
AcDbVisualStyle
  2
Conceptual
 70
     9
 71
     3
 72
     2
 73
     0
 90
        0
 40
-0.6
 41
-30.0
 62
     5
 63
     7
 74
     2
 91
        2
 64
     7
 65
   257
 75
     1
175
     1
 42
40.0
 92
        8
 66
     7
 43
1.0
 76
     1
 77
     6
 78
     2
 67
     7
 79
     3
170
     0
171
     0
290
     0
174
     0
 93
        1
 44
0.0
173
     0
291
     0
 45
0.0
1001
ACAD
1000
AcDbSavedByObjectVersion
1070
     0
  0
VISUALSTYLE
  5
35
102
{ACAD_REACTORS
330
2A
102
}
102
{ACAD_XDICTIONARY
360
5C8
102
}
330
2A
100
AcDbVisualStyle
  2
Dim
 70
    11
 71
     2
 72
     2
 73
     0
 90
        0
 40
-0.6
 41
-30.0
 62
     5
 63
     7
 74
     1
 91
        4
 64
     7
 65
   257
 75
     1
175
     1
 42
1.0
 92
        8
 66
     7
 43
1.0
 76
     1
 77
     6
 78
     2
 67
     7
 79
     5
170
     0
171
     0
290
     0
174
     0
 93
        1
 44
-50.0
173
     0
291
     1
 45
0.0
1001
ACAD
1000
AcDbSavedByObjectVersion
1070
     0
  0
VISUALSTYLE
  5
39
102
{ACAD_REACTORS
330
2A
102
}
102
{ACAD_XDICTIONARY
360
5D0
102
}
330
2A
100
AcDbVisualStyle
  2
Facepattern
 70
    15
 71
     2
 72
     2
 73
     0
 90
        0
 40
-0.6
 41
-30.0
 62
     5
 63
     7
 74
     1
 91
        4
 64
     7
 65
   257
 75
     1
175
     1
 42
1.0
 92
        8
 66
     7
 43
1.0
 76
     1
 77
     6
 78
     2
 67
     7
 79
     5
170
     0
171
     0
290
     0
174
     0
 93
        1
 44
0.0
173
     0
291
     1
 45
0.0
1001
ACAD
1000
AcDbSavedByObjectVersion
1070
     0
  0
VISUALSTYLE
  5
2B
102
{ACAD_REACTORS
330
2A
102
}
102
{ACAD_XDICTIONARY
360
5B4
102
}
330
2A
100
AcDbVisualStyle
  2
Flat
 70
     0
 71
     2
 72
     1
 73
     1
 90
        2
 40
-0.6
 41
30.0
 62
     5
 63
     7
 74
     0
 91
        4
 64
     7
 65
   257
 75
     1
175
     1
 42
1.0
 92
        8
 66
     7
 43
1.0
 76
     1
 77
     6
 78
     2
 67
     7
 79
     5
170
     0
171
     0
290
     0
174
     0
 93
       13
 44
0.0
173
     0
291
     1
 45
0.0
1001
ACAD
1000
AcDbSavedByObjectVersion
1070
     0
  0
VISUALSTYLE
  5
2C
102
{ACAD_REACTORS
330
2A
102
}
102
{ACAD_XDICTIONARY
360
5B6
102
}
330
2A
100
AcDbVisualStyle
  2
FlatWithEdges
 70
     1
 71
     2
 72
     1
 73
     1
 90
        2
 40
-0.6
 41
30.0
 62
     5
 63
     7
 74
     1
 91
        4
 64
     7
 65
   257
 75
     1
175
     1
 42
1.0
 92
        0
 66
   257
 43
1.0
 76
     1
 77
     6
 78
     2
 67
     7
 79
     5
170
     0
171
     0
290
     0
174
     0
 93
       13
 44
0.0
173
     0
291
     1
 45
0.0
1001
ACAD
1000
AcDbSavedByObjectVersion
1070
     0
  0
VISUALSTYLE
  5
2D
102
{ACAD_REACTORS
330
2A
102
}
102
{ACAD_XDICTIONARY
360
5B8
102
}
330
2A
100
AcDbVisualStyle
  2
Gouraud
 70
     2
 71
     2
 72
     2
 73
     1
 90
        2
 40
-0.6
 41
30.0
 62
     5
 63
     7
 74
     0
 91
        4
 64
     7
 65
   257
 75
     1
175
     1
 42
1.0
 92
        0
 66
     7
 43
1.0
 76
     1
 77
     6
 78
     2
 67
     7
 79
     5
170
     0
171
     0
290
     0
174
     0
 93
       13
 44
0.0
173
     0
291
     1
 45
0.0
1001
ACAD
1000
AcDbSavedByObjectVersion
1070
     0
  0
VISUALSTYLE
  5
2E
102
{ACAD_REACTORS
330
2A
102
}
102
{ACAD_XDICTIONARY
360
5BA
102
}
330
2A
100
AcDbVisualStyle
  2
GouraudWithEdges
 70
     3
 71
     2
 72
     2
 73
     1
 90
        2
 40
-0.6
 41
30.0
 62
     5
 63
     7
 74
     1
 91
        4
 64
     7
 65
   257
 75
     1
175
     1
 42
1.0
 92
        0
 66
   257
 43
1.0
 76
     1
 77
     6
 78
     2
 67
     7
 79
     5
170
     0
171
     0
290
     0
174
     0
 93
       13
 44
0.0
173
     0
291
     1
 45
0.0
1001
ACAD
1000
AcDbSavedByObjectVersion
1070
     0
  0
VISUALSTYLE
  5
38
102
{ACAD_REACTORS
330
2A
102
}
102
{ACAD_XDICTIONARY
360
5CE
102
}
330
2A
100
AcDbVisualStyle
  2
Linepattern
 70
    14
 71
     2
 72
     2
 73
     0
 90
        0
 40
-0.6
 41
-30.0
 62
     5
 63
     7
 74
     1
 91
        4
 64
     7
 65
   257
 75
     7
175
     7
 42
1.0
 92
        8
 66
     7
 43
1.0
 76
     1
 77
     6
 78
     2
 67
     7
 79
     5
170
     0
171
     0
290
     0
174
     0
 93
        1
 44
0.0
173
     0
291
     1
 45
0.0
1001
ACAD
1000
AcDbSavedByObjectVersion
1070
     0
  0
VISUALSTYLE
  5
33
102
{ACAD_REACTORS
330
2A
102
}
102
{ACAD_XDICTIONARY
360
5C4
102
}
330
2A
100
AcDbVisualStyle
  2
Realistic
 70
     8
 71
     2
 72
     2
 73
     0
 90
        0
 40
-0.6
 41
-30.0
 62
     5
 63
     7
 74
     1
 91
        0
 64
     7
 65
   257
 75
     1
175
     1
 42
1.0
 92
        8
 66
     8
 43
1.0
 76
     1
 77
     6
 78
     2
 67
     7
 79
     5
170
     0
171
     0
290
     0
174
     0
 93
       13
 44
0.0
173
     0
291
     0
 45
0.0
1001
ACAD
1000
AcDbSavedByObjectVersion
1070
     0
  0
VISUALSTYLE
  5
37
102
{ACAD_REACTORS
330
2A
102
}
102
{ACAD_XDICTIONARY
360
5CC
102
}
330
2A
100
AcDbVisualStyle
  2
Thicken
 70
    13
 71
     2
 72
     2
 73
     0
 90
        0
 40
-0.6
 41
-30.0
 62
     5
 63
     7
 74
     1
 91
        4
 64
     7
 65
   257
 75
     1
175
     1
 42
1.0
 92
       12
 66
     7
 43
1.0
 76
     1
 77
     6
 78
     2
 67
     7
 79
     5
170
     0
171
     0
290
     0
174
     0
 93
        1
 44
0.0
173
     0
291
     1
 45
0.0
1001
ACAD
1000
AcDbSavedByObjectVersion
1070
     0
  0
DICTIONARYVAR
  5
5AF
102
{ACAD_REACTORS
330
5AB
102
}
330
5AB
100
DictionaryVariables
280
     0
  1
1:1
  0
DICTIONARYVAR
  5
5B0
102
{ACAD_REACTORS
330
5AB
102
}
330
5AB
100
DictionaryVariables
280
     0
  1
2
  0
DICTIONARYVAR
  5
5B1
102
{ACAD_REACTORS
330
5AB
102
}
330
5AB
100
DictionaryVariables
280
     0
  1
1
  0
DICTIONARYVAR
  5
5AE
102
{ACAD_REACTORS
330
5AB
102
}
330
5AB
100
DictionaryVariables
280
     0
  1
0
  0
XRECORD
  5
5AA
102
{ACAD_REACTORS
330
5A9
102
}
330
5A9
100
AcDbXrecord
280
     1
1000
This DWG file was created in ArchiCAD(TM)®
  0
SPATIAL_FILTER
  5
583
102
{ACAD_REACTORS
330
582
102
}
330
582
100
AcDbFilter
100
AcDbSpatialFilter
 70
     4
 10
35.31939230675121
 20
28.70874748131841
 10
262.7738466327844
 20
28.70874748131841
 10
262.7738466327844
 20
192.5142927135917
 10
35.31939230675121
 20
192.5142927135917
210
0.0
220
0.0
230
1.0
 11
0.0
 21
0.0
 31
0.0
 71
     1
 72
     0
 73
     0
 40
1.0
 40
0.0
 40
0.0
 40
0.0
 40
0.0
 40
1.0
 40
0.0
 40
0.0
 40
0.0
 40
0.0
 40
1.0
 40
0.0
 40
1.0
 40
0.0
 40
0.0
 40
0.0
 40
0.0
 40
1.0
 40
0.0
 40
0.0
 40
0.0
 40
0.0
 40
1.0
 40
0.0
  0
DICTIONARY
  5
5D6
330
3D
100
AcDbDictionary
280
     1
281
     1
  3
ACAD_XREC_ROUNDTRIP
360
5D7
  0
DICTIONARY
  5
5D4
330
3C
100
AcDbDictionary
280
     1
281
     1
  3
ACAD_XREC_ROUNDTRIP
360
5D5
  0
DICTIONARY
  5
5D8
330
3E
100
AcDbDictionary
280
     1
281
     1
  3
ACAD_XREC_ROUNDTRIP
360
5D9
  0
DICTIONARY
  5
5BC
330
2F
100
AcDbDictionary
280
     1
281
     1
  3
ACAD_XREC_ROUNDTRIP
360
5BD
  0
DICTIONARY
  5
5C0
330
31
100
AcDbDictionary
280
     1
281
     1
  3
ACAD_XREC_ROUNDTRIP
360
5C1
  0
DICTIONARY
  5
5BE
330
30
100
AcDbDictionary
280
     1
281
     1
  3
ACAD_XREC_ROUNDTRIP
360
5BF
  0
DICTIONARY
  5
5C2
330
32
100
AcDbDictionary
280
     1
281
     1
  3
ACAD_XREC_ROUNDTRIP
360
5C3
  0
DICTIONARY
  5
5CA
330
36
100
AcDbDictionary
280
     1
281
     1
  3
ACAD_XREC_ROUNDTRIP
360
5CB
  0
DICTIONARY
  5
5D2
330
3A
100
AcDbDictionary
280
     1
281
     1
  3
ACAD_XREC_ROUNDTRIP
360
5D3
  0
DICTIONARY
  5
5C6
330
34
100
AcDbDictionary
280
     1
281
     1
  3
ACAD_XREC_ROUNDTRIP
360
5C7
  0
DICTIONARY
  5
5C8
330
35
100
AcDbDictionary
280
     1
281
     1
  3
ACAD_XREC_ROUNDTRIP
360
5C9
  0
DICTIONARY
  5
5D0
330
39
100
AcDbDictionary
280
     1
281
     1
  3
ACAD_XREC_ROUNDTRIP
360
5D1
  0
DICTIONARY
  5
5B4
330
2B
100
AcDbDictionary
280
     1
281
     1
  3
ACAD_XREC_ROUNDTRIP
360
5B5
  0
DICTIONARY
  5
5B6
330
2C
100
AcDbDictionary
280
     1
281
     1
  3
ACAD_XREC_ROUNDTRIP
360
5B7
  0
DICTIONARY
  5
5B8
330
2D
100
AcDbDictionary
280
     1
281
     1
  3
ACAD_XREC_ROUNDTRIP
360
5B9
  0
DICTIONARY
  5
5BA
330
2E
100
AcDbDictionary
280
     1
281
     1
  3
ACAD_XREC_ROUNDTRIP
360
5BB
  0
DICTIONARY
  5
5CE
330
38
100
AcDbDictionary
280
     1
281
     1
  3
ACAD_XREC_ROUNDTRIP
360
5CF
  0
DICTIONARY
  5
5C4
330
33
100
AcDbDictionary
280
     1
281
     1
  3
ACAD_XREC_ROUNDTRIP
360
5C5
  0
DICTIONARY
  5
5CC
330
37
100
AcDbDictionary
280
     1
281
     1
  3
ACAD_XREC_ROUNDTRIP
360
5CD
  0
XRECORD
  5
5D7
102
{ACAD_REACTORS
330
5D6
102
}
330
5D6
100
AcDbXrecord
280
     1
102
MATERIAL
148
0.0
149
0.0
149
0.0
 93
        0
 94
      127
282
     0
 72
     1
 77
     1
171
     1
175
     1
179
     1
273
     0
  0
XRECORD
  5
5D5
102
{ACAD_REACTORS
330
5D4
102
}
330
5D4
100
AcDbXrecord
280
     1
102
MATERIAL
148
0.0
149
0.0
149
0.0
 93
        0
 94
      127
282
     0
 72
     1
 77
     1
171
     1
175
     1
179
     1
273
     0
  0
XRECORD
  5
5D9
102
{ACAD_REACTORS
330
5D8
102
}
330
5D8
100
AcDbXrecord
280
     1
102
MATERIAL
148
0.0
149
0.0
149
0.0
 93
        0
 94
      127
282
     0
 72
     1
 77
     1
171
     1
175
     1
179
     1
273
     0
  0
XRECORD
  5
5BD
102
{ACAD_REACTORS
330
5BC
102
}
330
5BC
100
AcDbXrecord
280
     1
102
RTVSPropertyOp0
 70
     1
102
RTVSPropertyOp1
 70
     1
102
RTVSPropertyOp2
 70
     1
102
RTVSPropertyOp3
 70
     1
102
RTVSPropertyOp4
 70
     1
102
RTVSPropertyOp5
 70
     1
102
RTVSPropertyOp6
 70
     1
102
RTVSPropertyOp7
 70
     1
102
RTVSPropertyOp8
 70
     1
102
RTVSPropertyOp9
 70
     1
102
RTVSPropertyOp10
 70
     1
102
RTVSPropertyOp11
 70
     1
102
RTVSPropertyOp12
 70
     1
102
RTVSPropertyOp13
 70
     1
102
RTVSPropertyOp14
 70
     1
102
RTVSPropertyOp15
 70
     1
102
RTVSPropertyOp16
 70
     1
102
RTVSPropertyOp17
 70
     1
102
RTVSPropertyOp18
 70
     1
102
RTVSPropertyOp19
 70
     1
102
RTVSPropertyOp20
 70
     1
102
RTVSPropertyOp21
 70
     1
102
RTVSPropertyOp22
 70
     1
102
RTVSPropertyOp23
 70
     1
102
RTVSPropertyOp24
 70
     1
102
RTVSPropertyOp25
 70
     1
102
RTVSPropertyOp26
 70
     1
102
RTVSPropertyOp27
 70
     1
102
RTVSPropertyOp28
 70
     1
102
RTVSPropertyOp29
 70
     1
102
RTVSPropertyOp30
 70
     1
102
RTVSPropertyOp31
 70
     1
102
RTVSPropertyOp32
 70
     1
  0
XRECORD
  5
5C1
102
{ACAD_REACTORS
330
5C0
102
}
330
5C0
100
AcDbXrecord
280
     1
102
RTVSPropertyOp0
 70
     1
102
RTVSPropertyOp1
 70
     1
102
RTVSPropertyOp2
 70
     1
102
RTVSPropertyOp3
 70
     1
102
RTVSPropertyOp4
 70
     1
102
RTVSPropertyOp5
 70
     1
102
RTVSPropertyOp6
 70
     1
102
RTVSPropertyOp7
 70
     1
102
RTVSPropertyOp8
 70
     1
102
RTVSPropertyOp9
 70
     1
102
RTVSPropertyOp10
 70
     1
102
RTVSPropertyOp11
 70
     1
102
RTVSPropertyOp12
 70
     1
102
RTVSPropertyOp13
 70
     1
102
RTVSPropertyOp14
 70
     1
102
RTVSPropertyOp15
 70
     1
102
RTVSPropertyOp16
 70
     1
102
RTVSPropertyOp17
 70
     1
102
RTVSPropertyOp18
 70
     1
102
RTVSPropertyOp19
 70
     1
102
RTVSPropertyOp20
 70
     1
102
RTVSPropertyOp21
 70
     1
102
RTVSPropertyOp22
 70
     1
102
RTVSPropertyOp23
 70
     1
102
RTVSPropertyOp24
 70
     1
102
RTVSPropertyOp25
 70
     1
102
RTVSPropertyOp26
 70
     1
102
RTVSPropertyOp27
 70
     1
102
RTVSPropertyOp28
 70
     1
102
RTVSPropertyOp29
 70
     1
102
RTVSPropertyOp30
 70
     1
102
RTVSPropertyOp31
 70
     1
102
RTVSPropertyOp32
 70
     1
  0
XRECORD
  5
5BF
102
{ACAD_REACTORS
330
5BE
102
}
330
5BE
100
AcDbXrecord
280
     1
102
RTVSPropertyOp0
 70
     1
102
RTVSPropertyOp1
 70
     1
102
RTVSPropertyOp2
 70
     1
102
RTVSPropertyOp3
 70
     1
102
RTVSPropertyOp4
 70
     1
102
RTVSPropertyOp5
 70
     1
102
RTVSPropertyOp6
 70
     1
102
RTVSPropertyOp7
 70
     1
102
RTVSPropertyOp8
 70
     1
102
RTVSPropertyOp9
 70
     1
102
RTVSPropertyOp10
 70
     1
102
RTVSPropertyOp11
 70
     1
102
RTVSPropertyOp12
 70
     1
102
RTVSPropertyOp13
 70
     1
102
RTVSPropertyOp14
 70
     1
102
RTVSPropertyOp15
 70
     1
102
RTVSPropertyOp16
 70
     1
102
RTVSPropertyOp17
 70
     1
102
RTVSPropertyOp18
 70
     1
102
RTVSPropertyOp19
 70
     1
102
RTVSPropertyOp20
 70
     1
102
RTVSPropertyOp21
 70
     1
102
RTVSPropertyOp22
 70
     1
102
RTVSPropertyOp23
 70
     1
102
RTVSPropertyOp24
 70
     1
102
RTVSPropertyOp25
 70
     1
102
RTVSPropertyOp26
 70
     1
102
RTVSPropertyOp27
 70
     1
102
RTVSPropertyOp28
 70
     1
102
RTVSPropertyOp29
 70
     1
102
RTVSPropertyOp30
 70
     1
102
RTVSPropertyOp31
 70
     1
102
RTVSPropertyOp32
 70
     1
  0
XRECORD
  5
5C3
102
{ACAD_REACTORS
330
5C2
102
}
330
5C2
100
AcDbXrecord
280
     1
102
RTVSPropertyOp0
 70
     1
102
RTVSPropertyOp1
 70
     1
102
RTVSPropertyOp2
 70
     1
102
RTVSPropertyOp3
 70
     1
102
RTVSPropertyOp4
 70
     1
102
RTVSPropertyOp5
 70
     1
102
RTVSPropertyOp6
 70
     1
102
RTVSPropertyOp7
 70
     1
102
RTVSPropertyOp8
 70
     1
102
RTVSPropertyOp9
 70
     1
102
RTVSPropertyOp10
 70
     1
102
RTVSPropertyOp11
 70
     1
102
RTVSPropertyOp12
 70
     1
102
RTVSPropertyOp13
 70
     1
102
RTVSPropertyOp14
 70
     1
102
RTVSPropertyOp15
 70
     1
102
RTVSPropertyOp16
 70
     1
102
RTVSPropertyOp17
 70
     1
102
RTVSPropertyOp18
 70
     1
102
RTVSPropertyOp19
 70
     1
102
RTVSPropertyOp20
 70
     1
102
RTVSPropertyOp21
 70
     1
102
RTVSPropertyOp22
 70
     1
102
RTVSPropertyOp23
 70
     1
102
RTVSPropertyOp24
 70
     1
102
RTVSPropertyOp25
 70
     1
102
RTVSPropertyOp26
 70
     1
102
RTVSPropertyOp27
 70
     1
102
RTVSPropertyOp28
 70
     1
102
RTVSPropertyOp29
 70
     1
102
RTVSPropertyOp30
 70
     1
102
RTVSPropertyOp31
 70
     1
102
RTVSPropertyOp32
 70
     1
  0
XRECORD
  5
5CB
102
{ACAD_REACTORS
330
5CA
102
}
330
5CA
100
AcDbXrecord
280
     1
102
RTVSPropertyOp0
 70
     1
102
RTVSPropertyOp1
 70
     1
102
RTVSPropertyOp2
 70
     1
102
RTVSPropertyOp3
 70
     1
102
RTVSPropertyOp4
 70
     1
102
RTVSPropertyOp5
 70
     1
102
RTVSPropertyOp6
 70
     1
102
RTVSPropertyOp7
 70
     1
102
RTVSPropertyOp8
 70
     1
102
RTVSPropertyOp9
 70
     1
102
RTVSPropertyOp10
 70
     1
102
RTVSPropertyOp11
 70
     1
102
RTVSPropertyOp12
 70
     1
102
RTVSPropertyOp13
 70
     1
102
RTVSPropertyOp14
 70
     1
102
RTVSPropertyOp15
 70
     1
102
RTVSPropertyOp16
 70
     1
102
RTVSPropertyOp17
 70
     1
102
RTVSPropertyOp18
 70
     1
102
RTVSPropertyOp19
 70
     1
102
RTVSPropertyOp20
 70
     1
102
RTVSPropertyOp21
 70
     1
102
RTVSPropertyOp22
 70
     1
102
RTVSPropertyOp23
 70
     1
102
RTVSPropertyOp24
 70
     1
102
RTVSPropertyOp25
 70
     1
102
RTVSPropertyOp26
 70
     1
102
RTVSPropertyOp27
 70
     1
102
RTVSPropertyOp28
 70
     1
102
RTVSPropertyOp29
 70
     1
102
RTVSPropertyOp30
 70
     1
102
RTVSPropertyOp31
 70
     1
102
RTVSPropertyOp32
 70
     1
  0
XRECORD
  5
5D3
102
{ACAD_REACTORS
330
5D2
102
}
330
5D2
100
AcDbXrecord
280
     1
102
RTVSPropertyOp0
 70
     1
102
RTVSPropertyOp1
 70
     1
102
RTVSPropertyOp2
 70
     1
102
RTVSPropertyOp3
 70
     1
102
RTVSPropertyOp4
 70
     1
102
RTVSPropertyOp5
 70
     1
102
RTVSPropertyOp6
 70
     1
102
RTVSPropertyOp7
 70
     1
102
RTVSPropertyOp8
 70
     1
102
RTVSPropertyOp9
 70
     1
102
RTVSPropertyOp10
 70
     1
102
RTVSPropertyOp11
 70
     1
102
RTVSPropertyOp12
 70
     1
102
RTVSPropertyOp13
 70
     1
102
RTVSPropertyOp14
 70
     1
102
RTVSPropertyOp15
 70
     1
102
RTVSPropertyOp16
 70
     1
102
RTVSPropertyOp17
 70
     1
102
RTVSPropertyOp18
 70
     1
102
RTVSPropertyOp19
 70
     1
102
RTVSPropertyOp20
 70
     1
102
RTVSPropertyOp21
 70
     1
102
RTVSPropertyOp22
 70
     1
102
RTVSPropertyOp23
 70
     1
102
RTVSPropertyOp24
 70
     1
102
RTVSPropertyOp25
 70
     1
102
RTVSPropertyOp26
 70
     1
102
RTVSPropertyOp27
 70
     1
102
RTVSPropertyOp28
 70
     1
102
RTVSPropertyOp29
 70
     1
102
RTVSPropertyOp30
 70
     1
102
RTVSPropertyOp31
 70
     1
102
RTVSPropertyOp32
 70
     1
  0
XRECORD
  5
5C7
102
{ACAD_REACTORS
330
5C6
102
}
330
5C6
100
AcDbXrecord
280
     1
102
RTVSPropertyOp0
 70
     1
102
RTVSPropertyOp1
 70
     1
102
RTVSPropertyOp2
 70
     1
102
RTVSPropertyOp3
 70
     1
102
RTVSPropertyOp4
 70
     1
102
RTVSPropertyOp5
 70
     1
102
RTVSPropertyOp6
 70
     1
102
RTVSPropertyOp7
 70
     1
102
RTVSPropertyOp8
 70
     1
102
RTVSPropertyOp9
 70
     1
102
RTVSPropertyOp10
 70
     1
102
RTVSPropertyOp11
 70
     1
102
RTVSPropertyOp12
 70
     1
102
RTVSPropertyOp13
 70
     1
102
RTVSPropertyOp14
 70
     1
102
RTVSPropertyOp15
 70
     1
102
RTVSPropertyOp16
 70
     1
102
RTVSPropertyOp17
 70
     1
102
RTVSPropertyOp18
 70
     1
102
RTVSPropertyOp19
 70
     1
102
RTVSPropertyOp20
 70
     1
102
RTVSPropertyOp21
 70
     1
102
RTVSPropertyOp22
 70
     1
102
RTVSPropertyOp23
 70
     1
102
RTVSPropertyOp24
 70
     1
102
RTVSPropertyOp25
 70
     1
102
RTVSPropertyOp26
 70
     1
102
RTVSPropertyOp27
 70
     1
102
RTVSPropertyOp28
 70
     1
102
RTVSPropertyOp29
 70
     1
102
RTVSPropertyOp30
 70
     1
102
RTVSPropertyOp31
 70
     1
102
RTVSPropertyOp32
 70
     1
  0
XRECORD
  5
5C9
102
{ACAD_REACTORS
330
5C8
102
}
330
5C8
100
AcDbXrecord
280
     1
102
RTVSPropertyOp0
 70
     1
102
RTVSPropertyOp1
 70
     1
102
RTVSPropertyOp2
 70
     1
102
RTVSPropertyOp3
 70
     1
102
RTVSPropertyOp4
 70
     1
102
RTVSPropertyOp5
 70
     1
102
RTVSPropertyOp6
 70
     1
102
RTVSPropertyOp7
 70
     1
102
RTVSPropertyOp8
 70
     1
102
RTVSPropertyOp9
 70
     1
102
RTVSPropertyOp10
 70
     1
102
RTVSPropertyOp11
 70
     1
102
RTVSPropertyOp12
 70
     1
102
RTVSPropertyOp13
 70
     1
102
RTVSPropertyOp14
 70
     1
102
RTVSPropertyOp15
 70
     1
102
RTVSPropertyOp16
 70
     1
102
RTVSPropertyOp17
 70
     1
102
RTVSPropertyOp18
 70
     1
102
RTVSPropertyOp19
 70
     1
102
RTVSPropertyOp20
 70
     1
102
RTVSPropertyOp21
 70
     1
102
RTVSPropertyOp22
 70
     1
102
RTVSPropertyOp23
 70
     1
102
RTVSPropertyOp24
 70
     1
102
RTVSPropertyOp25
 70
     1
102
RTVSPropertyOp26
 70
     1
102
RTVSPropertyOp27
 70
     1
102
RTVSPropertyOp28
 70
     1
102
RTVSPropertyOp29
 70
     1
102
RTVSPropertyOp30
 70
     1
102
RTVSPropertyOp31
 70
     1
102
RTVSPropertyOp32
 70
     1
  0
XRECORD
  5
5D1
102
{ACAD_REACTORS
330
5D0
102
}
330
5D0
100
AcDbXrecord
280
     1
102
RTVSPropertyOp0
 70
     1
102
RTVSPropertyOp1
 70
     1
102
RTVSPropertyOp2
 70
     1
102
RTVSPropertyOp3
 70
     1
102
RTVSPropertyOp4
 70
     1
102
RTVSPropertyOp5
 70
     1
102
RTVSPropertyOp6
 70
     1
102
RTVSPropertyOp7
 70
     1
102
RTVSPropertyOp8
 70
     1
102
RTVSPropertyOp9
 70
     1
102
RTVSPropertyOp10
 70
     1
102
RTVSPropertyOp11
 70
     1
102
RTVSPropertyOp12
 70
     1
102
RTVSPropertyOp13
 70
     1
102
RTVSPropertyOp14
 70
     1
102
RTVSPropertyOp15
 70
     1
102
RTVSPropertyOp16
 70
     1
102
RTVSPropertyOp17
 70
     1
102
RTVSPropertyOp18
 70
     1
102
RTVSPropertyOp19
 70
     1
102
RTVSPropertyOp20
 70
     1
102
RTVSPropertyOp21
 70
     1
102
RTVSPropertyOp22
 70
     1
102
RTVSPropertyOp23
 70
     1
102
RTVSPropertyOp24
 70
     1
102
RTVSPropertyOp25
 70
     1
102
RTVSPropertyOp26
 70
     1
102
RTVSPropertyOp27
 70
     1
102
RTVSPropertyOp28
 70
     1
102
RTVSPropertyOp29
 70
     1
102
RTVSPropertyOp30
 70
     1
102
RTVSPropertyOp31
 70
     1
102
RTVSPropertyOp32
 70
     1
  0
XRECORD
  5
5B5
102
{ACAD_REACTORS
330
5B4
102
}
330
5B4
100
AcDbXrecord
280
     1
102
RTVSPropertyOp0
 70
     1
102
RTVSPropertyOp1
 70
     1
102
RTVSPropertyOp2
 70
     1
102
RTVSPropertyOp3
 70
     1
102
RTVSPropertyOp4
 70
     1
102
RTVSPropertyOp5
 70
     1
102
RTVSPropertyOp6
 70
     1
102
RTVSPropertyOp7
 70
     1
102
RTVSPropertyOp8
 70
     1
102
RTVSPropertyOp9
 70
     1
102
RTVSPropertyOp10
 70
     1
102
RTVSPropertyOp11
 70
     1
102
RTVSPropertyOp12
 70
     1
102
RTVSPropertyOp13
 70
     1
102
RTVSPropertyOp14
 70
     1
102
RTVSPropertyOp15
 70
     1
102
RTVSPropertyOp16
 70
     1
102
RTVSPropertyOp17
 70
     1
102
RTVSPropertyOp18
 70
     1
102
RTVSPropertyOp19
 70
     1
102
RTVSPropertyOp20
 70
     1
102
RTVSPropertyOp21
 70
     1
102
RTVSPropertyOp22
 70
     1
102
RTVSPropertyOp23
 70
     1
102
RTVSPropertyOp24
 70
     1
102
RTVSPropertyOp25
 70
     1
102
RTVSPropertyOp26
 70
     1
102
RTVSPropertyOp27
 70
     1
102
RTVSPropertyOp28
 70
     1
102
RTVSPropertyOp29
 70
     1
102
RTVSPropertyOp30
 70
     1
102
RTVSPropertyOp31
 70
     1
102
RTVSPropertyOp32
 70
     1
  0
XRECORD
  5
5B7
102
{ACAD_REACTORS
330
5B6
102
}
330
5B6
100
AcDbXrecord
280
     1
102
RTVSPropertyOp0
 70
     1
102
RTVSPropertyOp1
 70
     1
102
RTVSPropertyOp2
 70
     1
102
RTVSPropertyOp3
 70
     1
102
RTVSPropertyOp4
 70
     1
102
RTVSPropertyOp5
 70
     1
102
RTVSPropertyOp6
 70
     1
102
RTVSPropertyOp7
 70
     1
102
RTVSPropertyOp8
 70
     1
102
RTVSPropertyOp9
 70
     1
102
RTVSPropertyOp10
 70
     1
102
RTVSPropertyOp11
 70
     1
102
RTVSPropertyOp12
 70
     1
102
RTVSPropertyOp13
 70
     1
102
RTVSPropertyOp14
 70
     1
102
RTVSPropertyOp15
 70
     1
102
RTVSPropertyOp16
 70
     1
102
RTVSPropertyOp17
 70
     1
102
RTVSPropertyOp18
 70
     1
102
RTVSPropertyOp19
 70
     1
102
RTVSPropertyOp20
 70
     1
102
RTVSPropertyOp21
 70
     1
102
RTVSPropertyOp22
 70
     1
102
RTVSPropertyOp23
 70
     1
102
RTVSPropertyOp24
 70
     1
102
RTVSPropertyOp25
 70
     1
102
RTVSPropertyOp26
 70
     1
102
RTVSPropertyOp27
 70
     1
102
RTVSPropertyOp28
 70
     1
102
RTVSPropertyOp29
 70
     1
102
RTVSPropertyOp30
 70
     1
102
RTVSPropertyOp31
 70
     1
102
RTVSPropertyOp32
 70
     1
  0
XRECORD
  5
5B9
102
{ACAD_REACTORS
330
5B8
102
}
330
5B8
100
AcDbXrecord
280
     1
102
RTVSPropertyOp0
 70
     1
102
RTVSPropertyOp1
 70
     1
102
RTVSPropertyOp2
 70
     1
102
RTVSPropertyOp3
 70
     1
102
RTVSPropertyOp4
 70
     1
102
RTVSPropertyOp5
 70
     1
102
RTVSPropertyOp6
 70
     1
102
RTVSPropertyOp7
 70
     1
102
RTVSPropertyOp8
 70
     1
102
RTVSPropertyOp9
 70
     1
102
RTVSPropertyOp10
 70
     1
102
RTVSPropertyOp11
 70
     1
102
RTVSPropertyOp12
 70
     1
102
RTVSPropertyOp13
 70
     1
102
RTVSPropertyOp14
 70
     1
102
RTVSPropertyOp15
 70
     1
102
RTVSPropertyOp16
 70
     1
102
RTVSPropertyOp17
 70
     1
102
RTVSPropertyOp18
 70
     1
102
RTVSPropertyOp19
 70
     1
102
RTVSPropertyOp20
 70
     1
102
RTVSPropertyOp21
 70
     1
102
RTVSPropertyOp22
 70
     1
102
RTVSPropertyOp23
 70
     1
102
RTVSPropertyOp24
 70
     1
102
RTVSPropertyOp25
 70
     1
102
RTVSPropertyOp26
 70
     1
102
RTVSPropertyOp27
 70
     1
102
RTVSPropertyOp28
 70
     1
102
RTVSPropertyOp29
 70
     1
102
RTVSPropertyOp30
 70
     1
102
RTVSPropertyOp31
 70
     1
102
RTVSPropertyOp32
 70
     1
  0
XRECORD
  5
5BB
102
{ACAD_REACTORS
330
5BA
102
}
330
5BA
100
AcDbXrecord
280
     1
102
RTVSPropertyOp0
 70
     1
102
RTVSPropertyOp1
 70
     1
102
RTVSPropertyOp2
 70
     1
102
RTVSPropertyOp3
 70
     1
102
RTVSPropertyOp4
 70
     1
102
RTVSPropertyOp5
 70
     1
102
RTVSPropertyOp6
 70
     1
102
RTVSPropertyOp7
 70
     1
102
RTVSPropertyOp8
 70
     1
102
RTVSPropertyOp9
 70
     1
102
RTVSPropertyOp10
 70
     1
102
RTVSPropertyOp11
 70
     1
102
RTVSPropertyOp12
 70
     1
102
RTVSPropertyOp13
 70
     1
102
RTVSPropertyOp14
 70
     1
102
RTVSPropertyOp15
 70
     1
102
RTVSPropertyOp16
 70
     1
102
RTVSPropertyOp17
 70
     1
102
RTVSPropertyOp18
 70
     1
102
RTVSPropertyOp19
 70
     1
102
RTVSPropertyOp20
 70
     1
102
RTVSPropertyOp21
 70
     1
102
RTVSPropertyOp22
 70
     1
102
RTVSPropertyOp23
 70
     1
102
RTVSPropertyOp24
 70
     1
102
RTVSPropertyOp25
 70
     1
102
RTVSPropertyOp26
 70
     1
102
RTVSPropertyOp27
 70
     1
102
RTVSPropertyOp28
 70
     1
102
RTVSPropertyOp29
 70
     1
102
RTVSPropertyOp30
 70
     1
102
RTVSPropertyOp31
 70
     1
102
RTVSPropertyOp32
 70
     1
  0
XRECORD
  5
5CF
102
{ACAD_REACTORS
330
5CE
102
}
330
5CE
100
AcDbXrecord
280
     1
102
RTVSPropertyOp0
 70
     1
102
RTVSPropertyOp1
 70
     1
102
RTVSPropertyOp2
 70
     1
102
RTVSPropertyOp3
 70
     1
102
RTVSPropertyOp4
 70
     1
102
RTVSPropertyOp5
 70
     1
102
RTVSPropertyOp6
 70
     1
102
RTVSPropertyOp7
 70
     1
102
RTVSPropertyOp8
 70
     1
102
RTVSPropertyOp9
 70
     1
102
RTVSPropertyOp10
 70
     1
102
RTVSPropertyOp11
 70
     1
102
RTVSPropertyOp12
 70
     1
102
RTVSPropertyOp13
 70
     1
102
RTVSPropertyOp14
 70
     1
102
RTVSPropertyOp15
 70
     1
102
RTVSPropertyOp16
 70
     1
102
RTVSPropertyOp17
 70
     1
102
RTVSPropertyOp18
 70
     1
102
RTVSPropertyOp19
 70
     1
102
RTVSPropertyOp20
 70
     1
102
RTVSPropertyOp21
 70
     1
102
RTVSPropertyOp22
 70
     1
102
RTVSPropertyOp23
 70
     1
102
RTVSPropertyOp24
 70
     1
102
RTVSPropertyOp25
 70
     1
102
RTVSPropertyOp26
 70
     1
102
RTVSPropertyOp27
 70
     1
102
RTVSPropertyOp28
 70
     1
102
RTVSPropertyOp29
 70
     1
102
RTVSPropertyOp30
 70
     1
102
RTVSPropertyOp31
 70
     1
102
RTVSPropertyOp32
 70
     1
  0
XRECORD
  5
5C5
102
{ACAD_REACTORS
330
5C4
102
}
330
5C4
100
AcDbXrecord
280
     1
102
RTVSPropertyOp0
 70
     1
102
RTVSPropertyOp1
 70
     1
102
RTVSPropertyOp2
 70
     1
102
RTVSPropertyOp3
 70
     1
102
RTVSPropertyOp4
 70
     1
102
RTVSPropertyOp5
 70
     1
102
RTVSPropertyOp6
 70
     1
102
RTVSPropertyOp7
 70
     1
102
RTVSPropertyOp8
 70
     1
102
RTVSPropertyOp9
 70
     1
102
RTVSPropertyOp10
 70
     1
102
RTVSPropertyOp11
 70
     1
102
RTVSPropertyOp12
 70
     1
102
RTVSPropertyOp13
 70
     1
102
RTVSPropertyOp14
 70
     1
102
RTVSPropertyOp15
 70
     1
102
RTVSPropertyOp16
 70
     1
102
RTVSPropertyOp17
 70
     1
102
RTVSPropertyOp18
 70
     1
102
RTVSPropertyOp19
 70
     1
102
RTVSPropertyOp20
 70
     1
102
RTVSPropertyOp21
 70
     1
102
RTVSPropertyOp22
 70
     1
102
RTVSPropertyOp23
 70
     1
102
RTVSPropertyOp24
 70
     1
102
RTVSPropertyOp25
 70
     1
102
RTVSPropertyOp26
 70
     1
102
RTVSPropertyOp27
 70
     1
102
RTVSPropertyOp28
 70
     1
102
RTVSPropertyOp29
 70
     1
102
RTVSPropertyOp30
 70
     1
102
RTVSPropertyOp31
 70
     1
102
RTVSPropertyOp32
 70
     1
  0
XRECORD
  5
5CD
102
{ACAD_REACTORS
330
5CC
102
}
330
5CC
100
AcDbXrecord
280
     1
102
RTVSPropertyOp0
 70
     1
102
RTVSPropertyOp1
 70
     1
102
RTVSPropertyOp2
 70
     1
102
RTVSPropertyOp3
 70
     1
102
RTVSPropertyOp4
 70
     1
102
RTVSPropertyOp5
 70
     1
102
RTVSPropertyOp6
 70
     1
102
RTVSPropertyOp7
 70
     1
102
RTVSPropertyOp8
 70
     1
102
RTVSPropertyOp9
 70
     1
102
RTVSPropertyOp10
 70
     1
102
RTVSPropertyOp11
 70
     1
102
RTVSPropertyOp12
 70
     1
102
RTVSPropertyOp13
 70
     1
102
RTVSPropertyOp14
 70
     1
102
RTVSPropertyOp15
 70
     1
102
RTVSPropertyOp16
 70
     1
102
RTVSPropertyOp17
 70
     1
102
RTVSPropertyOp18
 70
     1
102
RTVSPropertyOp19
 70
     1
102
RTVSPropertyOp20
 70
     1
102
RTVSPropertyOp21
 70
     1
102
RTVSPropertyOp22
 70
     1
102
RTVSPropertyOp23
 70
     1
102
RTVSPropertyOp24
 70
     1
102
RTVSPropertyOp25
 70
     1
102
RTVSPropertyOp26
 70
     1
102
RTVSPropertyOp27
 70
     1
102
RTVSPropertyOp28
 70
     1
102
RTVSPropertyOp29
 70
     1
102
RTVSPropertyOp30
 70
     1
102
RTVSPropertyOp31
 70
     1
102
RTVSPropertyOp32
 70
     1
  0
ENDSEC
  0
EOF
