  0
SECTION
  2
HEADER
  9
$ACADVER
  1
AC1015
  9
$ACADMAINTVER
 70
     6
  9
$DWGCODEPAGE
  3
ANSI_949
  9
$INSBASE
 10
0.0
 20
0.0
 30
0.0
  9
$EXTMIN
 10
1.000000000000000E+20
 20
1.000000000000000E+20
 30
1.000000000000000E+20
  9
$EXTMAX
 10
-1.000000000000000E+20
 20
-1.000000000000000E+20
 30
-1.000000000000000E+20
  9
$LIMMIN
 10
0.0
 20
0.0
  9
$LIMMAX
 10
12.0
 20
9.0
  9
$ORTHOMODE
 70
     0
  9
$REGENMODE
 70
     1
  9
$FILLMODE
 70
     1
  9
$QTEXTMODE
 70
     0
  9
$MIRRTEXT
 70
     1
  9
$LTSCALE
 40
1.0
  9
$ATTMODE
 70
     1
  9
$TEXTSIZE
 40
0.2
  9
$TRACEWID
 40
0.05
  9
$TEXTSTYLE
  7
Standard
  9
$CLAYER
  8
0
  9
$CELTYPE
  6
ByLayer
  9
$CECOLOR
 62
   256
  9
$CELTSCALE
 40
1.0
  9
$DISPSILH
 70
     0
  9
$DIMSCALE
 40
1.0
  9
$DIMASZ
 40
0.18
  9
$DIMEXO
 40
0.0625
  9
$DIMDLI
 40
0.38
  9
$DIMRND
 40
0.0
  9
$DIMDLE
 40
0.0
  9
$DIMEXE
 40
0.18
  9
$DIMTP
 40
0.0
  9
$DIMTM
 40
0.0
  9
$DIMTXT
 40
0.18
  9
$DIMCEN
 40
0.09
  9
$DIMTSZ
 40
0.0
  9
$DIMTOL
 70
     0
  9
$DIMLIM
 70
     0
  9
$DIMTIH
 70
     1
  9
$DIMTOH
 70
     1
  9
$DIMSE1
 70
     0
  9
$DIMSE2
 70
     0
  9
$DIMTAD
 70
     0
  9
$DIMZIN
 70
     0
  9
$DIMBLK
  1

  9
$DIMASO
 70
     1
  9
$DIMSHO
 70
     1
  9
$DIMPOST
  1

  9
$DIMAPOST
  1

  9
$DIMALT
 70
     0
  9
$DIMALTD
 70
     2
  9
$DIMALTF
 40
25.4
  9
$DIMLFAC
 40
1.0
  9
$DIMTOFL
 70
     0
  9
$DIMTVP
 40
0.0
  9
$DIMTIX
 70
     0
  9
$DIMSOXD
 70
     0
  9
$DIMSAH
 70
     0
  9
$DIMBLK1
  1

  9
$DIMBLK2
  1

  9
$DIMSTYLE
  2
Standard
  9
$DIMCLRD
 70
     0
  9
$DIMCLRE
 70
     0
  9
$DIMCLRT
 70
     0
  9
$DIMTFAC
 40
1.0
  9
$DIMGAP
 40
0.09
  9
$DIMJUST
 70
     0
  9
$DIMSD1
 70
     0
  9
$DIMSD2
 70
     0
  9
$DIMTOLJ
 70
     1
  9
$DIMTZIN
 70
     0
  9
$DIMALTZ
 70
     0
  9
$DIMALTTZ
 70
     0
  9
$DIMUPT
 70
     0
  9
$DIMDEC
 70
     4
  9
$DIMTDEC
 70
     4
  9
$DIMALTU
 70
     2
  9
$DIMALTTD
 70
     2
  9
$DIMTXSTY
  7
Standard
  9
$DIMAUNIT
 70
     0
  9
$DIMADEC
 70
     0
  9
$DIMALTRND
 40
0.0
  9
$DIMAZIN
 70
     0
  9
$DIMDSEP
 70
    46
  9
$DIMATFIT
 70
     3
  9
$DIMFRAC
 70
     0
  9
$DIMLDRBLK
  1

  9
$DIMLUNIT
 70
     2
  9
$DIMLWD
 70
    -2
  9
$DIMLWE
 70
    -2
  9
$DIMTMOVE
 70
     0
  9
$LUNITS
 70
     2
  9
$LUPREC
 70
     4
  9
$SKETCHINC
 40
0.1
  9
$FILLETRAD
 40
0.5
  9
$AUNITS
 70
     0
  9
$AUPREC
 70
     0
  9
$MENU
  1
.
  9
$ELEVATION
 40
0.0
  9
$PELEVATION
 40
0.0
  9
$THICKNESS
 40
0.0
  9
$LIMCHECK
 70
     0
  9
$CHAMFERA
 40
0.5
  9
$CHAMFERB
 40
0.5
  9
$CHAMFERC
 40
1.0
  9
$CHAMFERD
 40
0.0
  9
$SKPOLY
 70
     0
  9
$TDCREATE
 40
2456522.580827546
  9
$TDUCREATE
 40
2456522.080827546
  9
$TDUPDATE
 40
2456522.580856655
  9
$TDUUPDATE
 40
2456522.080856655
  9
$TDINDWG
 40
0.0000000116
  9
$TDUSRTIMER
 40
0.0000000116
  9
$USRTIMER
 70
     1
  9
$ANGBASE
 50
0.0
  9
$ANGDIR
 70
     0
  9
$PDMODE
 70
     0
  9
$PDSIZE
 40
0.0
  9
$PLINEWID
 40
0.0
  9
$SPLFRAME
 70
     0
  9
$SPLINETYPE
 70
     6
  9
$SPLINESEGS
 70
     8
  9
$HANDSEED
  5
5F1
  9
$SURFTAB1
 70
     6
  9
$SURFTAB2
 70
     6
  9
$SURFTYPE
 70
     6
  9
$SURFU
 70
     6
  9
$SURFV
 70
     6
  9
$UCSBASE
  2

  9
$UCSNAME
  2

  9
$UCSORG
 10
0.0
 20
0.0
 30
0.0
  9
$UCSXDIR
 10
1.0
 20
0.0
 30
0.0
  9
$UCSYDIR
 10
0.0
 20
1.0
 30
0.0
  9
$UCSORTHOREF
  2

  9
$UCSORTHOVIEW
 70
     0
  9
$UCSORGTOP
 10
0.0
 20
0.0
 30
0.0
  9
$UCSORGBOTTOM
 10
0.0
 20
0.0
 30
0.0
  9
$UCSORGLEFT
 10
0.0
 20
0.0
 30
0.0
  9
$UCSORGRIGHT
 10
0.0
 20
0.0
 30
0.0
  9
$UCSORGFRONT
 10
0.0
 20
0.0
 30
0.0
  9
$UCSORGBACK
 10
0.0
 20
0.0
 30
0.0
  9
$PUCSBASE
  2

  9
$PUCSNAME
  2

  9
$PUCSORG
 10
0.0
 20
0.0
 30
0.0
  9
$PUCSXDIR
 10
1.0
 20
0.0
 30
0.0
  9
$PUCSYDIR
 10
0.0
 20
1.0
 30
0.0
  9
$PUCSORTHOREF
  2

  9
$PUCSORTHOVIEW
 70
     0
  9
$PUCSORGTOP
 10
0.0
 20
0.0
 30
0.0
  9
$PUCSORGBOTTOM
 10
0.0
 20
0.0
 30
0.0
  9
$PUCSORGLEFT
 10
0.0
 20
0.0
 30
0.0
  9
$PUCSORGRIGHT
 10
0.0
 20
0.0
 30
0.0
  9
$PUCSORGFRONT
 10
0.0
 20
0.0
 30
0.0
  9
$PUCSORGBACK
 10
0.0
 20
0.0
 30
0.0
  9
$USERI1
 70
     0
  9
$USERI2
 70
     0
  9
$USERI3
 70
     0
  9
$USERI4
 70
     0
  9
$USERI5
 70
     0
  9
$USERR1
 40
0.0
  9
$USERR2
 40
0.0
  9
$USERR3
 40
0.0
  9
$USERR4
 40
0.0
  9
$USERR5
 40
0.0
  9
$WORLDVIEW
 70
     1
  9
$SHADEDGE
 70
     3
  9
$SHADEDIF
 70
    70
  9
$TILEMODE
 70
     1
  9
$MAXACTVP
 70
    64
  9
$PINSBASE
 10
0.0
 20
0.0
 30
0.0
  9
$PLIMCHECK
 70
     0
  9
$PEXTMIN
 10
1.000000000000000E+20
 20
1.000000000000000E+20
 30
1.000000000000000E+20
  9
$PEXTMAX
 10
-1.000000000000000E+20
 20
-1.000000000000000E+20
 30
-1.000000000000000E+20
  9
$PLIMMIN
 10
0.0
 20
0.0
  9
$PLIMMAX
 10
12.0
 20
9.0
  9
$UNITMODE
 70
     0
  9
$VISRETAIN
 70
     1
  9
$PLINEGEN
 70
     0
  9
$PSLTSCALE
 70
     1
  9
$TREEDEPTH
 70
  3020
  9
$CMLSTYLE
  2
Standard
  9
$CMLJUST
 70
     0
  9
$CMLSCALE
 40
1.0
  9
$PROXYGRAPHICS
 70
     1
  9
$MEASUREMENT
 70
     0
  9
$CELWEIGHT
370
    -1
  9
$ENDCAPS
280
     0
  9
$JOINSTYLE
280
     0
  9
$LWDISPLAY
290
     1
  9
$INSUNITS
 70
     4
  9
$HYPERLINKBASE
  1

  9
$STYLESHEET
  1

  9
$XEDIT
290
     1
  9
$CEPSNTYPE
380
     0
  9
$PSTYLEMODE
290
     1
  9
$FINGERPRINTGUID
  2
{BA16DDB9-F35A-42FC-9A29-5F8CC6B193D3}
  9
$VERSIONGUID
  2
{FAEB1C32-E019-11D5-929B-00C0DF256EC4}
  9
$EXTNAMES
290
     1
  9
$PSVPSCALE
 40
0.0
  9
$OLESTARTUP
290
     0
  0
ENDSEC
  0
SECTION
  2
CLASSES
  0
CLASS
  1
ACDBDICTIONARYWDFLT
  2
AcDbDictionaryWithDefault
  3
ObjectDBX Classes
 90
        0
280
     0
281
     0
  0
CLASS
  1
VISUALSTYLE
  2
AcDbVisualStyle
  3
ObjectDBX Classes
 90
     4095
280
     0
281
     0
  0
CLASS
  1
MATERIAL
  2
AcDbMaterial
  3
ObjectDBX Classes
 90
     1153
280
     0
281
     0
  0
CLASS
  1
SPATIAL_FILTER
  2
AcDbSpatialFilter
  3
ObjectDBX Classes
 90
        0
280
     0
281
     0
  0
CLASS
  1
SCALE
  2
AcDbScale
  3
ObjectDBX Classes
 90
     1153
280
     0
281
     0
  0
CLASS
  1
DICTIONARYVAR
  2
AcDbDictionaryVar
  3
ObjectDBX Classes
 90
        0
280
     0
281
     0
  0
CLASS
  1
ACDBPLACEHOLDER
  2
AcDbPlaceHolder
  3
ObjectDBX Classes
 90
        0
280
     0
281
     0
  0
CLASS
  1
LAYOUT
  2
AcDbLayout
  3
ObjectDBX Classes
 90
        0
280
     0
281
     0
  0
ENDSEC
  0
SECTION
  2
TABLES
  0
TABLE
  2
VPORT
  5
8
330
0
100
AcDbSymbolTable
 70
     1
  0
VPORT
  5
29
330
8
100
AcDbSymbolTableRecord
100
AcDbViewportTableRecord
  2
*Active
 70
     0
 10
0.0
 20
0.0
 11
1.0
 21
1.0
 12
148.6203422501967
 22
99.83536082289874
 13
0.0
 23
0.0
 14
0.5
 24
0.5
 15
0.5
 25
0.5
 16
0.0
 26
0.0
 36
1.0
 17
0.0
 27
0.0
 37
0.0
 40
199.5292239653249
 41
1.447935753198045
 42
50.0
 43
0.0
 44
0.0
 50
0.0
 51
0.0
 71
     0
 72
   100
 73
     1
 74
     3
 75
     0
 76
     0
 77
     0
 78
     0
281
     0
 65
     1
110
0.0
120
0.0
130
0.0
111
1.0
121
0.0
131
0.0
112
0.0
122
1.0
132
0.0
 79
     0
146
0.0
  0
ENDTAB
  0
TABLE
  2
LTYPE
  5
5
330
0
100
AcDbSymbolTable
 70
     2
  0
LTYPE
  5
14
330
5
100
AcDbSymbolTableRecord
100
AcDbLinetypeTableRecord
  2
ByBlock
 70
     0
  3

 72
    65
 73
     0
 40
0.0
  0
LTYPE
  5
15
330
5
100
AcDbSymbolTableRecord
100
AcDbLinetypeTableRecord
  2
ByLayer
 70
     0
  3

 72
    65
 73
     0
 40
0.0
  0
LTYPE
  5
16
330
5
100
AcDbSymbolTableRecord
100
AcDbLinetypeTableRecord
  2
Continuous
 70
     0
  3
Solid line
 72
    65
 73
     0
 40
0.0
  0
LTYPE
  5
132
330
5
100
AcDbSymbolTableRecord
100
AcDbLinetypeTableRecord
  2
Dashed
 70
     0
  3
- - - - - 
 72
    65
 73
     2
 40
5.644444465637207
 49
2.822222232818604
 74
     0
 49
-2.822222232818603
 74
     0
  0
ENDTAB
  0
TABLE
  2
LAYER
  5
2
330
0
100
AcDbSymbolTable
 70
     3
  0
LAYER
  5
10
330
2
100
AcDbSymbolTableRecord
100
AcDbLayerTableRecord
  2
0
 70
     0
 62
     7
  6
Continuous
370
    -3
390
F
  0
LAYER
  5
40
330
2
100
AcDbSymbolTableRecord
100
AcDbLayerTableRecord
  2
Doc_ Finishes
 70
     0
 62
     7
  6
Continuous
370
    -3
390
F
  0
LAYER
  5
DB
330
2
100
AcDbSymbolTableRecord
100
AcDbLayerTableRecord
  2
Doc_ Floor
 70
     0
 62
     7
  6
Continuous
370
    -3
390
F
  0
ENDTAB
  0
TABLE
  2
STYLE
  5
3
330
0
100
AcDbSymbolTable
 70
     4
  0
STYLE
  5
11
330
3
100
AcDbSymbolTableRecord
100
AcDbTextStyleTableRecord
  2
Standard
 70
     0
 40
0.0
 41
1.0
 50
0.0
 71
     0
 42
0.2
  3
txt
  4

  0
STYLE
  5
D6
330
3
100
AcDbSymbolTableRecord
100
AcDbTextStyleTableRecord
  2
GENERATED_STYLE_1
 70
     0
 40
0.0
 41
1.0
 50
0.0
 71
     0
 42
0.2
  3

  4

1001
ACAD
1000
Century Gothic
1071
       34
  0
STYLE
  5
D9
330
3
100
AcDbSymbolTableRecord
100
AcDbTextStyleTableRecord
  2
GENERATED_STYLE_2
 70
     0
 40
0.0
 41
1.0
 50
0.0
 71
     0
 42
0.2
  3

  4

1001
ACAD
1000
DilleniaUPC
1071
 33554450
  0
STYLE
  5
168
330
3
100
AcDbSymbolTableRecord
100
AcDbTextStyleTableRecord
  2
GENERATED_STYLE_3
 70
     0
 40
0.0
 41
1.0
 50
0.0
 71
     0
 42
0.2
  3

  4

1001
ACAD
1000
Arial
1071
       34
  0
ENDTAB
  0
TABLE
  2
VIEW
  5
6
330
0
100
AcDbSymbolTable
 70
     0
  0
ENDTAB
  0
TABLE
  2
UCS
  5
7
330
0
100
AcDbSymbolTable
 70
     0
  0
ENDTAB
  0
TABLE
  2
APPID
  5
9
330
0
100
AcDbSymbolTable
 70
     1
  0
APPID
  5
12
330
9
100
AcDbSymbolTableRecord
100
AcDbRegAppTableRecord
  2
ACAD
 70
     0
  0
ENDTAB
  0
TABLE
  2
DIMSTYLE
  5
A
330
0
100
AcDbSymbolTable
 70
     1
100
AcDbDimStyleTable
  0
DIMSTYLE
105
27
330
A
100
AcDbSymbolTableRecord
100
AcDbDimStyleTableRecord
  2
Standard
 70
     0
178
     0
340
11
  0
ENDTAB
  0
TABLE
  2
BLOCK_RECORD
  5
1
330
0
100
AcDbSymbolTable
 70
     3
  0
BLOCK_RECORD
  5
1F
330
1
100
AcDbSymbolTableRecord
100
AcDbBlockTableRecord
  2
*Model_Space
340
22
  0
BLOCK_RECORD
  5
1B
330
1
100
AcDbSymbolTableRecord
100
AcDbBlockTableRecord
  2
*Paper_Space
340
1E
  0
BLOCK_RECORD
  5
E3
330
1
100
AcDbSymbolTableRecord
100
AcDbBlockTableRecord
  2
Drawing_1_2
340
0
102
{BLKREFS
331
597
102
}
  0
BLOCK_RECORD
  5
59B
330
1
100
AcDbSymbolTableRecord
100
AcDbBlockTableRecord
  2
R-TRS6-05 HIDDENGUTTER DETAIL_STORY_MARKER
340
0
  0
ENDTAB
  0
ENDSEC
  0
SECTION
  2
BLOCKS
  0
BLOCK
  5
20
330
1F
100
AcDbEntity
  8
0
100
AcDbBlockBegin
  2
*Model_Space
 70
     0
 10
0.0
 20
0.0
 30
0.0
  3
*Model_Space
  1

  0
ENDBLK
  5
21
330
1F
100
AcDbEntity
  8
0
100
AcDbBlockEnd
  0
BLOCK
  5
1C
330
1B
100
AcDbEntity
 67
     1
  8
0
100
AcDbBlockBegin
  2
*Paper_Space
 70
     0
 10
0.0
 20
0.0
 30
0.0
  3
*Paper_Space
  1

  0
ENDBLK
  5
1D
330
1B
100
AcDbEntity
 67
     1
  8
0
100
AcDbBlockEnd
  0
BLOCK
  5
E4
330
E3
100
AcDbEntity
  8
0
100
AcDbBlockBegin
  2
Drawing_1_2
 70
     0
 10
26.12171212374109
 20
79.28749807145608
 30
0.0
  3
Drawing_1_2
  1

  0
HATCH
  5
E6
330
E3
100
AcDbEntity
  8
0
  6
Continuous
 62
   255
370
     0
100
AcDbHatch
 10
0.0
 20
0.0
 30
0.0
210
0.0
220
0.0
230
1.0
  2
SOLID
 70
     1
 71
     0
 91
        1
 92
        3
 72
     0
 73
     1
 93
        4
 10
103.3111730868406
 20
125.6122907542079
 10
103.3111730868406
 20
111.6122907542079
 10
131.3111730868406
 20
111.6122907542079
 10
131.3111730868406
 20
125.6122907542079
 97
        0
 75
     0
 76
     1
 98
        0
  0
LINE
  5
E7
330
E3
100
AcDbEntity
  8
0
  6
Continuous
100
AcDbLine
 10
103.3111748845927
 20
125.6122912378308
 30
0.0
 11
131.3111717206079
 21
111.6122892102031
 31
0.0
  0
LINE
  5
E8
330
E3
100
AcDbEntity
  8
0
  6
Continuous
100
AcDbLine
 10
103.3111748845927
 20
125.6122912378308
 30
0.0
 11
103.3111748845927
 21
111.6122892102031
 31
0.0
  0
LINE
  5
E9
330
E3
100
AcDbEntity
  8
0
  6
Continuous
100
AcDbLine
 10
103.3111748845927
 20
111.6122892102031
 30
0.0
 11
131.3111717206079
 21
111.6122892102031
 31
0.0
  0
LINE
  5
EA
330
E3
100
AcDbEntity
  8
0
  6
Continuous
100
AcDbLine
 10
131.3111717206079
 20
111.6122892102031
 30
0.0
 11
131.3111717206079
 21
125.6122912378308
 31
0.0
  0
LINE
  5
EB
330
E3
100
AcDbEntity
  8
0
  6
Continuous
100
AcDbLine
 10
131.3111717206079
 20
125.6122912378308
 30
0.0
 11
103.3111748845927
 21
125.6122912378308
 31
0.0
  0
HATCH
  5
EC
330
E3
100
AcDbEntity
  8
0
  6
Continuous
 62
   255
370
     0
100
AcDbHatch
 10
0.0
 20
0.0
 30
0.0
210
0.0
220
0.0
230
1.0
  2
SOLID
 70
     1
 71
     0
 91
        1
 92
        3
 72
     0
 73
     1
 93
        4
 10
80.71174278380172
 20
83.61229075420786
 10
169.3895022910217
 20
83.61229075420785
 10
169.3895022910217
 20
111.6122907542078
 10
80.71174278380174
 20
111.6122907542079
 97
        0
 75
     0
 76
     1
 98
        0
  0
LINE
  5
ED
330
E3
100
AcDbEntity
  8
0
  6
Continuous
100
AcDbLine
 10
80.71174373621747
 20
83.6122923741879
 30
0.0
 11
169.3895023720015
 21
83.6122923741879
 31
0.0
  0
LINE
  5
EE
330
E3
100
AcDbEntity
  8
0
  6
Continuous
100
AcDbLine
 10
169.3895023720015
 20
83.6122923741879
 30
0.0
 11
169.3895023720015
 21
111.6122892102031
 31
0.0
  0
LINE
  5
EF
330
E3
100
AcDbEntity
  8
0
  6
Continuous
100
AcDbLine
 10
169.3895023720015
 20
111.6122892102031
 30
0.0
 11
80.71174373621747
 21
111.6122892102031
 31
0.0
  0
LINE
  5
F0
330
E3
100
AcDbEntity
  8
0
  6
Continuous
100
AcDbLine
 10
80.71174373621747
 20
111.6122892102031
 30
0.0
 11
80.71174373621747
 21
83.6122923741879
 31
0.0
  0
HATCH
  5
F1
330
E3
100
AcDbEntity
  8
0
  6
Continuous
 62
   255
370
     0
100
AcDbHatch
 10
0.0
 20
0.0
 30
0.0
210
0.0
220
0.0
230
1.0
  2
SOLID
 70
     1
 71
     0
 91
        1
 92
        3
 72
     0
 73
     1
 93
        4
 10
161.3078660438386
 20
197.6438028207592
 10
161.3078660438386
 20
140.8546342837216
 10
165.3078666231608
 20
140.8546342837216
 10
165.3078666231608
 20
197.6438028207592
 97
        0
 75
     0
 76
     1
 98
        0
  0
LINE
  5
F2
330
E3
100
AcDbEntity
  8
0
  6
Continuous
100
AcDbLine
 10
161.3078660438386
 20
197.6438028207592
 30
0.0
 11
161.3078660438386
 21
140.8546342837216
 31
0.0
  0
LINE
  5
F3
330
E3
100
AcDbEntity
  8
0
  6
Continuous
100
AcDbLine
 10
161.3078660438386
 20
140.8546342837216
 30
0.0
 11
165.3078666231608
 21
140.8546342837216
 31
0.0
  0
LINE
  5
F4
330
E3
100
AcDbEntity
  8
0
  6
Continuous
100
AcDbLine
 10
165.3078666231608
 20
140.8546342837216
 30
0.0
 11
165.3078666231608
 21
197.6438028207592
 31
0.0
  0
HATCH
  5
F5
330
E3
100
AcDbEntity
  8
0
  6
Continuous
 62
   255
370
     0
100
AcDbHatch
 10
0.0
 20
0.0
 30
0.0
210
0.0
220
0.0
230
1.0
  2
SOLID
 70
     1
 71
     0
 91
        1
 92
        3
 72
     0
 73
     1
 93
        4
 10
161.3078656812288
 20
137.0546356246902
 10
165.3078656812288
 20
137.0546356246902
 10
165.3078656812288
 20
146.0546356246902
 10
161.3078656812288
 20
146.0546356246901
 97
        0
 75
     0
 76
     1
 98
        0
  0
LINE
  5
F6
330
E3
100
AcDbEntity
  8
0
  6
Continuous
100
AcDbLine
 10
161.3078660438386
 20
137.0546355381756
 30
0.0
 11
165.3078666231608
 21
146.0546350368405
 31
0.0
  0
LINE
  5
F7
330
E3
100
AcDbEntity
  8
0
  6
Continuous
100
AcDbLine
 10
161.3078660438386
 20
137.0546355381756
 30
0.0
 11
165.3078666231608
 21
137.0546355381756
 31
0.0
  0
LINE
  5
F8
330
E3
100
AcDbEntity
  8
0
  6
Continuous
100
AcDbLine
 10
165.3078666231608
 20
137.0546355381756
 30
0.0
 11
165.3078666231608
 21
146.0546350368405
 31
0.0
  0
LINE
  5
F9
330
E3
100
AcDbEntity
  8
0
  6
Continuous
100
AcDbLine
 10
165.3078666231608
 20
146.0546350368405
 30
0.0
 11
161.3078660438386
 21
146.0546350368405
 31
0.0
  0
LINE
  5
FA
330
E3
100
AcDbEntity
  8
0
  6
Continuous
100
AcDbLine
 10
161.3078660438386
 20
146.0546350368405
 30
0.0
 11
161.3078660438386
 21
137.0546355381756
 31
0.0
  0
HATCH
  5
FB
330
E3
100
AcDbEntity
  8
0
  6
Continuous
 62
   255
370
     0
100
AcDbHatch
 10
0.0
 20
0.0
 30
0.0
210
0.0
220
0.0
230
1.0
  2
SOLID
 70
     1
 71
     0
 91
        1
 92
        3
 72
     0
 73
     1
 93
        4
 10
169.3895017656127
 20
197.6438053121825
 10
169.3895017656127
 20
26.01930819705006
 10
187.3894999625705
 20
26.01930819705006
 10
187.3894999625705
 20
197.6438053121825
 97
        0
 75
     0
 76
     1
 98
        0
  0
LINE
  5
FC
330
E3
100
AcDbEntity
  8
0
  6
Continuous
100
AcDbLine
 10
187.3894999625705
 20
26.01930819705006
 30
0.0
 11
187.3894999625705
 21
197.6438053121825
 31
0.0
  0
LINE
  5
FD
330
E3
100
AcDbEntity
  8
0
  6
Continuous
100
AcDbLine
 10
169.3895017656127
 20
197.6438053121825
 30
0.0
 11
169.3895017656127
 21
26.01930819705006
 31
0.0
  0
HATCH
  5
FE
330
E3
100
AcDbEntity
  8
0
  6
Continuous
 62
   255
370
     0
100
AcDbHatch
 10
0.0
 20
0.0
 30
0.0
210
0.0
220
0.0
230
1.0
  2
SOLID
 70
     1
 71
     0
 91
        1
 92
        3
 72
     0
 73
     1
 93
        4
 10
187.3894999625705
 20
197.6438053121825
 10
187.3894999625705
 20
26.01930819705006
 10
189.3894989790929
 20
26.01930819705006
 10
189.3894989790929
 20
197.6438053121825
 97
        0
 75
     0
 76
     1
 98
        0
  0
HATCH
  5
FF
330
E3
100
AcDbEntity
  8
0
  6
Continuous
 62
     9
370
    13
100
AcDbHatch
 10
0.0
 20
0.0
 30
0.0
210
0.0
220
0.0
230
1.0
  2
Gypsum_0002
 70
     0
 71
     0
 91
        1
 92
        3
 72
     0
 73
     1
 93
        4
 10
187.3894999625705
 20
197.6438053121825
 10
187.3894999625705
 20
26.01930819705006
 10
189.3894989790929
 20
26.01930819705006
 10
189.3894989790929
 20
197.6438053121825
 97
        0
 75
     0
 76
     2
 52
0.0
 41
1.0
 77
     0
 78
     1
 53
0.0
 43
26.12171212374109
 44
79.28749807145608
 45
0.0
 46
0.75
 79
     2
 49
0.0
 49
-0.75
 98
        0
  0
LINE
  5
100
330
E3
100
AcDbEntity
  8
0
  6
Continuous
100
AcDbLine
 10
189.3894989790929
 20
26.01930819705006
 30
0.0
 11
189.3894989790929
 21
197.6438053121825
 31
0.0
  0
LINE
  5
101
330
E3
100
AcDbEntity
  8
0
  6
Continuous
100
AcDbLine
 10
187.3894999625705
 20
197.6438053121825
 30
0.0
 11
187.3894999625705
 21
26.01930819705006
 31
0.0
  0
HATCH
  5
102
330
E3
100
AcDbEntity
  8
0
  6
Continuous
 62
   255
370
     0
100
AcDbHatch
 10
0.0
 20
0.0
 30
0.0
210
0.0
220
0.0
230
1.0
  2
SOLID
 70
     1
 71
     0
 91
        1
 92
        3
 72
     0
 73
     1
 93
        4
 10
169.3895023720015
 20
194.8452967979795
 10
187.3895013693313
 20
194.8452967979795
 10
187.3895013693313
 20
197.6438028207592
 10
169.3895023720015
 20
197.6438028207592
 97
        0
 75
     0
 76
     1
 98
        0
  0
LINE
  5
103
330
E3
100
AcDbEntity
  8
0
  6
Continuous
100
AcDbLine
 10
187.3895013693313
 20
194.8452967979795
 30
0.0
 11
187.3895013693313
 21
197.6438028207592
 31
0.0
  0
LINE
  5
104
330
E3
100
AcDbEntity
  8
0
  6
Continuous
100
AcDbLine
 10
169.3895023720015
 20
197.6438028207592
 30
0.0
 11
169.3895023720015
 21
194.8452967979795
 31
0.0
  0
LINE
  5
105
330
E3
100
AcDbEntity
  8
0
  6
Continuous
100
AcDbLine
 10
169.3895023720015
 20
194.8452967979795
 30
0.0
 11
187.3895013693313
 21
194.8452967979795
 31
0.0
  0
HATCH
  5
106
330
E3
100
AcDbEntity
  8
0
  6
Continuous
 62
   255
370
     0
100
AcDbHatch
 10
0.0
 20
0.0
 30
0.0
210
0.0
220
0.0
230
1.0
  2
SOLID
 70
     1
 71
     0
 91
        1
 92
        3
 72
     0
 73
     1
 93
        4
 10
187.3895022910217
 20
46.34529790331813
 10
187.3895022910217
 20
55.34529790331812
 10
169.3895022910217
 20
55.34529790331812
 10
169.3895022910217
 20
46.34529790331813
 97
        0
 75
     0
 76
     1
 98
        0
  0
LINE
  5
107
330
E3
100
AcDbEntity
  8
0
  6
Continuous
100
AcDbLine
 10
187.3895013693313
 20
46.34529965557851
 30
0.0
 11
187.3895013693313
 21
55.34529915424341
 31
0.0
  0
LINE
  5
108
330
E3
100
AcDbEntity
  8
0
  6
Continuous
100
AcDbLine
 10
187.3895013693313
 20
55.34529915424341
 30
0.0
 11
169.3895023720015
 21
55.34529915424341
 31
0.0
  0
LINE
  5
109
330
E3
100
AcDbEntity
  8
0
  6
Continuous
100
AcDbLine
 10
169.3895023720015
 20
55.34529915424341
 30
0.0
 11
169.3895023720015
 21
46.34529965557851
 31
0.0
  0
LINE
  5
10A
330
E3
100
AcDbEntity
  8
0
  6
Continuous
100
AcDbLine
 10
169.3895023720015
 20
46.34529965557851
 30
0.0
 11
187.3895013693313
 21
46.34529965557851
 31
0.0
  0
LINE
  5
10B
330
E3
100
AcDbEntity
  8
0
  6
Continuous
100
AcDbLine
 10
187.3895013693313
 20
194.8452967979795
 30
0.0
 11
181.7924893237719
 21
197.6438028207592
 31
0.0
  0
LINE
  5
10C
330
E3
100
AcDbEntity
  8
0
  6
Continuous
100
AcDbLine
 10
174.9865144175609
 20
197.6438028207592
 30
0.0
 11
169.3895023720015
 21
194.8452967979795
 31
0.0
  0
LINE
  5
10D
330
E3
100
AcDbEntity
  8
0
  6
Continuous
100
AcDbLine
 10
169.3895023720015
 20
46.34529965557851
 30
0.0
 11
187.3895013693313
 21
55.34529915424341
 31
0.0
  0
HATCH
  5
10E
330
E3
100
AcDbEntity
  8
0
  6
Continuous
 62
   255
370
     0
100
AcDbHatch
 10
0.0
 20
0.0
 30
0.0
210
0.0
220
0.0
230
1.0
  2
SOLID
 70
     1
 71
     0
 91
        1
 92
        3
 72
     0
 73
     1
 93
        4
 10
169.3895022910217
 20
111.6122907542079
 10
169.3895022910217
 20
113.4122907542079
 10
131.7111730868406
 20
113.4122907542079
 10
131.7111730868406
 20
111.6122907542079
 97
        0
 75
     0
 76
     1
 98
        0
  0
HATCH
  5
10F
330
E3
100
AcDbEntity
  8
0
  6
Continuous
100
AcDbHatch
 10
0.0
 20
0.0
 30
0.0
210
0.0
220
0.0
230
1.0
  2
Wood_0002
 70
     0
 71
     0
 91
        1
 92
        3
 72
     0
 73
     1
 93
        4
 10
169.3895022910217
 20
111.6122907542079
 10
169.3895022910217
 20
113.4122907542079
 10
131.7111730868406
 20
113.4122907542079
 10
131.7111730868406
 20
111.6122907542079
 97
        0
 75
     0
 76
     2
 52
0.0
 41
1.0
 77
     0
 78
     1
 53
9.999999999999996
 43
26.12171212374109
 44
79.28749807145608
 45
-0.1562833557601421
 46
0.8863269542313407
 79
     0
 98
        0
  0
LINE
  5
110
330
E3
100
AcDbEntity
  8
0
  6
Continuous
100
AcDbLine
 10
169.3895023720015
 20
113.4122912757081
 30
0.0
 11
169.3895023720015
 21
111.6122892102031
 31
0.0
  0
LINE
  5
111
330
E3
100
AcDbEntity
  8
0
  6
Continuous
100
AcDbLine
 10
131.7111717785401
 20
113.4122912757081
 30
0.0
 11
169.3895023720015
 21
113.4122912757081
 31
0.0
  0
LINE
  5
112
330
E3
100
AcDbEntity
  8
0
  6
Continuous
100
AcDbLine
 10
131.7111717785401
 20
111.6122892102031
 30
0.0
 11
131.7111717785401
 21
113.4122912757081
 31
0.0
  0
LINE
  5
113
330
E3
100
AcDbEntity
  8
0
  6
Continuous
100
AcDbLine
 10
169.3895023720015
 20
111.6122892102031
 30
0.0
 11
131.7111717785401
 21
111.6122892102031
 31
0.0
  0
HATCH
  5
114
330
E3
100
AcDbEntity
  8
0
  6
Continuous
 62
   255
370
     0
100
AcDbHatch
 10
0.0
 20
0.0
 30
0.0
210
0.0
220
0.0
230
1.0
  2
SOLID
 70
     1
 71
     0
 91
        1
 92
        3
 72
     0
 73
     1
 93
        4
 10
169.3895022910217
 20
111.6122907542078
 10
160.3895022910217
 20
111.6122907542078
 10
160.3895022910217
 20
83.61229075420785
 10
169.3895022910217
 20
83.61229075420785
 97
        0
 75
     0
 76
     1
 98
        0
  0
LINE
  5
115
330
E3
100
AcDbEntity
  8
0
  6
Continuous
100
AcDbLine
 10
160.3895028733366
 20
111.6122892102031
 30
0.0
 11
169.3895023720015
 21
83.6122923741879
 31
0.0
  0
LINE
  5
116
330
E3
100
AcDbEntity
  8
0
  6
Continuous
100
AcDbLine
 10
169.3895023720015
 20
111.6122892102031
 30
0.0
 11
160.3895028733366
 21
83.6122923741879
 31
0.0
  0
LINE
  5
117
330
E3
100
AcDbEntity
  8
0
  6
Continuous
100
AcDbLine
 10
169.3895023720015
 20
111.6122892102031
 30
0.0
 11
160.3895028733366
 21
111.6122892102031
 31
0.0
  0
LINE
  5
118
330
E3
100
AcDbEntity
  8
0
  6
Continuous
100
AcDbLine
 10
160.3895028733366
 20
111.6122892102031
 30
0.0
 11
160.3895028733366
 21
83.6122923741879
 31
0.0
  0
LINE
  5
119
330
E3
100
AcDbEntity
  8
0
  6
Continuous
100
AcDbLine
 10
160.3895028733366
 20
83.6122923741879
 30
0.0
 11
169.3895023720015
 21
83.6122923741879
 31
0.0
  0
LINE
  5
11A
330
E3
100
AcDbEntity
  8
0
  6
Continuous
100
AcDbLine
 10
169.3895023720015
 20
83.6122923741879
 30
0.0
 11
169.3895023720015
 21
111.6122892102031
 31
0.0
  0
HATCH
  5
11B
330
E3
100
AcDbEntity
  8
0
  6
Continuous
 62
   255
370
     0
100
AcDbHatch
 10
0.0
 20
0.0
 30
0.0
210
0.0
220
0.0
230
1.0
  2
SOLID
 70
     1
 71
     0
 91
        1
 92
        3
 72
     0
 73
     1
 93
        4
 10
158.507865638313
 20
197.6438028207592
 10
158.507865638313
 20
137.85463565404
 10
160.307864094198
 20
137.85463565404
 10
160.307864094198
 20
197.6438028207592
 97
        0
 75
     0
 76
     1
 98
        0
  0
HATCH
  5
11C
330
E3
100
AcDbEntity
  8
0
  6
Continuous
100
AcDbHatch
 10
0.0
 20
0.0
 30
0.0
210
0.0
220
0.0
230
1.0
  2
Plaster_0002
 70
     0
 71
     0
 91
        1
 92
        3
 72
     0
 73
     1
 93
        4
 10
158.507865638313
 20
197.6438028207592
 10
158.507865638313
 20
137.85463565404
 10
160.307864094198
 20
137.85463565404
 10
160.307864094198
 20
197.6438028207592
 97
        0
 75
     0
 76
     2
 52
0.0
 41
1.0
 77
     0
 78
     2
 53
0.0
 43
26.12171212374109
 44
79.28749807145608
 45
0.0
 46
1.732050807568877
 79
     2
 49
0.0
 49
-1.0
 53
0.0
 43
26.62171212374109
 44
80.1535234596969
 45
0.0
 46
1.732050807568877
 79
     2
 49
0.0
 49
-1.0
 98
        0
  0
LINE
  5
11D
330
E3
100
AcDbEntity
  8
0
  6
Continuous
100
AcDbLine
 10
158.507865638313
 20
197.6438028207592
 30
0.0
 11
158.507865638313
 21
137.85463565404
 31
0.0
  0
LINE
  5
11E
330
E3
100
AcDbEntity
  8
0
  6
Continuous
100
AcDbLine
 10
158.507865638313
 20
137.85463565404
 30
0.0
 11
160.307864094198
 21
137.85463565404
 31
0.0
  0
LINE
  5
11F
330
E3
100
AcDbEntity
  8
0
  6
Continuous
100
AcDbLine
 10
160.307864094198
 20
137.85463565404
 30
0.0
 11
160.307864094198
 21
197.6438028207592
 31
0.0
  0
HATCH
  5
120
330
E3
100
AcDbEntity
  8
0
  6
Continuous
 62
   255
370
     0
100
AcDbHatch
 10
0.0
 20
0.0
 30
0.0
210
0.0
220
0.0
230
1.0
  2
SOLID
 70
     1
 71
     0
 91
        1
 92
        3
 72
     0
 73
     1
 93
        4
 10
178.3895022910217
 20
152.0546356246901
 10
169.3895022910217
 20
152.0546356246901
 10
169.3895022910217
 20
134.0546356246902
 10
178.3895022910217
 20
134.0546356246902
 97
        0
 75
     0
 76
     1
 98
        0
  0
LINE
  5
121
330
E3
100
AcDbEntity
  8
0
  6
Continuous
100
AcDbLine
 10
178.3895018706664
 20
152.0546359058238
 30
0.0
 11
169.3895023720015
 21
134.054636908494
 31
0.0
  0
LINE
  5
122
330
E3
100
AcDbEntity
  8
0
  6
Continuous
100
AcDbLine
 10
178.3895018706664
 20
152.0546359058238
 30
0.0
 11
169.3895023720015
 21
152.0546359058238
 31
0.0
  0
LINE
  5
123
330
E3
100
AcDbEntity
  8
0
  6
Continuous
100
AcDbLine
 10
169.3895023720015
 20
152.0546359058238
 30
0.0
 11
169.3895023720015
 21
134.054636908494
 31
0.0
  0
LINE
  5
124
330
E3
100
AcDbEntity
  8
0
  6
Continuous
100
AcDbLine
 10
169.3895023720015
 20
134.054636908494
 30
0.0
 11
178.3895018706664
 21
134.054636908494
 31
0.0
  0
LINE
  5
125
330
E3
100
AcDbEntity
  8
0
  6
Continuous
100
AcDbLine
 10
178.3895018706664
 20
134.054636908494
 30
0.0
 11
178.3895018706664
 21
152.0546359058238
 31
0.0
  0
HATCH
  5
126
330
E3
100
AcDbEntity
  8
0
  6
Continuous
 62
   255
370
     0
100
AcDbHatch
 10
0.0
 20
0.0
 30
0.0
210
0.0
220
0.0
230
1.0
  2
SOLID
 70
     1
 71
     0
 91
        1
 92
        3
 72
     0
 73
     1
 93
        8
 10
150.7258414836445
 20
63.66405625107252
 10
150.7258414836445
 20
26.01930573920253
 10
198.563414757173
 20
26.01930573920253
 10
198.563414757173
 20
72.09911191202694
 10
176.6142461304842
 20
68.22888179562564
 10
175.3011698999604
 20
73.99735322291279
 10
173.9880936694366
 20
61.76582226876609
 10
172.6750174389128
 20
67.53429369605324
 97
        0
 75
     0
 76
     1
 98
        0
  0
LINE
  5
127
330
E3
100
AcDbEntity
  8
0
  6
Continuous
100
AcDbLine
 10
150.7258422218372
 20
63.66405864989888
 30
0.0
 11
172.6750147370287
 21
67.53428977488076
 31
0.0
  0
LINE
  5
128
330
E3
100
AcDbEntity
  8
0
  6
Continuous
100
AcDbLine
 10
176.6142437513521
 20
68.22888176285876
 30
0.0
 11
198.5634162665436
 21
72.09911288784068
 31
0.0
  0
LINE
  5
129
330
E3
100
AcDbEntity
  8
0
  6
Continuous
100
AcDbLine
 10
176.6142437513521
 20
68.22888176285876
 30
0.0
 11
175.301168616451
 21
73.99735076597602
 31
0.0
  0
LINE
  5
12A
330
E3
100
AcDbEntity
  8
0
  6
Continuous
100
AcDbLine
 10
175.301168616451
 20
73.99735076597602
 30
0.0
 11
173.9880898719298
 21
61.76582077176352
 31
0.0
  0
LINE
  5
12B
330
E3
100
AcDbEntity
  8
0
  6
Continuous
100
AcDbLine
 10
173.9880898719298
 20
61.76582077176352
 30
0.0
 11
172.6750147370287
 21
67.53428977488076
 31
0.0
  0
HATCH
  5
12C
330
E3
100
AcDbEntity
  8
0
  6
Continuous
 62
   255
370
     0
100
AcDbHatch
 10
0.0
 20
0.0
 30
0.0
210
0.0
220
0.0
230
1.0
  2
SOLID
 70
     1
 71
     0
 91
        1
 92
        3
 72
     0
 73
     1
 93
        4
 10
178.3895022910217
 20
131.4122907542078
 10
169.3895022910217
 20
131.4122907542078
 10
169.3895022910217
 20
113.4122907542079
 10
178.3895022910217
 20
113.4122907542079
 97
        0
 75
     0
 76
     1
 98
        0
  0
LINE
  5
12D
330
E3
100
AcDbEntity
  8
0
  6
Continuous
100
AcDbLine
 10
178.3895018706664
 20
131.4122902730379
 30
0.0
 11
169.3895023720015
 21
113.4122912757081
 31
0.0
  0
LINE
  5
12E
330
E3
100
AcDbEntity
  8
0
  6
Continuous
100
AcDbLine
 10
178.3895018706664
 20
131.4122902730379
 30
0.0
 11
169.3895023720015
 21
131.4122902730379
 31
0.0
  0
LINE
  5
12F
330
E3
100
AcDbEntity
  8
0
  6
Continuous
100
AcDbLine
 10
169.3895023720015
 20
131.4122902730379
 30
0.0
 11
169.3895023720015
 21
113.4122912757081
 31
0.0
  0
LINE
  5
130
330
E3
100
AcDbEntity
  8
0
  6
Continuous
100
AcDbLine
 10
169.3895023720015
 20
113.4122912757081
 30
0.0
 11
178.3895018706664
 21
113.4122912757081
 31
0.0
  0
LINE
  5
131
330
E3
100
AcDbEntity
  8
0
  6
Continuous
100
AcDbLine
 10
178.3895018706664
 20
113.4122912757081
 30
0.0
 11
178.3895018706664
 21
131.4122902730379
 31
0.0
  0
LINE
  5
133
330
E3
100
AcDbEntity
  8
0
  6
Dashed
100
AcDbLine
 10
110.4499387213734
 20
132.8164072475922
 30
0.0
 11
113.1577494280351
 21
132.8164072475922
 31
0.0
  0
LINE
  5
134
330
E3
100
AcDbEntity
  8
0
  6
Dashed
100
AcDbLine
 10
166.5097690667813
 20
154.4696378347984
 30
0.0
 11
166.5097690667813
 21
140.8004213985519
 31
0.0
  0
LINE
  5
135
330
E3
100
AcDbEntity
  8
0
  6
Dashed
100
AcDbLine
 10
83.07504868527326
 20
126.4945582067416
 30
0.0
 11
132.2364653618154
 21
126.4945582067416
 31
0.0
  0
LINE
  5
136
330
E3
100
AcDbEntity
  8
0
  6
Dashed
100
AcDbLine
 10
132.2364653618154
 20
126.4945582067416
 30
0.0
 11
141.5974052186707
 21
124.0054940913423
 31
0.0
  0
LINE
  5
137
330
E3
100
AcDbEntity
  8
0
  6
Dashed
100
AcDbLine
 10
131.8526183540952
 20
124.1802177551442
 30
0.0
 11
131.8526183540952
 21
114.1634568404399
 31
0.0
  0
LINE
  5
138
330
E3
100
AcDbEntity
  8
0
  6
Dashed
100
AcDbLine
 10
131.8526183540952
 20
114.1634568404399
 30
0.0
 11
168.5680719412524
 21
114.1634568404399
 31
0.0
  0
LINE
  5
139
330
E3
100
AcDbEntity
  8
0
  6
Dashed
100
AcDbLine
 10
168.5680719412524
 20
114.1634568404399
 30
0.0
 11
168.5680719412524
 21
156.7685579890761
 31
0.0
  0
LINE
  5
13A
330
E3
100
AcDbEntity
  8
0
  6
Dashed
100
AcDbLine
 10
166.5097690667813
 20
154.4696378347984
 30
0.0
 11
167.2548054964829
 21
155.1122549021053
 31
0.0
  0
LINE
  5
13B
330
E3
100
AcDbEntity
  8
0
  6
Dashed
100
AcDbLine
 10
167.2548054964829
 20
155.1122549021053
 30
0.0
 11
167.2548054964829
 21
197.6438028207592
 31
0.0
  0
LINE
  5
13C
330
E3
100
AcDbEntity
  8
0
  6
Continuous
100
AcDbLine
 10
38.52770116952185
 20
56.90658260014564
 30
0.0
 11
138.9207852398038
 21
56.90658260014564
 31
0.0
  0
LINE
  5
13D
330
E3
100
AcDbEntity
  8
0
  6
Continuous
100
AcDbLine
 10
138.9207852398038
 20
64.99294753071702
 30
0.0
 11
138.9207852398038
 21
35.38539552797995
 31
0.0
  0
LINE
  5
13E
330
E3
100
AcDbEntity
  8
0
  6
Continuous
100
AcDbLine
 10
38.52770116952185
 20
35.38539552797995
 30
0.0
 11
38.52770116952185
 21
56.90658260014564
 31
0.0
  0
LINE
  5
13F
330
E3
100
AcDbEntity
  8
0
  6
Continuous
100
AcDbLine
 10
114.9507704881525
 20
64.99294753071702
 30
0.0
 11
114.9507704881525
 21
35.38539552797995
 31
0.0
  0
LINE
  5
140
330
E3
100
AcDbEntity
  8
0
  6
Continuous
100
AcDbLine
 10
38.52770116952185
 20
46.14598725925271
 30
0.0
 11
138.9207852398038
 21
46.14598725925271
 31
0.0
  0
LINE
  5
141
330
E3
100
AcDbEntity
  8
0
  6
Continuous
100
AcDbLine
 10
38.52770116952185
 20
35.38539552797995
 30
0.0
 11
138.9207852398038
 21
35.38539552797995
 31
0.0
  0
LINE
  5
142
330
E3
100
AcDbEntity
  8
0
  6
Continuous
100
AcDbLine
 10
114.9507704881525
 20
64.99294753071702
 30
0.0
 11
138.9207852398038
 21
64.99294753071702
 31
0.0
  0
LINE
  5
143
330
E3
100
AcDbEntity
  8
0
  6
Continuous
100
AcDbLine
 10
157.3008591917875
 20
51.55812538912271
 30
0.0
 11
229.6939464260544
 21
51.55812538912271
 31
0.0
  0
LINE
  5
144
330
E3
100
AcDbEntity
  8
0
  6
Continuous
100
AcDbLine
 10
229.6939464260544
 20
59.64449031969411
 30
0.0
 11
229.6939464260544
 21
35.38539552797995
 31
0.0
  0
LINE
  5
145
330
E3
100
AcDbEntity
  8
0
  6
Continuous
100
AcDbLine
 10
157.3008591917875
 20
35.38539552797995
 30
0.0
 11
157.3008591917875
 21
51.55812538912271
 31
0.0
  0
LINE
  5
146
330
E3
100
AcDbEntity
  8
0
  6
Continuous
100
AcDbLine
 10
205.7239280647829
 20
59.64449031969411
 30
0.0
 11
205.7239280647829
 21
35.38539552797995
 31
0.0
  0
LINE
  5
147
330
E3
100
AcDbEntity
  8
0
  6
Continuous
100
AcDbLine
 10
205.7239280647829
 20
59.64449031969411
 30
0.0
 11
229.6939464260544
 21
59.64449031969411
 31
0.0
  0
LINE
  5
148
330
E3
100
AcDbEntity
  8
0
  6
Continuous
100
AcDbLine
 10
157.3008591917875
 20
43.47176045855134
 30
0.0
 11
229.6939464260544
 21
43.47176045855134
 31
0.0
  0
LINE
  5
149
330
E3
100
AcDbEntity
  8
0
  6
Continuous
100
AcDbLine
 10
157.3008591917875
 20
35.38539552797995
 30
0.0
 11
229.6939464260544
 21
35.38539552797995
 31
0.0
  0
LWPOLYLINE
  5
14A
330
E3
100
AcDbEntity
  8
0
  6
Continuous
100
AcDbPolyline
 90
        8
 70
   128
 43
0.0
 10
135.8820605215612
 20
123.2471986718545
 10
132.6309671586692
 20
123.9903057262298
 10
132.6309671586692
 20
114.9903057262298
 10
167.6309671586692
 20
114.9903057262298
 10
167.6309671586692
 20
151.9903057262298
 10
167.370695210085
 20
152.2309721332364
 10
167.0855373414768
 20
151.9198908220274
 10
167.0855373414768
 20
149.7941685287658
  0
LWPOLYLINE
  5
14B
330
E3
100
AcDbEntity
  8
0
  6
Continuous
100
AcDbPolyline
 90
        4
 70
   128
 43
0.0
 10
160.8281163850782
 20
138.4480767970899
 10
160.8281163850782
 20
136.4984625188516
 10
165.9020729582614
 20
136.4984625188516
 10
165.9020729582614
 20
148.4211036819244
  0
LWPOLYLINE
  5
14C
330
E3
100
AcDbEntity
  8
0
  6
Continuous
100
AcDbPolyline
 90
       36
 70
   128
 43
0.0
 10
150.649437717455
 20
127.162642210702
 10
149.6494377174551
 20
127.162642210702
 10
144.949437717455
 20
132.362642210702
 10
140.3494377174551
 20
132.362642210702
 10
135.649437717455
 20
127.162642210702
 10
129.249437717455
 20
127.162642210702
 10
128.6156386969819
 20
127.8638666588849
 10
125.8832367379282
 20
127.8638666588849
 10
125.2494377174551
 20
127.162642210702
 10
118.8494377174551
 20
127.162642210702
 10
114.149437717455
 20
132.362642210702
 10
109.5494377174551
 20
132.362642210702
 10
104.849437717455
 20
127.162642210702
 10
98.44943771745501
 20
127.162642210702
 10
97.81563869698192
 20
127.8638666588849
 10
95.08323673792819
 20
127.8638666588849
 10
94.44943771745511
 20
127.162642210702
 10
88.0494377174551
 20
127.162642210702
 10
83.34943771745503
 20
132.362642210702
 10
78.7494377174551
 20
132.362642210702
 10
74.04943771745504
 20
127.162642210702
 10
67.64943771745503
 20
127.162642210702
 10
67.01563869698194
 20
127.8638666588849
 10
64.2832367379282
 20
127.8638666588849
 10
63.64943771745513
 20
127.162642210702
 10
57.24943771745511
 20
127.162642210702
 10
52.54943771745505
 20
132.362642210702
 10
47.94943771745511
 20
132.362642210702
 10
43.24943771745505
 20
127.162642210702
 10
36.84943771745505
 20
127.162642210702
 10
36.21563869698196
 20
127.8638666588849
 10
33.48323673792822
 20
127.8638666588849
 10
32.84943771745513
 20
127.162642210702
 10
26.44943771745513
 20
127.162642210702
 10
21.74943771745507
 20
132.362642210702
 10
20.48385250649913
 20
132.362642210702
  0
HATCH
  5
14D
330
E3
100
AcDbEntity
  8
0
  6
Continuous
 62
   255
370
     0
100
AcDbHatch
 10
0.0
 20
0.0
 30
0.0
210
0.0
220
0.0
230
1.0
  2
SOLID
 70
     1
 71
     0
 91
        1
 92
        3
 72
     0
 73
     1
 93
        8
 10
149.8140175101609
 20
169.2206376051742
 10
171.962361027335
 20
173.1259906879008
 10
173.2754419827045
 20
167.3575200459895
 10
174.5885178730936
 20
179.589052472219
 10
175.9015937634827
 20
173.8205818303076
 10
198.0499372806568
 20
177.7259298480539
 10
198.0499372806568
 20
197.6438029127367
 10
149.8140175101609
 20
197.6438029127367
 97
        0
 75
     0
 76
     1
 98
        0
  0
LINE
  5
14E
330
E3
100
AcDbEntity
  8
0
  6
Continuous
100
AcDbLine
 10
149.8140160734434
 20
169.2206357750105
 30
0.0
 11
171.9623638193947
 21
173.1259885041405
 31
0.0
  0
LINE
  5
14F
330
E3
100
AcDbEntity
  8
0
  6
Continuous
100
AcDbLine
 10
175.901592833718
 20
173.8205804921185
 30
0.0
 11
198.0499405796693
 21
177.7259332212486
 31
0.0
  0
LINE
  5
150
330
E3
100
AcDbEntity
  8
0
  6
Continuous
100
AcDbLine
 10
175.901592833718
 20
173.8205804921185
 30
0.0
 11
174.588517698817
 21
179.5890494952358
 31
0.0
  0
LINE
  5
151
330
E3
100
AcDbEntity
  8
0
  6
Continuous
100
AcDbLine
 10
174.588517698817
 20
179.5890494952358
 30
0.0
 11
173.2754389542957
 21
167.3575195010233
 31
0.0
  0
LINE
  5
152
330
E3
100
AcDbEntity
  8
0
  6
Continuous
100
AcDbLine
 10
173.2754389542957
 20
167.3575195010233
 30
0.0
 11
171.9623638193947
 21
173.1259885041405
 31
0.0
  0
HATCH
  5
153
330
E3
100
AcDbEntity
  8
0
  6
Continuous
 62
   255
370
     0
100
AcDbHatch
 10
0.0
 20
0.0
 30
0.0
210
0.0
220
0.0
230
1.0
  2
SOLID
 70
     1
 71
     0
 91
        1
 92
        3
 72
     0
 73
     1
 93
        8
 10
20.48385378188895
 20
136.9796744490597
 10
20.48385378188895
 20
78.6569834176662
 10
94.76321740422547
 20
78.6569834176662
 10
89.96858547774126
 20
105.8487161995042
 10
83.73705432229553
 20
107.1617927579594
 10
95.50552228003679
 20
108.4748693164147
 10
89.27399112459103
 20
109.7879458748699
 10
84.47935499045866
 20
136.9796744490597
 97
        0
 75
     0
 76
     1
 98
        0
  0
LINE
  5
154
330
E3
100
AcDbEntity
  8
0
  6
Continuous
100
AcDbLine
 10
84.47935696969594
 20
136.9796745563312
 30
0.0
 11
89.273990159706
 21
109.7879438663449
 31
0.0
  0
LINE
  5
155
330
E3
100
AcDbEntity
  8
0
  6
Continuous
100
AcDbLine
 10
89.96858214768397
 20
105.8487148520216
 30
0.0
 11
94.7632189473142
 21
78.65698416203522
 31
0.0
  0
LINE
  5
156
330
E3
100
AcDbEntity
  8
0
  6
Continuous
100
AcDbLine
 10
89.96858214768397
 20
105.8487148520216
 30
0.0
 11
83.73705302245476
 21
107.1617899869226
 31
0.0
  0
LINE
  5
157
330
E3
100
AcDbEntity
  8
0
  6
Continuous
100
AcDbLine
 10
83.73705302245476
 20
107.1617899869226
 30
0.0
 11
95.50552289455536
 21
108.4748687314438
 31
0.0
  0
LINE
  5
158
330
E3
100
AcDbEntity
  8
0
  6
Continuous
100
AcDbLine
 10
95.50552289455536
 20
108.4748687314438
 30
0.0
 11
89.273990159706
 21
109.7879438663449
 31
0.0
  0
LINE
  5
159
330
E3
100
AcDbEntity
  8
Doc_ Floor
  6
Continuous
100
AcDbLine
 10
146.9109393546542
 20
114.012303996277
 30
0.0
 11
146.9109393546542
 21
114.9903053110479
 31
0.0
  0
LINE
  5
15A
330
E3
100
AcDbEntity
  8
Doc_ Floor
  6
Continuous
100
AcDbLine
 10
146.9109393546542
 20
114.9903053110479
 30
0.0
 11
146.9109393546542
 21
123.9903048097128
 31
0.0
  0
LINE
  5
15B
330
E3
100
AcDbEntity
  8
Doc_ Floor
  6
Continuous
100
AcDbLine
 10
145.9109374050136
 20
115.5676568362578
 30
0.0
 11
147.9109376946747
 21
114.4129573954581
 31
0.0
  0
LINE
  5
15C
330
E3
100
AcDbEntity
  8
Doc_ Floor
  6
Continuous
100
AcDbLine
 10
147.9109376946747
 20
123.4129568941229
 30
0.0
 11
145.9109374050136
 21
124.5676563349227
 31
0.0
  0
LINE
  5
15D
330
E3
100
AcDbEntity
  8
Doc_ Floor
  6
Continuous
100
AcDbLine
 10
146.9109393546542
 20
123.9903048097128
 30
0.0
 11
146.9109393546542
 21
124.9683061244836
 31
0.0
  0
LINE
  5
15E
330
E3
100
AcDbEntity
  8
Doc_ Floor
  6
Continuous
100
AcDbLine
 10
148.410938669495
 20
114.9903053110479
 30
0.0
 11
145.4109364301933
 21
114.9903053110479
 31
0.0
  0
LINE
  5
15F
330
E3
100
AcDbEntity
  8
Doc_ Floor
  6
Continuous
100
AcDbLine
 10
148.410938669495
 20
123.9903048097128
 30
0.0
 11
145.4109364301933
 21
123.9903048097128
 31
0.0
  0
MTEXT
  5
160
330
E3
100
AcDbEntity
  8
Doc_ Floor
  6
Continuous
100
AcDbMText
 10
146.4109380481292
 20
118.1608932286498
 30
0.0
 40
2.5
 41
0.0
 71
     7
 72
     1
  1
{A}
  7
GENERATED_STYLE_1
 11
6.123233995736766E-17
 21
1.0
 31
0.0
 73
     1
 44
1.0
  0
LINE
  5
161
330
E3
100
AcDbEntity
  8
Doc_ Floor
  6
Continuous
100
AcDbLine
 10
146.8508247405243
 20
131.9846424743275
 30
0.0
 11
146.8508247405243
 21
132.9626437890984
 31
0.0
  0
LINE
  5
162
330
E3
100
AcDbEntity
  8
Doc_ Floor
  6
Continuous
100
AcDbLine
 10
146.8508247405243
 20
132.9626437890984
 30
0.0
 11
146.8508247405243
 21
137.85463565404
 31
0.0
  0
LINE
  5
163
330
E3
100
AcDbEntity
  8
Doc_ Floor
  6
Continuous
100
AcDbLine
 10
145.8508264005038
 20
133.5399917046882
 30
0.0
 11
147.850826690165
 21
132.3852922638884
 31
0.0
  0
LINE
  5
164
330
E3
100
AcDbEntity
  8
Doc_ Floor
  6
Continuous
100
AcDbLine
 10
147.850826690165
 20
137.27728412883
 30
0.0
 11
145.8508264005038
 21
138.43198717925
 31
0.0
  0
LINE
  5
165
330
E3
100
AcDbEntity
  8
Doc_ Floor
  6
Continuous
100
AcDbLine
 10
146.8508247405243
 20
137.85463565404
 30
0.0
 11
146.8508247405243
 21
138.8326369688109
 31
0.0
  0
LINE
  5
166
330
E3
100
AcDbEntity
  8
Doc_ Floor
  6
Continuous
100
AcDbLine
 10
148.3508240553651
 20
132.9626437890984
 30
0.0
 11
145.3508254256835
 21
132.9626437890984
 31
0.0
  0
LINE
  5
167
330
E3
100
AcDbEntity
  8
Doc_ Floor
  6
Continuous
100
AcDbLine
 10
148.3508240553651
 20
137.85463565404
 30
0.0
 11
145.3508254256835
 21
137.85463565404
 31
0.0
  0
MTEXT
  5
169
330
E3
100
AcDbEntity
  8
Doc_ Floor
  6
Continuous
100
AcDbMText
 10
134.8508005802592
 20
134.3014960605532
 30
0.0
 40
2.5
 41
0.0
 71
     7
 72
     1
  1
{35 MIN.}
  7
GENERATED_STYLE_3
 73
     1
 44
1.0
  0
LINE
  5
16A
330
E3
100
AcDbEntity
  8
Doc_ Floor
  6
Continuous
100
AcDbLine
 10
146.8508247405243
 20
136.8766343392692
 30
0.0
 11
146.8508247405243
 21
137.85463565404
 31
0.0
  0
LINE
  5
16B
330
E3
100
AcDbEntity
  8
Doc_ Floor
  6
Continuous
100
AcDbLine
 10
146.8508247405243
 20
137.85463565404
 30
0.0
 11
146.8508247405243
 21
151.9903052553481
 31
0.0
  0
LINE
  5
16C
330
E3
100
AcDbEntity
  8
Doc_ Floor
  6
Continuous
100
AcDbLine
 10
145.8508264005038
 20
138.43198717925
 30
0.0
 11
147.850826690165
 21
137.27728412883
 31
0.0
  0
LINE
  5
16D
330
E3
100
AcDbEntity
  8
Doc_ Floor
  6
Continuous
100
AcDbLine
 10
147.850826690165
 20
151.4129573397583
 30
0.0
 11
145.8508264005038
 21
152.5676567805581
 31
0.0
  0
LINE
  5
16E
330
E3
100
AcDbEntity
  8
Doc_ Floor
  6
Continuous
100
AcDbLine
 10
146.8508247405243
 20
151.9903052553481
 30
0.0
 11
146.8508247405243
 21
152.9683065701189
 31
0.0
  0
LINE
  5
16F
330
E3
100
AcDbEntity
  8
Doc_ Floor
  6
Continuous
100
AcDbLine
 10
148.3508240553651
 20
137.85463565404
 30
0.0
 11
145.3508254256835
 21
137.85463565404
 31
0.0
  0
LINE
  5
170
330
E3
100
AcDbEntity
  8
Doc_ Floor
  6
Continuous
100
AcDbLine
 10
148.3508240553651
 20
151.9903052553481
 30
0.0
 11
145.3508254256835
 21
151.9903052553481
 31
0.0
  0
MTEXT
  5
171
330
E3
100
AcDbEntity
  8
Doc_ Floor
  6
Continuous
100
AcDbMText
 10
142.7641814663789
 20
143.5573874584481
 30
0.0
 40
2.5
 41
0.0
 71
     7
 72
     1
  1
{B}
  7
GENERATED_STYLE_1
 73
     1
 44
1.0
  0
LINE
  5
172
330
E3
100
AcDbEntity
  8
Doc_ Floor
  6
Continuous
100
AcDbLine
 10
131.6529666534744
 20
97.86747288934407
 30
0.0
 11
132.6309679682452
 21
97.86747288934407
 31
0.0
  0
LINE
  5
173
330
E3
100
AcDbEntity
  8
Doc_ Floor
  6
Continuous
100
AcDbLine
 10
132.6309679682452
 20
97.86747288934407
 30
0.0
 11
150.2103451476738
 21
97.86747288934407
 31
0.0
  0
LINE
  5
174
330
E3
100
AcDbEntity
  8
Doc_ Floor
  6
Continuous
100
AcDbLine
 10
133.2083158838351
 20
98.86747122936453
 30
0.0
 11
132.0536164430353
 21
96.86747093970342
 31
0.0
  0
LINE
  5
175
330
E3
100
AcDbEntity
  8
Doc_ Floor
  6
Continuous
100
AcDbLine
 10
132.6309679682452
 20
96.3674699648831
 30
0.0
 11
132.6309679682452
 21
99.36747220418485
 31
0.0
  0
LINE
  5
176
330
E3
100
AcDbEntity
  8
Doc_ Floor
  6
Continuous
100
AcDbLine
 10
150.2103451476738
 20
96.3674699648831
 30
0.0
 11
150.2103451476738
 21
99.36747220418485
 31
0.0
  0
LINE
  5
177
330
E3
100
AcDbEntity
  8
Doc_ Floor
  6
Continuous
100
AcDbLine
 10
150.2103451476738
 20
97.86747288934407
 30
0.0
 11
167.6309676228844
 21
97.86747288934407
 31
0.0
  0
LINE
  5
178
330
E3
100
AcDbEntity
  8
Doc_ Floor
  6
Continuous
100
AcDbLine
 10
150.7876966728838
 20
98.86747122936453
 30
0.0
 11
149.632997232084
 21
96.86747093970342
 31
0.0
  0
LINE
  5
179
330
E3
100
AcDbEntity
  8
Doc_ Floor
  6
Continuous
100
AcDbLine
 10
167.0536160976744
 20
96.86747093970342
 30
0.0
 11
168.2083155384742
 21
98.86747122936453
 31
0.0
  0
LINE
  5
17A
330
E3
100
AcDbEntity
  8
Doc_ Floor
  6
Continuous
100
AcDbLine
 10
167.6309676228844
 20
97.86747288934407
 30
0.0
 11
168.6089689376552
 21
97.86747288934407
 31
0.0
  0
LINE
  5
17B
330
E3
100
AcDbEntity
  8
Doc_ Floor
  6
Continuous
100
AcDbLine
 10
167.6309676228844
 20
96.3674699648831
 30
0.0
 11
167.6309676228844
 21
99.36747220418485
 31
0.0
  0
MTEXT
  5
17C
330
E3
100
AcDbEntity
  8
Doc_ Floor
  6
Continuous
100
AcDbMText
 10
135.1382939672175
 20
98.36747130082357
 30
0.0
 40
2.5
 41
0.0
 71
     7
 72
     1
  1
{80 MIN.}
  7
GENERATED_STYLE_1
 73
     1
 44
1.0
  0
MTEXT
  5
17D
330
E3
100
AcDbEntity
  8
Doc_ Floor
  6
Continuous
100
AcDbMText
 10
152.6382939672175
 20
98.36747130082357
 30
0.0
 40
2.5
 41
0.0
 71
     7
 72
     1
  1
{80 MIN.}
  7
GENERATED_STYLE_1
 73
     1
 44
1.0
  0
MTEXT
  5
17E
330
E3
100
AcDbEntity
  8
Doc_ Floor
  6
Continuous
100
AcDbMText
 10
73.20746058109886
 20
155.7198498865425
 30
0.0
 40
2.5
 41
56.68353220040039
 71
     6
 72
     1
  1
\A1;{\fCentury Gothic|b0|i0|c0|p34;TRS 6\PMIN. ROOF PITCH 4\fArial|b0|i0|c0|p34;\H1.029412x;\U+00B0}
  7
GENERATED_STYLE_1
 73
     1
 44
1.056356172275314
  0
LINE
  5
17F
330
E3
100
AcDbEntity
  8
Doc_ Floor
  6
Continuous
100
AcDbLine
 10
107.2629725963101
 20
129.832933458999
 30
0.0
 11
104.609508330764
 21
132.6413767660767
 31
0.0
  0
LINE
  5
180
330
E3
100
AcDbEntity
  8
Doc_ Floor
  6
Continuous
100
AcDbLine
 10
107.2629725963101
 20
129.832933458999
 30
0.0
 11
106.3692270352934
 21
133.591847507894
 31
0.0
  0
LINE
  5
181
330
E3
100
AcDbEntity
  8
Doc_ Floor
  6
Continuous
100
AcDbLine
 10
104.609508330764
 20
132.6413767660767
 30
0.0
 11
106.3692270352934
 21
133.591847507894
 31
0.0
  0
LWPOLYLINE
  5
182
330
E3
100
AcDbEntity
  8
Doc_ Floor
  6
Continuous
100
AcDbPolyline
 90
       17
 70
   128
 43
0.0
 10
105.4893678341476
 20
133.1166108875874
 10
103.7385735192802
 20
136.1528098010107
 10
102.0076662646051
 20
138.9357630702034
 10
100.2865467032684
 20
141.4733856082708
 10
98.56511546841594
 20
143.7735923283179
 10
96.83327319319383
 20
145.84429814345
 10
95.080920510748
 20
147.6934179667724
 10
93.29795805422442
 20
149.3288667113901
 10
91.47428645676904
 20
150.7585592904085
 10
89.59980635152786
 20
151.9904106169326
 10
87.66441837164686
 20
153.0323356040678
 10
85.65802315027199
 20
153.8922491649191
 10
83.57052132054923
 20
154.5780662125919
 10
81.39181351562458
 20
155.0977016601914
 10
79.11180036864397
 20
155.4590704208226
 10
76.72038251275342
 20
155.6700874075909
 10
74.20746058109886
 20
155.7386675336014
  0
MTEXT
  5
183
330
E3
100
AcDbEntity
  8
Doc_ Floor
  6
Continuous
100
AcDbMText
 10
84.61063592105417
 20
143.3735547292774
 30
0.0
 40
2.5
 41
0.0
 71
     6
 72
     1
  1
{UNDERLAY}
  7
GENERATED_STYLE_1
 73
     1
 44
1.0
  0
LINE
  5
184
330
E3
100
AcDbEntity
  8
Doc_ Floor
  6
Continuous
100
AcDbLine
 10
96.1912640939032
 20
126.4945582067416
 30
0.0
 11
94.50066600580072
 21
129.9687562463462
 31
0.0
  0
LINE
  5
185
330
E3
100
AcDbEntity
  8
Doc_ Floor
  6
Continuous
100
AcDbLine
 10
96.1912640939032
 20
126.4945582067416
 30
0.0
 11
96.46426327615715
 21
130.3486037949301
 31
0.0
  0
LINE
  5
186
330
E3
100
AcDbEntity
  8
Doc_ Floor
  6
Continuous
100
AcDbLine
 10
94.50066600580072
 20
129.9687562463462
 30
0.0
 11
96.46426327615715
 21
130.3486037949301
 31
0.0
  0
LWPOLYLINE
  5
187
330
E3
100
AcDbEntity
  8
Doc_ Floor
  6
Continuous
100
AcDbPolyline
 90
       12
 70
   128
 43
0.0
 10
95.48246556427382
 20
130.158680376093
 10
94.6625153387116
 20
133.5599382968309
 10
93.76899092298441
 20
136.3916191885203
 10
92.77953248648325
 20
138.6894998921392
 10
91.67178019859918
 20
140.4893572486652
 10
91.06655641332323
 20
141.213707434574
 10
90.42337422872319
 20
141.8269680990761
 10
89.73943866597294
 20
142.3336113472939
 10
89.01195474624635
 20
142.7381092843495
 10
88.23812749071729
 20
143.0449340153652
 10
87.41516192055965
 20
143.2585576454633
 10
85.61063592105417
 20
143.424090023395
  0
MTEXT
  5
188
330
E3
100
AcDbEntity
  8
Doc_ Floor
  6
Continuous
100
AcDbMText
 10
78.03072071894049
 20
166.7695038187583
 30
0.0
 40
2.5
 41
0.0
 71
     6
 72
     1
  1
{ROOF FIXING}
  7
GENERATED_STYLE_1
 73
     1
 44
1.0
  0
LINE
  5
189
330
E3
100
AcDbEntity
  8
Doc_ Floor
  6
Continuous
100
AcDbLine
 10
111.6115469751577
 20
133.4594358115972
 30
0.0
 11
109.2884568042946
 21
136.5467403240673
 31
0.0
  0
LINE
  5
18A
330
E3
100
AcDbEntity
  8
Doc_ Floor
  6
Continuous
100
AcDbLine
 10
111.6115469751577
 20
133.4594358115972
 30
0.0
 11
111.143343144319
 21
137.2946680595163
 31
0.0
  0
LINE
  5
18B
330
E3
100
AcDbEntity
  8
Doc_ Floor
  6
Continuous
100
AcDbLine
 10
109.2884568042946
 20
136.5467403240673
 30
0.0
 11
111.143343144319
 21
137.2946680595163
 31
0.0
  0
LWPOLYLINE
  5
18C
330
E3
100
AcDbEntity
  8
Doc_ Floor
  6
Continuous
100
AcDbPolyline
 90
       17
 70
   128
 43
0.0
 10
110.2159004490199
 20
136.9207036422628
 10
108.4971734989026
 20
140.932810603734
 10
106.7958262292357
 20
144.6096696698393
 10
105.1015530861223
 20
147.9618229956238
 10
103.4040485156654
 20
150.9998127361321
 10
101.6930069639682
 20
153.734181046409
 10
99.95812287713392
 20
156.1754700814994
 10
98.18909070126566
 20
158.3342219964479
 10
96.37560488246653
 20
160.2209789462994
 10
94.50735986683972
 20
161.8462830860987
 10
92.57405010048836
 20
163.2206765708905
 10
90.56537002951559
 20
164.3547015557197
 10
88.47101410002453
 20
165.2589001956311
 10
86.28067675811836
 20
165.9438146456694
 10
83.9840524499002
 20
166.4199870608794
 10
81.5708356214732
 20
166.6979595963059
 10
79.03072071894049
 20
166.7882744069936
  0
MTEXT
  5
18D
330
E3
100
AcDbEntity
  8
Doc_ Floor
  6
Continuous
100
AcDbMText
 10
199.5846598040943
 20
143.502746323124
 30
0.0
 40
2.5
 41
0.0
 71
     4
 72
     1
  1
{METAL HIDDEN GUTTER}
  7
GENERATED_STYLE_1
 73
     1
 44
1.0
  0
LINE
  5
18E
330
E3
100
AcDbEntity
  8
Doc_ Floor
  6
Continuous
100
AcDbLine
 10
158.6006906303248
 20
114.9903053110479
 30
0.0
 11
160.8681709930166
 21
118.1186800816883
 31
0.0
  0
LINE
  5
18F
330
E3
100
AcDbEntity
  8
Doc_ Floor
  6
Continuous
100
AcDbLine
 10
158.6006906303248
 20
114.9903053110479
 30
0.0
 11
162.1285745505558
 21
116.5658178796173
 31
0.0
  0
LINE
  5
190
330
E3
100
AcDbEntity
  8
Doc_ Floor
  6
Continuous
100
AcDbLine
 10
160.8681709930166
 20
118.1186800816883
 30
0.0
 11
162.1285745505558
 21
116.5658178796173
 31
0.0
  0
LWPOLYLINE
  5
191
330
E3
100
AcDbEntity
  8
Doc_ Floor
  6
Continuous
100
AcDbPolyline
 90
        9
 70
   128
 43
0.0
 10
161.4983716995332
 20
117.342249241487
 10
176.9887945973551
 20
129.6898624257524
 10
182.9182268235236
 20
134.226681705624
 10
187.7763750371021
 20
137.7715298416212
 10
191.6676658400196
 20
140.3989221319687
 10
194.6965258342049
 20
142.1833738748911
 10
196.9673816215868
 20
143.1994003686131
 10
197.8511912508293
 20
143.4425401777191
 10
198.5846598040943
 20
143.5215169113593
  0
MTEXT
  5
192
330
E3
100
AcDbEntity
  8
Doc_ Floor
  6
Continuous
100
AcDbMText
 10
220.8087086944494
 20
104.3041952799212
 30
0.0
 40
2.5
 41
0.0
 71
     6
 72
     1
  1
{UNDERLAY}
  7
GENERATED_STYLE_1
 73
     1
 44
1.0
  0
LINE
  5
193
330
E3
100
AcDbEntity
  8
Doc_ Floor
  6
Continuous
100
AcDbLine
 10
168.5680719412524
 20
114.1634568404399
 30
0.0
 11
172.4115088557932
 21
113.768250358079
 31
0.0
  0
LINE
  5
194
330
E3
100
AcDbEntity
  8
Doc_ Floor
  6
Continuous
100
AcDbLine
 10
168.5680719412524
 20
114.1634568404399
 30
0.0
 11
171.6989806652446
 21
111.8994778093025
 31
0.0
  0
LINE
  5
195
330
E3
100
AcDbEntity
  8
Doc_ Floor
  6
Continuous
100
AcDbLine
 10
172.4115088557932
 20
113.768250358079
 30
0.0
 11
171.6989806652446
 21
111.8994778093025
 31
0.0
  0
LWPOLYLINE
  5
196
330
E3
100
AcDbEntity
  8
Doc_ Floor
  6
Continuous
100
AcDbPolyline
 90
        6
 70
   128
 43
0.0
 10
172.0552446806111
 20
112.8338638930918
 10
182.7261589098906
 20
108.8404245833714
 10
190.1474602588489
 20
106.2222308081268
 10
194.8767003305841
 20
104.7900702456014
 10
196.4060322634612
 20
104.4596235685596
 10
197.4714307281941
 20
104.3547305740389
  0
MTEXT
  5
197
330
E3
100
AcDbEntity
  8
Doc_ Floor
  6
Continuous
100
AcDbMText
 10
198.8634527114357
 20
85.60938523449802
 30
0.0
 40
2.499999999999999
 41
0.0
 71
     4
 72
     1
  1
{SOLID SUPPORT FOR HIDDEN GUTTER}
  7
GENERATED_STYLE_1
 73
     1
 44
1.0
  0
LINE
  5
198
330
E3
100
AcDbEntity
  8
Doc_ Floor
  6
Continuous
100
AcDbLine
 10
153.5751356002556
 20
112.4920474931033
 30
0.0
 11
157.1224609346636
 21
110.9608105254055
 31
0.0
  0
LINE
  5
199
330
E3
100
AcDbEntity
  8
Doc_ Floor
  6
Continuous
100
AcDbLine
 10
153.5751356002556
 20
112.4920474931033
 30
0.0
 11
155.8815926414255
 21
109.3922934007044
 31
0.0
  0
LINE
  5
19A
330
E3
100
AcDbEntity
  8
Doc_ Floor
  6
Continuous
100
AcDbLine
 10
157.1224609346636
 20
110.9608105254055
 30
0.0
 11
155.8815926414255
 21
109.3922934007044
 31
0.0
  0
LWPOLYLINE
  5
19B
330
E3
100
AcDbEntity
  8
Doc_ Floor
  6
Continuous
100
AcDbPolyline
 90
       12
 70
   128
 43
0.0
 10
156.5020281391087
 20
110.1765529273228
 10
164.6593725617214
 20
103.8531811442045
 10
171.7331712593182
 20
98.59931149519609
 10
177.838459044254
 20
94.34516750539191
 10
183.0902707288836
 20
91.0209726998862
 10
187.6036411255617
 20
88.55695060377322
 10
189.6193592197799
 20
87.62569917333096
 10
191.4936050466433
 20
86.88332474214722
 10
193.2407579576962
 20
86.32110525085884
 10
194.875197304483
 20
85.9303186401025
 10
196.411302438548
 20
85.70224285051509
 10
197.8634527114357
 20
85.62815582273332
  0
MTEXT
  5
19C
330
E3
100
AcDbEntity
  8
Doc_ Floor
  6
Continuous
100
AcDbMText
 10
111.4764557867262
 20
180.8908537492673
 30
0.0
 40
2.5
 41
56.71228972547952
 71
     6
 72
     1
  1
{CLADDING ON CAVITY BATTENS WITH BUILDING WRAP OVER METAL HIDDEN GUTTER}
  7
GENERATED_STYLE_1
 73
     1
 44
1.065340909090909
  0
LINE
  5
19D
330
E3
100
AcDbEntity
  8
Doc_ Floor
  6
Continuous
100
AcDbLine
 10
158.307867414157
 20
160.9689394122912
 30
0.0
 11
154.7188834534926
 21
162.3998181107051
 31
0.0
  0
LINE
  5
19E
330
E3
100
AcDbEntity
  8
Doc_ Floor
  6
Continuous
100
AcDbLine
 10
158.307867414157
 20
160.9689394122912
 30
0.0
 11
155.9151548896649
 21
164.002608578817
 31
0.0
  0
LINE
  5
19F
330
E3
100
AcDbEntity
  8
Doc_ Floor
  6
Continuous
100
AcDbLine
 10
154.7188834534926
 20
162.3998181107051
 30
0.0
 11
155.9151548896649
 21
164.002608578817
 31
0.0
  0
LWPOLYLINE
  5
1A0
330
E3
100
AcDbEntity
  8
Doc_ Floor
  6
Continuous
100
AcDbPolyline
 90
       15
 70
   128
 43
0.0
 10
155.317019857806
 20
163.201213177669
 10
148.8843857445985
 20
167.7587274089904
 10
142.9887753179524
 20
171.5468381518251
 10
140.2065495541147
 20
173.1679452792594
 10
137.5156143923473
 20
174.6153952116112
 10
134.9016480594601
 20
175.8954191745605
 10
132.350328782263
 20
177.0142483937869
 10
129.847334787566
 20
177.9781140949703
 10
127.3783443021791
 20
178.7932475037904
 10
124.9290355529121
 20
179.465879845927
 10
122.4850867665752
 20
180.0022423470599
 10
120.0321761699781
 20
180.4085662328688
 10
117.555981989931
 20
180.6910827290336
 10
115.0421824532437
 20
180.856023061234
 10
112.4764557867262
 20
180.9096184551497
  0
MTEXT
  5
1A1
330
E3
100
AcDbEntity
  8
Doc_ Floor
  6
Continuous
100
AcDbMText
 10
199.5846598040943
 20
172.5307261741983
 30
0.0
 40
2.499999999999999
 41
0.0
 71
     4
 72
     1
  1
{HEM TO FLASHING EDGE}
  7
GENERATED_STYLE_1
 73
     1
 44
1.0
  0
LINE
  5
1A2
330
E3
100
AcDbEntity
  8
Doc_ Floor
  6
Continuous
100
AcDbLine
 10
167.6309676228844
 20
151.2895480361383
 30
0.0
 11
169.8956397010923
 21
154.4199586325485
 31
0.0
  0
LINE
  5
1A3
330
E3
100
AcDbEntity
  8
Doc_ Floor
  6
Continuous
100
AcDbLine
 10
167.6309676228844
 20
151.2895480361383
 30
0.0
 11
171.157436572013
 21
152.8682262415873
 31
0.0
  0
LINE
  5
1A4
330
E3
100
AcDbEntity
  8
Doc_ Floor
  6
Continuous
100
AcDbLine
 10
169.8956397010923
 20
154.4199586325485
 30
0.0
 11
171.157436572013
 21
152.8682262415873
 31
0.0
  0
LWPOLYLINE
  5
1A5
330
E3
100
AcDbEntity
  8
Doc_ Floor
  6
Continuous
100
AcDbPolyline
 90
        9
 70
   128
 43
0.0
 10
170.526536738393
 20
153.6440929086401
 10
181.7718737800494
 20
162.5541313062839
 10
186.1430386715481
 20
165.830119435805
 10
189.7832289091054
 20
168.3910784315267
 10
192.76996531693
 20
170.2902519777496
 10
195.1807687192305
 20
171.5808837587745
 10
197.0931599402157
 20
172.3162174589023
 10
197.8866762402803
 20
172.4922861799737
 10
198.5846598040943
 20
172.5494967624336
  0
MTEXT
  5
1A6
330
E3
100
AcDbEntity
  8
0
  6
Continuous
100
AcDbMText
 10
42.0836279444616
 20
48.06293888957747
 30
0.0
 40
2.499999999999999
 41
69.01187578516154
 71
     7
 72
     1
  1
\A1;{\fCentury Gothic|b0|i0|c0|p34;LOW, MEDIUM OR HIGH WIND ZONE.\P ROOF PITCH \fArial|b0|i0|c0|p34;\H1.029412x;\U+2265\fCentury Gothic|b0|i0|c0|p34;\H0.971429x; 10\fArial|b0|i0|c0|p34;\H1.029412x;\U+00B0}
  7
GENERATED_STYLE_1
 73
     1
 44
1.056355725756043
  0
MTEXT
  5
1A7
330
E3
100
AcDbEntity
  8
0
  6
Continuous
100
AcDbMText
 10
42.0836279444616
 20
37.64008650345021
 30
0.0
 40
2.5
 41
69.01187578516154
 71
     7
 72
     1
  1
\A1;{\fCentury Gothic|b0|i0|c0|p34;VERY HIGH OR EXTRA WIND ZONE.\P ROOF PITCH \fArial|b0|i0|c0|p34;\H1.029412x;<\fCentury Gothic|b0|i0|c0|p34;\H0.971429x; 10\fArial|b0|i0|c0|p34;\H1.029412x;\U+00B0}
  7
GENERATED_STYLE_1
 73
     1
 44
1.056355725756043
  0
MTEXT
  5
1A8
330
E3
100
AcDbEntity
  8
0
  6
Continuous
100
AcDbMText
 10
126.5829620010497
 20
50.10276662102289
 30
0.0
 40
2.499999999999999
 41
0.0
 71
     8
 72
     1
  1
{75MM}
  7
GENERATED_STYLE_1
 73
     1
 44
1.0
  0
MTEXT
  5
1A9
330
E3
100
AcDbEntity
  8
0
  6
Continuous
100
AcDbMText
 10
126.5829620010497
 20
38.86398709956514
 30
0.0
 40
2.499999999999999
 41
0.0
 71
     8
 72
     1
  1
{100MM}
  7
GENERATED_STYLE_1
 73
     1
 44
1.0
  0
MTEXT
  5
1AA
330
E3
100
AcDbEntity
  8
0
  6
Continuous
100
AcDbMText
 10
126.5829620010497
 20
59.98482570442803
 30
0.0
 40
2.499999999999999
 41
0.0
 71
     8
 72
     1
  1
{B}
  7
GENERATED_STYLE_1
 73
     1
 44
1.0
  0
MTEXT
  5
1AB
330
E3
100
AcDbEntity
  8
0
  6
Continuous
100
AcDbMText
 10
160.8567875075116
 20
46.51192937361961
 30
0.0
 40
2.499999999999999
 41
0.0
 71
     7
 72
     1
  1
\A1;{\fCentury Gothic|b0|i0|c0|p34;ROOF PITCH \fArial|b0|i0|c0|p34;\H1.029412x;\U+2265\fCentury Gothic|b0|i0|c0|p34;\H0.971429x; 12\fArial|b0|i0|c0|p34;\H1.029412x;\U+00B0}
  7
GENERATED_STYLE_1
 73
     1
 44
1.0
  0
MTEXT
  5
1AC
330
E3
100
AcDbEntity
  8
0
  6
Continuous
100
AcDbMText
 10
160.8567875075116
 20
38.35693337624465
 30
0.0
 40
2.5
 41
0.0
 71
     7
 72
     1
  1
\A1;{\fCentury Gothic|b0|i0|c0|p34;ROOF PITCH \fArial|b0|i0|c0|p34;\H1.029412x;<\fCentury Gothic|b0|i0|c0|p34;\H0.971429x; 12\fArial|b0|i0|c0|p34;\H1.029412x;\U+00B0}
  7
GENERATED_STYLE_1
 73
     1
 44
1.0
  0
MTEXT
  5
1AD
330
E3
100
AcDbEntity
  8
0
  6
Continuous
100
AcDbMText
 10
217.3561215640997
 20
46.51192937361961
 30
0.0
 40
2.499999999999999
 41
0.0
 71
     8
 72
     1
  1
{20MM}
  7
GENERATED_STYLE_1
 73
     1
 44
1.0
  0
MTEXT
  5
1AE
330
E3
100
AcDbEntity
  8
0
  6
Continuous
100
AcDbMText
 10
217.3561215640997
 20
38.43900243752393
 30
0.0
 40
2.499999999999999
 41
0.0
 71
     8
 72
     1
  1
{45MM}
  7
GENERATED_STYLE_1
 73
     1
 44
1.0
  0
MTEXT
  5
1AF
330
E3
100
AcDbEntity
  8
0
  6
Continuous
100
AcDbMText
 10
217.3561215640997
 20
54.63637060478976
 30
0.0
 40
2.499999999999999
 41
0.0
 71
     8
 72
     1
  1
{A}
  7
GENERATED_STYLE_1
 73
     1
 44
1.0
  0
HATCH
  5
1B0
330
E3
100
AcDbEntity
  8
0
  6
Continuous
 62
   255
370
     0
100
AcDbHatch
 10
0.0
 20
0.0
 30
0.0
210
0.0
220
0.0
230
1.0
  2
SOLID
 70
     1
 71
     0
 91
        1
 92
        3
 72
     0
 73
     1
 93
        4
 10
112.5724233940108
 20
133.602524360841
 10
111.0724233940108
 20
133.602524360841
 10
111.0724233940108
 20
133.102524360841
 10
112.5724233940108
 20
133.102524360841
 97
        0
 75
     0
 76
     1
 98
        0
  0
HATCH
  5
1B1
330
E3
100
AcDbEntity
  8
0
  6
Continuous
 62
   255
370
     0
100
AcDbHatch
 10
0.0
 20
0.0
 30
0.0
210
0.0
220
0.0
230
1.0
  2
SOLID
 70
     1
 71
     0
 91
        1
 92
        3
 72
     1
 73
     1
 93
        4
 10
112.3224233940108
 20
133.5191910275076
 42
0.1666666666666667
 10
111.3224233940108
 20
133.5191910275076
 42
0.0
 10
111.3224233940108
 20
133.1858576941743
 42
0.1666666666666667
 10
112.3224233940108
 20
133.1858576941743
 42
0.0
 97
        0
 75
     0
 76
     1
 98
        0
  0
ARC
  5
1B2
330
E3
100
AcDbEntity
  8
0
  6
Continuous
100
AcDbCircle
 10
111.8224233940108
 20
132.0608576941743
 30
0.0
 40
1.541666666666673
100
AcDbArc
 50
71.07535558394882
 51
108.9246444160512
  0
LINE
  5
1B3
330
E3
100
AcDbEntity
  8
0
  6
Continuous
100
AcDbLine
 10
111.322423619653
 20
133.5191894637112
 30
0.0
 11
111.322423619653
 21
133.1858590901178
 31
0.0
  0
ARC
  5
1B4
330
E3
100
AcDbEntity
  8
0
  6
Continuous
100
AcDbCircle
 10
111.8224233940108
 20
134.6441910275076
 30
0.0
 40
1.541666666666673
100
AcDbArc
 50
251.0753555839488
 51
288.9246444160512
  0
LINE
  5
1B5
330
E3
100
AcDbEntity
  8
0
  6
Continuous
100
AcDbLine
 10
112.3224219596735
 20
133.1858590901178
 30
0.0
 11
112.3224219596735
 21
133.5191894637112
 31
0.0
  0
HATCH
  5
1B6
330
E3
100
AcDbEntity
  8
0
  6
Continuous
 62
   255
370
     0
100
AcDbHatch
 10
0.0
 20
0.0
 30
0.0
210
0.0
220
0.0
230
1.0
  2
SOLID
 70
     1
 71
     0
 91
        1
 92
        3
 72
     1
 73
     1
 93
        4
 10
112.8224233940108
 20
133.5191910275076
 42
0.3333333333333333
 10
112.3224233940108
 20
133.5191910275076
 42
0.0
 10
112.3224233940108
 20
133.1858576941743
 42
0.3333333333333333
 10
112.8224233940108
 20
133.1858576941743
 42
0.0
 97
        0
 75
     0
 76
     1
 98
        0
  0
ARC
  5
1B7
330
E3
100
AcDbEntity
  8
0
  6
Continuous
100
AcDbCircle
 10
112.5724233940108
 20
133.1858576941743
 30
0.0
 40
0.4166666666666596
100
AcDbArc
 50
53.13010235415521
 51
126.8698976458448
  0
LINE
  5
1B8
330
E3
100
AcDbEntity
  8
0
  6
Continuous
100
AcDbLine
 10
112.3224219596735
 20
133.5191894637112
 30
0.0
 11
112.3224219596735
 21
133.1858590901178
 31
0.0
  0
ARC
  5
1B9
330
E3
100
AcDbEntity
  8
0
  6
Continuous
100
AcDbCircle
 10
112.5724233940108
 20
133.5191910275076
 30
0.0
 40
0.4166666666666596
100
AcDbArc
 50
233.1301023541552
 51
306.8698976458448
  0
LINE
  5
1BA
330
E3
100
AcDbEntity
  8
0
  6
Continuous
100
AcDbLine
 10
112.8224229344938
 20
133.1858590901178
 30
0.0
 11
112.8224229344938
 21
133.5191894637112
 31
0.0
  0
HATCH
  5
1BB
330
E3
100
AcDbEntity
  8
0
  6
Continuous
 62
   255
370
     0
100
AcDbHatch
 10
0.0
 20
0.0
 30
0.0
210
0.0
220
0.0
230
1.0
  2
SOLID
 70
     1
 71
     0
 91
        1
 92
        3
 72
     1
 73
     1
 93
        4
 10
110.8224233940108
 20
133.5191910275076
 42
0.0
 10
110.8224233940108
 20
133.1858576941743
 42
0.3333333333333333
 10
111.3224233940108
 20
133.1858576941743
 42
0.0
 10
111.3224233940108
 20
133.5191910275076
 42
0.3333333333333333
 97
        0
 75
     0
 76
     1
 98
        0
  0
LINE
  5
1BC
330
E3
100
AcDbEntity
  8
0
  6
Continuous
100
AcDbLine
 10
110.8224226448327
 20
133.1858590901178
 30
0.0
 11
110.8224226448327
 21
133.5191894637112
 31
0.0
  0
ARC
  5
1BD
330
E3
100
AcDbEntity
  8
0
  6
Continuous
100
AcDbCircle
 10
111.0724233940108
 20
133.5191910275076
 30
0.0
 40
0.4166666666666596
100
AcDbArc
 50
233.1301023541552
 51
306.8698976458448
  0
LINE
  5
1BE
330
E3
100
AcDbEntity
  8
0
  6
Continuous
100
AcDbLine
 10
111.322423619653
 20
133.5191894637112
 30
0.0
 11
111.322423619653
 21
133.1858590901178
 31
0.0
  0
ARC
  5
1BF
330
E3
100
AcDbEntity
  8
0
  6
Continuous
100
AcDbCircle
 10
111.0724233940108
 20
133.1858576941743
 30
0.0
 40
0.4166666666666596
100
AcDbArc
 50
53.13010235415521
 51
126.8698976458448
  0
HATCH
  5
1C0
330
E3
100
AcDbEntity
  8
0
  6
Continuous
 62
   255
370
     0
100
AcDbHatch
 10
0.0
 20
0.0
 30
0.0
210
0.0
220
0.0
230
1.0
  2
SOLID
 70
     1
 71
     0
 91
        1
 92
        3
 72
     0
 73
     1
 93
        4
 10
111.4890903940108
 20
133.102524360841
 10
111.4890903940108
 20
131.502524360841
 10
112.1557563940108
 20
131.502524360841
 10
112.1557563940108
 20
133.102524360841
 97
        0
 75
     0
 76
     1
 98
        0
  0
LINE
  5
1C1
330
E3
100
AcDbEntity
  8
0
  6
Continuous
100
AcDbLine
 10
111.4890906112598
 20
133.1025237895043
 30
0.0
 11
111.4890906112598
 21
131.5025235577755
 31
0.0
  0
LINE
  5
1C2
330
E3
100
AcDbEntity
  8
0
  6
Continuous
100
AcDbLine
 10
111.4890906112598
 20
131.5025235577755
 30
0.0
 11
112.1557549680667
 21
131.5025235577755
 31
0.0
  0
LINE
  5
1C3
330
E3
100
AcDbEntity
  8
0
  6
Continuous
100
AcDbLine
 10
112.1557549680667
 20
131.5025235577755
 30
0.0
 11
112.1557549680667
 21
133.1025237895043
 31
0.0
  0
LINE
  5
1C4
330
E3
100
AcDbEntity
  8
0
  6
Continuous
100
AcDbLine
 10
112.1557549680667
 20
133.1025237895043
 30
0.0
 11
111.4890906112598
 21
133.1025237895043
 31
0.0
  0
HATCH
  5
1C5
330
E3
100
AcDbEntity
  8
0
  6
Continuous
 62
   255
370
     0
100
AcDbHatch
 10
0.0
 20
0.0
 30
0.0
210
0.0
220
0.0
230
1.0
  2
SOLID
 70
     1
 71
     0
 91
        1
 92
        3
 72
     0
 73
     1
 93
        5
 10
111.5224233940108
 20
131.502524360841
 10
111.5224233940108
 20
121.102524360841
 10
111.8224233940108
 20
120.502524360841
 10
112.1224233940108
 20
121.102524360841
 10
112.1224233940108
 20
131.502524360841
 97
        0
 75
     0
 76
     1
 98
        0
  0
LINE
  5
1C6
330
E3
100
AcDbEntity
  8
0
  6
Continuous
100
AcDbLine
 10
111.522421843809
 20
131.5025235577755
 30
0.0
 11
111.522421843809
 21
121.1025256611579
 31
0.0
  0
LINE
  5
1C7
330
E3
100
AcDbEntity
  8
0
  6
Continuous
100
AcDbLine
 10
111.522421843809
 20
121.1025256611579
 30
0.0
 11
111.8224245944733
 21
120.5025237694495
 31
0.0
  0
LINE
  5
1C8
330
E3
100
AcDbEntity
  8
0
  6
Continuous
100
AcDbLine
 10
111.8224245944733
 20
120.5025237694495
 30
0.0
 11
112.1224237355174
 21
121.1025256611579
 31
0.0
  0
LINE
  5
1C9
330
E3
100
AcDbEntity
  8
0
  6
Continuous
100
AcDbLine
 10
112.1224237355174
 20
121.1025256611579
 30
0.0
 11
112.1224237355174
 21
131.5025235577755
 31
0.0
  0
LINE
  5
1CA
330
E3
100
AcDbEntity
  8
0
  6
Continuous
100
AcDbLine
 10
112.1224237355174
 20
131.5025235577755
 30
0.0
 11
111.522421843809
 21
131.5025235577755
 31
0.0
  0
LINE
  5
1CB
330
E3
100
AcDbEntity
  8
0
  6
Continuous
100
AcDbLine
 10
112.5724242518937
 20
133.6025247643247
 30
0.0
 11
111.0724249370529
 21
133.6025247643247
 31
0.0
  0
LINE
  5
1CC
330
E3
100
AcDbEntity
  8
0
  6
Continuous
100
AcDbLine
 10
111.0724249370529
 20
133.1025237895043
 30
0.0
 11
112.5724242518937
 21
133.1025237895043
 31
0.0
  0
LINE
  5
1CD
330
E3
100
AcDbEntity
  8
0
  6
Continuous
100
AcDbLine
 10
112.3224233940108
 20
131.502524360841
 30
0.0
 11
112.3205207430567
 21
131.4970680116346
 31
0.0
  0
LINE
  5
1CE
330
E3
100
AcDbEntity
  8
0
  6
Continuous
100
AcDbLine
 10
112.3205207430567
 20
131.4970680116346
 30
0.0
 11
112.3148272705169
 21
131.4916116624283
 31
0.0
  0
LINE
  5
1CF
330
E3
100
AcDbEntity
  8
0
  6
Continuous
100
AcDbLine
 10
112.3148272705169
 20
131.4916116624283
 30
0.0
 11
112.3053845525224
 21
131.4861539303539
 31
0.0
  0
LINE
  5
1D0
330
E3
100
AcDbEntity
  8
0
  6
Continuous
100
AcDbLine
 10
112.3053845525224
 20
131.4861539303539
 30
0.0
 11
112.2922708024844
 21
131.4806997942935
 31
0.0
  0
LINE
  5
1D1
330
E3
100
AcDbEntity
  8
0
  6
Continuous
100
AcDbLine
 10
112.2922708024844
 20
131.4806997942935
 30
0.0
 11
112.2755763092485
 21
131.4752420486129
 31
0.0
  0
LINE
  5
1D2
330
E3
100
AcDbEntity
  8
0
  6
Continuous
100
AcDbLine
 10
112.2755763092485
 20
131.4752420486129
 30
0.0
 11
112.2554346287606
 21
131.4697879125524
 31
0.0
  0
LINE
  5
1D3
330
E3
100
AcDbEntity
  8
0
  6
Continuous
100
AcDbLine
 10
112.2554346287606
 20
131.4697879125524
 30
0.0
 11
112.2320009746876
 21
131.4643301668719
 31
0.0
  0
LINE
  5
1D4
330
E3
100
AcDbEntity
  8
0
  6
Continuous
100
AcDbLine
 10
112.2320009746876
 20
131.4643301668719
 30
0.0
 11
112.205444999177
 21
131.4588724211913
 31
0.0
  0
LINE
  5
1D5
330
E3
100
AcDbEntity
  8
0
  6
Continuous
100
AcDbLine
 10
112.205444999177
 20
131.4588724211913
 30
0.0
 11
112.175976060198
 21
131.4534182851309
 31
0.0
  0
LINE
  5
1D6
330
E3
100
AcDbEntity
  8
0
  6
Continuous
100
AcDbLine
 10
112.175976060198
 20
131.4534182851309
 30
0.0
 11
112.1438179542005
 21
131.4479605394503
 31
0.0
  0
LINE
  5
1D7
330
E3
100
AcDbEntity
  8
0
  6
Continuous
100
AcDbLine
 10
112.1438179542005
 20
131.4479605394503
 30
0.0
 11
112.1092125257351
 21
131.4425027937697
 31
0.0
  0
LINE
  5
1D8
330
E3
100
AcDbEntity
  8
0
  6
Continuous
100
AcDbLine
 10
112.1092125257351
 20
131.4425027937697
 30
0.0
 11
112.0724232770734
 21
131.4370486577093
 31
0.0
  0
LINE
  5
1D9
330
E3
100
AcDbEntity
  8
0
  6
Continuous
100
AcDbLine
 10
112.0724232770734
 20
131.4370486577093
 30
0.0
 11
112.0337317585878
 21
131.4315909120287
 31
0.0
  0
LINE
  5
1DA
330
E3
100
AcDbEntity
  8
0
  6
Continuous
100
AcDbLine
 10
112.0337317585878
 20
131.4315909120287
 30
0.0
 11
111.9934339591315
 21
131.4261367759683
 31
0.0
  0
LINE
  5
1DB
330
E3
100
AcDbEntity
  8
0
  6
Continuous
100
AcDbLine
 10
111.9934339591315
 20
131.4261367759683
 30
0.0
 11
111.9518330867977
 21
131.4206790302877
 31
0.0
  0
LINE
  5
1DC
330
E3
100
AcDbEntity
  8
0
  6
Continuous
100
AcDbLine
 10
111.9518330867977
 20
131.4206790302877
 30
0.0
 11
111.9092467881605
 21
131.4152212846071
 31
0.0
  0
LINE
  5
1DD
330
E3
100
AcDbEntity
  8
0
  6
Continuous
100
AcDbLine
 10
111.9092467881605
 20
131.4152212846071
 30
0.0
 11
111.8659999290341
 21
131.4097671485467
 31
0.0
  0
LINE
  5
1DE
330
E3
100
AcDbEntity
  8
0
  6
Continuous
100
AcDbLine
 10
111.8659999290341
 20
131.4097671485467
 30
0.0
 11
111.8224245944733
 21
131.4043094028661
 31
0.0
  0
LINE
  5
1DF
330
E3
100
AcDbEntity
  8
0
  6
Continuous
100
AcDbLine
 10
111.8224245944733
 20
131.4043094028661
 30
0.0
 11
111.7788456502923
 21
131.3988552668057
 31
0.0
  0
LINE
  5
1E0
330
E3
100
AcDbEntity
  8
0
  6
Continuous
100
AcDbLine
 10
111.7788456502923
 20
131.3988552668057
 30
0.0
 11
111.735598791166
 21
131.3933975211251
 31
0.0
  0
LINE
  5
1E1
330
E3
100
AcDbEntity
  8
0
  6
Continuous
100
AcDbLine
 10
111.735598791166
 20
131.3933975211251
 30
0.0
 11
111.6930124925287
 21
131.3879397754446
 31
0.0
  0
LINE
  5
1E2
330
E3
100
AcDbEntity
  8
0
  6
Continuous
100
AcDbLine
 10
111.6930124925287
 20
131.3879397754446
 30
0.0
 11
111.6514116201949
 21
131.3824856393841
 31
0.0
  0
LINE
  5
1E3
330
E3
100
AcDbEntity
  8
0
  6
Continuous
100
AcDbLine
 10
111.6514116201949
 20
131.3824856393841
 30
0.0
 11
111.6111138207386
 21
131.3770278937035
 31
0.0
  0
LINE
  5
1E4
330
E3
100
AcDbEntity
  8
0
  6
Continuous
100
AcDbLine
 10
111.6111138207386
 20
131.3770278937035
 30
0.0
 11
111.5724223022531
 21
131.3715737576431
 31
0.0
  0
LINE
  5
1E5
330
E3
100
AcDbEntity
  8
0
  6
Continuous
100
AcDbLine
 10
111.5724223022531
 20
131.3715737576431
 30
0.0
 11
111.5356366632115
 21
131.3661160119625
 31
0.0
  0
LINE
  5
1E6
330
E3
100
AcDbEntity
  8
0
  6
Continuous
100
AcDbLine
 10
111.5356366632115
 20
131.3661160119625
 30
0.0
 11
111.5010312347461
 21
131.360658266282
 31
0.0
  0
LINE
  5
1E7
330
E3
100
AcDbEntity
  8
0
  6
Continuous
100
AcDbLine
 10
111.5010312347461
 20
131.360658266282
 30
0.0
 11
111.4688695191284
 21
131.3552041302216
 31
0.0
  0
LINE
  5
1E8
330
E3
100
AcDbEntity
  8
0
  6
Continuous
100
AcDbLine
 10
111.4688695191284
 20
131.3552041302216
 30
0.0
 11
111.4394005801494
 21
131.3497463845409
 31
0.0
  0
LINE
  5
1E9
330
E3
100
AcDbEntity
  8
0
  6
Continuous
100
AcDbLine
 10
111.4394005801494
 20
131.3497463845409
 30
0.0
 11
111.4128482142589
 21
131.3442886388604
 31
0.0
  0
LINE
  5
1EA
330
E3
100
AcDbEntity
  8
0
  6
Continuous
100
AcDbLine
 10
111.4128482142589
 20
131.3442886388604
 30
0.0
 11
111.3894109505658
 21
131.3388345028
 31
0.0
  0
LINE
  5
1EB
330
E3
100
AcDbEntity
  8
0
  6
Continuous
100
AcDbLine
 10
111.3894109505658
 20
131.3388345028
 30
0.0
 11
111.369269270078
 21
131.3333767571194
 31
0.0
  0
LINE
  5
1EC
330
E3
100
AcDbEntity
  8
0
  6
Continuous
100
AcDbLine
 10
111.369269270078
 20
131.3333767571194
 30
0.0
 11
111.3525783864622
 21
131.327922621059
 31
0.0
  0
LINE
  5
1ED
330
E3
100
AcDbEntity
  8
0
  6
Continuous
100
AcDbLine
 10
111.3525783864622
 20
131.327922621059
 30
0.0
 11
111.339461026804
 21
131.3224648753784
 31
0.0
  0
LINE
  5
1EE
330
E3
100
AcDbEntity
  8
0
  6
Continuous
100
AcDbLine
 10
111.339461026804
 20
131.3224648753784
 30
0.0
 11
111.3300182604678
 21
131.3170071296978
 31
0.0
  0
LINE
  5
1EF
330
E3
100
AcDbEntity
  8
0
  6
Continuous
100
AcDbLine
 10
111.3300182604678
 20
131.3170071296978
 30
0.0
 11
111.3243260449649
 21
131.3115521386188
 31
0.0
  0
LINE
  5
1F0
330
E3
100
AcDbEntity
  8
0
  6
Continuous
100
AcDbLine
 10
111.3243260449649
 20
131.3115521386188
 30
0.0
 11
111.3224233940108
 21
131.3060957894124
 31
0.0
  0
LINE
  5
1F1
330
E3
100
AcDbEntity
  8
0
  6
Continuous
100
AcDbLine
 10
112.3224233940108
 20
131.1096672179838
 30
0.0
 11
112.3205207430567
 21
131.1042108687775
 31
0.0
  0
LINE
  5
1F2
330
E3
100
AcDbEntity
  8
0
  6
Continuous
100
AcDbLine
 10
112.3205207430567
 20
131.1042108687775
 30
0.0
 11
112.3148272705169
 21
131.0987545195711
 31
0.0
  0
LINE
  5
1F3
330
E3
100
AcDbEntity
  8
0
  6
Continuous
100
AcDbLine
 10
112.3148272705169
 20
131.0987545195711
 30
0.0
 11
112.3053845525224
 21
131.0932973107166
 31
0.0
  0
LINE
  5
1F4
330
E3
100
AcDbEntity
  8
0
  6
Continuous
100
AcDbLine
 10
112.3053845525224
 20
131.0932973107166
 30
0.0
 11
112.2922708024844
 21
131.0878431746561
 31
0.0
  0
LINE
  5
1F5
330
E3
100
AcDbEntity
  8
0
  6
Continuous
100
AcDbLine
 10
112.2922708024844
 20
131.0878431746561
 30
0.0
 11
112.2755763092485
 21
131.0823854289756
 31
0.0
  0
LINE
  5
1F6
330
E3
100
AcDbEntity
  8
0
  6
Continuous
100
AcDbLine
 10
112.2755763092485
 20
131.0823854289756
 30
0.0
 11
112.2554346287606
 21
131.076927683295
 31
0.0
  0
LINE
  5
1F7
330
E3
100
AcDbEntity
  8
0
  6
Continuous
100
AcDbLine
 10
112.2554346287606
 20
131.076927683295
 30
0.0
 11
112.2320009746876
 21
131.0714735472345
 31
0.0
  0
LINE
  5
1F8
330
E3
100
AcDbEntity
  8
0
  6
Continuous
100
AcDbLine
 10
112.2320009746876
 20
131.0714735472345
 30
0.0
 11
112.205444999177
 21
131.066015801554
 31
0.0
  0
LINE
  5
1F9
330
E3
100
AcDbEntity
  8
0
  6
Continuous
100
AcDbLine
 10
112.205444999177
 20
131.066015801554
 30
0.0
 11
112.175976060198
 21
131.0605616654935
 31
0.0
  0
LINE
  5
1FA
330
E3
100
AcDbEntity
  8
0
  6
Continuous
100
AcDbLine
 10
112.175976060198
 20
131.0605616654935
 30
0.0
 11
112.1438179542005
 21
131.055103919813
 31
0.0
  0
LINE
  5
1FB
330
E3
100
AcDbEntity
  8
0
  6
Continuous
100
AcDbLine
 10
112.1438179542005
 20
131.055103919813
 30
0.0
 11
112.1092125257351
 21
131.0496461741324
 31
0.0
  0
LINE
  5
1FC
330
E3
100
AcDbEntity
  8
0
  6
Continuous
100
AcDbLine
 10
112.1092125257351
 20
131.0496461741324
 30
0.0
 11
112.0724232770734
 21
131.0441920380719
 31
0.0
  0
LINE
  5
1FD
330
E3
100
AcDbEntity
  8
0
  6
Continuous
100
AcDbLine
 10
112.0724232770734
 20
131.0441920380719
 30
0.0
 11
112.0337317585878
 21
131.0387342923914
 31
0.0
  0
LINE
  5
1FE
330
E3
100
AcDbEntity
  8
0
  6
Continuous
100
AcDbLine
 10
112.0337317585878
 20
131.0387342923914
 30
0.0
 11
111.9934339591315
 21
131.0332765467108
 31
0.0
  0
LINE
  5
1FF
330
E3
100
AcDbEntity
  8
0
  6
Continuous
100
AcDbLine
 10
111.9934339591315
 20
131.0332765467108
 30
0.0
 11
111.9518330867977
 21
131.0278224106504
 31
0.0
  0
LINE
  5
200
330
E3
100
AcDbEntity
  8
0
  6
Continuous
100
AcDbLine
 10
111.9518330867977
 20
131.0278224106504
 30
0.0
 11
111.9092467881605
 21
131.0223646649698
 31
0.0
  0
LINE
  5
201
330
E3
100
AcDbEntity
  8
0
  6
Continuous
100
AcDbLine
 10
111.9092467881605
 20
131.0223646649698
 30
0.0
 11
111.8659999290341
 21
131.0169105289094
 31
0.0
  0
LINE
  5
202
330
E3
100
AcDbEntity
  8
0
  6
Continuous
100
AcDbLine
 10
111.8659999290341
 20
131.0169105289094
 30
0.0
 11
111.8224245944733
 21
131.0114527832288
 31
0.0
  0
LINE
  5
203
330
E3
100
AcDbEntity
  8
0
  6
Continuous
100
AcDbLine
 10
111.8224245944733
 20
131.0114527832288
 30
0.0
 11
111.7788456502923
 21
131.0059950375482
 31
0.0
  0
LINE
  5
204
330
E3
100
AcDbEntity
  8
0
  6
Continuous
100
AcDbLine
 10
111.7788456502923
 20
131.0059950375482
 30
0.0
 11
111.735598791166
 21
131.0005409014878
 31
0.0
  0
LINE
  5
205
330
E3
100
AcDbEntity
  8
0
  6
Continuous
100
AcDbLine
 10
111.735598791166
 20
131.0005409014878
 30
0.0
 11
111.6930124925287
 21
130.9950831558072
 31
0.0
  0
LINE
  5
206
330
E3
100
AcDbEntity
  8
0
  6
Continuous
100
AcDbLine
 10
111.6930124925287
 20
130.9950831558072
 30
0.0
 11
111.6514116201949
 21
130.9896290197468
 31
0.0
  0
LINE
  5
207
330
E3
100
AcDbEntity
  8
0
  6
Continuous
100
AcDbLine
 10
111.6514116201949
 20
130.9896290197468
 30
0.0
 11
111.6111138207386
 21
130.9841712740662
 31
0.0
  0
LINE
  5
208
330
E3
100
AcDbEntity
  8
0
  6
Continuous
100
AcDbLine
 10
111.6111138207386
 20
130.9841712740662
 30
0.0
 11
111.5724223022531
 21
130.9787135283856
 31
0.0
  0
LINE
  5
209
330
E3
100
AcDbEntity
  8
0
  6
Continuous
100
AcDbLine
 10
111.5724223022531
 20
130.9787135283856
 30
0.0
 11
111.5356366632115
 21
130.9732593923252
 31
0.0
  0
LINE
  5
20A
330
E3
100
AcDbEntity
  8
0
  6
Continuous
100
AcDbLine
 10
111.5356366632115
 20
130.9732593923252
 30
0.0
 11
111.5010312347461
 21
130.9678016466446
 31
0.0
  0
LINE
  5
20B
330
E3
100
AcDbEntity
  8
0
  6
Continuous
100
AcDbLine
 10
111.5010312347461
 20
130.9678016466446
 30
0.0
 11
111.4688695191284
 21
130.9623475105842
 31
0.0
  0
LINE
  5
20C
330
E3
100
AcDbEntity
  8
0
  6
Continuous
100
AcDbLine
 10
111.4688695191284
 20
130.9623475105842
 30
0.0
 11
111.4394005801494
 21
130.9568897649036
 31
0.0
  0
LINE
  5
20D
330
E3
100
AcDbEntity
  8
0
  6
Continuous
100
AcDbLine
 10
111.4394005801494
 20
130.9568897649036
 30
0.0
 11
111.4128482142589
 21
130.951432019223
 31
0.0
  0
LINE
  5
20E
330
E3
100
AcDbEntity
  8
0
  6
Continuous
100
AcDbLine
 10
111.4128482142589
 20
130.951432019223
 30
0.0
 11
111.3894109505658
 21
130.9459778831626
 31
0.0
  0
LINE
  5
20F
330
E3
100
AcDbEntity
  8
0
  6
Continuous
100
AcDbLine
 10
111.3894109505658
 20
130.9459778831626
 30
0.0
 11
111.369269270078
 21
130.940520137482
 31
0.0
  0
LINE
  5
210
330
E3
100
AcDbEntity
  8
0
  6
Continuous
100
AcDbLine
 10
111.369269270078
 20
130.940520137482
 30
0.0
 11
111.3525783864622
 21
130.9350623918015
 31
0.0
  0
LINE
  5
211
330
E3
100
AcDbEntity
  8
0
  6
Continuous
100
AcDbLine
 10
111.3525783864622
 20
130.9350623918015
 30
0.0
 11
111.339461026804
 21
130.929608255741
 31
0.0
  0
LINE
  5
212
330
E3
100
AcDbEntity
  8
0
  6
Continuous
100
AcDbLine
 10
111.339461026804
 20
130.929608255741
 30
0.0
 11
111.3300182604678
 21
130.9241505100605
 31
0.0
  0
LINE
  5
213
330
E3
100
AcDbEntity
  8
0
  6
Continuous
100
AcDbLine
 10
111.3300182604678
 20
130.9241505100605
 30
0.0
 11
111.3243260449649
 21
130.9186949957616
 31
0.0
  0
LINE
  5
214
330
E3
100
AcDbEntity
  8
0
  6
Continuous
100
AcDbLine
 10
111.3243260449649
 20
130.9186949957616
 30
0.0
 11
111.3224233940108
 21
130.9132386465553
 31
0.0
  0
LINE
  5
215
330
E3
100
AcDbEntity
  8
0
  6
Continuous
100
AcDbLine
 10
112.3224233940108
 20
130.7168100751267
 30
0.0
 11
112.3205207430567
 21
130.7113537259204
 31
0.0
  0
LINE
  5
216
330
E3
100
AcDbEntity
  8
0
  6
Continuous
100
AcDbLine
 10
112.3205207430567
 20
130.7113537259204
 30
0.0
 11
112.3148272705169
 21
130.705897376714
 31
0.0
  0
LINE
  5
217
330
E3
100
AcDbEntity
  8
0
  6
Continuous
100
AcDbLine
 10
112.3148272705169
 20
130.705897376714
 30
0.0
 11
112.3053845525224
 21
130.7004406910792
 31
0.0
  0
LINE
  5
218
330
E3
100
AcDbEntity
  8
0
  6
Continuous
100
AcDbLine
 10
112.3053845525224
 20
130.7004406910792
 30
0.0
 11
112.2922708024844
 21
130.6949829453986
 31
0.0
  0
LINE
  5
219
330
E3
100
AcDbEntity
  8
0
  6
Continuous
100
AcDbLine
 10
112.2922708024844
 20
130.6949829453986
 30
0.0
 11
112.2755763092485
 21
130.6895288093382
 31
0.0
  0
LINE
  5
21A
330
E3
100
AcDbEntity
  8
0
  6
Continuous
100
AcDbLine
 10
112.2755763092485
 20
130.6895288093382
 30
0.0
 11
112.2554346287606
 21
130.6840710636577
 31
0.0
  0
LINE
  5
21B
330
E3
100
AcDbEntity
  8
0
  6
Continuous
100
AcDbLine
 10
112.2554346287606
 20
130.6840710636577
 30
0.0
 11
112.2320009746876
 21
130.6786169275972
 31
0.0
  0
LINE
  5
21C
330
E3
100
AcDbEntity
  8
0
  6
Continuous
100
AcDbLine
 10
112.2320009746876
 20
130.6786169275972
 30
0.0
 11
112.205444999177
 21
130.6731591819166
 31
0.0
  0
LINE
  5
21D
330
E3
100
AcDbEntity
  8
0
  6
Continuous
100
AcDbLine
 10
112.205444999177
 20
130.6731591819166
 30
0.0
 11
112.175976060198
 21
130.6677014362361
 31
0.0
  0
LINE
  5
21E
330
E3
100
AcDbEntity
  8
0
  6
Continuous
100
AcDbLine
 10
112.175976060198
 20
130.6677014362361
 30
0.0
 11
112.1438179542005
 21
130.6622473001756
 31
0.0
  0
LINE
  5
21F
330
E3
100
AcDbEntity
  8
0
  6
Continuous
100
AcDbLine
 10
112.1438179542005
 20
130.6622473001756
 30
0.0
 11
112.1092125257351
 21
130.656789554495
 31
0.0
  0
LINE
  5
220
330
E3
100
AcDbEntity
  8
0
  6
Continuous
100
AcDbLine
 10
112.1092125257351
 20
130.656789554495
 30
0.0
 11
112.0724232770734
 21
130.6513354184346
 31
0.0
  0
LINE
  5
221
330
E3
100
AcDbEntity
  8
0
  6
Continuous
100
AcDbLine
 10
112.0724232770734
 20
130.6513354184346
 30
0.0
 11
112.0337317585878
 21
130.645877672754
 31
0.0
  0
LINE
  5
222
330
E3
100
AcDbEntity
  8
0
  6
Continuous
100
AcDbLine
 10
112.0337317585878
 20
130.645877672754
 30
0.0
 11
111.9934339591315
 21
130.6404199270735
 31
0.0
  0
LINE
  5
223
330
E3
100
AcDbEntity
  8
0
  6
Continuous
100
AcDbLine
 10
111.9934339591315
 20
130.6404199270735
 30
0.0
 11
111.9518330867977
 21
130.634965791013
 31
0.0
  0
LINE
  5
224
330
E3
100
AcDbEntity
  8
0
  6
Continuous
100
AcDbLine
 10
111.9518330867977
 20
130.634965791013
 30
0.0
 11
111.9092467881605
 21
130.6295080453325
 31
0.0
  0
LINE
  5
225
330
E3
100
AcDbEntity
  8
0
  6
Continuous
100
AcDbLine
 10
111.9092467881605
 20
130.6295080453325
 30
0.0
 11
111.8659999290341
 21
130.624053909272
 31
0.0
  0
LINE
  5
226
330
E3
100
AcDbEntity
  8
0
  6
Continuous
100
AcDbLine
 10
111.8659999290341
 20
130.624053909272
 30
0.0
 11
111.8224245944733
 21
130.6185961635915
 31
0.0
  0
LINE
  5
227
330
E3
100
AcDbEntity
  8
0
  6
Continuous
100
AcDbLine
 10
111.8224245944733
 20
130.6185961635915
 30
0.0
 11
111.7788456502923
 21
130.6131384179109
 31
0.0
  0
LINE
  5
228
330
E3
100
AcDbEntity
  8
0
  6
Continuous
100
AcDbLine
 10
111.7788456502923
 20
130.6131384179109
 30
0.0
 11
111.735598791166
 21
130.6076842818505
 31
0.0
  0
LINE
  5
229
330
E3
100
AcDbEntity
  8
0
  6
Continuous
100
AcDbLine
 10
111.735598791166
 20
130.6076842818505
 30
0.0
 11
111.6930124925287
 21
130.6022265361699
 31
0.0
  0
LINE
  5
22A
330
E3
100
AcDbEntity
  8
0
  6
Continuous
100
AcDbLine
 10
111.6930124925287
 20
130.6022265361699
 30
0.0
 11
111.6514116201949
 21
130.5967687904893
 31
0.0
  0
LINE
  5
22B
330
E3
100
AcDbEntity
  8
0
  6
Continuous
100
AcDbLine
 10
111.6514116201949
 20
130.5967687904893
 30
0.0
 11
111.6111138207386
 21
130.5913146544289
 31
0.0
  0
LINE
  5
22C
330
E3
100
AcDbEntity
  8
0
  6
Continuous
100
AcDbLine
 10
111.6111138207386
 20
130.5913146544289
 30
0.0
 11
111.5724223022531
 21
130.5858569087483
 31
0.0
  0
LINE
  5
22D
330
E3
100
AcDbEntity
  8
0
  6
Continuous
100
AcDbLine
 10
111.5724223022531
 20
130.5858569087483
 30
0.0
 11
111.5356366632115
 21
130.5804027726879
 31
0.0
  0
LINE
  5
22E
330
E3
100
AcDbEntity
  8
0
  6
Continuous
100
AcDbLine
 10
111.5356366632115
 20
130.5804027726879
 30
0.0
 11
111.5010312347461
 21
130.5749450270073
 31
0.0
  0
LINE
  5
22F
330
E3
100
AcDbEntity
  8
0
  6
Continuous
100
AcDbLine
 10
111.5010312347461
 20
130.5749450270073
 30
0.0
 11
111.4688695191284
 21
130.5694872813267
 31
0.0
  0
LINE
  5
230
330
E3
100
AcDbEntity
  8
0
  6
Continuous
100
AcDbLine
 10
111.4688695191284
 20
130.5694872813267
 30
0.0
 11
111.4394005801494
 21
130.5640331452663
 31
0.0
  0
LINE
  5
231
330
E3
100
AcDbEntity
  8
0
  6
Continuous
100
AcDbLine
 10
111.4394005801494
 20
130.5640331452663
 30
0.0
 11
111.4128482142589
 21
130.5585753995857
 31
0.0
  0
LINE
  5
232
330
E3
100
AcDbEntity
  8
0
  6
Continuous
100
AcDbLine
 10
111.4128482142589
 20
130.5585753995857
 30
0.0
 11
111.3894109505658
 21
130.5531212635253
 31
0.0
  0
LINE
  5
233
330
E3
100
AcDbEntity
  8
0
  6
Continuous
100
AcDbLine
 10
111.3894109505658
 20
130.5531212635253
 30
0.0
 11
111.369269270078
 21
130.5476635178447
 31
0.0
  0
LINE
  5
234
330
E3
100
AcDbEntity
  8
0
  6
Continuous
100
AcDbLine
 10
111.369269270078
 20
130.5476635178447
 30
0.0
 11
111.3525783864622
 21
130.5422057721641
 31
0.0
  0
LINE
  5
235
330
E3
100
AcDbEntity
  8
0
  6
Continuous
100
AcDbLine
 10
111.3525783864622
 20
130.5422057721641
 30
0.0
 11
111.339461026804
 21
130.5367516361037
 31
0.0
  0
LINE
  5
236
330
E3
100
AcDbEntity
  8
0
  6
Continuous
100
AcDbLine
 10
111.339461026804
 20
130.5367516361037
 30
0.0
 11
111.3300182604678
 21
130.5312938904231
 31
0.0
  0
LINE
  5
237
330
E3
100
AcDbEntity
  8
0
  6
Continuous
100
AcDbLine
 10
111.3300182604678
 20
130.5312938904231
 30
0.0
 11
111.3243260449649
 21
130.5258378529045
 31
0.0
  0
LINE
  5
238
330
E3
100
AcDbEntity
  8
0
  6
Continuous
100
AcDbLine
 10
111.3243260449649
 20
130.5258378529045
 30
0.0
 11
111.3224233940108
 21
130.5203815036981
 31
0.0
  0
LINE
  5
239
330
E3
100
AcDbEntity
  8
0
  6
Continuous
100
AcDbLine
 10
112.3224233940108
 20
130.3239529322695
 30
0.0
 11
112.3205207430567
 21
130.3184965830632
 31
0.0
  0
LINE
  5
23A
330
E3
100
AcDbEntity
  8
0
  6
Continuous
100
AcDbLine
 10
112.3205207430567
 20
130.3184965830632
 30
0.0
 11
112.3148272705169
 21
130.3130402338569
 31
0.0
  0
LINE
  5
23B
330
E3
100
AcDbEntity
  8
0
  6
Continuous
100
AcDbLine
 10
112.3148272705169
 20
130.3130402338569
 30
0.0
 11
112.3053845525224
 21
130.3075840714419
 31
0.0
  0
LINE
  5
23C
330
E3
100
AcDbEntity
  8
0
  6
Continuous
100
AcDbLine
 10
112.3053845525224
 20
130.3075840714419
 30
0.0
 11
112.2922708024844
 21
130.3021263257613
 31
0.0
  0
LINE
  5
23D
330
E3
100
AcDbEntity
  8
0
  6
Continuous
100
AcDbLine
 10
112.2922708024844
 20
130.3021263257613
 30
0.0
 11
112.2755763092485
 21
130.2966721897009
 31
0.0
  0
LINE
  5
23E
330
E3
100
AcDbEntity
  8
0
  6
Continuous
100
AcDbLine
 10
112.2755763092485
 20
130.2966721897009
 30
0.0
 11
112.2554346287606
 21
130.2912144440203
 31
0.0
  0
LINE
  5
23F
330
E3
100
AcDbEntity
  8
0
  6
Continuous
100
AcDbLine
 10
112.2554346287606
 20
130.2912144440203
 30
0.0
 11
112.2320009746876
 21
130.2857566983397
 31
0.0
  0
LINE
  5
240
330
E3
100
AcDbEntity
  8
0
  6
Continuous
100
AcDbLine
 10
112.2320009746876
 20
130.2857566983397
 30
0.0
 11
112.205444999177
 21
130.2803025622793
 31
0.0
  0
LINE
  5
241
330
E3
100
AcDbEntity
  8
0
  6
Continuous
100
AcDbLine
 10
112.205444999177
 20
130.2803025622793
 30
0.0
 11
112.175976060198
 21
130.2748448165987
 31
0.0
  0
LINE
  5
242
330
E3
100
AcDbEntity
  8
0
  6
Continuous
100
AcDbLine
 10
112.175976060198
 20
130.2748448165987
 30
0.0
 11
112.1438179542005
 21
130.2693906805383
 31
0.0
  0
LINE
  5
243
330
E3
100
AcDbEntity
  8
0
  6
Continuous
100
AcDbLine
 10
112.1438179542005
 20
130.2693906805383
 30
0.0
 11
112.1092125257351
 21
130.2639329348577
 31
0.0
  0
LINE
  5
244
330
E3
100
AcDbEntity
  8
0
  6
Continuous
100
AcDbLine
 10
112.1092125257351
 20
130.2639329348577
 30
0.0
 11
112.0724232770734
 21
130.2584751891771
 31
0.0
  0
LINE
  5
245
330
E3
100
AcDbEntity
  8
0
  6
Continuous
100
AcDbLine
 10
112.0724232770734
 20
130.2584751891771
 30
0.0
 11
112.0337317585878
 21
130.2530210531167
 31
0.0
  0
LINE
  5
246
330
E3
100
AcDbEntity
  8
0
  6
Continuous
100
AcDbLine
 10
112.0337317585878
 20
130.2530210531167
 30
0.0
 11
111.9934339591315
 21
130.2475633074361
 31
0.0
  0
LINE
  5
247
330
E3
100
AcDbEntity
  8
0
  6
Continuous
100
AcDbLine
 10
111.9934339591315
 20
130.2475633074361
 30
0.0
 11
111.9518330867977
 21
130.2421091713757
 31
0.0
  0
LINE
  5
248
330
E3
100
AcDbEntity
  8
0
  6
Continuous
100
AcDbLine
 10
111.9518330867977
 20
130.2421091713757
 30
0.0
 11
111.9092467881605
 21
130.2366514256951
 31
0.0
  0
LINE
  5
249
330
E3
100
AcDbEntity
  8
0
  6
Continuous
100
AcDbLine
 10
111.9092467881605
 20
130.2366514256951
 30
0.0
 11
111.8659999290341
 21
130.2311936800145
 31
0.0
  0
LINE
  5
24A
330
E3
100
AcDbEntity
  8
0
  6
Continuous
100
AcDbLine
 10
111.8659999290341
 20
130.2311936800145
 30
0.0
 11
111.8224245944733
 21
130.2257395439541
 31
0.0
  0
LINE
  5
24B
330
E3
100
AcDbEntity
  8
0
  6
Continuous
100
AcDbLine
 10
111.8224245944733
 20
130.2257395439541
 30
0.0
 11
111.7788456502923
 21
130.2202817982736
 31
0.0
  0
LINE
  5
24C
330
E3
100
AcDbEntity
  8
0
  6
Continuous
100
AcDbLine
 10
111.7788456502923
 20
130.2202817982736
 30
0.0
 11
111.735598791166
 21
130.2148276622131
 31
0.0
  0
LINE
  5
24D
330
E3
100
AcDbEntity
  8
0
  6
Continuous
100
AcDbLine
 10
111.735598791166
 20
130.2148276622131
 30
0.0
 11
111.6930124925287
 21
130.2093699165325
 31
0.0
  0
LINE
  5
24E
330
E3
100
AcDbEntity
  8
0
  6
Continuous
100
AcDbLine
 10
111.6930124925287
 20
130.2093699165325
 30
0.0
 11
111.6514116201949
 21
130.203912170852
 31
0.0
  0
LINE
  5
24F
330
E3
100
AcDbEntity
  8
0
  6
Continuous
100
AcDbLine
 10
111.6514116201949
 20
130.203912170852
 30
0.0
 11
111.6111138207386
 21
130.1984580347915
 31
0.0
  0
LINE
  5
250
330
E3
100
AcDbEntity
  8
0
  6
Continuous
100
AcDbLine
 10
111.6111138207386
 20
130.1984580347915
 30
0.0
 11
111.5724223022531
 21
130.193000289111
 31
0.0
  0
LINE
  5
251
330
E3
100
AcDbEntity
  8
0
  6
Continuous
100
AcDbLine
 10
111.5724223022531
 20
130.193000289111
 30
0.0
 11
111.5356366632115
 21
130.1875425434304
 31
0.0
  0
LINE
  5
252
330
E3
100
AcDbEntity
  8
0
  6
Continuous
100
AcDbLine
 10
111.5356366632115
 20
130.1875425434304
 30
0.0
 11
111.5010312347461
 21
130.1820884073699
 31
0.0
  0
LINE
  5
253
330
E3
100
AcDbEntity
  8
0
  6
Continuous
100
AcDbLine
 10
111.5010312347461
 20
130.1820884073699
 30
0.0
 11
111.4688695191284
 21
130.1766306616894
 31
0.0
  0
LINE
  5
254
330
E3
100
AcDbEntity
  8
0
  6
Continuous
100
AcDbLine
 10
111.4688695191284
 20
130.1766306616894
 30
0.0
 11
111.4394005801494
 21
130.171176525629
 31
0.0
  0
LINE
  5
255
330
E3
100
AcDbEntity
  8
0
  6
Continuous
100
AcDbLine
 10
111.4394005801494
 20
130.171176525629
 30
0.0
 11
111.4128482142589
 21
130.1657187799484
 31
0.0
  0
LINE
  5
256
330
E3
100
AcDbEntity
  8
0
  6
Continuous
100
AcDbLine
 10
111.4128482142589
 20
130.1657187799484
 30
0.0
 11
111.3894109505658
 21
130.1602610342678
 31
0.0
  0
LINE
  5
257
330
E3
100
AcDbEntity
  8
0
  6
Continuous
100
AcDbLine
 10
111.3894109505658
 20
130.1602610342678
 30
0.0
 11
111.369269270078
 21
130.1548068982073
 31
0.0
  0
LINE
  5
258
330
E3
100
AcDbEntity
  8
0
  6
Continuous
100
AcDbLine
 10
111.369269270078
 20
130.1548068982073
 30
0.0
 11
111.3525783864622
 21
130.1493491525268
 31
0.0
  0
LINE
  5
259
330
E3
100
AcDbEntity
  8
0
  6
Continuous
100
AcDbLine
 10
111.3525783864622
 20
130.1493491525268
 30
0.0
 11
111.339461026804
 21
130.1438950164664
 31
0.0
  0
LINE
  5
25A
330
E3
100
AcDbEntity
  8
0
  6
Continuous
100
AcDbLine
 10
111.339461026804
 20
130.1438950164664
 30
0.0
 11
111.3300182604678
 21
130.1384372707858
 31
0.0
  0
LINE
  5
25B
330
E3
100
AcDbEntity
  8
0
  6
Continuous
100
AcDbLine
 10
111.3300182604678
 20
130.1384372707858
 30
0.0
 11
111.3243260449649
 21
130.1329807100473
 31
0.0
  0
LINE
  5
25C
330
E3
100
AcDbEntity
  8
0
  6
Continuous
100
AcDbLine
 10
111.3243260449649
 20
130.1329807100473
 30
0.0
 11
111.3224233940108
 21
130.127524360841
 31
0.0
  0
LINE
  5
25D
330
E3
100
AcDbEntity
  8
0
  6
Continuous
100
AcDbLine
 10
112.3224233940108
 20
129.9310957894124
 30
0.0
 11
112.3205207430567
 21
129.9256394402061
 31
0.0
  0
LINE
  5
25E
330
E3
100
AcDbEntity
  8
0
  6
Continuous
100
AcDbLine
 10
112.3205207430567
 20
129.9256394402061
 30
0.0
 11
112.3148272705169
 21
129.9201830909997
 31
0.0
  0
LINE
  5
25F
330
E3
100
AcDbEntity
  8
0
  6
Continuous
100
AcDbLine
 10
112.3148272705169
 20
129.9201830909997
 30
0.0
 11
112.3053845525224
 21
129.9147274518045
 31
0.0
  0
LINE
  5
260
330
E3
100
AcDbEntity
  8
0
  6
Continuous
100
AcDbLine
 10
112.3053845525224
 20
129.9147274518045
 30
0.0
 11
112.2922708024844
 21
129.909269706124
 31
0.0
  0
LINE
  5
261
330
E3
100
AcDbEntity
  8
0
  6
Continuous
100
AcDbLine
 10
112.2922708024844
 20
129.909269706124
 30
0.0
 11
112.2755763092485
 21
129.9038155700635
 31
0.0
  0
LINE
  5
262
330
E3
100
AcDbEntity
  8
0
  6
Continuous
100
AcDbLine
 10
112.2755763092485
 20
129.9038155700635
 30
0.0
 11
112.2554346287606
 21
129.898357824383
 31
0.0
  0
LINE
  5
263
330
E3
100
AcDbEntity
  8
0
  6
Continuous
100
AcDbLine
 10
112.2554346287606
 20
129.898357824383
 30
0.0
 11
112.2320009746876
 21
129.8929000787024
 31
0.0
  0
LINE
  5
264
330
E3
100
AcDbEntity
  8
0
  6
Continuous
100
AcDbLine
 10
112.2320009746876
 20
129.8929000787024
 30
0.0
 11
112.205444999177
 21
129.887445942642
 31
0.0
  0
LINE
  5
265
330
E3
100
AcDbEntity
  8
0
  6
Continuous
100
AcDbLine
 10
112.205444999177
 20
129.887445942642
 30
0.0
 11
112.175976060198
 21
129.8819881969614
 31
0.0
  0
LINE
  5
266
330
E3
100
AcDbEntity
  8
0
  6
Continuous
100
AcDbLine
 10
112.175976060198
 20
129.8819881969614
 30
0.0
 11
112.1438179542005
 21
129.876534060901
 31
0.0
  0
LINE
  5
267
330
E3
100
AcDbEntity
  8
0
  6
Continuous
100
AcDbLine
 10
112.1438179542005
 20
129.876534060901
 30
0.0
 11
112.1092125257351
 21
129.8710763152204
 31
0.0
  0
LINE
  5
268
330
E3
100
AcDbEntity
  8
0
  6
Continuous
100
AcDbLine
 10
112.1092125257351
 20
129.8710763152204
 30
0.0
 11
112.0724232770734
 21
129.8656185695398
 31
0.0
  0
LINE
  5
269
330
E3
100
AcDbEntity
  8
0
  6
Continuous
100
AcDbLine
 10
112.0724232770734
 20
129.8656185695398
 30
0.0
 11
112.0337317585878
 21
129.8601644334794
 31
0.0
  0
LINE
  5
26A
330
E3
100
AcDbEntity
  8
0
  6
Continuous
100
AcDbLine
 10
112.0337317585878
 20
129.8601644334794
 30
0.0
 11
111.9934339591315
 21
129.8547066877988
 31
0.0
  0
LINE
  5
26B
330
E3
100
AcDbEntity
  8
0
  6
Continuous
100
AcDbLine
 10
111.9934339591315
 20
129.8547066877988
 30
0.0
 11
111.9518330867977
 21
129.8492489421182
 31
0.0
  0
LINE
  5
26C
330
E3
100
AcDbEntity
  8
0
  6
Continuous
100
AcDbLine
 10
111.9518330867977
 20
129.8492489421182
 30
0.0
 11
111.9092467881605
 21
129.8437948060578
 31
0.0
  0
LINE
  5
26D
330
E3
100
AcDbEntity
  8
0
  6
Continuous
100
AcDbLine
 10
111.9092467881605
 20
129.8437948060578
 30
0.0
 11
111.8659999290341
 21
129.8383370603772
 31
0.0
  0
LINE
  5
26E
330
E3
100
AcDbEntity
  8
0
  6
Continuous
100
AcDbLine
 10
111.8659999290341
 20
129.8383370603772
 30
0.0
 11
111.8224245944733
 21
129.8328829243168
 31
0.0
  0
LINE
  5
26F
330
E3
100
AcDbEntity
  8
0
  6
Continuous
100
AcDbLine
 10
111.8224245944733
 20
129.8328829243168
 30
0.0
 11
111.7788456502923
 21
129.8274251786362
 31
0.0
  0
LINE
  5
270
330
E3
100
AcDbEntity
  8
0
  6
Continuous
100
AcDbLine
 10
111.7788456502923
 20
129.8274251786362
 30
0.0
 11
111.735598791166
 21
129.8219674329556
 31
0.0
  0
LINE
  5
271
330
E3
100
AcDbEntity
  8
0
  6
Continuous
100
AcDbLine
 10
111.735598791166
 20
129.8219674329556
 30
0.0
 11
111.6930124925287
 21
129.8165132968952
 31
0.0
  0
LINE
  5
272
330
E3
100
AcDbEntity
  8
0
  6
Continuous
100
AcDbLine
 10
111.6930124925287
 20
129.8165132968952
 30
0.0
 11
111.6514116201949
 21
129.8110555512147
 31
0.0
  0
LINE
  5
273
330
E3
100
AcDbEntity
  8
0
  6
Continuous
100
AcDbLine
 10
111.6514116201949
 20
129.8110555512147
 30
0.0
 11
111.6111138207386
 21
129.8056014151542
 31
0.0
  0
LINE
  5
274
330
E3
100
AcDbEntity
  8
0
  6
Continuous
100
AcDbLine
 10
111.6111138207386
 20
129.8056014151542
 30
0.0
 11
111.5724223022531
 21
129.8001436694736
 31
0.0
  0
LINE
  5
275
330
E3
100
AcDbEntity
  8
0
  6
Continuous
100
AcDbLine
 10
111.5724223022531
 20
129.8001436694736
 30
0.0
 11
111.5356366632115
 21
129.7946859237931
 31
0.0
  0
LINE
  5
276
330
E3
100
AcDbEntity
  8
0
  6
Continuous
100
AcDbLine
 10
111.5356366632115
 20
129.7946859237931
 30
0.0
 11
111.5010312347461
 21
129.7892317877326
 31
0.0
  0
LINE
  5
277
330
E3
100
AcDbEntity
  8
0
  6
Continuous
100
AcDbLine
 10
111.5010312347461
 20
129.7892317877326
 30
0.0
 11
111.4688695191284
 21
129.783774042052
 31
0.0
  0
LINE
  5
278
330
E3
100
AcDbEntity
  8
0
  6
Continuous
100
AcDbLine
 10
111.4688695191284
 20
129.783774042052
 30
0.0
 11
111.4394005801494
 21
129.7783162963715
 31
0.0
  0
LINE
  5
279
330
E3
100
AcDbEntity
  8
0
  6
Continuous
100
AcDbLine
 10
111.4394005801494
 20
129.7783162963715
 30
0.0
 11
111.4128482142589
 21
129.772862160311
 31
0.0
  0
LINE
  5
27A
330
E3
100
AcDbEntity
  8
0
  6
Continuous
100
AcDbLine
 10
111.4128482142589
 20
129.772862160311
 30
0.0
 11
111.3894109505658
 21
129.7674044146305
 31
0.0
  0
LINE
  5
27B
330
E3
100
AcDbEntity
  8
0
  6
Continuous
100
AcDbLine
 10
111.3894109505658
 20
129.7674044146305
 30
0.0
 11
111.369269270078
 21
129.7619502785701
 31
0.0
  0
LINE
  5
27C
330
E3
100
AcDbEntity
  8
0
  6
Continuous
100
AcDbLine
 10
111.369269270078
 20
129.7619502785701
 30
0.0
 11
111.3525783864622
 21
129.7564925328895
 31
0.0
  0
LINE
  5
27D
330
E3
100
AcDbEntity
  8
0
  6
Continuous
100
AcDbLine
 10
111.3525783864622
 20
129.7564925328895
 30
0.0
 11
111.339461026804
 21
129.7510347872089
 31
0.0
  0
LINE
  5
27E
330
E3
100
AcDbEntity
  8
0
  6
Continuous
100
AcDbLine
 10
111.339461026804
 20
129.7510347872089
 30
0.0
 11
111.3300182604678
 21
129.7455806511485
 31
0.0
  0
LINE
  5
27F
330
E3
100
AcDbEntity
  8
0
  6
Continuous
100
AcDbLine
 10
111.3300182604678
 20
129.7455806511485
 30
0.0
 11
111.3243260449649
 21
129.7401235671902
 31
0.0
  0
LINE
  5
280
330
E3
100
AcDbEntity
  8
0
  6
Continuous
100
AcDbLine
 10
111.3243260449649
 20
129.7401235671902
 30
0.0
 11
111.3224233940108
 21
129.7346672179838
 31
0.0
  0
LINE
  5
281
330
E3
100
AcDbEntity
  8
0
  6
Continuous
100
AcDbLine
 10
112.3224233940108
 20
129.5382386465553
 30
0.0
 11
112.3205207430567
 21
129.5327822973489
 31
0.0
  0
LINE
  5
282
330
E3
100
AcDbEntity
  8
0
  6
Continuous
100
AcDbLine
 10
112.3205207430567
 20
129.5327822973489
 30
0.0
 11
112.3148272705169
 21
129.5273259481426
 31
0.0
  0
LINE
  5
283
330
E3
100
AcDbEntity
  8
0
  6
Continuous
100
AcDbLine
 10
112.3148272705169
 20
129.5273259481426
 30
0.0
 11
112.3053845525224
 21
129.5218708321672
 31
0.0
  0
LINE
  5
284
330
E3
100
AcDbEntity
  8
0
  6
Continuous
100
AcDbLine
 10
112.3053845525224
 20
129.5218708321672
 30
0.0
 11
112.2922708024844
 21
129.5164130864866
 31
0.0
  0
LINE
  5
285
330
E3
100
AcDbEntity
  8
0
  6
Continuous
100
AcDbLine
 10
112.2922708024844
 20
129.5164130864866
 30
0.0
 11
112.2755763092485
 21
129.510955340806
 31
0.0
  0
LINE
  5
286
330
E3
100
AcDbEntity
  8
0
  6
Continuous
100
AcDbLine
 10
112.2755763092485
 20
129.510955340806
 30
0.0
 11
112.2554346287606
 21
129.5055012047456
 31
0.0
  0
LINE
  5
287
330
E3
100
AcDbEntity
  8
0
  6
Continuous
100
AcDbLine
 10
112.2554346287606
 20
129.5055012047456
 30
0.0
 11
112.2320009746876
 21
129.500043459065
 31
0.0
  0
LINE
  5
288
330
E3
100
AcDbEntity
  8
0
  6
Continuous
100
AcDbLine
 10
112.2320009746876
 20
129.500043459065
 30
0.0
 11
112.205444999177
 21
129.4945893230046
 31
0.0
  0
LINE
  5
289
330
E3
100
AcDbEntity
  8
0
  6
Continuous
100
AcDbLine
 10
112.205444999177
 20
129.4945893230046
 30
0.0
 11
112.175976060198
 21
129.4891315773241
 31
0.0
  0
LINE
  5
28A
330
E3
100
AcDbEntity
  8
0
  6
Continuous
100
AcDbLine
 10
112.175976060198
 20
129.4891315773241
 30
0.0
 11
112.1438179542005
 21
129.4836738316435
 31
0.0
  0
LINE
  5
28B
330
E3
100
AcDbEntity
  8
0
  6
Continuous
100
AcDbLine
 10
112.1438179542005
 20
129.4836738316435
 30
0.0
 11
112.1092125257351
 21
129.478219695583
 31
0.0
  0
LINE
  5
28C
330
E3
100
AcDbEntity
  8
0
  6
Continuous
100
AcDbLine
 10
112.1092125257351
 20
129.478219695583
 30
0.0
 11
112.0724232770734
 21
129.4727619499025
 31
0.0
  0
LINE
  5
28D
330
E3
100
AcDbEntity
  8
0
  6
Continuous
100
AcDbLine
 10
112.0724232770734
 20
129.4727619499025
 30
0.0
 11
112.0337317585878
 21
129.467307813842
 31
0.0
  0
LINE
  5
28E
330
E3
100
AcDbEntity
  8
0
  6
Continuous
100
AcDbLine
 10
112.0337317585878
 20
129.467307813842
 30
0.0
 11
111.9934339591315
 21
129.4618500681615
 31
0.0
  0
LINE
  5
28F
330
E3
100
AcDbEntity
  8
0
  6
Continuous
100
AcDbLine
 10
111.9934339591315
 20
129.4618500681615
 30
0.0
 11
111.9518330867977
 21
129.4563923224809
 31
0.0
  0
LINE
  5
290
330
E3
100
AcDbEntity
  8
0
  6
Continuous
100
AcDbLine
 10
111.9518330867977
 20
129.4563923224809
 30
0.0
 11
111.9092467881605
 21
129.4509381864204
 31
0.0
  0
LINE
  5
291
330
E3
100
AcDbEntity
  8
0
  6
Continuous
100
AcDbLine
 10
111.9092467881605
 20
129.4509381864204
 30
0.0
 11
111.8659999290341
 21
129.4454804407399
 31
0.0
  0
LINE
  5
292
330
E3
100
AcDbEntity
  8
0
  6
Continuous
100
AcDbLine
 10
111.8659999290341
 20
129.4454804407399
 30
0.0
 11
111.8224245944733
 21
129.4400226950593
 31
0.0
  0
LINE
  5
293
330
E3
100
AcDbEntity
  8
0
  6
Continuous
100
AcDbLine
 10
111.8224245944733
 20
129.4400226950593
 30
0.0
 11
111.7788456502923
 21
129.4345685589989
 31
0.0
  0
LINE
  5
294
330
E3
100
AcDbEntity
  8
0
  6
Continuous
100
AcDbLine
 10
111.7788456502923
 20
129.4345685589989
 30
0.0
 11
111.735598791166
 21
129.4291108133183
 31
0.0
  0
LINE
  5
295
330
E3
100
AcDbEntity
  8
0
  6
Continuous
100
AcDbLine
 10
111.735598791166
 20
129.4291108133183
 30
0.0
 11
111.6930124925287
 21
129.4236566772579
 31
0.0
  0
LINE
  5
296
330
E3
100
AcDbEntity
  8
0
  6
Continuous
100
AcDbLine
 10
111.6930124925287
 20
129.4236566772579
 30
0.0
 11
111.6514116201949
 21
129.4181989315773
 31
0.0
  0
LINE
  5
297
330
E3
100
AcDbEntity
  8
0
  6
Continuous
100
AcDbLine
 10
111.6514116201949
 20
129.4181989315773
 30
0.0
 11
111.6111138207386
 21
129.4127411858967
 31
0.0
  0
LINE
  5
298
330
E3
100
AcDbEntity
  8
0
  6
Continuous
100
AcDbLine
 10
111.6111138207386
 20
129.4127411858967
 30
0.0
 11
111.5724223022531
 21
129.4072870498363
 31
0.0
  0
LINE
  5
299
330
E3
100
AcDbEntity
  8
0
  6
Continuous
100
AcDbLine
 10
111.5724223022531
 20
129.4072870498363
 30
0.0
 11
111.5356366632115
 21
129.4018293041557
 31
0.0
  0
LINE
  5
29A
330
E3
100
AcDbEntity
  8
0
  6
Continuous
100
AcDbLine
 10
111.5356366632115
 20
129.4018293041557
 30
0.0
 11
111.5010312347461
 21
129.3963751680953
 31
0.0
  0
LINE
  5
29B
330
E3
100
AcDbEntity
  8
0
  6
Continuous
100
AcDbLine
 10
111.5010312347461
 20
129.3963751680953
 30
0.0
 11
111.4688695191284
 21
129.3909174224147
 31
0.0
  0
LINE
  5
29C
330
E3
100
AcDbEntity
  8
0
  6
Continuous
100
AcDbLine
 10
111.4688695191284
 20
129.3909174224147
 30
0.0
 11
111.4394005801494
 21
129.3854596767341
 31
0.0
  0
LINE
  5
29D
330
E3
100
AcDbEntity
  8
0
  6
Continuous
100
AcDbLine
 10
111.4394005801494
 20
129.3854596767341
 30
0.0
 11
111.4128482142589
 21
129.3800055406737
 31
0.0
  0
LINE
  5
29E
330
E3
100
AcDbEntity
  8
0
  6
Continuous
100
AcDbLine
 10
111.4128482142589
 20
129.3800055406737
 30
0.0
 11
111.3894109505658
 21
129.3745477949931
 31
0.0
  0
LINE
  5
29F
330
E3
100
AcDbEntity
  8
0
  6
Continuous
100
AcDbLine
 10
111.3894109505658
 20
129.3745477949931
 30
0.0
 11
111.369269270078
 21
129.3690900493125
 31
0.0
  0
LINE
  5
2A0
330
E3
100
AcDbEntity
  8
0
  6
Continuous
100
AcDbLine
 10
111.369269270078
 20
129.3690900493125
 30
0.0
 11
111.3525783864622
 21
129.3636359132521
 31
0.0
  0
LINE
  5
2A1
330
E3
100
AcDbEntity
  8
0
  6
Continuous
100
AcDbLine
 10
111.3525783864622
 20
129.3636359132521
 30
0.0
 11
111.339461026804
 21
129.3581781675716
 31
0.0
  0
LINE
  5
2A2
330
E3
100
AcDbEntity
  8
0
  6
Continuous
100
AcDbLine
 10
111.339461026804
 20
129.3581781675716
 30
0.0
 11
111.3300182604678
 21
129.3527240315111
 31
0.0
  0
LINE
  5
2A3
330
E3
100
AcDbEntity
  8
0
  6
Continuous
100
AcDbLine
 10
111.3300182604678
 20
129.3527240315111
 30
0.0
 11
111.3243260449649
 21
129.347266424333
 31
0.0
  0
LINE
  5
2A4
330
E3
100
AcDbEntity
  8
0
  6
Continuous
100
AcDbLine
 10
111.3243260449649
 20
129.347266424333
 30
0.0
 11
111.3224233940108
 21
129.3418100751267
 31
0.0
  0
LINE
  5
2A5
330
E3
100
AcDbEntity
  8
0
  6
Continuous
100
AcDbLine
 10
112.3224233940108
 20
129.1453815036981
 30
0.0
 11
112.3205207430567
 21
129.1399251544918
 31
0.0
  0
LINE
  5
2A6
330
E3
100
AcDbEntity
  8
0
  6
Continuous
100
AcDbLine
 10
112.3205207430567
 20
129.1399251544918
 30
0.0
 11
112.3148272705169
 21
129.1344688052854
 31
0.0
  0
LINE
  5
2A7
330
E3
100
AcDbEntity
  8
0
  6
Continuous
100
AcDbLine
 10
112.3148272705169
 20
129.1344688052854
 30
0.0
 11
112.3053845525224
 21
129.1290142125299
 31
0.0
  0
LINE
  5
2A8
330
E3
100
AcDbEntity
  8
0
  6
Continuous
100
AcDbLine
 10
112.3053845525224
 20
129.1290142125299
 30
0.0
 11
112.2922708024844
 21
129.1235564668493
 31
0.0
  0
LINE
  5
2A9
330
E3
100
AcDbEntity
  8
0
  6
Continuous
100
AcDbLine
 10
112.2922708024844
 20
129.1235564668493
 30
0.0
 11
112.2755763092485
 21
129.1180987211687
 31
0.0
  0
LINE
  5
2AA
330
E3
100
AcDbEntity
  8
0
  6
Continuous
100
AcDbLine
 10
112.2755763092485
 20
129.1180987211687
 30
0.0
 11
112.2554346287606
 21
129.1126445851083
 31
0.0
  0
LINE
  5
2AB
330
E3
100
AcDbEntity
  8
0
  6
Continuous
100
AcDbLine
 10
112.2554346287606
 20
129.1126445851083
 30
0.0
 11
112.2320009746876
 21
129.1071868394277
 31
0.0
  0
LINE
  5
2AC
330
E3
100
AcDbEntity
  8
0
  6
Continuous
100
AcDbLine
 10
112.2320009746876
 20
129.1071868394277
 30
0.0
 11
112.205444999177
 21
129.1017290937471
 31
0.0
  0
LINE
  5
2AD
330
E3
100
AcDbEntity
  8
0
  6
Continuous
100
AcDbLine
 10
112.205444999177
 20
129.1017290937471
 30
0.0
 11
112.175976060198
 21
129.0962749576867
 31
0.0
  0
LINE
  5
2AE
330
E3
100
AcDbEntity
  8
0
  6
Continuous
100
AcDbLine
 10
112.175976060198
 20
129.0962749576867
 30
0.0
 11
112.1438179542005
 21
129.0908172120061
 31
0.0
  0
LINE
  5
2AF
330
E3
100
AcDbEntity
  8
0
  6
Continuous
100
AcDbLine
 10
112.1438179542005
 20
129.0908172120061
 30
0.0
 11
112.1092125257351
 21
129.0853630759457
 31
0.0
  0
LINE
  5
2B0
330
E3
100
AcDbEntity
  8
0
  6
Continuous
100
AcDbLine
 10
112.1092125257351
 20
129.0853630759457
 30
0.0
 11
112.0724232770734
 21
129.0799053302651
 31
0.0
  0
LINE
  5
2B1
330
E3
100
AcDbEntity
  8
0
  6
Continuous
100
AcDbLine
 10
112.0724232770734
 20
129.0799053302651
 30
0.0
 11
112.0337317585878
 21
129.0744475845845
 31
0.0
  0
LINE
  5
2B2
330
E3
100
AcDbEntity
  8
0
  6
Continuous
100
AcDbLine
 10
112.0337317585878
 20
129.0744475845845
 30
0.0
 11
111.9934339591315
 21
129.0689934485241
 31
0.0
  0
LINE
  5
2B3
330
E3
100
AcDbEntity
  8
0
  6
Continuous
100
AcDbLine
 10
111.9934339591315
 20
129.0689934485241
 30
0.0
 11
111.9518330867977
 21
129.0635357028436
 31
0.0
  0
LINE
  5
2B4
330
E3
100
AcDbEntity
  8
0
  6
Continuous
100
AcDbLine
 10
111.9518330867977
 20
129.0635357028436
 30
0.0
 11
111.9092467881605
 21
129.0580815667831
 31
0.0
  0
LINE
  5
2B5
330
E3
100
AcDbEntity
  8
0
  6
Continuous
100
AcDbLine
 10
111.9092467881605
 20
129.0580815667831
 30
0.0
 11
111.8659999290341
 21
129.0526238211025
 31
0.0
  0
LINE
  5
2B6
330
E3
100
AcDbEntity
  8
0
  6
Continuous
100
AcDbLine
 10
111.8659999290341
 20
129.0526238211025
 30
0.0
 11
111.8224245944733
 21
129.0471660754219
 31
0.0
  0
LINE
  5
2B7
330
E3
100
AcDbEntity
  8
0
  6
Continuous
100
AcDbLine
 10
111.8224245944733
 20
129.0471660754219
 30
0.0
 11
111.7788456502923
 21
129.0417119393615
 31
0.0
  0
LINE
  5
2B8
330
E3
100
AcDbEntity
  8
0
  6
Continuous
100
AcDbLine
 10
111.7788456502923
 20
129.0417119393615
 30
0.0
 11
111.735598791166
 21
129.036254193681
 31
0.0
  0
LINE
  5
2B9
330
E3
100
AcDbEntity
  8
0
  6
Continuous
100
AcDbLine
 10
111.735598791166
 20
129.036254193681
 30
0.0
 11
111.6930124925287
 21
129.0307964480004
 31
0.0
  0
LINE
  5
2BA
330
E3
100
AcDbEntity
  8
0
  6
Continuous
100
AcDbLine
 10
111.6930124925287
 20
129.0307964480004
 30
0.0
 11
111.6514116201949
 21
129.02534231194
 31
0.0
  0
LINE
  5
2BB
330
E3
100
AcDbEntity
  8
0
  6
Continuous
100
AcDbLine
 10
111.6514116201949
 20
129.02534231194
 30
0.0
 11
111.6111138207386
 21
129.0198845662594
 31
0.0
  0
LINE
  5
2BC
330
E3
100
AcDbEntity
  8
0
  6
Continuous
100
AcDbLine
 10
111.6111138207386
 20
129.0198845662594
 30
0.0
 11
111.5724223022531
 21
129.014430430199
 31
0.0
  0
LINE
  5
2BD
330
E3
100
AcDbEntity
  8
0
  6
Continuous
100
AcDbLine
 10
111.5724223022531
 20
129.014430430199
 30
0.0
 11
111.5356366632115
 21
129.0089726845184
 31
0.0
  0
LINE
  5
2BE
330
E3
100
AcDbEntity
  8
0
  6
Continuous
100
AcDbLine
 10
111.5356366632115
 20
129.0089726845184
 30
0.0
 11
111.5010312347461
 21
129.0035149388378
 31
0.0
  0
LINE
  5
2BF
330
E3
100
AcDbEntity
  8
0
  6
Continuous
100
AcDbLine
 10
111.5010312347461
 20
129.0035149388378
 30
0.0
 11
111.4688695191284
 21
128.9980608027774
 31
0.0
  0
LINE
  5
2C0
330
E3
100
AcDbEntity
  8
0
  6
Continuous
100
AcDbLine
 10
111.4688695191284
 20
128.9980608027774
 30
0.0
 11
111.4394005801494
 21
128.9926030570968
 31
0.0
  0
LINE
  5
2C1
330
E3
100
AcDbEntity
  8
0
  6
Continuous
100
AcDbLine
 10
111.4394005801494
 20
128.9926030570968
 30
0.0
 11
111.4128482142589
 21
128.9871489210364
 31
0.0
  0
LINE
  5
2C2
330
E3
100
AcDbEntity
  8
0
  6
Continuous
100
AcDbLine
 10
111.4128482142589
 20
128.9871489210364
 30
0.0
 11
111.3894109505658
 21
128.9816911753558
 31
0.0
  0
LINE
  5
2C3
330
E3
100
AcDbEntity
  8
0
  6
Continuous
100
AcDbLine
 10
111.3894109505658
 20
128.9816911753558
 30
0.0
 11
111.369269270078
 21
128.9762334296752
 31
0.0
  0
LINE
  5
2C4
330
E3
100
AcDbEntity
  8
0
  6
Continuous
100
AcDbLine
 10
111.369269270078
 20
128.9762334296752
 30
0.0
 11
111.3525783864622
 21
128.9707792936148
 31
0.0
  0
LINE
  5
2C5
330
E3
100
AcDbEntity
  8
0
  6
Continuous
100
AcDbLine
 10
111.3525783864622
 20
128.9707792936148
 30
0.0
 11
111.339461026804
 21
128.9653215479342
 31
0.0
  0
LINE
  5
2C6
330
E3
100
AcDbEntity
  8
0
  6
Continuous
100
AcDbLine
 10
111.339461026804
 20
128.9653215479342
 30
0.0
 11
111.3300182604678
 21
128.9598674118738
 31
0.0
  0
LINE
  5
2C7
330
E3
100
AcDbEntity
  8
0
  6
Continuous
100
AcDbLine
 10
111.3300182604678
 20
128.9598674118738
 30
0.0
 11
111.3243260449649
 21
128.9544092814759
 31
0.0
  0
LINE
  5
2C8
330
E3
100
AcDbEntity
  8
0
  6
Continuous
100
AcDbLine
 10
111.3243260449649
 20
128.9544092814759
 30
0.0
 11
111.3224233940108
 21
128.9489529322695
 31
0.0
  0
LINE
  5
2C9
330
E3
100
AcDbEntity
  8
0
  6
Continuous
100
AcDbLine
 10
112.3224233940108
 20
128.752524360841
 30
0.0
 11
112.3205207430567
 21
128.7470680116346
 31
0.0
  0
LINE
  5
2CA
330
E3
100
AcDbEntity
  8
0
  6
Continuous
100
AcDbLine
 10
112.3205207430567
 20
128.7470680116346
 30
0.0
 11
112.3148272705169
 21
128.7416116624283
 31
0.0
  0
LINE
  5
2CB
330
E3
100
AcDbEntity
  8
0
  6
Continuous
100
AcDbLine
 10
112.3148272705169
 20
128.7416116624283
 30
0.0
 11
112.3053845525224
 21
128.7361539832724
 31
0.0
  0
LINE
  5
2CC
330
E3
100
AcDbEntity
  8
0
  6
Continuous
100
AcDbLine
 10
112.3053845525224
 20
128.7361539832724
 30
0.0
 11
112.2922708024844
 21
128.730699847212
 31
0.0
  0
LINE
  5
2CD
330
E3
100
AcDbEntity
  8
0
  6
Continuous
100
AcDbLine
 10
112.2922708024844
 20
128.730699847212
 30
0.0
 11
112.2755763092485
 21
128.7252421015314
 31
0.0
  0
LINE
  5
2CE
330
E3
100
AcDbEntity
  8
0
  6
Continuous
100
AcDbLine
 10
112.2755763092485
 20
128.7252421015314
 30
0.0
 11
112.2554346287606
 21
128.7197879654709
 31
0.0
  0
LINE
  5
2CF
330
E3
100
AcDbEntity
  8
0
  6
Continuous
100
AcDbLine
 10
112.2554346287606
 20
128.7197879654709
 30
0.0
 11
112.2320009746876
 21
128.7143302197904
 31
0.0
  0
LINE
  5
2D0
330
E3
100
AcDbEntity
  8
0
  6
Continuous
100
AcDbLine
 10
112.2320009746876
 20
128.7143302197904
 30
0.0
 11
112.205444999177
 21
128.7088724741098
 31
0.0
  0
LINE
  5
2D1
330
E3
100
AcDbEntity
  8
0
  6
Continuous
100
AcDbLine
 10
112.205444999177
 20
128.7088724741098
 30
0.0
 11
112.175976060198
 21
128.7034183380494
 31
0.0
  0
LINE
  5
2D2
330
E3
100
AcDbEntity
  8
0
  6
Continuous
100
AcDbLine
 10
112.175976060198
 20
128.7034183380494
 30
0.0
 11
112.1438179542005
 21
128.6979605923688
 31
0.0
  0
LINE
  5
2D3
330
E3
100
AcDbEntity
  8
0
  6
Continuous
100
AcDbLine
 10
112.1438179542005
 20
128.6979605923688
 30
0.0
 11
112.1092125257351
 21
128.6925028466882
 31
0.0
  0
LINE
  5
2D4
330
E3
100
AcDbEntity
  8
0
  6
Continuous
100
AcDbLine
 10
112.1092125257351
 20
128.6925028466882
 30
0.0
 11
112.0724232770734
 21
128.6870487106278
 31
0.0
  0
LINE
  5
2D5
330
E3
100
AcDbEntity
  8
0
  6
Continuous
100
AcDbLine
 10
112.0724232770734
 20
128.6870487106278
 30
0.0
 11
112.0337317585878
 21
128.6815909649472
 31
0.0
  0
LINE
  5
2D6
330
E3
100
AcDbEntity
  8
0
  6
Continuous
100
AcDbLine
 10
112.0337317585878
 20
128.6815909649472
 30
0.0
 11
111.9934339591315
 21
128.6761368288868
 31
0.0
  0
LINE
  5
2D7
330
E3
100
AcDbEntity
  8
0
  6
Continuous
100
AcDbLine
 10
111.9934339591315
 20
128.6761368288868
 30
0.0
 11
111.9518330867977
 21
128.6706790832062
 31
0.0
  0
LINE
  5
2D8
330
E3
100
AcDbEntity
  8
0
  6
Continuous
100
AcDbLine
 10
111.9518330867977
 20
128.6706790832062
 30
0.0
 11
111.9092467881605
 21
128.6652213375256
 31
0.0
  0
LINE
  5
2D9
330
E3
100
AcDbEntity
  8
0
  6
Continuous
100
AcDbLine
 10
111.9092467881605
 20
128.6652213375256
 30
0.0
 11
111.8659999290341
 21
128.6597672014652
 31
0.0
  0
LINE
  5
2DA
330
E3
100
AcDbEntity
  8
0
  6
Continuous
100
AcDbLine
 10
111.8659999290341
 20
128.6597672014652
 30
0.0
 11
111.8224245944733
 21
128.6543094557846
 31
0.0
  0
LINE
  5
2DB
330
E3
100
AcDbEntity
  8
0
  6
Continuous
100
AcDbLine
 10
111.8224245944733
 20
128.6543094557846
 30
0.0
 11
111.7788456502923
 21
128.6488553197242
 31
0.0
  0
LINE
  5
2DC
330
E3
100
AcDbEntity
  8
0
  6
Continuous
100
AcDbLine
 10
111.7788456502923
 20
128.6488553197242
 30
0.0
 11
111.735598791166
 21
128.6433975740436
 31
0.0
  0
LINE
  5
2DD
330
E3
100
AcDbEntity
  8
0
  6
Continuous
100
AcDbLine
 10
111.735598791166
 20
128.6433975740436
 30
0.0
 11
111.6930124925287
 21
128.637939828363
 31
0.0
  0
LINE
  5
2DE
330
E3
100
AcDbEntity
  8
0
  6
Continuous
100
AcDbLine
 10
111.6930124925287
 20
128.637939828363
 30
0.0
 11
111.6514116201949
 21
128.6324856923026
 31
0.0
  0
LINE
  5
2DF
330
E3
100
AcDbEntity
  8
0
  6
Continuous
100
AcDbLine
 10
111.6514116201949
 20
128.6324856923026
 30
0.0
 11
111.6111138207386
 21
128.6270279466221
 31
0.0
  0
LINE
  5
2E0
330
E3
100
AcDbEntity
  8
0
  6
Continuous
100
AcDbLine
 10
111.6111138207386
 20
128.6270279466221
 30
0.0
 11
111.5724223022531
 21
128.6215702009414
 31
0.0
  0
LINE
  5
2E1
330
E3
100
AcDbEntity
  8
0
  6
Continuous
100
AcDbLine
 10
111.5724223022531
 20
128.6215702009414
 30
0.0
 11
111.5356366632115
 21
128.6161160648811
 31
0.0
  0
LINE
  5
2E2
330
E3
100
AcDbEntity
  8
0
  6
Continuous
100
AcDbLine
 10
111.5356366632115
 20
128.6161160648811
 30
0.0
 11
111.5010312347461
 21
128.6106583192005
 31
0.0
  0
LINE
  5
2E3
330
E3
100
AcDbEntity
  8
0
  6
Continuous
100
AcDbLine
 10
111.5010312347461
 20
128.6106583192005
 30
0.0
 11
111.4688695191284
 21
128.60520418314
 31
0.0
  0
LINE
  5
2E4
330
E3
100
AcDbEntity
  8
0
  6
Continuous
100
AcDbLine
 10
111.4688695191284
 20
128.60520418314
 30
0.0
 11
111.4394005801494
 21
128.5997464374595
 31
0.0
  0
LINE
  5
2E5
330
E3
100
AcDbEntity
  8
0
  6
Continuous
100
AcDbLine
 10
111.4394005801494
 20
128.5997464374595
 30
0.0
 11
111.4128482142589
 21
128.5942886917789
 31
0.0
  0
LINE
  5
2E6
330
E3
100
AcDbEntity
  8
0
  6
Continuous
100
AcDbLine
 10
111.4128482142589
 20
128.5942886917789
 30
0.0
 11
111.3894109505658
 21
128.5888345557184
 31
0.0
  0
LINE
  5
2E7
330
E3
100
AcDbEntity
  8
0
  6
Continuous
100
AcDbLine
 10
111.3894109505658
 20
128.5888345557184
 30
0.0
 11
111.369269270078
 21
128.5833768100379
 31
0.0
  0
LINE
  5
2E8
330
E3
100
AcDbEntity
  8
0
  6
Continuous
100
AcDbLine
 10
111.369269270078
 20
128.5833768100379
 30
0.0
 11
111.3525783864622
 21
128.5779226739775
 31
0.0
  0
LINE
  5
2E9
330
E3
100
AcDbEntity
  8
0
  6
Continuous
100
AcDbLine
 10
111.3525783864622
 20
128.5779226739775
 30
0.0
 11
111.339461026804
 21
128.5724649282969
 31
0.0
  0
LINE
  5
2EA
330
E3
100
AcDbEntity
  8
0
  6
Continuous
100
AcDbLine
 10
111.339461026804
 20
128.5724649282969
 30
0.0
 11
111.3300182604678
 21
128.5670071826163
 31
0.0
  0
LINE
  5
2EB
330
E3
100
AcDbEntity
  8
0
  6
Continuous
100
AcDbLine
 10
111.3300182604678
 20
128.5670071826163
 30
0.0
 11
111.3243260449649
 21
128.5615521386188
 31
0.0
  0
LINE
  5
2EC
330
E3
100
AcDbEntity
  8
0
  6
Continuous
100
AcDbLine
 10
111.3243260449649
 20
128.5615521386188
 30
0.0
 11
111.3224233940108
 21
128.5560957894124
 31
0.0
  0
LINE
  5
2ED
330
E3
100
AcDbEntity
  8
0
  6
Continuous
100
AcDbLine
 10
112.3224233940108
 20
128.3596672179838
 30
0.0
 11
112.3205207430567
 21
128.3542108687775
 31
0.0
  0
LINE
  5
2EE
330
E3
100
AcDbEntity
  8
0
  6
Continuous
100
AcDbLine
 10
112.3205207430567
 20
128.3542108687775
 30
0.0
 11
112.3148272705169
 21
128.3487545195711
 31
0.0
  0
LINE
  5
2EF
330
E3
100
AcDbEntity
  8
0
  6
Continuous
100
AcDbLine
 10
112.3148272705169
 20
128.3487545195711
 30
0.0
 11
112.3053845525224
 21
128.343297363635
 31
0.0
  0
LINE
  5
2F0
330
E3
100
AcDbEntity
  8
0
  6
Continuous
100
AcDbLine
 10
112.3053845525224
 20
128.343297363635
 30
0.0
 11
112.2922708024844
 21
128.3378432275746
 31
0.0
  0
LINE
  5
2F1
330
E3
100
AcDbEntity
  8
0
  6
Continuous
100
AcDbLine
 10
112.2922708024844
 20
128.3378432275746
 30
0.0
 11
112.2755763092485
 21
128.3323854818941
 31
0.0
  0
LINE
  5
2F2
330
E3
100
AcDbEntity
  8
0
  6
Continuous
100
AcDbLine
 10
112.2755763092485
 20
128.3323854818941
 30
0.0
 11
112.2554346287606
 21
128.3269277362135
 31
0.0
  0
LINE
  5
2F3
330
E3
100
AcDbEntity
  8
0
  6
Continuous
100
AcDbLine
 10
112.2554346287606
 20
128.3269277362135
 30
0.0
 11
112.2320009746876
 21
128.3214736001531
 31
0.0
  0
LINE
  5
2F4
330
E3
100
AcDbEntity
  8
0
  6
Continuous
100
AcDbLine
 10
112.2320009746876
 20
128.3214736001531
 30
0.0
 11
112.205444999177
 21
128.3160158544725
 31
0.0
  0
LINE
  5
2F5
330
E3
100
AcDbEntity
  8
0
  6
Continuous
100
AcDbLine
 10
112.205444999177
 20
128.3160158544725
 30
0.0
 11
112.175976060198
 21
128.310561718412
 31
0.0
  0
LINE
  5
2F6
330
E3
100
AcDbEntity
  8
0
  6
Continuous
100
AcDbLine
 10
112.175976060198
 20
128.310561718412
 30
0.0
 11
112.1438179542005
 21
128.3051039727314
 31
0.0
  0
LINE
  5
2F7
330
E3
100
AcDbEntity
  8
0
  6
Continuous
100
AcDbLine
 10
112.1438179542005
 20
128.3051039727314
 30
0.0
 11
112.1092125257351
 21
128.2996462270509
 31
0.0
  0
LINE
  5
2F8
330
E3
100
AcDbEntity
  8
0
  6
Continuous
100
AcDbLine
 10
112.1092125257351
 20
128.2996462270509
 30
0.0
 11
112.0724232770734
 21
128.2941920909905
 31
0.0
  0
LINE
  5
2F9
330
E3
100
AcDbEntity
  8
0
  6
Continuous
100
AcDbLine
 10
112.0724232770734
 20
128.2941920909905
 30
0.0
 11
112.0337317585878
 21
128.2887343453099
 31
0.0
  0
LINE
  5
2FA
330
E3
100
AcDbEntity
  8
0
  6
Continuous
100
AcDbLine
 10
112.0337317585878
 20
128.2887343453099
 30
0.0
 11
111.9934339591315
 21
128.2832765996293
 31
0.0
  0
LINE
  5
2FB
330
E3
100
AcDbEntity
  8
0
  6
Continuous
100
AcDbLine
 10
111.9934339591315
 20
128.2832765996293
 30
0.0
 11
111.9518330867977
 21
128.2778224635689
 31
0.0
  0
LINE
  5
2FC
330
E3
100
AcDbEntity
  8
0
  6
Continuous
100
AcDbLine
 10
111.9518330867977
 20
128.2778224635689
 30
0.0
 11
111.9092467881605
 21
128.2723647178883
 31
0.0
  0
LINE
  5
2FD
330
E3
100
AcDbEntity
  8
0
  6
Continuous
100
AcDbLine
 10
111.9092467881605
 20
128.2723647178883
 30
0.0
 11
111.8659999290341
 21
128.2669105818279
 31
0.0
  0
LINE
  5
2FE
330
E3
100
AcDbEntity
  8
0
  6
Continuous
100
AcDbLine
 10
111.8659999290341
 20
128.2669105818279
 30
0.0
 11
111.8224245944733
 21
128.2614528361473
 31
0.0
  0
LINE
  5
2FF
330
E3
100
AcDbEntity
  8
0
  6
Continuous
100
AcDbLine
 10
111.8224245944733
 20
128.2614528361473
 30
0.0
 11
111.7788456502923
 21
128.2559950904667
 31
0.0
  0
LINE
  5
300
330
E3
100
AcDbEntity
  8
0
  6
Continuous
100
AcDbLine
 10
111.7788456502923
 20
128.2559950904667
 30
0.0
 11
111.735598791166
 21
128.2505409544063
 31
0.0
  0
LINE
  5
301
330
E3
100
AcDbEntity
  8
0
  6
Continuous
100
AcDbLine
 10
111.735598791166
 20
128.2505409544063
 30
0.0
 11
111.6930124925287
 21
128.2450832087257
 31
0.0
  0
LINE
  5
302
330
E3
100
AcDbEntity
  8
0
  6
Continuous
100
AcDbLine
 10
111.6930124925287
 20
128.2450832087257
 30
0.0
 11
111.6514116201949
 21
128.2396290726653
 31
0.0
  0
LINE
  5
303
330
E3
100
AcDbEntity
  8
0
  6
Continuous
100
AcDbLine
 10
111.6514116201949
 20
128.2396290726653
 30
0.0
 11
111.6111138207386
 21
128.2341713269847
 31
0.0
  0
LINE
  5
304
330
E3
100
AcDbEntity
  8
0
  6
Continuous
100
AcDbLine
 10
111.6111138207386
 20
128.2341713269847
 30
0.0
 11
111.5724223022531
 21
128.2287135813041
 31
0.0
  0
LINE
  5
305
330
E3
100
AcDbEntity
  8
0
  6
Continuous
100
AcDbLine
 10
111.5724223022531
 20
128.2287135813041
 30
0.0
 11
111.5356366632115
 21
128.2232594452437
 31
0.0
  0
LINE
  5
306
330
E3
100
AcDbEntity
  8
0
  6
Continuous
100
AcDbLine
 10
111.5356366632115
 20
128.2232594452437
 30
0.0
 11
111.5010312347461
 21
128.2178016995631
 31
0.0
  0
LINE
  5
307
330
E3
100
AcDbEntity
  8
0
  6
Continuous
100
AcDbLine
 10
111.5010312347461
 20
128.2178016995631
 30
0.0
 11
111.4688695191284
 21
128.2123475635027
 31
0.0
  0
LINE
  5
308
330
E3
100
AcDbEntity
  8
0
  6
Continuous
100
AcDbLine
 10
111.4688695191284
 20
128.2123475635027
 30
0.0
 11
111.4394005801494
 21
128.2068898178221
 31
0.0
  0
LINE
  5
309
330
E3
100
AcDbEntity
  8
0
  6
Continuous
100
AcDbLine
 10
111.4394005801494
 20
128.2068898178221
 30
0.0
 11
111.4128482142589
 21
128.2014320721416
 31
0.0
  0
LINE
  5
30A
330
E3
100
AcDbEntity
  8
0
  6
Continuous
100
AcDbLine
 10
111.4128482142589
 20
128.2014320721416
 30
0.0
 11
111.3894109505658
 21
128.1959779360811
 31
0.0
  0
LINE
  5
30B
330
E3
100
AcDbEntity
  8
0
  6
Continuous
100
AcDbLine
 10
111.3894109505658
 20
128.1959779360811
 30
0.0
 11
111.369269270078
 21
128.1905201904005
 31
0.0
  0
LINE
  5
30C
330
E3
100
AcDbEntity
  8
0
  6
Continuous
100
AcDbLine
 10
111.369269270078
 20
128.1905201904005
 30
0.0
 11
111.3525783864622
 21
128.1850624447199
 31
0.0
  0
LINE
  5
30D
330
E3
100
AcDbEntity
  8
0
  6
Continuous
100
AcDbLine
 10
111.3525783864622
 20
128.1850624447199
 30
0.0
 11
111.339461026804
 21
128.1796083086595
 31
0.0
  0
LINE
  5
30E
330
E3
100
AcDbEntity
  8
0
  6
Continuous
100
AcDbLine
 10
111.339461026804
 20
128.1796083086595
 30
0.0
 11
111.3300182604678
 21
128.174150562979
 31
0.0
  0
LINE
  5
30F
330
E3
100
AcDbEntity
  8
0
  6
Continuous
100
AcDbLine
 10
111.3300182604678
 20
128.174150562979
 30
0.0
 11
111.3243260449649
 21
128.1686949957616
 31
0.0
  0
LINE
  5
310
330
E3
100
AcDbEntity
  8
0
  6
Continuous
100
AcDbLine
 10
111.3243260449649
 20
128.1686949957616
 30
0.0
 11
111.3224233940108
 21
128.1632386465553
 31
0.0
  0
LINE
  5
311
330
E3
100
AcDbEntity
  8
0
  6
Continuous
100
AcDbLine
 10
112.3224233940108
 20
127.9668100751267
 30
0.0
 11
112.3205207430567
 21
127.9613537259203
 31
0.0
  0
LINE
  5
312
330
E3
100
AcDbEntity
  8
0
  6
Continuous
100
AcDbLine
 10
112.3205207430567
 20
127.9613537259203
 30
0.0
 11
112.3148272705169
 21
127.955897376714
 31
0.0
  0
LINE
  5
313
330
E3
100
AcDbEntity
  8
0
  6
Continuous
100
AcDbLine
 10
112.3148272705169
 20
127.955897376714
 30
0.0
 11
112.3053845525224
 21
127.9504407439977
 31
0.0
  0
LINE
  5
314
330
E3
100
AcDbEntity
  8
0
  6
Continuous
100
AcDbLine
 10
112.3053845525224
 20
127.9504407439977
 30
0.0
 11
112.2922708024844
 21
127.9449829983171
 31
0.0
  0
LINE
  5
315
330
E3
100
AcDbEntity
  8
0
  6
Continuous
100
AcDbLine
 10
112.2922708024844
 20
127.9449829983171
 30
0.0
 11
112.2755763092485
 21
127.9395288622567
 31
0.0
  0
LINE
  5
316
330
E3
100
AcDbEntity
  8
0
  6
Continuous
100
AcDbLine
 10
112.2755763092485
 20
127.9395288622567
 30
0.0
 11
112.2554346287606
 21
127.9340711165761
 31
0.0
  0
LINE
  5
317
330
E3
100
AcDbEntity
  8
0
  6
Continuous
100
AcDbLine
 10
112.2554346287606
 20
127.9340711165761
 30
0.0
 11
112.2320009746876
 21
127.9286169805157
 31
0.0
  0
LINE
  5
318
330
E3
100
AcDbEntity
  8
0
  6
Continuous
100
AcDbLine
 10
112.2320009746876
 20
127.9286169805157
 30
0.0
 11
112.205444999177
 21
127.9231592348351
 31
0.0
  0
LINE
  5
319
330
E3
100
AcDbEntity
  8
0
  6
Continuous
100
AcDbLine
 10
112.205444999177
 20
127.9231592348351
 30
0.0
 11
112.175976060198
 21
127.9177014891545
 31
0.0
  0
LINE
  5
31A
330
E3
100
AcDbEntity
  8
0
  6
Continuous
100
AcDbLine
 10
112.175976060198
 20
127.9177014891545
 30
0.0
 11
112.1438179542005
 21
127.9122473530941
 31
0.0
  0
LINE
  5
31B
330
E3
100
AcDbEntity
  8
0
  6
Continuous
100
AcDbLine
 10
112.1438179542005
 20
127.9122473530941
 30
0.0
 11
112.1092125257351
 21
127.9067896074135
 31
0.0
  0
LINE
  5
31C
330
E3
100
AcDbEntity
  8
0
  6
Continuous
100
AcDbLine
 10
112.1092125257351
 20
127.9067896074135
 30
0.0
 11
112.0724232770734
 21
127.9013354713531
 31
0.0
  0
LINE
  5
31D
330
E3
100
AcDbEntity
  8
0
  6
Continuous
100
AcDbLine
 10
112.0724232770734
 20
127.9013354713531
 30
0.0
 11
112.0337317585878
 21
127.8958777256726
 31
0.0
  0
LINE
  5
31E
330
E3
100
AcDbEntity
  8
0
  6
Continuous
100
AcDbLine
 10
112.0337317585878
 20
127.8958777256726
 30
0.0
 11
111.9934339591315
 21
127.8904199799919
 31
0.0
  0
LINE
  5
31F
330
E3
100
AcDbEntity
  8
0
  6
Continuous
100
AcDbLine
 10
111.9934339591315
 20
127.8904199799919
 30
0.0
 11
111.9518330867977
 21
127.8849658439316
 31
0.0
  0
LINE
  5
320
330
E3
100
AcDbEntity
  8
0
  6
Continuous
100
AcDbLine
 10
111.9518330867977
 20
127.8849658439316
 30
0.0
 11
111.9092467881605
 21
127.8795080982509
 31
0.0
  0
LINE
  5
321
330
E3
100
AcDbEntity
  8
0
  6
Continuous
100
AcDbLine
 10
111.9092467881605
 20
127.8795080982509
 30
0.0
 11
111.8659999290341
 21
127.8740503525704
 31
0.0
  0
LINE
  5
322
330
E3
100
AcDbEntity
  8
0
  6
Continuous
100
AcDbLine
 10
111.8659999290341
 20
127.8740503525704
 30
0.0
 11
111.8224245944733
 21
127.86859621651
 31
0.0
  0
LINE
  5
323
330
E3
100
AcDbEntity
  8
0
  6
Continuous
100
AcDbLine
 10
111.8224245944733
 20
127.86859621651
 30
0.0
 11
111.7788456502923
 21
127.8631384708294
 31
0.0
  0
LINE
  5
324
330
E3
100
AcDbEntity
  8
0
  6
Continuous
100
AcDbLine
 10
111.7788456502923
 20
127.8631384708294
 30
0.0
 11
111.735598791166
 21
127.857684334769
 31
0.0
  0
LINE
  5
325
330
E3
100
AcDbEntity
  8
0
  6
Continuous
100
AcDbLine
 10
111.735598791166
 20
127.857684334769
 30
0.0
 11
111.6930124925287
 21
127.8522265890884
 31
0.0
  0
LINE
  5
326
330
E3
100
AcDbEntity
  8
0
  6
Continuous
100
AcDbLine
 10
111.6930124925287
 20
127.8522265890884
 30
0.0
 11
111.6514116201949
 21
127.8467688434078
 31
0.0
  0
LINE
  5
327
330
E3
100
AcDbEntity
  8
0
  6
Continuous
100
AcDbLine
 10
111.6514116201949
 20
127.8467688434078
 30
0.0
 11
111.6111138207386
 21
127.8413147073474
 31
0.0
  0
LINE
  5
328
330
E3
100
AcDbEntity
  8
0
  6
Continuous
100
AcDbLine
 10
111.6111138207386
 20
127.8413147073474
 30
0.0
 11
111.5724223022531
 21
127.8358569616668
 31
0.0
  0
LINE
  5
329
330
E3
100
AcDbEntity
  8
0
  6
Continuous
100
AcDbLine
 10
111.5724223022531
 20
127.8358569616668
 30
0.0
 11
111.5356366632115
 21
127.8304028256064
 31
0.0
  0
LINE
  5
32A
330
E3
100
AcDbEntity
  8
0
  6
Continuous
100
AcDbLine
 10
111.5356366632115
 20
127.8304028256064
 30
0.0
 11
111.5010312347461
 21
127.8249450799258
 31
0.0
  0
LINE
  5
32B
330
E3
100
AcDbEntity
  8
0
  6
Continuous
100
AcDbLine
 10
111.5010312347461
 20
127.8249450799258
 30
0.0
 11
111.4688695191284
 21
127.8194873342452
 31
0.0
  0
LINE
  5
32C
330
E3
100
AcDbEntity
  8
0
  6
Continuous
100
AcDbLine
 10
111.4688695191284
 20
127.8194873342452
 30
0.0
 11
111.4394005801494
 21
127.8140331981848
 31
0.0
  0
LINE
  5
32D
330
E3
100
AcDbEntity
  8
0
  6
Continuous
100
AcDbLine
 10
111.4394005801494
 20
127.8140331981848
 30
0.0
 11
111.4128482142589
 21
127.8085754525042
 31
0.0
  0
LINE
  5
32E
330
E3
100
AcDbEntity
  8
0
  6
Continuous
100
AcDbLine
 10
111.4128482142589
 20
127.8085754525042
 30
0.0
 11
111.3894109505658
 21
127.8031213164438
 31
0.0
  0
LINE
  5
32F
330
E3
100
AcDbEntity
  8
0
  6
Continuous
100
AcDbLine
 10
111.3894109505658
 20
127.8031213164438
 30
0.0
 11
111.369269270078
 21
127.7976635707632
 31
0.0
  0
LINE
  5
330
330
E3
100
AcDbEntity
  8
0
  6
Continuous
100
AcDbLine
 10
111.369269270078
 20
127.7976635707632
 30
0.0
 11
111.3525783864622
 21
127.7922058250826
 31
0.0
  0
LINE
  5
331
330
E3
100
AcDbEntity
  8
0
  6
Continuous
100
AcDbLine
 10
111.3525783864622
 20
127.7922058250826
 30
0.0
 11
111.339461026804
 21
127.7867516890222
 31
0.0
  0
LINE
  5
332
330
E3
100
AcDbEntity
  8
0
  6
Continuous
100
AcDbLine
 10
111.339461026804
 20
127.7867516890222
 30
0.0
 11
111.3300182604678
 21
127.7812939433417
 31
0.0
  0
LINE
  5
333
330
E3
100
AcDbEntity
  8
0
  6
Continuous
100
AcDbLine
 10
111.3300182604678
 20
127.7812939433417
 30
0.0
 11
111.3243260449649
 21
127.7758378529045
 31
0.0
  0
LINE
  5
334
330
E3
100
AcDbEntity
  8
0
  6
Continuous
100
AcDbLine
 10
111.3243260449649
 20
127.7758378529045
 30
0.0
 11
111.3224233940108
 21
127.7703815036981
 31
0.0
  0
LINE
  5
335
330
E3
100
AcDbEntity
  8
0
  6
Continuous
100
AcDbLine
 10
112.3224233940108
 20
127.5739529322696
 30
0.0
 11
112.3205207430567
 21
127.5684965830632
 31
0.0
  0
LINE
  5
336
330
E3
100
AcDbEntity
  8
0
  6
Continuous
100
AcDbLine
 10
112.3205207430567
 20
127.5684965830632
 30
0.0
 11
112.3148272705169
 21
127.5630402338568
 31
0.0
  0
LINE
  5
337
330
E3
100
AcDbEntity
  8
0
  6
Continuous
100
AcDbLine
 10
112.3148272705169
 20
127.5630402338568
 30
0.0
 11
112.3053845525224
 21
127.5575841243604
 31
0.0
  0
LINE
  5
338
330
E3
100
AcDbEntity
  8
0
  6
Continuous
100
AcDbLine
 10
112.3053845525224
 20
127.5575841243604
 30
0.0
 11
112.2922708024844
 21
127.5521263786798
 31
0.0
  0
LINE
  5
339
330
E3
100
AcDbEntity
  8
0
  6
Continuous
100
AcDbLine
 10
112.2922708024844
 20
127.5521263786798
 30
0.0
 11
112.2755763092485
 21
127.5466722426194
 31
0.0
  0
LINE
  5
33A
330
E3
100
AcDbEntity
  8
0
  6
Continuous
100
AcDbLine
 10
112.2755763092485
 20
127.5466722426194
 30
0.0
 11
112.2554346287606
 21
127.5412144969388
 31
0.0
  0
LINE
  5
33B
330
E3
100
AcDbEntity
  8
0
  6
Continuous
100
AcDbLine
 10
112.2554346287606
 20
127.5412144969388
 30
0.0
 11
112.2320009746876
 21
127.5357567512582
 31
0.0
  0
LINE
  5
33C
330
E3
100
AcDbEntity
  8
0
  6
Continuous
100
AcDbLine
 10
112.2320009746876
 20
127.5357567512582
 30
0.0
 11
112.205444999177
 21
127.5303026151978
 31
0.0
  0
LINE
  5
33D
330
E3
100
AcDbEntity
  8
0
  6
Continuous
100
AcDbLine
 10
112.205444999177
 20
127.5303026151978
 30
0.0
 11
112.175976060198
 21
127.5248448695172
 31
0.0
  0
LINE
  5
33E
330
E3
100
AcDbEntity
  8
0
  6
Continuous
100
AcDbLine
 10
112.175976060198
 20
127.5248448695172
 30
0.0
 11
112.1438179542005
 21
127.5193907334568
 31
0.0
  0
LINE
  5
33F
330
E3
100
AcDbEntity
  8
0
  6
Continuous
100
AcDbLine
 10
112.1438179542005
 20
127.5193907334568
 30
0.0
 11
112.1092125257351
 21
127.5139329877762
 31
0.0
  0
LINE
  5
340
330
E3
100
AcDbEntity
  8
0
  6
Continuous
100
AcDbLine
 10
112.1092125257351
 20
127.5139329877762
 30
0.0
 11
112.0724232770734
 21
127.5084752420956
 31
0.0
  0
LINE
  5
341
330
E3
100
AcDbEntity
  8
0
  6
Continuous
100
AcDbLine
 10
112.0724232770734
 20
127.5084752420956
 30
0.0
 11
112.0337317585878
 21
127.5030211060352
 31
0.0
  0
LINE
  5
342
330
E3
100
AcDbEntity
  8
0
  6
Continuous
100
AcDbLine
 10
112.0337317585878
 20
127.5030211060352
 30
0.0
 11
111.9934339591315
 21
127.4975633603546
 31
0.0
  0
LINE
  5
343
330
E3
100
AcDbEntity
  8
0
  6
Continuous
100
AcDbLine
 10
111.9934339591315
 20
127.4975633603546
 30
0.0
 11
111.9518330867977
 21
127.4921092242942
 31
0.0
  0
LINE
  5
344
330
E3
100
AcDbEntity
  8
0
  6
Continuous
100
AcDbLine
 10
111.9518330867977
 20
127.4921092242942
 30
0.0
 11
111.9092467881605
 21
127.4866514786136
 31
0.0
  0
LINE
  5
345
330
E3
100
AcDbEntity
  8
0
  6
Continuous
100
AcDbLine
 10
111.9092467881605
 20
127.4866514786136
 30
0.0
 11
111.8659999290341
 21
127.481193732933
 31
0.0
  0
LINE
  5
346
330
E3
100
AcDbEntity
  8
0
  6
Continuous
100
AcDbLine
 10
111.8659999290341
 20
127.481193732933
 30
0.0
 11
111.8224245944733
 21
127.4757395968726
 31
0.0
  0
LINE
  5
347
330
E3
100
AcDbEntity
  8
0
  6
Continuous
100
AcDbLine
 10
111.8224245944733
 20
127.4757395968726
 30
0.0
 11
111.7788456502923
 21
127.4702818511921
 31
0.0
  0
LINE
  5
348
330
E3
100
AcDbEntity
  8
0
  6
Continuous
100
AcDbLine
 10
111.7788456502923
 20
127.4702818511921
 30
0.0
 11
111.735598791166
 21
127.4648277151316
 31
0.0
  0
LINE
  5
349
330
E3
100
AcDbEntity
  8
0
  6
Continuous
100
AcDbLine
 10
111.735598791166
 20
127.4648277151316
 30
0.0
 11
111.6930124925287
 21
127.459369969451
 31
0.0
  0
LINE
  5
34A
330
E3
100
AcDbEntity
  8
0
  6
Continuous
100
AcDbLine
 10
111.6930124925287
 20
127.459369969451
 30
0.0
 11
111.6514116201949
 21
127.4539122237704
 31
0.0
  0
LINE
  5
34B
330
E3
100
AcDbEntity
  8
0
  6
Continuous
100
AcDbLine
 10
111.6514116201949
 20
127.4539122237704
 30
0.0
 11
111.6111138207386
 21
127.4484580877101
 31
0.0
  0
LINE
  5
34C
330
E3
100
AcDbEntity
  8
0
  6
Continuous
100
AcDbLine
 10
111.6111138207386
 20
127.4484580877101
 30
0.0
 11
111.5724223022531
 21
127.4430003420295
 31
0.0
  0
LINE
  5
34D
330
E3
100
AcDbEntity
  8
0
  6
Continuous
100
AcDbLine
 10
111.5724223022531
 20
127.4430003420295
 30
0.0
 11
111.5356366632115
 21
127.4375425963489
 31
0.0
  0
LINE
  5
34E
330
E3
100
AcDbEntity
  8
0
  6
Continuous
100
AcDbLine
 10
111.5356366632115
 20
127.4375425963489
 30
0.0
 11
111.5010312347461
 21
127.4320884602885
 31
0.0
  0
LINE
  5
34F
330
E3
100
AcDbEntity
  8
0
  6
Continuous
100
AcDbLine
 10
111.5010312347461
 20
127.4320884602885
 30
0.0
 11
111.4688695191284
 21
127.4266307146079
 31
0.0
  0
LINE
  5
350
330
E3
100
AcDbEntity
  8
0
  6
Continuous
100
AcDbLine
 10
111.4688695191284
 20
127.4266307146079
 30
0.0
 11
111.4394005801494
 21
127.4211765785475
 31
0.0
  0
LINE
  5
351
330
E3
100
AcDbEntity
  8
0
  6
Continuous
100
AcDbLine
 10
111.4394005801494
 20
127.4211765785475
 30
0.0
 11
111.4128482142589
 21
127.4157188328669
 31
0.0
  0
LINE
  5
352
330
E3
100
AcDbEntity
  8
0
  6
Continuous
100
AcDbLine
 10
111.4128482142589
 20
127.4157188328669
 30
0.0
 11
111.3894109505658
 21
127.4102610871863
 31
0.0
  0
LINE
  5
353
330
E3
100
AcDbEntity
  8
0
  6
Continuous
100
AcDbLine
 10
111.3894109505658
 20
127.4102610871863
 30
0.0
 11
111.369269270078
 21
127.4048069511259
 31
0.0
  0
LINE
  5
354
330
E3
100
AcDbEntity
  8
0
  6
Continuous
100
AcDbLine
 10
111.369269270078
 20
127.4048069511259
 30
0.0
 11
111.3525783864622
 21
127.3993492054453
 31
0.0
  0
LINE
  5
355
330
E3
100
AcDbEntity
  8
0
  6
Continuous
100
AcDbLine
 10
111.3525783864622
 20
127.3993492054453
 30
0.0
 11
111.339461026804
 21
127.3938950693849
 31
0.0
  0
LINE
  5
356
330
E3
100
AcDbEntity
  8
0
  6
Continuous
100
AcDbLine
 10
111.339461026804
 20
127.3938950693849
 30
0.0
 11
111.3300182604678
 21
127.3884373237043
 31
0.0
  0
LINE
  5
357
330
E3
100
AcDbEntity
  8
0
  6
Continuous
100
AcDbLine
 10
111.3300182604678
 20
127.3884373237043
 30
0.0
 11
111.3243260449649
 21
127.3829807100473
 31
0.0
  0
LINE
  5
358
330
E3
100
AcDbEntity
  8
0
  6
Continuous
100
AcDbLine
 10
111.3243260449649
 20
127.3829807100473
 30
0.0
 11
111.3224233940108
 21
127.377524360841
 31
0.0
  0
LINE
  5
359
330
E3
100
AcDbEntity
  8
0
  6
Continuous
100
AcDbLine
 10
112.3224233940108
 20
127.1810957894124
 30
0.0
 11
112.3205207430567
 21
127.175639440206
 31
0.0
  0
LINE
  5
35A
330
E3
100
AcDbEntity
  8
0
  6
Continuous
100
AcDbLine
 10
112.3205207430567
 20
127.175639440206
 30
0.0
 11
112.3148272705169
 21
127.1701830909997
 31
0.0
  0
LINE
  5
35B
330
E3
100
AcDbEntity
  8
0
  6
Continuous
100
AcDbLine
 10
112.3148272705169
 20
127.1701830909997
 30
0.0
 11
112.3053845525224
 21
127.164727504723
 31
0.0
  0
LINE
  5
35C
330
E3
100
AcDbEntity
  8
0
  6
Continuous
100
AcDbLine
 10
112.3053845525224
 20
127.164727504723
 30
0.0
 11
112.2922708024844
 21
127.1592697590425
 31
0.0
  0
LINE
  5
35D
330
E3
100
AcDbEntity
  8
0
  6
Continuous
100
AcDbLine
 10
112.2922708024844
 20
127.1592697590425
 30
0.0
 11
112.2755763092485
 21
127.153815622982
 31
0.0
  0
LINE
  5
35E
330
E3
100
AcDbEntity
  8
0
  6
Continuous
100
AcDbLine
 10
112.2755763092485
 20
127.153815622982
 30
0.0
 11
112.2554346287606
 21
127.1483578773015
 31
0.0
  0
LINE
  5
35F
330
E3
100
AcDbEntity
  8
0
  6
Continuous
100
AcDbLine
 10
112.2554346287606
 20
127.1483578773015
 30
0.0
 11
112.2320009746876
 21
127.1429001316209
 31
0.0
  0
LINE
  5
360
330
E3
100
AcDbEntity
  8
0
  6
Continuous
100
AcDbLine
 10
112.2320009746876
 20
127.1429001316209
 30
0.0
 11
112.205444999177
 21
127.1374459955605
 31
0.0
  0
LINE
  5
361
330
E3
100
AcDbEntity
  8
0
  6
Continuous
100
AcDbLine
 10
112.205444999177
 20
127.1374459955605
 30
0.0
 11
112.175976060198
 21
127.1319882498799
 31
0.0
  0
LINE
  5
362
330
E3
100
AcDbEntity
  8
0
  6
Continuous
100
AcDbLine
 10
112.175976060198
 20
127.1319882498799
 30
0.0
 11
112.1438179542005
 21
127.1265305041993
 31
0.0
  0
LINE
  5
363
330
E3
100
AcDbEntity
  8
0
  6
Continuous
100
AcDbLine
 10
112.1438179542005
 20
127.1265305041993
 30
0.0
 11
112.1092125257351
 21
127.1210763681389
 31
0.0
  0
LINE
  5
364
330
E3
100
AcDbEntity
  8
0
  6
Continuous
100
AcDbLine
 10
112.1092125257351
 20
127.1210763681389
 30
0.0
 11
112.0724232770734
 21
127.1156186224583
 31
0.0
  0
LINE
  5
365
330
E3
100
AcDbEntity
  8
0
  6
Continuous
100
AcDbLine
 10
112.0724232770734
 20
127.1156186224583
 30
0.0
 11
112.0337317585878
 21
127.1101644863979
 31
0.0
  0
LINE
  5
366
330
E3
100
AcDbEntity
  8
0
  6
Continuous
100
AcDbLine
 10
112.0337317585878
 20
127.1101644863979
 30
0.0
 11
111.9934339591315
 21
127.1047067407173
 31
0.0
  0
LINE
  5
367
330
E3
100
AcDbEntity
  8
0
  6
Continuous
100
AcDbLine
 10
111.9934339591315
 20
127.1047067407173
 30
0.0
 11
111.9518330867977
 21
127.0992489950367
 31
0.0
  0
LINE
  5
368
330
E3
100
AcDbEntity
  8
0
  6
Continuous
100
AcDbLine
 10
111.9518330867977
 20
127.0992489950367
 30
0.0
 11
111.9092467881605
 21
127.0937948589763
 31
0.0
  0
LINE
  5
369
330
E3
100
AcDbEntity
  8
0
  6
Continuous
100
AcDbLine
 10
111.9092467881605
 20
127.0937948589763
 30
0.0
 11
111.8659999290341
 21
127.0883371132957
 31
0.0
  0
LINE
  5
36A
330
E3
100
AcDbEntity
  8
0
  6
Continuous
100
AcDbLine
 10
111.8659999290341
 20
127.0883371132957
 30
0.0
 11
111.8224245944733
 21
127.0828829772353
 31
0.0
  0
LINE
  5
36B
330
E3
100
AcDbEntity
  8
0
  6
Continuous
100
AcDbLine
 10
111.8224245944733
 20
127.0828829772353
 30
0.0
 11
111.7788456502923
 21
127.0774252315547
 31
0.0
  0
LINE
  5
36C
330
E3
100
AcDbEntity
  8
0
  6
Continuous
100
AcDbLine
 10
111.7788456502923
 20
127.0774252315547
 30
0.0
 11
111.735598791166
 21
127.0719674858741
 31
0.0
  0
LINE
  5
36D
330
E3
100
AcDbEntity
  8
0
  6
Continuous
100
AcDbLine
 10
111.735598791166
 20
127.0719674858741
 30
0.0
 11
111.6930124925287
 21
127.0665133498137
 31
0.0
  0
LINE
  5
36E
330
E3
100
AcDbEntity
  8
0
  6
Continuous
100
AcDbLine
 10
111.6930124925287
 20
127.0665133498137
 30
0.0
 11
111.6514116201949
 21
127.0610556041331
 31
0.0
  0
LINE
  5
36F
330
E3
100
AcDbEntity
  8
0
  6
Continuous
100
AcDbLine
 10
111.6514116201949
 20
127.0610556041331
 30
0.0
 11
111.6111138207386
 21
127.0556014680727
 31
0.0
  0
LINE
  5
370
330
E3
100
AcDbEntity
  8
0
  6
Continuous
100
AcDbLine
 10
111.6111138207386
 20
127.0556014680727
 30
0.0
 11
111.5724223022531
 21
127.0501437223921
 31
0.0
  0
LINE
  5
371
330
E3
100
AcDbEntity
  8
0
  6
Continuous
100
AcDbLine
 10
111.5724223022531
 20
127.0501437223921
 30
0.0
 11
111.5356366632115
 21
127.0446859767115
 31
0.0
  0
LINE
  5
372
330
E3
100
AcDbEntity
  8
0
  6
Continuous
100
AcDbLine
 10
111.5356366632115
 20
127.0446859767115
 30
0.0
 11
111.5010312347461
 21
127.0392318406511
 31
0.0
  0
LINE
  5
373
330
E3
100
AcDbEntity
  8
0
  6
Continuous
100
AcDbLine
 10
111.5010312347461
 20
127.0392318406511
 30
0.0
 11
111.4688695191284
 21
127.0337740949706
 31
0.0
  0
LINE
  5
374
330
E3
100
AcDbEntity
  8
0
  6
Continuous
100
AcDbLine
 10
111.4688695191284
 20
127.0337740949706
 30
0.0
 11
111.4394005801494
 21
127.02831634929
 31
0.0
  0
LINE
  5
375
330
E3
100
AcDbEntity
  8
0
  6
Continuous
100
AcDbLine
 10
111.4394005801494
 20
127.02831634929
 30
0.0
 11
111.4128482142589
 21
127.0228622132295
 31
0.0
  0
LINE
  5
376
330
E3
100
AcDbEntity
  8
0
  6
Continuous
100
AcDbLine
 10
111.4128482142589
 20
127.0228622132295
 30
0.0
 11
111.3894109505658
 21
127.0174044675489
 31
0.0
  0
LINE
  5
377
330
E3
100
AcDbEntity
  8
0
  6
Continuous
100
AcDbLine
 10
111.3894109505658
 20
127.0174044675489
 30
0.0
 11
111.369269270078
 21
127.0119503314885
 31
0.0
  0
LINE
  5
378
330
E3
100
AcDbEntity
  8
0
  6
Continuous
100
AcDbLine
 10
111.369269270078
 20
127.0119503314885
 30
0.0
 11
111.3525783864622
 21
127.006492585808
 31
0.0
  0
LINE
  5
379
330
E3
100
AcDbEntity
  8
0
  6
Continuous
100
AcDbLine
 10
111.3525783864622
 20
127.006492585808
 30
0.0
 11
111.339461026804
 21
127.0010348401274
 31
0.0
  0
LINE
  5
37A
330
E3
100
AcDbEntity
  8
0
  6
Continuous
100
AcDbLine
 10
111.339461026804
 20
127.0010348401274
 30
0.0
 11
111.3300182604678
 21
126.995580704067
 31
0.0
  0
LINE
  5
37B
330
E3
100
AcDbEntity
  8
0
  6
Continuous
100
AcDbLine
 10
111.3300182604678
 20
126.995580704067
 30
0.0
 11
111.3243260449649
 21
126.9901235671902
 31
0.0
  0
LINE
  5
37C
330
E3
100
AcDbEntity
  8
0
  6
Continuous
100
AcDbLine
 10
111.3243260449649
 20
126.9901235671902
 30
0.0
 11
111.3224233940108
 21
126.9846672179839
 31
0.0
  0
LINE
  5
37D
330
E3
100
AcDbEntity
  8
0
  6
Continuous
100
AcDbLine
 10
112.3224233940108
 20
126.7882386465553
 30
0.0
 11
112.3205207430567
 21
126.7827822973489
 31
0.0
  0
LINE
  5
37E
330
E3
100
AcDbEntity
  8
0
  6
Continuous
100
AcDbLine
 10
112.3205207430567
 20
126.7827822973489
 30
0.0
 11
112.3148272705169
 21
126.7773259481426
 31
0.0
  0
LINE
  5
37F
330
E3
100
AcDbEntity
  8
0
  6
Continuous
100
AcDbLine
 10
112.3148272705169
 20
126.7773259481426
 30
0.0
 11
112.3053845525224
 21
126.7718708850857
 31
0.0
  0
LINE
  5
380
330
E3
100
AcDbEntity
  8
0
  6
Continuous
100
AcDbLine
 10
112.3053845525224
 20
126.7718708850857
 30
0.0
 11
112.2922708024844
 21
126.7664131394051
 31
0.0
  0
LINE
  5
381
330
E3
100
AcDbEntity
  8
0
  6
Continuous
100
AcDbLine
 10
112.2922708024844
 20
126.7664131394051
 30
0.0
 11
112.2755763092485
 21
126.7609553937246
 31
0.0
  0
LINE
  5
382
330
E3
100
AcDbEntity
  8
0
  6
Continuous
100
AcDbLine
 10
112.2755763092485
 20
126.7609553937246
 30
0.0
 11
112.2554346287606
 21
126.7555012576641
 31
0.0
  0
LINE
  5
383
330
E3
100
AcDbEntity
  8
0
  6
Continuous
100
AcDbLine
 10
112.2554346287606
 20
126.7555012576641
 30
0.0
 11
112.2320009746876
 21
126.7500435119835
 31
0.0
  0
LINE
  5
384
330
E3
100
AcDbEntity
  8
0
  6
Continuous
100
AcDbLine
 10
112.2320009746876
 20
126.7500435119835
 30
0.0
 11
112.205444999177
 21
126.7445893759231
 31
0.0
  0
LINE
  5
385
330
E3
100
AcDbEntity
  8
0
  6
Continuous
100
AcDbLine
 10
112.205444999177
 20
126.7445893759231
 30
0.0
 11
112.175976060198
 21
126.7391316302425
 31
0.0
  0
LINE
  5
386
330
E3
100
AcDbEntity
  8
0
  6
Continuous
100
AcDbLine
 10
112.175976060198
 20
126.7391316302425
 30
0.0
 11
112.1438179542005
 21
126.733673884562
 31
0.0
  0
LINE
  5
387
330
E3
100
AcDbEntity
  8
0
  6
Continuous
100
AcDbLine
 10
112.1438179542005
 20
126.733673884562
 30
0.0
 11
112.1092125257351
 21
126.7282197485015
 31
0.0
  0
LINE
  5
388
330
E3
100
AcDbEntity
  8
0
  6
Continuous
100
AcDbLine
 10
112.1092125257351
 20
126.7282197485015
 30
0.0
 11
112.0724232770734
 21
126.722762002821
 31
0.0
  0
LINE
  5
389
330
E3
100
AcDbEntity
  8
0
  6
Continuous
100
AcDbLine
 10
112.0724232770734
 20
126.722762002821
 30
0.0
 11
112.0337317585878
 21
126.7173078667605
 31
0.0
  0
LINE
  5
38A
330
E3
100
AcDbEntity
  8
0
  6
Continuous
100
AcDbLine
 10
112.0337317585878
 20
126.7173078667605
 30
0.0
 11
111.9934339591315
 21
126.7118501210799
 31
0.0
  0
LINE
  5
38B
330
E3
100
AcDbEntity
  8
0
  6
Continuous
100
AcDbLine
 10
111.9934339591315
 20
126.7118501210799
 30
0.0
 11
111.9518330867977
 21
126.7063923753994
 31
0.0
  0
LINE
  5
38C
330
E3
100
AcDbEntity
  8
0
  6
Continuous
100
AcDbLine
 10
111.9518330867977
 20
126.7063923753994
 30
0.0
 11
111.9092467881605
 21
126.700938239339
 31
0.0
  0
LINE
  5
38D
330
E3
100
AcDbEntity
  8
0
  6
Continuous
100
AcDbLine
 10
111.9092467881605
 20
126.700938239339
 30
0.0
 11
111.8659999290341
 21
126.6954804936584
 31
0.0
  0
LINE
  5
38E
330
E3
100
AcDbEntity
  8
0
  6
Continuous
100
AcDbLine
 10
111.8659999290341
 20
126.6954804936584
 30
0.0
 11
111.8224245944733
 21
126.6900227479778
 31
0.0
  0
LINE
  5
38F
330
E3
100
AcDbEntity
  8
0
  6
Continuous
100
AcDbLine
 10
111.8224245944733
 20
126.6900227479778
 30
0.0
 11
111.7788456502923
 21
126.6845686119174
 31
0.0
  0
LINE
  5
390
330
E3
100
AcDbEntity
  8
0
  6
Continuous
100
AcDbLine
 10
111.7788456502923
 20
126.6845686119174
 30
0.0
 11
111.735598791166
 21
126.6791108662368
 31
0.0
  0
LINE
  5
391
330
E3
100
AcDbEntity
  8
0
  6
Continuous
100
AcDbLine
 10
111.735598791166
 20
126.6791108662368
 30
0.0
 11
111.6930124925287
 21
126.6736567301764
 31
0.0
  0
LINE
  5
392
330
E3
100
AcDbEntity
  8
0
  6
Continuous
100
AcDbLine
 10
111.6930124925287
 20
126.6736567301764
 30
0.0
 11
111.6514116201949
 21
126.6681989844958
 31
0.0
  0
LINE
  5
393
330
E3
100
AcDbEntity
  8
0
  6
Continuous
100
AcDbLine
 10
111.6514116201949
 20
126.6681989844958
 30
0.0
 11
111.6111138207386
 21
126.6627412388152
 31
0.0
  0
LINE
  5
394
330
E3
100
AcDbEntity
  8
0
  6
Continuous
100
AcDbLine
 10
111.6111138207386
 20
126.6627412388152
 30
0.0
 11
111.5724223022531
 21
126.6572871027548
 31
0.0
  0
LINE
  5
395
330
E3
100
AcDbEntity
  8
0
  6
Continuous
100
AcDbLine
 10
111.5724223022531
 20
126.6572871027548
 30
0.0
 11
111.5356366632115
 21
126.6518293570742
 31
0.0
  0
LINE
  5
396
330
E3
100
AcDbEntity
  8
0
  6
Continuous
100
AcDbLine
 10
111.5356366632115
 20
126.6518293570742
 30
0.0
 11
111.5010312347461
 21
126.6463752210138
 31
0.0
  0
LINE
  5
397
330
E3
100
AcDbEntity
  8
0
  6
Continuous
100
AcDbLine
 10
111.5010312347461
 20
126.6463752210138
 30
0.0
 11
111.4688695191284
 21
126.6409174753332
 31
0.0
  0
LINE
  5
398
330
E3
100
AcDbEntity
  8
0
  6
Continuous
100
AcDbLine
 10
111.4688695191284
 20
126.6409174753332
 30
0.0
 11
111.4394005801494
 21
126.6354597296526
 31
0.0
  0
LINE
  5
399
330
E3
100
AcDbEntity
  8
0
  6
Continuous
100
AcDbLine
 10
111.4394005801494
 20
126.6354597296526
 30
0.0
 11
111.4128482142589
 21
126.6300055935922
 31
0.0
  0
LINE
  5
39A
330
E3
100
AcDbEntity
  8
0
  6
Continuous
100
AcDbLine
 10
111.4128482142589
 20
126.6300055935922
 30
0.0
 11
111.3894109505658
 21
126.6245478479116
 31
0.0
  0
LINE
  5
39B
330
E3
100
AcDbEntity
  8
0
  6
Continuous
100
AcDbLine
 10
111.3894109505658
 20
126.6245478479116
 30
0.0
 11
111.369269270078
 21
126.619090102231
 31
0.0
  0
LINE
  5
39C
330
E3
100
AcDbEntity
  8
0
  6
Continuous
100
AcDbLine
 10
111.369269270078
 20
126.619090102231
 30
0.0
 11
111.3525783864622
 21
126.6136359661706
 31
0.0
  0
LINE
  5
39D
330
E3
100
AcDbEntity
  8
0
  6
Continuous
100
AcDbLine
 10
111.3525783864622
 20
126.6136359661706
 30
0.0
 11
111.339461026804
 21
126.60817822049
 31
0.0
  0
LINE
  5
39E
330
E3
100
AcDbEntity
  8
0
  6
Continuous
100
AcDbLine
 10
111.339461026804
 20
126.60817822049
 30
0.0
 11
111.3300182604678
 21
126.6027240844296
 31
0.0
  0
LINE
  5
39F
330
E3
100
AcDbEntity
  8
0
  6
Continuous
100
AcDbLine
 10
111.3300182604678
 20
126.6027240844296
 30
0.0
 11
111.3243260449649
 21
126.5972664243331
 31
0.0
  0
LINE
  5
3A0
330
E3
100
AcDbEntity
  8
0
  6
Continuous
100
AcDbLine
 10
111.3243260449649
 20
126.5972664243331
 30
0.0
 11
111.3224233940108
 21
126.5918100751267
 31
0.0
  0
LINE
  5
3A1
330
E3
100
AcDbEntity
  8
0
  6
Continuous
100
AcDbLine
 10
112.3224233940108
 20
126.3953815036981
 30
0.0
 11
112.3205207430567
 21
126.3899251544918
 31
0.0
  0
LINE
  5
3A2
330
E3
100
AcDbEntity
  8
0
  6
Continuous
100
AcDbLine
 10
112.3205207430567
 20
126.3899251544918
 30
0.0
 11
112.3148272705169
 21
126.3844688052854
 31
0.0
  0
LINE
  5
3A3
330
E3
100
AcDbEntity
  8
0
  6
Continuous
100
AcDbLine
 10
112.3148272705169
 20
126.3844688052854
 30
0.0
 11
112.3053845525224
 21
126.3790106558282
 31
0.0
  0
LINE
  5
3A4
330
E3
100
AcDbEntity
  8
0
  6
Continuous
100
AcDbLine
 10
112.3053845525224
 20
126.3790106558282
 30
0.0
 11
112.2922708024844
 21
126.3735565197678
 31
0.0
  0
LINE
  5
3A5
330
E3
100
AcDbEntity
  8
0
  6
Continuous
100
AcDbLine
 10
112.2922708024844
 20
126.3735565197678
 30
0.0
 11
112.2755763092485
 21
126.3680987740872
 31
0.0
  0
LINE
  5
3A6
330
E3
100
AcDbEntity
  8
0
  6
Continuous
100
AcDbLine
 10
112.2755763092485
 20
126.3680987740872
 30
0.0
 11
112.2554346287606
 21
126.3626446380268
 31
0.0
  0
LINE
  5
3A7
330
E3
100
AcDbEntity
  8
0
  6
Continuous
100
AcDbLine
 10
112.2554346287606
 20
126.3626446380268
 30
0.0
 11
112.2320009746876
 21
126.3571868923462
 31
0.0
  0
LINE
  5
3A8
330
E3
100
AcDbEntity
  8
0
  6
Continuous
100
AcDbLine
 10
112.2320009746876
 20
126.3571868923462
 30
0.0
 11
112.205444999177
 21
126.3517291466656
 31
0.0
  0
LINE
  5
3A9
330
E3
100
AcDbEntity
  8
0
  6
Continuous
100
AcDbLine
 10
112.205444999177
 20
126.3517291466656
 30
0.0
 11
112.175976060198
 21
126.3462750106052
 31
0.0
  0
LINE
  5
3AA
330
E3
100
AcDbEntity
  8
0
  6
Continuous
100
AcDbLine
 10
112.175976060198
 20
126.3462750106052
 30
0.0
 11
112.1438179542005
 21
126.3408172649246
 31
0.0
  0
LINE
  5
3AB
330
E3
100
AcDbEntity
  8
0
  6
Continuous
100
AcDbLine
 10
112.1438179542005
 20
126.3408172649246
 30
0.0
 11
112.1092125257351
 21
126.3353631288642
 31
0.0
  0
LINE
  5
3AC
330
E3
100
AcDbEntity
  8
0
  6
Continuous
100
AcDbLine
 10
112.1092125257351
 20
126.3353631288642
 30
0.0
 11
112.0724232770734
 21
126.3299053831836
 31
0.0
  0
LINE
  5
3AD
330
E3
100
AcDbEntity
  8
0
  6
Continuous
100
AcDbLine
 10
112.0724232770734
 20
126.3299053831836
 30
0.0
 11
112.0337317585878
 21
126.3244476375031
 31
0.0
  0
LINE
  5
3AE
330
E3
100
AcDbEntity
  8
0
  6
Continuous
100
AcDbLine
 10
112.0337317585878
 20
126.3244476375031
 30
0.0
 11
111.9934339591315
 21
126.3189935014426
 31
0.0
  0
LINE
  5
3AF
330
E3
100
AcDbEntity
  8
0
  6
Continuous
100
AcDbLine
 10
111.9934339591315
 20
126.3189935014426
 30
0.0
 11
111.9518330867977
 21
126.313535755762
 31
0.0
  0
LINE
  5
3B0
330
E3
100
AcDbEntity
  8
0
  6
Continuous
100
AcDbLine
 10
111.9518330867977
 20
126.313535755762
 30
0.0
 11
111.9092467881605
 21
126.3080816197016
 31
0.0
  0
LINE
  5
3B1
330
E3
100
AcDbEntity
  8
0
  6
Continuous
100
AcDbLine
 10
111.9092467881605
 20
126.3080816197016
 30
0.0
 11
111.8659999290341
 21
126.3026238740211
 31
0.0
  0
LINE
  5
3B2
330
E3
100
AcDbEntity
  8
0
  6
Continuous
100
AcDbLine
 10
111.8659999290341
 20
126.3026238740211
 30
0.0
 11
111.8224245944733
 21
126.2971661283405
 31
0.0
  0
LINE
  5
3B3
330
E3
100
AcDbEntity
  8
0
  6
Continuous
100
AcDbLine
 10
111.8224245944733
 20
126.2971661283405
 30
0.0
 11
111.7788456502923
 21
126.29171199228
 31
0.0
  0
LINE
  5
3B4
330
E3
100
AcDbEntity
  8
0
  6
Continuous
100
AcDbLine
 10
111.7788456502923
 20
126.29171199228
 30
0.0
 11
111.735598791166
 21
126.2862542465995
 31
0.0
  0
LINE
  5
3B5
330
E3
100
AcDbEntity
  8
0
  6
Continuous
100
AcDbLine
 10
111.735598791166
 20
126.2862542465995
 30
0.0
 11
111.6930124925287
 21
126.2807965009189
 31
0.0
  0
LINE
  5
3B6
330
E3
100
AcDbEntity
  8
0
  6
Continuous
100
AcDbLine
 10
111.6930124925287
 20
126.2807965009189
 30
0.0
 11
111.6514116201949
 21
126.2753423648585
 31
0.0
  0
LINE
  5
3B7
330
E3
100
AcDbEntity
  8
0
  6
Continuous
100
AcDbLine
 10
111.6514116201949
 20
126.2753423648585
 30
0.0
 11
111.6111138207386
 21
126.2698846191779
 31
0.0
  0
LINE
  5
3B8
330
E3
100
AcDbEntity
  8
0
  6
Continuous
100
AcDbLine
 10
111.6111138207386
 20
126.2698846191779
 30
0.0
 11
111.5724223022531
 21
126.2644304831175
 31
0.0
  0
LINE
  5
3B9
330
E3
100
AcDbEntity
  8
0
  6
Continuous
100
AcDbLine
 10
111.5724223022531
 20
126.2644304831175
 30
0.0
 11
111.5356366632115
 21
126.2589727374369
 31
0.0
  0
LINE
  5
3BA
330
E3
100
AcDbEntity
  8
0
  6
Continuous
100
AcDbLine
 10
111.5356366632115
 20
126.2589727374369
 30
0.0
 11
111.5010312347461
 21
126.2535149917563
 31
0.0
  0
LINE
  5
3BB
330
E3
100
AcDbEntity
  8
0
  6
Continuous
100
AcDbLine
 10
111.5010312347461
 20
126.2535149917563
 30
0.0
 11
111.4688695191284
 21
126.2480608556959
 31
0.0
  0
LINE
  5
3BC
330
E3
100
AcDbEntity
  8
0
  6
Continuous
100
AcDbLine
 10
111.4688695191284
 20
126.2480608556959
 30
0.0
 11
111.4394005801494
 21
126.2426031100153
 31
0.0
  0
LINE
  5
3BD
330
E3
100
AcDbEntity
  8
0
  6
Continuous
100
AcDbLine
 10
111.4394005801494
 20
126.2426031100153
 30
0.0
 11
111.4128482142589
 21
126.2371489739549
 31
0.0
  0
LINE
  5
3BE
330
E3
100
AcDbEntity
  8
0
  6
Continuous
100
AcDbLine
 10
111.4128482142589
 20
126.2371489739549
 30
0.0
 11
111.3894109505658
 21
126.2316912282743
 31
0.0
  0
LINE
  5
3BF
330
E3
100
AcDbEntity
  8
0
  6
Continuous
100
AcDbLine
 10
111.3894109505658
 20
126.2316912282743
 30
0.0
 11
111.369269270078
 21
126.2262334825937
 31
0.0
  0
LINE
  5
3C0
330
E3
100
AcDbEntity
  8
0
  6
Continuous
100
AcDbLine
 10
111.369269270078
 20
126.2262334825937
 30
0.0
 11
111.3525783864622
 21
126.2207793465333
 31
0.0
  0
LINE
  5
3C1
330
E3
100
AcDbEntity
  8
0
  6
Continuous
100
AcDbLine
 10
111.3525783864622
 20
126.2207793465333
 30
0.0
 11
111.339461026804
 21
126.2153216008527
 31
0.0
  0
LINE
  5
3C2
330
E3
100
AcDbEntity
  8
0
  6
Continuous
100
AcDbLine
 10
111.339461026804
 20
126.2153216008527
 30
0.0
 11
111.3300182604678
 21
126.2098638551721
 31
0.0
  0
LINE
  5
3C3
330
E3
100
AcDbEntity
  8
0
  6
Continuous
100
AcDbLine
 10
111.3300182604678
 20
126.2098638551721
 30
0.0
 11
111.3243260449649
 21
126.2044092814759
 31
0.0
  0
LINE
  5
3C4
330
E3
100
AcDbEntity
  8
0
  6
Continuous
100
AcDbLine
 10
111.3243260449649
 20
126.2044092814759
 30
0.0
 11
111.3224233940108
 21
126.1989529322696
 31
0.0
  0
LINE
  5
3C5
330
E3
100
AcDbEntity
  8
0
  6
Continuous
100
AcDbLine
 10
112.3224233940108
 20
126.002524360841
 30
0.0
 11
112.3205207430567
 21
125.9970680116346
 31
0.0
  0
LINE
  5
3C6
330
E3
100
AcDbEntity
  8
0
  6
Continuous
100
AcDbLine
 10
112.3205207430567
 20
125.9970680116346
 30
0.0
 11
112.3148272705169
 21
125.9916116624283
 31
0.0
  0
LINE
  5
3C7
330
E3
100
AcDbEntity
  8
0
  6
Continuous
100
AcDbLine
 10
112.3148272705169
 20
125.9916116624283
 30
0.0
 11
112.3053845525224
 21
125.9861540361909
 31
0.0
  0
LINE
  5
3C8
330
E3
100
AcDbEntity
  8
0
  6
Continuous
100
AcDbLine
 10
112.3053845525224
 20
125.9861540361909
 30
0.0
 11
112.2922708024844
 21
125.9806999001304
 31
0.0
  0
LINE
  5
3C9
330
E3
100
AcDbEntity
  8
0
  6
Continuous
100
AcDbLine
 10
112.2922708024844
 20
125.9806999001304
 30
0.0
 11
112.2755763092485
 21
125.9752421544499
 31
0.0
  0
LINE
  5
3CA
330
E3
100
AcDbEntity
  8
0
  6
Continuous
100
AcDbLine
 10
112.2755763092485
 20
125.9752421544499
 30
0.0
 11
112.2554346287606
 21
125.9697880183895
 31
0.0
  0
LINE
  5
3CB
330
E3
100
AcDbEntity
  8
0
  6
Continuous
100
AcDbLine
 10
112.2554346287606
 20
125.9697880183895
 30
0.0
 11
112.2320009746876
 21
125.9643302727089
 31
0.0
  0
LINE
  5
3CC
330
E3
100
AcDbEntity
  8
0
  6
Continuous
100
AcDbLine
 10
112.2320009746876
 20
125.9643302727089
 30
0.0
 11
112.205444999177
 21
125.9588725270283
 31
0.0
  0
LINE
  5
3CD
330
E3
100
AcDbEntity
  8
0
  6
Continuous
100
AcDbLine
 10
112.205444999177
 20
125.9588725270283
 30
0.0
 11
112.175976060198
 21
125.9534183909679
 31
0.0
  0
LINE
  5
3CE
330
E3
100
AcDbEntity
  8
0
  6
Continuous
100
AcDbLine
 10
112.175976060198
 20
125.9534183909679
 30
0.0
 11
112.1438179542005
 21
125.9479606452873
 31
0.0
  0
LINE
  5
3CF
330
E3
100
AcDbEntity
  8
0
  6
Continuous
100
AcDbLine
 10
112.1438179542005
 20
125.9479606452873
 30
0.0
 11
112.1092125257351
 21
125.9425028996067
 31
0.0
  0
LINE
  5
3D0
330
E3
100
AcDbEntity
  8
0
  6
Continuous
100
AcDbLine
 10
112.1092125257351
 20
125.9425028996067
 30
0.0
 11
112.0724232770734
 21
125.9370487635463
 31
0.0
  0
LINE
  5
3D1
330
E3
100
AcDbEntity
  8
0
  6
Continuous
100
AcDbLine
 10
112.0724232770734
 20
125.9370487635463
 30
0.0
 11
112.0337317585878
 21
125.9315910178657
 31
0.0
  0
LINE
  5
3D2
330
E3
100
AcDbEntity
  8
0
  6
Continuous
100
AcDbLine
 10
112.0337317585878
 20
125.9315910178657
 30
0.0
 11
111.9934339591315
 21
125.9261368818053
 31
0.0
  0
LINE
  5
3D3
330
E3
100
AcDbEntity
  8
0
  6
Continuous
100
AcDbLine
 10
111.9934339591315
 20
125.9261368818053
 30
0.0
 11
111.9518330867977
 21
125.9206791361247
 31
0.0
  0
LINE
  5
3D4
330
E3
100
AcDbEntity
  8
0
  6
Continuous
100
AcDbLine
 10
111.9518330867977
 20
125.9206791361247
 30
0.0
 11
111.9092467881605
 21
125.9152213904441
 31
0.0
  0
LINE
  5
3D5
330
E3
100
AcDbEntity
  8
0
  6
Continuous
100
AcDbLine
 10
111.9092467881605
 20
125.9152213904441
 30
0.0
 11
111.8659999290341
 21
125.9097672543837
 31
0.0
  0
LINE
  5
3D6
330
E3
100
AcDbEntity
  8
0
  6
Continuous
100
AcDbLine
 10
111.8659999290341
 20
125.9097672543837
 30
0.0
 11
111.8224245944733
 21
125.9043095087031
 31
0.0
  0
LINE
  5
3D7
330
E3
100
AcDbEntity
  8
0
  6
Continuous
100
AcDbLine
 10
111.8224245944733
 20
125.9043095087031
 30
0.0
 11
111.7788456502923
 21
125.8988553726427
 31
0.0
  0
LINE
  5
3D8
330
E3
100
AcDbEntity
  8
0
  6
Continuous
100
AcDbLine
 10
111.7788456502923
 20
125.8988553726427
 30
0.0
 11
111.735598791166
 21
125.8933976269621
 31
0.0
  0
LINE
  5
3D9
330
E3
100
AcDbEntity
  8
0
  6
Continuous
100
AcDbLine
 10
111.735598791166
 20
125.8933976269621
 30
0.0
 11
111.6930124925287
 21
125.8879398812816
 31
0.0
  0
LINE
  5
3DA
330
E3
100
AcDbEntity
  8
0
  6
Continuous
100
AcDbLine
 10
111.6930124925287
 20
125.8879398812816
 30
0.0
 11
111.6514116201949
 21
125.8824857452211
 31
0.0
  0
LINE
  5
3DB
330
E3
100
AcDbEntity
  8
0
  6
Continuous
100
AcDbLine
 10
111.6514116201949
 20
125.8824857452211
 30
0.0
 11
111.6111138207386
 21
125.8770279995405
 31
0.0
  0
LINE
  5
3DC
330
E3
100
AcDbEntity
  8
0
  6
Continuous
100
AcDbLine
 10
111.6111138207386
 20
125.8770279995405
 30
0.0
 11
111.5724223022531
 21
125.87157025386
 31
0.0
  0
LINE
  5
3DD
330
E3
100
AcDbEntity
  8
0
  6
Continuous
100
AcDbLine
 10
111.5724223022531
 20
125.87157025386
 30
0.0
 11
111.5356366632115
 21
125.8661161177995
 31
0.0
  0
LINE
  5
3DE
330
E3
100
AcDbEntity
  8
0
  6
Continuous
100
AcDbLine
 10
111.5356366632115
 20
125.8661161177995
 30
0.0
 11
111.5010312347461
 21
125.860658372119
 31
0.0
  0
LINE
  5
3DF
330
E3
100
AcDbEntity
  8
0
  6
Continuous
100
AcDbLine
 10
111.5010312347461
 20
125.860658372119
 30
0.0
 11
111.4688695191284
 21
125.8552042360586
 31
0.0
  0
LINE
  5
3E0
330
E3
100
AcDbEntity
  8
0
  6
Continuous
100
AcDbLine
 10
111.4688695191284
 20
125.8552042360586
 30
0.0
 11
111.4394005801494
 21
125.8497464903779
 31
0.0
  0
LINE
  5
3E1
330
E3
100
AcDbEntity
  8
0
  6
Continuous
100
AcDbLine
 10
111.4394005801494
 20
125.8497464903779
 30
0.0
 11
111.4128482142589
 21
125.8442887446974
 31
0.0
  0
LINE
  5
3E2
330
E3
100
AcDbEntity
  8
0
  6
Continuous
100
AcDbLine
 10
111.4128482142589
 20
125.8442887446974
 30
0.0
 11
111.3894109505658
 21
125.838834608637
 31
0.0
  0
LINE
  5
3E3
330
E3
100
AcDbEntity
  8
0
  6
Continuous
100
AcDbLine
 10
111.3894109505658
 20
125.838834608637
 30
0.0
 11
111.369269270078
 21
125.8333768629564
 31
0.0
  0
LINE
  5
3E4
330
E3
100
AcDbEntity
  8
0
  6
Continuous
100
AcDbLine
 10
111.369269270078
 20
125.8333768629564
 30
0.0
 11
111.3525783864622
 21
125.827922726896
 31
0.0
  0
LINE
  5
3E5
330
E3
100
AcDbEntity
  8
0
  6
Continuous
100
AcDbLine
 10
111.3525783864622
 20
125.827922726896
 30
0.0
 11
111.339461026804
 21
125.8224649812153
 31
0.0
  0
LINE
  5
3E6
330
E3
100
AcDbEntity
  8
0
  6
Continuous
100
AcDbLine
 10
111.339461026804
 20
125.8224649812153
 30
0.0
 11
111.3300182604678
 21
125.8170072355348
 31
0.0
  0
LINE
  5
3E7
330
E3
100
AcDbEntity
  8
0
  6
Continuous
100
AcDbLine
 10
111.3300182604678
 20
125.8170072355348
 30
0.0
 11
111.3243260449649
 21
125.8115521386188
 31
0.0
  0
LINE
  5
3E8
330
E3
100
AcDbEntity
  8
0
  6
Continuous
100
AcDbLine
 10
111.3243260449649
 20
125.8115521386188
 30
0.0
 11
111.3224233940108
 21
125.8060957894124
 31
0.0
  0
LINE
  5
3E9
330
E3
100
AcDbEntity
  8
0
  6
Continuous
100
AcDbLine
 10
112.3224233940108
 20
125.6096672179838
 30
0.0
 11
112.3205207430567
 21
125.6042108687775
 31
0.0
  0
LINE
  5
3EA
330
E3
100
AcDbEntity
  8
0
  6
Continuous
100
AcDbLine
 10
112.3205207430567
 20
125.6042108687775
 30
0.0
 11
112.3148272705169
 21
125.5987545195711
 31
0.0
  0
LINE
  5
3EB
330
E3
100
AcDbEntity
  8
0
  6
Continuous
100
AcDbLine
 10
112.3148272705169
 20
125.5987545195711
 30
0.0
 11
112.3053845525224
 21
125.5932974165536
 31
0.0
  0
LINE
  5
3EC
330
E3
100
AcDbEntity
  8
0
  6
Continuous
100
AcDbLine
 10
112.3053845525224
 20
125.5932974165536
 30
0.0
 11
112.2922708024844
 21
125.5878432804931
 31
0.0
  0
LINE
  5
3ED
330
E3
100
AcDbEntity
  8
0
  6
Continuous
100
AcDbLine
 10
112.2922708024844
 20
125.5878432804931
 30
0.0
 11
112.2755763092485
 21
125.5823855348125
 31
0.0
  0
LINE
  5
3EE
330
E3
100
AcDbEntity
  8
0
  6
Continuous
100
AcDbLine
 10
112.2755763092485
 20
125.5823855348125
 30
0.0
 11
112.2554346287606
 21
125.576927789132
 31
0.0
  0
LINE
  5
3EF
330
E3
100
AcDbEntity
  8
0
  6
Continuous
100
AcDbLine
 10
112.2554346287606
 20
125.576927789132
 30
0.0
 11
112.2320009746876
 21
125.5714736530715
 31
0.0
  0
LINE
  5
3F0
330
E3
100
AcDbEntity
  8
0
  6
Continuous
100
AcDbLine
 10
112.2320009746876
 20
125.5714736530715
 30
0.0
 11
112.205444999177
 21
125.566015907391
 31
0.0
  0
LINE
  5
3F1
330
E3
100
AcDbEntity
  8
0
  6
Continuous
100
AcDbLine
 10
112.205444999177
 20
125.566015907391
 30
0.0
 11
112.175976060198
 21
125.5605617713305
 31
0.0
  0
LINE
  5
3F2
330
E3
100
AcDbEntity
  8
0
  6
Continuous
100
AcDbLine
 10
112.175976060198
 20
125.5605617713305
 30
0.0
 11
112.1438179542005
 21
125.55510402565
 31
0.0
  0
LINE
  5
3F3
330
E3
100
AcDbEntity
  8
0
  6
Continuous
100
AcDbLine
 10
112.1438179542005
 20
125.55510402565
 30
0.0
 11
112.1092125257351
 21
125.5496462799694
 31
0.0
  0
LINE
  5
3F4
330
E3
100
AcDbEntity
  8
0
  6
Continuous
100
AcDbLine
 10
112.1092125257351
 20
125.5496462799694
 30
0.0
 11
112.0724232770734
 21
125.5441921439089
 31
0.0
  0
LINE
  5
3F5
330
E3
100
AcDbEntity
  8
0
  6
Continuous
100
AcDbLine
 10
112.0724232770734
 20
125.5441921439089
 30
0.0
 11
112.0337317585878
 21
125.5387343982284
 31
0.0
  0
LINE
  5
3F6
330
E3
100
AcDbEntity
  8
0
  6
Continuous
100
AcDbLine
 10
112.0337317585878
 20
125.5387343982284
 30
0.0
 11
111.9934339591315
 21
125.5332766525478
 31
0.0
  0
LINE
  5
3F7
330
E3
100
AcDbEntity
  8
0
  6
Continuous
100
AcDbLine
 10
111.9934339591315
 20
125.5332766525478
 30
0.0
 11
111.9518330867977
 21
125.5278225164874
 31
0.0
  0
LINE
  5
3F8
330
E3
100
AcDbEntity
  8
0
  6
Continuous
100
AcDbLine
 10
111.9518330867977
 20
125.5278225164874
 30
0.0
 11
111.9092467881605
 21
125.5223647708068
 31
0.0
  0
LINE
  5
3F9
330
E3
100
AcDbEntity
  8
0
  6
Continuous
100
AcDbLine
 10
111.9092467881605
 20
125.5223647708068
 30
0.0
 11
111.8659999290341
 21
125.5169106347464
 31
0.0
  0
LINE
  5
3FA
330
E3
100
AcDbEntity
  8
0
  6
Continuous
100
AcDbLine
 10
111.8659999290341
 20
125.5169106347464
 30
0.0
 11
111.8224245944733
 21
125.5114528890658
 31
0.0
  0
LINE
  5
3FB
330
E3
100
AcDbEntity
  8
0
  6
Continuous
100
AcDbLine
 10
111.8224245944733
 20
125.5114528890658
 30
0.0
 11
111.7788456502923
 21
125.5059951433852
 31
0.0
  0
LINE
  5
3FC
330
E3
100
AcDbEntity
  8
0
  6
Continuous
100
AcDbLine
 10
111.7788456502923
 20
125.5059951433852
 30
0.0
 11
111.735598791166
 21
125.5005410073248
 31
0.0
  0
LINE
  5
3FD
330
E3
100
AcDbEntity
  8
0
  6
Continuous
100
AcDbLine
 10
111.735598791166
 20
125.5005410073248
 30
0.0
 11
111.6930124925287
 21
125.4950832616442
 31
0.0
  0
LINE
  5
3FE
330
E3
100
AcDbEntity
  8
0
  6
Continuous
100
AcDbLine
 10
111.6930124925287
 20
125.4950832616442
 30
0.0
 11
111.6514116201949
 21
125.4896291255838
 31
0.0
  0
LINE
  5
3FF
330
E3
100
AcDbEntity
  8
0
  6
Continuous
100
AcDbLine
 10
111.6514116201949
 20
125.4896291255838
 30
0.0
 11
111.6111138207386
 21
125.4841713799032
 31
0.0
  0
LINE
  5
400
330
E3
100
AcDbEntity
  8
0
  6
Continuous
100
AcDbLine
 10
111.6111138207386
 20
125.4841713799032
 30
0.0
 11
111.5724223022531
 21
125.4787136342226
 31
0.0
  0
LINE
  5
401
330
E3
100
AcDbEntity
  8
0
  6
Continuous
100
AcDbLine
 10
111.5724223022531
 20
125.4787136342226
 30
0.0
 11
111.5356366632115
 21
125.4732594981622
 31
0.0
  0
LINE
  5
402
330
E3
100
AcDbEntity
  8
0
  6
Continuous
100
AcDbLine
 10
111.5356366632115
 20
125.4732594981622
 30
0.0
 11
111.5010312347461
 21
125.4678017524816
 31
0.0
  0
LINE
  5
403
330
E3
100
AcDbEntity
  8
0
  6
Continuous
100
AcDbLine
 10
111.5010312347461
 20
125.4678017524816
 30
0.0
 11
111.4688695191284
 21
125.4623440068011
 31
0.0
  0
LINE
  5
404
330
E3
100
AcDbEntity
  8
0
  6
Continuous
100
AcDbLine
 10
111.4688695191284
 20
125.4623440068011
 30
0.0
 11
111.4394005801494
 21
125.4568898707406
 31
0.0
  0
LINE
  5
405
330
E3
100
AcDbEntity
  8
0
  6
Continuous
100
AcDbLine
 10
111.4394005801494
 20
125.4568898707406
 30
0.0
 11
111.4128482142589
 21
125.4514321250601
 31
0.0
  0
LINE
  5
406
330
E3
100
AcDbEntity
  8
0
  6
Continuous
100
AcDbLine
 10
111.4128482142589
 20
125.4514321250601
 30
0.0
 11
111.3894109505658
 21
125.4459779889996
 31
0.0
  0
LINE
  5
407
330
E3
100
AcDbEntity
  8
0
  6
Continuous
100
AcDbLine
 10
111.3894109505658
 20
125.4459779889996
 30
0.0
 11
111.369269270078
 21
125.440520243319
 31
0.0
  0
LINE
  5
408
330
E3
100
AcDbEntity
  8
0
  6
Continuous
100
AcDbLine
 10
111.369269270078
 20
125.440520243319
 30
0.0
 11
111.3525783864622
 21
125.4350624976385
 31
0.0
  0
LINE
  5
409
330
E3
100
AcDbEntity
  8
0
  6
Continuous
100
AcDbLine
 10
111.3525783864622
 20
125.4350624976385
 30
0.0
 11
111.339461026804
 21
125.429608361578
 31
0.0
  0
LINE
  5
40A
330
E3
100
AcDbEntity
  8
0
  6
Continuous
100
AcDbLine
 10
111.339461026804
 20
125.429608361578
 30
0.0
 11
111.3300182604678
 21
125.4241506158975
 31
0.0
  0
LINE
  5
40B
330
E3
100
AcDbEntity
  8
0
  6
Continuous
100
AcDbLine
 10
111.3300182604678
 20
125.4241506158975
 30
0.0
 11
111.3243260449649
 21
125.4186949957616
 31
0.0
  0
LINE
  5
40C
330
E3
100
AcDbEntity
  8
0
  6
Continuous
100
AcDbLine
 10
111.3243260449649
 20
125.4186949957616
 30
0.0
 11
111.3224233940108
 21
125.4132386465553
 31
0.0
  0
LINE
  5
40D
330
E3
100
AcDbEntity
  8
0
  6
Continuous
100
AcDbLine
 10
112.3224233940108
 20
125.2168100751267
 30
0.0
 11
112.3205207430567
 21
125.2113537259203
 31
0.0
  0
LINE
  5
40E
330
E3
100
AcDbEntity
  8
0
  6
Continuous
100
AcDbLine
 10
112.3205207430567
 20
125.2113537259203
 30
0.0
 11
112.3148272705169
 21
125.205897376714
 31
0.0
  0
LINE
  5
40F
330
E3
100
AcDbEntity
  8
0
  6
Continuous
100
AcDbLine
 10
112.3148272705169
 20
125.205897376714
 30
0.0
 11
112.3053845525224
 21
125.2004407969162
 31
0.0
  0
LINE
  5
410
330
E3
100
AcDbEntity
  8
0
  6
Continuous
100
AcDbLine
 10
112.3053845525224
 20
125.2004407969162
 30
0.0
 11
112.2922708024844
 21
125.1949830512356
 31
0.0
  0
LINE
  5
411
330
E3
100
AcDbEntity
  8
0
  6
Continuous
100
AcDbLine
 10
112.2922708024844
 20
125.1949830512356
 30
0.0
 11
112.2755763092485
 21
125.1895289151752
 31
0.0
  0
LINE
  5
412
330
E3
100
AcDbEntity
  8
0
  6
Continuous
100
AcDbLine
 10
112.2755763092485
 20
125.1895289151752
 30
0.0
 11
112.2554346287606
 21
125.1840711694946
 31
0.0
  0
LINE
  5
413
330
E3
100
AcDbEntity
  8
0
  6
Continuous
100
AcDbLine
 10
112.2554346287606
 20
125.1840711694946
 30
0.0
 11
112.2320009746876
 21
125.1786170334342
 31
0.0
  0
LINE
  5
414
330
E3
100
AcDbEntity
  8
0
  6
Continuous
100
AcDbLine
 10
112.2320009746876
 20
125.1786170334342
 30
0.0
 11
112.205444999177
 21
125.1731592877536
 31
0.0
  0
LINE
  5
415
330
E3
100
AcDbEntity
  8
0
  6
Continuous
100
AcDbLine
 10
112.205444999177
 20
125.1731592877536
 30
0.0
 11
112.175976060198
 21
125.167701542073
 31
0.0
  0
LINE
  5
416
330
E3
100
AcDbEntity
  8
0
  6
Continuous
100
AcDbLine
 10
112.175976060198
 20
125.167701542073
 30
0.0
 11
112.1438179542005
 21
125.1622474060126
 31
0.0
  0
LINE
  5
417
330
E3
100
AcDbEntity
  8
0
  6
Continuous
100
AcDbLine
 10
112.1438179542005
 20
125.1622474060126
 30
0.0
 11
112.1092125257351
 21
125.1567896603321
 31
0.0
  0
LINE
  5
418
330
E3
100
AcDbEntity
  8
0
  6
Continuous
100
AcDbLine
 10
112.1092125257351
 20
125.1567896603321
 30
0.0
 11
112.0724232770734
 21
125.1513355242716
 31
0.0
  0
LINE
  5
419
330
E3
100
AcDbEntity
  8
0
  6
Continuous
100
AcDbLine
 10
112.0724232770734
 20
125.1513355242716
 30
0.0
 11
112.0337317585878
 21
125.145877778591
 31
0.0
  0
LINE
  5
41A
330
E3
100
AcDbEntity
  8
0
  6
Continuous
100
AcDbLine
 10
112.0337317585878
 20
125.145877778591
 30
0.0
 11
111.9934339591315
 21
125.1404200329105
 31
0.0
  0
LINE
  5
41B
330
E3
100
AcDbEntity
  8
0
  6
Continuous
100
AcDbLine
 10
111.9934339591315
 20
125.1404200329105
 30
0.0
 11
111.9518330867977
 21
125.13496589685
 31
0.0
  0
LINE
  5
41C
330
E3
100
AcDbEntity
  8
0
  6
Continuous
100
AcDbLine
 10
111.9518330867977
 20
125.13496589685
 30
0.0
 11
111.9092467881605
 21
125.1295081511695
 31
0.0
  0
LINE
  5
41D
330
E3
100
AcDbEntity
  8
0
  6
Continuous
100
AcDbLine
 10
111.9092467881605
 20
125.1295081511695
 30
0.0
 11
111.8659999290341
 21
125.1240504054889
 31
0.0
  0
LINE
  5
41E
330
E3
100
AcDbEntity
  8
0
  6
Continuous
100
AcDbLine
 10
111.8659999290341
 20
125.1240504054889
 30
0.0
 11
111.8224245944733
 21
125.1185962694285
 31
0.0
  0
LINE
  5
41F
330
E3
100
AcDbEntity
  8
0
  6
Continuous
100
AcDbLine
 10
111.8224245944733
 20
125.1185962694285
 30
0.0
 11
111.7788456502923
 21
125.1131385237479
 31
0.0
  0
LINE
  5
420
330
E3
100
AcDbEntity
  8
0
  6
Continuous
100
AcDbLine
 10
111.7788456502923
 20
125.1131385237479
 30
0.0
 11
111.735598791166
 21
125.1076843876875
 31
0.0
  0
LINE
  5
421
330
E3
100
AcDbEntity
  8
0
  6
Continuous
100
AcDbLine
 10
111.735598791166
 20
125.1076843876875
 30
0.0
 11
111.6930124925287
 21
125.1022266420069
 31
0.0
  0
LINE
  5
422
330
E3
100
AcDbEntity
  8
0
  6
Continuous
100
AcDbLine
 10
111.6930124925287
 20
125.1022266420069
 30
0.0
 11
111.6514116201949
 21
125.0967688963263
 31
0.0
  0
LINE
  5
423
330
E3
100
AcDbEntity
  8
0
  6
Continuous
100
AcDbLine
 10
111.6514116201949
 20
125.0967688963263
 30
0.0
 11
111.6111138207386
 21
125.0913147602659
 31
0.0
  0
LINE
  5
424
330
E3
100
AcDbEntity
  8
0
  6
Continuous
100
AcDbLine
 10
111.6111138207386
 20
125.0913147602659
 30
0.0
 11
111.5724223022531
 21
125.0858570145853
 31
0.0
  0
LINE
  5
425
330
E3
100
AcDbEntity
  8
0
  6
Continuous
100
AcDbLine
 10
111.5724223022531
 20
125.0858570145853
 30
0.0
 11
111.5356366632115
 21
125.0804028785249
 31
0.0
  0
LINE
  5
426
330
E3
100
AcDbEntity
  8
0
  6
Continuous
100
AcDbLine
 10
111.5356366632115
 20
125.0804028785249
 30
0.0
 11
111.5010312347461
 21
125.0749451328443
 31
0.0
  0
LINE
  5
427
330
E3
100
AcDbEntity
  8
0
  6
Continuous
100
AcDbLine
 10
111.5010312347461
 20
125.0749451328443
 30
0.0
 11
111.4688695191284
 21
125.0694873871637
 31
0.0
  0
LINE
  5
428
330
E3
100
AcDbEntity
  8
0
  6
Continuous
100
AcDbLine
 10
111.4688695191284
 20
125.0694873871637
 30
0.0
 11
111.4394005801494
 21
125.0640332511033
 31
0.0
  0
LINE
  5
429
330
E3
100
AcDbEntity
  8
0
  6
Continuous
100
AcDbLine
 10
111.4394005801494
 20
125.0640332511033
 30
0.0
 11
111.4128482142589
 21
125.0585755054227
 31
0.0
  0
LINE
  5
42A
330
E3
100
AcDbEntity
  8
0
  6
Continuous
100
AcDbLine
 10
111.4128482142589
 20
125.0585755054227
 30
0.0
 11
111.3894109505658
 21
125.0531213693623
 31
0.0
  0
LINE
  5
42B
330
E3
100
AcDbEntity
  8
0
  6
Continuous
100
AcDbLine
 10
111.3894109505658
 20
125.0531213693623
 30
0.0
 11
111.369269270078
 21
125.0476636236817
 31
0.0
  0
LINE
  5
42C
330
E3
100
AcDbEntity
  8
0
  6
Continuous
100
AcDbLine
 10
111.369269270078
 20
125.0476636236817
 30
0.0
 11
111.3525783864622
 21
125.0422058780011
 31
0.0
  0
LINE
  5
42D
330
E3
100
AcDbEntity
  8
0
  6
Continuous
100
AcDbLine
 10
111.3525783864622
 20
125.0422058780011
 30
0.0
 11
111.339461026804
 21
125.0367517419407
 31
0.0
  0
LINE
  5
42E
330
E3
100
AcDbEntity
  8
0
  6
Continuous
100
AcDbLine
 10
111.339461026804
 20
125.0367517419407
 30
0.0
 11
111.3300182604678
 21
125.0312939962601
 31
0.0
  0
LINE
  5
42F
330
E3
100
AcDbEntity
  8
0
  6
Continuous
100
AcDbLine
 10
111.3300182604678
 20
125.0312939962601
 30
0.0
 11
111.3243260449649
 21
125.0258378529045
 31
0.0
  0
LINE
  5
430
330
E3
100
AcDbEntity
  8
0
  6
Continuous
100
AcDbLine
 10
111.3243260449649
 20
125.0258378529045
 30
0.0
 11
111.3224233940108
 21
125.0203815036981
 31
0.0
  0
LINE
  5
431
330
E3
100
AcDbEntity
  8
0
  6
Continuous
100
AcDbLine
 10
112.3224233940108
 20
124.8239529322695
 30
0.0
 11
112.3205207430567
 21
124.8184965830632
 31
0.0
  0
LINE
  5
432
330
E3
100
AcDbEntity
  8
0
  6
Continuous
100
AcDbLine
 10
112.3205207430567
 20
124.8184965830632
 30
0.0
 11
112.3148272705169
 21
124.8130402338569
 31
0.0
  0
LINE
  5
433
330
E3
100
AcDbEntity
  8
0
  6
Continuous
100
AcDbLine
 10
112.3148272705169
 20
124.8130402338569
 30
0.0
 11
112.3053845525224
 21
124.8075841772789
 31
0.0
  0
LINE
  5
434
330
E3
100
AcDbEntity
  8
0
  6
Continuous
100
AcDbLine
 10
112.3053845525224
 20
124.8075841772789
 30
0.0
 11
112.2922708024844
 21
124.8021264315983
 31
0.0
  0
LINE
  5
435
330
E3
100
AcDbEntity
  8
0
  6
Continuous
100
AcDbLine
 10
112.2922708024844
 20
124.8021264315983
 30
0.0
 11
112.2755763092485
 21
124.7966722955379
 31
0.0
  0
LINE
  5
436
330
E3
100
AcDbEntity
  8
0
  6
Continuous
100
AcDbLine
 10
112.2755763092485
 20
124.7966722955379
 30
0.0
 11
112.2554346287606
 21
124.7912145498573
 31
0.0
  0
LINE
  5
437
330
E3
100
AcDbEntity
  8
0
  6
Continuous
100
AcDbLine
 10
112.2554346287606
 20
124.7912145498573
 30
0.0
 11
112.2320009746876
 21
124.7857568041767
 31
0.0
  0
LINE
  5
438
330
E3
100
AcDbEntity
  8
0
  6
Continuous
100
AcDbLine
 10
112.2320009746876
 20
124.7857568041767
 30
0.0
 11
112.205444999177
 21
124.7803026681163
 31
0.0
  0
LINE
  5
439
330
E3
100
AcDbEntity
  8
0
  6
Continuous
100
AcDbLine
 10
112.205444999177
 20
124.7803026681163
 30
0.0
 11
112.175976060198
 21
124.7748449224357
 31
0.0
  0
LINE
  5
43A
330
E3
100
AcDbEntity
  8
0
  6
Continuous
100
AcDbLine
 10
112.175976060198
 20
124.7748449224357
 30
0.0
 11
112.1438179542005
 21
124.7693907863753
 31
0.0
  0
LINE
  5
43B
330
E3
100
AcDbEntity
  8
0
  6
Continuous
100
AcDbLine
 10
112.1438179542005
 20
124.7693907863753
 30
0.0
 11
112.1092125257351
 21
124.7639330406947
 31
0.0
  0
LINE
  5
43C
330
E3
100
AcDbEntity
  8
0
  6
Continuous
100
AcDbLine
 10
112.1092125257351
 20
124.7639330406947
 30
0.0
 11
112.0724232770734
 21
124.7584752950141
 31
0.0
  0
LINE
  5
43D
330
E3
100
AcDbEntity
  8
0
  6
Continuous
100
AcDbLine
 10
112.0724232770734
 20
124.7584752950141
 30
0.0
 11
112.0337317585878
 21
124.7530211589537
 31
0.0
  0
LINE
  5
43E
330
E3
100
AcDbEntity
  8
0
  6
Continuous
100
AcDbLine
 10
112.0337317585878
 20
124.7530211589537
 30
0.0
 11
111.9934339591315
 21
124.7475634132731
 31
0.0
  0
LINE
  5
43F
330
E3
100
AcDbEntity
  8
0
  6
Continuous
100
AcDbLine
 10
111.9934339591315
 20
124.7475634132731
 30
0.0
 11
111.9518330867977
 21
124.7421092772127
 31
0.0
  0
LINE
  5
440
330
E3
100
AcDbEntity
  8
0
  6
Continuous
100
AcDbLine
 10
111.9518330867977
 20
124.7421092772127
 30
0.0
 11
111.9092467881605
 21
124.7366515315321
 31
0.0
  0
LINE
  5
441
330
E3
100
AcDbEntity
  8
0
  6
Continuous
100
AcDbLine
 10
111.9092467881605
 20
124.7366515315321
 30
0.0
 11
111.8659999290341
 21
124.7311937858515
 31
0.0
  0
LINE
  5
442
330
E3
100
AcDbEntity
  8
0
  6
Continuous
100
AcDbLine
 10
111.8659999290341
 20
124.7311937858515
 30
0.0
 11
111.8224245944733
 21
124.7257396497911
 31
0.0
  0
LINE
  5
443
330
E3
100
AcDbEntity
  8
0
  6
Continuous
100
AcDbLine
 10
111.8224245944733
 20
124.7257396497911
 30
0.0
 11
111.7788456502923
 21
124.7202819041105
 31
0.0
  0
LINE
  5
444
330
E3
100
AcDbEntity
  8
0
  6
Continuous
100
AcDbLine
 10
111.7788456502923
 20
124.7202819041105
 30
0.0
 11
111.735598791166
 21
124.71482415843
 31
0.0
  0
LINE
  5
445
330
E3
100
AcDbEntity
  8
0
  6
Continuous
100
AcDbLine
 10
111.735598791166
 20
124.71482415843
 30
0.0
 11
111.6930124925287
 21
124.7093700223695
 31
0.0
  0
LINE
  5
446
330
E3
100
AcDbEntity
  8
0
  6
Continuous
100
AcDbLine
 10
111.6930124925287
 20
124.7093700223695
 30
0.0
 11
111.6514116201949
 21
124.703912276689
 31
0.0
  0
LINE
  5
447
330
E3
100
AcDbEntity
  8
0
  6
Continuous
100
AcDbLine
 10
111.6514116201949
 20
124.703912276689
 30
0.0
 11
111.6111138207386
 21
124.6984581406285
 31
0.0
  0
LINE
  5
448
330
E3
100
AcDbEntity
  8
0
  6
Continuous
100
AcDbLine
 10
111.6111138207386
 20
124.6984581406285
 30
0.0
 11
111.5724223022531
 21
124.693000394948
 31
0.0
  0
LINE
  5
449
330
E3
100
AcDbEntity
  8
0
  6
Continuous
100
AcDbLine
 10
111.5724223022531
 20
124.693000394948
 30
0.0
 11
111.5356366632115
 21
124.6875426492674
 31
0.0
  0
LINE
  5
44A
330
E3
100
AcDbEntity
  8
0
  6
Continuous
100
AcDbLine
 10
111.5356366632115
 20
124.6875426492674
 30
0.0
 11
111.5010312347461
 21
124.682088513207
 31
0.0
  0
LINE
  5
44B
330
E3
100
AcDbEntity
  8
0
  6
Continuous
100
AcDbLine
 10
111.5010312347461
 20
124.682088513207
 30
0.0
 11
111.4688695191284
 21
124.6766307675264
 31
0.0
  0
LINE
  5
44C
330
E3
100
AcDbEntity
  8
0
  6
Continuous
100
AcDbLine
 10
111.4688695191284
 20
124.6766307675264
 30
0.0
 11
111.4394005801494
 21
124.671176631466
 31
0.0
  0
LINE
  5
44D
330
E3
100
AcDbEntity
  8
0
  6
Continuous
100
AcDbLine
 10
111.4394005801494
 20
124.671176631466
 30
0.0
 11
111.4128482142589
 21
124.6657188857854
 31
0.0
  0
LINE
  5
44E
330
E3
100
AcDbEntity
  8
0
  6
Continuous
100
AcDbLine
 10
111.4128482142589
 20
124.6657188857854
 30
0.0
 11
111.3894109505658
 21
124.6602611401048
 31
0.0
  0
LINE
  5
44F
330
E3
100
AcDbEntity
  8
0
  6
Continuous
100
AcDbLine
 10
111.3894109505658
 20
124.6602611401048
 30
0.0
 11
111.369269270078
 21
124.6548070040444
 31
0.0
  0
LINE
  5
450
330
E3
100
AcDbEntity
  8
0
  6
Continuous
100
AcDbLine
 10
111.369269270078
 20
124.6548070040444
 30
0.0
 11
111.3525783864622
 21
124.6493492583638
 31
0.0
  0
LINE
  5
451
330
E3
100
AcDbEntity
  8
0
  6
Continuous
100
AcDbLine
 10
111.3525783864622
 20
124.6493492583638
 30
0.0
 11
111.339461026804
 21
124.6438951223034
 31
0.0
  0
LINE
  5
452
330
E3
100
AcDbEntity
  8
0
  6
Continuous
100
AcDbLine
 10
111.339461026804
 20
124.6438951223034
 30
0.0
 11
111.3300182604678
 21
124.6384373766228
 31
0.0
  0
LINE
  5
453
330
E3
100
AcDbEntity
  8
0
  6
Continuous
100
AcDbLine
 10
111.3300182604678
 20
124.6384373766228
 30
0.0
 11
111.3243260449649
 21
124.6329807100473
 31
0.0
  0
LINE
  5
454
330
E3
100
AcDbEntity
  8
0
  6
Continuous
100
AcDbLine
 10
111.3243260449649
 20
124.6329807100473
 30
0.0
 11
111.3224233940108
 21
124.627524360841
 31
0.0
  0
LINE
  5
455
330
E3
100
AcDbEntity
  8
0
  6
Continuous
100
AcDbLine
 10
112.3224233940108
 20
124.4310957894124
 30
0.0
 11
112.3205207430567
 21
124.4256394402061
 31
0.0
  0
LINE
  5
456
330
E3
100
AcDbEntity
  8
0
  6
Continuous
100
AcDbLine
 10
112.3205207430567
 20
124.4256394402061
 30
0.0
 11
112.3148272705169
 21
124.4201830909997
 31
0.0
  0
LINE
  5
457
330
E3
100
AcDbEntity
  8
0
  6
Continuous
100
AcDbLine
 10
112.3148272705169
 20
124.4201830909997
 30
0.0
 11
112.3053845525224
 21
124.4147275576415
 31
0.0
  0
LINE
  5
458
330
E3
100
AcDbEntity
  8
0
  6
Continuous
100
AcDbLine
 10
112.3053845525224
 20
124.4147275576415
 30
0.0
 11
112.2922708024844
 21
124.409269811961
 31
0.0
  0
LINE
  5
459
330
E3
100
AcDbEntity
  8
0
  6
Continuous
100
AcDbLine
 10
112.2922708024844
 20
124.409269811961
 30
0.0
 11
112.2755763092485
 21
124.4038156759005
 31
0.0
  0
LINE
  5
45A
330
E3
100
AcDbEntity
  8
0
  6
Continuous
100
AcDbLine
 10
112.2755763092485
 20
124.4038156759005
 30
0.0
 11
112.2554346287606
 21
124.39835793022
 31
0.0
  0
LINE
  5
45B
330
E3
100
AcDbEntity
  8
0
  6
Continuous
100
AcDbLine
 10
112.2554346287606
 20
124.39835793022
 30
0.0
 11
112.2320009746876
 21
124.3929001845394
 31
0.0
  0
LINE
  5
45C
330
E3
100
AcDbEntity
  8
0
  6
Continuous
100
AcDbLine
 10
112.2320009746876
 20
124.3929001845394
 30
0.0
 11
112.205444999177
 21
124.3874460484789
 31
0.0
  0
LINE
  5
45D
330
E3
100
AcDbEntity
  8
0
  6
Continuous
100
AcDbLine
 10
112.205444999177
 20
124.3874460484789
 30
0.0
 11
112.175976060198
 21
124.3819883027984
 31
0.0
  0
LINE
  5
45E
330
E3
100
AcDbEntity
  8
0
  6
Continuous
100
AcDbLine
 10
112.175976060198
 20
124.3819883027984
 30
0.0
 11
112.1438179542005
 21
124.3765305571178
 31
0.0
  0
LINE
  5
45F
330
E3
100
AcDbEntity
  8
0
  6
Continuous
100
AcDbLine
 10
112.1438179542005
 20
124.3765305571178
 30
0.0
 11
112.1092125257351
 21
124.3710764210574
 31
0.0
  0
LINE
  5
460
330
E3
100
AcDbEntity
  8
0
  6
Continuous
100
AcDbLine
 10
112.1092125257351
 20
124.3710764210574
 30
0.0
 11
112.0724232770734
 21
124.3656186753768
 31
0.0
  0
LINE
  5
461
330
E3
100
AcDbEntity
  8
0
  6
Continuous
100
AcDbLine
 10
112.0724232770734
 20
124.3656186753768
 30
0.0
 11
112.0337317585878
 21
124.3601645393164
 31
0.0
  0
LINE
  5
462
330
E3
100
AcDbEntity
  8
0
  6
Continuous
100
AcDbLine
 10
112.0337317585878
 20
124.3601645393164
 30
0.0
 11
111.9934339591315
 21
124.3547067936358
 31
0.0
  0
LINE
  5
463
330
E3
100
AcDbEntity
  8
0
  6
Continuous
100
AcDbLine
 10
111.9934339591315
 20
124.3547067936358
 30
0.0
 11
111.9518330867977
 21
124.3492490479552
 31
0.0
  0
LINE
  5
464
330
E3
100
AcDbEntity
  8
0
  6
Continuous
100
AcDbLine
 10
111.9518330867977
 20
124.3492490479552
 30
0.0
 11
111.9092467881605
 21
124.3437949118948
 31
0.0
  0
LINE
  5
465
330
E3
100
AcDbEntity
  8
0
  6
Continuous
100
AcDbLine
 10
111.9092467881605
 20
124.3437949118948
 30
0.0
 11
111.8659999290341
 21
124.3383371662142
 31
0.0
  0
LINE
  5
466
330
E3
100
AcDbEntity
  8
0
  6
Continuous
100
AcDbLine
 10
111.8659999290341
 20
124.3383371662142
 30
0.0
 11
111.8224245944733
 21
124.3328830301538
 31
0.0
  0
LINE
  5
467
330
E3
100
AcDbEntity
  8
0
  6
Continuous
100
AcDbLine
 10
111.8224245944733
 20
124.3328830301538
 30
0.0
 11
111.7788456502923
 21
124.3274252844732
 31
0.0
  0
LINE
  5
468
330
E3
100
AcDbEntity
  8
0
  6
Continuous
100
AcDbLine
 10
111.7788456502923
 20
124.3274252844732
 30
0.0
 11
111.735598791166
 21
124.3219675387926
 31
0.0
  0
LINE
  5
469
330
E3
100
AcDbEntity
  8
0
  6
Continuous
100
AcDbLine
 10
111.735598791166
 20
124.3219675387926
 30
0.0
 11
111.6930124925287
 21
124.3165134027322
 31
0.0
  0
LINE
  5
46A
330
E3
100
AcDbEntity
  8
0
  6
Continuous
100
AcDbLine
 10
111.6930124925287
 20
124.3165134027322
 30
0.0
 11
111.6514116201949
 21
124.3110556570516
 31
0.0
  0
LINE
  5
46B
330
E3
100
AcDbEntity
  8
0
  6
Continuous
100
AcDbLine
 10
111.6514116201949
 20
124.3110556570516
 30
0.0
 11
111.6111138207386
 21
124.3056015209912
 31
0.0
  0
LINE
  5
46C
330
E3
100
AcDbEntity
  8
0
  6
Continuous
100
AcDbLine
 10
111.6111138207386
 20
124.3056015209912
 30
0.0
 11
111.5724223022531
 21
124.3001437753106
 31
0.0
  0
LINE
  5
46D
330
E3
100
AcDbEntity
  8
0
  6
Continuous
100
AcDbLine
 10
111.5724223022531
 20
124.3001437753106
 30
0.0
 11
111.5356366632115
 21
124.29468602963
 31
0.0
  0
LINE
  5
46E
330
E3
100
AcDbEntity
  8
0
  6
Continuous
100
AcDbLine
 10
111.5356366632115
 20
124.29468602963
 30
0.0
 11
111.5010312347461
 21
124.2892318935696
 31
0.0
  0
LINE
  5
46F
330
E3
100
AcDbEntity
  8
0
  6
Continuous
100
AcDbLine
 10
111.5010312347461
 20
124.2892318935696
 30
0.0
 11
111.4688695191284
 21
124.283774147889
 31
0.0
  0
LINE
  5
470
330
E3
100
AcDbEntity
  8
0
  6
Continuous
100
AcDbLine
 10
111.4688695191284
 20
124.283774147889
 30
0.0
 11
111.4394005801494
 21
124.2783164022085
 31
0.0
  0
LINE
  5
471
330
E3
100
AcDbEntity
  8
0
  6
Continuous
100
AcDbLine
 10
111.4394005801494
 20
124.2783164022085
 30
0.0
 11
111.4128482142589
 21
124.272862266148
 31
0.0
  0
LINE
  5
472
330
E3
100
AcDbEntity
  8
0
  6
Continuous
100
AcDbLine
 10
111.4128482142589
 20
124.272862266148
 30
0.0
 11
111.3894109505658
 21
124.2674045204675
 31
0.0
  0
LINE
  5
473
330
E3
100
AcDbEntity
  8
0
  6
Continuous
100
AcDbLine
 10
111.3894109505658
 20
124.2674045204675
 30
0.0
 11
111.369269270078
 21
124.261950384407
 31
0.0
  0
LINE
  5
474
330
E3
100
AcDbEntity
  8
0
  6
Continuous
100
AcDbLine
 10
111.369269270078
 20
124.261950384407
 30
0.0
 11
111.3525783864622
 21
124.2564926387265
 31
0.0
  0
LINE
  5
475
330
E3
100
AcDbEntity
  8
0
  6
Continuous
100
AcDbLine
 10
111.3525783864622
 20
124.2564926387265
 30
0.0
 11
111.339461026804
 21
124.2510348930459
 31
0.0
  0
LINE
  5
476
330
E3
100
AcDbEntity
  8
0
  6
Continuous
100
AcDbLine
 10
111.339461026804
 20
124.2510348930459
 30
0.0
 11
111.3300182604678
 21
124.2455807569855
 31
0.0
  0
LINE
  5
477
330
E3
100
AcDbEntity
  8
0
  6
Continuous
100
AcDbLine
 10
111.3300182604678
 20
124.2455807569855
 30
0.0
 11
111.3243260449649
 21
124.2401235671902
 31
0.0
  0
LINE
  5
478
330
E3
100
AcDbEntity
  8
0
  6
Continuous
100
AcDbLine
 10
111.3243260449649
 20
124.2401235671902
 30
0.0
 11
111.3224233940108
 21
124.2346672179838
 31
0.0
  0
LINE
  5
479
330
E3
100
AcDbEntity
  8
0
  6
Continuous
100
AcDbLine
 10
112.3224233940108
 20
124.0382386465553
 30
0.0
 11
112.3205207430567
 21
124.0327822973489
 31
0.0
  0
LINE
  5
47A
330
E3
100
AcDbEntity
  8
0
  6
Continuous
100
AcDbLine
 10
112.3205207430567
 20
124.0327822973489
 30
0.0
 11
112.3148272705169
 21
124.0273259481426
 31
0.0
  0
LINE
  5
47B
330
E3
100
AcDbEntity
  8
0
  6
Continuous
100
AcDbLine
 10
112.3148272705169
 20
124.0273259481426
 30
0.0
 11
112.3053845525224
 21
124.0218709380042
 31
0.0
  0
LINE
  5
47C
330
E3
100
AcDbEntity
  8
0
  6
Continuous
100
AcDbLine
 10
112.3053845525224
 20
124.0218709380042
 30
0.0
 11
112.2922708024844
 21
124.0164131923236
 31
0.0
  0
LINE
  5
47D
330
E3
100
AcDbEntity
  8
0
  6
Continuous
100
AcDbLine
 10
112.2922708024844
 20
124.0164131923236
 30
0.0
 11
112.2755763092485
 21
124.0109554466431
 31
0.0
  0
LINE
  5
47E
330
E3
100
AcDbEntity
  8
0
  6
Continuous
100
AcDbLine
 10
112.2755763092485
 20
124.0109554466431
 30
0.0
 11
112.2554346287606
 21
124.0055013105826
 31
0.0
  0
LINE
  5
47F
330
E3
100
AcDbEntity
  8
0
  6
Continuous
100
AcDbLine
 10
112.2554346287606
 20
124.0055013105826
 30
0.0
 11
112.2320009746876
 21
124.000043564902
 31
0.0
  0
LINE
  5
480
330
E3
100
AcDbEntity
  8
0
  6
Continuous
100
AcDbLine
 10
112.2320009746876
 20
124.000043564902
 30
0.0
 11
112.205444999177
 21
123.9945894288416
 31
0.0
  0
LINE
  5
481
330
E3
100
AcDbEntity
  8
0
  6
Continuous
100
AcDbLine
 10
112.205444999177
 20
123.9945894288416
 30
0.0
 11
112.175976060198
 21
123.989131683161
 31
0.0
  0
LINE
  5
482
330
E3
100
AcDbEntity
  8
0
  6
Continuous
100
AcDbLine
 10
112.175976060198
 20
123.989131683161
 30
0.0
 11
112.1438179542005
 21
123.9836739374805
 31
0.0
  0
LINE
  5
483
330
E3
100
AcDbEntity
  8
0
  6
Continuous
100
AcDbLine
 10
112.1438179542005
 20
123.9836739374805
 30
0.0
 11
112.1092125257351
 21
123.97821980142
 31
0.0
  0
LINE
  5
484
330
E3
100
AcDbEntity
  8
0
  6
Continuous
100
AcDbLine
 10
112.1092125257351
 20
123.97821980142
 30
0.0
 11
112.0724232770734
 21
123.9727620557395
 31
0.0
  0
LINE
  5
485
330
E3
100
AcDbEntity
  8
0
  6
Continuous
100
AcDbLine
 10
112.0724232770734
 20
123.9727620557395
 30
0.0
 11
112.0337317585878
 21
123.9673043100589
 31
0.0
  0
LINE
  5
486
330
E3
100
AcDbEntity
  8
0
  6
Continuous
100
AcDbLine
 10
112.0337317585878
 20
123.9673043100589
 30
0.0
 11
111.9934339591315
 21
123.9618501739985
 31
0.0
  0
LINE
  5
487
330
E3
100
AcDbEntity
  8
0
  6
Continuous
100
AcDbLine
 10
111.9934339591315
 20
123.9618501739985
 30
0.0
 11
111.9518330867977
 21
123.9563924283179
 31
0.0
  0
LINE
  5
488
330
E3
100
AcDbEntity
  8
0
  6
Continuous
100
AcDbLine
 10
111.9518330867977
 20
123.9563924283179
 30
0.0
 11
111.9092467881605
 21
123.9509382922575
 31
0.0
  0
LINE
  5
489
330
E3
100
AcDbEntity
  8
0
  6
Continuous
100
AcDbLine
 10
111.9092467881605
 20
123.9509382922575
 30
0.0
 11
111.8659999290341
 21
123.9454805465769
 31
0.0
  0
LINE
  5
48A
330
E3
100
AcDbEntity
  8
0
  6
Continuous
100
AcDbLine
 10
111.8659999290341
 20
123.9454805465769
 30
0.0
 11
111.8224245944733
 21
123.9400228008963
 31
0.0
  0
LINE
  5
48B
330
E3
100
AcDbEntity
  8
0
  6
Continuous
100
AcDbLine
 10
111.8224245944733
 20
123.9400228008963
 30
0.0
 11
111.7788456502923
 21
123.9345686648359
 31
0.0
  0
LINE
  5
48C
330
E3
100
AcDbEntity
  8
0
  6
Continuous
100
AcDbLine
 10
111.7788456502923
 20
123.9345686648359
 30
0.0
 11
111.735598791166
 21
123.9291109191553
 31
0.0
  0
LINE
  5
48D
330
E3
100
AcDbEntity
  8
0
  6
Continuous
100
AcDbLine
 10
111.735598791166
 20
123.9291109191553
 30
0.0
 11
111.6930124925287
 21
123.9236567830949
 31
0.0
  0
LINE
  5
48E
330
E3
100
AcDbEntity
  8
0
  6
Continuous
100
AcDbLine
 10
111.6930124925287
 20
123.9236567830949
 30
0.0
 11
111.6514116201949
 21
123.9181990374143
 31
0.0
  0
LINE
  5
48F
330
E3
100
AcDbEntity
  8
0
  6
Continuous
100
AcDbLine
 10
111.6514116201949
 20
123.9181990374143
 30
0.0
 11
111.6111138207386
 21
123.9127412917337
 31
0.0
  0
LINE
  5
490
330
E3
100
AcDbEntity
  8
0
  6
Continuous
100
AcDbLine
 10
111.6111138207386
 20
123.9127412917337
 30
0.0
 11
111.5724223022531
 21
123.9072871556733
 31
0.0
  0
LINE
  5
491
330
E3
100
AcDbEntity
  8
0
  6
Continuous
100
AcDbLine
 10
111.5724223022531
 20
123.9072871556733
 30
0.0
 11
111.5356366632115
 21
123.9018294099927
 31
0.0
  0
LINE
  5
492
330
E3
100
AcDbEntity
  8
0
  6
Continuous
100
AcDbLine
 10
111.5356366632115
 20
123.9018294099927
 30
0.0
 11
111.5010312347461
 21
123.8963752739323
 31
0.0
  0
LINE
  5
493
330
E3
100
AcDbEntity
  8
0
  6
Continuous
100
AcDbLine
 10
111.5010312347461
 20
123.8963752739323
 30
0.0
 11
111.4688695191284
 21
123.8909175282517
 31
0.0
  0
LINE
  5
494
330
E3
100
AcDbEntity
  8
0
  6
Continuous
100
AcDbLine
 10
111.4688695191284
 20
123.8909175282517
 30
0.0
 11
111.4394005801494
 21
123.8854597825711
 31
0.0
  0
LINE
  5
495
330
E3
100
AcDbEntity
  8
0
  6
Continuous
100
AcDbLine
 10
111.4394005801494
 20
123.8854597825711
 30
0.0
 11
111.4128482142589
 21
123.8800056465107
 31
0.0
  0
LINE
  5
496
330
E3
100
AcDbEntity
  8
0
  6
Continuous
100
AcDbLine
 10
111.4128482142589
 20
123.8800056465107
 30
0.0
 11
111.3894109505658
 21
123.8745479008301
 31
0.0
  0
LINE
  5
497
330
E3
100
AcDbEntity
  8
0
  6
Continuous
100
AcDbLine
 10
111.3894109505658
 20
123.8745479008301
 30
0.0
 11
111.369269270078
 21
123.8690901551496
 31
0.0
  0
LINE
  5
498
330
E3
100
AcDbEntity
  8
0
  6
Continuous
100
AcDbLine
 10
111.369269270078
 20
123.8690901551496
 30
0.0
 11
111.3525783864622
 21
123.8636360190891
 31
0.0
  0
LINE
  5
499
330
E3
100
AcDbEntity
  8
0
  6
Continuous
100
AcDbLine
 10
111.3525783864622
 20
123.8636360190891
 30
0.0
 11
111.339461026804
 21
123.8581782734085
 31
0.0
  0
LINE
  5
49A
330
E3
100
AcDbEntity
  8
0
  6
Continuous
100
AcDbLine
 10
111.339461026804
 20
123.8581782734085
 30
0.0
 11
111.3300182604678
 21
123.8527241373481
 31
0.0
  0
LINE
  5
49B
330
E3
100
AcDbEntity
  8
0
  6
Continuous
100
AcDbLine
 10
111.3300182604678
 20
123.8527241373481
 30
0.0
 11
111.3243260449649
 21
123.8472664243331
 31
0.0
  0
LINE
  5
49C
330
E3
100
AcDbEntity
  8
0
  6
Continuous
100
AcDbLine
 10
111.3243260449649
 20
123.8472664243331
 30
0.0
 11
111.3224233940108
 21
123.8418100751267
 31
0.0
  0
LINE
  5
49D
330
E3
100
AcDbEntity
  8
0
  6
Continuous
100
AcDbLine
 10
112.3224233940108
 20
123.6453815036981
 30
0.0
 11
112.3205207430567
 21
123.6399251544918
 31
0.0
  0
LINE
  5
49E
330
E3
100
AcDbEntity
  8
0
  6
Continuous
100
AcDbLine
 10
112.3205207430567
 20
123.6399251544918
 30
0.0
 11
112.3148272705169
 21
123.6344688052854
 31
0.0
  0
LINE
  5
49F
330
E3
100
AcDbEntity
  8
0
  6
Continuous
100
AcDbLine
 10
112.3148272705169
 20
123.6344688052854
 30
0.0
 11
112.3053845525224
 21
123.6290107087467
 31
0.0
  0
LINE
  5
4A0
330
E3
100
AcDbEntity
  8
0
  6
Continuous
100
AcDbLine
 10
112.3053845525224
 20
123.6290107087467
 30
0.0
 11
112.2922708024844
 21
123.6235565726863
 31
0.0
  0
LINE
  5
4A1
330
E3
100
AcDbEntity
  8
0
  6
Continuous
100
AcDbLine
 10
112.2922708024844
 20
123.6235565726863
 30
0.0
 11
112.2755763092485
 21
123.6180988270057
 31
0.0
  0
LINE
  5
4A2
330
E3
100
AcDbEntity
  8
0
  6
Continuous
100
AcDbLine
 10
112.2755763092485
 20
123.6180988270057
 30
0.0
 11
112.2554346287606
 21
123.6126446909453
 31
0.0
  0
LINE
  5
4A3
330
E3
100
AcDbEntity
  8
0
  6
Continuous
100
AcDbLine
 10
112.2554346287606
 20
123.6126446909453
 30
0.0
 11
112.2320009746876
 21
123.6071869452647
 31
0.0
  0
LINE
  5
4A4
330
E3
100
AcDbEntity
  8
0
  6
Continuous
100
AcDbLine
 10
112.2320009746876
 20
123.6071869452647
 30
0.0
 11
112.205444999177
 21
123.6017291995841
 31
0.0
  0
LINE
  5
4A5
330
E3
100
AcDbEntity
  8
0
  6
Continuous
100
AcDbLine
 10
112.205444999177
 20
123.6017291995841
 30
0.0
 11
112.175976060198
 21
123.5962750635237
 31
0.0
  0
LINE
  5
4A6
330
E3
100
AcDbEntity
  8
0
  6
Continuous
100
AcDbLine
 10
112.175976060198
 20
123.5962750635237
 30
0.0
 11
112.1438179542005
 21
123.5908173178431
 31
0.0
  0
LINE
  5
4A7
330
E3
100
AcDbEntity
  8
0
  6
Continuous
100
AcDbLine
 10
112.1438179542005
 20
123.5908173178431
 30
0.0
 11
112.1092125257351
 21
123.5853631817827
 31
0.0
  0
LINE
  5
4A8
330
E3
100
AcDbEntity
  8
0
  6
Continuous
100
AcDbLine
 10
112.1092125257351
 20
123.5853631817827
 30
0.0
 11
112.0724232770734
 21
123.5799054361021
 31
0.0
  0
LINE
  5
4A9
330
E3
100
AcDbEntity
  8
0
  6
Continuous
100
AcDbLine
 10
112.0724232770734
 20
123.5799054361021
 30
0.0
 11
112.0337317585878
 21
123.5744476904216
 31
0.0
  0
LINE
  5
4AA
330
E3
100
AcDbEntity
  8
0
  6
Continuous
100
AcDbLine
 10
112.0337317585878
 20
123.5744476904216
 30
0.0
 11
111.9934339591315
 21
123.5689935543611
 31
0.0
  0
LINE
  5
4AB
330
E3
100
AcDbEntity
  8
0
  6
Continuous
100
AcDbLine
 10
111.9934339591315
 20
123.5689935543611
 30
0.0
 11
111.9518330867977
 21
123.5635358086806
 31
0.0
  0
LINE
  5
4AC
330
E3
100
AcDbEntity
  8
0
  6
Continuous
100
AcDbLine
 10
111.9518330867977
 20
123.5635358086806
 30
0.0
 11
111.9092467881605
 21
123.5580816726201
 31
0.0
  0
LINE
  5
4AD
330
E3
100
AcDbEntity
  8
0
  6
Continuous
100
AcDbLine
 10
111.9092467881605
 20
123.5580816726201
 30
0.0
 11
111.8659999290341
 21
123.5526239269395
 31
0.0
  0
LINE
  5
4AE
330
E3
100
AcDbEntity
  8
0
  6
Continuous
100
AcDbLine
 10
111.8659999290341
 20
123.5526239269395
 30
0.0
 11
111.8224245944733
 21
123.547166181259
 31
0.0
  0
LINE
  5
4AF
330
E3
100
AcDbEntity
  8
0
  6
Continuous
100
AcDbLine
 10
111.8224245944733
 20
123.547166181259
 30
0.0
 11
111.7788456502923
 21
123.5417120451985
 31
0.0
  0
LINE
  5
4B0
330
E3
100
AcDbEntity
  8
0
  6
Continuous
100
AcDbLine
 10
111.7788456502923
 20
123.5417120451985
 30
0.0
 11
111.735598791166
 21
123.536254299518
 31
0.0
  0
LINE
  5
4B1
330
E3
100
AcDbEntity
  8
0
  6
Continuous
100
AcDbLine
 10
111.735598791166
 20
123.536254299518
 30
0.0
 11
111.6930124925287
 21
123.5307965538374
 31
0.0
  0
LINE
  5
4B2
330
E3
100
AcDbEntity
  8
0
  6
Continuous
100
AcDbLine
 10
111.6930124925287
 20
123.5307965538374
 30
0.0
 11
111.6514116201949
 21
123.525342417777
 31
0.0
  0
LINE
  5
4B3
330
E3
100
AcDbEntity
  8
0
  6
Continuous
100
AcDbLine
 10
111.6514116201949
 20
123.525342417777
 30
0.0
 11
111.6111138207386
 21
123.5198846720964
 31
0.0
  0
LINE
  5
4B4
330
E3
100
AcDbEntity
  8
0
  6
Continuous
100
AcDbLine
 10
111.6111138207386
 20
123.5198846720964
 30
0.0
 11
111.5724223022531
 21
123.514430536036
 31
0.0
  0
LINE
  5
4B5
330
E3
100
AcDbEntity
  8
0
  6
Continuous
100
AcDbLine
 10
111.5724223022531
 20
123.514430536036
 30
0.0
 11
111.5356366632115
 21
123.5089727903554
 31
0.0
  0
LINE
  5
4B6
330
E3
100
AcDbEntity
  8
0
  6
Continuous
100
AcDbLine
 10
111.5356366632115
 20
123.5089727903554
 30
0.0
 11
111.5010312347461
 21
123.5035150446748
 31
0.0
  0
LINE
  5
4B7
330
E3
100
AcDbEntity
  8
0
  6
Continuous
100
AcDbLine
 10
111.5010312347461
 20
123.5035150446748
 30
0.0
 11
111.4688695191284
 21
123.4980609086144
 31
0.0
  0
LINE
  5
4B8
330
E3
100
AcDbEntity
  8
0
  6
Continuous
100
AcDbLine
 10
111.4688695191284
 20
123.4980609086144
 30
0.0
 11
111.4394005801494
 21
123.4926031629338
 31
0.0
  0
LINE
  5
4B9
330
E3
100
AcDbEntity
  8
0
  6
Continuous
100
AcDbLine
 10
111.4394005801494
 20
123.4926031629338
 30
0.0
 11
111.4128482142589
 21
123.4871490268734
 31
0.0
  0
LINE
  5
4BA
330
E3
100
AcDbEntity
  8
0
  6
Continuous
100
AcDbLine
 10
111.4128482142589
 20
123.4871490268734
 30
0.0
 11
111.3894109505658
 21
123.4816912811928
 31
0.0
  0
LINE
  5
4BB
330
E3
100
AcDbEntity
  8
0
  6
Continuous
100
AcDbLine
 10
111.3894109505658
 20
123.4816912811928
 30
0.0
 11
111.369269270078
 21
123.4762335355122
 31
0.0
  0
LINE
  5
4BC
330
E3
100
AcDbEntity
  8
0
  6
Continuous
100
AcDbLine
 10
111.369269270078
 20
123.4762335355122
 30
0.0
 11
111.3525783864622
 21
123.4707793994518
 31
0.0
  0
LINE
  5
4BD
330
E3
100
AcDbEntity
  8
0
  6
Continuous
100
AcDbLine
 10
111.3525783864622
 20
123.4707793994518
 30
0.0
 11
111.339461026804
 21
123.4653216537712
 31
0.0
  0
LINE
  5
4BE
330
E3
100
AcDbEntity
  8
0
  6
Continuous
100
AcDbLine
 10
111.339461026804
 20
123.4653216537712
 30
0.0
 11
111.3300182604678
 21
123.4598639080906
 31
0.0
  0
LINE
  5
4BF
330
E3
100
AcDbEntity
  8
0
  6
Continuous
100
AcDbLine
 10
111.3300182604678
 20
123.4598639080906
 30
0.0
 11
111.3243260449649
 21
123.4544092814759
 31
0.0
  0
LINE
  5
4C0
330
E3
100
AcDbEntity
  8
0
  6
Continuous
100
AcDbLine
 10
111.3243260449649
 20
123.4544092814759
 30
0.0
 11
111.3224233940108
 21
123.4489529322695
 31
0.0
  0
LINE
  5
4C1
330
E3
100
AcDbEntity
  8
0
  6
Continuous
100
AcDbLine
 10
112.3224233940108
 20
123.252524360841
 30
0.0
 11
112.3205207430567
 21
123.2470680116346
 31
0.0
  0
LINE
  5
4C2
330
E3
100
AcDbEntity
  8
0
  6
Continuous
100
AcDbLine
 10
112.3205207430567
 20
123.2470680116346
 30
0.0
 11
112.3148272705169
 21
123.2416116624283
 31
0.0
  0
LINE
  5
4C3
330
E3
100
AcDbEntity
  8
0
  6
Continuous
100
AcDbLine
 10
112.3148272705169
 20
123.2416116624283
 30
0.0
 11
112.3053845525224
 21
123.2361540891094
 31
0.0
  0
LINE
  5
4C4
330
E3
100
AcDbEntity
  8
0
  6
Continuous
100
AcDbLine
 10
112.3053845525224
 20
123.2361540891094
 30
0.0
 11
112.2922708024844
 21
123.230699953049
 31
0.0
  0
LINE
  5
4C5
330
E3
100
AcDbEntity
  8
0
  6
Continuous
100
AcDbLine
 10
112.2922708024844
 20
123.230699953049
 30
0.0
 11
112.2755763092485
 21
123.2252422073684
 31
0.0
  0
LINE
  5
4C6
330
E3
100
AcDbEntity
  8
0
  6
Continuous
100
AcDbLine
 10
112.2755763092485
 20
123.2252422073684
 30
0.0
 11
112.2554346287606
 21
123.2197844616878
 31
0.0
  0
LINE
  5
4C7
330
E3
100
AcDbEntity
  8
0
  6
Continuous
100
AcDbLine
 10
112.2554346287606
 20
123.2197844616878
 30
0.0
 11
112.2320009746876
 21
123.2143303256274
 31
0.0
  0
LINE
  5
4C8
330
E3
100
AcDbEntity
  8
0
  6
Continuous
100
AcDbLine
 10
112.2320009746876
 20
123.2143303256274
 30
0.0
 11
112.205444999177
 21
123.2088725799468
 31
0.0
  0
LINE
  5
4C9
330
E3
100
AcDbEntity
  8
0
  6
Continuous
100
AcDbLine
 10
112.205444999177
 20
123.2088725799468
 30
0.0
 11
112.175976060198
 21
123.2034184438864
 31
0.0
  0
LINE
  5
4CA
330
E3
100
AcDbEntity
  8
0
  6
Continuous
100
AcDbLine
 10
112.175976060198
 20
123.2034184438864
 30
0.0
 11
112.1438179542005
 21
123.1979606982058
 31
0.0
  0
LINE
  5
4CB
330
E3
100
AcDbEntity
  8
0
  6
Continuous
100
AcDbLine
 10
112.1438179542005
 20
123.1979606982058
 30
0.0
 11
112.1092125257351
 21
123.1925029525252
 31
0.0
  0
LINE
  5
4CC
330
E3
100
AcDbEntity
  8
0
  6
Continuous
100
AcDbLine
 10
112.1092125257351
 20
123.1925029525252
 30
0.0
 11
112.0724232770734
 21
123.1870488164648
 31
0.0
  0
LINE
  5
4CD
330
E3
100
AcDbEntity
  8
0
  6
Continuous
100
AcDbLine
 10
112.0724232770734
 20
123.1870488164648
 30
0.0
 11
112.0337317585878
 21
123.1815910707842
 31
0.0
  0
LINE
  5
4CE
330
E3
100
AcDbEntity
  8
0
  6
Continuous
100
AcDbLine
 10
112.0337317585878
 20
123.1815910707842
 30
0.0
 11
111.9934339591315
 21
123.1761369347238
 31
0.0
  0
LINE
  5
4CF
330
E3
100
AcDbEntity
  8
0
  6
Continuous
100
AcDbLine
 10
111.9934339591315
 20
123.1761369347238
 30
0.0
 11
111.9518330867977
 21
123.1706791890432
 31
0.0
  0
LINE
  5
4D0
330
E3
100
AcDbEntity
  8
0
  6
Continuous
100
AcDbLine
 10
111.9518330867977
 20
123.1706791890432
 30
0.0
 11
111.9092467881605
 21
123.1652214433626
 31
0.0
  0
LINE
  5
4D1
330
E3
100
AcDbEntity
  8
0
  6
Continuous
100
AcDbLine
 10
111.9092467881605
 20
123.1652214433626
 30
0.0
 11
111.8659999290341
 21
123.1597673073022
 31
0.0
  0
LINE
  5
4D2
330
E3
100
AcDbEntity
  8
0
  6
Continuous
100
AcDbLine
 10
111.8659999290341
 20
123.1597673073022
 30
0.0
 11
111.8224245944733
 21
123.1543095616216
 31
0.0
  0
LINE
  5
4D3
330
E3
100
AcDbEntity
  8
0
  6
Continuous
100
AcDbLine
 10
111.8224245944733
 20
123.1543095616216
 30
0.0
 11
111.7788456502923
 21
123.1488554255612
 31
0.0
  0
LINE
  5
4D4
330
E3
100
AcDbEntity
  8
0
  6
Continuous
100
AcDbLine
 10
111.7788456502923
 20
123.1488554255612
 30
0.0
 11
111.735598791166
 21
123.1433976798806
 31
0.0
  0
LINE
  5
4D5
330
E3
100
AcDbEntity
  8
0
  6
Continuous
100
AcDbLine
 10
111.735598791166
 20
123.1433976798806
 30
0.0
 11
111.6930124925287
 21
123.1379399342
 31
0.0
  0
LINE
  5
4D6
330
E3
100
AcDbEntity
  8
0
  6
Continuous
100
AcDbLine
 10
111.6930124925287
 20
123.1379399342
 30
0.0
 11
111.6514116201949
 21
123.1324857981396
 31
0.0
  0
LINE
  5
4D7
330
E3
100
AcDbEntity
  8
0
  6
Continuous
100
AcDbLine
 10
111.6514116201949
 20
123.1324857981396
 30
0.0
 11
111.6111138207386
 21
123.1270280524591
 31
0.0
  0
LINE
  5
4D8
330
E3
100
AcDbEntity
  8
0
  6
Continuous
100
AcDbLine
 10
111.6111138207386
 20
123.1270280524591
 30
0.0
 11
111.5724223022531
 21
123.1215703067785
 31
0.0
  0
LINE
  5
4D9
330
E3
100
AcDbEntity
  8
0
  6
Continuous
100
AcDbLine
 10
111.5724223022531
 20
123.1215703067785
 30
0.0
 11
111.5356366632115
 21
123.116116170718
 31
0.0
  0
LINE
  5
4DA
330
E3
100
AcDbEntity
  8
0
  6
Continuous
100
AcDbLine
 10
111.5356366632115
 20
123.116116170718
 30
0.0
 11
111.5010312347461
 21
123.1106584250375
 31
0.0
  0
LINE
  5
4DB
330
E3
100
AcDbEntity
  8
0
  6
Continuous
100
AcDbLine
 10
111.5010312347461
 20
123.1106584250375
 30
0.0
 11
111.4688695191284
 21
123.105204288977
 31
0.0
  0
LINE
  5
4DC
330
E3
100
AcDbEntity
  8
0
  6
Continuous
100
AcDbLine
 10
111.4688695191284
 20
123.105204288977
 30
0.0
 11
111.4394005801494
 21
123.0997465432965
 31
0.0
  0
LINE
  5
4DD
330
E3
100
AcDbEntity
  8
0
  6
Continuous
100
AcDbLine
 10
111.4394005801494
 20
123.0997465432965
 30
0.0
 11
111.4128482142589
 21
123.0942887976159
 31
0.0
  0
LINE
  5
4DE
330
E3
100
AcDbEntity
  8
0
  6
Continuous
100
AcDbLine
 10
111.4128482142589
 20
123.0942887976159
 30
0.0
 11
111.3894109505658
 21
123.0888346615555
 31
0.0
  0
LINE
  5
4DF
330
E3
100
AcDbEntity
  8
0
  6
Continuous
100
AcDbLine
 10
111.3894109505658
 20
123.0888346615555
 30
0.0
 11
111.369269270078
 21
123.0833769158749
 31
0.0
  0
LINE
  5
4E0
330
E3
100
AcDbEntity
  8
0
  6
Continuous
100
AcDbLine
 10
111.369269270078
 20
123.0833769158749
 30
0.0
 11
111.3525783864622
 21
123.0779227798145
 31
0.0
  0
LINE
  5
4E1
330
E3
100
AcDbEntity
  8
0
  6
Continuous
100
AcDbLine
 10
111.3525783864622
 20
123.0779227798145
 30
0.0
 11
111.339461026804
 21
123.0724650341339
 31
0.0
  0
LINE
  5
4E2
330
E3
100
AcDbEntity
  8
0
  6
Continuous
100
AcDbLine
 10
111.339461026804
 20
123.0724650341339
 30
0.0
 11
111.3300182604678
 21
123.0670072884533
 31
0.0
  0
LINE
  5
4E3
330
E3
100
AcDbEntity
  8
0
  6
Continuous
100
AcDbLine
 10
111.3300182604678
 20
123.0670072884533
 30
0.0
 11
111.3243260449649
 21
123.0615521386188
 31
0.0
  0
LINE
  5
4E4
330
E3
100
AcDbEntity
  8
0
  6
Continuous
100
AcDbLine
 10
111.3243260449649
 20
123.0615521386188
 30
0.0
 11
111.3224233940108
 21
123.0560957894124
 31
0.0
  0
LINE
  5
4E5
330
E3
100
AcDbEntity
  8
0
  6
Continuous
100
AcDbLine
 10
112.3224233940108
 20
122.8596672179838
 30
0.0
 11
112.3205207430567
 21
122.8542108687775
 31
0.0
  0
LINE
  5
4E6
330
E3
100
AcDbEntity
  8
0
  6
Continuous
100
AcDbLine
 10
112.3205207430567
 20
122.8542108687775
 30
0.0
 11
112.3148272705169
 21
122.8487545195711
 31
0.0
  0
LINE
  5
4E7
330
E3
100
AcDbEntity
  8
0
  6
Continuous
100
AcDbLine
 10
112.3148272705169
 20
122.8487545195711
 30
0.0
 11
112.3053845525224
 21
122.843297469472
 31
0.0
  0
LINE
  5
4E8
330
E3
100
AcDbEntity
  8
0
  6
Continuous
100
AcDbLine
 10
112.3053845525224
 20
122.843297469472
 30
0.0
 11
112.2922708024844
 21
122.8378433334116
 31
0.0
  0
LINE
  5
4E9
330
E3
100
AcDbEntity
  8
0
  6
Continuous
100
AcDbLine
 10
112.2922708024844
 20
122.8378433334116
 30
0.0
 11
112.2755763092485
 21
122.8323855877311
 31
0.0
  0
LINE
  5
4EA
330
E3
100
AcDbEntity
  8
0
  6
Continuous
100
AcDbLine
 10
112.2755763092485
 20
122.8323855877311
 30
0.0
 11
112.2554346287606
 21
122.8269278420505
 31
0.0
  0
LINE
  5
4EB
330
E3
100
AcDbEntity
  8
0
  6
Continuous
100
AcDbLine
 10
112.2554346287606
 20
122.8269278420505
 30
0.0
 11
112.2320009746876
 21
122.82147370599
 31
0.0
  0
LINE
  5
4EC
330
E3
100
AcDbEntity
  8
0
  6
Continuous
100
AcDbLine
 10
112.2320009746876
 20
122.82147370599
 30
0.0
 11
112.205444999177
 21
122.8160159603095
 31
0.0
  0
LINE
  5
4ED
330
E3
100
AcDbEntity
  8
0
  6
Continuous
100
AcDbLine
 10
112.205444999177
 20
122.8160159603095
 30
0.0
 11
112.175976060198
 21
122.810561824249
 31
0.0
  0
LINE
  5
4EE
330
E3
100
AcDbEntity
  8
0
  6
Continuous
100
AcDbLine
 10
112.175976060198
 20
122.810561824249
 30
0.0
 11
112.1438179542005
 21
122.8051040785685
 31
0.0
  0
LINE
  5
4EF
330
E3
100
AcDbEntity
  8
0
  6
Continuous
100
AcDbLine
 10
112.1438179542005
 20
122.8051040785685
 30
0.0
 11
112.1092125257351
 21
122.7996463328879
 31
0.0
  0
LINE
  5
4F0
330
E3
100
AcDbEntity
  8
0
  6
Continuous
100
AcDbLine
 10
112.1092125257351
 20
122.7996463328879
 30
0.0
 11
112.0724232770734
 21
122.7941921968275
 31
0.0
  0
LINE
  5
4F1
330
E3
100
AcDbEntity
  8
0
  6
Continuous
100
AcDbLine
 10
112.0724232770734
 20
122.7941921968275
 30
0.0
 11
112.0337317585878
 21
122.7887344511469
 31
0.0
  0
LINE
  5
4F2
330
E3
100
AcDbEntity
  8
0
  6
Continuous
100
AcDbLine
 10
112.0337317585878
 20
122.7887344511469
 30
0.0
 11
111.9934339591315
 21
122.7832767054663
 31
0.0
  0
LINE
  5
4F3
330
E3
100
AcDbEntity
  8
0
  6
Continuous
100
AcDbLine
 10
111.9934339591315
 20
122.7832767054663
 30
0.0
 11
111.9518330867977
 21
122.7778225694059
 31
0.0
  0
LINE
  5
4F4
330
E3
100
AcDbEntity
  8
0
  6
Continuous
100
AcDbLine
 10
111.9518330867977
 20
122.7778225694059
 30
0.0
 11
111.9092467881605
 21
122.7723648237253
 31
0.0
  0
LINE
  5
4F5
330
E3
100
AcDbEntity
  8
0
  6
Continuous
100
AcDbLine
 10
111.9092467881605
 20
122.7723648237253
 30
0.0
 11
111.8659999290341
 21
122.7669106876649
 31
0.0
  0
LINE
  5
4F6
330
E3
100
AcDbEntity
  8
0
  6
Continuous
100
AcDbLine
 10
111.8659999290341
 20
122.7669106876649
 30
0.0
 11
111.8224245944733
 21
122.7614529419843
 31
0.0
  0
LINE
  5
4F7
330
E3
100
AcDbEntity
  8
0
  6
Continuous
100
AcDbLine
 10
111.8224245944733
 20
122.7614529419843
 30
0.0
 11
111.7788456502923
 21
122.7559951963037
 31
0.0
  0
LINE
  5
4F8
330
E3
100
AcDbEntity
  8
0
  6
Continuous
100
AcDbLine
 10
111.7788456502923
 20
122.7559951963037
 30
0.0
 11
111.735598791166
 21
122.7505410602433
 31
0.0
  0
LINE
  5
4F9
330
E3
100
AcDbEntity
  8
0
  6
Continuous
100
AcDbLine
 10
111.735598791166
 20
122.7505410602433
 30
0.0
 11
111.6930124925287
 21
122.7450833145627
 31
0.0
  0
LINE
  5
4FA
330
E3
100
AcDbEntity
  8
0
  6
Continuous
100
AcDbLine
 10
111.6930124925287
 20
122.7450833145627
 30
0.0
 11
111.6514116201949
 21
122.7396291785023
 31
0.0
  0
LINE
  5
4FB
330
E3
100
AcDbEntity
  8
0
  6
Continuous
100
AcDbLine
 10
111.6514116201949
 20
122.7396291785023
 30
0.0
 11
111.6111138207386
 21
122.7341714328217
 31
0.0
  0
LINE
  5
4FC
330
E3
100
AcDbEntity
  8
0
  6
Continuous
100
AcDbLine
 10
111.6111138207386
 20
122.7341714328217
 30
0.0
 11
111.5724223022531
 21
122.7287136871411
 31
0.0
  0
LINE
  5
4FD
330
E3
100
AcDbEntity
  8
0
  6
Continuous
100
AcDbLine
 10
111.5724223022531
 20
122.7287136871411
 30
0.0
 11
111.5356366632115
 21
122.7232595510807
 31
0.0
  0
LINE
  5
4FE
330
E3
100
AcDbEntity
  8
0
  6
Continuous
100
AcDbLine
 10
111.5356366632115
 20
122.7232595510807
 30
0.0
 11
111.5010312347461
 21
122.7178018054001
 31
0.0
  0
LINE
  5
4FF
330
E3
100
AcDbEntity
  8
0
  6
Continuous
100
AcDbLine
 10
111.5010312347461
 20
122.7178018054001
 30
0.0
 11
111.4688695191284
 21
122.7123440597196
 31
0.0
  0
LINE
  5
500
330
E3
100
AcDbEntity
  8
0
  6
Continuous
100
AcDbLine
 10
111.4688695191284
 20
122.7123440597196
 30
0.0
 11
111.4394005801494
 21
122.7068899236591
 31
0.0
  0
LINE
  5
501
330
E3
100
AcDbEntity
  8
0
  6
Continuous
100
AcDbLine
 10
111.4394005801494
 20
122.7068899236591
 30
0.0
 11
111.4128482142589
 21
122.7014321779785
 31
0.0
  0
LINE
  5
502
330
E3
100
AcDbEntity
  8
0
  6
Continuous
100
AcDbLine
 10
111.4128482142589
 20
122.7014321779785
 30
0.0
 11
111.3894109505658
 21
122.6959780419181
 31
0.0
  0
LINE
  5
503
330
E3
100
AcDbEntity
  8
0
  6
Continuous
100
AcDbLine
 10
111.3894109505658
 20
122.6959780419181
 30
0.0
 11
111.369269270078
 21
122.6905202962375
 31
0.0
  0
LINE
  5
504
330
E3
100
AcDbEntity
  8
0
  6
Continuous
100
AcDbLine
 10
111.369269270078
 20
122.6905202962375
 30
0.0
 11
111.3525783864622
 21
122.685062550557
 31
0.0
  0
LINE
  5
505
330
E3
100
AcDbEntity
  8
0
  6
Continuous
100
AcDbLine
 10
111.3525783864622
 20
122.685062550557
 30
0.0
 11
111.339461026804
 21
122.6796084144965
 31
0.0
  0
LINE
  5
506
330
E3
100
AcDbEntity
  8
0
  6
Continuous
100
AcDbLine
 10
111.339461026804
 20
122.6796084144965
 30
0.0
 11
111.3300182604678
 21
122.674150668816
 31
0.0
  0
LINE
  5
507
330
E3
100
AcDbEntity
  8
0
  6
Continuous
100
AcDbLine
 10
111.3300182604678
 20
122.674150668816
 30
0.0
 11
111.3243260449649
 21
122.6686949957616
 31
0.0
  0
LINE
  5
508
330
E3
100
AcDbEntity
  8
0
  6
Continuous
100
AcDbLine
 10
111.3243260449649
 20
122.6686949957616
 30
0.0
 11
111.3224233940108
 21
122.6632386465553
 31
0.0
  0
LINE
  5
509
330
E3
100
AcDbEntity
  8
0
  6
Continuous
100
AcDbLine
 10
112.3224233940108
 20
122.4668100751267
 30
0.0
 11
112.3205207430567
 21
122.4613537259203
 31
0.0
  0
LINE
  5
50A
330
E3
100
AcDbEntity
  8
0
  6
Continuous
100
AcDbLine
 10
112.3205207430567
 20
122.4613537259203
 30
0.0
 11
112.3148272705169
 21
122.455897376714
 31
0.0
  0
LINE
  5
50B
330
E3
100
AcDbEntity
  8
0
  6
Continuous
100
AcDbLine
 10
112.3148272705169
 20
122.455897376714
 30
0.0
 11
112.3053845525224
 21
122.4504408498347
 31
0.0
  0
LINE
  5
50C
330
E3
100
AcDbEntity
  8
0
  6
Continuous
100
AcDbLine
 10
112.3053845525224
 20
122.4504408498347
 30
0.0
 11
112.2922708024844
 21
122.4449831041541
 31
0.0
  0
LINE
  5
50D
330
E3
100
AcDbEntity
  8
0
  6
Continuous
100
AcDbLine
 10
112.2922708024844
 20
122.4449831041541
 30
0.0
 11
112.2755763092485
 21
122.4395289680937
 31
0.0
  0
LINE
  5
50E
330
E3
100
AcDbEntity
  8
0
  6
Continuous
100
AcDbLine
 10
112.2755763092485
 20
122.4395289680937
 30
0.0
 11
112.2554346287606
 21
122.4340712224131
 31
0.0
  0
LINE
  5
50F
330
E3
100
AcDbEntity
  8
0
  6
Continuous
100
AcDbLine
 10
112.2554346287606
 20
122.4340712224131
 30
0.0
 11
112.2320009746876
 21
122.4286170863527
 31
0.0
  0
LINE
  5
510
330
E3
100
AcDbEntity
  8
0
  6
Continuous
100
AcDbLine
 10
112.2320009746876
 20
122.4286170863527
 30
0.0
 11
112.205444999177
 21
122.4231593406721
 31
0.0
  0
LINE
  5
511
330
E3
100
AcDbEntity
  8
0
  6
Continuous
100
AcDbLine
 10
112.205444999177
 20
122.4231593406721
 30
0.0
 11
112.175976060198
 21
122.4177015949915
 31
0.0
  0
LINE
  5
512
330
E3
100
AcDbEntity
  8
0
  6
Continuous
100
AcDbLine
 10
112.175976060198
 20
122.4177015949915
 30
0.0
 11
112.1438179542005
 21
122.4122474589311
 31
0.0
  0
LINE
  5
513
330
E3
100
AcDbEntity
  8
0
  6
Continuous
100
AcDbLine
 10
112.1438179542005
 20
122.4122474589311
 30
0.0
 11
112.1092125257351
 21
122.4067897132505
 31
0.0
  0
LINE
  5
514
330
E3
100
AcDbEntity
  8
0
  6
Continuous
100
AcDbLine
 10
112.1092125257351
 20
122.4067897132505
 30
0.0
 11
112.0724232770734
 21
122.4013355771901
 31
0.0
  0
LINE
  5
515
330
E3
100
AcDbEntity
  8
0
  6
Continuous
100
AcDbLine
 10
112.0724232770734
 20
122.4013355771901
 30
0.0
 11
112.0337317585878
 21
122.3958778315096
 31
0.0
  0
LINE
  5
516
330
E3
100
AcDbEntity
  8
0
  6
Continuous
100
AcDbLine
 10
112.0337317585878
 20
122.3958778315096
 30
0.0
 11
111.9934339591315
 21
122.3904200858289
 31
0.0
  0
LINE
  5
517
330
E3
100
AcDbEntity
  8
0
  6
Continuous
100
AcDbLine
 10
111.9934339591315
 20
122.3904200858289
 30
0.0
 11
111.9518330867977
 21
122.3849659497685
 31
0.0
  0
LINE
  5
518
330
E3
100
AcDbEntity
  8
0
  6
Continuous
100
AcDbLine
 10
111.9518330867977
 20
122.3849659497685
 30
0.0
 11
111.9092467881605
 21
122.379508204088
 31
0.0
  0
LINE
  5
519
330
E3
100
AcDbEntity
  8
0
  6
Continuous
100
AcDbLine
 10
111.9092467881605
 20
122.379508204088
 30
0.0
 11
111.8659999290341
 21
122.3740504584074
 31
0.0
  0
LINE
  5
51A
330
E3
100
AcDbEntity
  8
0
  6
Continuous
100
AcDbLine
 10
111.8659999290341
 20
122.3740504584074
 30
0.0
 11
111.8224245944733
 21
122.368596322347
 31
0.0
  0
LINE
  5
51B
330
E3
100
AcDbEntity
  8
0
  6
Continuous
100
AcDbLine
 10
111.8224245944733
 20
122.368596322347
 30
0.0
 11
111.7788456502923
 21
122.3631385766664
 31
0.0
  0
LINE
  5
51C
330
E3
100
AcDbEntity
  8
0
  6
Continuous
100
AcDbLine
 10
111.7788456502923
 20
122.3631385766664
 30
0.0
 11
111.735598791166
 21
122.357684440606
 31
0.0
  0
LINE
  5
51D
330
E3
100
AcDbEntity
  8
0
  6
Continuous
100
AcDbLine
 10
111.735598791166
 20
122.357684440606
 30
0.0
 11
111.6930124925287
 21
122.3522266949254
 31
0.0
  0
LINE
  5
51E
330
E3
100
AcDbEntity
  8
0
  6
Continuous
100
AcDbLine
 10
111.6930124925287
 20
122.3522266949254
 30
0.0
 11
111.6514116201949
 21
122.3467689492448
 31
0.0
  0
LINE
  5
51F
330
E3
100
AcDbEntity
  8
0
  6
Continuous
100
AcDbLine
 10
111.6514116201949
 20
122.3467689492448
 30
0.0
 11
111.6111138207386
 21
122.3413148131844
 31
0.0
  0
LINE
  5
520
330
E3
100
AcDbEntity
  8
0
  6
Continuous
100
AcDbLine
 10
111.6111138207386
 20
122.3413148131844
 30
0.0
 11
111.5724223022531
 21
122.3358570675038
 31
0.0
  0
LINE
  5
521
330
E3
100
AcDbEntity
  8
0
  6
Continuous
100
AcDbLine
 10
111.5724223022531
 20
122.3358570675038
 30
0.0
 11
111.5356366632115
 21
122.3304029314434
 31
0.0
  0
LINE
  5
522
330
E3
100
AcDbEntity
  8
0
  6
Continuous
100
AcDbLine
 10
111.5356366632115
 20
122.3304029314434
 30
0.0
 11
111.5010312347461
 21
122.3249451857628
 31
0.0
  0
LINE
  5
523
330
E3
100
AcDbEntity
  8
0
  6
Continuous
100
AcDbLine
 10
111.5010312347461
 20
122.3249451857628
 30
0.0
 11
111.4688695191284
 21
122.3194874400822
 31
0.0
  0
LINE
  5
524
330
E3
100
AcDbEntity
  8
0
  6
Continuous
100
AcDbLine
 10
111.4688695191284
 20
122.3194874400822
 30
0.0
 11
111.4394005801494
 21
122.3140333040218
 31
0.0
  0
LINE
  5
525
330
E3
100
AcDbEntity
  8
0
  6
Continuous
100
AcDbLine
 10
111.4394005801494
 20
122.3140333040218
 30
0.0
 11
111.4128482142589
 21
122.3085755583412
 31
0.0
  0
LINE
  5
526
330
E3
100
AcDbEntity
  8
0
  6
Continuous
100
AcDbLine
 10
111.4128482142589
 20
122.3085755583412
 30
0.0
 11
111.3894109505658
 21
122.3031178126606
 31
0.0
  0
LINE
  5
527
330
E3
100
AcDbEntity
  8
0
  6
Continuous
100
AcDbLine
 10
111.3894109505658
 20
122.3031178126606
 30
0.0
 11
111.369269270078
 21
122.2976636766002
 31
0.0
  0
LINE
  5
528
330
E3
100
AcDbEntity
  8
0
  6
Continuous
100
AcDbLine
 10
111.369269270078
 20
122.2976636766002
 30
0.0
 11
111.3525783864622
 21
122.2922059309196
 31
0.0
  0
LINE
  5
529
330
E3
100
AcDbEntity
  8
0
  6
Continuous
100
AcDbLine
 10
111.3525783864622
 20
122.2922059309196
 30
0.0
 11
111.339461026804
 21
122.2867517948592
 31
0.0
  0
LINE
  5
52A
330
E3
100
AcDbEntity
  8
0
  6
Continuous
100
AcDbLine
 10
111.339461026804
 20
122.2867517948592
 30
0.0
 11
111.3300182604678
 21
122.2812940491786
 31
0.0
  0
LINE
  5
52B
330
E3
100
AcDbEntity
  8
0
  6
Continuous
100
AcDbLine
 10
111.3300182604678
 20
122.2812940491786
 30
0.0
 11
111.3243260449649
 21
122.2758378529045
 31
0.0
  0
LINE
  5
52C
330
E3
100
AcDbEntity
  8
0
  6
Continuous
100
AcDbLine
 10
111.3243260449649
 20
122.2758378529045
 30
0.0
 11
111.3224233940108
 21
122.2703815036981
 31
0.0
  0
LINE
  5
52D
330
E3
100
AcDbEntity
  8
0
  6
Continuous
100
AcDbLine
 10
112.3224233940108
 20
122.0739529322695
 30
0.0
 11
112.3205207430567
 21
122.0684965830632
 31
0.0
  0
LINE
  5
52E
330
E3
100
AcDbEntity
  8
0
  6
Continuous
100
AcDbLine
 10
112.3205207430567
 20
122.0684965830632
 30
0.0
 11
112.3148272705169
 21
122.0630402338569
 31
0.0
  0
LINE
  5
52F
330
E3
100
AcDbEntity
  8
0
  6
Continuous
100
AcDbLine
 10
112.3148272705169
 20
122.0630402338569
 30
0.0
 11
112.3053845525224
 21
122.0575842301974
 31
0.0
  0
LINE
  5
530
330
E3
100
AcDbEntity
  8
0
  6
Continuous
100
AcDbLine
 10
112.3053845525224
 20
122.0575842301974
 30
0.0
 11
112.2922708024844
 21
122.0521264845168
 31
0.0
  0
LINE
  5
531
330
E3
100
AcDbEntity
  8
0
  6
Continuous
100
AcDbLine
 10
112.2922708024844
 20
122.0521264845168
 30
0.0
 11
112.2755763092485
 21
122.0466723484564
 31
0.0
  0
LINE
  5
532
330
E3
100
AcDbEntity
  8
0
  6
Continuous
100
AcDbLine
 10
112.2755763092485
 20
122.0466723484564
 30
0.0
 11
112.2554346287606
 21
122.0412146027758
 31
0.0
  0
LINE
  5
533
330
E3
100
AcDbEntity
  8
0
  6
Continuous
100
AcDbLine
 10
112.2554346287606
 20
122.0412146027758
 30
0.0
 11
112.2320009746876
 21
122.0357568570952
 31
0.0
  0
LINE
  5
534
330
E3
100
AcDbEntity
  8
0
  6
Continuous
100
AcDbLine
 10
112.2320009746876
 20
122.0357568570952
 30
0.0
 11
112.205444999177
 21
122.0303027210348
 31
0.0
  0
LINE
  5
535
330
E3
100
AcDbEntity
  8
0
  6
Continuous
100
AcDbLine
 10
112.205444999177
 20
122.0303027210348
 30
0.0
 11
112.175976060198
 21
122.0248449753542
 31
0.0
  0
LINE
  5
536
330
E3
100
AcDbEntity
  8
0
  6
Continuous
100
AcDbLine
 10
112.175976060198
 20
122.0248449753542
 30
0.0
 11
112.1438179542005
 21
122.0193908392938
 31
0.0
  0
LINE
  5
537
330
E3
100
AcDbEntity
  8
0
  6
Continuous
100
AcDbLine
 10
112.1438179542005
 20
122.0193908392938
 30
0.0
 11
112.1092125257351
 21
122.0139330936132
 31
0.0
  0
LINE
  5
538
330
E3
100
AcDbEntity
  8
0
  6
Continuous
100
AcDbLine
 10
112.1092125257351
 20
122.0139330936132
 30
0.0
 11
112.0724232770734
 21
122.0084753479326
 31
0.0
  0
LINE
  5
539
330
E3
100
AcDbEntity
  8
0
  6
Continuous
100
AcDbLine
 10
112.0724232770734
 20
122.0084753479326
 30
0.0
 11
112.0337317585878
 21
122.0030212118722
 31
0.0
  0
LINE
  5
53A
330
E3
100
AcDbEntity
  8
0
  6
Continuous
100
AcDbLine
 10
112.0337317585878
 20
122.0030212118722
 30
0.0
 11
111.9934339591315
 21
121.9975634661916
 31
0.0
  0
LINE
  5
53B
330
E3
100
AcDbEntity
  8
0
  6
Continuous
100
AcDbLine
 10
111.9934339591315
 20
121.9975634661916
 30
0.0
 11
111.9518330867977
 21
121.9921093301312
 31
0.0
  0
LINE
  5
53C
330
E3
100
AcDbEntity
  8
0
  6
Continuous
100
AcDbLine
 10
111.9518330867977
 20
121.9921093301312
 30
0.0
 11
111.9092467881605
 21
121.9866515844506
 31
0.0
  0
LINE
  5
53D
330
E3
100
AcDbEntity
  8
0
  6
Continuous
100
AcDbLine
 10
111.9092467881605
 20
121.9866515844506
 30
0.0
 11
111.8659999290341
 21
121.98119383877
 31
0.0
  0
LINE
  5
53E
330
E3
100
AcDbEntity
  8
0
  6
Continuous
100
AcDbLine
 10
111.8659999290341
 20
121.98119383877
 30
0.0
 11
111.8224245944733
 21
121.9757397027096
 31
0.0
  0
LINE
  5
53F
330
E3
100
AcDbEntity
  8
0
  6
Continuous
100
AcDbLine
 10
111.8224245944733
 20
121.9757397027096
 30
0.0
 11
111.7788456502923
 21
121.9702819570291
 31
0.0
  0
LINE
  5
540
330
E3
100
AcDbEntity
  8
0
  6
Continuous
100
AcDbLine
 10
111.7788456502923
 20
121.9702819570291
 30
0.0
 11
111.735598791166
 21
121.9648242113485
 31
0.0
  0
LINE
  5
541
330
E3
100
AcDbEntity
  8
0
  6
Continuous
100
AcDbLine
 10
111.735598791166
 20
121.9648242113485
 30
0.0
 11
111.6930124925287
 21
121.959370075288
 31
0.0
  0
LINE
  5
542
330
E3
100
AcDbEntity
  8
0
  6
Continuous
100
AcDbLine
 10
111.6930124925287
 20
121.959370075288
 30
0.0
 11
111.6514116201949
 21
121.9539123296075
 31
0.0
  0
LINE
  5
543
330
E3
100
AcDbEntity
  8
0
  6
Continuous
100
AcDbLine
 10
111.6514116201949
 20
121.9539123296075
 30
0.0
 11
111.6111138207386
 21
121.948458193547
 31
0.0
  0
LINE
  5
544
330
E3
100
AcDbEntity
  8
0
  6
Continuous
100
AcDbLine
 10
111.6111138207386
 20
121.948458193547
 30
0.0
 11
111.5724223022531
 21
121.9430004478665
 31
0.0
  0
LINE
  5
545
330
E3
100
AcDbEntity
  8
0
  6
Continuous
100
AcDbLine
 10
111.5724223022531
 20
121.9430004478665
 30
0.0
 11
111.5356366632115
 21
121.9375427021859
 31
0.0
  0
LINE
  5
546
330
E3
100
AcDbEntity
  8
0
  6
Continuous
100
AcDbLine
 10
111.5356366632115
 20
121.9375427021859
 30
0.0
 11
111.5010312347461
 21
121.9320885661255
 31
0.0
  0
LINE
  5
547
330
E3
100
AcDbEntity
  8
0
  6
Continuous
100
AcDbLine
 10
111.5010312347461
 20
121.9320885661255
 30
0.0
 11
111.4688695191284
 21
121.9266308204449
 31
0.0
  0
LINE
  5
548
330
E3
100
AcDbEntity
  8
0
  6
Continuous
100
AcDbLine
 10
111.4688695191284
 20
121.9266308204449
 30
0.0
 11
111.4394005801494
 21
121.9211766843845
 31
0.0
  0
LINE
  5
549
330
E3
100
AcDbEntity
  8
0
  6
Continuous
100
AcDbLine
 10
111.4394005801494
 20
121.9211766843845
 30
0.0
 11
111.4128482142589
 21
121.9157189387039
 31
0.0
  0
LINE
  5
54A
330
E3
100
AcDbEntity
  8
0
  6
Continuous
100
AcDbLine
 10
111.4128482142589
 20
121.9157189387039
 30
0.0
 11
111.3894109505658
 21
121.9102611930233
 31
0.0
  0
LINE
  5
54B
330
E3
100
AcDbEntity
  8
0
  6
Continuous
100
AcDbLine
 10
111.3894109505658
 20
121.9102611930233
 30
0.0
 11
111.369269270078
 21
121.9048070569629
 31
0.0
  0
LINE
  5
54C
330
E3
100
AcDbEntity
  8
0
  6
Continuous
100
AcDbLine
 10
111.369269270078
 20
121.9048070569629
 30
0.0
 11
111.3525783864622
 21
121.8993493112823
 31
0.0
  0
LINE
  5
54D
330
E3
100
AcDbEntity
  8
0
  6
Continuous
100
AcDbLine
 10
111.3525783864622
 20
121.8993493112823
 30
0.0
 11
111.339461026804
 21
121.8938951752219
 31
0.0
  0
LINE
  5
54E
330
E3
100
AcDbEntity
  8
0
  6
Continuous
100
AcDbLine
 10
111.339461026804
 20
121.8938951752219
 30
0.0
 11
111.3300182604678
 21
121.8884374295413
 31
0.0
  0
LINE
  5
54F
330
E3
100
AcDbEntity
  8
0
  6
Continuous
100
AcDbLine
 10
111.3300182604678
 20
121.8884374295413
 30
0.0
 11
111.3243260449649
 21
121.8829807100473
 31
0.0
  0
LINE
  5
550
330
E3
100
AcDbEntity
  8
0
  6
Continuous
100
AcDbLine
 10
111.3243260449649
 20
121.8829807100473
 30
0.0
 11
111.3224233940108
 21
121.877524360841
 31
0.0
  0
LINE
  5
551
330
E3
100
AcDbEntity
  8
0
  6
Continuous
100
AcDbLine
 10
112.3224233940108
 20
121.6810957894124
 30
0.0
 11
112.3205207430567
 21
121.6756394402061
 31
0.0
  0
LINE
  5
552
330
E3
100
AcDbEntity
  8
0
  6
Continuous
100
AcDbLine
 10
112.3205207430567
 20
121.6756394402061
 30
0.0
 11
112.3148272705169
 21
121.6701830909997
 31
0.0
  0
LINE
  5
553
330
E3
100
AcDbEntity
  8
0
  6
Continuous
100
AcDbLine
 10
112.3148272705169
 20
121.6701830909997
 30
0.0
 11
112.3053845525224
 21
121.66472761056
 31
0.0
  0
LINE
  5
554
330
E3
100
AcDbEntity
  8
0
  6
Continuous
100
AcDbLine
 10
112.3053845525224
 20
121.66472761056
 30
0.0
 11
112.2922708024844
 21
121.6592698648795
 31
0.0
  0
LINE
  5
555
330
E3
100
AcDbEntity
  8
0
  6
Continuous
100
AcDbLine
 10
112.2922708024844
 20
121.6592698648795
 30
0.0
 11
112.2755763092485
 21
121.653815728819
 31
0.0
  0
LINE
  5
556
330
E3
100
AcDbEntity
  8
0
  6
Continuous
100
AcDbLine
 10
112.2755763092485
 20
121.653815728819
 30
0.0
 11
112.2554346287606
 21
121.6483579831385
 31
0.0
  0
LINE
  5
557
330
E3
100
AcDbEntity
  8
0
  6
Continuous
100
AcDbLine
 10
112.2554346287606
 20
121.6483579831385
 30
0.0
 11
112.2320009746876
 21
121.6429002374579
 31
0.0
  0
LINE
  5
558
330
E3
100
AcDbEntity
  8
0
  6
Continuous
100
AcDbLine
 10
112.2320009746876
 20
121.6429002374579
 30
0.0
 11
112.205444999177
 21
121.6374461013975
 31
0.0
  0
LINE
  5
559
330
E3
100
AcDbEntity
  8
0
  6
Continuous
100
AcDbLine
 10
112.205444999177
 20
121.6374461013975
 30
0.0
 11
112.175976060198
 21
121.6319883557169
 31
0.0
  0
LINE
  5
55A
330
E3
100
AcDbEntity
  8
0
  6
Continuous
100
AcDbLine
 10
112.175976060198
 20
121.6319883557169
 30
0.0
 11
112.1438179542005
 21
121.6265306100363
 31
0.0
  0
LINE
  5
55B
330
E3
100
AcDbEntity
  8
0
  6
Continuous
100
AcDbLine
 10
112.1438179542005
 20
121.6265306100363
 30
0.0
 11
112.1092125257351
 21
121.6210764739759
 31
0.0
  0
LINE
  5
55C
330
E3
100
AcDbEntity
  8
0
  6
Continuous
100
AcDbLine
 10
112.1092125257351
 20
121.6210764739759
 30
0.0
 11
112.0724232770734
 21
121.6156187282953
 31
0.0
  0
LINE
  5
55D
330
E3
100
AcDbEntity
  8
0
  6
Continuous
100
AcDbLine
 10
112.0724232770734
 20
121.6156187282953
 30
0.0
 11
112.0337317585878
 21
121.6101645922349
 31
0.0
  0
LINE
  5
55E
330
E3
100
AcDbEntity
  8
0
  6
Continuous
100
AcDbLine
 10
112.0337317585878
 20
121.6101645922349
 30
0.0
 11
111.9934339591315
 21
121.6047068465543
 31
0.0
  0
LINE
  5
55F
330
E3
100
AcDbEntity
  8
0
  6
Continuous
100
AcDbLine
 10
111.9934339591315
 20
121.6047068465543
 30
0.0
 11
111.9518330867977
 21
121.5992491008737
 31
0.0
  0
LINE
  5
560
330
E3
100
AcDbEntity
  8
0
  6
Continuous
100
AcDbLine
 10
111.9518330867977
 20
121.5992491008737
 30
0.0
 11
111.9092467881605
 21
121.5937949648133
 31
0.0
  0
LINE
  5
561
330
E3
100
AcDbEntity
  8
0
  6
Continuous
100
AcDbLine
 10
111.9092467881605
 20
121.5937949648133
 30
0.0
 11
111.8659999290341
 21
121.5883372191327
 31
0.0
  0
LINE
  5
562
330
E3
100
AcDbEntity
  8
0
  6
Continuous
100
AcDbLine
 10
111.8659999290341
 20
121.5883372191327
 30
0.0
 11
111.8224245944733
 21
121.5828830830723
 31
0.0
  0
LINE
  5
563
330
E3
100
AcDbEntity
  8
0
  6
Continuous
100
AcDbLine
 10
111.8224245944733
 20
121.5828830830723
 30
0.0
 11
111.7788456502923
 21
121.5774253373917
 31
0.0
  0
LINE
  5
564
330
E3
100
AcDbEntity
  8
0
  6
Continuous
100
AcDbLine
 10
111.7788456502923
 20
121.5774253373917
 30
0.0
 11
111.735598791166
 21
121.5719675917111
 31
0.0
  0
LINE
  5
565
330
E3
100
AcDbEntity
  8
0
  6
Continuous
100
AcDbLine
 10
111.735598791166
 20
121.5719675917111
 30
0.0
 11
111.6930124925287
 21
121.5665134556507
 31
0.0
  0
LINE
  5
566
330
E3
100
AcDbEntity
  8
0
  6
Continuous
100
AcDbLine
 10
111.6930124925287
 20
121.5665134556507
 30
0.0
 11
111.6514116201949
 21
121.5610557099701
 31
0.0
  0
LINE
  5
567
330
E3
100
AcDbEntity
  8
0
  6
Continuous
100
AcDbLine
 10
111.6514116201949
 20
121.5610557099701
 30
0.0
 11
111.6111138207386
 21
121.5555979642895
 31
0.0
  0
LINE
  5
568
330
E3
100
AcDbEntity
  8
0
  6
Continuous
100
AcDbLine
 10
111.6111138207386
 20
121.5555979642895
 30
0.0
 11
111.5724223022531
 21
121.5501438282291
 31
0.0
  0
LINE
  5
569
330
E3
100
AcDbEntity
  8
0
  6
Continuous
100
AcDbLine
 10
111.5724223022531
 20
121.5501438282291
 30
0.0
 11
111.5356366632115
 21
121.5446860825486
 31
0.0
  0
LINE
  5
56A
330
E3
100
AcDbEntity
  8
0
  6
Continuous
100
AcDbLine
 10
111.5356366632115
 20
121.5446860825486
 30
0.0
 11
111.5010312347461
 21
121.5392319464881
 31
0.0
  0
LINE
  5
56B
330
E3
100
AcDbEntity
  8
0
  6
Continuous
100
AcDbLine
 10
111.5010312347461
 20
121.5392319464881
 30
0.0
 11
111.4688695191284
 21
121.5337742008075
 31
0.0
  0
LINE
  5
56C
330
E3
100
AcDbEntity
  8
0
  6
Continuous
100
AcDbLine
 10
111.4688695191284
 20
121.5337742008075
 30
0.0
 11
111.4394005801494
 21
121.528316455127
 31
0.0
  0
LINE
  5
56D
330
E3
100
AcDbEntity
  8
0
  6
Continuous
100
AcDbLine
 10
111.4394005801494
 20
121.528316455127
 30
0.0
 11
111.4128482142589
 21
121.5228623190665
 31
0.0
  0
LINE
  5
56E
330
E3
100
AcDbEntity
  8
0
  6
Continuous
100
AcDbLine
 10
111.4128482142589
 20
121.5228623190665
 30
0.0
 11
111.3894109505658
 21
121.517404573386
 31
0.0
  0
LINE
  5
56F
330
E3
100
AcDbEntity
  8
0
  6
Continuous
100
AcDbLine
 10
111.3894109505658
 20
121.517404573386
 30
0.0
 11
111.369269270078
 21
121.5119504373255
 31
0.0
  0
LINE
  5
570
330
E3
100
AcDbEntity
  8
0
  6
Continuous
100
AcDbLine
 10
111.369269270078
 20
121.5119504373255
 30
0.0
 11
111.3525783864622
 21
121.506492691645
 31
0.0
  0
LINE
  5
571
330
E3
100
AcDbEntity
  8
0
  6
Continuous
100
AcDbLine
 10
111.3525783864622
 20
121.506492691645
 30
0.0
 11
111.339461026804
 21
121.5010349459644
 31
0.0
  0
LINE
  5
572
330
E3
100
AcDbEntity
  8
0
  6
Continuous
100
AcDbLine
 10
111.339461026804
 20
121.5010349459644
 30
0.0
 11
111.3300182604678
 21
121.495580809904
 31
0.0
  0
LINE
  5
573
330
E3
100
AcDbEntity
  8
0
  6
Continuous
100
AcDbLine
 10
111.3300182604678
 20
121.495580809904
 30
0.0
 11
111.3243260449649
 21
121.4901235671902
 31
0.0
  0
LINE
  5
574
330
E3
100
AcDbEntity
  8
0
  6
Continuous
100
AcDbLine
 10
111.3243260449649
 20
121.4901235671902
 30
0.0
 11
111.3224233940108
 21
121.4846672179838
 31
0.0
  0
LINE
  5
575
330
E3
100
AcDbEntity
  8
0
  6
Continuous
100
AcDbLine
 10
112.3224233940108
 20
121.2882386465553
 30
0.0
 11
112.3205207430567
 21
121.2827822973489
 31
0.0
  0
LINE
  5
576
330
E3
100
AcDbEntity
  8
0
  6
Continuous
100
AcDbLine
 10
112.3205207430567
 20
121.2827822973489
 30
0.0
 11
112.3148272705169
 21
121.2773259481426
 31
0.0
  0
LINE
  5
577
330
E3
100
AcDbEntity
  8
0
  6
Continuous
100
AcDbLine
 10
112.3148272705169
 20
121.2773259481426
 30
0.0
 11
112.3053845525224
 21
121.2718709909227
 31
0.0
  0
LINE
  5
578
330
E3
100
AcDbEntity
  8
0
  6
Continuous
100
AcDbLine
 10
112.3053845525224
 20
121.2718709909227
 30
0.0
 11
112.2922708024844
 21
121.2664132452421
 31
0.0
  0
LINE
  5
579
330
E3
100
AcDbEntity
  8
0
  6
Continuous
100
AcDbLine
 10
112.2922708024844
 20
121.2664132452421
 30
0.0
 11
112.2755763092485
 21
121.2609554995615
 31
0.0
  0
LINE
  5
57A
330
E3
100
AcDbEntity
  8
0
  6
Continuous
100
AcDbLine
 10
112.2755763092485
 20
121.2609554995615
 30
0.0
 11
112.2554346287606
 21
121.2555013635011
 31
0.0
  0
LINE
  5
57B
330
E3
100
AcDbEntity
  8
0
  6
Continuous
100
AcDbLine
 10
112.2554346287606
 20
121.2555013635011
 30
0.0
 11
112.2320009746876
 21
121.2500436178206
 31
0.0
  0
LINE
  5
57C
330
E3
100
AcDbEntity
  8
0
  6
Continuous
100
AcDbLine
 10
112.2320009746876
 20
121.2500436178206
 30
0.0
 11
112.205444999177
 21
121.2445894817601
 31
0.0
  0
LINE
  5
57D
330
E3
100
AcDbEntity
  8
0
  6
Continuous
100
AcDbLine
 10
112.205444999177
 20
121.2445894817601
 30
0.0
 11
112.175976060198
 21
121.2391317360795
 31
0.0
  0
LINE
  5
57E
330
E3
100
AcDbEntity
  8
0
  6
Continuous
100
AcDbLine
 10
112.175976060198
 20
121.2391317360795
 30
0.0
 11
112.1438179542005
 21
121.233673990399
 31
0.0
  0
LINE
  5
57F
330
E3
100
AcDbEntity
  8
0
  6
Continuous
100
AcDbLine
 10
112.1438179542005
 20
121.233673990399
 30
0.0
 11
112.1092125257351
 21
121.2282198543385
 31
0.0
  0
LINE
  5
580
330
E3
100
AcDbEntity
  8
0
  6
Continuous
100
AcDbLine
 10
112.1092125257351
 20
121.2282198543385
 30
0.0
 11
112.0724232770734
 21
121.222762108658
 31
0.0
  0
LINE
  5
581
330
E3
100
AcDbEntity
  8
0
  6
Continuous
100
AcDbLine
 10
112.0724232770734
 20
121.222762108658
 30
0.0
 11
112.0337317585878
 21
121.2173043629774
 31
0.0
  0
LINE
  5
582
330
E3
100
AcDbEntity
  8
0
  6
Continuous
100
AcDbLine
 10
112.0337317585878
 20
121.2173043629774
 30
0.0
 11
111.9934339591315
 21
121.211850226917
 31
0.0
  0
LINE
  5
583
330
E3
100
AcDbEntity
  8
0
  6
Continuous
100
AcDbLine
 10
111.9934339591315
 20
121.211850226917
 30
0.0
 11
111.9518330867977
 21
121.2063924812364
 31
0.0
  0
LINE
  5
584
330
E3
100
AcDbEntity
  8
0
  6
Continuous
100
AcDbLine
 10
111.9518330867977
 20
121.2063924812364
 30
0.0
 11
111.9092467881605
 21
121.200938345176
 31
0.0
  0
LINE
  5
585
330
E3
100
AcDbEntity
  8
0
  6
Continuous
100
AcDbLine
 10
111.9092467881605
 20
121.200938345176
 30
0.0
 11
111.8659999290341
 21
121.1954805994954
 31
0.0
  0
LINE
  5
586
330
E3
100
AcDbEntity
  8
0
  6
Continuous
100
AcDbLine
 10
111.8659999290341
 20
121.1954805994954
 30
0.0
 11
111.8224245944733
 21
121.1900228538148
 31
0.0
  0
LINE
  5
587
330
E3
100
AcDbEntity
  8
0
  6
Continuous
100
AcDbLine
 10
111.8224245944733
 20
121.1900228538148
 30
0.0
 11
111.7788456502923
 21
121.1845687177544
 31
0.0
  0
LINE
  5
588
330
E3
100
AcDbEntity
  8
0
  6
Continuous
100
AcDbLine
 10
111.7788456502923
 20
121.1845687177544
 30
0.0
 11
111.735598791166
 21
121.1791109720738
 31
0.0
  0
LINE
  5
589
330
E3
100
AcDbEntity
  8
0
  6
Continuous
100
AcDbLine
 10
111.735598791166
 20
121.1791109720738
 30
0.0
 11
111.6930124925287
 21
121.1736568360134
 31
0.0
  0
LINE
  5
58A
330
E3
100
AcDbEntity
  8
0
  6
Continuous
100
AcDbLine
 10
111.6930124925287
 20
121.1736568360134
 30
0.0
 11
111.6514116201949
 21
121.1681990903328
 31
0.0
  0
LINE
  5
58B
330
E3
100
AcDbEntity
  8
0
  6
Continuous
100
AcDbLine
 10
111.6514116201949
 20
121.1681990903328
 30
0.0
 11
111.6111138207386
 21
121.1627413446522
 31
0.0
  0
LINE
  5
58C
330
E3
100
AcDbEntity
  8
0
  6
Continuous
100
AcDbLine
 10
111.6111138207386
 20
121.1627413446522
 30
0.0
 11
111.5724223022531
 21
121.1572872085918
 31
0.0
  0
LINE
  5
58D
330
E3
100
AcDbEntity
  8
0
  6
Continuous
100
AcDbLine
 10
111.5724223022531
 20
121.1572872085918
 30
0.0
 11
111.5356366632115
 21
121.1518294629112
 31
0.0
  0
LINE
  5
58E
330
E3
100
AcDbEntity
  8
0
  6
Continuous
100
AcDbLine
 10
111.5356366632115
 20
121.1518294629112
 30
0.0
 11
111.5010312347461
 21
121.1463753268508
 31
0.0
  0
LINE
  5
58F
330
E3
100
AcDbEntity
  8
0
  6
Continuous
100
AcDbLine
 10
111.5010312347461
 20
121.1463753268508
 30
0.0
 11
111.4688695191284
 21
121.1409175811702
 31
0.0
  0
LINE
  5
590
330
E3
100
AcDbEntity
  8
0
  6
Continuous
100
AcDbLine
 10
111.4688695191284
 20
121.1409175811702
 30
0.0
 11
111.4394005801494
 21
121.1354598354896
 31
0.0
  0
LINE
  5
591
330
E3
100
AcDbEntity
  8
0
  6
Continuous
100
AcDbLine
 10
111.4394005801494
 20
121.1354598354896
 30
0.0
 11
111.4128482142589
 21
121.1300056994292
 31
0.0
  0
LINE
  5
592
330
E3
100
AcDbEntity
  8
0
  6
Continuous
100
AcDbLine
 10
111.4128482142589
 20
121.1300056994292
 30
0.0
 11
111.3894109505658
 21
121.1245479537486
 31
0.0
  0
LINE
  5
593
330
E3
100
AcDbEntity
  8
0
  6
Continuous
100
AcDbLine
 10
111.3894109505658
 20
121.1245479537486
 30
0.0
 11
111.369269270078
 21
121.119090208068
 31
0.0
  0
LINE
  5
594
330
E3
100
AcDbEntity
  8
0
  6
Continuous
100
AcDbLine
 10
111.369269270078
 20
121.119090208068
 30
0.0
 11
111.3525783864622
 21
121.1136360720076
 31
0.0
  0
LINE
  5
595
330
E3
100
AcDbEntity
  8
0
  6
Continuous
100
AcDbLine
 10
111.3525783864622
 20
121.1136360720076
 30
0.0
 11
111.339461026804
 21
121.108178326327
 31
0.0
  0
LINE
  5
596
330
E3
100
AcDbEntity
  8
0
  6
Continuous
100
AcDbLine
 10
111.339461026804
 20
121.108178326327
 30
0.0
 11
111.3300182604678
 21
121.1027241902666
 31
0.0
  0
ENDBLK
  5
E5
330
E3
100
AcDbEntity
  8
0
100
AcDbBlockEnd
  0
BLOCK
  5
59C
330
59B
100
AcDbEntity
  8
0
100
AcDbBlockBegin
  2
R-TRS6-05 HIDDENGUTTER DETAIL_STORY_MARKER
 70
     0
 10
0.0
 20
0.0
 30
0.0
  3
R-TRS6-05 HIDDENGUTTER DETAIL_STORY_MARKER
  1

  0
ENDBLK
  5
59D
330
59B
100
AcDbEntity
  8
0
100
AcDbBlockEnd
  0
ENDSEC
  0
SECTION
  2
ENTITIES
  0
HATCH
  5
3F
330
1F
100
AcDbEntity
  8
Doc_ Finishes
  6
Continuous
100
AcDbHatch
 10
0.0
 20
0.0
 30
0.0
210
0.0
220
0.0
230
1.0
  2
SOLID
 70
     1
 71
     0
 91
        1
 92
        3
 72
     0
 73
     1
 93
       54
 10
27.4117749414874
 20
16.87044408857867
 10
26.89356552397386
 20
16.5825499677378
 10
26.5480925789648
 20
16.29465584689693
 10
26.12584786839819
 20
16.02595466744544
 10
25.76118198199976
 20
15.60370995687884
 10
25.39651609560134
 20
15.33500877742737
 10
25.07023609198168
 20
14.89357112547136
 10
24.49444785029994
 20
14.45213347351537
 10
23.93785255000758
 20
14.02988876294876
 10
23.43883607388344
 20
13.81876640766546
 10
22.74789018386533
 20
13.39652169709885
 10
22.09533017662603
 20
12.99346992792163
 10
21.63469958328064
 20
12.55203227596564
 10
20.90536781048376
 20
12.12978756539902
 10
20.59828074825351
 20
11.7459287376112
 10
20.04168544796116
 20
11.28529814426581
 10
19.36993249933246
 20
10.8630534336992
 10
18.73656543348255
 20
10.42161578174319
 10
18.04561954346447
 20
10.15291460229172
 10
17.1051654153843
 20
9.692284008946325
 10
16.39502658397681
 20
9.020531060317637
 10
15.83843128368446
 20
8.598286349751023
 10
15.12829245227699
 20
8.137655756405634
 10
14.84039833143612
 20
7.98411222529051
 10
14.37976773809073
 20
7.81137575278599
 10
14.07268067586046
 20
7.523481631945121
 10
14.0151018516923
 20
7.216394569714853
 10
14.14945244141803
 20
6.890114566095209
 10
14.4373465622589
 20
6.563834562475543
 10
14.8787842142149
 20
6.659799269422514
 10
15.51215128006482
 20
7.06285103859973
 10
16.01116775618899
 20
7.389131042219374
 10
16.33744775980864
 20
7.696218104449641
 10
16.51018423231316
 20
7.907340459732938
 10
17.01303929671522
 20
8.421711288968723
 10
17.33548071205699
 20
8.652026585641417
 10
17.75004824606785
 20
8.99749953065046
 10
18.14158425041142
 20
9.204783297655894
 10
19.24709767444037
 20
9.75754000967037
 10
20.23745345013295
 20
10.47151742935572
 10
21.4120614631637
 20
11.1624633193738
 10
21.84966052684182
 20
11.64612544238645
 10
22.49454335752537
 20
12.06069297639732
 10
23.78430901889248
 20
12.9819541630881
 10
24.3600972605742
 20
13.25833251909534
 10
25.6498629219413
 20
14.24868829478776
 10
25.85714668894673
 20
14.64022429913134
 10
26.68628175696843
 20
15.23904407048036
 10
27.28510152831745
 20
15.72270619349301
 10
27.81482671066464
 20
16.1142421978366
 10
28.27545730401003
 20
16.52880973184745
 10
28.22939424467549
 20
16.7821565581874
 10
28.09120506667188
 20
16.89731420652375
 10
27.56147988432467
 20
16.89731420652375
 97
        0
 75
     0
 76
     1
 98
        0
  0
LINE
  5
41
330
1F
100
AcDbEntity
  8
Doc_ Finishes
  6
Continuous
100
AcDbLine
 10
27.41177566876475
 20
16.87044600708104
 30
0.0
 11
26.89356756490952
 21
16.58254868214004
 31
0.0
  0
LINE
  5
42
330
1F
100
AcDbEntity
  8
Doc_ Finishes
  6
Continuous
100
AcDbLine
 10
26.89356756490952
 20
16.58254868214004
 30
0.0
 11
26.54809254523997
 21
16.29465578284815
 31
0.0
  0
LINE
  5
43
330
1F
100
AcDbEntity
  8
Doc_ Finishes
  6
Continuous
100
AcDbLine
 10
26.54809254523997
 20
16.29465578284815
 30
0.0
 11
26.12584579071597
 21
16.02595249803305
 31
0.0
  0
LINE
  5
44
330
1F
100
AcDbEntity
  8
Doc_ Finishes
  6
Continuous
100
AcDbLine
 10
26.12584579071597
 20
16.02595249803305
 30
0.0
 11
25.76118115656963
 21
15.60371016915814
 31
0.0
  0
LINE
  5
45
330
1F
100
AcDbEntity
  8
Doc_ Finishes
  6
Continuous
100
AcDbLine
 10
25.76118115656963
 20
15.60371016915814
 30
0.0
 11
25.39651652242329
 21
15.33500688434304
 31
0.0
  0
LINE
  5
46
330
1F
100
AcDbEntity
  8
Doc_ Finishes
  6
Continuous
100
AcDbLine
 10
25.39651652242329
 20
15.33500688434304
 30
0.0
 11
25.07023554287962
 21
14.89357051534225
 31
0.0
  0
LINE
  5
47
330
1F
100
AcDbEntity
  8
Doc_ Finishes
  6
Continuous
100
AcDbLine
 10
25.07023554287962
 20
14.89357051534225
 30
0.0
 11
24.49444974429583
 21
14.45213414634146
 31
0.0
  0
LINE
  5
48
330
1F
100
AcDbEntity
  8
Doc_ Finishes
  6
Continuous
100
AcDbLine
 10
24.49444974429583
 20
14.45213414634146
 30
0.0
 11
23.93785356018882
 21
14.02988739181747
 31
0.0
  0
LINE
  5
49
330
1F
100
AcDbEntity
  8
Doc_ Finishes
  6
Continuous
100
AcDbLine
 10
23.93785356018882
 20
14.02988739181747
 30
0.0
 11
23.43883507081038
 21
13.81876622738001
 31
0.0
  0
LINE
  5
4A
330
1F
100
AcDbEntity
  8
Doc_ Finishes
  6
Continuous
100
AcDbLine
 10
23.43883507081038
 20
13.81876622738001
 30
0.0
 11
22.74788945712038
 21
13.39652389850511
 31
0.0
  0
LINE
  5
4B
330
1F
100
AcDbEntity
  8
Doc_ Finishes
  6
Continuous
100
AcDbLine
 10
22.74788945712038
 20
13.39652389850511
 30
0.0
 11
22.09533192368214
 21
12.993471184107
 31
0.0
  0
LINE
  5
4C
330
1F
100
AcDbEntity
  8
Doc_ Finishes
  6
Continuous
100
AcDbLine
 10
22.09533192368214
 20
12.993471184107
 30
0.0
 11
21.63470151455547
 21
12.55203038945712
 31
0.0
  0
LINE
  5
4D
330
1F
100
AcDbEntity
  8
Doc_ Finishes
  6
Continuous
100
AcDbLine
 10
21.63470151455547
 20
12.55203038945712
 30
0.0
 11
20.90536782061369
 21
12.12978806058222
 31
0.0
  0
LINE
  5
4E
330
1F
100
AcDbEntity
  8
Doc_ Finishes
  6
Continuous
100
AcDbLine
 10
20.90536782061369
 20
12.12978806058222
 30
0.0
 11
20.59828088119591
 21
11.74592938630999
 31
0.0
  0
LINE
  5
4F
330
1F
100
AcDbEntity
  8
Doc_ Finishes
  6
Continuous
100
AcDbLine
 10
20.59828088119591
 20
11.74592938630999
 30
0.0
 11
20.0416846970889
 21
11.28529897718332
 31
0.0
  0
LINE
  5
50
330
1F
100
AcDbEntity
  8
Doc_ Finishes
  6
Continuous
100
AcDbLine
 10
20.0416846970889
 20
11.28529897718332
 30
0.0
 11
19.36993312352478
 21
10.86305222265932
 31
0.0
  0
LINE
  5
51
330
1F
100
AcDbEntity
  8
Doc_ Finishes
  6
Continuous
100
AcDbLine
 10
19.36993312352478
 20
10.86305222265932
 30
0.0
 11
18.73656520456333
 21
10.42161585365854
 31
0.0
  0
LINE
  5
52
330
1F
100
AcDbEntity
  8
Doc_ Finishes
  6
Continuous
100
AcDbLine
 10
18.73656520456333
 20
10.42161585365854
 30
0.0
 11
18.04561959087333
 21
10.15291256884343
 31
0.0
  0
LINE
  5
53
330
1F
100
AcDbEntity
  8
Doc_ Finishes
  6
Continuous
100
AcDbLine
 10
18.04561959087333
 20
10.15291256884343
 30
0.0
 11
17.1051647324941
 21
9.692282159716758
 31
0.0
  0
LINE
  5
54
330
1F
100
AcDbEntity
  8
Doc_ Finishes
  6
Continuous
100
AcDbLine
 10
17.1051647324941
 20
9.692282159716758
 30
0.0
 11
16.3950250786782
 21
9.020530586152635
 31
0.0
  0
LINE
  5
55
330
1F
100
AcDbEntity
  8
Doc_ Finishes
  6
Continuous
100
AcDbLine
 10
16.3950250786782
 20
9.020530586152635
 30
0.0
 11
15.8384333202203
 21
8.598288257277733
 31
0.0
  0
LINE
  5
56
330
1F
100
AcDbEntity
  8
Doc_ Finishes
  6
Continuous
100
AcDbLine
 10
15.8384333202203
 20
8.598288257277733
 30
0.0
 11
15.1282936664044
 21
8.137657848151063
 31
0.0
  0
LINE
  5
57
330
1F
100
AcDbEntity
  8
Doc_ Finishes
  6
Continuous
100
AcDbLine
 10
15.1282936664044
 20
8.137657848151063
 30
0.0
 11
14.84039634146341
 21
7.984114378442171
 31
0.0
  0
LINE
  5
58
330
1F
100
AcDbEntity
  8
Doc_ Finishes
  6
Continuous
100
AcDbLine
 10
14.84039634146341
 20
7.984114378442171
 30
0.0
 11
14.37976593233674
 21
7.811376868607396
 31
0.0
  0
LINE
  5
59
330
1F
100
AcDbEntity
  8
Doc_ Finishes
  6
Continuous
100
AcDbLine
 10
14.37976593233674
 20
7.811376868607396
 30
0.0
 11
14.07267899291896
 21
7.523479543666405
 31
0.0
  0
LINE
  5
5A
330
1F
100
AcDbEntity
  8
Doc_ Finishes
  6
Continuous
100
AcDbLine
 10
14.07267899291896
 20
7.523479543666405
 30
0.0
 11
14.0151012981904
 21
7.216392604248622
 31
0.0
  0
LINE
  5
5B
330
1F
100
AcDbEntity
  8
Doc_ Finishes
  6
Continuous
100
AcDbLine
 10
14.0151012981904
 20
7.216392604248622
 30
0.0
 11
14.14945072777341
 21
6.890116050354051
 31
0.0
  0
LINE
  5
5C
330
1F
100
AcDbEntity
  8
Doc_ Finishes
  6
Continuous
100
AcDbLine
 10
14.14945072777341
 20
6.890116050354051
 30
0.0
 11
14.4373480527144
 21
6.563835070810386
 31
0.0
  0
LINE
  5
5D
330
1F
100
AcDbEntity
  8
Doc_ Finishes
  6
Continuous
100
AcDbLine
 10
14.4373480527144
 20
6.563835070810386
 30
0.0
 11
14.87878442171519
 21
6.659800845790715
 31
0.0
  0
LINE
  5
5E
330
1F
100
AcDbEntity
  8
Doc_ Finishes
  6
Continuous
100
AcDbLine
 10
14.87878442171519
 20
6.659800845790715
 30
0.0
 11
15.51215234067663
 21
7.062849134539732
 31
0.0
  0
LINE
  5
5F
330
1F
100
AcDbEntity
  8
Doc_ Finishes
  6
Continuous
100
AcDbLine
 10
15.51215234067663
 20
7.062849134539732
 30
0.0
 11
16.01116640440598
 21
7.389130114083398
 31
0.0
  0
LINE
  5
60
330
1F
100
AcDbEntity
  8
Doc_ Finishes
  6
Continuous
100
AcDbLine
 10
16.01116640440598
 20
7.389130114083398
 30
0.0
 11
16.33744738394964
 21
7.69621705350118
 31
0.0
  0
LINE
  5
61
330
1F
100
AcDbEntity
  8
Doc_ Finishes
  6
Continuous
100
AcDbLine
 10
16.33744738394964
 20
7.69621705350118
 30
0.0
 11
16.51018489378442
 21
7.907342643587726
 31
0.0
  0
LINE
  5
62
330
1F
100
AcDbEntity
  8
Doc_ Finishes
  6
Continuous
100
AcDbLine
 10
16.51018489378442
 20
7.907342643587726
 30
0.0
 11
17.0130404209284
 21
8.421709284028323
 31
0.0
  0
LINE
  5
63
330
1F
100
AcDbEntity
  8
Doc_ Finishes
  6
Continuous
100
AcDbLine
 10
17.0130404209284
 20
8.421709284028323
 30
0.0
 11
17.33547993705743
 21
8.65202448859166
 31
0.0
  0
LINE
  5
64
330
1F
100
AcDbEntity
  8
Doc_ Finishes
  6
Continuous
100
AcDbLine
 10
17.33547993705743
 20
8.65202448859166
 30
0.0
 11
17.75004819040126
 21
8.997499508261212
 31
0.0
  0
LINE
  5
65
330
1F
100
AcDbEntity
  8
Doc_ Finishes
  6
Continuous
100
AcDbLine
 10
17.75004819040126
 20
8.997499508261212
 30
0.0
 11
18.14158536585366
 21
9.204783634933122
 31
0.0
  0
LINE
  5
66
330
1F
100
AcDbEntity
  8
Doc_ Finishes
  6
Continuous
100
AcDbLine
 10
18.14158536585366
 20
9.204783634933122
 30
0.0
 11
19.24709923288749
 21
9.75753835562549
 31
0.0
  0
LINE
  5
67
330
1F
100
AcDbEntity
  8
Doc_ Finishes
  6
Continuous
100
AcDbLine
 10
19.24709923288749
 20
9.75753835562549
 30
0.0
 11
20.23745328481511
 21
10.47151947285602
 31
0.0
  0
LINE
  5
68
330
1F
100
AcDbEntity
  8
Doc_ Finishes
  6
Continuous
100
AcDbLine
 10
20.23745328481511
 20
10.47151947285602
 30
0.0
 11
21.41206038552321
 21
11.16246508654602
 31
0.0
  0
LINE
  5
69
330
1F
100
AcDbEntity
  8
Doc_ Finishes
  6
Continuous
100
AcDbLine
 10
21.41206038552321
 20
11.16246508654602
 30
0.0
 11
21.84965971675846
 21
11.64612657356412
 31
0.0
  0
LINE
  5
6A
330
1F
100
AcDbEntity
  8
Doc_ Finishes
  6
Continuous
100
AcDbLine
 10
21.84965971675846
 20
11.64612657356412
 30
0.0
 11
22.49454317466562
 21
12.06069482690795
 31
0.0
  0
LINE
  5
6B
330
1F
100
AcDbEntity
  8
Doc_ Finishes
  6
Continuous
100
AcDbLine
 10
22.49454317466562
 20
12.06069482690795
 30
0.0
 11
23.78431009047993
 21
12.98195564516129
 31
0.0
  0
LINE
  5
6C
330
1F
100
AcDbEntity
  8
Doc_ Finishes
  6
Continuous
100
AcDbLine
 10
23.78431009047993
 20
12.98195564516129
 30
0.0
 11
24.36009588906373
 21
13.25833300550747
 31
0.0
  0
LINE
  5
6D
330
1F
100
AcDbEntity
  8
Doc_ Finishes
  6
Continuous
100
AcDbLine
 10
24.36009588906373
 20
13.25833300550747
 30
0.0
 11
25.64986280487805
 21
14.24868705743509
 31
0.0
  0
LINE
  5
6E
330
1F
100
AcDbEntity
  8
Doc_ Finishes
  6
Continuous
100
AcDbLine
 10
25.64986280487805
 20
14.24868705743509
 30
0.0
 11
25.85714693154996
 21
14.64022423288749
 31
0.0
  0
LINE
  5
6F
330
1F
100
AcDbEntity
  8
Doc_ Finishes
  6
Continuous
100
AcDbLine
 10
25.85714693154996
 20
14.64022423288749
 30
0.0
 11
26.68628343823761
 21
15.2390455350118
 31
0.0
  0
LINE
  5
70
330
1F
100
AcDbEntity
  8
Doc_ Finishes
  6
Continuous
100
AcDbLine
 10
26.68628343823761
 20
15.2390455350118
 30
0.0
 11
27.28510031471282
 21
15.7227070220299
 31
0.0
  0
LINE
  5
71
330
1F
100
AcDbEntity
  8
Doc_ Finishes
  6
Continuous
100
AcDbLine
 10
27.28510031471282
 20
15.7227070220299
 30
0.0
 11
27.81482838316287
 21
16.1142441974823
 31
0.0
  0
LINE
  5
72
330
1F
100
AcDbEntity
  8
Doc_ Finishes
  6
Continuous
100
AcDbLine
 10
27.81482838316287
 20
16.1142441974823
 30
0.0
 11
28.27545879228953
 21
16.52880802517702
 31
0.0
  0
LINE
  5
73
330
1F
100
AcDbEntity
  8
Doc_ Finishes
  6
Continuous
100
AcDbLine
 10
28.27545879228953
 20
16.52880802517702
 30
0.0
 11
28.22939221085759
 21
16.78215873328088
 31
0.0
  0
LINE
  5
74
330
1F
100
AcDbEntity
  8
Doc_ Finishes
  6
Continuous
100
AcDbLine
 10
28.22939221085759
 20
16.78215873328088
 30
0.0
 11
28.09120574350905
 21
16.897314122738
 31
0.0
  0
LINE
  5
75
330
1F
100
AcDbEntity
  8
Doc_ Finishes
  6
Continuous
100
AcDbLine
 10
28.09120574350905
 20
16.897314122738
 30
0.0
 11
27.56147767505901
 21
16.897314122738
 31
0.0
  0
LINE
  5
76
330
1F
100
AcDbEntity
  8
Doc_ Finishes
  6
Continuous
100
AcDbLine
 10
27.56147767505901
 20
16.897314122738
 30
0.0
 11
27.41177566876475
 21
16.87044600708104
 31
0.0
  0
HATCH
  5
77
330
1F
100
AcDbEntity
  8
Doc_ Finishes
  6
Continuous
100
AcDbHatch
 10
0.0
 20
0.0
 30
0.0
210
0.0
220
0.0
230
1.0
  2
SOLID
 70
     1
 71
     0
 91
        1
 92
        3
 72
     0
 73
     1
 93
       39
 10
27.65360600299377
 20
13.12014334109181
 10
27.21600693931564
 20
12.77467039608275
 10
26.54809257896482
 20
12.24494521373555
 10
25.92624127794851
 20
11.85340920939199
 10
25.32742150659951
 20
11.32368402704478
 10
24.72860173525052
 20
11.04730567103754
 10
24.08371890456698
 20
10.56364354802488
 10
23.62308831122158
 20
10.33332825135219
 10
23.231552306878
 20
10.03391836567767
 10
22.81698477286715
 20
9.619350831666825
 10
22.40241723885631
 20
9.38903553499415
 10
21.91875511584363
 20
9.043562589985086
 10
21.66540828950367
 20
8.859310352646935
 10
21.25084075549282
 20
8.582931996639696
 10
20.09926427212933
 20
7.753796928618002
 10
19.75379132712029
 20
7.477418572610764
 10
19.2931607337749
 20
7.316197864939873
 10
19.22406614477309
 20
6.993756449598113
 10
19.3622553227767
 20
6.717378093590874
 10
19.63863367878394
 20
6.602220445254527
 10
20.00713815346026
 20
6.8325357419272
 10
20.26048497980021
 20
7.131945627601722
 10
20.55989486547472
 20
7.362260924274415
 10
21.31993534449462
 20
7.707733869283458
 10
21.84966052684182
 20
8.122301403294307
 10
22.88607936186895
 20
8.882341882314256
 10
23.20852077721072
 20
9.342972475659646
 10
24.01462431556515
 20
9.734508480003234
 10
24.5673810275796
 20
10.05694989534501
 10
25.46561068460312
 20
10.60970660735953
 10
25.88017821861399
 20
11.07033720070492
 10
26.31777728229212
 20
11.34671555671216
 10
26.70931328663569
 20
11.30065249737762
 10
27.21600693931562
 20
11.55399932371759
 10
28.0681735370046
 20
12.17585062473387
 10
28.41364648201364
 20
12.49829204007566
 10
28.39061495234636
 20
12.77467039608289
 10
28.22939424467547
 20
13.00498569275559
 10
28.04514200733732
 20
13.05104875209013
 97
        0
 75
     0
 76
     1
 98
        0
  0
LINE
  5
78
330
1F
100
AcDbEntity
  8
Doc_ Finishes
  6
Continuous
100
AcDbLine
 10
27.6536064122738
 20
13.12014211250983
 30
0.0
 11
27.21600708103855
 21
12.77467151848938
 31
0.0
  0
LINE
  5
79
330
1F
100
AcDbEntity
  8
Doc_ Finishes
  6
Continuous
100
AcDbLine
 10
27.21600708103855
 20
12.77467151848938
 30
0.0
 11
26.54809254523997
 21
12.24494345003934
 31
0.0
  0
LINE
  5
7A
330
1F
100
AcDbEntity
  8
Doc_ Finishes
  6
Continuous
100
AcDbLine
 10
26.54809254523997
 20
12.24494345003934
 30
0.0
 11
25.92624016522423
 21
11.85341070023603
 31
0.0
  0
LINE
  5
7B
330
1F
100
AcDbEntity
  8
Doc_ Finishes
  6
Continuous
100
AcDbLine
 10
25.92624016522423
 20
11.85341070023603
 30
0.0
 11
25.32742328874902
 21
11.32368263178599
 31
0.0
  0
LINE
  5
7C
330
1F
100
AcDbEntity
  8
Doc_ Finishes
  6
Continuous
100
AcDbLine
 10
25.32742328874902
 20
11.32368263178599
 30
0.0
 11
24.72860198662471
 21
11.04730527143981
 31
0.0
  0
LINE
  5
7D
330
1F
100
AcDbEntity
  8
Doc_ Finishes
  6
Continuous
100
AcDbLine
 10
24.72860198662471
 20
11.04730527143981
 30
0.0
 11
24.08371852871754
 21
10.56364378442171
 31
0.0
  0
LINE
  5
7E
330
1F
100
AcDbEntity
  8
Doc_ Finishes
  6
Continuous
100
AcDbLine
 10
24.08371852871754
 20
10.56364378442171
 30
0.0
 11
23.62308811959087
 21
10.33332857985838
 31
0.0
  0
LINE
  5
7F
330
1F
100
AcDbEntity
  8
Doc_ Finishes
  6
Continuous
100
AcDbLine
 10
23.62308811959087
 20
10.33332857985838
 30
0.0
 11
23.23155094413847
 21
10.03392014162077
 31
0.0
  0
LINE
  5
80
330
1F
100
AcDbEntity
  8
Doc_ Finishes
  6
Continuous
100
AcDbLine
 10
23.23155094413847
 20
10.03392014162077
 30
0.0
 11
22.81698269079465
 21
9.619351888276947
 31
0.0
  0
LINE
  5
81
330
1F
100
AcDbEntity
  8
Doc_ Finishes
  6
Continuous
100
AcDbLine
 10
22.81698269079465
 20
9.619351888276947
 30
0.0
 11
22.40241886309992
 21
9.389036683713611
 31
0.0
  0
LINE
  5
82
330
1F
100
AcDbEntity
  8
Doc_ Finishes
  6
Continuous
100
AcDbLine
 10
22.40241886309992
 20
9.389036683713611
 30
0.0
 11
21.91875295043273
 21
9.04356166404406
 31
0.0
  0
LINE
  5
83
330
1F
100
AcDbEntity
  8
Doc_ Finishes
  6
Continuous
100
AcDbLine
 10
21.91875295043273
 20
9.04356166404406
 30
0.0
 11
21.66540666797797
 21
8.859308615263572
 31
0.0
  0
LINE
  5
84
330
1F
100
AcDbEntity
  8
Doc_ Finishes
  6
Continuous
100
AcDbLine
 10
21.66540666797797
 20
8.859308615263572
 30
0.0
 11
21.25084284028324
 21
8.582931254917387
 31
0.0
  0
LINE
  5
85
330
1F
100
AcDbEntity
  8
Doc_ Finishes
  6
Continuous
100
AcDbLine
 10
21.25084284028324
 20
8.582931254917387
 30
0.0
 11
20.09926239181747
 21
7.75379474822974
 31
0.0
  0
LINE
  5
86
330
1F
100
AcDbEntity
  8
Doc_ Finishes
  6
Continuous
100
AcDbLine
 10
20.09926239181747
 20
7.75379474822974
 30
0.0
 11
19.75379179779701
 21
7.477417387883556
 31
0.0
  0
LINE
  5
87
330
1F
100
AcDbEntity
  8
Doc_ Finishes
  6
Continuous
100
AcDbLine
 10
19.75379179779701
 20
7.477417387883556
 30
0.0
 11
19.29316138867033
 21
7.316199842643588
 31
0.0
  0
LINE
  5
88
330
1F
100
AcDbEntity
  8
Doc_ Finishes
  6
Continuous
100
AcDbLine
 10
19.29316138867033
 20
7.316199842643588
 30
0.0
 11
19.22406815499606
 21
6.993755900865461
 31
0.0
  0
LINE
  5
89
330
1F
100
AcDbEntity
  8
Doc_ Finishes
  6
Continuous
100
AcDbLine
 10
19.22406815499606
 20
6.993755900865461
 30
0.0
 11
19.36225462234461
 21
6.717378540519276
 31
0.0
  0
LINE
  5
8A
330
1F
100
AcDbEntity
  8
Doc_ Finishes
  6
Continuous
100
AcDbLine
 10
19.36225462234461
 20
6.717378540519276
 30
0.0
 11
19.63863198269079
 21
6.602218725413059
 31
0.0
  0
LINE
  5
8B
330
1F
100
AcDbEntity
  8
Doc_ Finishes
  6
Continuous
100
AcDbLine
 10
19.63863198269079
 20
6.602218725413059
 30
0.0
 11
20.00713808025177
 21
6.832533929976396
 31
0.0
  0
LINE
  5
8C
330
1F
100
AcDbEntity
  8
Doc_ Finishes
  6
Continuous
100
AcDbLine
 10
20.00713808025177
 20
6.832533929976396
 30
0.0
 11
20.26048436270653
 21
7.1319467938631
 31
0.0
  0
LINE
  5
8D
330
1F
100
AcDbEntity
  8
Doc_ Finishes
  6
Continuous
100
AcDbLine
 10
20.26048436270653
 20
7.1319467938631
 30
0.0
 11
20.55989280094414
 21
7.362261998426435
 31
0.0
  0
LINE
  5
8E
330
1F
100
AcDbEntity
  8
Doc_ Finishes
  6
Continuous
100
AcDbLine
 10
20.55989280094414
 20
7.362261998426435
 30
0.0
 11
21.31993607395751
 21
7.707732592446892
 31
0.0
  0
LINE
  5
8F
330
1F
100
AcDbEntity
  8
Doc_ Finishes
  6
Continuous
100
AcDbLine
 10
21.31993607395751
 20
7.707732592446892
 30
0.0
 11
21.84965971675846
 21
8.122300845790717
 31
0.0
  0
LINE
  5
90
330
1F
100
AcDbEntity
  8
Doc_ Finishes
  6
Continuous
100
AcDbLine
 10
21.84965971675846
 20
8.122300845790717
 30
0.0
 11
22.88608035011802
 21
8.882339693154996
 31
0.0
  0
LINE
  5
91
330
1F
100
AcDbEntity
  8
Doc_ Finishes
  6
Continuous
100
AcDbLine
 10
22.88608035011802
 20
8.882339693154996
 30
0.0
 11
23.20851986624705
 21
9.342974527930762
 31
0.0
  0
LINE
  5
92
330
1F
100
AcDbEntity
  8
Doc_ Finishes
  6
Continuous
100
AcDbLine
 10
23.20851986624705
 20
9.342974527930762
 30
0.0
 11
24.01462529504327
 21
9.734507277734066
 31
0.0
  0
LINE
  5
93
330
1F
100
AcDbEntity
  8
Doc_ Finishes
  6
Continuous
100
AcDbLine
 10
24.01462529504327
 20
9.734507277734066
 30
0.0
 11
24.56738001573564
 21
10.05695121951219
 31
0.0
  0
LINE
  5
94
330
1F
100
AcDbEntity
  8
Doc_ Finishes
  6
Continuous
100
AcDbLine
 10
24.56738001573564
 20
10.05695121951219
 30
0.0
 11
25.46560975609756
 21
10.60970594020456
 31
0.0
  0
LINE
  5
95
330
1F
100
AcDbEntity
  8
Doc_ Finishes
  6
Continuous
100
AcDbLine
 10
25.46560975609756
 20
10.60970594020456
 30
0.0
 11
25.88017800944139
 21
11.07033634933124
 31
0.0
  0
LINE
  5
96
330
1F
100
AcDbEntity
  8
Doc_ Finishes
  6
Continuous
100
AcDbLine
 10
25.88017800944139
 20
11.07033634933124
 30
0.0
 11
26.31777734067663
 21
11.34671370967742
 31
0.0
  0
LINE
  5
97
330
1F
100
AcDbEntity
  8
Doc_ Finishes
  6
Continuous
100
AcDbLine
 10
26.31777734067663
 20
11.34671370967742
 30
0.0
 11
26.70931451612903
 21
11.30065155389457
 31
0.0
  0
LINE
  5
98
330
1F
100
AcDbEntity
  8
Doc_ Finishes
  6
Continuous
100
AcDbLine
 10
26.70931451612903
 20
11.30065155389457
 30
0.0
 11
27.21600708103855
 21
11.55399783634933
 31
0.0
  0
LINE
  5
99
330
1F
100
AcDbEntity
  8
Doc_ Finishes
  6
Continuous
100
AcDbLine
 10
27.21600708103855
 20
11.55399783634933
 30
0.0
 11
28.06817466561763
 21
12.17585021636507
 31
0.0
  0
LINE
  5
9A
330
1F
100
AcDbEntity
  8
Doc_ Finishes
  6
Continuous
100
AcDbLine
 10
28.06817466561763
 20
12.17585021636507
 30
0.0
 11
28.41364525963808
 21
12.49829415814319
 31
0.0
  0
LINE
  5
9B
330
1F
100
AcDbEntity
  8
Doc_ Finishes
  6
Continuous
100
AcDbLine
 10
28.41364525963808
 20
12.49829415814319
 30
0.0
 11
28.39061418174666
 21
12.77467151848938
 31
0.0
  0
LINE
  5
9C
330
1F
100
AcDbEntity
  8
Doc_ Finishes
  6
Continuous
100
AcDbLine
 10
28.39061418174666
 20
12.77467151848938
 30
0.0
 11
28.22939221085759
 21
13.00498672305271
 31
0.0
  0
LINE
  5
9D
330
1F
100
AcDbEntity
  8
Doc_ Finishes
  6
Continuous
100
AcDbLine
 10
28.22939221085759
 20
13.00498672305271
 30
0.0
 11
28.04514358772619
 21
13.05104887883556
 31
0.0
  0
LINE
  5
9E
330
1F
100
AcDbEntity
  8
Doc_ Finishes
  6
Continuous
100
AcDbLine
 10
28.04514358772619
 20
13.05104887883556
 30
0.0
 11
27.6536064122738
 21
13.12014211250983
 31
0.0
  0
HATCH
  5
9F
330
1F
100
AcDbEntity
  8
Doc_ Finishes
  6
Continuous
100
AcDbHatch
 10
0.0
 20
0.0
 30
0.0
210
0.0
220
0.0
230
1.0
  2
SOLID
 70
     1
 71
     0
 91
        1
 92
        3
 72
     0
 73
     1
 93
       47
 10
28.06817353700456
 20
15.74573772316067
 10
28.30309513961077
 20
15.62136746295728
 10
28.4412843176144
 20
15.4002647781515
 10
28.93876535842742
 20
15.17916209334572
 10
29.82317609765057
 20
14.40530269652538
 10
30.92868952167951
 20
13.74199464210799
 10
31.59199757609689
 20
13.3827027792986
 10
32.20002995931279
 20
13.07868658769064
 10
33.55428390374828
 20
12.08372450606458
 10
34.07940278016201
 20
11.69679480765445
 10
34.88090001258301
 20
11.08876242443854
 10
35.59948373820179
 20
10.50836787682334
 10
36.5668079842271
 20
9.817421986805197
 10
37.06428902504012
 20
9.458130123995785
 10
37.81051058625966
 20
8.933011247582023
 10
38.61200781868061
 20
8.407892371168286
 10
38.77783483228498
 20
8.186789686362482
 10
39.38586721550092
 20
7.744584316750918
 10
40.18736444792187
 20
6.915449248729224
 10
40.7953968311378
 20
6.44560604351692
 10
41.56925622795804
 20
6.169227687509681
 10
42.23256428237543
 20
6.086314180707507
 10
42.48130480278193
 20
6.30741686551329
 10
42.14965077557326
 20
6.611433057121246
 10
41.48634272115586
 20
6.998362755531397
 10
40.76775899553709
 20
7.357654618340788
 10
40.18736444792187
 20
8.048600508358874
 10
38.99893751709079
 20
8.822459905179112
 10
38.47381864067705
 20
9.319940945992132
 10
38.22507812027052
 20
9.734508480003
 10
37.17484036744301
 20
10.31490302761817
 10
36.73263499783144
 20
10.78474623283046
 10
36.2351539570184
 20
11.17167593124059
 10
35.48893239579888
 20
11.61388130085215
 10
34.85326217698223
 20
12.16663801286669
 10
34.35578113616919
 20
12.58120554687754
 10
33.69247308175183
 20
12.99577308088841
 10
33.22262987653953
 20
13.32742710809708
 10
32.7251488357265
 20
13.5761676285036
 10
31.93747052110588
 20
14.06443605744977
 10
31.43077686842594
 20
14.38687747279155
 10
30.92408321574601
 20
14.70931888813342
 10
30.62467333007151
 20
15.100854892477
 10
29.95675896972068
 20
15.67664313415887
 10
29.47309684670803
 20
15.9530214901661
 10
28.82821401602447
 20
16.36758902417695
 10
28.50577260068269
 20
16.22939984617334
 97
        0
 75
     0
 76
     1
 98
        0
  0
LINE
  5
A0
330
1F
100
AcDbEntity
  8
Doc_ Finishes
  6
Continuous
100
AcDbLine
 10
28.30309697088906
 20
15.62136850904799
 30
0.0
 11
28.06817466561763
 21
15.74573809992132
 31
0.0
  0
LINE
  5
A1
330
1F
100
AcDbEntity
  8
Doc_ Finishes
  6
Continuous
100
AcDbLine
 10
28.44128343823761
 20
15.40026308025177
 30
0.0
 11
28.30309697088906
 21
15.62136850904799
 31
0.0
  0
LINE
  5
A2
330
1F
100
AcDbEntity
  8
Doc_ Finishes
  6
Continuous
100
AcDbLine
 10
28.93876622738001
 20
15.17916207710464
 30
0.0
 11
28.44128343823761
 21
15.40026308025177
 31
0.0
  0
LINE
  5
A3
330
1F
100
AcDbEntity
  8
Doc_ Finishes
  6
Continuous
100
AcDbLine
 10
29.82317466561762
 20
14.40530192761605
 30
0.0
 11
28.93876622738001
 21
15.17916207710464
 31
0.0
  0
LINE
  5
A4
330
1F
100
AcDbEntity
  8
Doc_ Finishes
  6
Continuous
100
AcDbLine
 10
30.92868853265146
 20
13.74199449252557
 30
0.0
 11
29.82317466561762
 21
14.40530192761605
 31
0.0
  0
LINE
  5
A5
330
1F
100
AcDbEntity
  8
Doc_ Finishes
  6
Continuous
100
AcDbLine
 10
31.59199596774193
 20
13.3827025963808
 30
0.0
 11
30.92868853265146
 21
13.74199449252557
 31
0.0
  0
LINE
  5
A6
330
1F
100
AcDbEntity
  8
Doc_ Finishes
  6
Continuous
100
AcDbLine
 10
32.20003147128246
 20
13.07868705743509
 30
0.0
 11
31.59199596774193
 21
13.3827025963808
 31
0.0
  0
LINE
  5
A7
330
1F
100
AcDbEntity
  8
Doc_ Finishes
  6
Continuous
100
AcDbLine
 10
33.55428452006294
 20
12.08372590479937
 30
0.0
 11
32.20003147128246
 21
13.07868705743509
 31
0.0
  0
LINE
  5
A8
330
1F
100
AcDbEntity
  8
Doc_ Finishes
  6
Continuous
100
AcDbLine
 10
34.07940106215578
 20
11.69679583005508
 30
0.0
 11
33.55428452006294
 21
12.08372590479937
 31
0.0
  0
LINE
  5
A9
330
1F
100
AcDbEntity
  8
Doc_ Finishes
  6
Continuous
100
AcDbLine
 10
34.8808993902439
 20
11.08876032651456
 30
0.0
 11
34.07940106215578
 21
11.69679583005508
 31
0.0
  0
LINE
  5
AA
330
1F
100
AcDbEntity
  8
Doc_ Finishes
  6
Continuous
100
AcDbLine
 10
35.59948318253343
 20
10.50836742722266
 30
0.0
 11
34.8808993902439
 21
11.08876032651456
 31
0.0
  0
LINE
  5
AB
330
1F
100
AcDbEntity
  8
Doc_ Finishes
  6
Continuous
100
AcDbLine
 10
36.56680615656963
 20
9.817421813532652
 30
0.0
 11
35.59948318253343
 21
10.50836742722266
 31
0.0
  0
LINE
  5
AC
330
1F
100
AcDbEntity
  8
Doc_ Finishes
  6
Continuous
100
AcDbLine
 10
37.06428894571204
 20
9.458129917387884
 30
0.0
 11
36.56680615656963
 21
9.817421813532652
 31
0.0
  0
LINE
  5
AD
330
1F
100
AcDbEntity
  8
Doc_ Finishes
  6
Continuous
100
AcDbLine
 10
37.8105109166011
 20
8.933013375295044
 30
0.0
 11
37.06428894571204
 21
9.458129917387884
 31
0.0
  0
LINE
  5
AE
330
1F
100
AcDbEntity
  8
Doc_ Finishes
  6
Continuous
100
AcDbLine
 10
38.61200924468922
 20
8.407892407553108
 30
0.0
 11
37.8105109166011
 21
8.933013375295044
 31
0.0
  0
LINE
  5
AF
330
1F
100
AcDbEntity
  8
Doc_ Finishes
  6
Continuous
100
AcDbLine
 10
38.77783389063729
 20
8.18679140440598
 30
0.0
 11
38.61200924468922
 21
8.407892407553108
 31
0.0
  0
LINE
  5
B0
330
1F
100
AcDbEntity
  8
Doc_ Finishes
  6
Continuous
100
AcDbLine
 10
39.3858693941778
 20
7.744584972462627
 30
0.0
 11
38.77783389063729
 21
8.18679140440598
 31
0.0
  0
LINE
  5
B1
330
1F
100
AcDbEntity
  8
Doc_ Finishes
  6
Continuous
100
AcDbLine
 10
40.18736329661684
 20
6.915448465774981
 30
0.0
 11
39.3858693941778
 21
7.744584972462627
 31
0.0
  0
LINE
  5
B2
330
1F
100
AcDbEntity
  8
Doc_ Finishes
  6
Continuous
100
AcDbLine
 10
40.79539880015735
 20
6.4456038552321
 30
0.0
 11
40.18736329661684
 21
6.915448465774981
 31
0.0
  0
LINE
  5
B3
330
1F
100
AcDbEntity
  8
Doc_ Finishes
  6
Continuous
100
AcDbLine
 10
41.56925452399685
 20
6.169226494885916
 30
0.0
 11
40.79539880015735
 21
6.4456038552321
 31
0.0
  0
LINE
  5
B4
330
1F
100
AcDbEntity
  8
Doc_ Finishes
  6
Continuous
100
AcDbLine
 10
42.23256638473643
 20
6.086316384736428
 30
0.0
 11
41.56925452399685
 21
6.169226494885916
 31
0.0
  0
LINE
  5
B5
330
1F
100
AcDbEntity
  8
Doc_ Finishes
  6
Continuous
100
AcDbLine
 10
42.48130556648308
 20
6.307417387883556
 30
0.0
 11
42.23256638473643
 21
6.086316384736428
 31
0.0
  0
LINE
  5
B6
330
1F
100
AcDbEntity
  8
Doc_ Finishes
  6
Continuous
100
AcDbLine
 10
42.14965184893784
 20
6.611432926829268
 30
0.0
 11
42.48130556648308
 21
6.307417387883556
 31
0.0
  0
LINE
  5
B7
330
1F
100
AcDbEntity
  8
Doc_ Finishes
  6
Continuous
100
AcDbLine
 10
41.48634441384736
 20
6.998363001573564
 30
0.0
 11
42.14965184893784
 21
6.611432926829268
 31
0.0
  0
LINE
  5
B8
330
1F
100
AcDbEntity
  8
Doc_ Finishes
  6
Continuous
100
AcDbLine
 10
40.76776062155783
 20
7.357654897718332
 30
0.0
 11
41.48634441384736
 21
6.998363001573564
 31
0.0
  0
LINE
  5
B9
330
1F
100
AcDbEntity
  8
Doc_ Finishes
  6
Continuous
100
AcDbLine
 10
40.18736329661684
 20
8.048600511408338
 30
0.0
 11
40.76776062155783
 21
7.357654897718332
 31
0.0
  0
LINE
  5
BA
330
1F
100
AcDbEntity
  8
Doc_ Finishes
  6
Continuous
100
AcDbLine
 10
38.99893931943352
 20
8.822460660896931
 30
0.0
 11
40.18736329661684
 21
8.048600511408338
 31
0.0
  0
LINE
  5
BB
330
1F
100
AcDbEntity
  8
Doc_ Finishes
  6
Continuous
100
AcDbLine
 10
38.47381835169158
 20
9.319939024390242
 30
0.0
 11
38.99893931943352
 21
8.822460660896931
 31
0.0
  0
LINE
  5
BC
330
1F
100
AcDbEntity
  8
Doc_ Finishes
  6
Continuous
100
AcDbLine
 10
38.22507916994492
 20
9.734507277734066
 30
0.0
 11
38.47381835169158
 21
9.319939024390242
 31
0.0
  0
LINE
  5
BD
330
1F
100
AcDbEntity
  8
Doc_ Finishes
  6
Continuous
100
AcDbLine
 10
37.17484166011014
 20
10.31490460267506
 30
0.0
 11
38.22507916994492
 21
9.734507277734066
 31
0.0
  0
LINE
  5
BE
330
1F
100
AcDbEntity
  8
Doc_ Finishes
  6
Continuous
100
AcDbLine
 10
36.7326352281668
 20
10.78474478756884
 30
0.0
 11
37.17484166011014
 21
10.31490460267506
 31
0.0
  0
LINE
  5
BF
330
1F
100
AcDbEntity
  8
Doc_ Finishes
  6
Continuous
100
AcDbLine
 10
36.23515243902439
 20
11.17167486231314
 30
0.0
 11
36.7326352281668
 21
10.78474478756884
 31
0.0
  0
LINE
  5
C0
330
1F
100
AcDbEntity
  8
Doc_ Finishes
  6
Continuous
100
AcDbLine
 10
35.48893046813532
 20
11.61388129425649
 30
0.0
 11
36.23515243902439
 21
11.17167486231314
 31
0.0
  0
LINE
  5
C1
330
1F
100
AcDbEntity
  8
Doc_ Finishes
  6
Continuous
100
AcDbLine
 10
34.85326121164437
 20
12.16663601494886
 30
0.0
 11
35.48893046813532
 21
11.61388129425649
 31
0.0
  0
LINE
  5
C2
330
1F
100
AcDbEntity
  8
Doc_ Finishes
  6
Continuous
100
AcDbLine
 10
34.35578284815106
 20
12.58120426829268
 30
0.0
 11
34.85326121164437
 21
12.16663601494886
 31
0.0
  0
LINE
  5
C3
330
1F
100
AcDbEntity
  8
Doc_ Finishes
  6
Continuous
100
AcDbLine
 10
33.69247098741149
 20
12.99577252163651
 30
0.0
 11
34.35578284815106
 21
12.58120426829268
 31
0.0
  0
LINE
  5
C4
330
1F
100
AcDbEntity
  8
Doc_ Finishes
  6
Continuous
100
AcDbLine
 10
33.2226308025177
 20
13.32742623918175
 30
0.0
 11
33.69247098741149
 21
12.99577252163651
 31
0.0
  0
LINE
  5
C5
330
1F
100
AcDbEntity
  8
Doc_ Finishes
  6
Continuous
100
AcDbLine
 10
32.7251480133753
 20
13.5761654209284
 30
0.0
 11
33.2226308025177
 21
13.32742623918175
 31
0.0
  0
LINE
  5
C6
330
1F
100
AcDbEntity
  8
Doc_ Finishes
  6
Continuous
100
AcDbLine
 10
31.93747098741148
 20
14.0644340086546
 30
0.0
 11
32.7251480133753
 21
13.5761654209284
 31
0.0
  0
LINE
  5
C7
330
1F
100
AcDbEntity
  8
Doc_ Finishes
  6
Continuous
100
AcDbLine
 10
31.43077842250197
 20
14.38687795043273
 30
0.0
 11
31.93747098741148
 21
14.0644340086546
 31
0.0
  0
LINE
  5
C8
330
1F
100
AcDbEntity
  8
Doc_ Finishes
  6
Continuous
100
AcDbLine
 10
30.92408143194335
 20
14.70931746656176
 30
0.0
 11
31.43077842250197
 21
14.38687795043273
 31
0.0
  0
LINE
  5
C9
330
1F
100
AcDbEntity
  8
Doc_ Finishes
  6
Continuous
100
AcDbLine
 10
30.62467299370574
 20
15.10085464201416
 30
0.0
 11
30.92408143194335
 21
14.70931746656176
 31
0.0
  0
LINE
  5
CA
330
1F
100
AcDbEntity
  8
Doc_ Finishes
  6
Continuous
100
AcDbLine
 10
29.95675845790716
 20
15.67664486624705
 30
0.0
 11
30.62467299370574
 21
15.10085464201416
 31
0.0
  0
LINE
  5
CB
330
1F
100
AcDbEntity
  8
Doc_ Finishes
  6
Continuous
100
AcDbLine
 10
29.47309697088906
 20
15.95302222659323
 30
0.0
 11
29.95675845790716
 21
15.67664486624705
 31
0.0
  0
LINE
  5
CC
330
1F
100
AcDbEntity
  8
Doc_ Finishes
  6
Continuous
100
AcDbLine
 10
28.8282135129819
 20
16.36759047993706
 30
0.0
 11
29.47309697088906
 21
15.95302222659323
 31
0.0
  0
LINE
  5
CD
330
1F
100
AcDbEntity
  8
Doc_ Finishes
  6
Continuous
100
AcDbLine
 10
28.50577399685287
 20
16.22939958693942
 30
0.0
 11
28.8282135129819
 21
16.36759047993706
 31
0.0
  0
LINE
  5
CE
330
1F
100
AcDbEntity
  8
Doc_ Finishes
  6
Continuous
100
AcDbLine
 10
28.06817466561763
 20
15.74573809992132
 30
0.0
 11
28.50577399685287
 21
16.22939958693942
 31
0.0
  0
LINE
  5
CF
330
1F
100
AcDbEntity
  8
Doc_ Finishes
  6
Continuous
 62
   254
370
    18
100
AcDbLine
 10
97.43333792289535
 20
5.093360051140834
 30
0.0
 11
97.43333792289535
 21
20.69901750590086
 31
0.0
  0
LINE
  5
D0
330
1F
100
AcDbEntity
  8
Doc_ Finishes
  6
Continuous
 62
   254
370
    18
100
AcDbLine
 10
7.000000491738787
 20
20.69901750590086
 30
0.0
 11
290.2406840086546
 21
20.69901750590086
 31
0.0
  0
LINE
  5
D1
330
1F
100
AcDbEntity
  8
Doc_ Finishes
  6
Continuous
 62
   254
370
    18
100
AcDbLine
 10
290.2406840086546
 20
20.69901750590086
 30
0.0
 11
290.2406840086546
 21
5.000000983477577
 31
0.0
  0
LINE
  5
D2
330
1F
100
AcDbEntity
  8
Doc_ Finishes
  6
Continuous
 62
   254
370
    18
100
AcDbLine
 10
290.2406840086546
 20
5.000000983477577
 30
0.0
 11
7.000000491738787
 21
5.000000983477577
 31
0.0
  0
LINE
  5
D3
330
1F
100
AcDbEntity
  8
Doc_ Finishes
  6
Continuous
 62
   254
370
    18
100
AcDbLine
 10
7.000000491738787
 20
20.69901750590086
 30
0.0
 11
7.000000491738787
 21
5.000000983477577
 31
0.0
  0
LINE
  5
D4
330
1F
100
AcDbEntity
  8
Doc_ Finishes
  6
Continuous
 62
   254
370
    18
100
AcDbLine
 10
190.2919443351691
 20
5.093360051140834
 30
0.0
 11
190.2919443351691
 21
20.69901750590086
 31
0.0
  0
LINE
  5
D5
330
1F
100
AcDbEntity
  8
Doc_ Finishes
  6
Continuous
 62
   254
370
    18
100
AcDbLine
 10
190.2919443351691
 20
12.8961909913454
 30
0.0
 11
290.2406840086546
 21
12.8961909913454
 31
0.0
  0
MTEXT
  5
D7
330
1F
100
AcDbEntity
  8
0
  6
Continuous
100
AcDbMText
 10
210.3494767103412
 20
15.00228372306228
 30
0.0
 40
2.25
 41
0.0
 71
     7
 72
     1
  1
{R-TRS6-05}
  7
GENERATED_STYLE_1
 73
     1
 44
1.0
  0
MTEXT
  5
D8
330
1F
100
AcDbEntity
  8
0
  6
Continuous
100
AcDbMText
 10
210.3494767103412
 20
11.03300550383743
 30
0.0
 40
3.0
 41
0.0
 71
     1
 72
     1
  1
{HIDDENGUTTER DETAIL}
  7
GENERATED_STYLE_1
 73
     1
 44
1.0
  0
MTEXT
  5
DA
330
1F
100
AcDbEntity
  8
Doc_ Floor
  6
Continuous
100
AcDbMText
 10
29.78353726544612
 20
13.33283672870609
 30
0.0
 40
5.603347280334726
 41
0.0
 71
     1
 72
     1
  1
{The Roofing Store}
  7
GENERATED_STYLE_2
 73
     1
 44
1.0
  0
MTEXT
  5
DC
102
{ACAD_XDICTIONARY
360
5C9
102
}
330
1F
100
AcDbEntity
  8
0
  6
Continuous
100
AcDbMText
 10
102.7389238446655
 20
6.378784417288156
 30
0.0
 40
1.5
 41
0.0
 71
     7
 72
     1
  1
{P: HEAD OFFICE              09 277 2717\P    ALBANY             09 972 0060\P    KATIKAIT            07 549 5190\P    WELLINGTON              04 974 5792\P    CHRISTCHURCH          03 348 6528}
  7
GENERATED_STYLE_1
 73
     1
 44
1.062946161486498
  0
MTEXT
  5
DD
330
1F
100
AcDbEntity
  8
0
  6
Continuous
100
AcDbMText
 10
149.4184566143587
 20
9.199084231526156
 30
0.0
 40
1.5
 41
0.0
 71
     7
 72
     1
  1
{WEB: www.theroofingstore.co.nz}
  7
GENERATED_STYLE_1
 73
     1
 44
1.0
  0
MTEXT
  5
DE
330
1F
100
AcDbEntity
  8
0
  6
Continuous
100
AcDbMText
 10
149.4184566143587
 20
6.620946023411263
 30
0.0
 40
1.5
 41
0.0
 71
     7
 72
     1
  1
{Copyright \U+00A9 The Roofing Store 2013}
  7
GENERATED_STYLE_1
 73
     1
 44
1.0
  0
MTEXT
  5
DF
330
1F
100
AcDbEntity
  8
0
  6
Continuous
100
AcDbMText
 10
273.9546684065315
 20
15.01595205690762
 30
0.0
 40
2.25
 41
0.0
 71
     7
 72
     1
  1
{1:5}
  7
GENERATED_STYLE_1
 73
     1
 44
1.0
  0
MTEXT
  5
E0
330
1F
100
AcDbEntity
  8
0
  6
Continuous
100
AcDbMText
 10
264.8396605309016
 20
15.51746459162148
 30
0.0
 40
1.5
 41
0.0
 71
     7
 72
     1
  1
{SCALE:}
  7
GENERATED_STYLE_1
 73
     1
 44
1.0
  0
MTEXT
  5
E1
330
1F
100
AcDbEntity
  8
0
  6
Continuous
100
AcDbMText
 10
191.5066235617487
 20
15.48695559872207
 30
0.0
 40
1.5
 41
0.0
 71
     7
 72
     1
  1
{DETAIL NUMBER:}
  7
GENERATED_STYLE_1
 73
     1
 44
1.0
  0
MTEXT
  5
E2
330
1F
100
AcDbEntity
  8
0
  6
Continuous
100
AcDbMText
 10
191.5066235617487
 20
9.005462392315325
 30
0.0
 40
1.5
 41
0.0
 71
     7
 72
     1
  1
{TITLE:}
  7
GENERATED_STYLE_1
 73
     1
 44
1.0
  0
INSERT
  5
597
102
{ACAD_XDICTIONARY
360
598
102
}
330
1F
100
AcDbEntity
  8
0
  6
Continuous
100
AcDbBlockReference
  2
Drawing_1_2
 10
26.12171212374109
 20
79.28749807145608
 30
0.0
  0
ENDSEC
  0
SECTION
  2
OBJECTS
  0
DICTIONARY
  5
C
330
0
100
AcDbDictionary
281
     1
  3
ACAD_GROUP
350
D
  3
ACAD_LAYOUT
350
1A
  3
ACAD_MATERIAL
350
3B
  3
ACAD_MLEADERSTYLE
350
5C4
  3
ACAD_MLINESTYLE
350
17
  3
ACAD_PLOTSETTINGS
350
19
  3
ACAD_PLOTSTYLENAME
350
E
  3
ACAD_SCALELIST
350
59E
  3
ACAD_VISUALSTYLE
350
2A
  3
AcDbVariableDictionary
350
5C2
  3
WATERMARKS
350
5C0
  0
DICTIONARY
  5
5C9
330
DC
100
AcDbDictionary
280
     1
281
     1
  3
ACAD_MTEXT_RT
360
5CA
  0
DICTIONARY
  5
598
330
597
100
AcDbDictionary
280
     1
281
     1
  3
ACAD_FILTER
360
599
  0
DICTIONARY
  5
D
102
{ACAD_REACTORS
330
C
102
}
330
C
100
AcDbDictionary
281
     1
  0
DICTIONARY
  5
1A
102
{ACAD_REACTORS
330
C
102
}
330
C
100
AcDbDictionary
281
     1
  3
Layout1
350
1E
  3
Model
350
22
  0
DICTIONARY
  5
3B
102
{ACAD_REACTORS
330
C
102
}
330
C
100
AcDbDictionary
281
     1
  3
ByBlock
350
3D
  3
ByLayer
350
3C
  3
Global
350
3E
  0
DICTIONARY
  5
5C4
102
{ACAD_REACTORS
330
C
102
}
330
C
100
AcDbDictionary
281
     1
  0
DICTIONARY
  5
17
102
{ACAD_REACTORS
330
C
102
}
330
C
100
AcDbDictionary
281
     1
  3
Standard
350
18
  0
DICTIONARY
  5
19
102
{ACAD_REACTORS
330
C
102
}
330
C
100
AcDbDictionary
281
     1
  0
ACDBDICTIONARYWDFLT
  5
E
102
{ACAD_REACTORS
330
C
102
}
330
C
100
AcDbDictionary
281
     1
  3
Normal
350
F
100
AcDbDictionaryWithDefault
340
F
  0
DICTIONARY
  5
59E
102
{ACAD_REACTORS
330
C
102
}
330
C
100
AcDbDictionary
281
     1
  3
A0
350
59F
  3
A1
350
5A0
  3
A2
350
5A1
  3
A3
350
5A2
  3
A4
350
5A3
  3
A5
350
5A4
  3
A6
350
5A5
  3
A7
350
5A6
  3
A8
350
5A7
  3
A9
350
5A8
  3
B0
350
5A9
  3
B1
350
5AA
  3
B2
350
5AB
  3
B3
350
5AC
  3
B4
350
5AD
  3
B5
350
5AE
  3
B6
350
5AF
  3
B7
350
5B0
  3
B8
350
5B1
  3
B9
350
5B2
  3
C0
350
5B3
  3
C1
350
5B4
  3
C2
350
5B5
  3
C3
350
5B6
  3
C4
350
5B7
  3
C5
350
5B8
  3
C6
350
5B9
  3
C7
350
5BA
  3
C8
350
5BB
  3
C9
350
5BC
  3
D0
350
5BD
  3
D1
350
5BE
  3
D2
350
5BF
  0
DICTIONARY
  5
2A
102
{ACAD_REACTORS
330
C
102
}
330
C
100
AcDbDictionary
281
     1
  3
2dWireframe
350
2F
  3
3D Hidden
350
31
  3
3dWireframe
350
30
  3
Basic
350
32
  3
Brighten
350
36
  3
ColorChange
350
3A
  3
Conceptual
350
34
  3
Dim
350
35
  3
Facepattern
350
39
  3
Flat
350
2B
  3
FlatWithEdges
350
2C
  3
Gouraud
350
2D
  3
GouraudWithEdges
350
2E
  3
Linepattern
350
38
  3
Realistic
350
33
  3
Thicken
350
37
  0
DICTIONARY
  5
5C2
102
{ACAD_REACTORS
330
C
102
}
330
C
100
AcDbDictionary
281
     1
  3
CANNOSCALE
350
5C6
  3
DIMASSOC
350
5C7
  3
HIDETEXT
350
5C8
  3
XCLIPFRAME
350
5C5
  0
DICTIONARY
  5
5C0
102
{ACAD_REACTORS
330
C
102
}
330
C
100
AcDbDictionary
281
     1
  3
AC_WATERMARK
350
5C1
  0
XRECORD
  5
5CA
102
{ACAD_REACTORS
330
5C9
102
}
330
5C9
100
AcDbXrecord
280
     1
 40
956118.0
  1
{P: HEAD OFFICE ^I^I09 277 2717\P    ALBANY ^I^I09 972 0060\P    KATIKAIT^I^I07 549 5190\P    WELLINGTON^I^I04 974 5792\P    CHRISTCHURCH^I^I03 348 6528}
  0
DICTIONARY
  5
599
102
{ACAD_REACTORS
330
598
102
}
330
598
100
AcDbDictionary
280
     1
281
     1
  3
SPATIAL
360
59A
  0
LAYOUT
  5
1E
102
{ACAD_REACTORS
330
1A
102
}
330
1A
100
AcDbPlotSettings
  1

  2
none_device
  4

  6

 40
0.0
 41
0.0
 42
0.0
 43
0.0
 44
0.0
 45
0.0
 46
0.0
 47
0.0
 48
0.0
 49
0.0
140
0.0
141
0.0
142
1.0
143
1.0
 70
   688
 72
     0
 73
     0
 74
     5
  7

 75
    16
147
1.0
148
0.0
149
0.0
100
AcDbLayout
  1
Layout1
 70
     1
 71
     1
 10
0.0
 20
0.0
 11
12.0
 21
9.0
 12
0.0
 22
0.0
 32
0.0
 14
1.000000000000000E+20
 24
1.000000000000000E+20
 34
1.000000000000000E+20
 15
-1.000000000000000E+20
 25
-1.000000000000000E+20
 35
-1.000000000000000E+20
146
0.0
 13
0.0
 23
0.0
 33
0.0
 16
1.0
 26
0.0
 36
0.0
 17
0.0
 27
1.0
 37
0.0
 76
     0
330
1B
  0
LAYOUT
  5
22
102
{ACAD_REACTORS
330
1A
102
}
330
1A
100
AcDbPlotSettings
  1

  2
none_device
  4

  6

 40
0.0
 41
0.0
 42
0.0
 43
0.0
 44
0.0
 45
0.0
 46
0.0
 47
0.0
 48
0.0
 49
0.0
140
0.0
141
0.0
142
1.0
143
1.0
 70
  1712
 72
     0
 73
     0
 74
     0
  7

 75
     0
147
1.0
148
0.0
149
0.0
100
AcDbLayout
  1
Model
 70
     1
 71
     0
 10
0.0
 20
0.0
 11
12.0
 21
9.0
 12
0.0
 22
0.0
 32
0.0
 14
1.000000000000000E+20
 24
1.000000000000000E+20
 34
1.000000000000000E+20
 15
-1.000000000000000E+20
 25
-1.000000000000000E+20
 35
-1.000000000000000E+20
146
0.0
 13
0.0
 23
0.0
 33
0.0
 16
1.0
 26
0.0
 36
0.0
 17
0.0
 27
1.0
 37
0.0
 76
     0
330
1F
331
29
  0
MATERIAL
  5
3D
102
{ACAD_REACTORS
330
3B
102
}
102
{ACAD_XDICTIONARY
360
5ED
102
}
330
3B
100
AcDbMaterial
  1
ByBlock
  0
MATERIAL
  5
3C
102
{ACAD_REACTORS
330
3B
102
}
102
{ACAD_XDICTIONARY
360
5EB
102
}
330
3B
100
AcDbMaterial
  1
ByLayer
  0
MATERIAL
  5
3E
102
{ACAD_REACTORS
330
3B
102
}
102
{ACAD_XDICTIONARY
360
5EF
102
}
330
3B
100
AcDbMaterial
  1
Global
  0
MLINESTYLE
  5
18
102
{ACAD_REACTORS
330
17
102
}
330
17
100
AcDbMlineStyle
  2
Standard
 70
     0
  3

 62
   256
 51
90.0
 52
90.0
 71
     2
 49
0.5
 62
   256
  6
BYLAYER
 49
-0.5
 62
   256
  6
BYLAYER
  0
ACDBPLACEHOLDER
  5
F
102
{ACAD_REACTORS
330
E
102
}
330
E
  0
SCALE
  5
59F
102
{ACAD_REACTORS
330
59E
102
}
330
59E
100
AcDbScale
 70
     0
300
1:1
140
1.0
141
1.0
290
     1
  0
SCALE
  5
5A0
102
{ACAD_REACTORS
330
59E
102
}
330
59E
100
AcDbScale
 70
     0
300
1:2
140
1.0
141
2.0
290
     0
  0
SCALE
  5
5A1
102
{ACAD_REACTORS
330
59E
102
}
330
59E
100
AcDbScale
 70
     0
300
1:4
140
1.0
141
4.0
290
     0
  0
SCALE
  5
5A2
102
{ACAD_REACTORS
330
59E
102
}
330
59E
100
AcDbScale
 70
     0
300
1:5
140
1.0
141
5.0
290
     0
  0
SCALE
  5
5A3
102
{ACAD_REACTORS
330
59E
102
}
330
59E
100
AcDbScale
 70
     0
300
1:8
140
1.0
141
8.0
290
     0
  0
SCALE
  5
5A4
102
{ACAD_REACTORS
330
59E
102
}
330
59E
100
AcDbScale
 70
     0
300
1:10
140
1.0
141
10.0
290
     0
  0
SCALE
  5
5A5
102
{ACAD_REACTORS
330
59E
102
}
330
59E
100
AcDbScale
 70
     0
300
1:16
140
1.0
141
16.0
290
     0
  0
SCALE
  5
5A6
102
{ACAD_REACTORS
330
59E
102
}
330
59E
100
AcDbScale
 70
     0
300
1:20
140
1.0
141
20.0
290
     0
  0
SCALE
  5
5A7
102
{ACAD_REACTORS
330
59E
102
}
330
59E
100
AcDbScale
 70
     0
300
1:30
140
1.0
141
30.0
290
     0
  0
SCALE
  5
5A8
102
{ACAD_REACTORS
330
59E
102
}
330
59E
100
AcDbScale
 70
     0
300
1:40
140
1.0
141
40.0
290
     0
  0
SCALE
  5
5A9
102
{ACAD_REACTORS
330
59E
102
}
330
59E
100
AcDbScale
 70
     0
300
1:50
140
1.0
141
50.0
290
     0
  0
SCALE
  5
5AA
102
{ACAD_REACTORS
330
59E
102
}
330
59E
100
AcDbScale
 70
     0
300
1:100
140
1.0
141
100.0
290
     0
  0
SCALE
  5
5AB
102
{ACAD_REACTORS
330
59E
102
}
330
59E
100
AcDbScale
 70
     0
300
2:1
140
2.0
141
1.0
290
     0
  0
SCALE
  5
5AC
102
{ACAD_REACTORS
330
59E
102
}
330
59E
100
AcDbScale
 70
     0
300
4:1
140
4.0
141
1.0
290
     0
  0
SCALE
  5
5AD
102
{ACAD_REACTORS
330
59E
102
}
330
59E
100
AcDbScale
 70
     0
300
8:1
140
8.0
141
1.0
290
     0
  0
SCALE
  5
5AE
102
{ACAD_REACTORS
330
59E
102
}
330
59E
100
AcDbScale
 70
     0
300
10:1
140
10.0
141
1.0
290
     0
  0
SCALE
  5
5AF
102
{ACAD_REACTORS
330
59E
102
}
330
59E
100
AcDbScale
 70
     0
300
100:1
140
100.0
141
1.0
290
     0
  0
SCALE
  5
5B0
102
{ACAD_REACTORS
330
59E
102
}
330
59E
100
AcDbScale
 70
     0
300
1/128" = 1'-0"
140
0.0078125
141
12.0
290
     0
  0
SCALE
  5
5B1
102
{ACAD_REACTORS
330
59E
102
}
330
59E
100
AcDbScale
 70
     0
300
1/64" = 1'-0"
140
0.015625
141
12.0
290
     0
  0
SCALE
  5
5B2
102
{ACAD_REACTORS
330
59E
102
}
330
59E
100
AcDbScale
 70
     0
300
1/32" = 1'-0"
140
0.03125
141
12.0
290
     0
  0
SCALE
  5
5B3
102
{ACAD_REACTORS
330
59E
102
}
330
59E
100
AcDbScale
 70
     0
300
1/16" = 1'-0"
140
0.0625
141
12.0
290
     0
  0
SCALE
  5
5B4
102
{ACAD_REACTORS
330
59E
102
}
330
59E
100
AcDbScale
 70
     0
300
3/32" = 1'-0"
140
0.09375
141
12.0
290
     0
  0
SCALE
  5
5B5
102
{ACAD_REACTORS
330
59E
102
}
330
59E
100
AcDbScale
 70
     0
300
1/8" = 1'-0"
140
0.125
141
12.0
290
     0
  0
SCALE
  5
5B6
102
{ACAD_REACTORS
330
59E
102
}
330
59E
100
AcDbScale
 70
     0
300
3/16" = 1'-0"
140
0.1875
141
12.0
290
     0
  0
SCALE
  5
5B7
102
{ACAD_REACTORS
330
59E
102
}
330
59E
100
AcDbScale
 70
     0
300
1/4" = 1'-0"
140
0.25
141
12.0
290
     0
  0
SCALE
  5
5B8
102
{ACAD_REACTORS
330
59E
102
}
330
59E
100
AcDbScale
 70
     0
300
3/8" = 1'-0"
140
0.375
141
12.0
290
     0
  0
SCALE
  5
5B9
102
{ACAD_REACTORS
330
59E
102
}
330
59E
100
AcDbScale
 70
     0
300
1/2" = 1'-0"
140
0.5
141
12.0
290
     0
  0
SCALE
  5
5BA
102
{ACAD_REACTORS
330
59E
102
}
330
59E
100
AcDbScale
 70
     0
300
3/4" = 1'-0"
140
0.75
141
12.0
290
     0
  0
SCALE
  5
5BB
102
{ACAD_REACTORS
330
59E
102
}
330
59E
100
AcDbScale
 70
     0
300
1" = 1'-0"
140
1.0
141
12.0
290
     0
  0
SCALE
  5
5BC
102
{ACAD_REACTORS
330
59E
102
}
330
59E
100
AcDbScale
 70
     0
300
1-1/2" = 1'-0"
140
1.5
141
12.0
290
     0
  0
SCALE
  5
5BD
102
{ACAD_REACTORS
330
59E
102
}
330
59E
100
AcDbScale
 70
     0
300
3" = 1'-0"
140
3.0
141
12.0
290
     0
  0
SCALE
  5
5BE
102
{ACAD_REACTORS
330
59E
102
}
330
59E
100
AcDbScale
 70
     0
300
6" = 1'-0"
140
6.0
141
12.0
290
     0
  0
SCALE
  5
5BF
102
{ACAD_REACTORS
330
59E
102
}
330
59E
100
AcDbScale
 70
     0
300
1'-0" = 1'-0"
140
12.0
141
12.0
290
     0
  0
VISUALSTYLE
  5
2F
102
{ACAD_REACTORS
330
2A
102
}
102
{ACAD_XDICTIONARY
360
5D3
102
}
330
2A
100
AcDbVisualStyle
  2
2dWireframe
 70
     4
 71
     0
 72
     2
 73
     0
 90
        0
 40
-0.6
 41
-30.0
 62
     5
 63
     7
 74
     1
 91
        4
 64
     7
 65
   257
 75
     1
175
     1
 42
1.0
 92
        0
 66
   257
 43
1.0
 76
     1
 77
     6
 78
     2
 67
     7
 79
     5
170
     0
171
     0
290
     0
174
     0
 93
        1
 44
0.0
173
     0
291
     0
 45
0.0
1001
ACAD
1000
AcDbSavedByObjectVersion
1070
     0
  0
VISUALSTYLE
  5
31
102
{ACAD_REACTORS
330
2A
102
}
102
{ACAD_XDICTIONARY
360
5D7
102
}
330
2A
100
AcDbVisualStyle
  2
3D Hidden
 70
     6
 71
     1
 72
     2
 73
     2
 90
        0
 40
-0.6
 41
-30.0
 62
     5
 63
     7
 74
     2
 91
        2
 64
     7
 65
   257
 75
     2
175
     1
 42
40.0
 92
        0
 66
   257
 43
1.0
 76
     1
 77
     6
 78
     2
 67
     7
 79
     3
170
     0
171
     0
290
     0
174
     0
 93
        1
 44
0.0
173
     0
291
     0
 45
0.0
1001
ACAD
1000
AcDbSavedByObjectVersion
1070
     0
  0
VISUALSTYLE
  5
30
102
{ACAD_REACTORS
330
2A
102
}
102
{ACAD_XDICTIONARY
360
5D5
102
}
330
2A
100
AcDbVisualStyle
  2
3dWireframe
 70
     5
 71
     0
 72
     2
 73
     0
 90
        0
 40
-0.6
 41
-30.0
 62
     5
 63
     7
 74
     1
 91
        4
 64
     7
 65
   257
 75
     1
175
     1
 42
1.0
 92
        0
 66
   257
 43
1.0
 76
     1
 77
     6
 78
     2
 67
     7
 79
     5
170
     0
171
     0
290
     0
174
     0
 93
        1
 44
0.0
173
     0
291
     0
 45
0.0
1001
ACAD
1000
AcDbSavedByObjectVersion
1070
     0
  0
VISUALSTYLE
  5
32
102
{ACAD_REACTORS
330
2A
102
}
102
{ACAD_XDICTIONARY
360
5D9
102
}
330
2A
100
AcDbVisualStyle
  2
Basic
 70
     7
 71
     1
 72
     0
 73
     1
 90
        0
 40
-0.6
 41
-30.0
 62
     5
 63
     7
 74
     0
 91
        4
 64
     7
 65
   257
 75
     1
175
     1
 42
1.0
 92
        8
 66
     7
 43
1.0
 76
     1
 77
     6
 78
     2
 67
     7
 79
     5
170
     0
171
     0
290
     0
174
     0
 93
        1
 44
0.0
173
     0
291
     1
 45
0.0
1001
ACAD
1000
AcDbSavedByObjectVersion
1070
     0
  0
VISUALSTYLE
  5
36
102
{ACAD_REACTORS
330
2A
102
}
102
{ACAD_XDICTIONARY
360
5E1
102
}
330
2A
100
AcDbVisualStyle
  2
Brighten
 70
    12
 71
     2
 72
     2
 73
     0
 90
        0
 40
-0.6
 41
-30.0
 62
     5
 63
     7
 74
     1
 91
        4
 64
     7
 65
   257
 75
     1
175
     1
 42
1.0
 92
        8
 66
     7
 43
1.0
 76
     1
 77
     6
 78
     2
 67
     7
 79
     5
170
     0
171
     0
290
     0
174
     0
 93
        1
 44
50.0
173
     0
291
     1
 45
0.0
1001
ACAD
1000
AcDbSavedByObjectVersion
1070
     0
  0
VISUALSTYLE
  5
3A
102
{ACAD_REACTORS
330
2A
102
}
102
{ACAD_XDICTIONARY
360
5E9
102
}
330
2A
100
AcDbVisualStyle
  2
ColorChange
 70
    16
 71
     2
 72
     2
 73
     3
 90
        0
 40
-0.6
 41
-30.0
 62
     5
 63
     8
 74
     1
 91
        4
 64
     7
 65
   257
 75
     1
175
     1
 42
1.0
 92
        8
 66
     8
 43
1.0
 76
     1
 77
     6
 78
     2
 67
     7
 79
     5
170
     0
171
     0
290
     0
174
     0
 93
        1
 44
0.0
173
     0
291
     1
 45
0.0
1001
ACAD
1000
AcDbSavedByObjectVersion
1070
     0
  0
VISUALSTYLE
  5
34
102
{ACAD_REACTORS
330
2A
102
}
102
{ACAD_XDICTIONARY
360
5DD
102
}
330
2A
100
AcDbVisualStyle
  2
Conceptual
 70
     9
 71
     3
 72
     2
 73
     0
 90
        0
 40
-0.6
 41
-30.0
 62
     5
 63
     7
 74
     2
 91
        2
 64
     7
 65
   257
 75
     1
175
     1
 42
40.0
 92
        8
 66
     7
 43
1.0
 76
     1
 77
     6
 78
     2
 67
     7
 79
     3
170
     0
171
     0
290
     0
174
     0
 93
        1
 44
0.0
173
     0
291
     0
 45
0.0
1001
ACAD
1000
AcDbSavedByObjectVersion
1070
     0
  0
VISUALSTYLE
  5
35
102
{ACAD_REACTORS
330
2A
102
}
102
{ACAD_XDICTIONARY
360
5DF
102
}
330
2A
100
AcDbVisualStyle
  2
Dim
 70
    11
 71
     2
 72
     2
 73
     0
 90
        0
 40
-0.6
 41
-30.0
 62
     5
 63
     7
 74
     1
 91
        4
 64
     7
 65
   257
 75
     1
175
     1
 42
1.0
 92
        8
 66
     7
 43
1.0
 76
     1
 77
     6
 78
     2
 67
     7
 79
     5
170
     0
171
     0
290
     0
174
     0
 93
        1
 44
-50.0
173
     0
291
     1
 45
0.0
1001
ACAD
1000
AcDbSavedByObjectVersion
1070
     0
  0
VISUALSTYLE
  5
39
102
{ACAD_REACTORS
330
2A
102
}
102
{ACAD_XDICTIONARY
360
5E7
102
}
330
2A
100
AcDbVisualStyle
  2
Facepattern
 70
    15
 71
     2
 72
     2
 73
     0
 90
        0
 40
-0.6
 41
-30.0
 62
     5
 63
     7
 74
     1
 91
        4
 64
     7
 65
   257
 75
     1
175
     1
 42
1.0
 92
        8
 66
     7
 43
1.0
 76
     1
 77
     6
 78
     2
 67
     7
 79
     5
170
     0
171
     0
290
     0
174
     0
 93
        1
 44
0.0
173
     0
291
     1
 45
0.0
1001
ACAD
1000
AcDbSavedByObjectVersion
1070
     0
  0
VISUALSTYLE
  5
2B
102
{ACAD_REACTORS
330
2A
102
}
102
{ACAD_XDICTIONARY
360
5CB
102
}
330
2A
100
AcDbVisualStyle
  2
Flat
 70
     0
 71
     2
 72
     1
 73
     1
 90
        2
 40
-0.6
 41
30.0
 62
     5
 63
     7
 74
     0
 91
        4
 64
     7
 65
   257
 75
     1
175
     1
 42
1.0
 92
        8
 66
     7
 43
1.0
 76
     1
 77
     6
 78
     2
 67
     7
 79
     5
170
     0
171
     0
290
     0
174
     0
 93
       13
 44
0.0
173
     0
291
     1
 45
0.0
1001
ACAD
1000
AcDbSavedByObjectVersion
1070
     0
  0
VISUALSTYLE
  5
2C
102
{ACAD_REACTORS
330
2A
102
}
102
{ACAD_XDICTIONARY
360
5CD
102
}
330
2A
100
AcDbVisualStyle
  2
FlatWithEdges
 70
     1
 71
     2
 72
     1
 73
     1
 90
        2
 40
-0.6
 41
30.0
 62
     5
 63
     7
 74
     1
 91
        4
 64
     7
 65
   257
 75
     1
175
     1
 42
1.0
 92
        0
 66
   257
 43
1.0
 76
     1
 77
     6
 78
     2
 67
     7
 79
     5
170
     0
171
     0
290
     0
174
     0
 93
       13
 44
0.0
173
     0
291
     1
 45
0.0
1001
ACAD
1000
AcDbSavedByObjectVersion
1070
     0
  0
VISUALSTYLE
  5
2D
102
{ACAD_REACTORS
330
2A
102
}
102
{ACAD_XDICTIONARY
360
5CF
102
}
330
2A
100
AcDbVisualStyle
  2
Gouraud
 70
     2
 71
     2
 72
     2
 73
     1
 90
        2
 40
-0.6
 41
30.0
 62
     5
 63
     7
 74
     0
 91
        4
 64
     7
 65
   257
 75
     1
175
     1
 42
1.0
 92
        0
 66
     7
 43
1.0
 76
     1
 77
     6
 78
     2
 67
     7
 79
     5
170
     0
171
     0
290
     0
174
     0
 93
       13
 44
0.0
173
     0
291
     1
 45
0.0
1001
ACAD
1000
AcDbSavedByObjectVersion
1070
     0
  0
VISUALSTYLE
  5
2E
102
{ACAD_REACTORS
330
2A
102
}
102
{ACAD_XDICTIONARY
360
5D1
102
}
330
2A
100
AcDbVisualStyle
  2
GouraudWithEdges
 70
     3
 71
     2
 72
     2
 73
     1
 90
        2
 40
-0.6
 41
30.0
 62
     5
 63
     7
 74
     1
 91
        4
 64
     7
 65
   257
 75
     1
175
     1
 42
1.0
 92
        0
 66
   257
 43
1.0
 76
     1
 77
     6
 78
     2
 67
     7
 79
     5
170
     0
171
     0
290
     0
174
     0
 93
       13
 44
0.0
173
     0
291
     1
 45
0.0
1001
ACAD
1000
AcDbSavedByObjectVersion
1070
     0
  0
VISUALSTYLE
  5
38
102
{ACAD_REACTORS
330
2A
102
}
102
{ACAD_XDICTIONARY
360
5E5
102
}
330
2A
100
AcDbVisualStyle
  2
Linepattern
 70
    14
 71
     2
 72
     2
 73
     0
 90
        0
 40
-0.6
 41
-30.0
 62
     5
 63
     7
 74
     1
 91
        4
 64
     7
 65
   257
 75
     7
175
     7
 42
1.0
 92
        8
 66
     7
 43
1.0
 76
     1
 77
     6
 78
     2
 67
     7
 79
     5
170
     0
171
     0
290
     0
174
     0
 93
        1
 44
0.0
173
     0
291
     1
 45
0.0
1001
ACAD
1000
AcDbSavedByObjectVersion
1070
     0
  0
VISUALSTYLE
  5
33
102
{ACAD_REACTORS
330
2A
102
}
102
{ACAD_XDICTIONARY
360
5DB
102
}
330
2A
100
AcDbVisualStyle
  2
Realistic
 70
     8
 71
     2
 72
     2
 73
     0
 90
        0
 40
-0.6
 41
-30.0
 62
     5
 63
     7
 74
     1
 91
        0
 64
     7
 65
   257
 75
     1
175
     1
 42
1.0
 92
        8
 66
     8
 43
1.0
 76
     1
 77
     6
 78
     2
 67
     7
 79
     5
170
     0
171
     0
290
     0
174
     0
 93
       13
 44
0.0
173
     0
291
     0
 45
0.0
1001
ACAD
1000
AcDbSavedByObjectVersion
1070
     0
  0
VISUALSTYLE
  5
37
102
{ACAD_REACTORS
330
2A
102
}
102
{ACAD_XDICTIONARY
360
5E3
102
}
330
2A
100
AcDbVisualStyle
  2
Thicken
 70
    13
 71
     2
 72
     2
 73
     0
 90
        0
 40
-0.6
 41
-30.0
 62
     5
 63
     7
 74
     1
 91
        4
 64
     7
 65
   257
 75
     1
175
     1
 42
1.0
 92
       12
 66
     7
 43
1.0
 76
     1
 77
     6
 78
     2
 67
     7
 79
     5
170
     0
171
     0
290
     0
174
     0
 93
        1
 44
0.0
173
     0
291
     1
 45
0.0
1001
ACAD
1000
AcDbSavedByObjectVersion
1070
     0
  0
DICTIONARYVAR
  5
5C6
102
{ACAD_REACTORS
330
5C2
102
}
330
5C2
100
DictionaryVariables
280
     0
  1
1:1
  0
DICTIONARYVAR
  5
5C7
102
{ACAD_REACTORS
330
5C2
102
}
330
5C2
100
DictionaryVariables
280
     0
  1
2
  0
DICTIONARYVAR
  5
5C8
102
{ACAD_REACTORS
330
5C2
102
}
330
5C2
100
DictionaryVariables
280
     0
  1
1
  0
DICTIONARYVAR
  5
5C5
102
{ACAD_REACTORS
330
5C2
102
}
330
5C2
100
DictionaryVariables
280
     0
  1
0
  0
XRECORD
  5
5C1
102
{ACAD_REACTORS
330
5C0
102
}
330
5C0
100
AcDbXrecord
280
     1
1000
This DWG file was created in ArchiCAD(TM)®
  0
SPATIAL_FILTER
  5
59A
102
{ACAD_REACTORS
330
599
102
}
330
599
100
AcDbFilter
100
AcDbSpatialFilter
 70
     4
 10
20.48385250649914
 20
26.01930474315756
 10
262.7211298404507
 20
26.01930474315756
 10
262.7211298404507
 20
197.643803943156
 10
20.48385250649914
 20
197.643803943156
210
0.0
220
0.0
230
1.0
 11
0.0
 21
0.0
 31
0.0
 71
     1
 72
     0
 73
     0
 40
1.0
 40
0.0
 40
0.0
 40
0.0
 40
0.0
 40
1.0
 40
0.0
 40
0.0
 40
0.0
 40
0.0
 40
1.0
 40
0.0
 40
1.0
 40
0.0
 40
0.0
 40
0.0
 40
0.0
 40
1.0
 40
0.0
 40
0.0
 40
0.0
 40
0.0
 40
1.0
 40
0.0
  0
DICTIONARY
  5
5ED
330
3D
100
AcDbDictionary
280
     1
281
     1
  3
ACAD_XREC_ROUNDTRIP
360
5EE
  0
DICTIONARY
  5
5EB
330
3C
100
AcDbDictionary
280
     1
281
     1
  3
ACAD_XREC_ROUNDTRIP
360
5EC
  0
DICTIONARY
  5
5EF
330
3E
100
AcDbDictionary
280
     1
281
     1
  3
ACAD_XREC_ROUNDTRIP
360
5F0
  0
DICTIONARY
  5
5D3
330
2F
100
AcDbDictionary
280
     1
281
     1
  3
ACAD_XREC_ROUNDTRIP
360
5D4
  0
DICTIONARY
  5
5D7
330
31
100
AcDbDictionary
280
     1
281
     1
  3
ACAD_XREC_ROUNDTRIP
360
5D8
  0
DICTIONARY
  5
5D5
330
30
100
AcDbDictionary
280
     1
281
     1
  3
ACAD_XREC_ROUNDTRIP
360
5D6
  0
DICTIONARY
  5
5D9
330
32
100
AcDbDictionary
280
     1
281
     1
  3
ACAD_XREC_ROUNDTRIP
360
5DA
  0
DICTIONARY
  5
5E1
330
36
100
AcDbDictionary
280
     1
281
     1
  3
ACAD_XREC_ROUNDTRIP
360
5E2
  0
DICTIONARY
  5
5E9
330
3A
100
AcDbDictionary
280
     1
281
     1
  3
ACAD_XREC_ROUNDTRIP
360
5EA
  0
DICTIONARY
  5
5DD
330
34
100
AcDbDictionary
280
     1
281
     1
  3
ACAD_XREC_ROUNDTRIP
360
5DE
  0
DICTIONARY
  5
5DF
330
35
100
AcDbDictionary
280
     1
281
     1
  3
ACAD_XREC_ROUNDTRIP
360
5E0
  0
DICTIONARY
  5
5E7
330
39
100
AcDbDictionary
280
     1
281
     1
  3
ACAD_XREC_ROUNDTRIP
360
5E8
  0
DICTIONARY
  5
5CB
330
2B
100
AcDbDictionary
280
     1
281
     1
  3
ACAD_XREC_ROUNDTRIP
360
5CC
  0
DICTIONARY
  5
5CD
330
2C
100
AcDbDictionary
280
     1
281
     1
  3
ACAD_XREC_ROUNDTRIP
360
5CE
  0
DICTIONARY
  5
5CF
330
2D
100
AcDbDictionary
280
     1
281
     1
  3
ACAD_XREC_ROUNDTRIP
360
5D0
  0
DICTIONARY
  5
5D1
330
2E
100
AcDbDictionary
280
     1
281
     1
  3
ACAD_XREC_ROUNDTRIP
360
5D2
  0
DICTIONARY
  5
5E5
330
38
100
AcDbDictionary
280
     1
281
     1
  3
ACAD_XREC_ROUNDTRIP
360
5E6
  0
DICTIONARY
  5
5DB
330
33
100
AcDbDictionary
280
     1
281
     1
  3
ACAD_XREC_ROUNDTRIP
360
5DC
  0
DICTIONARY
  5
5E3
330
37
100
AcDbDictionary
280
     1
281
     1
  3
ACAD_XREC_ROUNDTRIP
360
5E4
  0
XRECORD
  5
5EE
102
{ACAD_REACTORS
330
5ED
102
}
330
5ED
100
AcDbXrecord
280
     1
102
MATERIAL
148
0.0
149
0.0
149
0.0
 93
        0
 94
      127
282
     0
 72
     1
 77
     1
171
     1
175
     1
179
     1
273
     0
  0
XRECORD
  5
5EC
102
{ACAD_REACTORS
330
5EB
102
}
330
5EB
100
AcDbXrecord
280
     1
102
MATERIAL
148
0.0
149
0.0
149
0.0
 93
        0
 94
      127
282
     0
 72
     1
 77
     1
171
     1
175
     1
179
     1
273
     0
  0
XRECORD
  5
5F0
102
{ACAD_REACTORS
330
5EF
102
}
330
5EF
100
AcDbXrecord
280
     1
102
MATERIAL
148
0.0
149
0.0
149
0.0
 93
        0
 94
      127
282
     0
 72
     1
 77
     1
171
     1
175
     1
179
     1
273
     0
  0
XRECORD
  5
5D4
102
{ACAD_REACTORS
330
5D3
102
}
330
5D3
100
AcDbXrecord
280
     1
102
RTVSPropertyOp0
 70
     1
102
RTVSPropertyOp1
 70
     1
102
RTVSPropertyOp2
 70
     1
102
RTVSPropertyOp3
 70
     1
102
RTVSPropertyOp4
 70
     1
102
RTVSPropertyOp5
 70
     1
102
RTVSPropertyOp6
 70
     1
102
RTVSPropertyOp7
 70
     1
102
RTVSPropertyOp8
 70
     1
102
RTVSPropertyOp9
 70
     1
102
RTVSPropertyOp10
 70
     1
102
RTVSPropertyOp11
 70
     1
102
RTVSPropertyOp12
 70
     1
102
RTVSPropertyOp13
 70
     1
102
RTVSPropertyOp14
 70
     1
102
RTVSPropertyOp15
 70
     1
102
RTVSPropertyOp16
 70
     1
102
RTVSPropertyOp17
 70
     1
102
RTVSPropertyOp18
 70
     1
102
RTVSPropertyOp19
 70
     1
102
RTVSPropertyOp20
 70
     1
102
RTVSPropertyOp21
 70
     1
102
RTVSPropertyOp22
 70
     1
102
RTVSPropertyOp23
 70
     1
102
RTVSPropertyOp24
 70
     1
102
RTVSPropertyOp25
 70
     1
102
RTVSPropertyOp26
 70
     1
102
RTVSPropertyOp27
 70
     1
102
RTVSPropertyOp28
 70
     1
102
RTVSPropertyOp29
 70
     1
102
RTVSPropertyOp30
 70
     1
102
RTVSPropertyOp31
 70
     1
102
RTVSPropertyOp32
 70
     1
  0
XRECORD
  5
5D8
102
{ACAD_REACTORS
330
5D7
102
}
330
5D7
100
AcDbXrecord
280
     1
102
RTVSPropertyOp0
 70
     1
102
RTVSPropertyOp1
 70
     1
102
RTVSPropertyOp2
 70
     1
102
RTVSPropertyOp3
 70
     1
102
RTVSPropertyOp4
 70
     1
102
RTVSPropertyOp5
 70
     1
102
RTVSPropertyOp6
 70
     1
102
RTVSPropertyOp7
 70
     1
102
RTVSPropertyOp8
 70
     1
102
RTVSPropertyOp9
 70
     1
102
RTVSPropertyOp10
 70
     1
102
RTVSPropertyOp11
 70
     1
102
RTVSPropertyOp12
 70
     1
102
RTVSPropertyOp13
 70
     1
102
RTVSPropertyOp14
 70
     1
102
RTVSPropertyOp15
 70
     1
102
RTVSPropertyOp16
 70
     1
102
RTVSPropertyOp17
 70
     1
102
RTVSPropertyOp18
 70
     1
102
RTVSPropertyOp19
 70
     1
102
RTVSPropertyOp20
 70
     1
102
RTVSPropertyOp21
 70
     1
102
RTVSPropertyOp22
 70
     1
102
RTVSPropertyOp23
 70
     1
102
RTVSPropertyOp24
 70
     1
102
RTVSPropertyOp25
 70
     1
102
RTVSPropertyOp26
 70
     1
102
RTVSPropertyOp27
 70
     1
102
RTVSPropertyOp28
 70
     1
102
RTVSPropertyOp29
 70
     1
102
RTVSPropertyOp30
 70
     1
102
RTVSPropertyOp31
 70
     1
102
RTVSPropertyOp32
 70
     1
  0
XRECORD
  5
5D6
102
{ACAD_REACTORS
330
5D5
102
}
330
5D5
100
AcDbXrecord
280
     1
102
RTVSPropertyOp0
 70
     1
102
RTVSPropertyOp1
 70
     1
102
RTVSPropertyOp2
 70
     1
102
RTVSPropertyOp3
 70
     1
102
RTVSPropertyOp4
 70
     1
102
RTVSPropertyOp5
 70
     1
102
RTVSPropertyOp6
 70
     1
102
RTVSPropertyOp7
 70
     1
102
RTVSPropertyOp8
 70
     1
102
RTVSPropertyOp9
 70
     1
102
RTVSPropertyOp10
 70
     1
102
RTVSPropertyOp11
 70
     1
102
RTVSPropertyOp12
 70
     1
102
RTVSPropertyOp13
 70
     1
102
RTVSPropertyOp14
 70
     1
102
RTVSPropertyOp15
 70
     1
102
RTVSPropertyOp16
 70
     1
102
RTVSPropertyOp17
 70
     1
102
RTVSPropertyOp18
 70
     1
102
RTVSPropertyOp19
 70
     1
102
RTVSPropertyOp20
 70
     1
102
RTVSPropertyOp21
 70
     1
102
RTVSPropertyOp22
 70
     1
102
RTVSPropertyOp23
 70
     1
102
RTVSPropertyOp24
 70
     1
102
RTVSPropertyOp25
 70
     1
102
RTVSPropertyOp26
 70
     1
102
RTVSPropertyOp27
 70
     1
102
RTVSPropertyOp28
 70
     1
102
RTVSPropertyOp29
 70
     1
102
RTVSPropertyOp30
 70
     1
102
RTVSPropertyOp31
 70
     1
102
RTVSPropertyOp32
 70
     1
  0
XRECORD
  5
5DA
102
{ACAD_REACTORS
330
5D9
102
}
330
5D9
100
AcDbXrecord
280
     1
102
RTVSPropertyOp0
 70
     1
102
RTVSPropertyOp1
 70
     1
102
RTVSPropertyOp2
 70
     1
102
RTVSPropertyOp3
 70
     1
102
RTVSPropertyOp4
 70
     1
102
RTVSPropertyOp5
 70
     1
102
RTVSPropertyOp6
 70
     1
102
RTVSPropertyOp7
 70
     1
102
RTVSPropertyOp8
 70
     1
102
RTVSPropertyOp9
 70
     1
102
RTVSPropertyOp10
 70
     1
102
RTVSPropertyOp11
 70
     1
102
RTVSPropertyOp12
 70
     1
102
RTVSPropertyOp13
 70
     1
102
RTVSPropertyOp14
 70
     1
102
RTVSPropertyOp15
 70
     1
102
RTVSPropertyOp16
 70
     1
102
RTVSPropertyOp17
 70
     1
102
RTVSPropertyOp18
 70
     1
102
RTVSPropertyOp19
 70
     1
102
RTVSPropertyOp20
 70
     1
102
RTVSPropertyOp21
 70
     1
102
RTVSPropertyOp22
 70
     1
102
RTVSPropertyOp23
 70
     1
102
RTVSPropertyOp24
 70
     1
102
RTVSPropertyOp25
 70
     1
102
RTVSPropertyOp26
 70
     1
102
RTVSPropertyOp27
 70
     1
102
RTVSPropertyOp28
 70
     1
102
RTVSPropertyOp29
 70
     1
102
RTVSPropertyOp30
 70
     1
102
RTVSPropertyOp31
 70
     1
102
RTVSPropertyOp32
 70
     1
  0
XRECORD
  5
5E2
102
{ACAD_REACTORS
330
5E1
102
}
330
5E1
100
AcDbXrecord
280
     1
102
RTVSPropertyOp0
 70
     1
102
RTVSPropertyOp1
 70
     1
102
RTVSPropertyOp2
 70
     1
102
RTVSPropertyOp3
 70
     1
102
RTVSPropertyOp4
 70
     1
102
RTVSPropertyOp5
 70
     1
102
RTVSPropertyOp6
 70
     1
102
RTVSPropertyOp7
 70
     1
102
RTVSPropertyOp8
 70
     1
102
RTVSPropertyOp9
 70
     1
102
RTVSPropertyOp10
 70
     1
102
RTVSPropertyOp11
 70
     1
102
RTVSPropertyOp12
 70
     1
102
RTVSPropertyOp13
 70
     1
102
RTVSPropertyOp14
 70
     1
102
RTVSPropertyOp15
 70
     1
102
RTVSPropertyOp16
 70
     1
102
RTVSPropertyOp17
 70
     1
102
RTVSPropertyOp18
 70
     1
102
RTVSPropertyOp19
 70
     1
102
RTVSPropertyOp20
 70
     1
102
RTVSPropertyOp21
 70
     1
102
RTVSPropertyOp22
 70
     1
102
RTVSPropertyOp23
 70
     1
102
RTVSPropertyOp24
 70
     1
102
RTVSPropertyOp25
 70
     1
102
RTVSPropertyOp26
 70
     1
102
RTVSPropertyOp27
 70
     1
102
RTVSPropertyOp28
 70
     1
102
RTVSPropertyOp29
 70
     1
102
RTVSPropertyOp30
 70
     1
102
RTVSPropertyOp31
 70
     1
102
RTVSPropertyOp32
 70
     1
  0
XRECORD
  5
5EA
102
{ACAD_REACTORS
330
5E9
102
}
330
5E9
100
AcDbXrecord
280
     1
102
RTVSPropertyOp0
 70
     1
102
RTVSPropertyOp1
 70
     1
102
RTVSPropertyOp2
 70
     1
102
RTVSPropertyOp3
 70
     1
102
RTVSPropertyOp4
 70
     1
102
RTVSPropertyOp5
 70
     1
102
RTVSPropertyOp6
 70
     1
102
RTVSPropertyOp7
 70
     1
102
RTVSPropertyOp8
 70
     1
102
RTVSPropertyOp9
 70
     1
102
RTVSPropertyOp10
 70
     1
102
RTVSPropertyOp11
 70
     1
102
RTVSPropertyOp12
 70
     1
102
RTVSPropertyOp13
 70
     1
102
RTVSPropertyOp14
 70
     1
102
RTVSPropertyOp15
 70
     1
102
RTVSPropertyOp16
 70
     1
102
RTVSPropertyOp17
 70
     1
102
RTVSPropertyOp18
 70
     1
102
RTVSPropertyOp19
 70
     1
102
RTVSPropertyOp20
 70
     1
102
RTVSPropertyOp21
 70
     1
102
RTVSPropertyOp22
 70
     1
102
RTVSPropertyOp23
 70
     1
102
RTVSPropertyOp24
 70
     1
102
RTVSPropertyOp25
 70
     1
102
RTVSPropertyOp26
 70
     1
102
RTVSPropertyOp27
 70
     1
102
RTVSPropertyOp28
 70
     1
102
RTVSPropertyOp29
 70
     1
102
RTVSPropertyOp30
 70
     1
102
RTVSPropertyOp31
 70
     1
102
RTVSPropertyOp32
 70
     1
  0
XRECORD
  5
5DE
102
{ACAD_REACTORS
330
5DD
102
}
330
5DD
100
AcDbXrecord
280
     1
102
RTVSPropertyOp0
 70
     1
102
RTVSPropertyOp1
 70
     1
102
RTVSPropertyOp2
 70
     1
102
RTVSPropertyOp3
 70
     1
102
RTVSPropertyOp4
 70
     1
102
RTVSPropertyOp5
 70
     1
102
RTVSPropertyOp6
 70
     1
102
RTVSPropertyOp7
 70
     1
102
RTVSPropertyOp8
 70
     1
102
RTVSPropertyOp9
 70
     1
102
RTVSPropertyOp10
 70
     1
102
RTVSPropertyOp11
 70
     1
102
RTVSPropertyOp12
 70
     1
102
RTVSPropertyOp13
 70
     1
102
RTVSPropertyOp14
 70
     1
102
RTVSPropertyOp15
 70
     1
102
RTVSPropertyOp16
 70
     1
102
RTVSPropertyOp17
 70
     1
102
RTVSPropertyOp18
 70
     1
102
RTVSPropertyOp19
 70
     1
102
RTVSPropertyOp20
 70
     1
102
RTVSPropertyOp21
 70
     1
102
RTVSPropertyOp22
 70
     1
102
RTVSPropertyOp23
 70
     1
102
RTVSPropertyOp24
 70
     1
102
RTVSPropertyOp25
 70
     1
102
RTVSPropertyOp26
 70
     1
102
RTVSPropertyOp27
 70
     1
102
RTVSPropertyOp28
 70
     1
102
RTVSPropertyOp29
 70
     1
102
RTVSPropertyOp30
 70
     1
102
RTVSPropertyOp31
 70
     1
102
RTVSPropertyOp32
 70
     1
  0
XRECORD
  5
5E0
102
{ACAD_REACTORS
330
5DF
102
}
330
5DF
100
AcDbXrecord
280
     1
102
RTVSPropertyOp0
 70
     1
102
RTVSPropertyOp1
 70
     1
102
RTVSPropertyOp2
 70
     1
102
RTVSPropertyOp3
 70
     1
102
RTVSPropertyOp4
 70
     1
102
RTVSPropertyOp5
 70
     1
102
RTVSPropertyOp6
 70
     1
102
RTVSPropertyOp7
 70
     1
102
RTVSPropertyOp8
 70
     1
102
RTVSPropertyOp9
 70
     1
102
RTVSPropertyOp10
 70
     1
102
RTVSPropertyOp11
 70
     1
102
RTVSPropertyOp12
 70
     1
102
RTVSPropertyOp13
 70
     1
102
RTVSPropertyOp14
 70
     1
102
RTVSPropertyOp15
 70
     1
102
RTVSPropertyOp16
 70
     1
102
RTVSPropertyOp17
 70
     1
102
RTVSPropertyOp18
 70
     1
102
RTVSPropertyOp19
 70
     1
102
RTVSPropertyOp20
 70
     1
102
RTVSPropertyOp21
 70
     1
102
RTVSPropertyOp22
 70
     1
102
RTVSPropertyOp23
 70
     1
102
RTVSPropertyOp24
 70
     1
102
RTVSPropertyOp25
 70
     1
102
RTVSPropertyOp26
 70
     1
102
RTVSPropertyOp27
 70
     1
102
RTVSPropertyOp28
 70
     1
102
RTVSPropertyOp29
 70
     1
102
RTVSPropertyOp30
 70
     1
102
RTVSPropertyOp31
 70
     1
102
RTVSPropertyOp32
 70
     1
  0
XRECORD
  5
5E8
102
{ACAD_REACTORS
330
5E7
102
}
330
5E7
100
AcDbXrecord
280
     1
102
RTVSPropertyOp0
 70
     1
102
RTVSPropertyOp1
 70
     1
102
RTVSPropertyOp2
 70
     1
102
RTVSPropertyOp3
 70
     1
102
RTVSPropertyOp4
 70
     1
102
RTVSPropertyOp5
 70
     1
102
RTVSPropertyOp6
 70
     1
102
RTVSPropertyOp7
 70
     1
102
RTVSPropertyOp8
 70
     1
102
RTVSPropertyOp9
 70
     1
102
RTVSPropertyOp10
 70
     1
102
RTVSPropertyOp11
 70
     1
102
RTVSPropertyOp12
 70
     1
102
RTVSPropertyOp13
 70
     1
102
RTVSPropertyOp14
 70
     1
102
RTVSPropertyOp15
 70
     1
102
RTVSPropertyOp16
 70
     1
102
RTVSPropertyOp17
 70
     1
102
RTVSPropertyOp18
 70
     1
102
RTVSPropertyOp19
 70
     1
102
RTVSPropertyOp20
 70
     1
102
RTVSPropertyOp21
 70
     1
102
RTVSPropertyOp22
 70
     1
102
RTVSPropertyOp23
 70
     1
102
RTVSPropertyOp24
 70
     1
102
RTVSPropertyOp25
 70
     1
102
RTVSPropertyOp26
 70
     1
102
RTVSPropertyOp27
 70
     1
102
RTVSPropertyOp28
 70
     1
102
RTVSPropertyOp29
 70
     1
102
RTVSPropertyOp30
 70
     1
102
RTVSPropertyOp31
 70
     1
102
RTVSPropertyOp32
 70
     1
  0
XRECORD
  5
5CC
102
{ACAD_REACTORS
330
5CB
102
}
330
5CB
100
AcDbXrecord
280
     1
102
RTVSPropertyOp0
 70
     1
102
RTVSPropertyOp1
 70
     1
102
RTVSPropertyOp2
 70
     1
102
RTVSPropertyOp3
 70
     1
102
RTVSPropertyOp4
 70
     1
102
RTVSPropertyOp5
 70
     1
102
RTVSPropertyOp6
 70
     1
102
RTVSPropertyOp7
 70
     1
102
RTVSPropertyOp8
 70
     1
102
RTVSPropertyOp9
 70
     1
102
RTVSPropertyOp10
 70
     1
102
RTVSPropertyOp11
 70
     1
102
RTVSPropertyOp12
 70
     1
102
RTVSPropertyOp13
 70
     1
102
RTVSPropertyOp14
 70
     1
102
RTVSPropertyOp15
 70
     1
102
RTVSPropertyOp16
 70
     1
102
RTVSPropertyOp17
 70
     1
102
RTVSPropertyOp18
 70
     1
102
RTVSPropertyOp19
 70
     1
102
RTVSPropertyOp20
 70
     1
102
RTVSPropertyOp21
 70
     1
102
RTVSPropertyOp22
 70
     1
102
RTVSPropertyOp23
 70
     1
102
RTVSPropertyOp24
 70
     1
102
RTVSPropertyOp25
 70
     1
102
RTVSPropertyOp26
 70
     1
102
RTVSPropertyOp27
 70
     1
102
RTVSPropertyOp28
 70
     1
102
RTVSPropertyOp29
 70
     1
102
RTVSPropertyOp30
 70
     1
102
RTVSPropertyOp31
 70
     1
102
RTVSPropertyOp32
 70
     1
  0
XRECORD
  5
5CE
102
{ACAD_REACTORS
330
5CD
102
}
330
5CD
100
AcDbXrecord
280
     1
102
RTVSPropertyOp0
 70
     1
102
RTVSPropertyOp1
 70
     1
102
RTVSPropertyOp2
 70
     1
102
RTVSPropertyOp3
 70
     1
102
RTVSPropertyOp4
 70
     1
102
RTVSPropertyOp5
 70
     1
102
RTVSPropertyOp6
 70
     1
102
RTVSPropertyOp7
 70
     1
102
RTVSPropertyOp8
 70
     1
102
RTVSPropertyOp9
 70
     1
102
RTVSPropertyOp10
 70
     1
102
RTVSPropertyOp11
 70
     1
102
RTVSPropertyOp12
 70
     1
102
RTVSPropertyOp13
 70
     1
102
RTVSPropertyOp14
 70
     1
102
RTVSPropertyOp15
 70
     1
102
RTVSPropertyOp16
 70
     1
102
RTVSPropertyOp17
 70
     1
102
RTVSPropertyOp18
 70
     1
102
RTVSPropertyOp19
 70
     1
102
RTVSPropertyOp20
 70
     1
102
RTVSPropertyOp21
 70
     1
102
RTVSPropertyOp22
 70
     1
102
RTVSPropertyOp23
 70
     1
102
RTVSPropertyOp24
 70
     1
102
RTVSPropertyOp25
 70
     1
102
RTVSPropertyOp26
 70
     1
102
RTVSPropertyOp27
 70
     1
102
RTVSPropertyOp28
 70
     1
102
RTVSPropertyOp29
 70
     1
102
RTVSPropertyOp30
 70
     1
102
RTVSPropertyOp31
 70
     1
102
RTVSPropertyOp32
 70
     1
  0
XRECORD
  5
5D0
102
{ACAD_REACTORS
330
5CF
102
}
330
5CF
100
AcDbXrecord
280
     1
102
RTVSPropertyOp0
 70
     1
102
RTVSPropertyOp1
 70
     1
102
RTVSPropertyOp2
 70
     1
102
RTVSPropertyOp3
 70
     1
102
RTVSPropertyOp4
 70
     1
102
RTVSPropertyOp5
 70
     1
102
RTVSPropertyOp6
 70
     1
102
RTVSPropertyOp7
 70
     1
102
RTVSPropertyOp8
 70
     1
102
RTVSPropertyOp9
 70
     1
102
RTVSPropertyOp10
 70
     1
102
RTVSPropertyOp11
 70
     1
102
RTVSPropertyOp12
 70
     1
102
RTVSPropertyOp13
 70
     1
102
RTVSPropertyOp14
 70
     1
102
RTVSPropertyOp15
 70
     1
102
RTVSPropertyOp16
 70
     1
102
RTVSPropertyOp17
 70
     1
102
RTVSPropertyOp18
 70
     1
102
RTVSPropertyOp19
 70
     1
102
RTVSPropertyOp20
 70
     1
102
RTVSPropertyOp21
 70
     1
102
RTVSPropertyOp22
 70
     1
102
RTVSPropertyOp23
 70
     1
102
RTVSPropertyOp24
 70
     1
102
RTVSPropertyOp25
 70
     1
102
RTVSPropertyOp26
 70
     1
102
RTVSPropertyOp27
 70
     1
102
RTVSPropertyOp28
 70
     1
102
RTVSPropertyOp29
 70
     1
102
RTVSPropertyOp30
 70
     1
102
RTVSPropertyOp31
 70
     1
102
RTVSPropertyOp32
 70
     1
  0
XRECORD
  5
5D2
102
{ACAD_REACTORS
330
5D1
102
}
330
5D1
100
AcDbXrecord
280
     1
102
RTVSPropertyOp0
 70
     1
102
RTVSPropertyOp1
 70
     1
102
RTVSPropertyOp2
 70
     1
102
RTVSPropertyOp3
 70
     1
102
RTVSPropertyOp4
 70
     1
102
RTVSPropertyOp5
 70
     1
102
RTVSPropertyOp6
 70
     1
102
RTVSPropertyOp7
 70
     1
102
RTVSPropertyOp8
 70
     1
102
RTVSPropertyOp9
 70
     1
102
RTVSPropertyOp10
 70
     1
102
RTVSPropertyOp11
 70
     1
102
RTVSPropertyOp12
 70
     1
102
RTVSPropertyOp13
 70
     1
102
RTVSPropertyOp14
 70
     1
102
RTVSPropertyOp15
 70
     1
102
RTVSPropertyOp16
 70
     1
102
RTVSPropertyOp17
 70
     1
102
RTVSPropertyOp18
 70
     1
102
RTVSPropertyOp19
 70
     1
102
RTVSPropertyOp20
 70
     1
102
RTVSPropertyOp21
 70
     1
102
RTVSPropertyOp22
 70
     1
102
RTVSPropertyOp23
 70
     1
102
RTVSPropertyOp24
 70
     1
102
RTVSPropertyOp25
 70
     1
102
RTVSPropertyOp26
 70
     1
102
RTVSPropertyOp27
 70
     1
102
RTVSPropertyOp28
 70
     1
102
RTVSPropertyOp29
 70
     1
102
RTVSPropertyOp30
 70
     1
102
RTVSPropertyOp31
 70
     1
102
RTVSPropertyOp32
 70
     1
  0
XRECORD
  5
5E6
102
{ACAD_REACTORS
330
5E5
102
}
330
5E5
100
AcDbXrecord
280
     1
102
RTVSPropertyOp0
 70
     1
102
RTVSPropertyOp1
 70
     1
102
RTVSPropertyOp2
 70
     1
102
RTVSPropertyOp3
 70
     1
102
RTVSPropertyOp4
 70
     1
102
RTVSPropertyOp5
 70
     1
102
RTVSPropertyOp6
 70
     1
102
RTVSPropertyOp7
 70
     1
102
RTVSPropertyOp8
 70
     1
102
RTVSPropertyOp9
 70
     1
102
RTVSPropertyOp10
 70
     1
102
RTVSPropertyOp11
 70
     1
102
RTVSPropertyOp12
 70
     1
102
RTVSPropertyOp13
 70
     1
102
RTVSPropertyOp14
 70
     1
102
RTVSPropertyOp15
 70
     1
102
RTVSPropertyOp16
 70
     1
102
RTVSPropertyOp17
 70
     1
102
RTVSPropertyOp18
 70
     1
102
RTVSPropertyOp19
 70
     1
102
RTVSPropertyOp20
 70
     1
102
RTVSPropertyOp21
 70
     1
102
RTVSPropertyOp22
 70
     1
102
RTVSPropertyOp23
 70
     1
102
RTVSPropertyOp24
 70
     1
102
RTVSPropertyOp25
 70
     1
102
RTVSPropertyOp26
 70
     1
102
RTVSPropertyOp27
 70
     1
102
RTVSPropertyOp28
 70
     1
102
RTVSPropertyOp29
 70
     1
102
RTVSPropertyOp30
 70
     1
102
RTVSPropertyOp31
 70
     1
102
RTVSPropertyOp32
 70
     1
  0
XRECORD
  5
5DC
102
{ACAD_REACTORS
330
5DB
102
}
330
5DB
100
AcDbXrecord
280
     1
102
RTVSPropertyOp0
 70
     1
102
RTVSPropertyOp1
 70
     1
102
RTVSPropertyOp2
 70
     1
102
RTVSPropertyOp3
 70
     1
102
RTVSPropertyOp4
 70
     1
102
RTVSPropertyOp5
 70
     1
102
RTVSPropertyOp6
 70
     1
102
RTVSPropertyOp7
 70
     1
102
RTVSPropertyOp8
 70
     1
102
RTVSPropertyOp9
 70
     1
102
RTVSPropertyOp10
 70
     1
102
RTVSPropertyOp11
 70
     1
102
RTVSPropertyOp12
 70
     1
102
RTVSPropertyOp13
 70
     1
102
RTVSPropertyOp14
 70
     1
102
RTVSPropertyOp15
 70
     1
102
RTVSPropertyOp16
 70
     1
102
RTVSPropertyOp17
 70
     1
102
RTVSPropertyOp18
 70
     1
102
RTVSPropertyOp19
 70
     1
102
RTVSPropertyOp20
 70
     1
102
RTVSPropertyOp21
 70
     1
102
RTVSPropertyOp22
 70
     1
102
RTVSPropertyOp23
 70
     1
102
RTVSPropertyOp24
 70
     1
102
RTVSPropertyOp25
 70
     1
102
RTVSPropertyOp26
 70
     1
102
RTVSPropertyOp27
 70
     1
102
RTVSPropertyOp28
 70
     1
102
RTVSPropertyOp29
 70
     1
102
RTVSPropertyOp30
 70
     1
102
RTVSPropertyOp31
 70
     1
102
RTVSPropertyOp32
 70
     1
  0
XRECORD
  5
5E4
102
{ACAD_REACTORS
330
5E3
102
}
330
5E3
100
AcDbXrecord
280
     1
102
RTVSPropertyOp0
 70
     1
102
RTVSPropertyOp1
 70
     1
102
RTVSPropertyOp2
 70
     1
102
RTVSPropertyOp3
 70
     1
102
RTVSPropertyOp4
 70
     1
102
RTVSPropertyOp5
 70
     1
102
RTVSPropertyOp6
 70
     1
102
RTVSPropertyOp7
 70
     1
102
RTVSPropertyOp8
 70
     1
102
RTVSPropertyOp9
 70
     1
102
RTVSPropertyOp10
 70
     1
102
RTVSPropertyOp11
 70
     1
102
RTVSPropertyOp12
 70
     1
102
RTVSPropertyOp13
 70
     1
102
RTVSPropertyOp14
 70
     1
102
RTVSPropertyOp15
 70
     1
102
RTVSPropertyOp16
 70
     1
102
RTVSPropertyOp17
 70
     1
102
RTVSPropertyOp18
 70
     1
102
RTVSPropertyOp19
 70
     1
102
RTVSPropertyOp20
 70
     1
102
RTVSPropertyOp21
 70
     1
102
RTVSPropertyOp22
 70
     1
102
RTVSPropertyOp23
 70
     1
102
RTVSPropertyOp24
 70
     1
102
RTVSPropertyOp25
 70
     1
102
RTVSPropertyOp26
 70
     1
102
RTVSPropertyOp27
 70
     1
102
RTVSPropertyOp28
 70
     1
102
RTVSPropertyOp29
 70
     1
102
RTVSPropertyOp30
 70
     1
102
RTVSPropertyOp31
 70
     1
102
RTVSPropertyOp32
 70
     1
  0
ENDSEC
  0
EOF
