  0
SECTION
  2
HEADER
  9
$ACADVER
  1
AC1015
  9
$ACADMAINTVER
 70
     6
  9
$DWGCODEPAGE
  3
ANSI_949
  9
$INSBASE
 10
0.0
 20
0.0
 30
0.0
  9
$EXTMIN
 10
1.000000000000000E+20
 20
1.000000000000000E+20
 30
1.000000000000000E+20
  9
$EXTMAX
 10
-1.000000000000000E+20
 20
-1.000000000000000E+20
 30
-1.000000000000000E+20
  9
$LIMMIN
 10
0.0
 20
0.0
  9
$LIMMAX
 10
12.0
 20
9.0
  9
$ORTHOMODE
 70
     0
  9
$REGENMODE
 70
     1
  9
$FILLMODE
 70
     1
  9
$QTEXTMODE
 70
     0
  9
$MIRRTEXT
 70
     1
  9
$LTSCALE
 40
1.0
  9
$ATTMODE
 70
     1
  9
$TEXTSIZE
 40
0.2
  9
$TRACEWID
 40
0.05
  9
$TEXTSTYLE
  7
Standard
  9
$CLAYER
  8
0
  9
$CELTYPE
  6
ByLayer
  9
$CECOLOR
 62
   256
  9
$CELTSCALE
 40
1.0
  9
$DISPSILH
 70
     0
  9
$DIMSCALE
 40
1.0
  9
$DIMASZ
 40
0.18
  9
$DIMEXO
 40
0.0625
  9
$DIMDLI
 40
0.38
  9
$DIMRND
 40
0.0
  9
$DIMDLE
 40
0.0
  9
$DIMEXE
 40
0.18
  9
$DIMTP
 40
0.0
  9
$DIMTM
 40
0.0
  9
$DIMTXT
 40
0.18
  9
$DIMCEN
 40
0.09
  9
$DIMTSZ
 40
0.0
  9
$DIMTOL
 70
     0
  9
$DIMLIM
 70
     0
  9
$DIMTIH
 70
     1
  9
$DIMTOH
 70
     1
  9
$DIMSE1
 70
     0
  9
$DIMSE2
 70
     0
  9
$DIMTAD
 70
     0
  9
$DIMZIN
 70
     0
  9
$DIMBLK
  1

  9
$DIMASO
 70
     1
  9
$DIMSHO
 70
     1
  9
$DIMPOST
  1

  9
$DIMAPOST
  1

  9
$DIMALT
 70
     0
  9
$DIMALTD
 70
     2
  9
$DIMALTF
 40
25.4
  9
$DIMLFAC
 40
1.0
  9
$DIMTOFL
 70
     0
  9
$DIMTVP
 40
0.0
  9
$DIMTIX
 70
     0
  9
$DIMSOXD
 70
     0
  9
$DIMSAH
 70
     0
  9
$DIMBLK1
  1

  9
$DIMBLK2
  1

  9
$DIMSTYLE
  2
Standard
  9
$DIMCLRD
 70
     0
  9
$DIMCLRE
 70
     0
  9
$DIMCLRT
 70
     0
  9
$DIMTFAC
 40
1.0
  9
$DIMGAP
 40
0.09
  9
$DIMJUST
 70
     0
  9
$DIMSD1
 70
     0
  9
$DIMSD2
 70
     0
  9
$DIMTOLJ
 70
     1
  9
$DIMTZIN
 70
     0
  9
$DIMALTZ
 70
     0
  9
$DIMALTTZ
 70
     0
  9
$DIMUPT
 70
     0
  9
$DIMDEC
 70
     4
  9
$DIMTDEC
 70
     4
  9
$DIMALTU
 70
     2
  9
$DIMALTTD
 70
     2
  9
$DIMTXSTY
  7
Standard
  9
$DIMAUNIT
 70
     0
  9
$DIMADEC
 70
     0
  9
$DIMALTRND
 40
0.0
  9
$DIMAZIN
 70
     0
  9
$DIMDSEP
 70
    46
  9
$DIMATFIT
 70
     3
  9
$DIMFRAC
 70
     0
  9
$DIMLDRBLK
  1

  9
$DIMLUNIT
 70
     2
  9
$DIMLWD
 70
    -2
  9
$DIMLWE
 70
    -2
  9
$DIMTMOVE
 70
     0
  9
$LUNITS
 70
     2
  9
$LUPREC
 70
     4
  9
$SKETCHINC
 40
0.1
  9
$FILLETRAD
 40
0.5
  9
$AUNITS
 70
     0
  9
$AUPREC
 70
     0
  9
$MENU
  1
.
  9
$ELEVATION
 40
0.0
  9
$PELEVATION
 40
0.0
  9
$THICKNESS
 40
0.0
  9
$LIMCHECK
 70
     0
  9
$CHAMFERA
 40
0.5
  9
$CHAMFERB
 40
0.5
  9
$CHAMFERC
 40
1.0
  9
$CHAMFERD
 40
0.0
  9
$SKPOLY
 70
     0
  9
$TDCREATE
 40
2456522.581146817
  9
$TDUCREATE
 40
2456522.081146817
  9
$TDUPDATE
 40
2456522.581176354
  9
$TDUUPDATE
 40
2456522.081176354
  9
$TDINDWG
 40
0.0000000116
  9
$TDUSRTIMER
 40
0.0000000116
  9
$USRTIMER
 70
     1
  9
$ANGBASE
 50
0.0
  9
$ANGDIR
 70
     0
  9
$PDMODE
 70
     0
  9
$PDSIZE
 40
0.0
  9
$PLINEWID
 40
0.0
  9
$SPLFRAME
 70
     0
  9
$SPLINETYPE
 70
     6
  9
$SPLINESEGS
 70
     8
  9
$HANDSEED
  5
67C
  9
$SURFTAB1
 70
     6
  9
$SURFTAB2
 70
     6
  9
$SURFTYPE
 70
     6
  9
$SURFU
 70
     6
  9
$SURFV
 70
     6
  9
$UCSBASE
  2

  9
$UCSNAME
  2

  9
$UCSORG
 10
0.0
 20
0.0
 30
0.0
  9
$UCSXDIR
 10
1.0
 20
0.0
 30
0.0
  9
$UCSYDIR
 10
0.0
 20
1.0
 30
0.0
  9
$UCSORTHOREF
  2

  9
$UCSORTHOVIEW
 70
     0
  9
$UCSORGTOP
 10
0.0
 20
0.0
 30
0.0
  9
$UCSORGBOTTOM
 10
0.0
 20
0.0
 30
0.0
  9
$UCSORGLEFT
 10
0.0
 20
0.0
 30
0.0
  9
$UCSORGRIGHT
 10
0.0
 20
0.0
 30
0.0
  9
$UCSORGFRONT
 10
0.0
 20
0.0
 30
0.0
  9
$UCSORGBACK
 10
0.0
 20
0.0
 30
0.0
  9
$PUCSBASE
  2

  9
$PUCSNAME
  2

  9
$PUCSORG
 10
0.0
 20
0.0
 30
0.0
  9
$PUCSXDIR
 10
1.0
 20
0.0
 30
0.0
  9
$PUCSYDIR
 10
0.0
 20
1.0
 30
0.0
  9
$PUCSORTHOREF
  2

  9
$PUCSORTHOVIEW
 70
     0
  9
$PUCSORGTOP
 10
0.0
 20
0.0
 30
0.0
  9
$PUCSORGBOTTOM
 10
0.0
 20
0.0
 30
0.0
  9
$PUCSORGLEFT
 10
0.0
 20
0.0
 30
0.0
  9
$PUCSORGRIGHT
 10
0.0
 20
0.0
 30
0.0
  9
$PUCSORGFRONT
 10
0.0
 20
0.0
 30
0.0
  9
$PUCSORGBACK
 10
0.0
 20
0.0
 30
0.0
  9
$USERI1
 70
     0
  9
$USERI2
 70
     0
  9
$USERI3
 70
     0
  9
$USERI4
 70
     0
  9
$USERI5
 70
     0
  9
$USERR1
 40
0.0
  9
$USERR2
 40
0.0
  9
$USERR3
 40
0.0
  9
$USERR4
 40
0.0
  9
$USERR5
 40
0.0
  9
$WORLDVIEW
 70
     1
  9
$SHADEDGE
 70
     3
  9
$SHADEDIF
 70
    70
  9
$TILEMODE
 70
     1
  9
$MAXACTVP
 70
    64
  9
$PINSBASE
 10
0.0
 20
0.0
 30
0.0
  9
$PLIMCHECK
 70
     0
  9
$PEXTMIN
 10
1.000000000000000E+20
 20
1.000000000000000E+20
 30
1.000000000000000E+20
  9
$PEXTMAX
 10
-1.000000000000000E+20
 20
-1.000000000000000E+20
 30
-1.000000000000000E+20
  9
$PLIMMIN
 10
0.0
 20
0.0
  9
$PLIMMAX
 10
12.0
 20
9.0
  9
$UNITMODE
 70
     0
  9
$VISRETAIN
 70
     1
  9
$PLINEGEN
 70
     0
  9
$PSLTSCALE
 70
     1
  9
$TREEDEPTH
 70
  3020
  9
$CMLSTYLE
  2
Standard
  9
$CMLJUST
 70
     0
  9
$CMLSCALE
 40
1.0
  9
$PROXYGRAPHICS
 70
     1
  9
$MEASUREMENT
 70
     0
  9
$CELWEIGHT
370
    -1
  9
$ENDCAPS
280
     0
  9
$JOINSTYLE
280
     0
  9
$LWDISPLAY
290
     1
  9
$INSUNITS
 70
     4
  9
$HYPERLINKBASE
  1

  9
$STYLESHEET
  1

  9
$XEDIT
290
     1
  9
$CEPSNTYPE
380
     0
  9
$PSTYLEMODE
290
     1
  9
$FINGERPRINTGUID
  2
{5A7DCD49-1EF4-4F37-B2EA-8A5205D4C4BE}
  9
$VERSIONGUID
  2
{FAEB1C32-E019-11D5-929B-00C0DF256EC4}
  9
$EXTNAMES
290
     1
  9
$PSVPSCALE
 40
0.0
  9
$OLESTARTUP
290
     0
  0
ENDSEC
  0
SECTION
  2
CLASSES
  0
CLASS
  1
ACDBDICTIONARYWDFLT
  2
AcDbDictionaryWithDefault
  3
ObjectDBX Classes
 90
        0
280
     0
281
     0
  0
CLASS
  1
VISUALSTYLE
  2
AcDbVisualStyle
  3
ObjectDBX Classes
 90
     4095
280
     0
281
     0
  0
CLASS
  1
MATERIAL
  2
AcDbMaterial
  3
ObjectDBX Classes
 90
     1153
280
     0
281
     0
  0
CLASS
  1
SPATIAL_FILTER
  2
AcDbSpatialFilter
  3
ObjectDBX Classes
 90
        0
280
     0
281
     0
  0
CLASS
  1
SCALE
  2
AcDbScale
  3
ObjectDBX Classes
 90
     1153
280
     0
281
     0
  0
CLASS
  1
DICTIONARYVAR
  2
AcDbDictionaryVar
  3
ObjectDBX Classes
 90
        0
280
     0
281
     0
  0
CLASS
  1
ACDBPLACEHOLDER
  2
AcDbPlaceHolder
  3
ObjectDBX Classes
 90
        0
280
     0
281
     0
  0
CLASS
  1
LAYOUT
  2
AcDbLayout
  3
ObjectDBX Classes
 90
        0
280
     0
281
     0
  0
ENDSEC
  0
SECTION
  2
TABLES
  0
TABLE
  2
VPORT
  5
8
330
0
100
AcDbSymbolTable
 70
     1
  0
VPORT
  5
29
330
8
100
AcDbSymbolTableRecord
100
AcDbViewportTableRecord
  2
*Active
 70
     0
 10
0.0
 20
0.0
 11
1.0
 21
1.0
 12
148.6203422501967
 22
87.24478158919874
 13
0.0
 23
0.0
 14
0.5
 24
0.5
 15
0.5
 25
0.5
 16
0.0
 26
0.0
 36
1.0
 17
0.0
 27
0.0
 37
0.0
 40
173.8444423285769
 41
1.661862141334405
 42
50.0
 43
0.0
 44
0.0
 50
0.0
 51
0.0
 71
     0
 72
   100
 73
     1
 74
     3
 75
     0
 76
     0
 77
     0
 78
     0
281
     0
 65
     1
110
0.0
120
0.0
130
0.0
111
1.0
121
0.0
131
0.0
112
0.0
122
1.0
132
0.0
 79
     0
146
0.0
  0
ENDTAB
  0
TABLE
  2
LTYPE
  5
5
330
0
100
AcDbSymbolTable
 70
     2
  0
LTYPE
  5
14
330
5
100
AcDbSymbolTableRecord
100
AcDbLinetypeTableRecord
  2
ByBlock
 70
     0
  3

 72
    65
 73
     0
 40
0.0
  0
LTYPE
  5
15
330
5
100
AcDbSymbolTableRecord
100
AcDbLinetypeTableRecord
  2
ByLayer
 70
     0
  3

 72
    65
 73
     0
 40
0.0
  0
LTYPE
  5
16
330
5
100
AcDbSymbolTableRecord
100
AcDbLinetypeTableRecord
  2
Continuous
 70
     0
  3
Solid line
 72
    65
 73
     0
 40
0.0
  0
LTYPE
  5
100
330
5
100
AcDbSymbolTableRecord
100
AcDbLinetypeTableRecord
  2
Dashed
 70
     0
  3
- - - - - 
 72
    65
 73
     2
 40
5.644444465637207
 49
2.822222232818604
 74
     0
 49
-2.822222232818603
 74
     0
  0
ENDTAB
  0
TABLE
  2
LAYER
  5
2
330
0
100
AcDbSymbolTable
 70
     3
  0
LAYER
  5
10
330
2
100
AcDbSymbolTableRecord
100
AcDbLayerTableRecord
  2
0
 70
     0
 62
     7
  6
Continuous
370
    -3
390
F
  0
LAYER
  5
40
330
2
100
AcDbSymbolTableRecord
100
AcDbLayerTableRecord
  2
Doc_ Finishes
 70
     0
 62
     7
  6
Continuous
370
    -3
390
F
  0
LAYER
  5
DB
330
2
100
AcDbSymbolTableRecord
100
AcDbLayerTableRecord
  2
Doc_ Floor
 70
     0
 62
     7
  6
Continuous
370
    -3
390
F
  0
ENDTAB
  0
TABLE
  2
STYLE
  5
3
330
0
100
AcDbSymbolTable
 70
     4
  0
STYLE
  5
11
330
3
100
AcDbSymbolTableRecord
100
AcDbTextStyleTableRecord
  2
Standard
 70
     0
 40
0.0
 41
1.0
 50
0.0
 71
     0
 42
0.2
  3
txt
  4

  0
STYLE
  5
D6
330
3
100
AcDbSymbolTableRecord
100
AcDbTextStyleTableRecord
  2
GENERATED_STYLE_1
 70
     0
 40
0.0
 41
1.0
 50
0.0
 71
     0
 42
0.2
  3

  4

1001
ACAD
1000
Century Gothic
1071
       34
  0
STYLE
  5
D9
330
3
100
AcDbSymbolTableRecord
100
AcDbTextStyleTableRecord
  2
GENERATED_STYLE_2
 70
     0
 40
0.0
 41
1.0
 50
0.0
 71
     0
 42
0.2
  3

  4

1001
ACAD
1000
DilleniaUPC
1071
 33554450
  0
STYLE
  5
612
330
3
100
AcDbSymbolTableRecord
100
AcDbTextStyleTableRecord
  2
GENERATED_STYLE_3
 70
     0
 40
0.0
 41
1.0
 50
0.0
 71
     0
 42
0.2
  3

  4

1001
ACAD
1000
Arial
1071
       34
  0
ENDTAB
  0
TABLE
  2
VIEW
  5
6
330
0
100
AcDbSymbolTable
 70
     0
  0
ENDTAB
  0
TABLE
  2
UCS
  5
7
330
0
100
AcDbSymbolTable
 70
     0
  0
ENDTAB
  0
TABLE
  2
APPID
  5
9
330
0
100
AcDbSymbolTable
 70
     1
  0
APPID
  5
12
330
9
100
AcDbSymbolTableRecord
100
AcDbRegAppTableRecord
  2
ACAD
 70
     0
  0
ENDTAB
  0
TABLE
  2
DIMSTYLE
  5
A
330
0
100
AcDbSymbolTable
 70
     1
100
AcDbDimStyleTable
  0
DIMSTYLE
105
27
330
A
100
AcDbSymbolTableRecord
100
AcDbDimStyleTableRecord
  2
Standard
 70
     0
178
     0
340
11
  0
ENDTAB
  0
TABLE
  2
BLOCK_RECORD
  5
1
330
0
100
AcDbSymbolTable
 70
     3
  0
BLOCK_RECORD
  5
1F
330
1
100
AcDbSymbolTableRecord
100
AcDbBlockTableRecord
  2
*Model_Space
340
22
  0
BLOCK_RECORD
  5
1B
330
1
100
AcDbSymbolTableRecord
100
AcDbBlockTableRecord
  2
*Paper_Space
340
1E
  0
BLOCK_RECORD
  5
E3
330
1
100
AcDbSymbolTableRecord
100
AcDbBlockTableRecord
  2
Drawing_1_2
340
0
102
{BLKREFS
331
622
102
}
  0
BLOCK_RECORD
  5
626
330
1
100
AcDbSymbolTableRecord
100
AcDbBlockTableRecord
  2
R-TRS6-15 PIPE PENETRATION DETA_STORY_MARKER
340
0
  0
ENDTAB
  0
ENDSEC
  0
SECTION
  2
BLOCKS
  0
BLOCK
  5
20
330
1F
100
AcDbEntity
  8
0
100
AcDbBlockBegin
  2
*Model_Space
 70
     0
 10
0.0
 20
0.0
 30
0.0
  3
*Model_Space
  1

  0
ENDBLK
  5
21
330
1F
100
AcDbEntity
  8
0
100
AcDbBlockEnd
  0
BLOCK
  5
1C
330
1B
100
AcDbEntity
 67
     1
  8
0
100
AcDbBlockBegin
  2
*Paper_Space
 70
     0
 10
0.0
 20
0.0
 30
0.0
  3
*Paper_Space
  1

  0
ENDBLK
  5
1D
330
1B
100
AcDbEntity
 67
     1
  8
0
100
AcDbBlockEnd
  0
BLOCK
  5
E4
330
E3
100
AcDbEntity
  8
0
100
AcDbBlockBegin
  2
Drawing_1_2
 70
     0
 10
203.9331314616245
 20
-67.40556088284451
 30
0.0
  3
Drawing_1_2
  1

  0
LINE
  5
E6
330
E3
100
AcDbEntity
  8
0
  6
Continuous
100
AcDbLine
 10
243.6343549472296
 20
112.9296935008926
 30
0.0
 11
225.3384739699216
 21
116.1557512444574
 31
0.0
  0
LINE
  5
E7
330
E3
100
AcDbEntity
  8
0
  6
Continuous
100
AcDbLine
 10
225.3384739699216
 20
116.1557512444574
 30
0.0
 11
67.82968442299394
 21
88.3827008845411
 31
0.0
  0
LINE
  5
E8
330
E3
100
AcDbEntity
  8
0
  6
Continuous
100
AcDbLine
 10
243.6343549472296
 20
94.65201423342354
 30
0.0
 11
225.3384739699216
 21
97.87807197698837
 31
0.0
  0
LINE
  5
E9
330
E3
100
AcDbEntity
  8
0
  6
Continuous
100
AcDbLine
 10
225.3384739699216
 20
97.87807197698837
 30
0.0
 11
67.82968442299394
 21
70.10502161707204
 31
0.0
  0
HATCH
  5
EA
330
E3
100
AcDbEntity
  8
0
  6
Continuous
 62
   253
370
    25
100
AcDbHatch
 10
0.0
 20
0.0
 30
0.0
210
0.0
220
0.0
230
1.0
  2
SOLID
 70
     1
 71
     0
 91
        1
 92
        3
 72
     0
 73
     1
 93
        4
 10
230.3898123317232
 20
131.5814004505827
 10
229.4868382073782
 20
126.4603984113468
 10
277.8382440756251
 20
117.9347433035411
 10
277.8382440756251
 20
123.2149604332776
 97
        0
 75
     0
 76
     1
 98
        0
  0
LINE
  5
EB
330
E3
100
AcDbEntity
  8
0
  6
Continuous
100
AcDbLine
 10
229.4868384480278
 20
126.4604010898528
 30
0.0
 11
277.8382410161088
 21
117.9347445597118
 31
0.0
  0
LINE
  5
EC
330
E3
100
AcDbEntity
  8
0
  6
Continuous
100
AcDbLine
 10
277.8382440756251
 20
123.2149604332776
 30
0.0
 11
230.3898123317232
 21
131.5814004505827
 31
0.0
  0
LINE
  5
ED
330
E3
100
AcDbEntity
  8
0
  6
Continuous
100
AcDbLine
 10
230.3898091947425
 20
131.5813994010416
 30
0.0
 11
229.4868413975018
 21
126.4604012345799
 31
0.0
  0
HATCH
  5
EE
330
E3
100
AcDbEntity
  8
0
  6
Continuous
 62
   255
370
     0
100
AcDbHatch
 10
0.0
 20
0.0
 30
0.0
210
0.0
220
0.0
230
1.0
  2
SOLID
 70
     1
 71
     0
 91
        1
 92
        3
 72
     0
 73
     1
 93
        4
 10
259.0767522304357
 20
119.3456220382104
 10
257.5139186314333
 20
110.4823522611005
 10
271.3012271736042
 20
108.0512777737634
 10
272.8640607726066
 20
116.9145475508733
 97
        0
 75
     0
 76
     1
 98
        0
  0
LINE
  5
EF
330
E3
100
AcDbEntity
  8
0
  6
Continuous
100
AcDbLine
 10
257.5139194404512
 20
110.4823504365507
 30
0.0
 11
272.8640617158837
 21
116.91454834101
 31
0.0
  0
LINE
  5
F0
330
E3
100
AcDbEntity
  8
0
  6
Continuous
100
AcDbLine
 10
259.0767506207739
 20
119.3456223888764
 30
0.0
 11
271.301226797276
 21
108.0512763886844
 31
0.0
  0
LINE
  5
F1
330
E3
100
AcDbEntity
  8
0
  6
Continuous
100
AcDbLine
 10
259.0767506207739
 20
119.3456223888764
 30
0.0
 11
257.5139194404512
 21
110.4823504365507
 31
0.0
  0
LINE
  5
F2
330
E3
100
AcDbEntity
  8
0
  6
Continuous
100
AcDbLine
 10
257.5139194404512
 20
110.4823504365507
 30
0.0
 11
271.301226797276
 21
108.0512763886844
 31
0.0
  0
LINE
  5
F3
330
E3
100
AcDbEntity
  8
0
  6
Continuous
100
AcDbLine
 10
271.301226797276
 20
108.0512763886844
 30
0.0
 11
272.8640617158837
 21
116.91454834101
 31
0.0
  0
LINE
  5
F4
330
E3
100
AcDbEntity
  8
0
  6
Continuous
100
AcDbLine
 10
272.8640617158837
 20
116.91454834101
 30
0.0
 11
259.0767506207739
 21
119.3456223888764
 31
0.0
  0
HATCH
  5
F5
330
E3
100
AcDbEntity
  8
0
  6
Continuous
 62
   253
370
    25
100
AcDbHatch
 10
0.0
 20
0.0
 30
0.0
210
0.0
220
0.0
230
1.0
  2
SOLID
 70
     1
 71
     0
 91
        1
 92
        3
 72
     0
 73
     1
 93
        4
 10
26.96642027240003
 20
92.21352510824387
 10
221.1901060959311
 20
126.460401723005
 10
220.2871359551184
 20
131.5813983185986
 10
26.96642027240003
 20
97.4937451006988
 97
        0
 75
     0
 76
     1
 98
        0
  0
LINE
  5
F6
330
E3
100
AcDbEntity
  8
0
  6
Continuous
100
AcDbLine
 10
220.2871350068156
 20
131.5813994010416
 30
0.0
 11
221.1901065423412
 21
126.4604012345799
 31
0.0
  0
LINE
  5
F7
330
E3
100
AcDbEntity
  8
0
  6
Continuous
100
AcDbLine
 10
26.96642027240003
 20
97.4937451006988
 30
0.0
 11
220.2871359551184
 21
131.5813983185986
 31
0.0
  0
LINE
  5
F8
330
E3
100
AcDbEntity
  8
0
  6
Continuous
100
AcDbLine
 10
221.1901054680606
 20
126.4604004903827
 30
0.0
 11
26.96642075011829
 21
92.21352229975663
 31
0.0
  0
HATCH
  5
F9
330
E3
100
AcDbEntity
  8
0
  6
Continuous
 62
   255
370
     0
100
AcDbHatch
 10
0.0
 20
0.0
 30
0.0
210
0.0
220
0.0
230
1.0
  2
SOLID
 70
     1
 71
     0
 91
        1
 92
        3
 72
     0
 73
     1
 93
        4
 10
191.6001931476744
 20
119.3456220382104
 10
177.8128846055035
 20
116.9145475508733
 10
179.3757182045059
 20
108.0512777737634
 10
193.1630267466768
 20
110.4823522611005
 97
        0
 75
     0
 76
     1
 98
        0
  0
LINE
  5
FA
330
E3
100
AcDbEntity
  8
0
  6
Continuous
100
AcDbLine
 10
193.1630284993919
 20
110.4823504365507
 30
0.0
 11
177.8128862239594
 21
116.91454834101
 31
0.0
  0
LINE
  5
FB
330
E3
100
AcDbEntity
  8
0
  6
Continuous
100
AcDbLine
 10
191.6001935807842
 20
119.3456223888764
 30
0.0
 11
179.375717404282
 21
108.0512763886844
 31
0.0
  0
LINE
  5
FC
330
E3
100
AcDbEntity
  8
0
  6
Continuous
100
AcDbLine
 10
191.6001935807842
 20
119.3456223888764
 30
0.0
 11
193.1630284993919
 21
110.4823504365507
 31
0.0
  0
LINE
  5
FD
330
E3
100
AcDbEntity
  8
0
  6
Continuous
100
AcDbLine
 10
193.1630284993919
 20
110.4823504365507
 30
0.0
 11
179.375717404282
 21
108.0512763886844
 31
0.0
  0
LINE
  5
FE
330
E3
100
AcDbEntity
  8
0
  6
Continuous
100
AcDbLine
 10
179.375717404282
 20
108.0512763886844
 30
0.0
 11
177.8128862239594
 21
116.91454834101
 31
0.0
  0
LINE
  5
FF
330
E3
100
AcDbEntity
  8
0
  6
Continuous
100
AcDbLine
 10
177.8128862239594
 20
116.91454834101
 30
0.0
 11
191.6001935807842
 21
119.3456223888764
 31
0.0
  0
LINE
  5
101
330
E3
100
AcDbEntity
  8
0
  6
Dashed
100
AcDbLine
 10
225.3384742399723
 20
126.4188580534168
 30
0.0
 11
277.8382413410135
 21
117.1617342362138
 31
0.0
  0
LINE
  5
102
330
E3
100
AcDbEntity
  8
0
  6
Dashed
100
AcDbLine
 10
265.8091851495928
 20
124.9546611433229
 30
0.0
 11
268.475857135266
 21
124.4844521749586
 31
0.0
  0
LINE
  5
103
330
E3
100
AcDbEntity
  8
0
  6
Continuous
 62
     9
370
    18
100
AcDbLine
 10
230.1119723743169
 20
130.0057085201961
 30
0.0
 11
231.4185740217205
 21
126.1197836552642
 31
0.0
  0
LINE
  5
104
330
E3
100
AcDbEntity
  8
0
  6
Dashed
100
AcDbLine
 10
225.3384712526405
 20
126.4188583019241
 30
0.0
 11
26.966420391538
 21
91.44051574308779
 31
0.0
  0
LINE
  5
105
330
E3
100
AcDbEntity
  8
0
  6
Dashed
100
AcDbLine
 10
184.8677627902503
 20
124.9546611433229
 30
0.0
 11
182.201087066292
 21
124.4844521749586
 31
0.0
  0
LINE
  5
106
330
E3
100
AcDbEntity
  8
0
  6
Continuous
 62
     9
370
    18
100
AcDbLine
 10
220.5649718272412
 20
130.0057085201961
 30
0.0
 11
219.2583701798376
 21
126.1197836552642
 31
0.0
  0
LINE
  5
107
330
E3
100
AcDbEntity
  8
0
  6
Continuous
100
AcDbLine
 10
225.3384739699216
 20
97.87807197698837
 30
0.0
 11
225.3384739699216
 21
116.1557512444574
 31
0.0
  0
ARC
  5
108
330
E3
100
AcDbEntity
  8
0
  6
Continuous
100
AcDbCircle
 10
225.3037430535217
 20
133.0692540791127
 30
0.0
 40
6.0
100
AcDbArc
 50
0.0
 51
180.0
  0
LWPOLYLINE
  5
109
330
E3
100
AcDbEntity
  8
0
  6
Continuous
100
AcDbPolyline
 90
        5
 70
   128
 43
0.0
 10
271.3511059263766
 20
124.9563525454319
 10
273.7115186161661
 20
124.6176796273476
 10
274.1336523155616
 20
125.0398133267432
 10
273.880458302433
 20
125.5618304299659
 10
231.3037430535217
 20
133.0692540791127
  0
LWPOLYLINE
  5
10A
330
E3
100
AcDbEntity
  8
0
  6
Continuous
100
AcDbPolyline
 90
        7
 70
   128
 43
0.0
 10
273.5628579157012
 20
122.5313579673876
 10
270.9057142157458
 20
122.947258720424
 10
270.9057142157458
 20
121.8112335153704
 10
274.3715538243833
 20
121.2721029095823
 10
274.7566471142318
 20
119.9435310596048
 10
275.7193803388533
 20
118.7689965255664
 10
276.7398775569522
 20
118.345393906733
  0
LWPOLYLINE
  5
10B
330
E3
100
AcDbEntity
  8
0
  6
Continuous
100
AcDbPolyline
 90
        2
 70
   128
 43
0.0
 10
176.796487075677
 20
125.5618304299659
 10
219.3732023245884
 20
133.0692540791127
  0
LWPOLYLINE
  5
10C
330
E3
100
AcDbEntity
  8
0
  6
Continuous
100
AcDbPolyline
 90
        7
 70
   128
 43
0.0
 10
82.77875799210507
 20
107.8980278441095
 10
85.43590169206047
 20
108.3139285971459
 10
85.43590169206047
 20
107.1779033920922
 10
81.970062083423
 20
106.6387727863042
 10
81.75528580804392
 20
105.1118805032826
 10
81.32308762680657
 20
103.7820399456292
 10
80.2924611946252
 20
102.0532472206798
  0
LWPOLYLINE
  5
10D
330
E3
100
AcDbEntity
  8
0
  6
Continuous
100
AcDbPolyline
 90
        5
 70
   128
 43
0.0
 10
84.75170668780531
 20
107.6532672239378
 10
82.39129399801587
 20
107.3145943058536
 10
81.96916029862027
 20
107.7367280052492
 10
82.22235431174893
 20
108.2587451084718
 10
219.5566852141064
 20
132.474493026754
  0
LWPOLYLINE
  5
10E
330
E3
100
AcDbEntity
  8
0
  6
Continuous
100
AcDbPolyline
 90
       18
 70
   129
 43
0.0
 10
104.8796452710047
 20
139.0036699851636
 10
125.6487547422381
 20
139.0036699851636
 10
125.6523398383435
 20
137.4716450316643
 10
126.0867527613339
 20
137.4716450316643
 10
130.7262717519116
 20
130.8204827010761
 10
131.6458397278131
 20
130.6847671515292
 10
131.1384918790399
 20
129.3846882890479
 10
136.6937444258581
 20
118.5205726000351
 10
140.4794289006472
 20
119.1312252670444
 10
141.3458578660677
 20
118.6838139801287
 10
92.60766030820575
 20
110.0899547586369
 10
92.85179439249781
 20
110.6807765522953
 10
95.13548733429526
 20
111.1474672464346
 10
101.0067861494627
 20
126.0472701230148
 10
99.66543961296207
 20
126.9941029723093
 10
101.4012998366687
 20
127.4675193969565
 10
104.1980522365632
 20
137.1830827463953
 10
104.8920573391215
 20
137.1597182656677
  0
HATCH
  5
10F
330
E3
100
AcDbEntity
  8
0
  6
Continuous
 62
   255
370
     0
100
AcDbHatch
 10
0.0
 20
0.0
 30
0.0
210
0.0
220
0.0
230
1.0
  2
SOLID
 70
     1
 71
     0
 91
        1
 92
        3
 72
     0
 73
     1
 93
        8
 10
236.0853242327101
 20
112.706682696765
 10
229.8537920109281
 20
111.3936040914713
 10
241.6222607993508
 20
110.0805254861777
 10
235.3907285775688
 20
108.7674518146175
 10
231.7239877904843
 20
87.9723181589928
 10
277.8382419325877
 20
87.9723181589928
 10
277.8382419325877
 20
133.5018114186562
 10
239.7520650197946
 20
133.5018114186562
 97
        0
 75
     0
 76
     1
 98
        0
  0
LINE
  5
110
330
E3
100
AcDbEntity
  8
0
  6
Continuous
100
AcDbLine
 10
239.7520636953524
 20
133.501812498172
 30
0.0
 11
236.0853219586355
 21
112.7066823688011
 31
0.0
  0
LINE
  5
111
330
E3
100
AcDbEntity
  8
0
  6
Continuous
100
AcDbLine
 10
235.3907299075716
 20
108.7674495592596
 30
0.0
 11
231.7239881708546
 21
87.97231942988864
 31
0.0
  0
LINE
  5
112
330
E3
100
AcDbEntity
  8
0
  6
Continuous
100
AcDbLine
 10
235.3907299075716
 20
108.7674495592596
 30
0.0
 11
241.6222604095979
 21
110.0805259163451
 31
0.0
  0
LINE
  5
113
330
E3
100
AcDbEntity
  8
0
  6
Continuous
100
AcDbLine
 10
241.6222604095979
 20
110.0805259163451
 30
0.0
 11
229.8537914566092
 21
111.3936060117156
 31
0.0
  0
LINE
  5
114
330
E3
100
AcDbEntity
  8
0
  6
Continuous
100
AcDbLine
 10
229.8537914566092
 20
111.3936060117156
 30
0.0
 11
236.0853219586355
 21
112.7066823688011
 31
0.0
  0
HATCH
  5
115
330
E3
100
AcDbEntity
  8
0
  6
Continuous
 62
   255
370
     0
100
AcDbHatch
 10
0.0
 20
0.0
 30
0.0
210
0.0
220
0.0
230
1.0
  2
SOLID
 70
     1
 71
     0
 91
        1
 92
        3
 72
     0
 73
     1
 93
        8
 10
26.96641735155497
 20
112.0350284725426
 10
26.96641735155497
 20
53.71234008581452
 10
81.69965089053576
 20
53.71234008581452
 10
76.90501423806155
 20
80.9040681507578
 10
70.67348360535584
 20
82.21714396363747
 10
82.44195280113398
 20
83.53022459471963
 10
76.21042216842827
 20
84.8433004075993
 10
71.41578551595406
 20
112.0350284725426
 97
        0
 75
     0
 76
     1
 98
        0
  0
LINE
  5
116
330
E3
100
AcDbEntity
  8
0
  6
Continuous
100
AcDbLine
 10
71.41578387492007
 20
112.0350284347163
 30
0.0
 11
76.21042228119249
 21
84.84330008928131
 31
0.0
  0
LINE
  5
117
330
E3
100
AcDbEntity
  8
0
  6
Continuous
100
AcDbLine
 10
76.90501433225644
 20
80.9040672797399
 30
0.0
 11
81.69964900024382
 21
53.71233893430488
 31
0.0
  0
LINE
  5
118
330
E3
100
AcDbEntity
  8
0
  6
Continuous
100
AcDbLine
 10
76.90501433225644
 20
80.9040672797399
 30
0.0
 11
70.67348383023011
 21
82.2171473751104
 31
0.0
  0
LINE
  5
119
330
E3
100
AcDbEntity
  8
0
  6
Continuous
100
AcDbLine
 10
70.67348383023011
 20
82.2171473751104
 30
0.0
 11
82.4419527832188
 21
83.53022373219585
 31
0.0
  0
LINE
  5
11A
330
E3
100
AcDbEntity
  8
0
  6
Continuous
100
AcDbLine
 10
82.4419527832188
 20
83.53022373219585
 30
0.0
 11
76.21042228119249
 21
84.84330008928131
 31
0.0
  0
MTEXT
  5
11B
330
E3
100
AcDbEntity
  8
Doc_ Floor
  6
Continuous
100
AcDbMText
 10
193.5292761408645
 20
86.485725256744
 30
0.0
 40
2.5
 41
0.0
 71
     4
 72
     1
  1
{UNDERLAY}
  7
GENERATED_STYLE_1
 73
     1
 44
1.0
  0
LINE
  5
11C
330
E3
100
AcDbEntity
  8
Doc_ Floor
  6
Continuous
100
AcDbLine
 10
173.7073670194586
 20
117.3149037151967
 30
0.0
 11
174.821648854914
 21
113.6153660038613
 31
0.0
  0
LINE
  5
11D
330
E3
100
AcDbEntity
  8
Doc_ Floor
  6
Continuous
100
AcDbLine
 10
173.7073670194586
 20
117.3149037151967
 30
0.0
 11
172.8225934554869
 21
113.5538674767385
 31
0.0
  0
LINE
  5
11E
330
E3
100
AcDbEntity
  8
Doc_ Floor
  6
Continuous
100
AcDbLine
 10
174.821648854914
 20
113.6153660038613
 30
0.0
 11
172.8225934554869
 21
113.5538674767385
 31
0.0
  0
LWPOLYLINE
  5
11F
330
E3
100
AcDbEntity
  8
Doc_ Floor
  6
Continuous
100
AcDbPolyline
 90
       17
 70
   128
 43
0.0
 10
173.8221219133511
 20
113.5846172898256
 10
174.0354076781763
 20
109.9535805973167
 10
174.3490830291076
 20
106.6255377924163
 10
174.7689476655335
 20
103.5910048819604
 10
175.3008012868424
 20
100.840497872785
 10
175.9504435924231
 20
98.36453277172602
 10
176.723674281664
 20
96.15362558561955
 10
177.6262930539536
 20
94.19829232130155
 10
178.6640996086806
 20
92.48904898560806
 10
179.8428936452334
 20
91.01641158537504
 10
181.1684748630006
 20
89.77089612743852
 10
182.6466429613707
 20
88.74301861863448
 10
184.2831976397323
 20
87.92329506579894
 10
186.083938597474
 20
87.30224147576787
 10
188.0546655339842
 20
86.8703738553773
 10
190.2011781486515
 20
86.61820821146324
 10
192.5292761408645
 20
86.53626055086166
  0
MTEXT
  5
120
330
E3
100
AcDbEntity
  8
Doc_ Floor
  6
Continuous
100
AcDbMText
 10
184.9108779781656
 20
72.2537728273413
 30
0.0
 40
2.5
 41
0.0
 71
     4
 72
     1
  1
{ROOF FRAME}
  7
GENERATED_STYLE_1
 73
     1
 44
1.0
  0
LINE
  5
121
330
E3
100
AcDbEntity
  8
Doc_ Floor
  6
Continuous
100
AcDbLine
 10
172.5914552917276
 20
98.34433331635492
 30
0.0
 11
173.8693768163371
 21
94.69808485820388
 31
0.0
  0
LINE
  5
122
330
E3
100
AcDbEntity
  8
Doc_ Floor
  6
Continuous
100
AcDbLine
 10
172.5914552917276
 20
98.34433331635492
 30
0.0
 11
171.8750428709102
 21
94.54763010037081
 31
0.0
  0
LINE
  5
123
330
E3
100
AcDbEntity
  8
Doc_ Floor
  6
Continuous
100
AcDbLine
 10
173.8693768163371
 20
94.69808485820388
 30
0.0
 11
171.8750428709102
 21
94.54763010037081
 31
0.0
  0
LWPOLYLINE
  5
124
330
E3
100
AcDbEntity
  8
Doc_ Floor
  6
Continuous
100
AcDbPolyline
 90
       15
 70
   128
 43
0.0
 10
172.8722088236661
 20
94.62285698111693
 10
173.4788906991054
 20
88.87680926911727
 10
174.2524922165344
 20
84.09859696261177
 10
174.7103223509016
 20
82.05300205950314
 10
175.2200038076543
 20
80.22605357546864
 10
175.7849103907551
 20
78.60998069974178
 10
176.4084159041666
 20
77.19701262155613
 10
177.0938941518515
 20
75.97937853014515
 10
177.8447189377725
 20
74.94930761474242
 10
178.6642640658923
 20
74.09902906458146
 10
179.5559033401734
 20
73.42077206889579
 10
180.5230105645787
 20
72.90676581691893
 10
181.5689595430707
 20
72.54923949788444
 10
182.6971240796121
 20
72.34042230102581
 10
183.9108779781656
 20
72.2725434155766
  0
MTEXT
  5
125
330
E3
100
AcDbEntity
  8
Doc_ Floor
  6
Continuous
100
AcDbMText
 10
69.76999476195684
 20
122.2895092193444
 30
0.0
 40
2.5
 41
35.0246672556786
 71
     6
 72
     1
  1
{SOFT EDGE DRESSED OVER ROOFING}
  7
GENERATED_STYLE_1
 73
     1
 44
1.070162922071086
  0
LINE
  5
126
330
E3
100
AcDbEntity
  8
Doc_ Floor
  6
Continuous
100
AcDbLine
 10
84.75170826682056
 20
107.6532686575002
 30
0.0
 11
82.41529133434398
 21
110.7304977972226
 31
0.0
  0
LINE
  5
127
330
E3
100
AcDbEntity
  8
Doc_ Floor
  6
Continuous
100
AcDbLine
 10
84.75170826682056
 20
107.6532686575002
 30
0.0
 11
84.266927463387
 21
111.4864351057228
 31
0.0
  0
LINE
  5
128
330
E3
100
AcDbEntity
  8
Doc_ Floor
  6
Continuous
100
AcDbLine
 10
82.41529133434398
 20
110.7304977972226
 30
0.0
 11
84.266927463387
 21
111.4864351057228
 31
0.0
  0
LWPOLYLINE
  5
129
330
E3
100
AcDbEntity
  8
Doc_ Floor
  6
Continuous
100
AcDbPolyline
 90
        9
 70
   128
 43
0.0
 10
83.34110933003895
 20
111.1084680026587
 10
81.98416806746887
 20
113.977995526677
 10
80.62309648178491
 20
116.367760610723
 10
79.22932429762398
 20
118.3077094510614
 10
77.77428123962298
 20
119.8277882439569
 10
76.22939703241885
 20
120.9579431856742
 10
74.5661014006485
 20
121.7281204724779
 10
72.75582406894885
 20
122.1682663006326
 10
70.76999476195684
 20
122.3083268664032
  0
MTEXT
  5
12A
330
E3
100
AcDbEntity
  8
Doc_ Floor
  6
Continuous
100
AcDbMText
 10
238.9445889461092
 20
143.2622354453956
 30
0.0
 40
2.500000000000001
 41
0.0
 71
     4
 72
     1
  1
{STOPEND}
  7
GENERATED_STYLE_1
 73
     1
 44
1.0
  0
LINE
  5
12B
330
E3
100
AcDbEntity
  8
Doc_ Floor
  6
Continuous
100
AcDbLine
 10
220.302353565196
 20
129.816229804875
 30
0.0
 11
221.7260046553534
 21
133.4080862157562
 31
0.0
  0
LINE
  5
12C
330
E3
100
AcDbEntity
  8
Doc_ Floor
  6
Continuous
100
AcDbLine
 10
220.302353565196
 20
129.816229804875
 30
0.0
 11
223.3311980817009
 21
132.215042452883
 31
0.0
  0
LINE
  5
12D
330
E3
100
AcDbEntity
  8
Doc_ Floor
  6
Continuous
100
AcDbLine
 10
221.7260046553534
 20
133.4080862157562
 30
0.0
 11
223.3311980817009
 21
132.215042452883
 31
0.0
  0
LWPOLYLINE
  5
12E
330
E3
100
AcDbEntity
  8
Doc_ Floor
  6
Continuous
100
AcDbPolyline
 90
        9
 70
   128
 43
0.0
 10
222.5286011993616
 20
132.8115628238941
 10
224.6949544726274
 20
135.4953197416899
 10
226.7191248008867
 20
137.7298757366639
 10
228.6380101130825
 20
139.5433917678587
 10
230.4885083381576
 20
140.9640287943166
 10
232.307517405055
 20
142.0199477750804
 10
234.1319352427174
 20
142.7393096691923
 10
235.9986597800878
 20
143.150275435695
 10
237.9445889461092
 20
143.2810060336309
  0
MTEXT
  5
12F
330
E3
100
AcDbEntity
  8
Doc_ Floor
  6
Continuous
100
AcDbMText
 10
228.6353772272375
 20
157.0308744182444
 30
0.0
 40
2.500000000000001
 41
0.0
 71
     4
 72
     1
  1
{ROLL TOP RIDGE FLASHING}
  7
GENERATED_STYLE_1
 73
     1
 44
1.0
  0
LINE
  5
130
330
E3
100
AcDbEntity
  8
Doc_ Floor
  6
Continuous
100
AcDbLine
 10
221.3760675314437
 20
137.6050401339459
 30
0.0
 11
220.1057347254568
 21
141.2539390361873
 31
0.0
  0
LINE
  5
131
330
E3
100
AcDbEntity
  8
Doc_ Floor
  6
Continuous
100
AcDbLine
 10
221.3760675314437
 20
137.6050401339459
 30
0.0
 11
222.1003789485417
 21
141.4002442976306
 31
0.0
  0
LINE
  5
132
330
E3
100
AcDbEntity
  8
Doc_ Floor
  6
Continuous
100
AcDbLine
 10
220.1057347254568
 20
141.2539390361873
 30
0.0
 11
222.1003789485417
 21
141.4002442976306
 31
0.0
  0
LWPOLYLINE
  5
133
330
E3
100
AcDbEntity
  8
Doc_ Floor
  6
Continuous
100
AcDbPolyline
 90
       14
 70
   128
 43
0.0
 10
221.1030570639607
 20
141.3270910450659
 10
220.9677159467616
 20
145.3621310115377
 10
221.0767437986386
 20
148.7200916580234
 10
221.4439391547122
 20
151.4438382557596
 10
221.7286616890477
 20
152.5812766836082
 10
222.0831005501025
 20
153.576236075983
 10
222.5089805547665
 20
154.4340745917889
 10
223.0080265199298
 20
155.1601503899302
 10
223.5819632624825
 20
155.7598216293116
 10
224.2325155993146
 20
156.2384464688376
 10
224.9614083473161
 20
156.6013830674129
 10
225.7703663233771
 20
156.8539895839419
 10
226.6611143443875
 20
157.0016241773293
 10
227.6353772272375
 20
157.0496450064797
  0
MTEXT
  5
134
330
E3
100
AcDbEntity
  8
Doc_ Floor
  6
Continuous
100
AcDbMText
 10
75.49643983449012
 20
138.2417490642585
 30
0.0
 40
2.5
 41
39.91102550062586
 71
     6
 72
     1
  1
{COWL FLASHING ALL THE WAY TO RIDGE}
  7
GENERATED_STYLE_1
 73
     1
 44
1.070162922071087
  0
LINE
  5
135
330
E3
100
AcDbEntity
  8
Doc_ Floor
  6
Continuous
100
AcDbLine
 10
89.89965946838996
 20
109.6124627235913
 30
0.0
 11
88.24607768053994
 21
113.1044321583177
 31
0.0
  0
LINE
  5
136
330
E3
100
AcDbEntity
  8
Doc_ Floor
  6
Continuous
100
AcDbLine
 10
89.89965946838996
 20
109.6124627235913
 30
0.0
 11
90.21360064569065
 21
113.4633897640187
 31
0.0
  0
LINE
  5
137
330
E3
100
AcDbEntity
  8
Doc_ Floor
  6
Continuous
100
AcDbLine
 10
88.24607768053994
 20
113.1044321583177
 30
0.0
 11
90.21360064569065
 21
113.4633897640187
 31
0.0
  0
LWPOLYLINE
  5
138
330
E3
100
AcDbEntity
  8
Doc_ Floor
  6
Continuous
100
AcDbPolyline
 90
       14
 70
   128
 43
0.0
 10
89.22983818835147
 20
113.2839100127496
 10
87.91196672216496
 20
119.7084325229906
 10
86.58124564044233
 20
125.0496572969246
 10
85.2049849898022
 20
129.3774559994306
 10
84.48956171570637
 20
131.1831554691729
 10
83.75049481686315
 20
132.761700295388
 10
82.98369804909986
 20
134.1218244361857
 10
82.18508516824383
 20
135.272261849676
 10
81.35056993012235
 20
136.2217464939689
 10
80.4760660905628
 20
136.9790123271741
 10
79.55748740539246
 20
137.5527933074016
 10
78.59074763043868
 20
137.9518233927614
 10
77.5717605215288
 20
138.1848365413634
 10
76.49643983449012
 20
138.2605667113174
  0
HATCH
  5
139
330
E3
100
AcDbEntity
  8
0
  6
Continuous
 62
   255
370
     0
100
AcDbHatch
 10
0.0
 20
0.0
 30
0.0
210
0.0
220
0.0
230
1.0
  2
SOLID
 70
     1
 71
     0
 91
        1
 92
        3
 72
     0
 73
     1
 93
        4
 10
182.2530287071396
 20
127.5606363461894
 10
182.3398527959731
 20
127.0682324696833
 10
183.8170644254914
 20
127.3287047361837
 10
183.730240336658
 20
127.8211086126898
 97
        0
 75
     0
 76
     1
 98
        0
  0
HATCH
  5
13A
330
E3
100
AcDbEntity
  8
0
  6
Continuous
 62
   255
370
     0
100
AcDbHatch
 10
0.0
 20
0.0
 30
0.0
210
0.0
220
0.0
230
1.0
  2
SOLID
 70
     1
 71
     0
 91
        1
 92
        3
 72
     1
 73
     1
 93
        4
 10
182.5137013268649
 20
127.5219810778551
 42
0.0
 10
182.5715840527539
 20
127.193711826851
 42
0.1666666666666667
 10
183.5563918057661
 20
127.3673600045179
 42
0.0
 10
183.4985090798771
 20
127.695629255522
 42
0.1666666666666667
 97
        0
 75
     0
 76
     1
 98
        0
  0
LINE
  5
13B
330
E3
100
AcDbEntity
  8
0
  6
Continuous
100
AcDbLine
 10
182.5715847578983
 20
127.1937107037588
 30
0.0
 11
182.513701152405
 21
127.5219807276015
 31
0.0
  0
ARC
  5
13C
330
E3
100
AcDbEntity
  8
0
  6
Continuous
100
AcDbCircle
 10
182.8107510034958
 20
128.7167138888273
 30
0.0
 40
1.54166666666671
100
AcDbArc
 50
261.075355583948
 51
298.9246444160493
  0
LINE
  5
13D
330
E3
100
AcDbEntity
  8
0
  6
Continuous
100
AcDbLine
 10
183.4985074856478
 20
127.6956278057962
 30
0.0
 11
183.5563910911411
 21
127.3673615202386
 31
0.0
  0
ARC
  5
13E
330
E3
100
AcDbEntity
  8
0
  6
Continuous
100
AcDbCircle
 10
183.2593421291353
 20
126.1726271935458
 30
0.0
 40
1.541666666666628
100
AcDbArc
 50
81.07535558394747
 51
118.9246444160499
  0
HATCH
  5
13F
330
E3
100
AcDbEntity
  8
0
  6
Continuous
 62
   255
370
     0
100
AcDbHatch
 10
0.0
 20
0.0
 30
0.0
210
0.0
220
0.0
230
1.0
  2
SOLID
 70
     1
 71
     0
 91
        1
 92
        3
 72
     1
 73
     1
 93
        4
 10
182.0212974503588
 20
127.4351569890216
 42
0.0
 10
182.0791801762478
 20
127.1068877380175
 42
0.3333333333333333
 10
182.5715840527539
 20
127.193711826851
 42
0.0
 10
182.5137013268649
 20
127.5219810778551
 42
0.3333333333333333
 97
        0
 75
     0
 76
     1
 98
        0
  0
LINE
  5
140
330
E3
100
AcDbEntity
  8
0
  6
Continuous
100
AcDbLine
 10
182.0791815912769
 20
127.106889033804
 30
0.0
 11
182.0212979857836
 21
127.4351553193616
 31
0.0
  0
ARC
  5
141
330
E3
100
AcDbEntity
  8
0
  6
Continuous
100
AcDbCircle
 10
182.2674993886119
 20
127.4785690334383
 30
0.0
 40
0.4166666666666698
100
AcDbArc
 50
243.1301023541581
 51
316.8698976458473
  0
LINE
  5
142
330
E3
100
AcDbEntity
  8
0
  6
Continuous
100
AcDbLine
 10
182.513701152405
 20
127.5219807276015
 30
0.0
 11
182.5715847578983
 21
127.1937107037588
 31
0.0
  0
ARC
  5
143
330
E3
100
AcDbEntity
  8
0
  6
Continuous
100
AcDbCircle
 10
182.3253821145009
 20
127.1502997824343
 30
0.0
 40
0.4166666666666698
100
AcDbArc
 50
63.13010235415805
 51
136.8698976458473
  0
HATCH
  5
144
330
E3
100
AcDbEntity
  8
0
  6
Continuous
 62
   255
370
     0
100
AcDbHatch
 10
0.0
 20
0.0
 30
0.0
210
0.0
220
0.0
230
1.0
  2
SOLID
 70
     1
 71
     0
 91
        1
 92
        3
 72
     1
 73
     1
 93
        4
 10
183.9909129563833
 20
127.7824533443555
 42
0.3333333333333333
 10
183.4985090798771
 20
127.695629255522
 42
0.0
 10
183.5563918057661
 20
127.3673600045179
 42
0.3333333333333333
 10
184.0487956822722
 20
127.4541840933514
 42
0.0
 97
        0
 75
     0
 76
     1
 98
        0
  0
ARC
  5
145
330
E3
100
AcDbEntity
  8
0
  6
Continuous
100
AcDbCircle
 10
183.8025937440192
 20
127.4107720489347
 30
0.0
 40
0.4166666666666698
100
AcDbArc
 50
63.13010235415805
 51
136.8698976458473
  0
LINE
  5
146
330
E3
100
AcDbEntity
  8
0
  6
Continuous
100
AcDbLine
 10
183.4985074856478
 20
127.6956278057962
 30
0.0
 11
183.5563910911411
 21
127.3673615202386
 31
0.0
  0
ARC
  5
147
330
E3
100
AcDbEntity
  8
0
  6
Continuous
100
AcDbCircle
 10
183.7447110181302
 20
127.7390412999387
 30
0.0
 40
0.4166666666666698
100
AcDbArc
 50
243.1301023541581
 51
316.8698976458447
  0
LINE
  5
148
330
E3
100
AcDbEntity
  8
0
  6
Continuous
100
AcDbLine
 10
184.0487942577625
 20
127.4541831901935
 30
0.0
 11
183.9909143905543
 21
127.7824532140361
 31
0.0
  0
HATCH
  5
149
330
E3
100
AcDbEntity
  8
0
  6
Continuous
 62
   255
370
     0
100
AcDbHatch
 10
0.0
 20
0.0
 30
0.0
210
0.0
220
0.0
230
1.0
  2
SOLID
 70
     1
 71
     0
 91
        1
 92
        3
 72
     0
 73
     1
 93
        4
 10
183.4067275334671
 20
127.2563512709397
 10
182.7501896879974
 20
127.1405859349272
 10
183.0280267722646
 20
125.5648935301077
 10
183.6845646177342
 20
125.6806588661202
 97
        0
 75
     0
 76
     1
 98
        0
  0
LINE
  5
14A
330
E3
100
AcDbEntity
  8
0
  6
Continuous
100
AcDbLine
 10
182.7501888020504
 20
127.1405859351161
 30
0.0
 11
183.4067288497356
 21
127.2563494078176
 31
0.0
  0
LINE
  5
14B
330
E3
100
AcDbEntity
  8
0
  6
Continuous
100
AcDbLine
 10
183.028025622476
 20
125.5648950542705
 30
0.0
 11
182.7501888020504
 21
127.1405859351161
 31
0.0
  0
LINE
  5
14C
330
E3
100
AcDbEntity
  8
0
  6
Continuous
100
AcDbLine
 10
183.6845656701612
 20
125.680658526972
 30
0.0
 11
183.028025622476
 21
125.5648950542705
 31
0.0
  0
LINE
  5
14D
330
E3
100
AcDbEntity
  8
0
  6
Continuous
100
AcDbLine
 10
183.4067288497356
 20
127.2563494078176
 30
0.0
 11
183.6845656701612
 21
125.680658526972
 31
0.0
  0
HATCH
  5
14E
330
E3
100
AcDbEntity
  8
0
  6
Continuous
 62
   255
370
     0
100
AcDbHatch
 10
0.0
 20
0.0
 30
0.0
210
0.0
220
0.0
230
1.0
  2
SOLID
 70
     1
 71
     0
 91
        1
 92
        3
 72
     0
 73
     1
 93
        5
 10
183.651738020903
 20
125.674870651414
 10
183.0608533690957
 20
125.5706817448138
 10
184.8667944168318
 20
115.3286811134869
 10
185.2664256493356
 20
114.7898909149796
 10
185.4576790686391
 20
115.4328700200871
 97
        0
 75
     0
 76
     1
 98
        0
  0
LINE
  5
14F
330
E3
100
AcDbEntity
  8
0
  6
Continuous
100
AcDbLine
 10
183.0608515033747
 20
125.5706819195058
 30
0.0
 11
183.6517397892625
 21
125.6748716617367
 31
0.0
  0
LINE
  5
150
330
E3
100
AcDbEntity
  8
0
  6
Continuous
100
AcDbLine
 10
184.866794574426
 20
115.3286818482973
 30
0.0
 11
183.0608515033747
 21
125.5706819195058
 31
0.0
  0
LINE
  5
151
330
E3
100
AcDbEntity
  8
0
  6
Continuous
100
AcDbLine
 10
185.2664247213157
 20
114.7898903026675
 30
0.0
 11
184.866794574426
 21
115.3286818482973
 31
0.0
  0
LINE
  5
152
330
E3
100
AcDbEntity
  8
0
  6
Continuous
100
AcDbLine
 10
185.4576791220287
 20
115.4328715905281
 30
0.0
 11
185.2664247213157
 21
114.7898903026675
 31
0.0
  0
LINE
  5
153
330
E3
100
AcDbEntity
  8
0
  6
Continuous
100
AcDbLine
 10
183.6517397892625
 20
125.6748716617367
 30
0.0
 11
185.4576791220287
 21
115.4328715905281
 31
0.0
  0
LINE
  5
154
330
E3
100
AcDbEntity
  8
0
  6
Continuous
100
AcDbLine
 10
182.2530305368635
 20
127.5606345948709
 30
0.0
 11
183.7302400367278
 21
127.8211070813055
 31
0.0
  0
LINE
  5
155
330
E3
100
AcDbEntity
  8
0
  6
Continuous
100
AcDbLine
 10
183.8170654449677
 20
127.3287039146841
 30
0.0
 11
182.3398522068184
 21
127.0682314282495
 31
0.0
  0
LINE
  5
156
330
E3
100
AcDbEntity
  8
0
  6
Continuous
100
AcDbLine
 10
183.8486995715054
 20
125.7096002869474
 30
0.0
 11
183.847773311191
 21
125.7038964400749
 31
0.0
  0
LINE
  5
157
330
E3
100
AcDbEntity
  8
0
  6
Continuous
100
AcDbLine
 10
183.847773311191
 20
125.7038964400749
 30
0.0
 11
183.8431138203887
 21
125.6975343239423
 31
0.0
  0
LINE
  5
158
330
E3
100
AcDbEntity
  8
0
  6
Continuous
100
AcDbLine
 10
183.8431138203887
 20
125.6975343239423
 30
0.0
 11
183.8347624863268
 21
125.6905201228963
 31
0.0
  0
LINE
  5
159
330
E3
100
AcDbEntity
  8
0
  6
Continuous
100
AcDbLine
 10
183.8347624863268
 20
125.6905201228963
 30
0.0
 11
183.8227924976424
 21
125.6828715917132
 31
0.0
  0
LINE
  5
15A
330
E3
100
AcDbEntity
  8
0
  6
Continuous
100
AcDbLine
 10
183.8227924976424
 20
125.6828715917132
 30
0.0
 11
183.8073010444543
 21
125.6745987669291
 31
0.0
  0
LINE
  5
15B
330
E3
100
AcDbEntity
  8
0
  6
Continuous
100
AcDbLine
 10
183.8073010444543
 20
125.6745987669291
 30
0.0
 11
183.7884152284538
 21
125.6657278165393
 31
0.0
  0
LINE
  5
15C
330
E3
100
AcDbEntity
  8
0
  6
Continuous
100
AcDbLine
 10
183.7884152284538
 20
125.6657278165393
 30
0.0
 11
183.7662808427573
 21
125.656284908539
 31
0.0
  0
LINE
  5
15D
330
E3
100
AcDbEntity
  8
0
  6
Continuous
100
AcDbLine
 10
183.7662808427573
 20
125.656284908539
 30
0.0
 11
183.7410773250463
 21
125.6462999492086
 31
0.0
  0
LINE
  5
15E
330
E3
100
AcDbEntity
  8
0
  6
Continuous
100
AcDbLine
 10
183.7410773250463
 20
125.6462999492086
 30
0.0
 11
183.7130065427131
 21
125.6358103213984
 31
0.0
  0
LINE
  5
15F
330
E3
100
AcDbEntity
  8
0
  6
Continuous
100
AcDbLine
 10
183.7130065427131
 20
125.6358103213984
 30
0.0
 11
183.6822815780044
 21
125.6248496696736
 31
0.0
  0
LINE
  5
160
330
E3
100
AcDbEntity
  8
0
  6
Continuous
100
AcDbLine
 10
183.6822815780044
 20
125.6248496696736
 30
0.0
 11
183.6491491577327
 21
125.6134665917398
 31
0.0
  0
LINE
  5
161
330
E3
100
AcDbEntity
  8
0
  6
Continuous
100
AcDbLine
 10
183.6491491577327
 20
125.6134665917398
 30
0.0
 11
183.6138672235655
 21
125.6017059470174
 31
0.0
  0
LINE
  5
162
330
E3
100
AcDbEntity
  8
0
  6
Continuous
100
AcDbLine
 10
183.6138672235655
 20
125.6017059470174
 30
0.0
 11
183.5767124085953
 21
125.5896163332118
 31
0.0
  0
LINE
  5
163
330
E3
100
AcDbEntity
  8
0
  6
Continuous
100
AcDbLine
 10
183.5767124085953
 20
125.5896163332118
 30
0.0
 11
183.5379725607701
 21
125.5772426097436
 31
0.0
  0
LINE
  5
164
330
E3
100
AcDbEntity
  8
0
  6
Continuous
100
AcDbLine
 10
183.5379725607701
 20
125.5772426097436
 30
0.0
 11
183.4979504811775
 21
125.5646445891732
 31
0.0
  0
LINE
  5
165
330
E3
100
AcDbEntity
  8
0
  6
Continuous
100
AcDbLine
 10
183.4979504811775
 20
125.5646445891732
 30
0.0
 11
183.4569601857607
 21
125.5518783457761
 31
0.0
  0
LINE
  5
166
330
E3
100
AcDbEntity
  8
0
  6
Continuous
100
AcDbLine
 10
183.4569601857607
 20
125.5518783457761
 30
0.0
 11
183.4153194287478
 21
125.538996215543
 31
0.0
  0
LINE
  5
167
330
E3
100
AcDbEntity
  8
0
  6
Continuous
100
AcDbLine
 10
183.4153194287478
 20
125.538996215543
 30
0.0
 11
183.3733497026516
 21
125.5260542727493
 31
0.0
  0
LINE
  5
168
330
E3
100
AcDbEntity
  8
0
  6
Continuous
100
AcDbLine
 10
183.3733497026516
 20
125.5260542727493
 30
0.0
 11
183.3313837148405
 21
125.5131123299556
 31
0.0
  0
LINE
  5
169
330
E3
100
AcDbEntity
  8
0
  6
Continuous
100
AcDbLine
 10
183.3313837148405
 20
125.5131123299556
 30
0.0
 11
183.2897392195424
 21
125.5002301997225
 31
0.0
  0
LINE
  5
16A
330
E3
100
AcDbEntity
  8
0
  6
Continuous
100
AcDbLine
 10
183.2897392195424
 20
125.5002301997225
 30
0.0
 11
183.2487489241257
 21
125.4874602180404
 31
0.0
  0
LINE
  5
16B
330
E3
100
AcDbEntity
  8
0
  6
Continuous
100
AcDbLine
 10
183.2487489241257
 20
125.4874602180404
 30
0.0
 11
183.2087268445331
 21
125.474865935755
 31
0.0
  0
LINE
  5
16C
330
E3
100
AcDbEntity
  8
0
  6
Continuous
100
AcDbLine
 10
183.2087268445331
 20
125.474865935755
 30
0.0
 11
183.1699907349929
 21
125.4624922122868
 31
0.0
  0
LINE
  5
16D
330
E3
100
AcDbEntity
  8
0
  6
Continuous
100
AcDbLine
 10
183.1699907349929
 20
125.4624922122868
 30
0.0
 11
183.1328321817377
 21
125.4504025984812
 31
0.0
  0
LINE
  5
16E
330
E3
100
AcDbEntity
  8
0
  6
Continuous
100
AcDbLine
 10
183.1328321817377
 20
125.4504025984812
 30
0.0
 11
183.0975502475705
 21
125.4386382154738
 31
0.0
  0
LINE
  5
16F
330
E3
100
AcDbEntity
  8
0
  6
Continuous
100
AcDbLine
 10
183.0975502475705
 20
125.4386382154738
 30
0.0
 11
183.0644178272988
 21
125.42725513754
 31
0.0
  0
LINE
  5
170
330
E3
100
AcDbEntity
  8
0
  6
Continuous
100
AcDbLine
 10
183.0644178272988
 20
125.42725513754
 30
0.0
 11
183.0336966008752
 21
125.4162982241002
 31
0.0
  0
LINE
  5
171
330
E3
100
AcDbEntity
  8
0
  6
Continuous
100
AcDbLine
 10
183.0336966008752
 20
125.4162982241002
 30
0.0
 11
183.0056220802568
 21
125.40580859629
 31
0.0
  0
LINE
  5
172
330
E3
100
AcDbEntity
  8
0
  6
Continuous
100
AcDbLine
 10
183.0056220802568
 20
125.40580859629
 30
0.0
 11
182.980418562546
 21
125.3958236369596
 31
0.0
  0
LINE
  5
173
330
E3
100
AcDbEntity
  8
0
  6
Continuous
100
AcDbLine
 10
182.980418562546
 20
125.3958236369596
 30
0.0
 11
182.9582841768494
 21
125.3863807289593
 31
0.0
  0
LINE
  5
174
330
E3
100
AcDbEntity
  8
0
  6
Continuous
100
AcDbLine
 10
182.9582841768494
 20
125.3863807289593
 30
0.0
 11
182.9393983608489
 21
125.3775097785695
 31
0.0
  0
LINE
  5
175
330
E3
100
AcDbEntity
  8
0
  6
Continuous
100
AcDbLine
 10
182.9393983608489
 20
125.3775097785695
 30
0.0
 11
182.9239069076608
 21
125.3692369537854
 31
0.0
  0
LINE
  5
176
330
E3
100
AcDbEntity
  8
0
  6
Continuous
100
AcDbLine
 10
182.9239069076608
 20
125.3692369537854
 30
0.0
 11
182.9119369189764
 21
125.3615846843173
 31
0.0
  0
LINE
  5
177
330
E3
100
AcDbEntity
  8
0
  6
Continuous
100
AcDbLine
 10
182.9119369189764
 20
125.3615846843173
 30
0.0
 11
182.9035855902065
 21
125.3545753998753
 31
0.0
  0
LINE
  5
178
330
E3
100
AcDbEntity
  8
0
  6
Continuous
100
AcDbLine
 10
182.9035855902065
 20
125.3545753998753
 30
0.0
 11
182.898927542278
 21
125.348211576097
 31
0.0
  0
LINE
  5
179
330
E3
100
AcDbEntity
  8
0
  6
Continuous
100
AcDbLine
 10
182.898927542278
 20
125.348211576097
 30
0.0
 11
182.8980012819635
 21
125.3425077292245
 31
0.0
  0
LINE
  5
17A
330
E3
100
AcDbEntity
  8
0
  6
Continuous
100
AcDbLine
 10
183.9169184984461
 20
125.3227115268354
 30
0.0
 11
183.9159922381315
 21
125.317007679963
 31
0.0
  0
LINE
  5
17B
330
E3
100
AcDbEntity
  8
0
  6
Continuous
100
AcDbLine
 10
183.9159922381315
 20
125.317007679963
 30
0.0
 11
183.9113327473292
 21
125.3106455638303
 31
0.0
  0
LINE
  5
17C
330
E3
100
AcDbEntity
  8
0
  6
Continuous
100
AcDbLine
 10
183.9113327473292
 20
125.3106455638303
 30
0.0
 11
183.9029824499439
 21
125.3036337896934
 31
0.0
  0
LINE
  5
17D
330
E3
100
AcDbEntity
  8
0
  6
Continuous
100
AcDbLine
 10
183.9029824499439
 20
125.3036337896934
 30
0.0
 11
183.8910124612594
 21
125.2959815202253
 31
0.0
  0
LINE
  5
17E
330
E3
100
AcDbEntity
  8
0
  6
Continuous
100
AcDbLine
 10
183.8910124612594
 20
125.2959815202253
 30
0.0
 11
183.8755210080714
 21
125.2877086954412
 31
0.0
  0
LINE
  5
17F
330
E3
100
AcDbEntity
  8
0
  6
Continuous
100
AcDbLine
 10
183.8755210080714
 20
125.2877086954412
 30
0.0
 11
183.8566351920709
 21
125.2788377450514
 31
0.0
  0
LINE
  5
180
330
E3
100
AcDbEntity
  8
0
  6
Continuous
100
AcDbLine
 10
183.8566351920709
 20
125.2788377450514
 30
0.0
 11
183.8345008063743
 21
125.2693948370511
 31
0.0
  0
LINE
  5
181
330
E3
100
AcDbEntity
  8
0
  6
Continuous
100
AcDbLine
 10
183.8345008063743
 20
125.2693948370511
 30
0.0
 11
183.8092972886634
 21
125.2594098777207
 31
0.0
  0
LINE
  5
182
330
E3
100
AcDbEntity
  8
0
  6
Continuous
100
AcDbLine
 10
183.8092972886634
 20
125.2594098777207
 30
0.0
 11
183.7812227680451
 21
125.2489202499104
 31
0.0
  0
LINE
  5
183
330
E3
100
AcDbEntity
  8
0
  6
Continuous
100
AcDbLine
 10
183.7812227680451
 20
125.2489202499104
 30
0.0
 11
183.7505015416214
 21
125.2379633364707
 31
0.0
  0
LINE
  5
184
330
E3
100
AcDbEntity
  8
0
  6
Continuous
100
AcDbLine
 10
183.7505015416214
 20
125.2379633364707
 30
0.0
 11
183.7173691213498
 21
125.2265802585369
 31
0.0
  0
LINE
  5
185
330
E3
100
AcDbEntity
  8
0
  6
Continuous
100
AcDbLine
 10
183.7173691213498
 20
125.2265802585369
 30
0.0
 11
183.6820871871825
 21
125.2148196138145
 31
0.0
  0
LINE
  5
186
330
E3
100
AcDbEntity
  8
0
  6
Continuous
100
AcDbLine
 10
183.6820871871825
 20
125.2148196138145
 30
0.0
 11
183.6449323722124
 21
125.2027262617239
 31
0.0
  0
LINE
  5
187
330
E3
100
AcDbEntity
  8
0
  6
Continuous
100
AcDbLine
 10
183.6449323722124
 20
125.2027262617239
 30
0.0
 11
183.6061925243871
 21
125.1903562765407
 31
0.0
  0
LINE
  5
188
330
E3
100
AcDbEntity
  8
0
  6
Continuous
100
AcDbLine
 10
183.6061925243871
 20
125.1903562765407
 30
0.0
 11
183.5661704447946
 21
125.1777582559703
 31
0.0
  0
LINE
  5
189
330
E3
100
AcDbEntity
  8
0
  6
Continuous
100
AcDbLine
 10
183.5661704447946
 20
125.1777582559703
 30
0.0
 11
183.5251801493778
 21
125.1649882742882
 31
0.0
  0
LINE
  5
18A
330
E3
100
AcDbEntity
  8
0
  6
Continuous
100
AcDbLine
 10
183.5251801493778
 20
125.1649882742882
 30
0.0
 11
183.4835393923648
 21
125.1521061440551
 31
0.0
  0
LINE
  5
18B
330
E3
100
AcDbEntity
  8
0
  6
Continuous
100
AcDbLine
 10
183.4835393923648
 20
125.1521061440551
 30
0.0
 11
183.4415696662687
 21
125.1391642012614
 31
0.0
  0
LINE
  5
18C
330
E3
100
AcDbEntity
  8
0
  6
Continuous
100
AcDbLine
 10
183.4415696662687
 20
125.1391642012614
 30
0.0
 11
183.3995999401725
 21
125.1262259967527
 31
0.0
  0
LINE
  5
18D
330
E3
100
AcDbEntity
  8
0
  6
Continuous
100
AcDbLine
 10
183.3995999401725
 20
125.1262259967527
 30
0.0
 11
183.3579591831595
 21
125.1133401282346
 31
0.0
  0
LINE
  5
18E
330
E3
100
AcDbEntity
  8
0
  6
Continuous
100
AcDbLine
 10
183.3579591831595
 20
125.1133401282346
 30
0.0
 11
183.3169688877427
 21
125.1005738848375
 31
0.0
  0
LINE
  5
18F
330
E3
100
AcDbEntity
  8
0
  6
Continuous
100
AcDbLine
 10
183.3169688877427
 20
125.1005738848375
 30
0.0
 11
183.2769468081502
 21
125.0879758642671
 31
0.0
  0
LINE
  5
190
330
E3
100
AcDbEntity
  8
0
  6
Continuous
100
AcDbLine
 10
183.2769468081502
 20
125.0879758642671
 30
0.0
 11
183.2382069603249
 21
125.0756058790839
 31
0.0
  0
LINE
  5
191
330
E3
100
AcDbEntity
  8
0
  6
Continuous
100
AcDbLine
 10
183.2382069603249
 20
125.0756058790839
 30
0.0
 11
183.2010521453548
 21
125.0635125269933
 31
0.0
  0
LINE
  5
192
330
E3
100
AcDbEntity
  8
0
  6
Continuous
100
AcDbLine
 10
183.2010521453548
 20
125.0635125269933
 30
0.0
 11
183.1657702111875
 21
125.0517518822709
 31
0.0
  0
LINE
  5
193
330
E3
100
AcDbEntity
  8
0
  6
Continuous
100
AcDbLine
 10
183.1657702111875
 20
125.0517518822709
 30
0.0
 11
183.1326377909159
 21
125.0403688043371
 31
0.0
  0
LINE
  5
194
330
E3
100
AcDbEntity
  8
0
  6
Continuous
100
AcDbLine
 10
183.1326377909159
 20
125.0403688043371
 30
0.0
 11
183.1019128262072
 21
125.0294118908974
 31
0.0
  0
LINE
  5
195
330
E3
100
AcDbEntity
  8
0
  6
Continuous
100
AcDbLine
 10
183.1019128262072
 20
125.0294118908974
 30
0.0
 11
183.0738420438739
 21
125.0189185248021
 31
0.0
  0
LINE
  5
196
330
E3
100
AcDbEntity
  8
0
  6
Continuous
100
AcDbLine
 10
183.0738420438739
 20
125.0189185248021
 30
0.0
 11
183.048638526163
 21
125.0089335654716
 31
0.0
  0
LINE
  5
197
330
E3
100
AcDbEntity
  8
0
  6
Continuous
100
AcDbLine
 10
183.048638526163
 20
125.0089335654716
 30
0.0
 11
183.0265041404664
 21
124.9994906574714
 31
0.0
  0
LINE
  5
198
330
E3
100
AcDbEntity
  8
0
  6
Continuous
100
AcDbLine
 10
183.0265041404664
 20
124.9994906574714
 30
0.0
 11
183.0076183244659
 21
124.9906197070816
 31
0.0
  0
LINE
  5
199
330
E3
100
AcDbEntity
  8
0
  6
Continuous
100
AcDbLine
 10
183.0076183244659
 20
124.9906197070816
 30
0.0
 11
182.9921268712779
 21
124.9823506205826
 31
0.0
  0
LINE
  5
19A
330
E3
100
AcDbEntity
  8
0
  6
Continuous
100
AcDbLine
 10
182.9921268712779
 20
124.9823506205826
 30
0.0
 11
182.9801568825934
 21
124.9746983511144
 31
0.0
  0
LINE
  5
19B
330
E3
100
AcDbEntity
  8
0
  6
Continuous
100
AcDbLine
 10
182.9801568825934
 20
124.9746983511144
 30
0.0
 11
182.9718055538236
 21
124.9676853283874
 31
0.0
  0
LINE
  5
19C
330
E3
100
AcDbEntity
  8
0
  6
Continuous
100
AcDbLine
 10
182.9718055538236
 20
124.9676853283874
 30
0.0
 11
182.9671464692186
 21
124.961322815985
 31
0.0
  0
LINE
  5
19D
330
E3
100
AcDbEntity
  8
0
  6
Continuous
100
AcDbLine
 10
182.9671464692186
 20
124.961322815985
 30
0.0
 11
182.9662202089041
 21
124.9556189691126
 31
0.0
  0
LINE
  5
19E
330
E3
100
AcDbEntity
  8
0
  6
Continuous
100
AcDbLine
 10
183.9851374253866
 20
124.9358227667235
 30
0.0
 11
183.9842111650721
 21
124.9301189198511
 31
0.0
  0
LINE
  5
19F
330
E3
100
AcDbEntity
  8
0
  6
Continuous
100
AcDbLine
 10
183.9842111650721
 20
124.9301189198511
 30
0.0
 11
183.9795516742698
 21
124.9237568037184
 31
0.0
  0
LINE
  5
1A0
330
E3
100
AcDbEntity
  8
0
  6
Continuous
100
AcDbLine
 10
183.9795516742698
 20
124.9237568037184
 30
0.0
 11
183.9712024135609
 21
124.9167437182055
 31
0.0
  0
LINE
  5
1A1
330
E3
100
AcDbEntity
  8
0
  6
Continuous
100
AcDbLine
 10
183.9712024135609
 20
124.9167437182055
 30
0.0
 11
183.9592324248765
 21
124.9090914487373
 31
0.0
  0
LINE
  5
1A2
330
E3
100
AcDbEntity
  8
0
  6
Continuous
100
AcDbLine
 10
183.9592324248765
 20
124.9090914487373
 30
0.0
 11
183.9437409716884
 21
124.9008223622383
 31
0.0
  0
LINE
  5
1A3
330
E3
100
AcDbEntity
  8
0
  6
Continuous
100
AcDbLine
 10
183.9437409716884
 20
124.9008223622383
 30
0.0
 11
183.9248514174029
 21
124.8919514118485
 31
0.0
  0
LINE
  5
1A4
330
E3
100
AcDbEntity
  8
0
  6
Continuous
100
AcDbLine
 10
183.9248514174029
 20
124.8919514118485
 30
0.0
 11
183.9027207699914
 21
124.8825047655632
 31
0.0
  0
LINE
  5
1A5
330
E3
100
AcDbEntity
  8
0
  6
Continuous
100
AcDbLine
 10
183.9027207699914
 20
124.8825047655632
 30
0.0
 11
183.8775172522805
 21
124.8725235445178
 31
0.0
  0
LINE
  5
1A6
330
E3
100
AcDbEntity
  8
0
  6
Continuous
100
AcDbLine
 10
183.8775172522805
 20
124.8725235445178
 30
0.0
 11
183.8494427316621
 21
124.8620301784225
 31
0.0
  0
LINE
  5
1A7
330
E3
100
AcDbEntity
  8
0
  6
Continuous
100
AcDbLine
 10
183.8494427316621
 20
124.8620301784225
 30
0.0
 11
183.8187177669535
 21
124.8510732649828
 31
0.0
  0
LINE
  5
1A8
330
E3
100
AcDbEntity
  8
0
  6
Continuous
100
AcDbLine
 10
183.8187177669535
 20
124.8510732649828
 30
0.0
 11
183.7855853466818
 21
124.839690187049
 31
0.0
  0
LINE
  5
1A9
330
E3
100
AcDbEntity
  8
0
  6
Continuous
100
AcDbLine
 10
183.7855853466818
 20
124.839690187049
 30
0.0
 11
183.7503071507996
 21
124.8279295423266
 31
0.0
  0
LINE
  5
1AA
330
E3
100
AcDbEntity
  8
0
  6
Continuous
100
AcDbLine
 10
183.7503071507996
 20
124.8279295423266
 30
0.0
 11
183.7131485975444
 21
124.815836190236
 31
0.0
  0
LINE
  5
1AB
330
E3
100
AcDbEntity
  8
0
  6
Continuous
100
AcDbLine
 10
183.7131485975444
 20
124.815836190236
 30
0.0
 11
183.6744087497191
 21
124.8034662050528
 31
0.0
  0
LINE
  5
1AC
330
E3
100
AcDbEntity
  8
0
  6
Continuous
100
AcDbLine
 10
183.6744087497191
 20
124.8034662050528
 30
0.0
 11
183.6343904084116
 21
124.7908681844823
 31
0.0
  0
LINE
  5
1AD
330
E3
100
AcDbEntity
  8
0
  6
Continuous
100
AcDbLine
 10
183.6343904084116
 20
124.7908681844823
 30
0.0
 11
183.5934001129949
 21
124.7781019410853
 31
0.0
  0
LINE
  5
1AE
330
E3
100
AcDbEntity
  8
0
  6
Continuous
100
AcDbLine
 10
183.5934001129949
 20
124.7781019410853
 30
0.0
 11
183.5517556176968
 21
124.7652160725672
 31
0.0
  0
LINE
  5
1AF
330
E3
100
AcDbEntity
  8
0
  6
Continuous
100
AcDbLine
 10
183.5517556176968
 20
124.7652160725672
 30
0.0
 11
183.5097896298857
 21
124.7522778680585
 31
0.0
  0
LINE
  5
1B0
330
E3
100
AcDbEntity
  8
0
  6
Continuous
100
AcDbLine
 10
183.5097896298857
 20
124.7522778680585
 30
0.0
 11
183.4678199037895
 21
124.7393359252648
 31
0.0
  0
LINE
  5
1B1
330
E3
100
AcDbEntity
  8
0
  6
Continuous
100
AcDbLine
 10
183.4678199037895
 20
124.7393359252648
 30
0.0
 11
183.4261791467765
 21
124.7264537950317
 31
0.0
  0
LINE
  5
1B2
330
E3
100
AcDbEntity
  8
0
  6
Continuous
100
AcDbLine
 10
183.4261791467765
 20
124.7264537950317
 30
0.0
 11
183.3851888513598
 21
124.7136838133496
 31
0.0
  0
LINE
  5
1B3
330
E3
100
AcDbEntity
  8
0
  6
Continuous
100
AcDbLine
 10
183.3851888513598
 20
124.7136838133496
 30
0.0
 11
183.3451667717672
 21
124.7010857927792
 31
0.0
  0
LINE
  5
1B4
330
E3
100
AcDbEntity
  8
0
  6
Continuous
100
AcDbLine
 10
183.3451667717672
 20
124.7010857927792
 30
0.0
 11
183.306426923942
 21
124.688715807596
 31
0.0
  0
LINE
  5
1B5
330
E3
100
AcDbEntity
  8
0
  6
Continuous
100
AcDbLine
 10
183.306426923942
 20
124.688715807596
 30
0.0
 11
183.2692721089718
 21
124.6766224555054
 31
0.0
  0
LINE
  5
1B6
330
E3
100
AcDbEntity
  8
0
  6
Continuous
100
AcDbLine
 10
183.2692721089718
 20
124.6766224555054
 30
0.0
 11
183.2339901748046
 21
124.664861810783
 31
0.0
  0
LINE
  5
1B7
330
E3
100
AcDbEntity
  8
0
  6
Continuous
100
AcDbLine
 10
183.2339901748046
 20
124.664861810783
 30
0.0
 11
183.2008577545329
 21
124.6534787328492
 31
0.0
  0
LINE
  5
1B8
330
E3
100
AcDbEntity
  8
0
  6
Continuous
100
AcDbLine
 10
183.2008577545329
 20
124.6534787328492
 30
0.0
 11
183.1701327898242
 21
124.6425218194095
 31
0.0
  0
LINE
  5
1B9
330
E3
100
AcDbEntity
  8
0
  6
Continuous
100
AcDbLine
 10
183.1701327898242
 20
124.6425218194095
 30
0.0
 11
183.1420582692059
 21
124.6320321915992
 31
0.0
  0
LINE
  5
1BA
330
E3
100
AcDbEntity
  8
0
  6
Continuous
100
AcDbLine
 10
183.1420582692059
 20
124.6320321915992
 30
0.0
 11
183.11685848978
 21
124.6220472322687
 31
0.0
  0
LINE
  5
1BB
330
E3
100
AcDbEntity
  8
0
  6
Continuous
100
AcDbLine
 10
183.11685848978
 20
124.6220472322687
 30
0.0
 11
183.0947241040835
 21
124.6126043242685
 31
0.0
  0
LINE
  5
1BC
330
E3
100
AcDbEntity
  8
0
  6
Continuous
100
AcDbLine
 10
183.0947241040835
 20
124.6126043242685
 30
0.0
 11
183.0758345497979
 21
124.6037333738787
 31
0.0
  0
LINE
  5
1BD
330
E3
100
AcDbEntity
  8
0
  6
Continuous
100
AcDbLine
 10
183.0758345497979
 20
124.6037333738787
 30
0.0
 11
183.0603430966099
 21
124.5954605490946
 31
0.0
  0
LINE
  5
1BE
330
E3
100
AcDbEntity
  8
0
  6
Continuous
100
AcDbLine
 10
183.0603430966099
 20
124.5954605490946
 30
0.0
 11
183.0483731079255
 21
124.5878082796265
 31
0.0
  0
LINE
  5
1BF
330
E3
100
AcDbEntity
  8
0
  6
Continuous
100
AcDbLine
 10
183.0483731079255
 20
124.5878082796265
 30
0.0
 11
183.0400255174407
 21
124.5807952568994
 31
0.0
  0
LINE
  5
1C0
330
E3
100
AcDbEntity
  8
0
  6
Continuous
100
AcDbLine
 10
183.0400255174407
 20
124.5807952568994
 30
0.0
 11
183.0353653961592
 21
124.5744340558731
 31
0.0
  0
LINE
  5
1C1
330
E3
100
AcDbEntity
  8
0
  6
Continuous
100
AcDbLine
 10
183.0353653961592
 20
124.5744340558731
 30
0.0
 11
183.0344391358447
 21
124.5687302090006
 31
0.0
  0
LINE
  5
1C2
330
E3
100
AcDbEntity
  8
0
  6
Continuous
100
AcDbLine
 10
184.0533563523272
 20
124.5489340066116
 30
0.0
 11
184.0524300920127
 21
124.5432301597391
 31
0.0
  0
LINE
  5
1C3
330
E3
100
AcDbEntity
  8
0
  6
Continuous
100
AcDbLine
 10
184.0524300920127
 20
124.5432301597391
 30
0.0
 11
184.0477706012104
 21
124.5368680436064
 31
0.0
  0
LINE
  5
1C4
330
E3
100
AcDbEntity
  8
0
  6
Continuous
100
AcDbLine
 10
184.0477706012104
 20
124.5368680436064
 30
0.0
 11
184.039422377178
 21
124.5298536467176
 31
0.0
  0
LINE
  5
1C5
330
E3
100
AcDbEntity
  8
0
  6
Continuous
100
AcDbLine
 10
184.039422377178
 20
124.5298536467176
 30
0.0
 11
184.0274523884935
 21
124.5222051155344
 31
0.0
  0
LINE
  5
1C6
330
E3
100
AcDbEntity
  8
0
  6
Continuous
100
AcDbLine
 10
184.0274523884935
 20
124.5222051155344
 30
0.0
 11
184.0119609353055
 21
124.5139322907504
 31
0.0
  0
LINE
  5
1C7
330
E3
100
AcDbEntity
  8
0
  6
Continuous
100
AcDbLine
 10
184.0119609353055
 20
124.5139322907504
 30
0.0
 11
183.9930713810199
 21
124.5050613403606
 31
0.0
  0
LINE
  5
1C8
330
E3
100
AcDbEntity
  8
0
  6
Continuous
100
AcDbLine
 10
183.9930713810199
 20
124.5050613403606
 30
0.0
 11
183.9709369953234
 21
124.4956184323603
 31
0.0
  0
LINE
  5
1C9
330
E3
100
AcDbEntity
  8
0
  6
Continuous
100
AcDbLine
 10
183.9709369953234
 20
124.4956184323603
 30
0.0
 11
183.9457372158975
 21
124.4856334730299
 31
0.0
  0
LINE
  5
1CA
330
E3
100
AcDbEntity
  8
0
  6
Continuous
100
AcDbLine
 10
183.9457372158975
 20
124.4856334730299
 30
0.0
 11
183.9176626952792
 21
124.4751438452196
 31
0.0
  0
LINE
  5
1CB
330
E3
100
AcDbEntity
  8
0
  6
Continuous
100
AcDbLine
 10
183.9176626952792
 20
124.4751438452196
 30
0.0
 11
183.8869377305705
 21
124.4641831934949
 31
0.0
  0
LINE
  5
1CC
330
E3
100
AcDbEntity
  8
0
  6
Continuous
100
AcDbLine
 10
183.8869377305705
 20
124.4641831934949
 30
0.0
 11
183.8538053102988
 21
124.4528038538461
 31
0.0
  0
LINE
  5
1CD
330
E3
100
AcDbEntity
  8
0
  6
Continuous
100
AcDbLine
 10
183.8538053102988
 20
124.4528038538461
 30
0.0
 11
183.8185233761316
 21
124.4410394708387
 31
0.0
  0
LINE
  5
1CE
330
E3
100
AcDbEntity
  8
0
  6
Continuous
100
AcDbLine
 10
183.8185233761316
 20
124.4410394708387
 30
0.0
 11
183.7813685611615
 21
124.4289498570331
 31
0.0
  0
LINE
  5
1CF
330
E3
100
AcDbEntity
  8
0
  6
Continuous
100
AcDbLine
 10
183.7813685611615
 20
124.4289498570331
 30
0.0
 11
183.7426287133362
 21
124.4165761335648
 31
0.0
  0
LINE
  5
1D0
330
E3
100
AcDbEntity
  8
0
  6
Continuous
100
AcDbLine
 10
183.7426287133362
 20
124.4165761335648
 30
0.0
 11
183.7026066337437
 21
124.4039781129944
 31
0.0
  0
LINE
  5
1D1
330
E3
100
AcDbEntity
  8
0
  6
Continuous
100
AcDbLine
 10
183.7026066337437
 20
124.4039781129944
 30
0.0
 11
183.6616163383269
 21
124.3912118695974
 31
0.0
  0
LINE
  5
1D2
330
E3
100
AcDbEntity
  8
0
  6
Continuous
100
AcDbLine
 10
183.6616163383269
 20
124.3912118695974
 30
0.0
 11
183.6199755813138
 21
124.3783297393643
 31
0.0
  0
LINE
  5
1D3
330
E3
100
AcDbEntity
  8
0
  6
Continuous
100
AcDbLine
 10
183.6199755813138
 20
124.3783297393643
 30
0.0
 11
183.5780058552177
 21
124.3653877965706
 31
0.0
  0
LINE
  5
1D4
330
E3
100
AcDbEntity
  8
0
  6
Continuous
100
AcDbLine
 10
183.5780058552177
 20
124.3653877965706
 30
0.0
 11
183.5360398674066
 21
124.3524458537769
 31
0.0
  0
LINE
  5
1D5
330
E3
100
AcDbEntity
  8
0
  6
Continuous
100
AcDbLine
 10
183.5360398674066
 20
124.3524458537769
 30
0.0
 11
183.4943953721086
 21
124.3395637235437
 31
0.0
  0
LINE
  5
1D6
330
E3
100
AcDbEntity
  8
0
  6
Continuous
100
AcDbLine
 10
183.4943953721086
 20
124.3395637235437
 30
0.0
 11
183.4534050766918
 21
124.3267974801467
 31
0.0
  0
LINE
  5
1D7
330
E3
100
AcDbEntity
  8
0
  6
Continuous
100
AcDbLine
 10
183.4534050766918
 20
124.3267974801467
 30
0.0
 11
183.4133867353843
 21
124.3141994595763
 31
0.0
  0
LINE
  5
1D8
330
E3
100
AcDbEntity
  8
0
  6
Continuous
100
AcDbLine
 10
183.4133867353843
 20
124.3141994595763
 30
0.0
 11
183.374646887559
 21
124.3018257361081
 31
0.0
  0
LINE
  5
1D9
330
E3
100
AcDbEntity
  8
0
  6
Continuous
100
AcDbLine
 10
183.374646887559
 20
124.3018257361081
 30
0.0
 11
183.3374883343038
 21
124.2897361223025
 31
0.0
  0
LINE
  5
1DA
330
E3
100
AcDbEntity
  8
0
  6
Continuous
100
AcDbLine
 10
183.3374883343038
 20
124.2897361223025
 30
0.0
 11
183.3022101384217
 21
124.2779717392951
 31
0.0
  0
LINE
  5
1DB
330
E3
100
AcDbEntity
  8
0
  6
Continuous
100
AcDbLine
 10
183.3022101384217
 20
124.2779717392951
 30
0.0
 11
183.26907771815
 21
124.2665923996463
 31
0.0
  0
LINE
  5
1DC
330
E3
100
AcDbEntity
  8
0
  6
Continuous
100
AcDbLine
 10
183.26907771815
 20
124.2665923996463
 30
0.0
 11
183.2383527534413
 21
124.2556317479215
 31
0.0
  0
LINE
  5
1DD
330
E3
100
AcDbEntity
  8
0
  6
Continuous
100
AcDbLine
 10
183.2383527534413
 20
124.2556317479215
 30
0.0
 11
183.210278232823
 21
124.2451421201113
 31
0.0
  0
LINE
  5
1DE
330
E3
100
AcDbEntity
  8
0
  6
Continuous
100
AcDbLine
 10
183.210278232823
 20
124.2451421201113
 30
0.0
 11
183.1850747151121
 21
124.2351571607808
 31
0.0
  0
LINE
  5
1DF
330
E3
100
AcDbEntity
  8
0
  6
Continuous
100
AcDbLine
 10
183.1850747151121
 20
124.2351571607808
 30
0.0
 11
183.1629440677005
 21
124.2257142527806
 31
0.0
  0
LINE
  5
1E0
330
E3
100
AcDbEntity
  8
0
  6
Continuous
100
AcDbLine
 10
183.1629440677005
 20
124.2257142527806
 30
0.0
 11
183.144054513415
 21
124.2168433023908
 31
0.0
  0
LINE
  5
1E1
330
E3
100
AcDbEntity
  8
0
  6
Continuous
100
AcDbLine
 10
183.144054513415
 20
124.2168433023908
 30
0.0
 11
183.1285630602269
 21
124.2085704776067
 31
0.0
  0
LINE
  5
1E2
330
E3
100
AcDbEntity
  8
0
  6
Continuous
100
AcDbLine
 10
183.1285630602269
 20
124.2085704776067
 30
0.0
 11
183.1165930715425
 21
124.2009219464236
 31
0.0
  0
LINE
  5
1E3
330
E3
100
AcDbEntity
  8
0
  6
Continuous
100
AcDbLine
 10
183.1165930715425
 20
124.2009219464236
 30
0.0
 11
183.1082454810577
 21
124.1939089236966
 31
0.0
  0
LINE
  5
1E4
330
E3
100
AcDbEntity
  8
0
  6
Continuous
100
AcDbLine
 10
183.1082454810577
 20
124.1939089236966
 30
0.0
 11
183.1035843230998
 21
124.1875452957612
 31
0.0
  0
LINE
  5
1E5
330
E3
100
AcDbEntity
  8
0
  6
Continuous
100
AcDbLine
 10
183.1035843230998
 20
124.1875452957612
 30
0.0
 11
183.1026580627853
 21
124.1818414488887
 31
0.0
  0
LINE
  5
1E6
330
E3
100
AcDbEntity
  8
0
  6
Continuous
100
AcDbLine
 10
184.1215752792678
 20
124.1620452464996
 30
0.0
 11
184.1206490189533
 21
124.1563413996272
 31
0.0
  0
LINE
  5
1E7
330
E3
100
AcDbEntity
  8
0
  6
Continuous
100
AcDbLine
 10
184.1206490189533
 20
124.1563413996272
 30
0.0
 11
184.1159895281509
 21
124.1499792834945
 31
0.0
  0
LINE
  5
1E8
330
E3
100
AcDbEntity
  8
0
  6
Continuous
100
AcDbLine
 10
184.1159895281509
 20
124.1499792834945
 30
0.0
 11
184.10763860251
 21
124.1429673135147
 31
0.0
  0
LINE
  5
1E9
330
E3
100
AcDbEntity
  8
0
  6
Continuous
100
AcDbLine
 10
184.10763860251
 20
124.1429673135147
 30
0.0
 11
184.0956686138256
 21
124.1353150440465
 31
0.0
  0
LINE
  5
1EA
330
E3
100
AcDbEntity
  8
0
  6
Continuous
100
AcDbLine
 10
184.0956686138256
 20
124.1353150440465
 30
0.0
 11
184.0801771606375
 21
124.1270422192625
 31
0.0
  0
LINE
  5
1EB
330
E3
100
AcDbEntity
  8
0
  6
Continuous
100
AcDbLine
 10
184.0801771606375
 20
124.1270422192625
 30
0.0
 11
184.061291344637
 21
124.1181712688727
 31
0.0
  0
LINE
  5
1EC
330
E3
100
AcDbEntity
  8
0
  6
Continuous
100
AcDbLine
 10
184.061291344637
 20
124.1181712688727
 30
0.0
 11
184.0391569589404
 21
124.1087283608724
 31
0.0
  0
LINE
  5
1ED
330
E3
100
AcDbEntity
  8
0
  6
Continuous
100
AcDbLine
 10
184.0391569589404
 20
124.1087283608724
 30
0.0
 11
184.0139534412295
 21
124.098743401542
 31
0.0
  0
LINE
  5
1EE
330
E3
100
AcDbEntity
  8
0
  6
Continuous
100
AcDbLine
 10
184.0139534412295
 20
124.098743401542
 30
0.0
 11
183.9858826588962
 21
124.0882537737317
 31
0.0
  0
LINE
  5
1EF
330
E3
100
AcDbEntity
  8
0
  6
Continuous
100
AcDbLine
 10
183.9858826588962
 20
124.0882537737317
 30
0.0
 11
183.9551576941876
 21
124.077296860292
 31
0.0
  0
LINE
  5
1F0
330
E3
100
AcDbEntity
  8
0
  6
Continuous
100
AcDbLine
 10
183.9551576941876
 20
124.077296860292
 30
0.0
 11
183.9220252739159
 21
124.0659137823582
 31
0.0
  0
LINE
  5
1F1
330
E3
100
AcDbEntity
  8
0
  6
Continuous
100
AcDbLine
 10
183.9220252739159
 20
124.0659137823582
 30
0.0
 11
183.8867433397486
 21
124.0541531376358
 31
0.0
  0
LINE
  5
1F2
330
E3
100
AcDbEntity
  8
0
  6
Continuous
100
AcDbLine
 10
183.8867433397486
 20
124.0541531376358
 30
0.0
 11
183.8495885247785
 21
124.0420597855452
 31
0.0
  0
LINE
  5
1F3
330
E3
100
AcDbEntity
  8
0
  6
Continuous
100
AcDbLine
 10
183.8495885247785
 20
124.0420597855452
 30
0.0
 11
183.8108486769532
 21
124.029689800362
 31
0.0
  0
LINE
  5
1F4
330
E3
100
AcDbEntity
  8
0
  6
Continuous
100
AcDbLine
 10
183.8108486769532
 20
124.029689800362
 30
0.0
 11
183.7708265973607
 21
124.0170917797915
 31
0.0
  0
LINE
  5
1F5
330
E3
100
AcDbEntity
  8
0
  6
Continuous
100
AcDbLine
 10
183.7708265973607
 20
124.0170917797915
 30
0.0
 11
183.7298363019439
 21
124.0043217981095
 31
0.0
  0
LINE
  5
1F6
330
E3
100
AcDbEntity
  8
0
  6
Continuous
100
AcDbLine
 10
183.7298363019439
 20
124.0043217981095
 30
0.0
 11
183.6881955449309
 21
123.9914396678764
 31
0.0
  0
LINE
  5
1F7
330
E3
100
AcDbEntity
  8
0
  6
Continuous
100
AcDbLine
 10
183.6881955449309
 20
123.9914396678764
 30
0.0
 11
183.6462258188348
 21
123.9784977250827
 31
0.0
  0
LINE
  5
1F8
330
E3
100
AcDbEntity
  8
0
  6
Continuous
100
AcDbLine
 10
183.6462258188348
 20
123.9784977250827
 30
0.0
 11
183.6042560927386
 21
123.965559520574
 31
0.0
  0
LINE
  5
1F9
330
E3
100
AcDbEntity
  8
0
  6
Continuous
100
AcDbLine
 10
183.6042560927386
 20
123.965559520574
 30
0.0
 11
183.5626153357256
 21
123.9526736520558
 31
0.0
  0
LINE
  5
1FA
330
E3
100
AcDbEntity
  8
0
  6
Continuous
100
AcDbLine
 10
183.5626153357256
 20
123.9526736520558
 30
0.0
 11
183.5216250403088
 21
123.9399074086588
 31
0.0
  0
LINE
  5
1FB
330
E3
100
AcDbEntity
  8
0
  6
Continuous
100
AcDbLine
 10
183.5216250403088
 20
123.9399074086588
 30
0.0
 11
183.4816029607163
 21
123.9273093880884
 31
0.0
  0
LINE
  5
1FC
330
E3
100
AcDbEntity
  8
0
  6
Continuous
100
AcDbLine
 10
183.4816029607163
 20
123.9273093880884
 30
0.0
 11
183.442863112891
 21
123.9149394029052
 31
0.0
  0
LINE
  5
1FD
330
E3
100
AcDbEntity
  8
0
  6
Continuous
100
AcDbLine
 10
183.442863112891
 20
123.9149394029052
 30
0.0
 11
183.4057082979209
 21
123.9028460508146
 31
0.0
  0
LINE
  5
1FE
330
E3
100
AcDbEntity
  8
0
  6
Continuous
100
AcDbLine
 10
183.4057082979209
 20
123.9028460508146
 30
0.0
 11
183.3704263637536
 21
123.8910854060922
 31
0.0
  0
LINE
  5
1FF
330
E3
100
AcDbEntity
  8
0
  6
Continuous
100
AcDbLine
 10
183.3704263637536
 20
123.8910854060922
 30
0.0
 11
183.337293943482
 21
123.8797023281584
 31
0.0
  0
LINE
  5
200
330
E3
100
AcDbEntity
  8
0
  6
Continuous
100
AcDbLine
 10
183.337293943482
 20
123.8797023281584
 30
0.0
 11
183.3065727170583
 21
123.8687454147186
 31
0.0
  0
LINE
  5
201
330
E3
100
AcDbEntity
  8
0
  6
Continuous
100
AcDbLine
 10
183.3065727170583
 20
123.8687454147186
 30
0.0
 11
183.27849819644
 21
123.8582520486234
 31
0.0
  0
LINE
  5
202
330
E3
100
AcDbEntity
  8
0
  6
Continuous
100
AcDbLine
 10
183.27849819644
 20
123.8582520486234
 30
0.0
 11
183.2532946787291
 21
123.8482670892929
 31
0.0
  0
LINE
  5
203
330
E3
100
AcDbEntity
  8
0
  6
Continuous
100
AcDbLine
 10
183.2532946787291
 20
123.8482670892929
 30
0.0
 11
183.2311602930326
 21
123.8388241812927
 31
0.0
  0
LINE
  5
204
330
E3
100
AcDbEntity
  8
0
  6
Continuous
100
AcDbLine
 10
183.2311602930326
 20
123.8388241812927
 30
0.0
 11
183.212274477032
 21
123.8299532309029
 31
0.0
  0
LINE
  5
205
330
E3
100
AcDbEntity
  8
0
  6
Continuous
100
AcDbLine
 10
183.212274477032
 20
123.8299532309029
 30
0.0
 11
183.196783023844
 21
123.8216841444038
 31
0.0
  0
LINE
  5
206
330
E3
100
AcDbEntity
  8
0
  6
Continuous
100
AcDbLine
 10
183.196783023844
 20
123.8216841444038
 30
0.0
 11
183.1848130351596
 21
123.8140318749357
 31
0.0
  0
LINE
  5
207
330
E3
100
AcDbEntity
  8
0
  6
Continuous
100
AcDbLine
 10
183.1848130351596
 20
123.8140318749357
 30
0.0
 11
183.1764617063897
 21
123.8070188522087
 31
0.0
  0
LINE
  5
208
330
E3
100
AcDbEntity
  8
0
  6
Continuous
100
AcDbLine
 10
183.1764617063897
 20
123.8070188522087
 30
0.0
 11
183.1718032500404
 21
123.8006565356492
 31
0.0
  0
LINE
  5
209
330
E3
100
AcDbEntity
  8
0
  6
Continuous
100
AcDbLine
 10
183.1718032500404
 20
123.8006565356492
 30
0.0
 11
183.1708769897259
 21
123.7949526887768
 31
0.0
  0
LINE
  5
20A
330
E3
100
AcDbEntity
  8
0
  6
Continuous
100
AcDbLine
 10
184.1897942062084
 20
123.7751564863877
 30
0.0
 11
184.1888679458939
 21
123.7694526395152
 31
0.0
  0
LINE
  5
20B
330
E3
100
AcDbEntity
  8
0
  6
Continuous
100
AcDbLine
 10
184.1888679458939
 20
123.7694526395152
 30
0.0
 11
184.1842084550916
 21
123.7630905233826
 31
0.0
  0
LINE
  5
20C
330
E3
100
AcDbEntity
  8
0
  6
Continuous
100
AcDbLine
 10
184.1842084550916
 20
123.7630905233826
 30
0.0
 11
184.175858566127
 21
123.7560772420267
 31
0.0
  0
LINE
  5
20D
330
E3
100
AcDbEntity
  8
0
  6
Continuous
100
AcDbLine
 10
184.175858566127
 20
123.7560772420267
 30
0.0
 11
184.1638885774426
 21
123.7484249725586
 31
0.0
  0
LINE
  5
20E
330
E3
100
AcDbEntity
  8
0
  6
Continuous
100
AcDbLine
 10
184.1638885774426
 20
123.7484249725586
 30
0.0
 11
184.1483971242546
 21
123.7401558860596
 31
0.0
  0
LINE
  5
20F
330
E3
100
AcDbEntity
  8
0
  6
Continuous
100
AcDbLine
 10
184.1483971242546
 20
123.7401558860596
 30
0.0
 11
184.129511308254
 21
123.7312849356698
 31
0.0
  0
LINE
  5
210
330
E3
100
AcDbEntity
  8
0
  6
Continuous
100
AcDbLine
 10
184.129511308254
 20
123.7312849356698
 30
0.0
 11
184.1073769225575
 21
123.7218420276695
 31
0.0
  0
LINE
  5
211
330
E3
100
AcDbEntity
  8
0
  6
Continuous
100
AcDbLine
 10
184.1073769225575
 20
123.7218420276695
 30
0.0
 11
184.0821734048466
 21
123.7118570683391
 31
0.0
  0
LINE
  5
212
330
E3
100
AcDbEntity
  8
0
  6
Continuous
100
AcDbLine
 10
184.0821734048466
 20
123.7118570683391
 30
0.0
 11
184.0540988842282
 21
123.7013637022438
 31
0.0
  0
LINE
  5
213
330
E3
100
AcDbEntity
  8
0
  6
Continuous
100
AcDbLine
 10
184.0540988842282
 20
123.7013637022438
 30
0.0
 11
184.0233776578046
 21
123.6904067888041
 31
0.0
  0
LINE
  5
214
330
E3
100
AcDbEntity
  8
0
  6
Continuous
100
AcDbLine
 10
184.0233776578046
 20
123.6904067888041
 30
0.0
 11
183.9902452375329
 21
123.6790237108703
 31
0.0
  0
LINE
  5
215
330
E3
100
AcDbEntity
  8
0
  6
Continuous
100
AcDbLine
 10
183.9902452375329
 20
123.6790237108703
 30
0.0
 11
183.9549633033657
 21
123.6672630661479
 31
0.0
  0
LINE
  5
216
330
E3
100
AcDbEntity
  8
0
  6
Continuous
100
AcDbLine
 10
183.9549633033657
 20
123.6672630661479
 30
0.0
 11
183.9178047501105
 21
123.6551697140573
 31
0.0
  0
LINE
  5
217
330
E3
100
AcDbEntity
  8
0
  6
Continuous
100
AcDbLine
 10
183.9178047501105
 20
123.6551697140573
 30
0.0
 11
183.8790686405703
 21
123.6427997288741
 31
0.0
  0
LINE
  5
218
330
E3
100
AcDbEntity
  8
0
  6
Continuous
100
AcDbLine
 10
183.8790686405703
 20
123.6427997288741
 30
0.0
 11
183.8390465609778
 21
123.6302017083036
 31
0.0
  0
LINE
  5
219
330
E3
100
AcDbEntity
  8
0
  6
Continuous
100
AcDbLine
 10
183.8390465609778
 20
123.6302017083036
 30
0.0
 11
183.798056265561
 21
123.6174354649066
 31
0.0
  0
LINE
  5
21A
330
E3
100
AcDbEntity
  8
0
  6
Continuous
100
AcDbLine
 10
183.798056265561
 20
123.6174354649066
 30
0.0
 11
183.756411770263
 21
123.6045495963885
 31
0.0
  0
LINE
  5
21B
330
E3
100
AcDbEntity
  8
0
  6
Continuous
100
AcDbLine
 10
183.756411770263
 20
123.6045495963885
 30
0.0
 11
183.7144457824518
 21
123.5916113918798
 31
0.0
  0
LINE
  5
21C
330
E3
100
AcDbEntity
  8
0
  6
Continuous
100
AcDbLine
 10
183.7144457824518
 20
123.5916113918798
 30
0.0
 11
183.6724760563557
 21
123.5786694490861
 31
0.0
  0
LINE
  5
21D
330
E3
100
AcDbEntity
  8
0
  6
Continuous
100
AcDbLine
 10
183.6724760563557
 20
123.5786694490861
 30
0.0
 11
183.6308352993427
 21
123.565787318853
 31
0.0
  0
LINE
  5
21E
330
E3
100
AcDbEntity
  8
0
  6
Continuous
100
AcDbLine
 10
183.6308352993427
 20
123.565787318853
 30
0.0
 11
183.5898450039259
 21
123.5530173371709
 31
0.0
  0
LINE
  5
21F
330
E3
100
AcDbEntity
  8
0
  6
Continuous
100
AcDbLine
 10
183.5898450039259
 20
123.5530173371709
 30
0.0
 11
183.5498229243333
 21
123.5404193166005
 31
0.0
  0
LINE
  5
220
330
E3
100
AcDbEntity
  8
0
  6
Continuous
100
AcDbLine
 10
183.5498229243333
 20
123.5404193166005
 30
0.0
 11
183.5110830765081
 21
123.5280493314173
 31
0.0
  0
LINE
  5
221
330
E3
100
AcDbEntity
  8
0
  6
Continuous
100
AcDbLine
 10
183.5110830765081
 20
123.5280493314173
 30
0.0
 11
183.4739282615379
 21
123.5159559793267
 31
0.0
  0
LINE
  5
222
330
E3
100
AcDbEntity
  8
0
  6
Continuous
100
AcDbLine
 10
183.4739282615379
 20
123.5159559793267
 30
0.0
 11
183.4386463273707
 21
123.5041953346043
 31
0.0
  0
LINE
  5
223
330
E3
100
AcDbEntity
  8
0
  6
Continuous
100
AcDbLine
 10
183.4386463273707
 20
123.5041953346043
 30
0.0
 11
183.405513907099
 21
123.4928122566705
 31
0.0
  0
LINE
  5
224
330
E3
100
AcDbEntity
  8
0
  6
Continuous
100
AcDbLine
 10
183.405513907099
 20
123.4928122566705
 30
0.0
 11
183.3747889423904
 21
123.4818553432307
 31
0.0
  0
LINE
  5
225
330
E3
100
AcDbEntity
  8
0
  6
Continuous
100
AcDbLine
 10
183.3747889423904
 20
123.4818553432307
 30
0.0
 11
183.346718160057
 21
123.4713657154205
 31
0.0
  0
LINE
  5
226
330
E3
100
AcDbEntity
  8
0
  6
Continuous
100
AcDbLine
 10
183.346718160057
 20
123.4713657154205
 30
0.0
 11
183.3215146423462
 21
123.46138075609
 31
0.0
  0
LINE
  5
227
330
E3
100
AcDbEntity
  8
0
  6
Continuous
100
AcDbLine
 10
183.3215146423462
 20
123.46138075609
 30
0.0
 11
183.2993802566496
 21
123.4519378480898
 31
0.0
  0
LINE
  5
228
330
E3
100
AcDbEntity
  8
0
  6
Continuous
100
AcDbLine
 10
183.2993802566496
 20
123.4519378480898
 30
0.0
 11
183.2804944406491
 21
123.4430668977
 31
0.0
  0
LINE
  5
229
330
E3
100
AcDbEntity
  8
0
  6
Continuous
100
AcDbLine
 10
183.2804944406491
 20
123.4430668977
 30
0.0
 11
183.265002987461
 21
123.4347940729159
 31
0.0
  0
LINE
  5
22A
330
E3
100
AcDbEntity
  8
0
  6
Continuous
100
AcDbLine
 10
183.265002987461
 20
123.4347940729159
 30
0.0
 11
183.2530329987766
 21
123.4271418034478
 31
0.0
  0
LINE
  5
22B
330
E3
100
AcDbEntity
  8
0
  6
Continuous
100
AcDbLine
 10
183.2530329987766
 20
123.4271418034478
 30
0.0
 11
183.2446816700068
 21
123.4201287807207
 31
0.0
  0
LINE
  5
22C
330
E3
100
AcDbEntity
  8
0
  6
Continuous
100
AcDbLine
 10
183.2446816700068
 20
123.4201287807207
 30
0.0
 11
183.240022176981
 21
123.4137677755373
 31
0.0
  0
LINE
  5
22D
330
E3
100
AcDbEntity
  8
0
  6
Continuous
100
AcDbLine
 10
183.240022176981
 20
123.4137677755373
 30
0.0
 11
183.2390959166665
 21
123.4080639286648
 31
0.0
  0
LINE
  5
22E
330
E3
100
AcDbEntity
  8
0
  6
Continuous
100
AcDbLine
 10
184.2580131331489
 20
123.3882677262758
 30
0.0
 11
184.2570868728345
 21
123.3825638794033
 31
0.0
  0
LINE
  5
22F
330
E3
100
AcDbEntity
  8
0
  6
Continuous
100
AcDbLine
 10
184.2570868728345
 20
123.3825638794033
 30
0.0
 11
184.2524273820321
 21
123.3762017632706
 31
0.0
  0
LINE
  5
230
330
E3
100
AcDbEntity
  8
0
  6
Continuous
100
AcDbLine
 10
184.2524273820321
 20
123.3762017632706
 30
0.0
 11
184.2440785297441
 21
123.3691871705388
 31
0.0
  0
LINE
  5
231
330
E3
100
AcDbEntity
  8
0
  6
Continuous
100
AcDbLine
 10
184.2440785297441
 20
123.3691871705388
 30
0.0
 11
184.2321085410597
 21
123.3615386393557
 31
0.0
  0
LINE
  5
232
330
E3
100
AcDbEntity
  8
0
  6
Continuous
100
AcDbLine
 10
184.2321085410597
 20
123.3615386393557
 30
0.0
 11
184.2166170878716
 21
123.3532658145717
 31
0.0
  0
LINE
  5
233
330
E3
100
AcDbEntity
  8
0
  6
Continuous
100
AcDbLine
 10
184.2166170878716
 20
123.3532658145717
 30
0.0
 11
184.197727533586
 21
123.3443948641819
 31
0.0
  0
LINE
  5
234
330
E3
100
AcDbEntity
  8
0
  6
Continuous
100
AcDbLine
 10
184.197727533586
 20
123.3443948641819
 30
0.0
 11
184.1755968861746
 21
123.3349519561816
 31
0.0
  0
LINE
  5
235
330
E3
100
AcDbEntity
  8
0
  6
Continuous
100
AcDbLine
 10
184.1755968861746
 20
123.3349519561816
 30
0.0
 11
184.1503933684637
 21
123.3249669968512
 31
0.0
  0
LINE
  5
236
330
E3
100
AcDbEntity
  8
0
  6
Continuous
100
AcDbLine
 10
184.1503933684637
 20
123.3249669968512
 30
0.0
 11
184.1223188478453
 21
123.3144773690409
 31
0.0
  0
LINE
  5
237
330
E3
100
AcDbEntity
  8
0
  6
Continuous
100
AcDbLine
 10
184.1223188478453
 20
123.3144773690409
 30
0.0
 11
184.0915938831366
 21
123.3035167173162
 31
0.0
  0
LINE
  5
238
330
E3
100
AcDbEntity
  8
0
  6
Continuous
100
AcDbLine
 10
184.0915938831366
 20
123.3035167173162
 30
0.0
 11
184.058461462865
 21
123.2921373776674
 31
0.0
  0
LINE
  5
239
330
E3
100
AcDbEntity
  8
0
  6
Continuous
100
AcDbLine
 10
184.058461462865
 20
123.2921373776674
 30
0.0
 11
184.0231795286977
 21
123.28037299466
 31
0.0
  0
LINE
  5
23A
330
E3
100
AcDbEntity
  8
0
  6
Continuous
100
AcDbLine
 10
184.0231795286977
 20
123.28037299466
 30
0.0
 11
183.9860247137276
 21
123.2682833808544
 31
0.0
  0
LINE
  5
23B
330
E3
100
AcDbEntity
  8
0
  6
Continuous
100
AcDbLine
 10
183.9860247137276
 20
123.2682833808544
 30
0.0
 11
183.9472848659023
 21
123.2559096573861
 31
0.0
  0
LINE
  5
23C
330
E3
100
AcDbEntity
  8
0
  6
Continuous
100
AcDbLine
 10
183.9472848659023
 20
123.2559096573861
 30
0.0
 11
183.9072665245948
 21
123.2433153751008
 31
0.0
  0
LINE
  5
23D
330
E3
100
AcDbEntity
  8
0
  6
Continuous
100
AcDbLine
 10
183.9072665245948
 20
123.2433153751008
 30
0.0
 11
183.866272490893
 21
123.2305453934187
 31
0.0
  0
LINE
  5
23E
330
E3
100
AcDbEntity
  8
0
  6
Continuous
100
AcDbLine
 10
183.866272490893
 20
123.2305453934187
 30
0.0
 11
183.82463173388
 21
123.2176632631856
 31
0.0
  0
LINE
  5
23F
330
E3
100
AcDbEntity
  8
0
  6
Continuous
100
AcDbLine
 10
183.82463173388
 20
123.2176632631856
 30
0.0
 11
183.7826657460689
 21
123.2047213203919
 31
0.0
  0
LINE
  5
240
330
E3
100
AcDbEntity
  8
0
  6
Continuous
100
AcDbLine
 10
183.7826657460689
 20
123.2047213203919
 30
0.0
 11
183.7406960199727
 21
123.1917793775982
 31
0.0
  0
LINE
  5
241
330
E3
100
AcDbEntity
  8
0
  6
Continuous
100
AcDbLine
 10
183.7406960199727
 20
123.1917793775982
 30
0.0
 11
183.6990552629597
 21
123.178897247365
 31
0.0
  0
LINE
  5
242
330
E3
100
AcDbEntity
  8
0
  6
Continuous
100
AcDbLine
 10
183.6990552629597
 20
123.178897247365
 30
0.0
 11
183.6580612292579
 21
123.166131003968
 31
0.0
  0
LINE
  5
243
330
E3
100
AcDbEntity
  8
0
  6
Continuous
100
AcDbLine
 10
183.6580612292579
 20
123.166131003968
 30
0.0
 11
183.6180428879504
 21
123.1535329833976
 31
0.0
  0
LINE
  5
244
330
E3
100
AcDbEntity
  8
0
  6
Continuous
100
AcDbLine
 10
183.6180428879504
 20
123.1535329833976
 30
0.0
 11
183.5793030401251
 21
123.1411592599293
 31
0.0
  0
LINE
  5
245
330
E3
100
AcDbEntity
  8
0
  6
Continuous
100
AcDbLine
 10
183.5793030401251
 20
123.1411592599293
 30
0.0
 11
183.542148225155
 21
123.1290696461238
 31
0.0
  0
LINE
  5
246
330
E3
100
AcDbEntity
  8
0
  6
Continuous
100
AcDbLine
 10
183.542148225155
 20
123.1290696461238
 30
0.0
 11
183.5068662909878
 21
123.1173052631163
 31
0.0
  0
LINE
  5
247
330
E3
100
AcDbEntity
  8
0
  6
Continuous
100
AcDbLine
 10
183.5068662909878
 20
123.1173052631163
 30
0.0
 11
183.4737338707161
 21
123.1059259234676
 31
0.0
  0
LINE
  5
248
330
E3
100
AcDbEntity
  8
0
  6
Continuous
100
AcDbLine
 10
183.4737338707161
 20
123.1059259234676
 30
0.0
 11
183.4430089060074
 21
123.0949652717428
 31
0.0
  0
LINE
  5
249
330
E3
100
AcDbEntity
  8
0
  6
Continuous
100
AcDbLine
 10
183.4430089060074
 20
123.0949652717428
 30
0.0
 11
183.4149343853891
 21
123.0844756439325
 31
0.0
  0
LINE
  5
24A
330
E3
100
AcDbEntity
  8
0
  6
Continuous
100
AcDbLine
 10
183.4149343853891
 20
123.0844756439325
 30
0.0
 11
183.3897308676782
 21
123.0744906846021
 31
0.0
  0
LINE
  5
24B
330
E3
100
AcDbEntity
  8
0
  6
Continuous
100
AcDbLine
 10
183.3897308676782
 20
123.0744906846021
 30
0.0
 11
183.3676002202667
 21
123.0650477766019
 31
0.0
  0
LINE
  5
24C
330
E3
100
AcDbEntity
  8
0
  6
Continuous
100
AcDbLine
 10
183.3676002202667
 20
123.0650477766019
 30
0.0
 11
183.3487106659811
 21
123.0561768262121
 31
0.0
  0
LINE
  5
24D
330
E3
100
AcDbEntity
  8
0
  6
Continuous
100
AcDbLine
 10
183.3487106659811
 20
123.0561768262121
 30
0.0
 11
183.333219212793
 21
123.047904001428
 31
0.0
  0
LINE
  5
24E
330
E3
100
AcDbEntity
  8
0
  6
Continuous
100
AcDbLine
 10
183.333219212793
 20
123.047904001428
 30
0.0
 11
183.3212492241086
 21
123.0402554702449
 31
0.0
  0
LINE
  5
24F
330
E3
100
AcDbEntity
  8
0
  6
Continuous
100
AcDbLine
 10
183.3212492241086
 20
123.0402554702449
 30
0.0
 11
183.3129016336238
 21
123.0332424475179
 31
0.0
  0
LINE
  5
250
330
E3
100
AcDbEntity
  8
0
  6
Continuous
100
AcDbLine
 10
183.3129016336238
 20
123.0332424475179
 30
0.0
 11
183.3082411039215
 21
123.0268790154254
 31
0.0
  0
LINE
  5
251
330
E3
100
AcDbEntity
  8
0
  6
Continuous
100
AcDbLine
 10
183.3082411039215
 20
123.0268790154254
 30
0.0
 11
183.307314843607
 21
123.0211751685529
 31
0.0
  0
LINE
  5
252
330
E3
100
AcDbEntity
  8
0
  6
Continuous
100
AcDbLine
 10
184.3262320600895
 20
123.0013789661639
 30
0.0
 11
184.325305799775
 21
122.9956751192914
 31
0.0
  0
LINE
  5
253
330
E3
100
AcDbEntity
  8
0
  6
Continuous
100
AcDbLine
 10
184.325305799775
 20
122.9956751192914
 30
0.0
 11
184.3206463089727
 21
122.9893130031587
 31
0.0
  0
LINE
  5
254
330
E3
100
AcDbEntity
  8
0
  6
Continuous
100
AcDbLine
 10
184.3206463089727
 20
122.9893130031587
 30
0.0
 11
184.3122947550761
 21
122.982300837336
 31
0.0
  0
LINE
  5
255
330
E3
100
AcDbEntity
  8
0
  6
Continuous
100
AcDbLine
 10
184.3122947550761
 20
122.982300837336
 30
0.0
 11
184.3003247663917
 21
122.9746485678678
 31
0.0
  0
LINE
  5
256
330
E3
100
AcDbEntity
  8
0
  6
Continuous
100
AcDbLine
 10
184.3003247663917
 20
122.9746485678678
 30
0.0
 11
184.2848333132036
 21
122.9663757430837
 31
0.0
  0
LINE
  5
257
330
E3
100
AcDbEntity
  8
0
  6
Continuous
100
AcDbLine
 10
184.2848333132036
 20
122.9663757430837
 30
0.0
 11
184.2659474972031
 21
122.957504792694
 31
0.0
  0
LINE
  5
258
330
E3
100
AcDbEntity
  8
0
  6
Continuous
100
AcDbLine
 10
184.2659474972031
 20
122.957504792694
 30
0.0
 11
184.2438131115065
 21
122.9480618846937
 31
0.0
  0
LINE
  5
259
330
E3
100
AcDbEntity
  8
0
  6
Continuous
100
AcDbLine
 10
184.2438131115065
 20
122.9480618846937
 30
0.0
 11
184.2186095937957
 21
122.9380769253633
 31
0.0
  0
LINE
  5
25A
330
E3
100
AcDbEntity
  8
0
  6
Continuous
100
AcDbLine
 10
184.2186095937957
 20
122.9380769253633
 30
0.0
 11
184.1905388114623
 21
122.927587297553
 31
0.0
  0
LINE
  5
25B
330
E3
100
AcDbEntity
  8
0
  6
Continuous
100
AcDbLine
 10
184.1905388114623
 20
122.927587297553
 30
0.0
 11
184.1598138467537
 21
122.9166303841133
 31
0.0
  0
LINE
  5
25C
330
E3
100
AcDbEntity
  8
0
  6
Continuous
100
AcDbLine
 10
184.1598138467537
 20
122.9166303841133
 30
0.0
 11
184.126681426482
 21
122.9052473061795
 31
0.0
  0
LINE
  5
25D
330
E3
100
AcDbEntity
  8
0
  6
Continuous
100
AcDbLine
 10
184.126681426482
 20
122.9052473061795
 30
0.0
 11
184.0913994923148
 21
122.8934866614571
 31
0.0
  0
LINE
  5
25E
330
E3
100
AcDbEntity
  8
0
  6
Continuous
100
AcDbLine
 10
184.0913994923148
 20
122.8934866614571
 30
0.0
 11
184.0542446773447
 21
122.8813933093665
 31
0.0
  0
LINE
  5
25F
330
E3
100
AcDbEntity
  8
0
  6
Continuous
100
AcDbLine
 10
184.0542446773447
 20
122.8813933093665
 30
0.0
 11
184.0155048295193
 21
122.8690233241832
 31
0.0
  0
LINE
  5
260
330
E3
100
AcDbEntity
  8
0
  6
Continuous
100
AcDbLine
 10
184.0155048295193
 20
122.8690233241832
 30
0.0
 11
183.9754827499268
 21
122.8564253036128
 31
0.0
  0
LINE
  5
261
330
E3
100
AcDbEntity
  8
0
  6
Continuous
100
AcDbLine
 10
183.9754827499268
 20
122.8564253036128
 30
0.0
 11
183.93449245451
 21
122.8436553219308
 31
0.0
  0
LINE
  5
262
330
E3
100
AcDbEntity
  8
0
  6
Continuous
100
AcDbLine
 10
183.93449245451
 20
122.8436553219308
 30
0.0
 11
183.892851697497
 21
122.8307731916977
 31
0.0
  0
LINE
  5
263
330
E3
100
AcDbEntity
  8
0
  6
Continuous
100
AcDbLine
 10
183.892851697497
 20
122.8307731916977
 30
0.0
 11
183.8508819714009
 21
122.817831248904
 31
0.0
  0
LINE
  5
264
330
E3
100
AcDbEntity
  8
0
  6
Continuous
100
AcDbLine
 10
183.8508819714009
 20
122.817831248904
 30
0.0
 11
183.8089159835898
 21
122.8048930443953
 31
0.0
  0
LINE
  5
265
330
E3
100
AcDbEntity
  8
0
  6
Continuous
100
AcDbLine
 10
183.8089159835898
 20
122.8048930443953
 30
0.0
 11
183.7672714882917
 21
122.7920071758771
 31
0.0
  0
LINE
  5
266
330
E3
100
AcDbEntity
  8
0
  6
Continuous
100
AcDbLine
 10
183.7672714882917
 20
122.7920071758771
 30
0.0
 11
183.7262811928749
 21
122.7792409324801
 31
0.0
  0
LINE
  5
267
330
E3
100
AcDbEntity
  8
0
  6
Continuous
100
AcDbLine
 10
183.7262811928749
 20
122.7792409324801
 30
0.0
 11
183.6862591132824
 21
122.7666429119097
 31
0.0
  0
LINE
  5
268
330
E3
100
AcDbEntity
  8
0
  6
Continuous
100
AcDbLine
 10
183.6862591132824
 20
122.7666429119097
 30
0.0
 11
183.6475230037422
 21
122.7542729267265
 31
0.0
  0
LINE
  5
269
330
E3
100
AcDbEntity
  8
0
  6
Continuous
100
AcDbLine
 10
183.6475230037422
 20
122.7542729267265
 30
0.0
 11
183.610364450487
 21
122.7421795746359
 31
0.0
  0
LINE
  5
26A
330
E3
100
AcDbEntity
  8
0
  6
Continuous
100
AcDbLine
 10
183.610364450487
 20
122.7421795746359
 30
0.0
 11
183.5750825163198
 21
122.7304189299135
 31
0.0
  0
LINE
  5
26B
330
E3
100
AcDbEntity
  8
0
  6
Continuous
100
AcDbLine
 10
183.5750825163198
 20
122.7304189299135
 30
0.0
 11
183.5419500960481
 21
122.7190358519797
 31
0.0
  0
LINE
  5
26C
330
E3
100
AcDbEntity
  8
0
  6
Continuous
100
AcDbLine
 10
183.5419500960481
 20
122.7190358519797
 30
0.0
 11
183.5112288696245
 21
122.7080789385399
 31
0.0
  0
LINE
  5
26D
330
E3
100
AcDbEntity
  8
0
  6
Continuous
100
AcDbLine
 10
183.5112288696245
 20
122.7080789385399
 30
0.0
 11
183.4831543490061
 21
122.6975855724446
 31
0.0
  0
LINE
  5
26E
330
E3
100
AcDbEntity
  8
0
  6
Continuous
100
AcDbLine
 10
183.4831543490061
 20
122.6975855724446
 30
0.0
 11
183.4579508312952
 21
122.6876043513992
 31
0.0
  0
LINE
  5
26F
330
E3
100
AcDbEntity
  8
0
  6
Continuous
100
AcDbLine
 10
183.4579508312952
 20
122.6876043513992
 30
0.0
 11
183.4358201838837
 21
122.6781577051139
 31
0.0
  0
LINE
  5
270
330
E3
100
AcDbEntity
  8
0
  6
Continuous
100
AcDbLine
 10
183.4358201838837
 20
122.6781577051139
 30
0.0
 11
183.4169306295982
 21
122.6692867547241
 31
0.0
  0
LINE
  5
271
330
E3
100
AcDbEntity
  8
0
  6
Continuous
100
AcDbLine
 10
183.4169306295982
 20
122.6692867547241
 30
0.0
 11
183.4014391764101
 21
122.6610176682251
 31
0.0
  0
LINE
  5
272
330
E3
100
AcDbEntity
  8
0
  6
Continuous
100
AcDbLine
 10
183.4014391764101
 20
122.6610176682251
 30
0.0
 11
183.3894691877257
 21
122.653365398757
 31
0.0
  0
LINE
  5
273
330
E3
100
AcDbEntity
  8
0
  6
Continuous
100
AcDbLine
 10
183.3894691877257
 20
122.653365398757
 30
0.0
 11
183.3811178589559
 21
122.64635237603
 31
0.0
  0
LINE
  5
274
330
E3
100
AcDbEntity
  8
0
  6
Continuous
100
AcDbLine
 10
183.3811178589559
 20
122.64635237603
 30
0.0
 11
183.3764600308621
 21
122.6399902553134
 31
0.0
  0
LINE
  5
275
330
E3
100
AcDbEntity
  8
0
  6
Continuous
100
AcDbLine
 10
183.3764600308621
 20
122.6399902553134
 30
0.0
 11
183.3755337705476
 21
122.6342864084409
 31
0.0
  0
LINE
  5
276
330
E3
100
AcDbEntity
  8
0
  6
Continuous
100
AcDbLine
 10
184.3944509870301
 20
122.6144902060519
 30
0.0
 11
184.3935247267156
 21
122.6087863591794
 31
0.0
  0
LINE
  5
277
330
E3
100
AcDbEntity
  8
0
  6
Continuous
100
AcDbLine
 10
184.3935247267156
 20
122.6087863591794
 30
0.0
 11
184.3888652359133
 21
122.6024242430467
 31
0.0
  0
LINE
  5
278
330
E3
100
AcDbEntity
  8
0
  6
Continuous
100
AcDbLine
 10
184.3888652359133
 20
122.6024242430467
 30
0.0
 11
184.3805147186931
 21
122.595410765848
 31
0.0
  0
LINE
  5
279
330
E3
100
AcDbEntity
  8
0
  6
Continuous
100
AcDbLine
 10
184.3805147186931
 20
122.595410765848
 30
0.0
 11
184.3685447300088
 21
122.5877584963799
 31
0.0
  0
LINE
  5
27A
330
E3
100
AcDbEntity
  8
0
  6
Continuous
100
AcDbLine
 10
184.3685447300088
 20
122.5877584963799
 30
0.0
 11
184.3530532768207
 21
122.5794894098809
 31
0.0
  0
LINE
  5
27B
330
E3
100
AcDbEntity
  8
0
  6
Continuous
100
AcDbLine
 10
184.3530532768207
 20
122.5794894098809
 30
0.0
 11
184.3341674608201
 21
122.5706184594911
 31
0.0
  0
LINE
  5
27C
330
E3
100
AcDbEntity
  8
0
  6
Continuous
100
AcDbLine
 10
184.3341674608201
 20
122.5706184594911
 30
0.0
 11
184.3120330751236
 21
122.5611755514908
 31
0.0
  0
LINE
  5
27D
330
E3
100
AcDbEntity
  8
0
  6
Continuous
100
AcDbLine
 10
184.3120330751236
 20
122.5611755514908
 30
0.0
 11
184.2868295574127
 21
122.5511905921604
 31
0.0
  0
LINE
  5
27E
330
E3
100
AcDbEntity
  8
0
  6
Continuous
100
AcDbLine
 10
184.2868295574127
 20
122.5511905921604
 30
0.0
 11
184.2587550367944
 21
122.5406972260651
 31
0.0
  0
LINE
  5
27F
330
E3
100
AcDbEntity
  8
0
  6
Continuous
100
AcDbLine
 10
184.2587550367944
 20
122.5406972260651
 30
0.0
 11
184.2280338103707
 21
122.5297403126254
 31
0.0
  0
LINE
  5
280
330
E3
100
AcDbEntity
  8
0
  6
Continuous
100
AcDbLine
 10
184.2280338103707
 20
122.5297403126254
 30
0.0
 11
184.194901390099
 21
122.5183572346915
 31
0.0
  0
LINE
  5
281
330
E3
100
AcDbEntity
  8
0
  6
Continuous
100
AcDbLine
 10
184.194901390099
 20
122.5183572346915
 30
0.0
 11
184.1596194559318
 21
122.5065965899691
 31
0.0
  0
LINE
  5
282
330
E3
100
AcDbEntity
  8
0
  6
Continuous
100
AcDbLine
 10
184.1596194559318
 20
122.5065965899691
 30
0.0
 11
184.1224646409617
 21
122.4945032378786
 31
0.0
  0
LINE
  5
283
330
E3
100
AcDbEntity
  8
0
  6
Continuous
100
AcDbLine
 10
184.1224646409617
 20
122.4945032378786
 30
0.0
 11
184.0837247931364
 21
122.4821332526953
 31
0.0
  0
LINE
  5
284
330
E3
100
AcDbEntity
  8
0
  6
Continuous
100
AcDbLine
 10
184.0837247931364
 20
122.4821332526953
 30
0.0
 11
184.0437027135439
 21
122.4695352321249
 31
0.0
  0
LINE
  5
285
330
E3
100
AcDbEntity
  8
0
  6
Continuous
100
AcDbLine
 10
184.0437027135439
 20
122.4695352321249
 30
0.0
 11
184.0027124181271
 21
122.4567689887279
 31
0.0
  0
LINE
  5
286
330
E3
100
AcDbEntity
  8
0
  6
Continuous
100
AcDbLine
 10
184.0027124181271
 20
122.4567689887279
 30
0.0
 11
183.9610716611141
 21
122.4438831202097
 31
0.0
  0
LINE
  5
287
330
E3
100
AcDbEntity
  8
0
  6
Continuous
100
AcDbLine
 10
183.9610716611141
 20
122.4438831202097
 30
0.0
 11
183.9191019350179
 21
122.4309449157011
 31
0.0
  0
LINE
  5
288
330
E3
100
AcDbEntity
  8
0
  6
Continuous
100
AcDbLine
 10
183.9191019350179
 20
122.4309449157011
 30
0.0
 11
183.8771322089218
 21
122.4180029729074
 31
0.0
  0
LINE
  5
289
330
E3
100
AcDbEntity
  8
0
  6
Continuous
100
AcDbLine
 10
183.8771322089218
 20
122.4180029729074
 30
0.0
 11
183.8354914519088
 21
122.4051208426742
 31
0.0
  0
LINE
  5
28A
330
E3
100
AcDbEntity
  8
0
  6
Continuous
100
AcDbLine
 10
183.8354914519088
 20
122.4051208426742
 30
0.0
 11
183.794501156492
 21
122.3923508609922
 31
0.0
  0
LINE
  5
28B
330
E3
100
AcDbEntity
  8
0
  6
Continuous
100
AcDbLine
 10
183.794501156492
 20
122.3923508609922
 30
0.0
 11
183.7544790768995
 21
122.3797528404218
 31
0.0
  0
LINE
  5
28C
330
E3
100
AcDbEntity
  8
0
  6
Continuous
100
AcDbLine
 10
183.7544790768995
 20
122.3797528404218
 30
0.0
 11
183.7157392290742
 21
122.3673828552385
 31
0.0
  0
LINE
  5
28D
330
E3
100
AcDbEntity
  8
0
  6
Continuous
100
AcDbLine
 10
183.7157392290742
 20
122.3673828552385
 30
0.0
 11
183.678584414104
 21
122.355289503148
 31
0.0
  0
LINE
  5
28E
330
E3
100
AcDbEntity
  8
0
  6
Continuous
100
AcDbLine
 10
183.678584414104
 20
122.355289503148
 30
0.0
 11
183.6433024799368
 21
122.3435288584255
 31
0.0
  0
LINE
  5
28F
330
E3
100
AcDbEntity
  8
0
  6
Continuous
100
AcDbLine
 10
183.6433024799368
 20
122.3435288584255
 30
0.0
 11
183.6101700596651
 21
122.3321457804917
 31
0.0
  0
LINE
  5
290
330
E3
100
AcDbEntity
  8
0
  6
Continuous
100
AcDbLine
 10
183.6101700596651
 20
122.3321457804917
 30
0.0
 11
183.5794488332415
 21
122.321188867052
 31
0.0
  0
LINE
  5
291
330
E3
100
AcDbEntity
  8
0
  6
Continuous
100
AcDbLine
 10
183.5794488332415
 20
122.321188867052
 30
0.0
 11
183.5513743126232
 21
122.3106992392418
 31
0.0
  0
LINE
  5
292
330
E3
100
AcDbEntity
  8
0
  6
Continuous
100
AcDbLine
 10
183.5513743126232
 20
122.3106992392418
 30
0.0
 11
183.5261707949123
 21
122.3007142799113
 31
0.0
  0
LINE
  5
293
330
E3
100
AcDbEntity
  8
0
  6
Continuous
100
AcDbLine
 10
183.5261707949123
 20
122.3007142799113
 30
0.0
 11
183.5040364092157
 21
122.2912713719111
 31
0.0
  0
LINE
  5
294
330
E3
100
AcDbEntity
  8
0
  6
Continuous
100
AcDbLine
 10
183.5040364092157
 20
122.2912713719111
 30
0.0
 11
183.4851505932152
 21
122.2824004215213
 31
0.0
  0
LINE
  5
295
330
E3
100
AcDbEntity
  8
0
  6
Continuous
100
AcDbLine
 10
183.4851505932152
 20
122.2824004215213
 30
0.0
 11
183.4696591400271
 21
122.2741275967372
 31
0.0
  0
LINE
  5
296
330
E3
100
AcDbEntity
  8
0
  6
Continuous
100
AcDbLine
 10
183.4696591400271
 20
122.2741275967372
 30
0.0
 11
183.4576891513427
 21
122.2664753272691
 31
0.0
  0
LINE
  5
297
330
E3
100
AcDbEntity
  8
0
  6
Continuous
100
AcDbLine
 10
183.4576891513427
 20
122.2664753272691
 30
0.0
 11
183.4493378225729
 21
122.259462304542
 31
0.0
  0
LINE
  5
298
330
E3
100
AcDbEntity
  8
0
  6
Continuous
100
AcDbLine
 10
183.4493378225729
 20
122.259462304542
 30
0.0
 11
183.4446789578027
 21
122.2531014952014
 31
0.0
  0
LINE
  5
299
330
E3
100
AcDbEntity
  8
0
  6
Continuous
100
AcDbLine
 10
183.4446789578027
 20
122.2531014952014
 30
0.0
 11
183.4437526974882
 21
122.247397648329
 31
0.0
  0
LINE
  5
29A
330
E3
100
AcDbEntity
  8
0
  6
Continuous
100
AcDbLine
 10
184.4626699139707
 20
122.22760144594
 30
0.0
 11
184.4617436536562
 21
122.2218975990675
 31
0.0
  0
LINE
  5
29B
330
E3
100
AcDbEntity
  8
0
  6
Continuous
100
AcDbLine
 10
184.4617436536562
 20
122.2218975990675
 30
0.0
 11
184.4570841628539
 21
122.2155354829348
 31
0.0
  0
LINE
  5
29C
330
E3
100
AcDbEntity
  8
0
  6
Continuous
100
AcDbLine
 10
184.4570841628539
 20
122.2155354829348
 30
0.0
 11
184.4487346823102
 21
122.2085244326452
 31
0.0
  0
LINE
  5
29D
330
E3
100
AcDbEntity
  8
0
  6
Continuous
100
AcDbLine
 10
184.4487346823102
 20
122.2085244326452
 30
0.0
 11
184.4367646936258
 21
122.200872163177
 31
0.0
  0
LINE
  5
29E
330
E3
100
AcDbEntity
  8
0
  6
Continuous
100
AcDbLine
 10
184.4367646936258
 20
122.200872163177
 30
0.0
 11
184.4212732404377
 21
122.192599338393
 31
0.0
  0
LINE
  5
29F
330
E3
100
AcDbEntity
  8
0
  6
Continuous
100
AcDbLine
 10
184.4212732404377
 20
122.192599338393
 30
0.0
 11
184.4023836861522
 21
122.1837283880032
 31
0.0
  0
LINE
  5
2A0
330
E3
100
AcDbEntity
  8
0
  6
Continuous
100
AcDbLine
 10
184.4023836861522
 20
122.1837283880032
 30
0.0
 11
184.3802530387406
 21
122.1742854800029
 31
0.0
  0
LINE
  5
2A1
330
E3
100
AcDbEntity
  8
0
  6
Continuous
100
AcDbLine
 10
184.3802530387406
 20
122.1742854800029
 30
0.0
 11
184.3550495210297
 21
122.1643005206725
 31
0.0
  0
LINE
  5
2A2
330
E3
100
AcDbEntity
  8
0
  6
Continuous
100
AcDbLine
 10
184.3550495210297
 20
122.1643005206725
 30
0.0
 11
184.3269750004114
 21
122.1538108928622
 31
0.0
  0
LINE
  5
2A3
330
E3
100
AcDbEntity
  8
0
  6
Continuous
100
AcDbLine
 10
184.3269750004114
 20
122.1538108928622
 30
0.0
 11
184.2962537739878
 21
122.1428539794225
 31
0.0
  0
LINE
  5
2A4
330
E3
100
AcDbEntity
  8
0
  6
Continuous
100
AcDbLine
 10
184.2962537739878
 20
122.1428539794225
 30
0.0
 11
184.2631213537161
 21
122.1314709014887
 31
0.0
  0
LINE
  5
2A5
330
E3
100
AcDbEntity
  8
0
  6
Continuous
100
AcDbLine
 10
184.2631213537161
 20
122.1314709014887
 30
0.0
 11
184.2278394195488
 21
122.1197065184812
 31
0.0
  0
LINE
  5
2A6
330
E3
100
AcDbEntity
  8
0
  6
Continuous
100
AcDbLine
 10
184.2278394195488
 20
122.1197065184812
 30
0.0
 11
184.1906808662937
 21
122.1076169046757
 31
0.0
  0
LINE
  5
2A7
330
E3
100
AcDbEntity
  8
0
  6
Continuous
100
AcDbLine
 10
184.1906808662937
 20
122.1076169046757
 30
0.0
 11
184.1519410184684
 21
122.0952431812074
 31
0.0
  0
LINE
  5
2A8
330
E3
100
AcDbEntity
  8
0
  6
Continuous
100
AcDbLine
 10
184.1519410184684
 20
122.0952431812074
 30
0.0
 11
184.1119226771609
 21
122.082648898922
 31
0.0
  0
LINE
  5
2A9
330
E3
100
AcDbEntity
  8
0
  6
Continuous
100
AcDbLine
 10
184.1119226771609
 20
122.082648898922
 30
0.0
 11
184.0709323817441
 21
122.06987891724
 31
0.0
  0
LINE
  5
2AA
330
E3
100
AcDbEntity
  8
0
  6
Continuous
100
AcDbLine
 10
184.0709323817441
 20
122.06987891724
 30
0.0
 11
184.0292878864461
 21
122.0569967870069
 31
0.0
  0
LINE
  5
2AB
330
E3
100
AcDbEntity
  8
0
  6
Continuous
100
AcDbLine
 10
184.0292878864461
 20
122.0569967870069
 30
0.0
 11
183.987321898635
 21
122.0440548442132
 31
0.0
  0
LINE
  5
2AC
330
E3
100
AcDbEntity
  8
0
  6
Continuous
100
AcDbLine
 10
183.987321898635
 20
122.0440548442132
 30
0.0
 11
183.9453521725388
 21
122.0311129014194
 31
0.0
  0
LINE
  5
2AD
330
E3
100
AcDbEntity
  8
0
  6
Continuous
100
AcDbLine
 10
183.9453521725388
 20
122.0311129014194
 30
0.0
 11
183.9037114155258
 21
122.0182307711863
 31
0.0
  0
LINE
  5
2AE
330
E3
100
AcDbEntity
  8
0
  6
Continuous
100
AcDbLine
 10
183.9037114155258
 20
122.0182307711863
 30
0.0
 11
183.862721120109
 21
122.0054645277893
 31
0.0
  0
LINE
  5
2AF
330
E3
100
AcDbEntity
  8
0
  6
Continuous
100
AcDbLine
 10
183.862721120109
 20
122.0054645277893
 30
0.0
 11
183.8226990405165
 21
121.9928665072189
 31
0.0
  0
LINE
  5
2B0
330
E3
100
AcDbEntity
  8
0
  6
Continuous
100
AcDbLine
 10
183.8226990405165
 20
121.9928665072189
 30
0.0
 11
183.7839591926912
 21
121.9804927837506
 31
0.0
  0
LINE
  5
2B1
330
E3
100
AcDbEntity
  8
0
  6
Continuous
100
AcDbLine
 10
183.7839591926912
 20
121.9804927837506
 30
0.0
 11
183.7468043777211
 21
121.9684031699451
 31
0.0
  0
LINE
  5
2B2
330
E3
100
AcDbEntity
  8
0
  6
Continuous
100
AcDbLine
 10
183.7468043777211
 20
121.9684031699451
 30
0.0
 11
183.7115224435539
 21
121.9566425252227
 31
0.0
  0
LINE
  5
2B3
330
E3
100
AcDbEntity
  8
0
  6
Continuous
100
AcDbLine
 10
183.7115224435539
 20
121.9566425252227
 30
0.0
 11
183.6783900232822
 21
121.9452594472889
 31
0.0
  0
LINE
  5
2B4
330
E3
100
AcDbEntity
  8
0
  6
Continuous
100
AcDbLine
 10
183.6783900232822
 20
121.9452594472889
 30
0.0
 11
183.6476650585735
 21
121.9342987955641
 31
0.0
  0
LINE
  5
2B5
330
E3
100
AcDbEntity
  8
0
  6
Continuous
100
AcDbLine
 10
183.6476650585735
 20
121.9342987955641
 30
0.0
 11
183.6195905379552
 21
121.9238091677538
 31
0.0
  0
LINE
  5
2B6
330
E3
100
AcDbEntity
  8
0
  6
Continuous
100
AcDbLine
 10
183.6195905379552
 20
121.9238091677538
 30
0.0
 11
183.5943907585294
 21
121.9138242084234
 31
0.0
  0
LINE
  5
2B7
330
E3
100
AcDbEntity
  8
0
  6
Continuous
100
AcDbLine
 10
183.5943907585294
 20
121.9138242084234
 30
0.0
 11
183.5722563728328
 21
121.9043813004232
 31
0.0
  0
LINE
  5
2B8
330
E3
100
AcDbEntity
  8
0
  6
Continuous
100
AcDbLine
 10
183.5722563728328
 20
121.9043813004232
 30
0.0
 11
183.5533668185472
 21
121.8955103500334
 31
0.0
  0
LINE
  5
2B9
330
E3
100
AcDbEntity
  8
0
  6
Continuous
100
AcDbLine
 10
183.5533668185472
 20
121.8955103500334
 30
0.0
 11
183.5378791036442
 21
121.8872375252493
 31
0.0
  0
LINE
  5
2BA
330
E3
100
AcDbEntity
  8
0
  6
Continuous
100
AcDbLine
 10
183.5378791036442
 20
121.8872375252493
 30
0.0
 11
183.5259091149597
 21
121.8795889940662
 31
0.0
  0
LINE
  5
2BB
330
E3
100
AcDbEntity
  8
0
  6
Continuous
100
AcDbLine
 10
183.5259091149597
 20
121.8795889940662
 30
0.0
 11
183.5175577861899
 21
121.8725759713391
 31
0.0
  0
LINE
  5
2BC
330
E3
100
AcDbEntity
  8
0
  6
Continuous
100
AcDbLine
 10
183.5175577861899
 20
121.8725759713391
 30
0.0
 11
183.5128978847433
 21
121.8662127350895
 31
0.0
  0
LINE
  5
2BD
330
E3
100
AcDbEntity
  8
0
  6
Continuous
100
AcDbLine
 10
183.5128978847433
 20
121.8662127350895
 30
0.0
 11
183.5119716244288
 21
121.8605088882171
 31
0.0
  0
LINE
  5
2BE
330
E3
100
AcDbEntity
  8
0
  6
Continuous
100
AcDbLine
 10
184.5308888409113
 20
121.840712685828
 30
0.0
 11
184.5299625805968
 21
121.8350088389555
 31
0.0
  0
LINE
  5
2BF
330
E3
100
AcDbEntity
  8
0
  6
Continuous
100
AcDbLine
 10
184.5299625805968
 20
121.8350088389555
 30
0.0
 11
184.5253030897944
 21
121.8286467228229
 31
0.0
  0
LINE
  5
2C0
330
E3
100
AcDbEntity
  8
0
  6
Continuous
100
AcDbLine
 10
184.5253030897944
 20
121.8286467228229
 30
0.0
 11
184.5169546459272
 21
121.8216343611573
 31
0.0
  0
LINE
  5
2C1
330
E3
100
AcDbEntity
  8
0
  6
Continuous
100
AcDbLine
 10
184.5169546459272
 20
121.8216343611573
 30
0.0
 11
184.5049846572428
 21
121.8139820916891
 31
0.0
  0
LINE
  5
2C2
330
E3
100
AcDbEntity
  8
0
  6
Continuous
100
AcDbLine
 10
184.5049846572428
 20
121.8139820916891
 30
0.0
 11
184.4894932040548
 21
121.805709266905
 31
0.0
  0
LINE
  5
2C3
330
E3
100
AcDbEntity
  8
0
  6
Continuous
100
AcDbLine
 10
184.4894932040548
 20
121.805709266905
 30
0.0
 11
184.4706036497692
 21
121.7968383165152
 31
0.0
  0
LINE
  5
2C4
330
E3
100
AcDbEntity
  8
0
  6
Continuous
100
AcDbLine
 10
184.4706036497692
 20
121.7968383165152
 30
0.0
 11
184.4484692640726
 21
121.787395408515
 31
0.0
  0
LINE
  5
2C5
330
E3
100
AcDbEntity
  8
0
  6
Continuous
100
AcDbLine
 10
184.4484692640726
 20
121.787395408515
 30
0.0
 11
184.4232694846468
 21
121.7774104491846
 31
0.0
  0
LINE
  5
2C6
330
E3
100
AcDbEntity
  8
0
  6
Continuous
100
AcDbLine
 10
184.4232694846468
 20
121.7774104491846
 30
0.0
 11
184.3951949640285
 21
121.7669208213743
 31
0.0
  0
LINE
  5
2C7
330
E3
100
AcDbEntity
  8
0
  6
Continuous
100
AcDbLine
 10
184.3951949640285
 20
121.7669208213743
 30
0.0
 11
184.3644699993198
 21
121.7559639079346
 31
0.0
  0
LINE
  5
2C8
330
E3
100
AcDbEntity
  8
0
  6
Continuous
100
AcDbLine
 10
184.3644699993198
 20
121.7559639079346
 30
0.0
 11
184.3313375790481
 21
121.7445808300008
 31
0.0
  0
LINE
  5
2C9
330
E3
100
AcDbEntity
  8
0
  6
Continuous
100
AcDbLine
 10
184.3313375790481
 20
121.7445808300008
 30
0.0
 11
184.2960556448809
 21
121.7328201852784
 31
0.0
  0
LINE
  5
2CA
330
E3
100
AcDbEntity
  8
0
  6
Continuous
100
AcDbLine
 10
184.2960556448809
 20
121.7328201852784
 30
0.0
 11
184.2589008299107
 21
121.7207268331878
 31
0.0
  0
LINE
  5
2CB
330
E3
100
AcDbEntity
  8
0
  6
Continuous
100
AcDbLine
 10
184.2589008299107
 20
121.7207268331878
 30
0.0
 11
184.2201609820855
 21
121.7083568480045
 31
0.0
  0
LINE
  5
2CC
330
E3
100
AcDbEntity
  8
0
  6
Continuous
100
AcDbLine
 10
184.2201609820855
 20
121.7083568480045
 30
0.0
 11
184.1801389024929
 21
121.6957588274341
 31
0.0
  0
LINE
  5
2CD
330
E3
100
AcDbEntity
  8
0
  6
Continuous
100
AcDbLine
 10
184.1801389024929
 20
121.6957588274341
 30
0.0
 11
184.1391486070762
 21
121.6829888457521
 31
0.0
  0
LINE
  5
2CE
330
E3
100
AcDbEntity
  8
0
  6
Continuous
100
AcDbLine
 10
184.1391486070762
 20
121.6829888457521
 30
0.0
 11
184.0975078500632
 21
121.6701067155189
 31
0.0
  0
LINE
  5
2CF
330
E3
100
AcDbEntity
  8
0
  6
Continuous
100
AcDbLine
 10
184.0975078500632
 20
121.6701067155189
 30
0.0
 11
184.055538123967
 21
121.6571647727252
 31
0.0
  0
LINE
  5
2D0
330
E3
100
AcDbEntity
  8
0
  6
Continuous
100
AcDbLine
 10
184.055538123967
 20
121.6571647727252
 30
0.0
 11
184.0135721361559
 21
121.6442265682166
 31
0.0
  0
LINE
  5
2D1
330
E3
100
AcDbEntity
  8
0
  6
Continuous
100
AcDbLine
 10
184.0135721361559
 20
121.6442265682166
 30
0.0
 11
183.9719313791429
 21
121.6313444379834
 31
0.0
  0
LINE
  5
2D2
330
E3
100
AcDbEntity
  8
0
  6
Continuous
100
AcDbLine
 10
183.9719313791429
 20
121.6313444379834
 30
0.0
 11
183.9309373454411
 21
121.6185744563014
 31
0.0
  0
LINE
  5
2D3
330
E3
100
AcDbEntity
  8
0
  6
Continuous
100
AcDbLine
 10
183.9309373454411
 20
121.6185744563014
 30
0.0
 11
183.8909190041335
 21
121.605976435731
 31
0.0
  0
LINE
  5
2D4
330
E3
100
AcDbEntity
  8
0
  6
Continuous
100
AcDbLine
 10
183.8909190041335
 20
121.605976435731
 30
0.0
 11
183.8521791563083
 21
121.5936064505477
 31
0.0
  0
LINE
  5
2D5
330
E3
100
AcDbEntity
  8
0
  6
Continuous
100
AcDbLine
 10
183.8521791563083
 20
121.5936064505477
 30
0.0
 11
183.8150243413382
 21
121.5815130984572
 31
0.0
  0
LINE
  5
2D6
330
E3
100
AcDbEntity
  8
0
  6
Continuous
100
AcDbLine
 10
183.8150243413382
 20
121.5815130984572
 30
0.0
 11
183.7797424071709
 21
121.5697524537348
 31
0.0
  0
LINE
  5
2D7
330
E3
100
AcDbEntity
  8
0
  6
Continuous
100
AcDbLine
 10
183.7797424071709
 20
121.5697524537348
 30
0.0
 11
183.7466099868993
 21
121.558369375801
 31
0.0
  0
LINE
  5
2D8
330
E3
100
AcDbEntity
  8
0
  6
Continuous
100
AcDbLine
 10
183.7466099868993
 20
121.558369375801
 30
0.0
 11
183.7158850221906
 21
121.5474124623612
 31
0.0
  0
LINE
  5
2D9
330
E3
100
AcDbEntity
  8
0
  6
Continuous
100
AcDbLine
 10
183.7158850221906
 20
121.5474124623612
 30
0.0
 11
183.6878105015722
 21
121.5369190962659
 31
0.0
  0
LINE
  5
2DA
330
E3
100
AcDbEntity
  8
0
  6
Continuous
100
AcDbLine
 10
183.6878105015722
 20
121.5369190962659
 30
0.0
 11
183.6626069838613
 21
121.5269378752205
 31
0.0
  0
LINE
  5
2DB
330
E3
100
AcDbEntity
  8
0
  6
Continuous
100
AcDbLine
 10
183.6626069838613
 20
121.5269378752205
 30
0.0
 11
183.6404763364498
 21
121.5174912289352
 31
0.0
  0
LINE
  5
2DC
330
E3
100
AcDbEntity
  8
0
  6
Continuous
100
AcDbLine
 10
183.6404763364498
 20
121.5174912289352
 30
0.0
 11
183.6215867821643
 21
121.5086202785454
 31
0.0
  0
LINE
  5
2DD
330
E3
100
AcDbEntity
  8
0
  6
Continuous
100
AcDbLine
 10
183.6215867821643
 20
121.5086202785454
 30
0.0
 11
183.6060953289762
 21
121.5003511920464
 31
0.0
  0
LINE
  5
2DE
330
E3
100
AcDbEntity
  8
0
  6
Continuous
100
AcDbLine
 10
183.6060953289762
 20
121.5003511920464
 30
0.0
 11
183.5941253402918
 21
121.4926989225783
 31
0.0
  0
LINE
  5
2DF
330
E3
100
AcDbEntity
  8
0
  6
Continuous
100
AcDbLine
 10
183.5941253402918
 20
121.4926989225783
 30
0.0
 11
183.585777749807
 21
121.4856858998512
 31
0.0
  0
LINE
  5
2E0
330
E3
100
AcDbEntity
  8
0
  6
Continuous
100
AcDbLine
 10
183.585777749807
 20
121.4856858998512
 30
0.0
 11
183.5811168116839
 21
121.4793239749776
 31
0.0
  0
LINE
  5
2E1
330
E3
100
AcDbEntity
  8
0
  6
Continuous
100
AcDbLine
 10
183.5811168116839
 20
121.4793239749776
 30
0.0
 11
183.5801905513694
 21
121.4736201281051
 31
0.0
  0
LINE
  5
2E2
330
E3
100
AcDbEntity
  8
0
  6
Continuous
100
AcDbLine
 10
184.5991077678518
 20
121.4538239257161
 30
0.0
 11
184.5981815075373
 21
121.4481200788436
 31
0.0
  0
LINE
  5
2E3
330
E3
100
AcDbEntity
  8
0
  6
Continuous
100
AcDbLine
 10
184.5981815075373
 20
121.4481200788436
 30
0.0
 11
184.593522016735
 21
121.4417579627109
 31
0.0
  0
LINE
  5
2E4
330
E3
100
AcDbEntity
  8
0
  6
Continuous
100
AcDbLine
 10
184.593522016735
 20
121.4417579627109
 30
0.0
 11
184.5851708712593
 21
121.4347442896693
 31
0.0
  0
LINE
  5
2E5
330
E3
100
AcDbEntity
  8
0
  6
Continuous
100
AcDbLine
 10
184.5851708712593
 20
121.4347442896693
 30
0.0
 11
184.5732008825749
 21
121.4270957584862
 31
0.0
  0
LINE
  5
2E6
330
E3
100
AcDbEntity
  8
0
  6
Continuous
100
AcDbLine
 10
184.5732008825749
 20
121.4270957584862
 30
0.0
 11
184.5577094293868
 21
121.4188229337022
 31
0.0
  0
LINE
  5
2E7
330
E3
100
AcDbEntity
  8
0
  6
Continuous
100
AcDbLine
 10
184.5577094293868
 20
121.4188229337022
 30
0.0
 11
184.5388236133863
 21
121.4099519833124
 31
0.0
  0
LINE
  5
2E8
330
E3
100
AcDbEntity
  8
0
  6
Continuous
100
AcDbLine
 10
184.5388236133863
 20
121.4099519833124
 30
0.0
 11
184.5166892276897
 21
121.4005090753121
 31
0.0
  0
LINE
  5
2E9
330
E3
100
AcDbEntity
  8
0
  6
Continuous
100
AcDbLine
 10
184.5166892276897
 20
121.4005090753121
 30
0.0
 11
184.4914857099788
 21
121.3905241159817
 31
0.0
  0
LINE
  5
2EA
330
E3
100
AcDbEntity
  8
0
  6
Continuous
100
AcDbLine
 10
184.4914857099788
 20
121.3905241159817
 30
0.0
 11
184.4634149276455
 21
121.3800344881714
 31
0.0
  0
LINE
  5
2EB
330
E3
100
AcDbEntity
  8
0
  6
Continuous
100
AcDbLine
 10
184.4634149276455
 20
121.3800344881714
 30
0.0
 11
184.4326899629368
 21
121.3690738364466
 31
0.0
  0
LINE
  5
2EC
330
E3
100
AcDbEntity
  8
0
  6
Continuous
100
AcDbLine
 10
184.4326899629368
 20
121.3690738364466
 30
0.0
 11
184.3995575426651
 21
121.3576907585128
 31
0.0
  0
LINE
  5
2ED
330
E3
100
AcDbEntity
  8
0
  6
Continuous
100
AcDbLine
 10
184.3995575426651
 20
121.3576907585128
 30
0.0
 11
184.3642756084979
 21
121.3459301137904
 31
0.0
  0
LINE
  5
2EE
330
E3
100
AcDbEntity
  8
0
  6
Continuous
100
AcDbLine
 10
184.3642756084979
 20
121.3459301137904
 30
0.0
 11
184.3271207935278
 21
121.3338367616999
 31
0.0
  0
LINE
  5
2EF
330
E3
100
AcDbEntity
  8
0
  6
Continuous
100
AcDbLine
 10
184.3271207935278
 20
121.3338367616999
 30
0.0
 11
184.2883809457025
 21
121.3214667765166
 31
0.0
  0
LINE
  5
2F0
330
E3
100
AcDbEntity
  8
0
  6
Continuous
100
AcDbLine
 10
184.2883809457025
 20
121.3214667765166
 30
0.0
 11
184.24835886611
 21
121.3088687559462
 31
0.0
  0
LINE
  5
2F1
330
E3
100
AcDbEntity
  8
0
  6
Continuous
100
AcDbLine
 10
184.24835886611
 20
121.3088687559462
 30
0.0
 11
184.2073685706932
 21
121.2961025125492
 31
0.0
  0
LINE
  5
2F2
330
E3
100
AcDbEntity
  8
0
  6
Continuous
100
AcDbLine
 10
184.2073685706932
 20
121.2961025125492
 30
0.0
 11
184.1657278136802
 21
121.283216644031
 31
0.0
  0
LINE
  5
2F3
330
E3
100
AcDbEntity
  8
0
  6
Continuous
100
AcDbLine
 10
184.1657278136802
 20
121.283216644031
 30
0.0
 11
184.123758087584
 21
121.2702784395224
 31
0.0
  0
LINE
  5
2F4
330
E3
100
AcDbEntity
  8
0
  6
Continuous
100
AcDbLine
 10
184.123758087584
 20
121.2702784395224
 30
0.0
 11
184.0817920997729
 21
121.2573364967287
 31
0.0
  0
LINE
  5
2F5
330
E3
100
AcDbEntity
  8
0
  6
Continuous
100
AcDbLine
 10
184.0817920997729
 20
121.2573364967287
 30
0.0
 11
184.0401476044749
 21
121.2444543664955
 31
0.0
  0
LINE
  5
2F6
330
E3
100
AcDbEntity
  8
0
  6
Continuous
100
AcDbLine
 10
184.0401476044749
 20
121.2444543664955
 30
0.0
 11
183.9991573090581
 21
121.2316843848135
 31
0.0
  0
LINE
  5
2F7
330
E3
100
AcDbEntity
  8
0
  6
Continuous
100
AcDbLine
 10
183.9991573090581
 20
121.2316843848135
 30
0.0
 11
183.9591352294655
 21
121.2190901025281
 31
0.0
  0
LINE
  5
2F8
330
E3
100
AcDbEntity
  8
0
  6
Continuous
100
AcDbLine
 10
183.9591352294655
 20
121.2190901025281
 30
0.0
 11
183.9203953816403
 21
121.2067163790598
 31
0.0
  0
LINE
  5
2F9
330
E3
100
AcDbEntity
  8
0
  6
Continuous
100
AcDbLine
 10
183.9203953816403
 20
121.2067163790598
 30
0.0
 11
183.8832405666702
 21
121.1946230269693
 31
0.0
  0
LINE
  5
2FA
330
E3
100
AcDbEntity
  8
0
  6
Continuous
100
AcDbLine
 10
183.8832405666702
 20
121.1946230269693
 30
0.0
 11
183.847958632503
 21
121.1828623822468
 31
0.0
  0
LINE
  5
2FB
330
E3
100
AcDbEntity
  8
0
  6
Continuous
100
AcDbLine
 10
183.847958632503
 20
121.1828623822468
 30
0.0
 11
183.8148262122313
 21
121.171479304313
 31
0.0
  0
LINE
  5
2FC
330
E3
100
AcDbEntity
  8
0
  6
Continuous
100
AcDbLine
 10
183.8148262122313
 20
121.171479304313
 30
0.0
 11
183.7841049858076
 21
121.1605223908733
 31
0.0
  0
LINE
  5
2FD
330
E3
100
AcDbEntity
  8
0
  6
Continuous
100
AcDbLine
 10
183.7841049858076
 20
121.1605223908733
 30
0.0
 11
183.7560304651893
 21
121.1500327630631
 31
0.0
  0
LINE
  5
2FE
330
E3
100
AcDbEntity
  8
0
  6
Continuous
100
AcDbLine
 10
183.7560304651893
 20
121.1500327630631
 30
0.0
 11
183.7308269474784
 21
121.1400478037326
 31
0.0
  0
LINE
  5
2FF
330
E3
100
AcDbEntity
  8
0
  6
Continuous
100
AcDbLine
 10
183.7308269474784
 20
121.1400478037326
 30
0.0
 11
183.7086925617818
 21
121.1306048957323
 31
0.0
  0
LINE
  5
300
330
E3
100
AcDbEntity
  8
0
  6
Continuous
100
AcDbLine
 10
183.7086925617818
 20
121.1306048957323
 30
0.0
 11
183.6898067457813
 21
121.1217339453426
 31
0.0
  0
LINE
  5
301
330
E3
100
AcDbEntity
  8
0
  6
Continuous
100
AcDbLine
 10
183.6898067457813
 20
121.1217339453426
 30
0.0
 11
183.6743152925932
 21
121.1134611205585
 31
0.0
  0
LINE
  5
302
330
E3
100
AcDbEntity
  8
0
  6
Continuous
100
AcDbLine
 10
183.6743152925932
 20
121.1134611205585
 30
0.0
 11
183.6623453039088
 21
121.1058088510903
 31
0.0
  0
LINE
  5
303
330
E3
100
AcDbEntity
  8
0
  6
Continuous
100
AcDbLine
 10
183.6623453039088
 20
121.1058088510903
 30
0.0
 11
183.653993975139
 21
121.0987958283633
 31
0.0
  0
LINE
  5
304
330
E3
100
AcDbEntity
  8
0
  6
Continuous
100
AcDbLine
 10
183.653993975139
 20
121.0987958283633
 30
0.0
 11
183.6493357386244
 21
121.0924352148656
 31
0.0
  0
LINE
  5
305
330
E3
100
AcDbEntity
  8
0
  6
Continuous
100
AcDbLine
 10
183.6493357386244
 20
121.0924352148656
 30
0.0
 11
183.6484094783099
 21
121.0867313679932
 31
0.0
  0
LINE
  5
306
330
E3
100
AcDbEntity
  8
0
  6
Continuous
100
AcDbLine
 10
184.6673266947925
 20
121.0669351656041
 30
0.0
 11
184.6664004344779
 21
121.0612313187317
 31
0.0
  0
LINE
  5
307
330
E3
100
AcDbEntity
  8
0
  6
Continuous
100
AcDbLine
 10
184.6664004344779
 20
121.0612313187317
 30
0.0
 11
184.6617409436756
 21
121.054869202599
 31
0.0
  0
LINE
  5
308
330
E3
100
AcDbEntity
  8
0
  6
Continuous
100
AcDbLine
 10
184.6617409436756
 20
121.054869202599
 30
0.0
 11
184.6533908348763
 21
121.0478579564664
 31
0.0
  0
LINE
  5
309
330
E3
100
AcDbEntity
  8
0
  6
Continuous
100
AcDbLine
 10
184.6533908348763
 20
121.0478579564664
 30
0.0
 11
184.6414208461919
 21
121.0402056869983
 31
0.0
  0
LINE
  5
30A
330
E3
100
AcDbEntity
  8
0
  6
Continuous
100
AcDbLine
 10
184.6414208461919
 20
121.0402056869983
 30
0.0
 11
184.6259293930038
 21
121.0319328622142
 31
0.0
  0
LINE
  5
30B
330
E3
100
AcDbEntity
  8
0
  6
Continuous
100
AcDbLine
 10
184.6259293930038
 20
121.0319328622142
 30
0.0
 11
184.6070435770033
 21
121.0230619118245
 31
0.0
  0
LINE
  5
30C
330
E3
100
AcDbEntity
  8
0
  6
Continuous
100
AcDbLine
 10
184.6070435770033
 20
121.0230619118245
 30
0.0
 11
184.5849091913068
 21
121.0136190038242
 31
0.0
  0
LINE
  5
30D
330
E3
100
AcDbEntity
  8
0
  6
Continuous
100
AcDbLine
 10
184.5849091913068
 20
121.0136190038242
 30
0.0
 11
184.5597056735959
 21
121.0036340444938
 31
0.0
  0
LINE
  5
30E
330
E3
100
AcDbEntity
  8
0
  6
Continuous
100
AcDbLine
 10
184.5597056735959
 20
121.0036340444938
 30
0.0
 11
184.5316311529775
 21
120.9931444166835
 31
0.0
  0
LINE
  5
30F
330
E3
100
AcDbEntity
  8
0
  6
Continuous
100
AcDbLine
 10
184.5316311529775
 20
120.9931444166835
 30
0.0
 11
184.5009099265539
 21
120.9821875032438
 31
0.0
  0
LINE
  5
310
330
E3
100
AcDbEntity
  8
0
  6
Continuous
100
AcDbLine
 10
184.5009099265539
 20
120.9821875032438
 30
0.0
 11
184.4677775062822
 21
120.97080442531
 31
0.0
  0
LINE
  5
311
330
E3
100
AcDbEntity
  8
0
  6
Continuous
100
AcDbLine
 10
184.4677775062822
 20
120.97080442531
 30
0.0
 11
184.432495572115
 21
120.9590400423025
 31
0.0
  0
LINE
  5
312
330
E3
100
AcDbEntity
  8
0
  6
Continuous
100
AcDbLine
 10
184.432495572115
 20
120.9590400423025
 30
0.0
 11
184.3953407571449
 21
120.946950428497
 31
0.0
  0
LINE
  5
313
330
E3
100
AcDbEntity
  8
0
  6
Continuous
100
AcDbLine
 10
184.3953407571449
 20
120.946950428497
 30
0.0
 11
184.3566009093196
 21
120.9345767050287
 31
0.0
  0
LINE
  5
314
330
E3
100
AcDbEntity
  8
0
  6
Continuous
100
AcDbLine
 10
184.3566009093196
 20
120.9345767050287
 30
0.0
 11
184.316578829727
 21
120.9219824227433
 31
0.0
  0
LINE
  5
315
330
E3
100
AcDbEntity
  8
0
  6
Continuous
100
AcDbLine
 10
184.316578829727
 20
120.9219824227433
 30
0.0
 11
184.2755885343103
 21
120.9092124410613
 31
0.0
  0
LINE
  5
316
330
E3
100
AcDbEntity
  8
0
  6
Continuous
100
AcDbLine
 10
184.2755885343103
 20
120.9092124410613
 30
0.0
 11
184.2339440390122
 21
120.8963303108281
 31
0.0
  0
LINE
  5
317
330
E3
100
AcDbEntity
  8
0
  6
Continuous
100
AcDbLine
 10
184.2339440390122
 20
120.8963303108281
 30
0.0
 11
184.1919780512011
 21
120.8833883680344
 31
0.0
  0
LINE
  5
318
330
E3
100
AcDbEntity
  8
0
  6
Continuous
100
AcDbLine
 10
184.1919780512011
 20
120.8833883680344
 30
0.0
 11
184.1500083251049
 21
120.8704464252408
 31
0.0
  0
LINE
  5
319
330
E3
100
AcDbEntity
  8
0
  6
Continuous
100
AcDbLine
 10
184.1500083251049
 20
120.8704464252408
 30
0.0
 11
184.1083675680919
 21
120.8575642950076
 31
0.0
  0
LINE
  5
31A
330
E3
100
AcDbEntity
  8
0
  6
Continuous
100
AcDbLine
 10
184.1083675680919
 20
120.8575642950076
 30
0.0
 11
184.0673772726752
 21
120.8447980516106
 31
0.0
  0
LINE
  5
31B
330
E3
100
AcDbEntity
  8
0
  6
Continuous
100
AcDbLine
 10
184.0673772726752
 20
120.8447980516106
 30
0.0
 11
184.0273551930826
 21
120.8322000310402
 31
0.0
  0
LINE
  5
31C
330
E3
100
AcDbEntity
  8
0
  6
Continuous
100
AcDbLine
 10
184.0273551930826
 20
120.8322000310402
 30
0.0
 11
183.9886153452574
 21
120.8198263075719
 31
0.0
  0
LINE
  5
31D
330
E3
100
AcDbEntity
  8
0
  6
Continuous
100
AcDbLine
 10
183.9886153452574
 20
120.8198263075719
 30
0.0
 11
183.9514605302872
 21
120.8077366937664
 31
0.0
  0
LINE
  5
31E
330
E3
100
AcDbEntity
  8
0
  6
Continuous
100
AcDbLine
 10
183.9514605302872
 20
120.8077366937664
 30
0.0
 11
183.91617859612
 21
120.7959760490439
 31
0.0
  0
LINE
  5
31F
330
E3
100
AcDbEntity
  8
0
  6
Continuous
100
AcDbLine
 10
183.91617859612
 20
120.7959760490439
 30
0.0
 11
183.8830461758483
 21
120.7845929711101
 31
0.0
  0
LINE
  5
320
330
E3
100
AcDbEntity
  8
0
  6
Continuous
100
AcDbLine
 10
183.8830461758483
 20
120.7845929711101
 30
0.0
 11
183.8523212111396
 21
120.7736323193854
 31
0.0
  0
LINE
  5
321
330
E3
100
AcDbEntity
  8
0
  6
Continuous
100
AcDbLine
 10
183.8523212111396
 20
120.7736323193854
 30
0.0
 11
183.8242504288064
 21
120.7631426915751
 31
0.0
  0
LINE
  5
322
330
E3
100
AcDbEntity
  8
0
  6
Continuous
100
AcDbLine
 10
183.8242504288064
 20
120.7631426915751
 30
0.0
 11
183.7990469110954
 21
120.7531577322447
 31
0.0
  0
LINE
  5
323
330
E3
100
AcDbEntity
  8
0
  6
Continuous
100
AcDbLine
 10
183.7990469110954
 20
120.7531577322447
 30
0.0
 11
183.7769125253989
 21
120.7437148242444
 31
0.0
  0
LINE
  5
324
330
E3
100
AcDbEntity
  8
0
  6
Continuous
100
AcDbLine
 10
183.7769125253989
 20
120.7437148242444
 30
0.0
 11
183.7580267093984
 21
120.7348438738546
 31
0.0
  0
LINE
  5
325
330
E3
100
AcDbEntity
  8
0
  6
Continuous
100
AcDbLine
 10
183.7580267093984
 20
120.7348438738546
 30
0.0
 11
183.7425352562103
 21
120.7265710490706
 31
0.0
  0
LINE
  5
326
330
E3
100
AcDbEntity
  8
0
  6
Continuous
100
AcDbLine
 10
183.7425352562103
 20
120.7265710490706
 30
0.0
 11
183.7305652675259
 21
120.7189225178875
 31
0.0
  0
LINE
  5
327
330
E3
100
AcDbEntity
  8
0
  6
Continuous
100
AcDbLine
 10
183.7305652675259
 20
120.7189225178875
 30
0.0
 11
183.7222139387561
 21
120.7119094951604
 31
0.0
  0
LINE
  5
328
330
E3
100
AcDbEntity
  8
0
  6
Continuous
100
AcDbLine
 10
183.7222139387561
 20
120.7119094951604
 30
0.0
 11
183.717554665565
 21
120.7055464547537
 31
0.0
  0
LINE
  5
329
330
E3
100
AcDbEntity
  8
0
  6
Continuous
100
AcDbLine
 10
183.717554665565
 20
120.7055464547537
 30
0.0
 11
183.7166284052505
 21
120.6998426078812
 31
0.0
  0
LINE
  5
32A
330
E3
100
AcDbEntity
  8
0
  6
Continuous
100
AcDbLine
 10
184.735545621733
 20
120.6800464054922
 30
0.0
 11
184.7346193614185
 21
120.6743425586197
 31
0.0
  0
LINE
  5
32B
330
E3
100
AcDbEntity
  8
0
  6
Continuous
100
AcDbLine
 10
184.7346193614185
 20
120.6743425586197
 30
0.0
 11
184.7299598706162
 21
120.667980442487
 31
0.0
  0
LINE
  5
32C
330
E3
100
AcDbEntity
  8
0
  6
Continuous
100
AcDbLine
 10
184.7299598706162
 20
120.667980442487
 30
0.0
 11
184.7216107984933
 21
120.6609678849785
 31
0.0
  0
LINE
  5
32D
330
E3
100
AcDbEntity
  8
0
  6
Continuous
100
AcDbLine
 10
184.7216107984933
 20
120.6609678849785
 30
0.0
 11
184.7096408098089
 21
120.6533156155104
 31
0.0
  0
LINE
  5
32E
330
E3
100
AcDbEntity
  8
0
  6
Continuous
100
AcDbLine
 10
184.7096408098089
 20
120.6533156155104
 30
0.0
 11
184.6941493566209
 21
120.6450427907263
 31
0.0
  0
LINE
  5
32F
330
E3
100
AcDbEntity
  8
0
  6
Continuous
100
AcDbLine
 10
184.6941493566209
 20
120.6450427907263
 30
0.0
 11
184.6752598023353
 21
120.6361718403365
 31
0.0
  0
LINE
  5
330
330
E3
100
AcDbEntity
  8
0
  6
Continuous
100
AcDbLine
 10
184.6752598023353
 20
120.6361718403365
 30
0.0
 11
184.6531291549238
 21
120.6267289323363
 31
0.0
  0
LINE
  5
331
330
E3
100
AcDbEntity
  8
0
  6
Continuous
100
AcDbLine
 10
184.6531291549238
 20
120.6267289323363
 30
0.0
 11
184.6279256372129
 21
120.6167439730058
 31
0.0
  0
LINE
  5
332
330
E3
100
AcDbEntity
  8
0
  6
Continuous
100
AcDbLine
 10
184.6279256372129
 20
120.6167439730058
 30
0.0
 11
184.5998511165946
 21
120.6062543451956
 31
0.0
  0
LINE
  5
333
330
E3
100
AcDbEntity
  8
0
  6
Continuous
100
AcDbLine
 10
184.5998511165946
 20
120.6062543451956
 30
0.0
 11
184.5691261518859
 21
120.5952974317559
 31
0.0
  0
LINE
  5
334
330
E3
100
AcDbEntity
  8
0
  6
Continuous
100
AcDbLine
 10
184.5691261518859
 20
120.5952974317559
 30
0.0
 11
184.5359937316142
 21
120.5839143538221
 31
0.0
  0
LINE
  5
335
330
E3
100
AcDbEntity
  8
0
  6
Continuous
100
AcDbLine
 10
184.5359937316142
 20
120.5839143538221
 30
0.0
 11
184.500711797447
 21
120.5721537090996
 31
0.0
  0
LINE
  5
336
330
E3
100
AcDbEntity
  8
0
  6
Continuous
100
AcDbLine
 10
184.500711797447
 20
120.5721537090996
 30
0.0
 11
184.4635569824769
 21
120.560060357009
 31
0.0
  0
LINE
  5
337
330
E3
100
AcDbEntity
  8
0
  6
Continuous
100
AcDbLine
 10
184.4635569824769
 20
120.560060357009
 30
0.0
 11
184.4248171346516
 21
120.5476903718258
 31
0.0
  0
LINE
  5
338
330
E3
100
AcDbEntity
  8
0
  6
Continuous
100
AcDbLine
 10
184.4248171346516
 20
120.5476903718258
 30
0.0
 11
184.3847987933441
 21
120.5350923512554
 31
0.0
  0
LINE
  5
339
330
E3
100
AcDbEntity
  8
0
  6
Continuous
100
AcDbLine
 10
184.3847987933441
 20
120.5350923512554
 30
0.0
 11
184.3438047596423
 21
120.5223223695734
 31
0.0
  0
LINE
  5
33A
330
E3
100
AcDbEntity
  8
0
  6
Continuous
100
AcDbLine
 10
184.3438047596423
 20
120.5223223695734
 30
0.0
 11
184.3021640026293
 21
120.5094402393402
 31
0.0
  0
LINE
  5
33B
330
E3
100
AcDbEntity
  8
0
  6
Continuous
100
AcDbLine
 10
184.3021640026293
 20
120.5094402393402
 30
0.0
 11
184.2601980148181
 21
120.4964982965465
 31
0.0
  0
LINE
  5
33C
330
E3
100
AcDbEntity
  8
0
  6
Continuous
100
AcDbLine
 10
184.2601980148181
 20
120.4964982965465
 30
0.0
 11
184.218228288722
 21
120.4835600920378
 31
0.0
  0
LINE
  5
33D
330
E3
100
AcDbEntity
  8
0
  6
Continuous
100
AcDbLine
 10
184.218228288722
 20
120.4835600920378
 30
0.0
 11
184.176587531709
 21
120.4706779618047
 31
0.0
  0
LINE
  5
33E
330
E3
100
AcDbEntity
  8
0
  6
Continuous
100
AcDbLine
 10
184.176587531709
 20
120.4706779618047
 30
0.0
 11
184.1355972362922
 21
120.4579079801227
 31
0.0
  0
LINE
  5
33F
330
E3
100
AcDbEntity
  8
0
  6
Continuous
100
AcDbLine
 10
184.1355972362922
 20
120.4579079801227
 30
0.0
 11
184.0955751566997
 21
120.4453099595523
 31
0.0
  0
LINE
  5
340
330
E3
100
AcDbEntity
  8
0
  6
Continuous
100
AcDbLine
 10
184.0955751566997
 20
120.4453099595523
 30
0.0
 11
184.0568353088744
 21
120.432939974369
 31
0.0
  0
LINE
  5
341
330
E3
100
AcDbEntity
  8
0
  6
Continuous
100
AcDbLine
 10
184.0568353088744
 20
120.432939974369
 30
0.0
 11
184.0196804939042
 21
120.4208466222784
 31
0.0
  0
LINE
  5
342
330
E3
100
AcDbEntity
  8
0
  6
Continuous
100
AcDbLine
 10
184.0196804939042
 20
120.4208466222784
 30
0.0
 11
183.984398559737
 21
120.409085977556
 31
0.0
  0
LINE
  5
343
330
E3
100
AcDbEntity
  8
0
  6
Continuous
100
AcDbLine
 10
183.984398559737
 20
120.409085977556
 30
0.0
 11
183.9512661394654
 21
120.3977028996222
 31
0.0
  0
LINE
  5
344
330
E3
100
AcDbEntity
  8
0
  6
Continuous
100
AcDbLine
 10
183.9512661394654
 20
120.3977028996222
 30
0.0
 11
183.9205411747567
 21
120.3867459861825
 31
0.0
  0
LINE
  5
345
330
E3
100
AcDbEntity
  8
0
  6
Continuous
100
AcDbLine
 10
183.9205411747567
 20
120.3867459861825
 30
0.0
 11
183.8924666541383
 21
120.3762526200872
 31
0.0
  0
LINE
  5
346
330
E3
100
AcDbEntity
  8
0
  6
Continuous
100
AcDbLine
 10
183.8924666541383
 20
120.3762526200872
 30
0.0
 11
183.8672668747125
 21
120.3662713990418
 31
0.0
  0
LINE
  5
347
330
E3
100
AcDbEntity
  8
0
  6
Continuous
100
AcDbLine
 10
183.8672668747125
 20
120.3662713990418
 30
0.0
 11
183.8451324890159
 21
120.3568284910416
 31
0.0
  0
LINE
  5
348
330
E3
100
AcDbEntity
  8
0
  6
Continuous
100
AcDbLine
 10
183.8451324890159
 20
120.3568284910416
 30
0.0
 11
183.8262429347304
 21
120.3479575406518
 31
0.0
  0
LINE
  5
349
330
E3
100
AcDbEntity
  8
0
  6
Continuous
100
AcDbLine
 10
183.8262429347304
 20
120.3479575406518
 30
0.0
 11
183.8107514815423
 21
120.3396847158677
 31
0.0
  0
LINE
  5
34A
330
E3
100
AcDbEntity
  8
0
  6
Continuous
100
AcDbLine
 10
183.8107514815423
 20
120.3396847158677
 30
0.0
 11
183.7987814928579
 21
120.3320324463996
 31
0.0
  0
LINE
  5
34B
330
E3
100
AcDbEntity
  8
0
  6
Continuous
100
AcDbLine
 10
183.7987814928579
 20
120.3320324463996
 30
0.0
 11
183.7904339023731
 21
120.3250194236725
 31
0.0
  0
LINE
  5
34C
330
E3
100
AcDbEntity
  8
0
  6
Continuous
100
AcDbLine
 10
183.7904339023731
 20
120.3250194236725
 30
0.0
 11
183.7857735925056
 21
120.3186576946418
 31
0.0
  0
LINE
  5
34D
330
E3
100
AcDbEntity
  8
0
  6
Continuous
100
AcDbLine
 10
183.7857735925056
 20
120.3186576946418
 30
0.0
 11
183.7848473321911
 21
120.3129538477693
 31
0.0
  0
LINE
  5
34E
330
E3
100
AcDbEntity
  8
0
  6
Continuous
100
AcDbLine
 10
184.8037645486736
 20
120.2931576453802
 30
0.0
 11
184.8028382883591
 21
120.2874537985078
 31
0.0
  0
LINE
  5
34F
330
E3
100
AcDbEntity
  8
0
  6
Continuous
100
AcDbLine
 10
184.8028382883591
 20
120.2874537985078
 30
0.0
 11
184.7981787975568
 21
120.2810916823751
 31
0.0
  0
LINE
  5
350
330
E3
100
AcDbEntity
  8
0
  6
Continuous
100
AcDbLine
 10
184.7981787975568
 20
120.2810916823751
 30
0.0
 11
184.7898270238254
 21
120.2740778134906
 31
0.0
  0
LINE
  5
351
330
E3
100
AcDbEntity
  8
0
  6
Continuous
100
AcDbLine
 10
184.7898270238254
 20
120.2740778134906
 30
0.0
 11
184.777857035141
 21
120.2664292823075
 31
0.0
  0
LINE
  5
352
330
E3
100
AcDbEntity
  8
0
  6
Continuous
100
AcDbLine
 10
184.777857035141
 20
120.2664292823075
 30
0.0
 11
184.7623693202379
 21
120.2581564575234
 31
0.0
  0
LINE
  5
353
330
E3
100
AcDbEntity
  8
0
  6
Continuous
100
AcDbLine
 10
184.7623693202379
 20
120.2581564575234
 30
0.0
 11
184.7434797659524
 21
120.2492855071336
 31
0.0
  0
LINE
  5
354
330
E3
100
AcDbEntity
  8
0
  6
Continuous
100
AcDbLine
 10
184.7434797659524
 20
120.2492855071336
 30
0.0
 11
184.7213453802558
 21
120.2398425991334
 31
0.0
  0
LINE
  5
355
330
E3
100
AcDbEntity
  8
0
  6
Continuous
100
AcDbLine
 10
184.7213453802558
 20
120.2398425991334
 30
0.0
 11
184.69614560083
 21
120.229857639803
 31
0.0
  0
LINE
  5
356
330
E3
100
AcDbEntity
  8
0
  6
Continuous
100
AcDbLine
 10
184.69614560083
 20
120.229857639803
 30
0.0
 11
184.6680710802116
 21
120.2193680119927
 31
0.0
  0
LINE
  5
357
330
E3
100
AcDbEntity
  8
0
  6
Continuous
100
AcDbLine
 10
184.6680710802116
 20
120.2193680119927
 30
0.0
 11
184.6373461155029
 21
120.2084073602679
 31
0.0
  0
LINE
  5
358
330
E3
100
AcDbEntity
  8
0
  6
Continuous
100
AcDbLine
 10
184.6373461155029
 20
120.2084073602679
 30
0.0
 11
184.6042136952313
 21
120.1970242823341
 31
0.0
  0
LINE
  5
359
330
E3
100
AcDbEntity
  8
0
  6
Continuous
100
AcDbLine
 10
184.6042136952313
 20
120.1970242823341
 30
0.0
 11
184.5689317610641
 21
120.1852636376117
 31
0.0
  0
LINE
  5
35A
330
E3
100
AcDbEntity
  8
0
  6
Continuous
100
AcDbLine
 10
184.5689317610641
 20
120.1852636376117
 30
0.0
 11
184.5317769460939
 21
120.1731702855211
 31
0.0
  0
LINE
  5
35B
330
E3
100
AcDbEntity
  8
0
  6
Continuous
100
AcDbLine
 10
184.5317769460939
 20
120.1731702855211
 30
0.0
 11
184.4930370982686
 21
120.1608003003379
 31
0.0
  0
LINE
  5
35C
330
E3
100
AcDbEntity
  8
0
  6
Continuous
100
AcDbLine
 10
184.4930370982686
 20
120.1608003003379
 30
0.0
 11
184.4530150186761
 21
120.1482022797675
 31
0.0
  0
LINE
  5
35D
330
E3
100
AcDbEntity
  8
0
  6
Continuous
100
AcDbLine
 10
184.4530150186761
 20
120.1482022797675
 30
0.0
 11
184.4120247232593
 21
120.1354360363705
 31
0.0
  0
LINE
  5
35E
330
E3
100
AcDbEntity
  8
0
  6
Continuous
100
AcDbLine
 10
184.4120247232593
 20
120.1354360363705
 30
0.0
 11
184.3703839662463
 21
120.1225539061374
 31
0.0
  0
LINE
  5
35F
330
E3
100
AcDbEntity
  8
0
  6
Continuous
100
AcDbLine
 10
184.3703839662463
 20
120.1225539061374
 30
0.0
 11
184.3284142401502
 21
120.1096119633437
 31
0.0
  0
LINE
  5
360
330
E3
100
AcDbEntity
  8
0
  6
Continuous
100
AcDbLine
 10
184.3284142401502
 20
120.1096119633437
 30
0.0
 11
184.286448252339
 21
120.0966700205499
 31
0.0
  0
LINE
  5
361
330
E3
100
AcDbEntity
  8
0
  6
Continuous
100
AcDbLine
 10
184.286448252339
 20
120.0966700205499
 30
0.0
 11
184.244803757041
 21
120.0837878903168
 31
0.0
  0
LINE
  5
362
330
E3
100
AcDbEntity
  8
0
  6
Continuous
100
AcDbLine
 10
184.244803757041
 20
120.0837878903168
 30
0.0
 11
184.2038134616242
 21
120.0710179086348
 31
0.0
  0
LINE
  5
363
330
E3
100
AcDbEntity
  8
0
  6
Continuous
100
AcDbLine
 10
184.2038134616242
 20
120.0710179086348
 30
0.0
 11
184.1637951203167
 21
120.0584236263494
 31
0.0
  0
LINE
  5
364
330
E3
100
AcDbEntity
  8
0
  6
Continuous
100
AcDbLine
 10
184.1637951203167
 20
120.0584236263494
 30
0.0
 11
184.1250552724915
 21
120.0460499028811
 31
0.0
  0
LINE
  5
365
330
E3
100
AcDbEntity
  8
0
  6
Continuous
100
AcDbLine
 10
184.1250552724915
 20
120.0460499028811
 30
0.0
 11
184.0878967192363
 21
120.0339602890756
 31
0.0
  0
LINE
  5
366
330
E3
100
AcDbEntity
  8
0
  6
Continuous
100
AcDbLine
 10
184.0878967192363
 20
120.0339602890756
 30
0.0
 11
184.0526147850691
 21
120.0221959060681
 31
0.0
  0
LINE
  5
367
330
E3
100
AcDbEntity
  8
0
  6
Continuous
100
AcDbLine
 10
184.0526147850691
 20
120.0221959060681
 30
0.0
 11
184.0194823647974
 21
120.0108128281343
 31
0.0
  0
LINE
  5
368
330
E3
100
AcDbEntity
  8
0
  6
Continuous
100
AcDbLine
 10
184.0194823647974
 20
120.0108128281343
 30
0.0
 11
183.9887611383737
 21
119.9998559146946
 31
0.0
  0
LINE
  5
369
330
E3
100
AcDbEntity
  8
0
  6
Continuous
100
AcDbLine
 10
183.9887611383737
 20
119.9998559146946
 30
0.0
 11
183.9606866177554
 21
119.9893662868843
 31
0.0
  0
LINE
  5
36A
330
E3
100
AcDbEntity
  8
0
  6
Continuous
100
AcDbLine
 10
183.9606866177554
 20
119.9893662868843
 30
0.0
 11
183.9354831000445
 21
119.9793813275539
 31
0.0
  0
LINE
  5
36B
330
E3
100
AcDbEntity
  8
0
  6
Continuous
100
AcDbLine
 10
183.9354831000445
 20
119.9793813275539
 30
0.0
 11
183.913352452633
 21
119.9699384195536
 31
0.0
  0
LINE
  5
36C
330
E3
100
AcDbEntity
  8
0
  6
Continuous
100
AcDbLine
 10
183.913352452633
 20
119.9699384195536
 30
0.0
 11
183.8944628983474
 21
119.9610674691638
 31
0.0
  0
LINE
  5
36D
330
E3
100
AcDbEntity
  8
0
  6
Continuous
100
AcDbLine
 10
183.8944628983474
 20
119.9610674691638
 30
0.0
 11
183.8789714451594
 21
119.9527946443798
 31
0.0
  0
LINE
  5
36E
330
E3
100
AcDbEntity
  8
0
  6
Continuous
100
AcDbLine
 10
183.8789714451594
 20
119.9527946443798
 30
0.0
 11
183.867001456475
 21
119.9451423749116
 31
0.0
  0
LINE
  5
36F
330
E3
100
AcDbEntity
  8
0
  6
Continuous
100
AcDbLine
 10
183.867001456475
 20
119.9451423749116
 30
0.0
 11
183.8586538659902
 21
119.9381293521846
 31
0.0
  0
LINE
  5
370
330
E3
100
AcDbEntity
  8
0
  6
Continuous
100
AcDbLine
 10
183.8586538659902
 20
119.9381293521846
 30
0.0
 11
183.8539925194462
 21
119.9317689345299
 31
0.0
  0
LINE
  5
371
330
E3
100
AcDbEntity
  8
0
  6
Continuous
100
AcDbLine
 10
183.8539925194462
 20
119.9317689345299
 30
0.0
 11
183.8530662591317
 21
119.9260650876574
 31
0.0
  0
LINE
  5
372
330
E3
100
AcDbEntity
  8
0
  6
Continuous
100
AcDbLine
 10
184.8719834756142
 20
119.9062688852683
 30
0.0
 11
184.8710572152997
 21
119.9005650383958
 31
0.0
  0
LINE
  5
373
330
E3
100
AcDbEntity
  8
0
  6
Continuous
100
AcDbLine
 10
184.8710572152997
 20
119.9005650383958
 30
0.0
 11
184.8663977244973
 21
119.8942029222632
 31
0.0
  0
LINE
  5
374
330
E3
100
AcDbEntity
  8
0
  6
Continuous
100
AcDbLine
 10
184.8663977244973
 20
119.8942029222632
 30
0.0
 11
184.8580469874424
 21
119.8871914802877
 31
0.0
  0
LINE
  5
375
330
E3
100
AcDbEntity
  8
0
  6
Continuous
100
AcDbLine
 10
184.8580469874424
 20
119.8871914802877
 30
0.0
 11
184.846076998758
 21
119.8795392108196
 31
0.0
  0
LINE
  5
376
330
E3
100
AcDbEntity
  8
0
  6
Continuous
100
AcDbLine
 10
184.846076998758
 20
119.8795392108196
 30
0.0
 11
184.8305855455699
 21
119.8712663860355
 31
0.0
  0
LINE
  5
377
330
E3
100
AcDbEntity
  8
0
  6
Continuous
100
AcDbLine
 10
184.8305855455699
 20
119.8712663860355
 30
0.0
 11
184.8116997295694
 21
119.8623954356457
 31
0.0
  0
LINE
  5
378
330
E3
100
AcDbEntity
  8
0
  6
Continuous
100
AcDbLine
 10
184.8116997295694
 20
119.8623954356457
 30
0.0
 11
184.7895653438729
 21
119.8529525276455
 31
0.0
  0
LINE
  5
379
330
E3
100
AcDbEntity
  8
0
  6
Continuous
100
AcDbLine
 10
184.7895653438729
 20
119.8529525276455
 30
0.0
 11
184.764361826162
 21
119.842967568315
 31
0.0
  0
LINE
  5
37A
330
E3
100
AcDbEntity
  8
0
  6
Continuous
100
AcDbLine
 10
184.764361826162
 20
119.842967568315
 30
0.0
 11
184.7362873055436
 21
119.8324779405048
 31
0.0
  0
LINE
  5
37B
330
E3
100
AcDbEntity
  8
0
  6
Continuous
100
AcDbLine
 10
184.7362873055436
 20
119.8324779405048
 30
0.0
 11
184.70556607912
 21
119.8215210270651
 31
0.0
  0
LINE
  5
37C
330
E3
100
AcDbEntity
  8
0
  6
Continuous
100
AcDbLine
 10
184.70556607912
 20
119.8215210270651
 30
0.0
 11
184.6724336588483
 21
119.8101379491312
 31
0.0
  0
LINE
  5
37D
330
E3
100
AcDbEntity
  8
0
  6
Continuous
100
AcDbLine
 10
184.6724336588483
 20
119.8101379491312
 30
0.0
 11
184.6371517246811
 21
119.7983735661238
 31
0.0
  0
LINE
  5
37E
330
E3
100
AcDbEntity
  8
0
  6
Continuous
100
AcDbLine
 10
184.6371517246811
 20
119.7983735661238
 30
0.0
 11
184.599996909711
 21
119.7862839523183
 31
0.0
  0
LINE
  5
37F
330
E3
100
AcDbEntity
  8
0
  6
Continuous
100
AcDbLine
 10
184.599996909711
 20
119.7862839523183
 30
0.0
 11
184.5612570618857
 21
119.77391022885
 31
0.0
  0
LINE
  5
380
330
E3
100
AcDbEntity
  8
0
  6
Continuous
100
AcDbLine
 10
184.5612570618857
 20
119.77391022885
 30
0.0
 11
184.5212349822932
 21
119.7613159465646
 31
0.0
  0
LINE
  5
381
330
E3
100
AcDbEntity
  8
0
  6
Continuous
100
AcDbLine
 10
184.5212349822932
 20
119.7613159465646
 30
0.0
 11
184.4802446868763
 21
119.7485459648826
 31
0.0
  0
LINE
  5
382
330
E3
100
AcDbEntity
  8
0
  6
Continuous
100
AcDbLine
 10
184.4802446868763
 20
119.7485459648826
 30
0.0
 11
184.4386039298633
 21
119.7356638346494
 31
0.0
  0
LINE
  5
383
330
E3
100
AcDbEntity
  8
0
  6
Continuous
100
AcDbLine
 10
184.4386039298633
 20
119.7356638346494
 30
0.0
 11
184.3966342037672
 21
119.7227218918557
 31
0.0
  0
LINE
  5
384
330
E3
100
AcDbEntity
  8
0
  6
Continuous
100
AcDbLine
 10
184.3966342037672
 20
119.7227218918557
 30
0.0
 11
184.354664477671
 21
119.7097836873471
 31
0.0
  0
LINE
  5
385
330
E3
100
AcDbEntity
  8
0
  6
Continuous
100
AcDbLine
 10
184.354664477671
 20
119.7097836873471
 30
0.0
 11
184.3130237206581
 21
119.6968978188289
 31
0.0
  0
LINE
  5
386
330
E3
100
AcDbEntity
  8
0
  6
Continuous
100
AcDbLine
 10
184.3130237206581
 20
119.6968978188289
 30
0.0
 11
184.2720334252413
 21
119.6841315754319
 31
0.0
  0
LINE
  5
387
330
E3
100
AcDbEntity
  8
0
  6
Continuous
100
AcDbLine
 10
184.2720334252413
 20
119.6841315754319
 30
0.0
 11
184.2320113456487
 21
119.6715335548615
 31
0.0
  0
LINE
  5
388
330
E3
100
AcDbEntity
  8
0
  6
Continuous
100
AcDbLine
 10
184.2320113456487
 20
119.6715335548615
 30
0.0
 11
184.1932714978235
 21
119.6591635696782
 31
0.0
  0
LINE
  5
389
330
E3
100
AcDbEntity
  8
0
  6
Continuous
100
AcDbLine
 10
184.1932714978235
 20
119.6591635696782
 30
0.0
 11
184.1561166828533
 21
119.6470702175877
 31
0.0
  0
LINE
  5
38A
330
E3
100
AcDbEntity
  8
0
  6
Continuous
100
AcDbLine
 10
184.1561166828533
 20
119.6470702175877
 30
0.0
 11
184.1208347486861
 21
119.6353095728652
 31
0.0
  0
LINE
  5
38B
330
E3
100
AcDbEntity
  8
0
  6
Continuous
100
AcDbLine
 10
184.1208347486861
 20
119.6353095728652
 30
0.0
 11
184.0877023284144
 21
119.6239264949314
 31
0.0
  0
LINE
  5
38C
330
E3
100
AcDbEntity
  8
0
  6
Continuous
100
AcDbLine
 10
184.0877023284144
 20
119.6239264949314
 30
0.0
 11
184.0569811019908
 21
119.6129658432067
 31
0.0
  0
LINE
  5
38D
330
E3
100
AcDbEntity
  8
0
  6
Continuous
100
AcDbLine
 10
184.0569811019908
 20
119.6129658432067
 30
0.0
 11
184.0289065813725
 21
119.6024762153964
 31
0.0
  0
LINE
  5
38E
330
E3
100
AcDbEntity
  8
0
  6
Continuous
100
AcDbLine
 10
184.0289065813725
 20
119.6024762153964
 30
0.0
 11
184.0037030636616
 21
119.592491256066
 31
0.0
  0
LINE
  5
38F
330
E3
100
AcDbEntity
  8
0
  6
Continuous
100
AcDbLine
 10
184.0037030636616
 20
119.592491256066
 30
0.0
 11
183.981568677965
 21
119.5830483480657
 31
0.0
  0
LINE
  5
390
330
E3
100
AcDbEntity
  8
0
  6
Continuous
100
AcDbLine
 10
183.981568677965
 20
119.5830483480657
 30
0.0
 11
183.9626828619645
 21
119.5741773976759
 31
0.0
  0
LINE
  5
391
330
E3
100
AcDbEntity
  8
0
  6
Continuous
100
AcDbLine
 10
183.9626828619645
 20
119.5741773976759
 30
0.0
 11
183.9471914087764
 21
119.5659045728918
 31
0.0
  0
LINE
  5
392
330
E3
100
AcDbEntity
  8
0
  6
Continuous
100
AcDbLine
 10
183.9471914087764
 20
119.5659045728918
 30
0.0
 11
183.935221420092
 21
119.5582560417087
 31
0.0
  0
LINE
  5
393
330
E3
100
AcDbEntity
  8
0
  6
Continuous
100
AcDbLine
 10
183.935221420092
 20
119.5582560417087
 30
0.0
 11
183.9268700913222
 21
119.5512430189817
 31
0.0
  0
LINE
  5
394
330
E3
100
AcDbEntity
  8
0
  6
Continuous
100
AcDbLine
 10
183.9268700913222
 20
119.5512430189817
 30
0.0
 11
183.9222114463868
 21
119.5448801744179
 31
0.0
  0
LINE
  5
395
330
E3
100
AcDbEntity
  8
0
  6
Continuous
100
AcDbLine
 10
183.9222114463868
 20
119.5448801744179
 30
0.0
 11
183.9212851860723
 21
119.5391763275454
 31
0.0
  0
LINE
  5
396
330
E3
100
AcDbEntity
  8
0
  6
Continuous
100
AcDbLine
 10
184.9402024025548
 20
119.5193801251564
 30
0.0
 11
184.9392761422403
 21
119.5136762782839
 31
0.0
  0
LINE
  5
397
330
E3
100
AcDbEntity
  8
0
  6
Continuous
100
AcDbLine
 10
184.9392761422403
 20
119.5136762782839
 30
0.0
 11
184.9346166514379
 21
119.5073141621512
 31
0.0
  0
LINE
  5
398
330
E3
100
AcDbEntity
  8
0
  6
Continuous
100
AcDbLine
 10
184.9346166514379
 20
119.5073141621512
 30
0.0
 11
184.9262669510595
 21
119.5003014087998
 31
0.0
  0
LINE
  5
399
330
E3
100
AcDbEntity
  8
0
  6
Continuous
100
AcDbLine
 10
184.9262669510595
 20
119.5003014087998
 30
0.0
 11
184.9142969623751
 21
119.4926491393317
 31
0.0
  0
LINE
  5
39A
330
E3
100
AcDbEntity
  8
0
  6
Continuous
100
AcDbLine
 10
184.9142969623751
 20
119.4926491393317
 30
0.0
 11
184.898805509187
 21
119.4843763145476
 31
0.0
  0
LINE
  5
39B
330
E3
100
AcDbEntity
  8
0
  6
Continuous
100
AcDbLine
 10
184.898805509187
 20
119.4843763145476
 30
0.0
 11
184.8799159549015
 21
119.4755053641578
 31
0.0
  0
LINE
  5
39C
330
E3
100
AcDbEntity
  8
0
  6
Continuous
100
AcDbLine
 10
184.8799159549015
 20
119.4755053641578
 30
0.0
 11
184.8577853074899
 21
119.4660624561576
 31
0.0
  0
LINE
  5
39D
330
E3
100
AcDbEntity
  8
0
  6
Continuous
100
AcDbLine
 10
184.8577853074899
 20
119.4660624561576
 30
0.0
 11
184.832581789779
 21
119.4560812351122
 31
0.0
  0
LINE
  5
39E
330
E3
100
AcDbEntity
  8
0
  6
Continuous
100
AcDbLine
 10
184.832581789779
 20
119.4560812351122
 30
0.0
 11
184.8045072691607
 21
119.4455878690169
 31
0.0
  0
LINE
  5
39F
330
E3
100
AcDbEntity
  8
0
  6
Continuous
100
AcDbLine
 10
184.8045072691607
 20
119.4455878690169
 30
0.0
 11
184.7737860427371
 21
119.4346309555771
 31
0.0
  0
LINE
  5
3A0
330
E3
100
AcDbEntity
  8
0
  6
Continuous
100
AcDbLine
 10
184.7737860427371
 20
119.4346309555771
 30
0.0
 11
184.7406536224654
 21
119.4232478776433
 31
0.0
  0
LINE
  5
3A1
330
E3
100
AcDbEntity
  8
0
  6
Continuous
100
AcDbLine
 10
184.7406536224654
 20
119.4232478776433
 30
0.0
 11
184.7053716882982
 21
119.4114872329209
 31
0.0
  0
LINE
  5
3A2
330
E3
100
AcDbEntity
  8
0
  6
Continuous
100
AcDbLine
 10
184.7053716882982
 20
119.4114872329209
 30
0.0
 11
184.668213135043
 21
119.3993938808303
 31
0.0
  0
LINE
  5
3A3
330
E3
100
AcDbEntity
  8
0
  6
Continuous
100
AcDbLine
 10
184.668213135043
 20
119.3993938808303
 30
0.0
 11
184.6294770255027
 21
119.3870238956471
 31
0.0
  0
LINE
  5
3A4
330
E3
100
AcDbEntity
  8
0
  6
Continuous
100
AcDbLine
 10
184.6294770255027
 20
119.3870238956471
 30
0.0
 11
184.5894549459102
 21
119.3744258750767
 31
0.0
  0
LINE
  5
3A5
330
E3
100
AcDbEntity
  8
0
  6
Continuous
100
AcDbLine
 10
184.5894549459102
 20
119.3744258750767
 30
0.0
 11
184.5484646504934
 21
119.3616558933946
 31
0.0
  0
LINE
  5
3A6
330
E3
100
AcDbEntity
  8
0
  6
Continuous
100
AcDbLine
 10
184.5484646504934
 20
119.3616558933946
 30
0.0
 11
184.5068201551954
 21
119.3487737631615
 31
0.0
  0
LINE
  5
3A7
330
E3
100
AcDbEntity
  8
0
  6
Continuous
100
AcDbLine
 10
184.5068201551954
 20
119.3487737631615
 30
0.0
 11
184.4648541673843
 21
119.3358355586528
 31
0.0
  0
LINE
  5
3A8
330
E3
100
AcDbEntity
  8
0
  6
Continuous
100
AcDbLine
 10
184.4648541673843
 20
119.3358355586528
 30
0.0
 11
184.4228844412881
 21
119.3228936158592
 31
0.0
  0
LINE
  5
3A9
330
E3
100
AcDbEntity
  8
0
  6
Continuous
100
AcDbLine
 10
184.4228844412881
 20
119.3228936158592
 30
0.0
 11
184.3812436842751
 21
119.310011485626
 31
0.0
  0
LINE
  5
3AA
330
E3
100
AcDbEntity
  8
0
  6
Continuous
100
AcDbLine
 10
184.3812436842751
 20
119.310011485626
 30
0.0
 11
184.3402533888583
 21
119.297241503944
 31
0.0
  0
LINE
  5
3AB
330
E3
100
AcDbEntity
  8
0
  6
Continuous
100
AcDbLine
 10
184.3402533888583
 20
119.297241503944
 30
0.0
 11
184.3002313092658
 21
119.2846434833735
 31
0.0
  0
LINE
  5
3AC
330
E3
100
AcDbEntity
  8
0
  6
Continuous
100
AcDbLine
 10
184.3002313092658
 20
119.2846434833735
 30
0.0
 11
184.2614914614405
 21
119.2722734981903
 31
0.0
  0
LINE
  5
3AD
330
E3
100
AcDbEntity
  8
0
  6
Continuous
100
AcDbLine
 10
184.2614914614405
 20
119.2722734981903
 30
0.0
 11
184.2243366464704
 21
119.2601801460997
 31
0.0
  0
LINE
  5
3AE
330
E3
100
AcDbEntity
  8
0
  6
Continuous
100
AcDbLine
 10
184.2243366464704
 20
119.2601801460997
 30
0.0
 11
184.1890547123031
 21
119.2484195013773
 31
0.0
  0
LINE
  5
3AF
330
E3
100
AcDbEntity
  8
0
  6
Continuous
100
AcDbLine
 10
184.1890547123031
 20
119.2484195013773
 30
0.0
 11
184.1559222920315
 21
119.2370364234435
 31
0.0
  0
LINE
  5
3B0
330
E3
100
AcDbEntity
  8
0
  6
Continuous
100
AcDbLine
 10
184.1559222920315
 20
119.2370364234435
 30
0.0
 11
184.1251973273228
 21
119.2260795100038
 31
0.0
  0
LINE
  5
3B1
330
E3
100
AcDbEntity
  8
0
  6
Continuous
100
AcDbLine
 10
184.1251973273228
 20
119.2260795100038
 30
0.0
 11
184.0971265449895
 21
119.2155898821935
 31
0.0
  0
LINE
  5
3B2
330
E3
100
AcDbEntity
  8
0
  6
Continuous
100
AcDbLine
 10
184.0971265449895
 20
119.2155898821935
 30
0.0
 11
184.0719230272786
 21
119.2056049228631
 31
0.0
  0
LINE
  5
3B3
330
E3
100
AcDbEntity
  8
0
  6
Continuous
100
AcDbLine
 10
184.0719230272786
 20
119.2056049228631
 30
0.0
 11
184.049788641582
 21
119.1961620148628
 31
0.0
  0
LINE
  5
3B4
330
E3
100
AcDbEntity
  8
0
  6
Continuous
100
AcDbLine
 10
184.049788641582
 20
119.1961620148628
 30
0.0
 11
184.0309028255815
 21
119.1872910644731
 31
0.0
  0
LINE
  5
3B5
330
E3
100
AcDbEntity
  8
0
  6
Continuous
100
AcDbLine
 10
184.0309028255815
 20
119.1872910644731
 30
0.0
 11
184.0154113723935
 21
119.179018239689
 31
0.0
  0
LINE
  5
3B6
330
E3
100
AcDbEntity
  8
0
  6
Continuous
100
AcDbLine
 10
184.0154113723935
 20
119.179018239689
 30
0.0
 11
184.0034413837091
 21
119.1713659702208
 31
0.0
  0
LINE
  5
3B7
330
E3
100
AcDbEntity
  8
0
  6
Continuous
100
AcDbLine
 10
184.0034413837091
 20
119.1713659702208
 30
0.0
 11
183.9950900549393
 21
119.1643529474938
 31
0.0
  0
LINE
  5
3B8
330
E3
100
AcDbEntity
  8
0
  6
Continuous
100
AcDbLine
 10
183.9950900549393
 20
119.1643529474938
 30
0.0
 11
183.9904303733273
 21
119.157991414306
 31
0.0
  0
LINE
  5
3B9
330
E3
100
AcDbEntity
  8
0
  6
Continuous
100
AcDbLine
 10
183.9904303733273
 20
119.157991414306
 30
0.0
 11
183.9895041130129
 21
119.1522875674335
 31
0.0
  0
LINE
  5
3BA
330
E3
100
AcDbEntity
  8
0
  6
Continuous
100
AcDbLine
 10
185.0084213294953
 20
119.1324913650445
 30
0.0
 11
185.0074950691809
 21
119.126787518172
 31
0.0
  0
LINE
  5
3BB
330
E3
100
AcDbEntity
  8
0
  6
Continuous
100
AcDbLine
 10
185.0074950691809
 20
119.126787518172
 30
0.0
 11
185.0028355783785
 21
119.1204254020393
 31
0.0
  0
LINE
  5
3BC
330
E3
100
AcDbEntity
  8
0
  6
Continuous
100
AcDbLine
 10
185.0028355783785
 20
119.1204254020393
 30
0.0
 11
184.9944869146765
 21
119.1134113373119
 31
0.0
  0
LINE
  5
3BD
330
E3
100
AcDbEntity
  8
0
  6
Continuous
100
AcDbLine
 10
184.9944869146765
 20
119.1134113373119
 30
0.0
 11
184.9825169259921
 21
119.1057628061288
 31
0.0
  0
LINE
  5
3BE
330
E3
100
AcDbEntity
  8
0
  6
Continuous
100
AcDbLine
 10
184.9825169259921
 20
119.1057628061288
 30
0.0
 11
184.967025472804
 21
119.0974899813447
 31
0.0
  0
LINE
  5
3BF
330
E3
100
AcDbEntity
  8
0
  6
Continuous
100
AcDbLine
 10
184.967025472804
 20
119.0974899813447
 30
0.0
 11
184.9481359185185
 21
119.0886190309549
 31
0.0
  0
LINE
  5
3C0
330
E3
100
AcDbEntity
  8
0
  6
Continuous
100
AcDbLine
 10
184.9481359185185
 20
119.0886190309549
 30
0.0
 11
184.926005271107
 21
119.0791761229547
 31
0.0
  0
LINE
  5
3C1
330
E3
100
AcDbEntity
  8
0
  6
Continuous
100
AcDbLine
 10
184.926005271107
 20
119.0791761229547
 30
0.0
 11
184.9008017533961
 21
119.0691911636242
 31
0.0
  0
LINE
  5
3C2
330
E3
100
AcDbEntity
  8
0
  6
Continuous
100
AcDbLine
 10
184.9008017533961
 20
119.0691911636242
 30
0.0
 11
184.8727272327777
 21
119.058701535814
 31
0.0
  0
LINE
  5
3C3
330
E3
100
AcDbEntity
  8
0
  6
Continuous
100
AcDbLine
 10
184.8727272327777
 20
119.058701535814
 30
0.0
 11
184.8420022680691
 21
119.0477408840892
 31
0.0
  0
LINE
  5
3C4
330
E3
100
AcDbEntity
  8
0
  6
Continuous
100
AcDbLine
 10
184.8420022680691
 20
119.0477408840892
 30
0.0
 11
184.8088698477974
 21
119.0363578061554
 31
0.0
  0
LINE
  5
3C5
330
E3
100
AcDbEntity
  8
0
  6
Continuous
100
AcDbLine
 10
184.8088698477974
 20
119.0363578061554
 30
0.0
 11
184.7735879136302
 21
119.024597161433
 31
0.0
  0
LINE
  5
3C6
330
E3
100
AcDbEntity
  8
0
  6
Continuous
100
AcDbLine
 10
184.7735879136302
 20
119.024597161433
 30
0.0
 11
184.73643309866
 21
119.0125075476275
 31
0.0
  0
LINE
  5
3C7
330
E3
100
AcDbEntity
  8
0
  6
Continuous
100
AcDbLine
 10
184.73643309866
 20
119.0125075476275
 30
0.0
 11
184.6976932508348
 21
119.0001338241592
 31
0.0
  0
LINE
  5
3C8
330
E3
100
AcDbEntity
  8
0
  6
Continuous
100
AcDbLine
 10
184.6976932508348
 20
119.0001338241592
 30
0.0
 11
184.6576749095273
 21
118.9875358035888
 31
0.0
  0
LINE
  5
3C9
330
E3
100
AcDbEntity
  8
0
  6
Continuous
100
AcDbLine
 10
184.6576749095273
 20
118.9875358035888
 30
0.0
 11
184.6166808758254
 21
118.9747695601918
 31
0.0
  0
LINE
  5
3CA
330
E3
100
AcDbEntity
  8
0
  6
Continuous
100
AcDbLine
 10
184.6166808758254
 20
118.9747695601918
 30
0.0
 11
184.5750401188124
 21
118.9618874299586
 31
0.0
  0
LINE
  5
3CB
330
E3
100
AcDbEntity
  8
0
  6
Continuous
100
AcDbLine
 10
184.5750401188124
 20
118.9618874299586
 30
0.0
 11
184.5330703927163
 21
118.9489454871649
 31
0.0
  0
LINE
  5
3CC
330
E3
100
AcDbEntity
  8
0
  6
Continuous
100
AcDbLine
 10
184.5330703927163
 20
118.9489454871649
 30
0.0
 11
184.4911044049051
 21
118.9360035443712
 31
0.0
  0
LINE
  5
3CD
330
E3
100
AcDbEntity
  8
0
  6
Continuous
100
AcDbLine
 10
184.4911044049051
 20
118.9360035443712
 30
0.0
 11
184.4494636478921
 21
118.9231214141381
 31
0.0
  0
LINE
  5
3CE
330
E3
100
AcDbEntity
  8
0
  6
Continuous
100
AcDbLine
 10
184.4494636478921
 20
118.9231214141381
 30
0.0
 11
184.4084696141903
 21
118.9103514324561
 31
0.0
  0
LINE
  5
3CF
330
E3
100
AcDbEntity
  8
0
  6
Continuous
100
AcDbLine
 10
184.4084696141903
 20
118.9103514324561
 30
0.0
 11
184.3684512728829
 21
118.8977571501707
 31
0.0
  0
LINE
  5
3D0
330
E3
100
AcDbEntity
  8
0
  6
Continuous
100
AcDbLine
 10
184.3684512728829
 20
118.8977571501707
 30
0.0
 11
184.3297114250576
 21
118.8853834267024
 31
0.0
  0
LINE
  5
3D1
330
E3
100
AcDbEntity
  8
0
  6
Continuous
100
AcDbLine
 10
184.3297114250576
 20
118.8853834267024
 30
0.0
 11
184.2925566100874
 21
118.8732938128968
 31
0.0
  0
LINE
  5
3D2
330
E3
100
AcDbEntity
  8
0
  6
Continuous
100
AcDbLine
 10
184.2925566100874
 20
118.8732938128968
 30
0.0
 11
184.2572746759202
 21
118.8615294298894
 31
0.0
  0
LINE
  5
3D3
330
E3
100
AcDbEntity
  8
0
  6
Continuous
100
AcDbLine
 10
184.2572746759202
 20
118.8615294298894
 30
0.0
 11
184.2241422556485
 21
118.8501463519556
 31
0.0
  0
LINE
  5
3D4
330
E3
100
AcDbEntity
  8
0
  6
Continuous
100
AcDbLine
 10
184.2241422556485
 20
118.8501463519556
 30
0.0
 11
184.1934172909399
 21
118.8391894385159
 31
0.0
  0
LINE
  5
3D5
330
E3
100
AcDbEntity
  8
0
  6
Continuous
100
AcDbLine
 10
184.1934172909399
 20
118.8391894385159
 30
0.0
 11
184.1653427703215
 21
118.8286998107056
 31
0.0
  0
LINE
  5
3D6
330
E3
100
AcDbEntity
  8
0
  6
Continuous
100
AcDbLine
 10
184.1653427703215
 20
118.8286998107056
 30
0.0
 11
184.1401392526106
 21
118.8187148513752
 31
0.0
  0
LINE
  5
3D7
330
E3
100
AcDbEntity
  8
0
  6
Continuous
100
AcDbLine
 10
184.1401392526106
 20
118.8187148513752
 30
0.0
 11
184.1180086051991
 21
118.8092719433749
 31
0.0
  0
LINE
  5
3D8
330
E3
100
AcDbEntity
  8
0
  6
Continuous
100
AcDbLine
 10
184.1180086051991
 20
118.8092719433749
 30
0.0
 11
184.0991190509135
 21
118.8004009929851
 31
0.0
  0
LINE
  5
3D9
330
E3
100
AcDbEntity
  8
0
  6
Continuous
100
AcDbLine
 10
184.0991190509135
 20
118.8004009929851
 30
0.0
 11
184.0836275977255
 21
118.7921281682011
 31
0.0
  0
LINE
  5
3DA
330
E3
100
AcDbEntity
  8
0
  6
Continuous
100
AcDbLine
 10
184.0836275977255
 20
118.7921281682011
 30
0.0
 11
184.0716576090411
 21
118.7844758987329
 31
0.0
  0
LINE
  5
3DB
330
E3
100
AcDbEntity
  8
0
  6
Continuous
100
AcDbLine
 10
184.0716576090411
 20
118.7844758987329
 30
0.0
 11
184.0633100185563
 21
118.7774666142909
 31
0.0
  0
LINE
  5
3DC
330
E3
100
AcDbEntity
  8
0
  6
Continuous
100
AcDbLine
 10
184.0633100185563
 20
118.7774666142909
 30
0.0
 11
184.0586493002679
 21
118.771102654194
 31
0.0
  0
LINE
  5
3DD
330
E3
100
AcDbEntity
  8
0
  6
Continuous
100
AcDbLine
 10
184.0586493002679
 20
118.771102654194
 30
0.0
 11
184.0577230399534
 21
118.7653988073215
 31
0.0
  0
LINE
  5
3DE
330
E3
100
AcDbEntity
  8
0
  6
Continuous
100
AcDbLine
 10
185.0766402564359
 20
118.7456026049325
 30
0.0
 11
185.0757139961214
 21
118.73989875806
 31
0.0
  0
LINE
  5
3DF
330
E3
100
AcDbEntity
  8
0
  6
Continuous
100
AcDbLine
 10
185.0757139961214
 20
118.73989875806
 30
0.0
 11
185.0710545053191
 21
118.7335366419274
 31
0.0
  0
LINE
  5
3E0
330
E3
100
AcDbEntity
  8
0
  6
Continuous
100
AcDbLine
 10
185.0710545053191
 20
118.7335366419274
 30
0.0
 11
185.0627031400085
 21
118.726525004109
 31
0.0
  0
LINE
  5
3E1
330
E3
100
AcDbEntity
  8
0
  6
Continuous
100
AcDbLine
 10
185.0627031400085
 20
118.726525004109
 30
0.0
 11
185.0507331513241
 21
118.7188727346409
 31
0.0
  0
LINE
  5
3E2
330
E3
100
AcDbEntity
  8
0
  6
Continuous
100
AcDbLine
 10
185.0507331513241
 20
118.7188727346409
 30
0.0
 11
185.0352416981361
 21
118.7105999098568
 31
0.0
  0
LINE
  5
3E3
330
E3
100
AcDbEntity
  8
0
  6
Continuous
100
AcDbLine
 10
185.0352416981361
 20
118.7105999098568
 30
0.0
 11
185.0163558821355
 21
118.701728959467
 31
0.0
  0
LINE
  5
3E4
330
E3
100
AcDbEntity
  8
0
  6
Continuous
100
AcDbLine
 10
185.0163558821355
 20
118.701728959467
 30
0.0
 11
184.994221496439
 21
118.6922860514668
 31
0.0
  0
LINE
  5
3E5
330
E3
100
AcDbEntity
  8
0
  6
Continuous
100
AcDbLine
 10
184.994221496439
 20
118.6922860514668
 30
0.0
 11
184.9690179787281
 21
118.6823010921363
 31
0.0
  0
LINE
  5
3E6
330
E3
100
AcDbEntity
  8
0
  6
Continuous
100
AcDbLine
 10
184.9690179787281
 20
118.6823010921363
 30
0.0
 11
184.9409471963948
 21
118.6718114643261
 31
0.0
  0
LINE
  5
3E7
330
E3
100
AcDbEntity
  8
0
  6
Continuous
100
AcDbLine
 10
184.9409471963948
 20
118.6718114643261
 30
0.0
 11
184.9102222316861
 21
118.6608545508863
 31
0.0
  0
LINE
  5
3E8
330
E3
100
AcDbEntity
  8
0
  6
Continuous
100
AcDbLine
 10
184.9102222316861
 20
118.6608545508863
 30
0.0
 11
184.8770898114144
 21
118.6494714729525
 31
0.0
  0
LINE
  5
3E9
330
E3
100
AcDbEntity
  8
0
  6
Continuous
100
AcDbLine
 10
184.8770898114144
 20
118.6494714729525
 30
0.0
 11
184.8418078772472
 21
118.6377108282301
 31
0.0
  0
LINE
  5
3EA
330
E3
100
AcDbEntity
  8
0
  6
Continuous
100
AcDbLine
 10
184.8418078772472
 20
118.6377108282301
 30
0.0
 11
184.8046530622771
 21
118.6256174761396
 31
0.0
  0
LINE
  5
3EB
330
E3
100
AcDbEntity
  8
0
  6
Continuous
100
AcDbLine
 10
184.8046530622771
 20
118.6256174761396
 30
0.0
 11
184.7659132144518
 21
118.6132474909563
 31
0.0
  0
LINE
  5
3EC
330
E3
100
AcDbEntity
  8
0
  6
Continuous
100
AcDbLine
 10
184.7659132144518
 20
118.6132474909563
 30
0.0
 11
184.7258911348593
 21
118.6006494703859
 31
0.0
  0
LINE
  5
3ED
330
E3
100
AcDbEntity
  8
0
  6
Continuous
100
AcDbLine
 10
184.7258911348593
 20
118.6006494703859
 30
0.0
 11
184.6849008394425
 21
118.5878794887038
 31
0.0
  0
LINE
  5
3EE
330
E3
100
AcDbEntity
  8
0
  6
Continuous
100
AcDbLine
 10
184.6849008394425
 20
118.5878794887038
 30
0.0
 11
184.6432600824295
 21
118.5749973584707
 31
0.0
  0
LINE
  5
3EF
330
E3
100
AcDbEntity
  8
0
  6
Continuous
100
AcDbLine
 10
184.6432600824295
 20
118.5749973584707
 30
0.0
 11
184.6012903563333
 21
118.562055415677
 31
0.0
  0
LINE
  5
3F0
330
E3
100
AcDbEntity
  8
0
  6
Continuous
100
AcDbLine
 10
184.6012903563333
 20
118.562055415677
 30
0.0
 11
184.5593243685222
 21
118.5491172111683
 31
0.0
  0
LINE
  5
3F1
330
E3
100
AcDbEntity
  8
0
  6
Continuous
100
AcDbLine
 10
184.5593243685222
 20
118.5491172111683
 30
0.0
 11
184.5176798732242
 21
118.5362313426502
 31
0.0
  0
LINE
  5
3F2
330
E3
100
AcDbEntity
  8
0
  6
Continuous
100
AcDbLine
 10
184.5176798732242
 20
118.5362313426502
 30
0.0
 11
184.4766895778074
 21
118.5234650992532
 31
0.0
  0
LINE
  5
3F3
330
E3
100
AcDbEntity
  8
0
  6
Continuous
100
AcDbLine
 10
184.4766895778074
 20
118.5234650992532
 30
0.0
 11
184.4366674982149
 21
118.5108670786828
 31
0.0
  0
LINE
  5
3F4
330
E3
100
AcDbEntity
  8
0
  6
Continuous
100
AcDbLine
 10
184.4366674982149
 20
118.5108670786828
 30
0.0
 11
184.3979313886746
 21
118.4984970934995
 31
0.0
  0
LINE
  5
3F5
330
E3
100
AcDbEntity
  8
0
  6
Continuous
100
AcDbLine
 10
184.3979313886746
 20
118.4984970934995
 30
0.0
 11
184.3607728354195
 21
118.4864037414089
 31
0.0
  0
LINE
  5
3F6
330
E3
100
AcDbEntity
  8
0
  6
Continuous
100
AcDbLine
 10
184.3607728354195
 20
118.4864037414089
 30
0.0
 11
184.3254909012522
 21
118.4746430966865
 31
0.0
  0
LINE
  5
3F7
330
E3
100
AcDbEntity
  8
0
  6
Continuous
100
AcDbLine
 10
184.3254909012522
 20
118.4746430966865
 30
0.0
 11
184.2923584809805
 21
118.4632600187527
 31
0.0
  0
LINE
  5
3F8
330
E3
100
AcDbEntity
  8
0
  6
Continuous
100
AcDbLine
 10
184.2923584809805
 20
118.4632600187527
 30
0.0
 11
184.2616372545569
 21
118.452303105313
 31
0.0
  0
LINE
  5
3F9
330
E3
100
AcDbEntity
  8
0
  6
Continuous
100
AcDbLine
 10
184.2616372545569
 20
118.452303105313
 30
0.0
 11
184.2335627339386
 21
118.4418097392177
 31
0.0
  0
LINE
  5
3FA
330
E3
100
AcDbEntity
  8
0
  6
Continuous
100
AcDbLine
 10
184.2335627339386
 20
118.4418097392177
 30
0.0
 11
184.2083592162277
 21
118.4318247798873
 31
0.0
  0
LINE
  5
3FB
330
E3
100
AcDbEntity
  8
0
  6
Continuous
100
AcDbLine
 10
184.2083592162277
 20
118.4318247798873
 30
0.0
 11
184.1862248305311
 21
118.422381871887
 31
0.0
  0
LINE
  5
3FC
330
E3
100
AcDbEntity
  8
0
  6
Continuous
100
AcDbLine
 10
184.1862248305311
 20
118.422381871887
 30
0.0
 11
184.1673390145306
 21
118.4135109214972
 31
0.0
  0
LINE
  5
3FD
330
E3
100
AcDbEntity
  8
0
  6
Continuous
100
AcDbLine
 10
184.1673390145306
 20
118.4135109214972
 30
0.0
 11
184.1518475613425
 21
118.4052418349982
 31
0.0
  0
LINE
  5
3FE
330
E3
100
AcDbEntity
  8
0
  6
Continuous
100
AcDbLine
 10
184.1518475613425
 20
118.4052418349982
 30
0.0
 11
184.1398775726581
 21
118.39758956553
 31
0.0
  0
LINE
  5
3FF
330
E3
100
AcDbEntity
  8
0
  6
Continuous
100
AcDbLine
 10
184.1398775726581
 20
118.39758956553
 30
0.0
 11
184.1315262438883
 21
118.390576542803
 31
0.0
  0
LINE
  5
400
330
E3
100
AcDbEntity
  8
0
  6
Continuous
100
AcDbLine
 10
184.1315262438883
 20
118.390576542803
 30
0.0
 11
184.1268682272085
 21
118.3842138940821
 31
0.0
  0
LINE
  5
401
330
E3
100
AcDbEntity
  8
0
  6
Continuous
100
AcDbLine
 10
184.1268682272085
 20
118.3842138940821
 30
0.0
 11
184.125941966894
 21
118.3785100472096
 31
0.0
  0
LINE
  5
402
330
E3
100
AcDbEntity
  8
0
  6
Continuous
100
AcDbLine
 10
185.1448591833765
 20
118.3587138448206
 30
0.0
 11
185.143932923062
 21
118.3530099979481
 31
0.0
  0
LINE
  5
403
330
E3
100
AcDbEntity
  8
0
  6
Continuous
100
AcDbLine
 10
185.143932923062
 20
118.3530099979481
 30
0.0
 11
185.1392734322597
 21
118.3466478818154
 31
0.0
  0
LINE
  5
404
330
E3
100
AcDbEntity
  8
0
  6
Continuous
100
AcDbLine
 10
185.1392734322597
 20
118.3466478818154
 30
0.0
 11
185.1309231036256
 21
118.3396349326211
 31
0.0
  0
LINE
  5
405
330
E3
100
AcDbEntity
  8
0
  6
Continuous
100
AcDbLine
 10
185.1309231036256
 20
118.3396349326211
 30
0.0
 11
185.1189531149412
 21
118.331982663153
 31
0.0
  0
LINE
  5
406
330
E3
100
AcDbEntity
  8
0
  6
Continuous
100
AcDbLine
 10
185.1189531149412
 20
118.331982663153
 30
0.0
 11
185.1034616617531
 21
118.3237135766539
 31
0.0
  0
LINE
  5
407
330
E3
100
AcDbEntity
  8
0
  6
Continuous
100
AcDbLine
 10
185.1034616617531
 20
118.3237135766539
 30
0.0
 11
185.0845758457526
 21
118.3148426262641
 31
0.0
  0
LINE
  5
408
330
E3
100
AcDbEntity
  8
0
  6
Continuous
100
AcDbLine
 10
185.0845758457526
 20
118.3148426262641
 30
0.0
 11
185.062441460056
 21
118.3053959799788
 31
0.0
  0
LINE
  5
409
330
E3
100
AcDbEntity
  8
0
  6
Continuous
100
AcDbLine
 10
185.062441460056
 20
118.3053959799788
 30
0.0
 11
185.0372379423451
 21
118.2954147589334
 31
0.0
  0
LINE
  5
40A
330
E3
100
AcDbEntity
  8
0
  6
Continuous
100
AcDbLine
 10
185.0372379423451
 20
118.2954147589334
 30
0.0
 11
185.0091634217268
 21
118.2849213928382
 31
0.0
  0
LINE
  5
40B
330
E3
100
AcDbEntity
  8
0
  6
Continuous
100
AcDbLine
 10
185.0091634217268
 20
118.2849213928382
 30
0.0
 11
184.9784421953032
 21
118.2739644793984
 31
0.0
  0
LINE
  5
40C
330
E3
100
AcDbEntity
  8
0
  6
Continuous
100
AcDbLine
 10
184.9784421953032
 20
118.2739644793984
 30
0.0
 11
184.9453097750315
 21
118.2625814014646
 31
0.0
  0
LINE
  5
40D
330
E3
100
AcDbEntity
  8
0
  6
Continuous
100
AcDbLine
 10
184.9453097750315
 20
118.2625814014646
 30
0.0
 11
184.9100278408643
 21
118.2508207567422
 31
0.0
  0
LINE
  5
40E
330
E3
100
AcDbEntity
  8
0
  6
Continuous
100
AcDbLine
 10
184.9100278408643
 20
118.2508207567422
 30
0.0
 11
184.8728730258941
 21
118.2387274046516
 31
0.0
  0
LINE
  5
40F
330
E3
100
AcDbEntity
  8
0
  6
Continuous
100
AcDbLine
 10
184.8728730258941
 20
118.2387274046516
 30
0.0
 11
184.8341331780688
 21
118.2263574194684
 31
0.0
  0
LINE
  5
410
330
E3
100
AcDbEntity
  8
0
  6
Continuous
100
AcDbLine
 10
184.8341331780688
 20
118.2263574194684
 30
0.0
 11
184.7941110984763
 21
118.213759398898
 31
0.0
  0
LINE
  5
411
330
E3
100
AcDbEntity
  8
0
  6
Continuous
100
AcDbLine
 10
184.7941110984763
 20
118.213759398898
 30
0.0
 11
184.7531208030595
 21
118.200993155501
 31
0.0
  0
LINE
  5
412
330
E3
100
AcDbEntity
  8
0
  6
Continuous
100
AcDbLine
 10
184.7531208030595
 20
118.200993155501
 30
0.0
 11
184.7114800460465
 21
118.1881072869828
 31
0.0
  0
LINE
  5
413
330
E3
100
AcDbEntity
  8
0
  6
Continuous
100
AcDbLine
 10
184.7114800460465
 20
118.1881072869828
 30
0.0
 11
184.6695103199504
 21
118.1751690824741
 31
0.0
  0
LINE
  5
414
330
E3
100
AcDbEntity
  8
0
  6
Continuous
100
AcDbLine
 10
184.6695103199504
 20
118.1751690824741
 30
0.0
 11
184.6275405938542
 21
118.1622271396804
 31
0.0
  0
LINE
  5
415
330
E3
100
AcDbEntity
  8
0
  6
Continuous
100
AcDbLine
 10
184.6275405938542
 20
118.1622271396804
 30
0.0
 11
184.5858998368412
 21
118.1493450094473
 31
0.0
  0
LINE
  5
416
330
E3
100
AcDbEntity
  8
0
  6
Continuous
100
AcDbLine
 10
184.5858998368412
 20
118.1493450094473
 30
0.0
 11
184.5449095414244
 21
118.1365750277652
 31
0.0
  0
LINE
  5
417
330
E3
100
AcDbEntity
  8
0
  6
Continuous
100
AcDbLine
 10
184.5449095414244
 20
118.1365750277652
 30
0.0
 11
184.5048874618319
 21
118.1239770071948
 31
0.0
  0
LINE
  5
418
330
E3
100
AcDbEntity
  8
0
  6
Continuous
100
AcDbLine
 10
184.5048874618319
 20
118.1239770071948
 30
0.0
 11
184.4661476140066
 21
118.1116070220116
 31
0.0
  0
LINE
  5
419
330
E3
100
AcDbEntity
  8
0
  6
Continuous
100
AcDbLine
 10
184.4661476140066
 20
118.1116070220116
 30
0.0
 11
184.4289927990365
 21
118.099513669921
 31
0.0
  0
LINE
  5
41A
330
E3
100
AcDbEntity
  8
0
  6
Continuous
100
AcDbLine
 10
184.4289927990365
 20
118.099513669921
 30
0.0
 11
184.3937108648693
 21
118.0877530251986
 31
0.0
  0
LINE
  5
41B
330
E3
100
AcDbEntity
  8
0
  6
Continuous
100
AcDbLine
 10
184.3937108648693
 20
118.0877530251986
 30
0.0
 11
184.3605784445976
 21
118.0763699472648
 31
0.0
  0
LINE
  5
41C
330
E3
100
AcDbEntity
  8
0
  6
Continuous
100
AcDbLine
 10
184.3605784445976
 20
118.0763699472648
 30
0.0
 11
184.3298534798889
 21
118.0654130338251
 31
0.0
  0
LINE
  5
41D
330
E3
100
AcDbEntity
  8
0
  6
Continuous
100
AcDbLine
 10
184.3298534798889
 20
118.0654130338251
 30
0.0
 11
184.3017826975556
 21
118.0549234060148
 31
0.0
  0
LINE
  5
41E
330
E3
100
AcDbEntity
  8
0
  6
Continuous
100
AcDbLine
 10
184.3017826975556
 20
118.0549234060148
 30
0.0
 11
184.2765791798447
 21
118.0449384466844
 31
0.0
  0
LINE
  5
41F
330
E3
100
AcDbEntity
  8
0
  6
Continuous
100
AcDbLine
 10
184.2765791798447
 20
118.0449384466844
 30
0.0
 11
184.2544447941482
 21
118.0354955386841
 31
0.0
  0
LINE
  5
420
330
E3
100
AcDbEntity
  8
0
  6
Continuous
100
AcDbLine
 10
184.2544447941482
 20
118.0354955386841
 30
0.0
 11
184.2355589781477
 21
118.0266245882943
 31
0.0
  0
LINE
  5
421
330
E3
100
AcDbEntity
  8
0
  6
Continuous
100
AcDbLine
 10
184.2355589781477
 20
118.0266245882943
 30
0.0
 11
184.2200675249596
 21
118.0183517635103
 31
0.0
  0
LINE
  5
422
330
E3
100
AcDbEntity
  8
0
  6
Continuous
100
AcDbLine
 10
184.2200675249596
 20
118.0183517635103
 30
0.0
 11
184.2080975362752
 21
118.0106994940421
 31
0.0
  0
LINE
  5
423
330
E3
100
AcDbEntity
  8
0
  6
Continuous
100
AcDbLine
 10
184.2080975362752
 20
118.0106994940421
 30
0.0
 11
184.1997462075053
 21
118.0036864713151
 31
0.0
  0
LINE
  5
424
330
E3
100
AcDbEntity
  8
0
  6
Continuous
100
AcDbLine
 10
184.1997462075053
 20
118.0036864713151
 30
0.0
 11
184.1950871541491
 21
117.9973251339701
 31
0.0
  0
LINE
  5
425
330
E3
100
AcDbEntity
  8
0
  6
Continuous
100
AcDbLine
 10
184.1950871541491
 20
117.9973251339701
 30
0.0
 11
184.1941608938346
 21
117.9916212870977
 31
0.0
  0
LINE
  5
426
330
E3
100
AcDbEntity
  8
0
  6
Continuous
100
AcDbLine
 10
185.2130781103171
 20
117.9718250847086
 30
0.0
 11
185.2121518500026
 21
117.9661212378362
 31
0.0
  0
LINE
  5
427
330
E3
100
AcDbEntity
  8
0
  6
Continuous
100
AcDbLine
 10
185.2121518500026
 20
117.9661212378362
 30
0.0
 11
185.2074923592002
 21
117.9597591217035
 31
0.0
  0
LINE
  5
428
330
E3
100
AcDbEntity
  8
0
  6
Continuous
100
AcDbLine
 10
185.2074923592002
 20
117.9597591217035
 30
0.0
 11
185.1991430672426
 21
117.9527448611332
 31
0.0
  0
LINE
  5
429
330
E3
100
AcDbEntity
  8
0
  6
Continuous
100
AcDbLine
 10
185.1991430672426
 20
117.9527448611332
 30
0.0
 11
185.1871730785582
 21
117.9450963299501
 31
0.0
  0
LINE
  5
42A
330
E3
100
AcDbEntity
  8
0
  6
Continuous
100
AcDbLine
 10
185.1871730785582
 20
117.9450963299501
 30
0.0
 11
185.1716816253702
 21
117.936823505166
 31
0.0
  0
LINE
  5
42B
330
E3
100
AcDbEntity
  8
0
  6
Continuous
100
AcDbLine
 10
185.1716816253702
 20
117.936823505166
 30
0.0
 11
185.1527920710846
 21
117.9279525547762
 31
0.0
  0
LINE
  5
42C
330
E3
100
AcDbEntity
  8
0
  6
Continuous
100
AcDbLine
 10
185.1527920710846
 20
117.9279525547762
 30
0.0
 11
185.1306614236731
 21
117.918509646776
 31
0.0
  0
LINE
  5
42D
330
E3
100
AcDbEntity
  8
0
  6
Continuous
100
AcDbLine
 10
185.1306614236731
 20
117.918509646776
 30
0.0
 11
185.1054579059622
 21
117.9085246874455
 31
0.0
  0
LINE
  5
42E
330
E3
100
AcDbEntity
  8
0
  6
Continuous
100
AcDbLine
 10
185.1054579059622
 20
117.9085246874455
 30
0.0
 11
185.0773833853439
 21
117.8980350596353
 31
0.0
  0
LINE
  5
42F
330
E3
100
AcDbEntity
  8
0
  6
Continuous
100
AcDbLine
 10
185.0773833853439
 20
117.8980350596353
 30
0.0
 11
185.0466584206352
 21
117.8870744079105
 31
0.0
  0
LINE
  5
430
330
E3
100
AcDbEntity
  8
0
  6
Continuous
100
AcDbLine
 10
185.0466584206352
 20
117.8870744079105
 30
0.0
 11
185.0135260003635
 21
117.8756950682617
 31
0.0
  0
LINE
  5
431
330
E3
100
AcDbEntity
  8
0
  6
Continuous
100
AcDbLine
 10
185.0135260003635
 20
117.8756950682617
 30
0.0
 11
184.9782478044813
 21
117.8639306852543
 31
0.0
  0
LINE
  5
432
330
E3
100
AcDbEntity
  8
0
  6
Continuous
100
AcDbLine
 10
184.9782478044813
 20
117.8639306852543
 30
0.0
 11
184.9410892512261
 21
117.8518410714487
 31
0.0
  0
LINE
  5
433
330
E3
100
AcDbEntity
  8
0
  6
Continuous
100
AcDbLine
 10
184.9410892512261
 20
117.8518410714487
 30
0.0
 11
184.9023494034008
 21
117.8394673479805
 31
0.0
  0
LINE
  5
434
330
E3
100
AcDbEntity
  8
0
  6
Continuous
100
AcDbLine
 10
184.9023494034008
 20
117.8394673479805
 30
0.0
 11
184.8623310620934
 21
117.8268693274101
 31
0.0
  0
LINE
  5
435
330
E3
100
AcDbEntity
  8
0
  6
Continuous
100
AcDbLine
 10
184.8623310620934
 20
117.8268693274101
 30
0.0
 11
184.8213407666766
 21
117.8141030840131
 31
0.0
  0
LINE
  5
436
330
E3
100
AcDbEntity
  8
0
  6
Continuous
100
AcDbLine
 10
184.8213407666766
 20
117.8141030840131
 30
0.0
 11
184.7796962713785
 21
117.8012209537799
 31
0.0
  0
LINE
  5
437
330
E3
100
AcDbEntity
  8
0
  6
Continuous
100
AcDbLine
 10
184.7796962713785
 20
117.8012209537799
 30
0.0
 11
184.7377302835674
 21
117.7882790109862
 31
0.0
  0
LINE
  5
438
330
E3
100
AcDbEntity
  8
0
  6
Continuous
100
AcDbLine
 10
184.7377302835674
 20
117.7882790109862
 30
0.0
 11
184.6957605574713
 21
117.7753370681925
 31
0.0
  0
LINE
  5
439
330
E3
100
AcDbEntity
  8
0
  6
Continuous
100
AcDbLine
 10
184.6957605574713
 20
117.7753370681925
 30
0.0
 11
184.6541198004583
 21
117.7624549379594
 31
0.0
  0
LINE
  5
43A
330
E3
100
AcDbEntity
  8
0
  6
Continuous
100
AcDbLine
 10
184.6541198004583
 20
117.7624549379594
 30
0.0
 11
184.6131295050415
 21
117.7496849562773
 31
0.0
  0
LINE
  5
43B
330
E3
100
AcDbEntity
  8
0
  6
Continuous
100
AcDbLine
 10
184.6131295050415
 20
117.7496849562773
 30
0.0
 11
184.573107425449
 21
117.737090673992
 31
0.0
  0
LINE
  5
43C
330
E3
100
AcDbEntity
  8
0
  6
Continuous
100
AcDbLine
 10
184.573107425449
 20
117.737090673992
 30
0.0
 11
184.5343675776237
 21
117.7247169505237
 31
0.0
  0
LINE
  5
43D
330
E3
100
AcDbEntity
  8
0
  6
Continuous
100
AcDbLine
 10
184.5343675776237
 20
117.7247169505237
 30
0.0
 11
184.4972127626535
 21
117.7126273367181
 31
0.0
  0
LINE
  5
43E
330
E3
100
AcDbEntity
  8
0
  6
Continuous
100
AcDbLine
 10
184.4972127626535
 20
117.7126273367181
 30
0.0
 11
184.4619308284863
 21
117.7008629537107
 31
0.0
  0
LINE
  5
43F
330
E3
100
AcDbEntity
  8
0
  6
Continuous
100
AcDbLine
 10
184.4619308284863
 20
117.7008629537107
 30
0.0
 11
184.4287984082146
 21
117.6894798757769
 31
0.0
  0
LINE
  5
440
330
E3
100
AcDbEntity
  8
0
  6
Continuous
100
AcDbLine
 10
184.4287984082146
 20
117.6894798757769
 30
0.0
 11
184.398073443506
 21
117.6785229623372
 31
0.0
  0
LINE
  5
441
330
E3
100
AcDbEntity
  8
0
  6
Continuous
100
AcDbLine
 10
184.398073443506
 20
117.6785229623372
 30
0.0
 11
184.3699989228876
 21
117.6680333345269
 31
0.0
  0
LINE
  5
442
330
E3
100
AcDbEntity
  8
0
  6
Continuous
100
AcDbLine
 10
184.3699989228876
 20
117.6680333345269
 30
0.0
 11
184.3447991434618
 21
117.6580483751965
 31
0.0
  0
LINE
  5
443
330
E3
100
AcDbEntity
  8
0
  6
Continuous
100
AcDbLine
 10
184.3447991434618
 20
117.6580483751965
 30
0.0
 11
184.3226647577652
 21
117.6486054671962
 31
0.0
  0
LINE
  5
444
330
E3
100
AcDbEntity
  8
0
  6
Continuous
100
AcDbLine
 10
184.3226647577652
 20
117.6486054671962
 30
0.0
 11
184.3037752034797
 21
117.6397345168064
 31
0.0
  0
LINE
  5
445
330
E3
100
AcDbEntity
  8
0
  6
Continuous
100
AcDbLine
 10
184.3037752034797
 20
117.6397345168064
 30
0.0
 11
184.2882837502916
 21
117.6314616920224
 31
0.0
  0
LINE
  5
446
330
E3
100
AcDbEntity
  8
0
  6
Continuous
100
AcDbLine
 10
184.2882837502916
 20
117.6314616920224
 30
0.0
 11
184.2763137616072
 21
117.6238131608392
 31
0.0
  0
LINE
  5
447
330
E3
100
AcDbEntity
  8
0
  6
Continuous
100
AcDbLine
 10
184.2763137616072
 20
117.6238131608392
 30
0.0
 11
184.2679661711224
 21
117.6168001381122
 31
0.0
  0
LINE
  5
448
330
E3
100
AcDbEntity
  8
0
  6
Continuous
100
AcDbLine
 10
184.2679661711224
 20
117.6168001381122
 30
0.0
 11
184.2633060810897
 21
117.6104363738582
 31
0.0
  0
LINE
  5
449
330
E3
100
AcDbEntity
  8
0
  6
Continuous
100
AcDbLine
 10
184.2633060810897
 20
117.6104363738582
 30
0.0
 11
184.2623798207752
 21
117.6047325269857
 31
0.0
  0
LINE
  5
44A
330
E3
100
AcDbEntity
  8
0
  6
Continuous
100
AcDbLine
 10
185.2812970372577
 20
117.5849363245967
 30
0.0
 11
185.2803707769432
 21
117.5792324777242
 31
0.0
  0
LINE
  5
44B
330
E3
100
AcDbEntity
  8
0
  6
Continuous
100
AcDbLine
 10
185.2803707769432
 20
117.5792324777242
 30
0.0
 11
185.2757112861408
 21
117.5728703615915
 31
0.0
  0
LINE
  5
44C
330
E3
100
AcDbEntity
  8
0
  6
Continuous
100
AcDbLine
 10
185.2757112861408
 20
117.5728703615915
 30
0.0
 11
185.2673630308597
 21
117.5658585279303
 31
0.0
  0
LINE
  5
44D
330
E3
100
AcDbEntity
  8
0
  6
Continuous
100
AcDbLine
 10
185.2673630308597
 20
117.5658585279303
 30
0.0
 11
185.2553930421753
 21
117.5582062584622
 31
0.0
  0
LINE
  5
44E
330
E3
100
AcDbEntity
  8
0
  6
Continuous
100
AcDbLine
 10
185.2553930421753
 20
117.5582062584622
 30
0.0
 11
185.2399015889872
 21
117.5499334336781
 31
0.0
  0
LINE
  5
44F
330
E3
100
AcDbEntity
  8
0
  6
Continuous
100
AcDbLine
 10
185.2399015889872
 20
117.5499334336781
 30
0.0
 11
185.2210120347017
 21
117.5410624832883
 31
0.0
  0
LINE
  5
450
330
E3
100
AcDbEntity
  8
0
  6
Continuous
100
AcDbLine
 10
185.2210120347017
 20
117.5410624832883
 30
0.0
 11
185.1988776490051
 21
117.5316195752881
 31
0.0
  0
LINE
  5
451
330
E3
100
AcDbEntity
  8
0
  6
Continuous
100
AcDbLine
 10
185.1988776490051
 20
117.5316195752881
 30
0.0
 11
185.1736778695792
 21
117.5216346159576
 31
0.0
  0
LINE
  5
452
330
E3
100
AcDbEntity
  8
0
  6
Continuous
100
AcDbLine
 10
185.1736778695792
 20
117.5216346159576
 30
0.0
 11
185.1456033489609
 21
117.5111449881474
 31
0.0
  0
LINE
  5
453
330
E3
100
AcDbEntity
  8
0
  6
Continuous
100
AcDbLine
 10
185.1456033489609
 20
117.5111449881474
 30
0.0
 11
185.1148783842522
 21
117.5001880747076
 31
0.0
  0
LINE
  5
454
330
E3
100
AcDbEntity
  8
0
  6
Continuous
100
AcDbLine
 10
185.1148783842522
 20
117.5001880747076
 30
0.0
 11
185.0817459639806
 21
117.4888049967738
 31
0.0
  0
LINE
  5
455
330
E3
100
AcDbEntity
  8
0
  6
Continuous
100
AcDbLine
 10
185.0817459639806
 20
117.4888049967738
 30
0.0
 11
185.0464640298133
 21
117.4770443520514
 31
0.0
  0
LINE
  5
456
330
E3
100
AcDbEntity
  8
0
  6
Continuous
100
AcDbLine
 10
185.0464640298133
 20
117.4770443520514
 30
0.0
 11
185.0093092148432
 21
117.4649509999608
 31
0.0
  0
LINE
  5
457
330
E3
100
AcDbEntity
  8
0
  6
Continuous
100
AcDbLine
 10
185.0093092148432
 20
117.4649509999608
 30
0.0
 11
184.9705693670179
 21
117.4525810147776
 31
0.0
  0
LINE
  5
458
330
E3
100
AcDbEntity
  8
0
  6
Continuous
100
AcDbLine
 10
184.9705693670179
 20
117.4525810147776
 30
0.0
 11
184.9305472874254
 21
117.4399829942072
 31
0.0
  0
LINE
  5
459
330
E3
100
AcDbEntity
  8
0
  6
Continuous
100
AcDbLine
 10
184.9305472874254
 20
117.4399829942072
 30
0.0
 11
184.8895569920086
 21
117.4272130125251
 31
0.0
  0
LINE
  5
45A
330
E3
100
AcDbEntity
  8
0
  6
Continuous
100
AcDbLine
 10
184.8895569920086
 20
117.4272130125251
 30
0.0
 11
184.8479162349956
 21
117.414330882292
 31
0.0
  0
LINE
  5
45B
330
E3
100
AcDbEntity
  8
0
  6
Continuous
100
AcDbLine
 10
184.8479162349956
 20
117.414330882292
 30
0.0
 11
184.8059465088994
 21
117.4013889394983
 31
0.0
  0
LINE
  5
45C
330
E3
100
AcDbEntity
  8
0
  6
Continuous
100
AcDbLine
 10
184.8059465088994
 20
117.4013889394983
 30
0.0
 11
184.7639805210883
 21
117.3884507349896
 31
0.0
  0
LINE
  5
45D
330
E3
100
AcDbEntity
  8
0
  6
Continuous
100
AcDbLine
 10
184.7639805210883
 20
117.3884507349896
 30
0.0
 11
184.7223360257903
 21
117.3755648664715
 31
0.0
  0
LINE
  5
45E
330
E3
100
AcDbEntity
  8
0
  6
Continuous
100
AcDbLine
 10
184.7223360257903
 20
117.3755648664715
 30
0.0
 11
184.6813457303735
 21
117.3627986230745
 31
0.0
  0
LINE
  5
45F
330
E3
100
AcDbEntity
  8
0
  6
Continuous
100
AcDbLine
 10
184.6813457303735
 20
117.3627986230745
 30
0.0
 11
184.641327389066
 21
117.350200602504
 31
0.0
  0
LINE
  5
460
330
E3
100
AcDbEntity
  8
0
  6
Continuous
100
AcDbLine
 10
184.641327389066
 20
117.350200602504
 30
0.0
 11
184.6025875412407
 21
117.3378306173208
 31
0.0
  0
LINE
  5
461
330
E3
100
AcDbEntity
  8
0
  6
Continuous
100
AcDbLine
 10
184.6025875412407
 20
117.3378306173208
 30
0.0
 11
184.5654327262706
 21
117.3257372652302
 31
0.0
  0
LINE
  5
462
330
E3
100
AcDbEntity
  8
0
  6
Continuous
100
AcDbLine
 10
184.5654327262706
 20
117.3257372652302
 30
0.0
 11
184.5301507921034
 21
117.3139766205078
 31
0.0
  0
LINE
  5
463
330
E3
100
AcDbEntity
  8
0
  6
Continuous
100
AcDbLine
 10
184.5301507921034
 20
117.3139766205078
 30
0.0
 11
184.4970183718317
 21
117.302593542574
 31
0.0
  0
LINE
  5
464
330
E3
100
AcDbEntity
  8
0
  6
Continuous
100
AcDbLine
 10
184.4970183718317
 20
117.302593542574
 30
0.0
 11
184.466293407123
 21
117.2916366291343
 31
0.0
  0
LINE
  5
465
330
E3
100
AcDbEntity
  8
0
  6
Continuous
100
AcDbLine
 10
184.466293407123
 20
117.2916366291343
 30
0.0
 11
184.4382188865047
 21
117.281143263039
 31
0.0
  0
LINE
  5
466
330
E3
100
AcDbEntity
  8
0
  6
Continuous
100
AcDbLine
 10
184.4382188865047
 20
117.281143263039
 30
0.0
 11
184.4130153687938
 21
117.2711583037086
 31
0.0
  0
LINE
  5
467
330
E3
100
AcDbEntity
  8
0
  6
Continuous
100
AcDbLine
 10
184.4130153687938
 20
117.2711583037086
 30
0.0
 11
184.3908847213823
 21
117.2617153957083
 31
0.0
  0
LINE
  5
468
330
E3
100
AcDbEntity
  8
0
  6
Continuous
100
AcDbLine
 10
184.3908847213823
 20
117.2617153957083
 30
0.0
 11
184.3719951670967
 21
117.2528444453185
 31
0.0
  0
LINE
  5
469
330
E3
100
AcDbEntity
  8
0
  6
Continuous
100
AcDbLine
 10
184.3719951670967
 20
117.2528444453185
 30
0.0
 11
184.3565037139086
 21
117.2445753588195
 31
0.0
  0
LINE
  5
46A
330
E3
100
AcDbEntity
  8
0
  6
Continuous
100
AcDbLine
 10
184.3565037139086
 20
117.2445753588195
 30
0.0
 11
184.3445337252242
 21
117.2369230893513
 31
0.0
  0
LINE
  5
46B
330
E3
100
AcDbEntity
  8
0
  6
Continuous
100
AcDbLine
 10
184.3445337252242
 20
117.2369230893513
 30
0.0
 11
184.3361861347394
 21
117.2299100666243
 31
0.0
  0
LINE
  5
46C
330
E3
100
AcDbEntity
  8
0
  6
Continuous
100
AcDbLine
 10
184.3361861347394
 20
117.2299100666243
 30
0.0
 11
184.3315250080302
 21
117.2235476137462
 31
0.0
  0
LINE
  5
46D
330
E3
100
AcDbEntity
  8
0
  6
Continuous
100
AcDbLine
 10
184.3315250080302
 20
117.2235476137462
 30
0.0
 11
184.3305987477157
 21
117.2178437668738
 31
0.0
  0
LINE
  5
46E
330
E3
100
AcDbEntity
  8
0
  6
Continuous
100
AcDbLine
 10
185.3495159641982
 20
117.1980475644848
 30
0.0
 11
185.3485897038837
 21
117.1923437176123
 31
0.0
  0
LINE
  5
46F
330
E3
100
AcDbEntity
  8
0
  6
Continuous
100
AcDbLine
 10
185.3485897038837
 20
117.1923437176123
 30
0.0
 11
185.3439302130814
 21
117.1859816014796
 31
0.0
  0
LINE
  5
470
330
E3
100
AcDbEntity
  8
0
  6
Continuous
100
AcDbLine
 10
185.3439302130814
 20
117.1859816014796
 30
0.0
 11
185.3355792561917
 21
117.1789684564424
 31
0.0
  0
LINE
  5
471
330
E3
100
AcDbEntity
  8
0
  6
Continuous
100
AcDbLine
 10
185.3355792561917
 20
117.1789684564424
 30
0.0
 11
185.3236092675073
 21
117.1713161869743
 31
0.0
  0
LINE
  5
472
330
E3
100
AcDbEntity
  8
0
  6
Continuous
100
AcDbLine
 10
185.3236092675073
 20
117.1713161869743
 30
0.0
 11
185.3081178143192
 21
117.1630471004752
 31
0.0
  0
LINE
  5
473
330
E3
100
AcDbEntity
  8
0
  6
Continuous
100
AcDbLine
 10
185.3081178143192
 20
117.1630471004752
 30
0.0
 11
185.2892319983187
 21
117.1541761500854
 31
0.0
  0
LINE
  5
474
330
E3
100
AcDbEntity
  8
0
  6
Continuous
100
AcDbLine
 10
185.2892319983187
 20
117.1541761500854
 30
0.0
 11
185.2670976126221
 21
117.1447332420852
 31
0.0
  0
LINE
  5
475
330
E3
100
AcDbEntity
  8
0
  6
Continuous
100
AcDbLine
 10
185.2670976126221
 20
117.1447332420852
 30
0.0
 11
185.2418940949112
 21
117.1347482827547
 31
0.0
  0
LINE
  5
476
330
E3
100
AcDbEntity
  8
0
  6
Continuous
100
AcDbLine
 10
185.2418940949112
 20
117.1347482827547
 30
0.0
 11
185.2138233125779
 21
117.1242549166594
 31
0.0
  0
LINE
  5
477
330
E3
100
AcDbEntity
  8
0
  6
Continuous
100
AcDbLine
 10
185.2138233125779
 20
117.1242549166594
 30
0.0
 11
185.1830983478693
 21
117.1132980032197
 31
0.0
  0
LINE
  5
478
330
E3
100
AcDbEntity
  8
0
  6
Continuous
100
AcDbLine
 10
185.1830983478693
 20
117.1132980032197
 30
0.0
 11
185.1499659275976
 21
117.1019149252859
 31
0.0
  0
LINE
  5
479
330
E3
100
AcDbEntity
  8
0
  6
Continuous
100
AcDbLine
 10
185.1499659275976
 20
117.1019149252859
 30
0.0
 11
185.1146839934304
 21
117.0901542805635
 31
0.0
  0
LINE
  5
47A
330
E3
100
AcDbEntity
  8
0
  6
Continuous
100
AcDbLine
 10
185.1146839934304
 20
117.0901542805635
 30
0.0
 11
185.0775291784602
 21
117.0780609284729
 31
0.0
  0
LINE
  5
47B
330
E3
100
AcDbEntity
  8
0
  6
Continuous
100
AcDbLine
 10
185.0775291784602
 20
117.0780609284729
 30
0.0
 11
185.038789330635
 21
117.0656909432897
 31
0.0
  0
LINE
  5
47C
330
E3
100
AcDbEntity
  8
0
  6
Continuous
100
AcDbLine
 10
185.038789330635
 20
117.0656909432897
 30
0.0
 11
184.9987672510424
 21
117.0530929227193
 31
0.0
  0
LINE
  5
47D
330
E3
100
AcDbEntity
  8
0
  6
Continuous
100
AcDbLine
 10
184.9987672510424
 20
117.0530929227193
 30
0.0
 11
184.9577769556257
 21
117.0403266793222
 31
0.0
  0
LINE
  5
47E
330
E3
100
AcDbEntity
  8
0
  6
Continuous
100
AcDbLine
 10
184.9577769556257
 20
117.0403266793222
 30
0.0
 11
184.9161361986126
 21
117.0274408108041
 31
0.0
  0
LINE
  5
47F
330
E3
100
AcDbEntity
  8
0
  6
Continuous
100
AcDbLine
 10
184.9161361986126
 20
117.0274408108041
 30
0.0
 11
184.8741664725165
 21
117.0145026062954
 31
0.0
  0
LINE
  5
480
330
E3
100
AcDbEntity
  8
0
  6
Continuous
100
AcDbLine
 10
184.8741664725165
 20
117.0145026062954
 30
0.0
 11
184.8321967464204
 21
117.0015606635017
 31
0.0
  0
LINE
  5
481
330
E3
100
AcDbEntity
  8
0
  6
Continuous
100
AcDbLine
 10
184.8321967464204
 20
117.0015606635017
 30
0.0
 11
184.7905559894074
 21
116.9886785332686
 31
0.0
  0
LINE
  5
482
330
E3
100
AcDbEntity
  8
0
  6
Continuous
100
AcDbLine
 10
184.7905559894074
 20
116.9886785332686
 30
0.0
 11
184.7495656939905
 21
116.9759085515865
 31
0.0
  0
LINE
  5
483
330
E3
100
AcDbEntity
  8
0
  6
Continuous
100
AcDbLine
 10
184.7495656939905
 20
116.9759085515865
 30
0.0
 11
184.709543614398
 21
116.9633105310161
 31
0.0
  0
LINE
  5
484
330
E3
100
AcDbEntity
  8
0
  6
Continuous
100
AcDbLine
 10
184.709543614398
 20
116.9633105310161
 30
0.0
 11
184.6708037665727
 21
116.9509405458329
 31
0.0
  0
LINE
  5
485
330
E3
100
AcDbEntity
  8
0
  6
Continuous
100
AcDbLine
 10
184.6708037665727
 20
116.9509405458329
 30
0.0
 11
184.6336489516026
 21
116.9388471937423
 31
0.0
  0
LINE
  5
486
330
E3
100
AcDbEntity
  8
0
  6
Continuous
100
AcDbLine
 10
184.6336489516026
 20
116.9388471937423
 30
0.0
 11
184.5983670174354
 21
116.9270865490199
 31
0.0
  0
LINE
  5
487
330
E3
100
AcDbEntity
  8
0
  6
Continuous
100
AcDbLine
 10
184.5983670174354
 20
116.9270865490199
 30
0.0
 11
184.5652345971637
 21
116.9157034710861
 31
0.0
  0
LINE
  5
488
330
E3
100
AcDbEntity
  8
0
  6
Continuous
100
AcDbLine
 10
184.5652345971637
 20
116.9157034710861
 30
0.0
 11
184.5345133707401
 21
116.9047465576464
 31
0.0
  0
LINE
  5
489
330
E3
100
AcDbEntity
  8
0
  6
Continuous
100
AcDbLine
 10
184.5345133707401
 20
116.9047465576464
 30
0.0
 11
184.5064388501217
 21
116.8942569298361
 31
0.0
  0
LINE
  5
48A
330
E3
100
AcDbEntity
  8
0
  6
Continuous
100
AcDbLine
 10
184.5064388501217
 20
116.8942569298361
 30
0.0
 11
184.4812353324108
 21
116.8842719705057
 31
0.0
  0
LINE
  5
48B
330
E3
100
AcDbEntity
  8
0
  6
Continuous
100
AcDbLine
 10
184.4812353324108
 20
116.8842719705057
 30
0.0
 11
184.4591009467143
 21
116.8748290625054
 31
0.0
  0
LINE
  5
48C
330
E3
100
AcDbEntity
  8
0
  6
Continuous
100
AcDbLine
 10
184.4591009467143
 20
116.8748290625054
 30
0.0
 11
184.4402151307138
 21
116.8659581121156
 31
0.0
  0
LINE
  5
48D
330
E3
100
AcDbEntity
  8
0
  6
Continuous
100
AcDbLine
 10
184.4402151307138
 20
116.8659581121156
 30
0.0
 11
184.4247236775257
 21
116.8576852873315
 31
0.0
  0
LINE
  5
48E
330
E3
100
AcDbEntity
  8
0
  6
Continuous
100
AcDbLine
 10
184.4247236775257
 20
116.8576852873315
 30
0.0
 11
184.4127536888413
 21
116.8500330178634
 31
0.0
  0
LINE
  5
48F
330
E3
100
AcDbEntity
  8
0
  6
Continuous
100
AcDbLine
 10
184.4127536888413
 20
116.8500330178634
 30
0.0
 11
184.4044023600715
 21
116.8430199951364
 31
0.0
  0
LINE
  5
490
330
E3
100
AcDbEntity
  8
0
  6
Continuous
100
AcDbLine
 10
184.4044023600715
 20
116.8430199951364
 30
0.0
 11
184.3997439349708
 21
116.8366588536343
 31
0.0
  0
LINE
  5
491
330
E3
100
AcDbEntity
  8
0
  6
Continuous
100
AcDbLine
 10
184.3997439349708
 20
116.8366588536343
 30
0.0
 11
184.3988176746563
 21
116.8309550067618
 31
0.0
  0
LINE
  5
492
330
E3
100
AcDbEntity
  8
0
  6
Continuous
100
AcDbLine
 10
185.4177348911388
 20
116.8111588043728
 30
0.0
 11
185.4168086308243
 21
116.8054549575003
 31
0.0
  0
LINE
  5
493
330
E3
100
AcDbEntity
  8
0
  6
Continuous
100
AcDbLine
 10
185.4168086308243
 20
116.8054549575003
 30
0.0
 11
185.412149140022
 21
116.7990928413677
 31
0.0
  0
LINE
  5
494
330
E3
100
AcDbEntity
  8
0
  6
Continuous
100
AcDbLine
 10
185.412149140022
 20
116.7990928413677
 30
0.0
 11
185.4037992198088
 21
116.7920783849545
 31
0.0
  0
LINE
  5
495
330
E3
100
AcDbEntity
  8
0
  6
Continuous
100
AcDbLine
 10
185.4037992198088
 20
116.7920783849545
 30
0.0
 11
185.3918292311243
 21
116.7844298537714
 31
0.0
  0
LINE
  5
496
330
E3
100
AcDbEntity
  8
0
  6
Continuous
100
AcDbLine
 10
185.3918292311243
 20
116.7844298537714
 30
0.0
 11
185.3763377779363
 21
116.7761570289873
 31
0.0
  0
LINE
  5
497
330
E3
100
AcDbEntity
  8
0
  6
Continuous
100
AcDbLine
 10
185.3763377779363
 20
116.7761570289873
 30
0.0
 11
185.3574519619358
 21
116.7672860785975
 31
0.0
  0
LINE
  5
498
330
E3
100
AcDbEntity
  8
0
  6
Continuous
100
AcDbLine
 10
185.3574519619358
 20
116.7672860785975
 30
0.0
 11
185.3353175762392
 21
116.7578431705973
 31
0.0
  0
LINE
  5
499
330
E3
100
AcDbEntity
  8
0
  6
Continuous
100
AcDbLine
 10
185.3353175762392
 20
116.7578431705973
 30
0.0
 11
185.3101140585283
 21
116.7478582112668
 31
0.0
  0
LINE
  5
49A
330
E3
100
AcDbEntity
  8
0
  6
Continuous
100
AcDbLine
 10
185.3101140585283
 20
116.7478582112668
 30
0.0
 11
185.28203953791
 21
116.7373685834566
 31
0.0
  0
LINE
  5
49B
330
E3
100
AcDbEntity
  8
0
  6
Continuous
100
AcDbLine
 10
185.28203953791
 20
116.7373685834566
 30
0.0
 11
185.2513183114863
 21
116.7264079317318
 31
0.0
  0
LINE
  5
49C
330
E3
100
AcDbEntity
  8
0
  6
Continuous
100
AcDbLine
 10
185.2513183114863
 20
116.7264079317318
 30
0.0
 11
185.2181858912147
 21
116.715028592083
 31
0.0
  0
LINE
  5
49D
330
E3
100
AcDbEntity
  8
0
  6
Continuous
100
AcDbLine
 10
185.2181858912147
 20
116.715028592083
 30
0.0
 11
185.1829039570474
 21
116.7032642090756
 31
0.0
  0
LINE
  5
49E
330
E3
100
AcDbEntity
  8
0
  6
Continuous
100
AcDbLine
 10
185.1829039570474
 20
116.7032642090756
 30
0.0
 11
185.1457454037923
 21
116.69117459527
 31
0.0
  0
LINE
  5
49F
330
E3
100
AcDbEntity
  8
0
  6
Continuous
100
AcDbLine
 10
185.1457454037923
 20
116.69117459527
 30
0.0
 11
185.107009294252
 21
116.6788008718018
 31
0.0
  0
LINE
  5
4A0
330
E3
100
AcDbEntity
  8
0
  6
Continuous
100
AcDbLine
 10
185.107009294252
 20
116.6788008718018
 30
0.0
 11
185.0669872146595
 21
116.6662028512313
 31
0.0
  0
LINE
  5
4A1
330
E3
100
AcDbEntity
  8
0
  6
Continuous
100
AcDbLine
 10
185.0669872146595
 20
116.6662028512313
 30
0.0
 11
185.0259969192427
 21
116.6534366078343
 31
0.0
  0
LINE
  5
4A2
330
E3
100
AcDbEntity
  8
0
  6
Continuous
100
AcDbLine
 10
185.0259969192427
 20
116.6534366078343
 30
0.0
 11
184.9843524239446
 21
116.6405544776012
 31
0.0
  0
LINE
  5
4A3
330
E3
100
AcDbEntity
  8
0
  6
Continuous
100
AcDbLine
 10
184.9843524239446
 20
116.6405544776012
 30
0.0
 11
184.9423864361335
 21
116.6276125348075
 31
0.0
  0
LINE
  5
4A4
330
E3
100
AcDbEntity
  8
0
  6
Continuous
100
AcDbLine
 10
184.9423864361335
 20
116.6276125348075
 30
0.0
 11
184.9004167100374
 21
116.6146705920138
 31
0.0
  0
LINE
  5
4A5
330
E3
100
AcDbEntity
  8
0
  6
Continuous
100
AcDbLine
 10
184.9004167100374
 20
116.6146705920138
 30
0.0
 11
184.8587759530244
 21
116.6017884617807
 31
0.0
  0
LINE
  5
4A6
330
E3
100
AcDbEntity
  8
0
  6
Continuous
100
AcDbLine
 10
184.8587759530244
 20
116.6017884617807
 30
0.0
 11
184.8177856576076
 21
116.5890222183837
 31
0.0
  0
LINE
  5
4A7
330
E3
100
AcDbEntity
  8
0
  6
Continuous
100
AcDbLine
 10
184.8177856576076
 20
116.5890222183837
 30
0.0
 11
184.7777635780151
 21
116.5764241978132
 31
0.0
  0
LINE
  5
4A8
330
E3
100
AcDbEntity
  8
0
  6
Continuous
100
AcDbLine
 10
184.7777635780151
 20
116.5764241978132
 30
0.0
 11
184.7390237301898
 21
116.564050474345
 31
0.0
  0
LINE
  5
4A9
330
E3
100
AcDbEntity
  8
0
  6
Continuous
100
AcDbLine
 10
184.7390237301898
 20
116.564050474345
 30
0.0
 11
184.7018689152197
 21
116.5519608605394
 31
0.0
  0
LINE
  5
4AA
330
E3
100
AcDbEntity
  8
0
  6
Continuous
100
AcDbLine
 10
184.7018689152197
 20
116.5519608605394
 30
0.0
 11
184.6665869810525
 21
116.540196477532
 31
0.0
  0
LINE
  5
4AB
330
E3
100
AcDbEntity
  8
0
  6
Continuous
100
AcDbLine
 10
184.6665869810525
 20
116.540196477532
 30
0.0
 11
184.6334545607807
 21
116.5288171378832
 31
0.0
  0
LINE
  5
4AC
330
E3
100
AcDbEntity
  8
0
  6
Continuous
100
AcDbLine
 10
184.6334545607807
 20
116.5288171378832
 30
0.0
 11
184.6027295960721
 21
116.5178564861585
 31
0.0
  0
LINE
  5
4AD
330
E3
100
AcDbEntity
  8
0
  6
Continuous
100
AcDbLine
 10
184.6027295960721
 20
116.5178564861585
 30
0.0
 11
184.5746588137388
 21
116.5073668583482
 31
0.0
  0
LINE
  5
4AE
330
E3
100
AcDbEntity
  8
0
  6
Continuous
100
AcDbLine
 10
184.5746588137388
 20
116.5073668583482
 30
0.0
 11
184.5494552960279
 21
116.4973818990177
 31
0.0
  0
LINE
  5
4AF
330
E3
100
AcDbEntity
  8
0
  6
Continuous
100
AcDbLine
 10
184.5494552960279
 20
116.4973818990177
 30
0.0
 11
184.5273209103313
 21
116.4879389910175
 31
0.0
  0
LINE
  5
4B0
330
E3
100
AcDbEntity
  8
0
  6
Continuous
100
AcDbLine
 10
184.5273209103313
 20
116.4879389910175
 30
0.0
 11
184.5084350943308
 21
116.4790680406277
 31
0.0
  0
LINE
  5
4B1
330
E3
100
AcDbEntity
  8
0
  6
Continuous
100
AcDbLine
 10
184.5084350943308
 20
116.4790680406277
 30
0.0
 11
184.4929436411427
 21
116.4707952158436
 31
0.0
  0
LINE
  5
4B2
330
E3
100
AcDbEntity
  8
0
  6
Continuous
100
AcDbLine
 10
184.4929436411427
 20
116.4707952158436
 30
0.0
 11
184.4809736524583
 21
116.4631466846605
 31
0.0
  0
LINE
  5
4B3
330
E3
100
AcDbEntity
  8
0
  6
Continuous
100
AcDbLine
 10
184.4809736524583
 20
116.4631466846605
 30
0.0
 11
184.4726223236885
 21
116.4561336619335
 31
0.0
  0
LINE
  5
4B4
330
E3
100
AcDbEntity
  8
0
  6
Continuous
100
AcDbLine
 10
184.4726223236885
 20
116.4561336619335
 30
0.0
 11
184.4679628619114
 21
116.4497700935224
 31
0.0
  0
LINE
  5
4B5
330
E3
100
AcDbEntity
  8
0
  6
Continuous
100
AcDbLine
 10
184.4679628619114
 20
116.4497700935224
 30
0.0
 11
184.4670366015969
 21
116.4440662466499
 31
0.0
  0
LINE
  5
4B6
330
E3
100
AcDbEntity
  8
0
  6
Continuous
100
AcDbLine
 10
185.4859538180794
 20
116.4242700442609
 30
0.0
 11
185.4850275577649
 21
116.4185661973884
 31
0.0
  0
LINE
  5
4B7
330
E3
100
AcDbEntity
  8
0
  6
Continuous
100
AcDbLine
 10
185.4850275577649
 20
116.4185661973884
 30
0.0
 11
185.4803680669626
 21
116.4122040812557
 31
0.0
  0
LINE
  5
4B8
330
E3
100
AcDbEntity
  8
0
  6
Continuous
100
AcDbLine
 10
185.4803680669626
 20
116.4122040812557
 30
0.0
 11
185.4720191834258
 21
116.4051920517516
 31
0.0
  0
LINE
  5
4B9
330
E3
100
AcDbEntity
  8
0
  6
Continuous
100
AcDbLine
 10
185.4720191834258
 20
116.4051920517516
 30
0.0
 11
185.4600491947414
 21
116.3975397822835
 31
0.0
  0
LINE
  5
4BA
330
E3
100
AcDbEntity
  8
0
  6
Continuous
100
AcDbLine
 10
185.4600491947414
 20
116.3975397822835
 30
0.0
 11
185.4445577415533
 21
116.3892669574994
 31
0.0
  0
LINE
  5
4BB
330
E3
100
AcDbEntity
  8
0
  6
Continuous
100
AcDbLine
 10
185.4445577415533
 20
116.3892669574994
 30
0.0
 11
185.4256681872678
 21
116.3803960071096
 31
0.0
  0
LINE
  5
4BC
330
E3
100
AcDbEntity
  8
0
  6
Continuous
100
AcDbLine
 10
185.4256681872678
 20
116.3803960071096
 30
0.0
 11
185.4035375398562
 21
116.3709530991093
 31
0.0
  0
LINE
  5
4BD
330
E3
100
AcDbEntity
  8
0
  6
Continuous
100
AcDbLine
 10
185.4035375398562
 20
116.3709530991093
 30
0.0
 11
185.3783340221453
 21
116.3609681397789
 31
0.0
  0
LINE
  5
4BE
330
E3
100
AcDbEntity
  8
0
  6
Continuous
100
AcDbLine
 10
185.3783340221453
 20
116.3609681397789
 30
0.0
 11
185.350259501527
 21
116.3504785119686
 31
0.0
  0
LINE
  5
4BF
330
E3
100
AcDbEntity
  8
0
  6
Continuous
100
AcDbLine
 10
185.350259501527
 20
116.3504785119686
 30
0.0
 11
185.3195345368183
 21
116.3395215985289
 31
0.0
  0
LINE
  5
4C0
330
E3
100
AcDbEntity
  8
0
  6
Continuous
100
AcDbLine
 10
185.3195345368183
 20
116.3395215985289
 30
0.0
 11
185.2864021165467
 21
116.3281385205951
 31
0.0
  0
LINE
  5
4C1
330
E3
100
AcDbEntity
  8
0
  6
Continuous
100
AcDbLine
 10
185.2864021165467
 20
116.3281385205951
 30
0.0
 11
185.2511201823794
 21
116.3163778758727
 31
0.0
  0
LINE
  5
4C2
330
E3
100
AcDbEntity
  8
0
  6
Continuous
100
AcDbLine
 10
185.2511201823794
 20
116.3163778758727
 30
0.0
 11
185.2139653674093
 21
116.3042845237821
 31
0.0
  0
LINE
  5
4C3
330
E3
100
AcDbEntity
  8
0
  6
Continuous
100
AcDbLine
 10
185.2139653674093
 20
116.3042845237821
 30
0.0
 11
185.175225519584
 21
116.2919145385989
 31
0.0
  0
LINE
  5
4C4
330
E3
100
AcDbEntity
  8
0
  6
Continuous
100
AcDbLine
 10
185.175225519584
 20
116.2919145385989
 30
0.0
 11
185.1352071782765
 21
116.2793165180285
 31
0.0
  0
LINE
  5
4C5
330
E3
100
AcDbEntity
  8
0
  6
Continuous
100
AcDbLine
 10
185.1352071782765
 20
116.2793165180285
 30
0.0
 11
185.0942131445747
 21
116.2665465363464
 31
0.0
  0
LINE
  5
4C6
330
E3
100
AcDbEntity
  8
0
  6
Continuous
100
AcDbLine
 10
185.0942131445747
 20
116.2665465363464
 30
0.0
 11
185.0525723875617
 21
116.2536644061133
 31
0.0
  0
LINE
  5
4C7
330
E3
100
AcDbEntity
  8
0
  6
Continuous
100
AcDbLine
 10
185.0525723875617
 20
116.2536644061133
 30
0.0
 11
185.0106063997506
 21
116.2407224633196
 31
0.0
  0
LINE
  5
4C8
330
E3
100
AcDbEntity
  8
0
  6
Continuous
100
AcDbLine
 10
185.0106063997506
 20
116.2407224633196
 30
0.0
 11
184.9686366736544
 21
116.2277842588109
 31
0.0
  0
LINE
  5
4C9
330
E3
100
AcDbEntity
  8
0
  6
Continuous
100
AcDbLine
 10
184.9686366736544
 20
116.2277842588109
 30
0.0
 11
184.9269959166414
 21
116.2148983902928
 31
0.0
  0
LINE
  5
4CA
330
E3
100
AcDbEntity
  8
0
  6
Continuous
100
AcDbLine
 10
184.9269959166414
 20
116.2148983902928
 30
0.0
 11
184.8860018829396
 21
116.2021321468957
 31
0.0
  0
LINE
  5
4CB
330
E3
100
AcDbEntity
  8
0
  6
Continuous
100
AcDbLine
 10
184.8860018829396
 20
116.2021321468957
 30
0.0
 11
184.8459835416321
 21
116.1895341263253
 31
0.0
  0
LINE
  5
4CC
330
E3
100
AcDbEntity
  8
0
  6
Continuous
100
AcDbLine
 10
184.8459835416321
 20
116.1895341263253
 30
0.0
 11
184.8072436938068
 21
116.1771641411421
 31
0.0
  0
LINE
  5
4CD
330
E3
100
AcDbEntity
  8
0
  6
Continuous
100
AcDbLine
 10
184.8072436938068
 20
116.1771641411421
 30
0.0
 11
184.7700888788367
 21
116.1650707890515
 31
0.0
  0
LINE
  5
4CE
330
E3
100
AcDbEntity
  8
0
  6
Continuous
100
AcDbLine
 10
184.7700888788367
 20
116.1650707890515
 30
0.0
 11
184.7348069446695
 21
116.1533101443291
 31
0.0
  0
LINE
  5
4CF
330
E3
100
AcDbEntity
  8
0
  6
Continuous
100
AcDbLine
 10
184.7348069446695
 20
116.1533101443291
 30
0.0
 11
184.7016745243978
 21
116.1419270663953
 31
0.0
  0
LINE
  5
4D0
330
E3
100
AcDbEntity
  8
0
  6
Continuous
100
AcDbLine
 10
184.7016745243978
 20
116.1419270663953
 30
0.0
 11
184.6709495596891
 21
116.1309701529556
 31
0.0
  0
LINE
  5
4D1
330
E3
100
AcDbEntity
  8
0
  6
Continuous
100
AcDbLine
 10
184.6709495596891
 20
116.1309701529556
 30
0.0
 11
184.6428750390708
 21
116.1204767868603
 31
0.0
  0
LINE
  5
4D2
330
E3
100
AcDbEntity
  8
0
  6
Continuous
100
AcDbLine
 10
184.6428750390708
 20
116.1204767868603
 30
0.0
 11
184.6176715213599
 21
116.1104918275298
 31
0.0
  0
LINE
  5
4D3
330
E3
100
AcDbEntity
  8
0
  6
Continuous
100
AcDbLine
 10
184.6176715213599
 20
116.1104918275298
 30
0.0
 11
184.5955408739484
 21
116.1010489195296
 31
0.0
  0
LINE
  5
4D4
330
E3
100
AcDbEntity
  8
0
  6
Continuous
100
AcDbLine
 10
184.5955408739484
 20
116.1010489195296
 30
0.0
 11
184.5766513196628
 21
116.0921779691398
 31
0.0
  0
LINE
  5
4D5
330
E3
100
AcDbEntity
  8
0
  6
Continuous
100
AcDbLine
 10
184.5766513196628
 20
116.0921779691398
 30
0.0
 11
184.5611598664748
 21
116.0839088826408
 31
0.0
  0
LINE
  5
4D6
330
E3
100
AcDbEntity
  8
0
  6
Continuous
100
AcDbLine
 10
184.5611598664748
 20
116.0839088826408
 30
0.0
 11
184.5491898777904
 21
116.0762566131726
 31
0.0
  0
LINE
  5
4D7
330
E3
100
AcDbEntity
  8
0
  6
Continuous
100
AcDbLine
 10
184.5491898777904
 20
116.0762566131726
 30
0.0
 11
184.5408422873055
 21
116.0692435904456
 31
0.0
  0
LINE
  5
4D8
330
E3
100
AcDbEntity
  8
0
  6
Continuous
100
AcDbLine
 10
184.5408422873055
 20
116.0692435904456
 30
0.0
 11
184.536181788852
 21
116.0628813334105
 31
0.0
  0
LINE
  5
4D9
330
E3
100
AcDbEntity
  8
0
  6
Continuous
100
AcDbLine
 10
184.536181788852
 20
116.0628813334105
 30
0.0
 11
184.5352555285375
 21
116.057177486538
 31
0.0
  0
LINE
  5
4DA
330
E3
100
AcDbEntity
  8
0
  6
Continuous
100
AcDbLine
 10
185.55417274502
 20
116.0373812841489
 30
0.0
 11
185.5532464847055
 21
116.0316774372765
 31
0.0
  0
LINE
  5
4DB
330
E3
100
AcDbEntity
  8
0
  6
Continuous
100
AcDbLine
 10
185.5532464847055
 20
116.0316774372765
 30
0.0
 11
185.5485869939032
 21
116.0253153211438
 31
0.0
  0
LINE
  5
4DC
330
E3
100
AcDbEntity
  8
0
  6
Continuous
100
AcDbLine
 10
185.5485869939032
 20
116.0253153211438
 30
0.0
 11
185.5402354087578
 21
116.0183019802637
 31
0.0
  0
LINE
  5
4DD
330
E3
100
AcDbEntity
  8
0
  6
Continuous
100
AcDbLine
 10
185.5402354087578
 20
116.0183019802637
 30
0.0
 11
185.5282654200734
 21
116.0106497107955
 31
0.0
  0
LINE
  5
4DE
330
E3
100
AcDbEntity
  8
0
  6
Continuous
100
AcDbLine
 10
185.5282654200734
 20
116.0106497107955
 30
0.0
 11
185.5127739668853
 21
116.0023806242965
 31
0.0
  0
LINE
  5
4DF
330
E3
100
AcDbEntity
  8
0
  6
Continuous
100
AcDbLine
 10
185.5127739668853
 20
116.0023806242965
 30
0.0
 11
185.4938881508848
 21
115.9935096739067
 31
0.0
  0
LINE
  5
4E0
330
E3
100
AcDbEntity
  8
0
  6
Continuous
100
AcDbLine
 10
185.4938881508848
 20
115.9935096739067
 30
0.0
 11
185.4717537651883
 21
115.9840667659065
 31
0.0
  0
LINE
  5
4E1
330
E3
100
AcDbEntity
  8
0
  6
Continuous
100
AcDbLine
 10
185.4717537651883
 20
115.9840667659065
 30
0.0
 11
185.4465502474773
 21
115.974081806576
 31
0.0
  0
LINE
  5
4E2
330
E3
100
AcDbEntity
  8
0
  6
Continuous
100
AcDbLine
 10
185.4465502474773
 20
115.974081806576
 30
0.0
 11
185.4184794651441
 21
115.9635884404807
 31
0.0
  0
LINE
  5
4E3
330
E3
100
AcDbEntity
  8
0
  6
Continuous
100
AcDbLine
 10
185.4184794651441
 20
115.9635884404807
 30
0.0
 11
185.3877545004354
 21
115.952631527041
 31
0.0
  0
LINE
  5
4E4
330
E3
100
AcDbEntity
  8
0
  6
Continuous
100
AcDbLine
 10
185.3877545004354
 20
115.952631527041
 30
0.0
 11
185.3546220801637
 21
115.9412484491072
 31
0.0
  0
LINE
  5
4E5
330
E3
100
AcDbEntity
  8
0
  6
Continuous
100
AcDbLine
 10
185.3546220801637
 20
115.9412484491072
 30
0.0
 11
185.3193401459965
 21
115.9294878043848
 31
0.0
  0
LINE
  5
4E6
330
E3
100
AcDbEntity
  8
0
  6
Continuous
100
AcDbLine
 10
185.3193401459965
 20
115.9294878043848
 30
0.0
 11
185.2821853310264
 21
115.9173944522942
 31
0.0
  0
LINE
  5
4E7
330
E3
100
AcDbEntity
  8
0
  6
Continuous
100
AcDbLine
 10
185.2821853310264
 20
115.9173944522942
 30
0.0
 11
185.2434454832011
 21
115.905024467111
 31
0.0
  0
LINE
  5
4E8
330
E3
100
AcDbEntity
  8
0
  6
Continuous
100
AcDbLine
 10
185.2434454832011
 20
115.905024467111
 30
0.0
 11
185.2034234036086
 21
115.8924264465406
 31
0.0
  0
LINE
  5
4E9
330
E3
100
AcDbEntity
  8
0
  6
Continuous
100
AcDbLine
 10
185.2034234036086
 20
115.8924264465406
 30
0.0
 11
185.1624331081918
 21
115.8796602031435
 31
0.0
  0
LINE
  5
4EA
330
E3
100
AcDbEntity
  8
0
  6
Continuous
100
AcDbLine
 10
185.1624331081918
 20
115.8796602031435
 30
0.0
 11
185.1207923511787
 21
115.8667743346254
 31
0.0
  0
LINE
  5
4EB
330
E3
100
AcDbEntity
  8
0
  6
Continuous
100
AcDbLine
 10
185.1207923511787
 20
115.8667743346254
 30
0.0
 11
185.0788226250826
 21
115.8538361301167
 31
0.0
  0
LINE
  5
4EC
330
E3
100
AcDbEntity
  8
0
  6
Continuous
100
AcDbLine
 10
185.0788226250826
 20
115.8538361301167
 30
0.0
 11
185.0368566372715
 21
115.840894187323
 31
0.0
  0
LINE
  5
4ED
330
E3
100
AcDbEntity
  8
0
  6
Continuous
100
AcDbLine
 10
185.0368566372715
 20
115.840894187323
 30
0.0
 11
184.9952121419734
 21
115.8280120570899
 31
0.0
  0
LINE
  5
4EE
330
E3
100
AcDbEntity
  8
0
  6
Continuous
100
AcDbLine
 10
184.9952121419734
 20
115.8280120570899
 30
0.0
 11
184.9542218465567
 21
115.8152420754078
 31
0.0
  0
LINE
  5
4EF
330
E3
100
AcDbEntity
  8
0
  6
Continuous
100
AcDbLine
 10
184.9542218465567
 20
115.8152420754078
 30
0.0
 11
184.9141997669641
 21
115.8026440548374
 31
0.0
  0
LINE
  5
4F0
330
E3
100
AcDbEntity
  8
0
  6
Continuous
100
AcDbLine
 10
184.9141997669641
 20
115.8026440548374
 30
0.0
 11
184.8754636574239
 21
115.7902740696542
 31
0.0
  0
LINE
  5
4F1
330
E3
100
AcDbEntity
  8
0
  6
Continuous
100
AcDbLine
 10
184.8754636574239
 20
115.7902740696542
 30
0.0
 11
184.8383051041687
 21
115.7781807175636
 31
0.0
  0
LINE
  5
4F2
330
E3
100
AcDbEntity
  8
0
  6
Continuous
100
AcDbLine
 10
184.8383051041687
 20
115.7781807175636
 30
0.0
 11
184.8030231700015
 21
115.7664200728412
 31
0.0
  0
LINE
  5
4F3
330
E3
100
AcDbEntity
  8
0
  6
Continuous
100
AcDbLine
 10
184.8030231700015
 20
115.7664200728412
 30
0.0
 11
184.7698907497298
 21
115.7550369949074
 31
0.0
  0
LINE
  5
4F4
330
E3
100
AcDbEntity
  8
0
  6
Continuous
100
AcDbLine
 10
184.7698907497298
 20
115.7550369949074
 30
0.0
 11
184.7391695233062
 21
115.7440800814677
 31
0.0
  0
LINE
  5
4F5
330
E3
100
AcDbEntity
  8
0
  6
Continuous
100
AcDbLine
 10
184.7391695233062
 20
115.7440800814677
 30
0.0
 11
184.7110950026878
 21
115.7335904536574
 31
0.0
  0
LINE
  5
4F6
330
E3
100
AcDbEntity
  8
0
  6
Continuous
100
AcDbLine
 10
184.7110950026878
 20
115.7335904536574
 30
0.0
 11
184.6858914849769
 21
115.7236054943269
 31
0.0
  0
LINE
  5
4F7
330
E3
100
AcDbEntity
  8
0
  6
Continuous
100
AcDbLine
 10
184.6858914849769
 20
115.7236054943269
 30
0.0
 11
184.6637608375654
 21
115.7141625863267
 31
0.0
  0
LINE
  5
4F8
330
E3
100
AcDbEntity
  8
0
  6
Continuous
100
AcDbLine
 10
184.6637608375654
 20
115.7141625863267
 30
0.0
 11
184.6448712832799
 21
115.7052916359369
 31
0.0
  0
LINE
  5
4F9
330
E3
100
AcDbEntity
  8
0
  6
Continuous
100
AcDbLine
 10
184.6448712832799
 20
115.7052916359369
 30
0.0
 11
184.6293798300918
 21
115.6970188111528
 31
0.0
  0
LINE
  5
4FA
330
E3
100
AcDbEntity
  8
0
  6
Continuous
100
AcDbLine
 10
184.6293798300918
 20
115.6970188111528
 30
0.0
 11
184.6174098414074
 21
115.6893665416847
 31
0.0
  0
LINE
  5
4FB
330
E3
100
AcDbEntity
  8
0
  6
Continuous
100
AcDbLine
 10
184.6174098414074
 20
115.6893665416847
 30
0.0
 11
184.6090585126376
 21
115.6823535189577
 31
0.0
  0
LINE
  5
4FC
330
E3
100
AcDbEntity
  8
0
  6
Continuous
100
AcDbLine
 10
184.6090585126376
 20
115.6823535189577
 30
0.0
 11
184.6044007157926
 21
115.6759925732985
 31
0.0
  0
LINE
  5
4FD
330
E3
100
AcDbEntity
  8
0
  6
Continuous
100
AcDbLine
 10
184.6044007157926
 20
115.6759925732985
 30
0.0
 11
184.6034744554781
 21
115.670288726426
 31
0.0
  0
LINE
  5
4FE
330
E3
100
AcDbEntity
  8
0
  6
Continuous
100
AcDbLine
 10
185.6223916719606
 20
115.650492524037
 30
0.0
 11
185.6214654116461
 21
115.6447886771645
 31
0.0
  0
LINE
  5
4FF
330
E3
100
AcDbEntity
  8
0
  6
Continuous
100
AcDbLine
 10
185.6214654116461
 20
115.6447886771645
 30
0.0
 11
185.6168059208437
 21
115.6384265610318
 31
0.0
  0
LINE
  5
500
330
E3
100
AcDbEntity
  8
0
  6
Continuous
100
AcDbLine
 10
185.6168059208437
 20
115.6384265610318
 30
0.0
 11
185.6084553723749
 21
115.6314119087758
 31
0.0
  0
LINE
  5
501
330
E3
100
AcDbEntity
  8
0
  6
Continuous
100
AcDbLine
 10
185.6084553723749
 20
115.6314119087758
 30
0.0
 11
185.5964853836904
 21
115.6237633775927
 31
0.0
  0
LINE
  5
502
330
E3
100
AcDbEntity
  8
0
  6
Continuous
100
AcDbLine
 10
185.5964853836904
 20
115.6237633775927
 30
0.0
 11
185.5809939305024
 21
115.6154905528086
 31
0.0
  0
LINE
  5
503
330
E3
100
AcDbEntity
  8
0
  6
Continuous
100
AcDbLine
 10
185.5809939305024
 20
115.6154905528086
 30
0.0
 11
185.5621081145019
 21
115.6066196024188
 31
0.0
  0
LINE
  5
504
330
E3
100
AcDbEntity
  8
0
  6
Continuous
100
AcDbLine
 10
185.5621081145019
 20
115.6066196024188
 30
0.0
 11
185.5399737288053
 21
115.5971766944186
 31
0.0
  0
LINE
  5
505
330
E3
100
AcDbEntity
  8
0
  6
Continuous
100
AcDbLine
 10
185.5399737288053
 20
115.5971766944186
 30
0.0
 11
185.5147702110944
 21
115.5871917350881
 31
0.0
  0
LINE
  5
506
330
E3
100
AcDbEntity
  8
0
  6
Continuous
100
AcDbLine
 10
185.5147702110944
 20
115.5871917350881
 30
0.0
 11
185.4866956904761
 21
115.5767021072778
 31
0.0
  0
LINE
  5
507
330
E3
100
AcDbEntity
  8
0
  6
Continuous
100
AcDbLine
 10
185.4866956904761
 20
115.5767021072778
 30
0.0
 11
185.4559744640524
 21
115.5657451938381
 31
0.0
  0
LINE
  5
508
330
E3
100
AcDbEntity
  8
0
  6
Continuous
100
AcDbLine
 10
185.4559744640524
 20
115.5657451938381
 30
0.0
 11
185.4228420437807
 21
115.5543621159043
 31
0.0
  0
LINE
  5
509
330
E3
100
AcDbEntity
  8
0
  6
Continuous
100
AcDbLine
 10
185.4228420437807
 20
115.5543621159043
 30
0.0
 11
185.3875601096135
 21
115.5425977328969
 31
0.0
  0
LINE
  5
50A
330
E3
100
AcDbEntity
  8
0
  6
Continuous
100
AcDbLine
 10
185.3875601096135
 20
115.5425977328969
 30
0.0
 11
185.3504052946434
 21
115.5305081190913
 31
0.0
  0
LINE
  5
50B
330
E3
100
AcDbEntity
  8
0
  6
Continuous
100
AcDbLine
 10
185.3504052946434
 20
115.5305081190913
 30
0.0
 11
185.3116654468182
 21
115.518134395623
 31
0.0
  0
LINE
  5
50C
330
E3
100
AcDbEntity
  8
0
  6
Continuous
100
AcDbLine
 10
185.3116654468182
 20
115.518134395623
 30
0.0
 11
185.2716433672256
 21
115.5055401133377
 31
0.0
  0
LINE
  5
50D
330
E3
100
AcDbEntity
  8
0
  6
Continuous
100
AcDbLine
 10
185.2716433672256
 20
115.5055401133377
 30
0.0
 11
185.2306530718088
 21
115.4927701316556
 31
0.0
  0
LINE
  5
50E
330
E3
100
AcDbEntity
  8
0
  6
Continuous
100
AcDbLine
 10
185.2306530718088
 20
115.4927701316556
 30
0.0
 11
185.1890123147958
 21
115.4798880014225
 31
0.0
  0
LINE
  5
50F
330
E3
100
AcDbEntity
  8
0
  6
Continuous
100
AcDbLine
 10
185.1890123147958
 20
115.4798880014225
 30
0.0
 11
185.1470425886997
 21
115.4669460586288
 31
0.0
  0
LINE
  5
510
330
E3
100
AcDbEntity
  8
0
  6
Continuous
100
AcDbLine
 10
185.1470425886997
 20
115.4669460586288
 30
0.0
 11
185.1050728626035
 21
115.4540041158351
 31
0.0
  0
LINE
  5
511
330
E3
100
AcDbEntity
  8
0
  6
Continuous
100
AcDbLine
 10
185.1050728626035
 20
115.4540041158351
 30
0.0
 11
185.0634321055905
 21
115.441121985602
 31
0.0
  0
LINE
  5
512
330
E3
100
AcDbEntity
  8
0
  6
Continuous
100
AcDbLine
 10
185.0634321055905
 20
115.441121985602
 30
0.0
 11
185.0224418101737
 21
115.4283557422049
 31
0.0
  0
LINE
  5
513
330
E3
100
AcDbEntity
  8
0
  6
Continuous
100
AcDbLine
 10
185.0224418101737
 20
115.4283557422049
 30
0.0
 11
184.9824197305812
 21
115.4157577216345
 31
0.0
  0
LINE
  5
514
330
E3
100
AcDbEntity
  8
0
  6
Continuous
100
AcDbLine
 10
184.9824197305812
 20
115.4157577216345
 30
0.0
 11
184.9436798827559
 21
115.4033839981663
 31
0.0
  0
LINE
  5
515
330
E3
100
AcDbEntity
  8
0
  6
Continuous
100
AcDbLine
 10
184.9436798827559
 20
115.4033839981663
 30
0.0
 11
184.9065250677858
 21
115.3912943843607
 31
0.0
  0
LINE
  5
516
330
E3
100
AcDbEntity
  8
0
  6
Continuous
100
AcDbLine
 10
184.9065250677858
 20
115.3912943843607
 30
0.0
 11
184.8712431336185
 21
115.3795300013533
 31
0.0
  0
LINE
  5
517
330
E3
100
AcDbEntity
  8
0
  6
Continuous
100
AcDbLine
 10
184.8712431336185
 20
115.3795300013533
 30
0.0
 11
184.8381107133469
 21
115.3681506617045
 31
0.0
  0
LINE
  5
518
330
E3
100
AcDbEntity
  8
0
  6
Continuous
100
AcDbLine
 10
184.8381107133469
 20
115.3681506617045
 30
0.0
 11
184.8073894869232
 21
115.3571900099797
 31
0.0
  0
LINE
  5
519
330
E3
100
AcDbEntity
  8
0
  6
Continuous
100
AcDbLine
 10
184.8073894869232
 20
115.3571900099797
 30
0.0
 11
184.7793149663049
 21
115.3467003821695
 31
0.0
  0
LINE
  5
51A
330
E3
100
AcDbEntity
  8
0
  6
Continuous
100
AcDbLine
 10
184.7793149663049
 20
115.3467003821695
 30
0.0
 11
184.754111448594
 21
115.336715422839
 31
0.0
  0
LINE
  5
51B
330
E3
100
AcDbEntity
  8
0
  6
Continuous
100
AcDbLine
 10
184.754111448594
 20
115.336715422839
 30
0.0
 11
184.7319770628974
 21
115.3272725148388
 31
0.0
  0
LINE
  5
51C
330
E3
100
AcDbEntity
  8
0
  6
Continuous
100
AcDbLine
 10
184.7319770628974
 20
115.3272725148388
 30
0.0
 11
184.7130912468969
 21
115.318401564449
 31
0.0
  0
LINE
  5
51D
330
E3
100
AcDbEntity
  8
0
  6
Continuous
100
AcDbLine
 10
184.7130912468969
 20
115.318401564449
 30
0.0
 11
184.6975997937089
 21
115.3101287396649
 31
0.0
  0
LINE
  5
51E
330
E3
100
AcDbEntity
  8
0
  6
Continuous
100
AcDbLine
 10
184.6975997937089
 20
115.3101287396649
 30
0.0
 11
184.6856298050245
 21
115.3024802084818
 31
0.0
  0
LINE
  5
51F
330
E3
100
AcDbEntity
  8
0
  6
Continuous
100
AcDbLine
 10
184.6856298050245
 20
115.3024802084818
 30
0.0
 11
184.6772784762546
 21
115.2954671857548
 31
0.0
  0
HATCH
  5
520
330
E3
100
AcDbEntity
  8
Doc_ Finishes
  6
Continuous
 62
   255
370
    18
100
AcDbHatch
 10
0.0
 20
0.0
 30
0.0
210
0.0
220
0.0
230
1.0
  2
SOLID
 70
     1
 71
     0
 91
        1
 92
        3
 72
     0
 73
     1
 93
        4
 10
105.3203630852323
 20
150.6818569733981
 10
105.3203630852323
 20
69.22475134647311
 10
125.3203630852323
 20
69.22475134647311
 10
125.3203630852323
 20
150.6818569733981
 97
        0
 75
     0
 76
     1
 98
        0
  0
LINE
  5
521
330
E3
100
AcDbEntity
  8
Doc_ Finishes
  6
Continuous
 62
   254
370
    25
100
AcDbLine
 10
105.3203618738719
 20
150.6818565134498
 30
0.0
 11
105.3203618738719
 21
69.22475268656838
 31
0.0
  0
LINE
  5
522
330
E3
100
AcDbEntity
  8
Doc_ Finishes
  6
Continuous
 62
   254
370
    25
100
AcDbLine
 10
105.3203618738719
 20
69.22475268656838
 30
0.0
 11
125.320362514428
 21
69.22475268656838
 31
0.0
  0
LINE
  5
523
330
E3
100
AcDbEntity
  8
Doc_ Finishes
  6
Continuous
 62
   254
370
    25
100
AcDbLine
 10
125.320362514428
 20
69.22475268656838
 30
0.0
 11
125.320362514428
 21
150.6818565134498
 31
0.0
  0
LINE
  5
524
330
E3
100
AcDbEntity
  8
Doc_ Finishes
  6
Continuous
 62
   254
370
    25
100
AcDbLine
 10
125.320362514428
 20
150.6818565134498
 30
0.0
 11
105.3203618738719
 21
150.6818565134498
 31
0.0
  0
HATCH
  5
525
330
E3
100
AcDbEntity
  8
0
  6
Continuous
 62
   255
370
     0
100
AcDbHatch
 10
0.0
 20
0.0
 30
0.0
210
0.0
220
0.0
230
1.0
  2
SOLID
 70
     1
 71
     0
 91
        1
 92
        3
 72
     0
 73
     1
 93
        8
 10
145.192982638948
 20
126.595068334265
 10
155.4768462233164
 20
68.27237975280755
 10
164.2737356562274
 20
68.27237975280755
 10
159.479100219377
 20
95.46410853751188
 10
153.2475693158212
 20
96.77718554152815
 10
165.0160384122653
 20
98.09026254554442
 10
158.7845075087093
 20
99.4033395495607
 10
153.989872071859
 20
126.595068334265
 97
        0
 75
     0
 76
     1
 98
        0
  0
LINE
  5
526
330
E3
100
AcDbEntity
  8
0
  6
Continuous
100
AcDbLine
 10
153.9898723173377
 20
126.595069214707
 30
0.0
 11
158.7845069853251
 21
99.40334086927197
 31
0.0
  0
LINE
  5
527
330
E3
100
AcDbEntity
  8
0
  6
Continuous
100
AcDbLine
 10
159.479099036389
 20
95.46410805973058
 30
0.0
 11
164.2737374426615
 21
68.27237971429555
 31
0.0
  0
LINE
  5
528
330
E3
100
AcDbEntity
  8
0
  6
Continuous
100
AcDbLine
 10
159.479099036389
 20
95.46410805973058
 30
0.0
 11
153.2475685343628
 21
96.77718441681603
 31
0.0
  0
LINE
  5
529
330
E3
100
AcDbEntity
  8
0
  6
Continuous
100
AcDbLine
 10
153.2475685343628
 20
96.77718441681603
 30
0.0
 11
165.0160374873514
 21
98.09026077390148
 31
0.0
  0
LINE
  5
52A
330
E3
100
AcDbEntity
  8
0
  6
Continuous
100
AcDbLine
 10
165.0160374873514
 20
98.09026077390148
 30
0.0
 11
158.7845069853251
 21
99.40334086927197
 31
0.0
  0
HATCH
  5
52B
330
E3
100
AcDbEntity
  8
0
  6
Continuous
 62
   255
370
     0
100
AcDbHatch
 10
0.0
 20
0.0
 30
0.0
210
0.0
220
0.0
230
1.0
  2
SOLID
 70
     1
 71
     0
 91
        1
 92
        3
 72
     0
 73
     1
 93
       39
 10
105.3203630852323
 20
168.3969947601565
 10
105.3203630852323
 20
150.6818569733981
 10
105.3584161043148
 20
151.1312915286736
 10
105.4722855551102
 20
151.5670702424119
 10
105.6611048223416
 20
151.9759521989107
 10
105.9234368773732
 20
152.3455137268261
 10
106.2572852148658
 20
152.6645258861396
 10
106.6601090473879
 20
152.9232956538183
 10
107.1288426423424
 20
153.1139604414151
 10
107.6599186540425
 20
153.2307269958399
 10
108.2492952733668
 20
153.2700474244234
 10
108.8924869883669
 20
153.2307269958399
 10
109.5845987217218
 20
153.1139604414151
 10
110.3203630852323
 20
152.9232956538183
 10
111.0941804678253
 20
152.6645258861396
 10
111.9001616519756
 20
152.3455137268261
 10
112.7321726342071
 20
151.9759521989107
 10
113.583881308563
 20
151.5670702424119
 10
114.4488056577557
 20
151.1312915286736
 10
115.3203630852323
 20
150.6818569733981
 10
116.1919205127089
 20
150.2324224181227
 10
117.0568448619016
 20
149.7966437043844
 10
117.9085535362575
 20
149.3877617478855
 10
118.740564518489
 20
149.0182002199701
 10
119.5465457026393
 20
148.6991880606567
 10
120.3203630852323
 20
148.440418292978
 10
121.0561274487428
 20
148.2497535053812
 10
121.7482391820977
 20
148.1329869509564
 10
122.3914308970978
 20
148.0936665223729
 10
122.9808075164221
 20
148.1329869509564
 10
123.5118835281222
 20
148.2497535053812
 10
123.9806171230767
 20
148.440418292978
 10
124.3834409555988
 20
148.6991880606567
 10
124.7172892930914
 20
149.0182002199701
 10
124.979621348123
 20
149.3877617478855
 10
125.1684406153544
 20
149.7966437043844
 10
125.2823100661498
 20
150.2324224181227
 10
125.3203630852323
 20
150.6818569733981
 10
125.3203630852323
 20
168.3969947601565
 97
        0
 75
     0
 76
     1
 98
        0
  0
HATCH
  5
52C
330
E3
100
AcDbEntity
  8
0
  6
Continuous
 62
   255
370
    18
100
AcDbHatch
 10
0.0
 20
0.0
 30
0.0
210
0.0
220
0.0
230
1.0
  2
SOLID
 70
     1
 71
     0
 91
        1
 92
        3
 72
     0
 73
     1
 93
       36
 10
115.3203630852323
 20
150.6818569733981
 10
116.1919205127089
 20
150.2324224181227
 10
117.0568448619016
 20
149.7966437043844
 10
117.9085535362575
 20
149.3877617478855
 10
118.740564518489
 20
149.0182002199701
 10
119.5465457026393
 20
148.6991880606567
 10
120.3203630852323
 20
148.440418292978
 10
121.0561274487428
 20
148.2497535053812
 10
121.7482391820977
 20
148.1329869509564
 10
122.3914308970978
 20
148.0936665223729
 10
122.9808075164221
 20
148.1329869509564
 10
123.5118835281222
 20
148.2497535053812
 10
123.9806171230767
 20
148.440418292978
 10
124.3834409555988
 20
148.6991880606567
 10
124.7172892930914
 20
149.0182002199701
 10
124.979621348123
 20
149.3877617478855
 10
125.1684406153544
 20
149.7966437043844
 10
125.2823100661498
 20
150.2324224181227
 10
125.3203630852323
 20
150.6818569733981
 10
125.2823100661498
 20
151.1312915286736
 10
125.1684406153544
 20
151.5670702424119
 10
124.979621348123
 20
151.9759521989107
 10
124.7172892930914
 20
152.3455137268261
 10
124.3834409555988
 20
152.6645258861396
 10
123.9806171230767
 20
152.9232956538183
 10
123.5118835281222
 20
153.1139604414151
 10
122.9808075164221
 20
153.2307269958399
 10
122.3914308970978
 20
153.2700474244234
 10
121.7482391820977
 20
153.2307269958399
 10
121.0561274487428
 20
153.1139604414151
 10
120.3203630852323
 20
152.9232956538183
 10
119.5465457026393
 20
152.6645258861396
 10
118.740564518489
 20
152.3455137268261
 10
117.9085535362575
 20
151.9759521989107
 10
117.0568448619016
 20
151.5670702424119
 10
116.1919205127089
 20
151.1312915286736
 97
        0
 75
     0
 76
     1
 98
        0
  0
LINE
  5
52D
330
E3
100
AcDbEntity
  8
0
  6
Continuous
100
AcDbLine
 10
115.3203640632924
 20
150.6818565134498
 30
0.0
 11
116.1919190513778
 21
150.2324211950291
 31
0.0
  0
LINE
  5
52E
330
E3
100
AcDbEntity
  8
0
  6
Continuous
100
AcDbLine
 10
116.1919190513778
 20
150.2324211950291
 30
0.0
 11
117.0568460600948
 21
149.796645570129
 31
0.0
  0
LINE
  5
52F
330
E3
100
AcDbEntity
  8
0
  6
Continuous
100
AcDbLine
 10
117.0568460600948
 20
149.796645570129
 30
0.0
 11
117.9085544929255
 21
149.3877631677758
 31
0.0
  0
LINE
  5
530
330
E3
100
AcDbEntity
  8
0
  6
Continuous
100
AcDbLine
 10
117.9085544929255
 20
149.3877631677758
 30
0.0
 11
118.7405659019029
 21
149.0182000474285
 31
0.0
  0
LINE
  5
531
330
E3
100
AcDbEntity
  8
0
  6
Continuous
100
AcDbLine
 10
118.7405659019029
 20
149.0182000474285
 30
0.0
 11
119.5465438938915
 21
148.6991897556194
 31
0.0
  0
LINE
  5
532
330
E3
100
AcDbEntity
  8
0
  6
Continuous
100
AcDbLine
 10
119.5465438938915
 20
148.6991897556194
 30
0.0
 11
120.3203614197177
 21
148.440418188876
 31
0.0
  0
LINE
  5
533
330
E3
100
AcDbEntity
  8
0
  6
Continuous
100
AcDbLine
 10
120.3203614197177
 20
148.440418188876
 30
0.0
 11
121.0561269421652
 21
148.2497544371987
 31
0.0
  0
LINE
  5
534
330
E3
100
AcDbEntity
  8
0
  6
Continuous
100
AcDbLine
 10
121.0561269421652
 20
148.2497544371987
 30
0.0
 11
121.7482405102504
 21
148.1329853658226
 31
0.0
  0
LINE
  5
535
330
E3
100
AcDbEntity
  8
0
  6
Continuous
100
AcDbLine
 10
121.7482405102504
 20
148.1329853658226
 30
0.0
 11
122.3914311420731
 21
148.0936660838168
 31
0.0
  0
LINE
  5
536
330
E3
100
AcDbEntity
  8
0
  6
Continuous
100
AcDbLine
 10
122.3914311420731
 20
148.0936660838168
 30
0.0
 11
122.9808091608064
 21
148.1329853658226
 31
0.0
  0
LINE
  5
537
330
E3
100
AcDbEntity
  8
0
  6
Continuous
100
AcDbLine
 10
122.9808091608064
 20
148.1329853658226
 30
0.0
 11
123.5118848861224
 21
148.2497544371987
 31
0.0
  0
LINE
  5
538
330
E3
100
AcDbEntity
  8
0
  6
Continuous
100
AcDbLine
 10
123.5118848861224
 20
148.2497544371987
 30
0.0
 11
123.9806172318976
 21
148.440418188876
 31
0.0
  0
LINE
  5
539
330
E3
100
AcDbEntity
  8
0
  6
Continuous
100
AcDbLine
 10
123.9806172318976
 20
148.440418188876
 30
0.0
 11
124.3834398742078
 21
148.6991897556194
 31
0.0
  0
LINE
  5
53A
330
E3
100
AcDbEntity
  8
0
  6
Continuous
100
AcDbLine
 10
124.3834398742078
 20
148.6991897556194
 30
0.0
 11
124.7172911576088
 21
149.0182000474285
 31
0.0
  0
LINE
  5
53B
330
E3
100
AcDbEntity
  8
0
  6
Continuous
100
AcDbLine
 10
124.7172911576088
 20
149.0182000474285
 30
0.0
 11
124.9796215717061
 21
149.3877631677758
 31
0.0
  0
LINE
  5
53C
330
E3
100
AcDbEntity
  8
0
  6
Continuous
100
AcDbLine
 10
124.9796215717061
 20
149.3877631677758
 30
0.0
 11
125.1684423488609
 21
149.796645570129
 31
0.0
  0
LINE
  5
53D
330
E3
100
AcDbEntity
  8
0
  6
Continuous
100
AcDbLine
 10
125.1684423488609
 20
149.796645570129
 30
0.0
 11
125.2823105110493
 21
150.2324211950291
 31
0.0
  0
LINE
  5
53E
330
E3
100
AcDbEntity
  8
0
  6
Continuous
100
AcDbLine
 10
125.2823105110493
 20
150.2324211950291
 30
0.0
 11
125.320362514428
 21
150.6818565134498
 31
0.0
  0
LINE
  5
53F
330
E3
100
AcDbEntity
  8
0
  6
Continuous
100
AcDbLine
 10
125.320362514428
 20
150.6818565134498
 30
0.0
 11
125.2823105110493
 21
151.1312918318706
 31
0.0
  0
LINE
  5
540
330
E3
100
AcDbEntity
  8
0
  6
Continuous
100
AcDbLine
 10
125.2823105110493
 20
151.1312918318706
 30
0.0
 11
125.1684423488609
 21
151.5670711950557
 31
0.0
  0
LINE
  5
541
330
E3
100
AcDbEntity
  8
0
  6
Continuous
100
AcDbLine
 10
125.1684423488609
 20
151.5670711950557
 30
0.0
 11
124.9796215717061
 21
151.9759535974089
 31
0.0
  0
LINE
  5
542
330
E3
100
AcDbEntity
  8
0
  6
Continuous
100
AcDbLine
 10
124.9796215717061
 20
151.9759535974089
 30
0.0
 11
124.7172911576088
 21
152.3455129794711
 31
0.0
  0
LINE
  5
543
330
E3
100
AcDbEntity
  8
0
  6
Continuous
100
AcDbLine
 10
124.7172911576088
 20
152.3455129794711
 30
0.0
 11
124.3834398742078
 21
152.6645270095653
 31
0.0
  0
LINE
  5
544
330
E3
100
AcDbEntity
  8
0
  6
Continuous
100
AcDbLine
 10
124.3834398742078
 20
152.6645270095653
 30
0.0
 11
123.9806172318976
 21
152.9232948380236
 31
0.0
  0
LINE
  5
545
330
E3
100
AcDbEntity
  8
0
  6
Continuous
100
AcDbLine
 10
123.9806172318976
 20
152.9232948380236
 30
0.0
 11
123.5118848861224
 21
153.113958589701
 31
0.0
  0
LINE
  5
546
330
E3
100
AcDbEntity
  8
0
  6
Continuous
100
AcDbLine
 10
123.5118848861224
 20
153.113958589701
 30
0.0
 11
122.9808091608064
 21
153.2307276610771
 31
0.0
  0
LINE
  5
547
330
E3
100
AcDbEntity
  8
0
  6
Continuous
100
AcDbLine
 10
122.9808091608064
 20
153.2307276610771
 30
0.0
 11
122.3914311420731
 21
153.2700469430829
 31
0.0
  0
LINE
  5
548
330
E3
100
AcDbEntity
  8
0
  6
Continuous
100
AcDbLine
 10
122.3914311420731
 20
153.2700469430829
 30
0.0
 11
121.7482405102504
 21
153.2307276610771
 31
0.0
  0
LINE
  5
549
330
E3
100
AcDbEntity
  8
0
  6
Continuous
100
AcDbLine
 10
121.7482405102504
 20
153.2307276610771
 30
0.0
 11
121.0561269421652
 21
153.113958589701
 31
0.0
  0
LINE
  5
54A
330
E3
100
AcDbEntity
  8
0
  6
Continuous
100
AcDbLine
 10
121.0561269421652
 20
153.113958589701
 30
0.0
 11
120.3203614197177
 21
152.9232948380236
 31
0.0
  0
LINE
  5
54B
330
E3
100
AcDbEntity
  8
0
  6
Continuous
100
AcDbLine
 10
120.3203614197177
 20
152.9232948380236
 30
0.0
 11
119.5465438938915
 21
152.6645270095653
 31
0.0
  0
LINE
  5
54C
330
E3
100
AcDbEntity
  8
0
  6
Continuous
100
AcDbLine
 10
119.5465438938915
 20
152.6645270095653
 30
0.0
 11
118.7405659019029
 21
152.3455129794711
 31
0.0
  0
LINE
  5
54D
330
E3
100
AcDbEntity
  8
0
  6
Continuous
100
AcDbLine
 10
118.7405659019029
 20
152.3455129794711
 30
0.0
 11
117.9085544929255
 21
151.9759535974089
 31
0.0
  0
LINE
  5
54E
330
E3
100
AcDbEntity
  8
0
  6
Continuous
100
AcDbLine
 10
117.9085544929255
 20
151.9759535974089
 30
0.0
 11
117.0568460600948
 21
151.5670711950557
 31
0.0
  0
LINE
  5
54F
330
E3
100
AcDbEntity
  8
0
  6
Continuous
100
AcDbLine
 10
117.0568460600948
 20
151.5670711950557
 30
0.0
 11
116.1919190513778
 21
151.1312918318706
 31
0.0
  0
LINE
  5
550
330
E3
100
AcDbEntity
  8
0
  6
Continuous
100
AcDbLine
 10
116.1919190513778
 20
151.1312918318706
 30
0.0
 11
115.3203640632924
 21
150.6818565134498
 31
0.0
  0
HATCH
  5
551
330
E3
100
AcDbEntity
  8
0
  6
Continuous
 62
   255
370
    18
100
AcDbHatch
 10
0.0
 20
0.0
 30
0.0
210
0.0
220
0.0
230
1.0
  2
SOLID
 70
     1
 71
     0
 91
        1
 92
        3
 72
     0
 73
     1
 93
       36
 10
115.3203630852323
 20
150.6818569733981
 10
116.1047647699612
 20
150.2773658736502
 10
116.8831966842347
 20
149.8851650312857
 10
117.649734491155
 20
149.5171712704368
 10
118.3985443751633
 20
149.1845658953129
 10
119.1239274408986
 20
148.8974549519308
 10
119.8203630852323
 20
148.66456216102
 10
120.4825510123917
 20
148.4929638521829
 10
121.1054515724112
 20
148.3878739532005
 10
121.6843241159112
 20
148.3524855674754
 10
122.2147630733031
 20
148.3878739532005
 10
122.6927314838332
 20
148.4929638521829
 10
123.1145917192923
 20
148.66456216102
 10
123.4771331685622
 20
148.8974549519308
 10
123.7775966723055
 20
149.1845658953129
 10
124.0136955218339
 20
149.5171712704368
 10
124.1836328623422
 20
149.8851650312857
 10
124.286115368058
 20
150.2773658736502
 10
124.3203630852323
 20
150.6818569733981
 10
124.286115368058
 20
151.0863480731461
 10
124.1836328623422
 20
151.4785489155105
 10
124.0136955218339
 20
151.8465426763595
 10
123.7775966723055
 20
152.1791480514834
 10
123.4771331685622
 20
152.4662589948655
 10
123.1145917192923
 20
152.6991517857763
 10
122.6927314838332
 20
152.8707500946134
 10
122.2147630733031
 20
152.9758399935958
 10
121.6843241159112
 20
153.0112283793208
 10
121.1054515724112
 20
152.9758399935958
 10
120.4825510123917
 20
152.8707500946134
 10
119.8203630852323
 20
152.6991517857763
 10
119.1239274408986
 20
152.4662589948655
 10
118.3985443751633
 20
152.1791480514834
 10
117.649734491155
 20
151.8465426763595
 10
116.8831966842347
 20
151.4785489155105
 10
116.1047647699612
 20
151.0863480731461
 97
        0
 75
     0
 76
     1
 98
        0
  0
LINE
  5
552
330
E3
100
AcDbEntity
  8
0
  6
Continuous
100
AcDbLine
 10
115.3203640632924
 20
150.6818565134498
 30
0.0
 11
116.1047646740548
 21
150.2773665960137
 31
0.0
  0
LINE
  5
553
330
E3
100
AcDbEntity
  8
0
  6
Continuous
100
AcDbLine
 10
116.1047646740548
 20
150.2773665960137
 30
0.0
 11
116.8831952436151
 21
149.88516442149
 31
0.0
  0
LINE
  5
554
330
E3
100
AcDbEntity
  8
0
  6
Continuous
100
AcDbLine
 10
116.8831952436151
 20
149.88516442149
 30
0.0
 11
117.6497343284767
 21
149.5171713808577
 31
0.0
  0
LINE
  5
555
330
E3
100
AcDbEntity
  8
0
  6
Continuous
100
AcDbLine
 10
117.6497343284767
 20
149.5171713808577
 30
0.0
 11
118.3985427274138
 21
149.1845649463736
 31
0.0
  0
LINE
  5
556
330
E3
100
AcDbEntity
  8
0
  6
Continuous
100
AcDbLine
 10
118.3985427274138
 20
149.1845649463736
 30
0.0
 11
119.1239270323171
 21
148.8974534407744
 31
0.0
  0
LINE
  5
557
330
E3
100
AcDbEntity
  8
0
  6
Continuous
100
AcDbLine
 10
119.1239270323171
 20
148.8974534407744
 30
0.0
 11
119.8203620579037
 21
148.6645620213334
 31
0.0
  0
LINE
  5
558
330
E3
100
AcDbEntity
  8
0
  6
Continuous
100
AcDbLine
 10
119.8203620579037
 20
148.6645620213334
 30
0.0
 11
120.4825506542779
 21
148.4929635233383
 31
0.0
  0
LINE
  5
559
330
E3
100
AcDbEntity
  8
0
  6
Continuous
100
AcDbLine
 10
120.4825506542779
 20
148.4929635233383
 30
0.0
 11
121.1054498749266
 21
148.3878728544138
 31
0.0
  0
LINE
  5
55A
330
E3
100
AcDbEntity
  8
0
  6
Continuous
100
AcDbLine
 10
121.1054498749266
 20
148.3878728544138
 30
0.0
 11
121.6843233127095
 21
148.3524862482656
 31
0.0
  0
LINE
  5
55B
330
E3
100
AcDbEntity
  8
0
  6
Continuous
100
AcDbLine
 10
121.6843233127095
 20
148.3524862482656
 30
0.0
 11
122.2147635295695
 21
148.3878728544138
 31
0.0
  0
LINE
  5
55C
330
E3
100
AcDbEntity
  8
0
  6
Continuous
100
AcDbLine
 10
122.2147635295695
 20
148.3878728544138
 30
0.0
 11
122.692733177668
 21
148.4929635233383
 31
0.0
  0
LINE
  5
55D
330
E3
100
AcDbEntity
  8
0
  6
Continuous
100
AcDbLine
 10
122.692733177668
 20
148.4929635233383
 30
0.0
 11
123.1145911673801
 21
148.6645620213334
 31
0.0
  0
LINE
  5
55E
330
E3
100
AcDbEntity
  8
0
  6
Continuous
100
AcDbLine
 10
123.1145911673801
 20
148.6645620213334
 30
0.0
 11
123.4771337884303
 21
148.8974534407744
 31
0.0
  0
LINE
  5
55F
330
E3
100
AcDbEntity
  8
0
  6
Continuous
100
AcDbLine
 10
123.4771337884303
 20
148.8974534407744
 30
0.0
 11
123.7775984481771
 21
149.1845649463736
 31
0.0
  0
LINE
  5
560
330
E3
100
AcDbEntity
  8
0
  6
Continuous
100
AcDbLine
 10
123.7775984481771
 20
149.1845649463736
 30
0.0
 11
124.0136973161788
 21
149.5171713808577
 31
0.0
  0
LINE
  5
561
330
E3
100
AcDbEntity
  8
0
  6
Continuous
100
AcDbLine
 10
124.0136973161788
 20
149.5171713808577
 30
0.0
 11
124.183632277333
 21
149.88516442149
 31
0.0
  0
LINE
  5
562
330
E3
100
AcDbEntity
  8
0
  6
Continuous
100
AcDbLine
 10
124.183632277333
 20
149.88516442149
 30
0.0
 11
124.2861136233026
 21
150.2773665960137
 31
0.0
  0
LINE
  5
563
330
E3
100
AcDbEntity
  8
0
  6
Continuous
100
AcDbLine
 10
124.2861136233026
 20
150.2773665960137
 30
0.0
 11
124.3203637907999
 21
150.6818565134498
 31
0.0
  0
LINE
  5
564
330
E3
100
AcDbEntity
  8
0
  6
Continuous
100
AcDbLine
 10
124.3203637907999
 20
150.6818565134498
 30
0.0
 11
124.2861136233026
 21
151.086346430886
 31
0.0
  0
LINE
  5
565
330
E3
100
AcDbEntity
  8
0
  6
Continuous
100
AcDbLine
 10
124.2861136233026
 20
151.086346430886
 30
0.0
 11
124.183632277333
 21
151.4785486054097
 31
0.0
  0
LINE
  5
566
330
E3
100
AcDbEntity
  8
0
  6
Continuous
100
AcDbLine
 10
124.183632277333
 20
151.4785486054097
 30
0.0
 11
124.0136973161788
 21
151.8465416460419
 31
0.0
  0
LINE
  5
567
330
E3
100
AcDbEntity
  8
0
  6
Continuous
100
AcDbLine
 10
124.0136973161788
 20
151.8465416460419
 30
0.0
 11
123.7775984481771
 21
152.179148080526
 31
0.0
  0
LINE
  5
568
330
E3
100
AcDbEntity
  8
0
  6
Continuous
100
AcDbLine
 10
123.7775984481771
 20
152.179148080526
 30
0.0
 11
123.4771337884303
 21
152.4662595861253
 31
0.0
  0
LINE
  5
569
330
E3
100
AcDbEntity
  8
0
  6
Continuous
100
AcDbLine
 10
123.4771337884303
 20
152.4662595861253
 30
0.0
 11
123.1145911673801
 21
152.6991510055663
 31
0.0
  0
LINE
  5
56A
330
E3
100
AcDbEntity
  8
0
  6
Continuous
100
AcDbLine
 10
123.1145911673801
 20
152.6991510055663
 30
0.0
 11
122.692733177668
 21
152.8707495035614
 31
0.0
  0
LINE
  5
56B
330
E3
100
AcDbEntity
  8
0
  6
Continuous
100
AcDbLine
 10
122.692733177668
 20
152.8707495035614
 30
0.0
 11
122.2147635295695
 21
152.9758401724858
 31
0.0
  0
LINE
  5
56C
330
E3
100
AcDbEntity
  8
0
  6
Continuous
100
AcDbLine
 10
122.2147635295695
 20
152.9758401724858
 30
0.0
 11
121.6843233127095
 21
153.0112267786341
 31
0.0
  0
LINE
  5
56D
330
E3
100
AcDbEntity
  8
0
  6
Continuous
100
AcDbLine
 10
121.6843233127095
 20
153.0112267786341
 30
0.0
 11
121.1054498749266
 21
152.9758401724858
 31
0.0
  0
LINE
  5
56E
330
E3
100
AcDbEntity
  8
0
  6
Continuous
100
AcDbLine
 10
121.1054498749266
 20
152.9758401724858
 30
0.0
 11
120.4825506542779
 21
152.8707495035614
 31
0.0
  0
LINE
  5
56F
330
E3
100
AcDbEntity
  8
0
  6
Continuous
100
AcDbLine
 10
120.4825506542779
 20
152.8707495035614
 30
0.0
 11
119.8203620579037
 21
152.6991510055663
 31
0.0
  0
LINE
  5
570
330
E3
100
AcDbEntity
  8
0
  6
Continuous
100
AcDbLine
 10
119.8203620579037
 20
152.6991510055663
 30
0.0
 11
119.1239270323171
 21
152.4662595861253
 31
0.0
  0
LINE
  5
571
330
E3
100
AcDbEntity
  8
0
  6
Continuous
100
AcDbLine
 10
119.1239270323171
 20
152.4662595861253
 30
0.0
 11
118.3985427274138
 21
152.179148080526
 31
0.0
  0
LINE
  5
572
330
E3
100
AcDbEntity
  8
0
  6
Continuous
100
AcDbLine
 10
118.3985427274138
 20
152.179148080526
 30
0.0
 11
117.6497343284767
 21
151.8465416460419
 31
0.0
  0
LINE
  5
573
330
E3
100
AcDbEntity
  8
0
  6
Continuous
100
AcDbLine
 10
117.6497343284767
 20
151.8465416460419
 30
0.0
 11
116.8831952436151
 21
151.4785486054097
 31
0.0
  0
LINE
  5
574
330
E3
100
AcDbEntity
  8
0
  6
Continuous
100
AcDbLine
 10
116.8831952436151
 20
151.4785486054097
 30
0.0
 11
116.1047646740548
 21
151.086346430886
 31
0.0
  0
LINE
  5
575
330
E3
100
AcDbEntity
  8
0
  6
Continuous
100
AcDbLine
 10
116.1047646740548
 20
151.086346430886
 30
0.0
 11
115.3203640632924
 21
150.6818565134498
 31
0.0
  0
LINE
  5
576
330
E3
100
AcDbEntity
  8
0
  6
Continuous
100
AcDbLine
 10
105.3203618738719
 20
150.6818565134498
 30
0.0
 11
105.3584176155356
 21
151.1312918318706
 31
0.0
  0
LINE
  5
577
330
E3
100
AcDbEntity
  8
0
  6
Continuous
100
AcDbLine
 10
105.3584176155356
 20
151.1312918318706
 30
0.0
 11
105.472285777724
 21
151.5670711950557
 31
0.0
  0
LINE
  5
578
330
E3
100
AcDbEntity
  8
0
  6
Continuous
100
AcDbLine
 10
105.472285777724
 20
151.5670711950557
 30
0.0
 11
105.6611065548787
 21
151.9759535974089
 31
0.0
  0
LINE
  5
579
330
E3
100
AcDbEntity
  8
0
  6
Continuous
100
AcDbLine
 10
105.6611065548787
 20
151.9759535974089
 30
0.0
 11
105.9234369689761
 21
152.3455129794711
 31
0.0
  0
LINE
  5
57A
330
E3
100
AcDbEntity
  8
0
  6
Continuous
100
AcDbLine
 10
105.9234369689761
 20
152.3455129794711
 30
0.0
 11
106.257284514092
 21
152.6645270095653
 31
0.0
  0
LINE
  5
57B
330
E3
100
AcDbEntity
  8
0
  6
Continuous
100
AcDbLine
 10
106.257284514092
 20
152.6645270095653
 30
0.0
 11
106.6601108946873
 21
152.9232948380236
 31
0.0
  0
LINE
  5
57C
330
E3
100
AcDbEntity
  8
0
  6
Continuous
100
AcDbLine
 10
106.6601108946873
 20
152.9232948380236
 30
0.0
 11
107.1288432404624
 21
153.113958589701
 31
0.0
  0
LINE
  5
57D
330
E3
100
AcDbEntity
  8
0
  6
Continuous
100
AcDbLine
 10
107.1288432404624
 20
153.113958589701
 30
0.0
 11
107.6599189657785
 21
153.2307276610771
 31
0.0
  0
LINE
  5
57E
330
E3
100
AcDbEntity
  8
0
  6
Continuous
100
AcDbLine
 10
107.6599189657785
 20
153.2307276610771
 30
0.0
 11
108.2492969845118
 21
153.2700469430829
 31
0.0
  0
LINE
  5
57F
330
E3
100
AcDbEntity
  8
0
  6
Continuous
100
AcDbLine
 10
108.2492969845118
 20
153.2700469430829
 30
0.0
 11
108.8924876163344
 21
153.2307276610771
 31
0.0
  0
LINE
  5
580
330
E3
100
AcDbEntity
  8
0
  6
Continuous
100
AcDbLine
 10
108.8924876163344
 20
153.2307276610771
 30
0.0
 11
109.5845974461347
 21
153.113958589701
 31
0.0
  0
LINE
  5
581
330
E3
100
AcDbEntity
  8
0
  6
Continuous
100
AcDbLine
 10
109.5845974461347
 20
153.113958589701
 30
0.0
 11
110.3203629685822
 21
152.9232948380236
 31
0.0
  0
LINE
  5
582
330
E3
100
AcDbEntity
  8
0
  6
Continuous
100
AcDbLine
 10
110.3203629685822
 20
152.9232948380236
 30
0.0
 11
111.0941804944083
 21
152.6645270095653
 31
0.0
  0
LINE
  5
583
330
E3
100
AcDbEntity
  8
0
  6
Continuous
100
AcDbLine
 10
111.0941804944083
 20
152.6645270095653
 30
0.0
 11
111.900162224682
 21
152.3455129794711
 31
0.0
  0
LINE
  5
584
330
E3
100
AcDbEntity
  8
0
  6
Continuous
100
AcDbLine
 10
111.900162224682
 20
152.3455129794711
 30
0.0
 11
112.7321736336594
 21
151.9759535974089
 31
0.0
  0
LINE
  5
585
330
E3
100
AcDbEntity
  8
0
  6
Continuous
100
AcDbLine
 10
112.7321736336594
 20
151.9759535974089
 30
0.0
 11
113.5838820664901
 21
151.5670711950557
 31
0.0
  0
LINE
  5
586
330
E3
100
AcDbEntity
  8
0
  6
Continuous
100
AcDbLine
 10
113.5838820664901
 20
151.5670711950557
 30
0.0
 11
114.448805336922
 21
151.1312918318706
 31
0.0
  0
LINE
  5
587
330
E3
100
AcDbEntity
  8
0
  6
Continuous
100
AcDbLine
 10
114.448805336922
 20
151.1312918318706
 30
0.0
 11
115.3203640632924
 21
150.6818565134498
 31
0.0
  0
LINE
  5
588
330
E3
100
AcDbEntity
  8
0
  6
Continuous
100
AcDbLine
 10
115.3203640632924
 20
150.6818565134498
 30
0.0
 11
116.1919190513778
 21
150.2324211950291
 31
0.0
  0
LINE
  5
589
330
E3
100
AcDbEntity
  8
0
  6
Continuous
100
AcDbLine
 10
116.1919190513778
 20
150.2324211950291
 30
0.0
 11
117.0568460600948
 21
149.796645570129
 31
0.0
  0
LINE
  5
58A
330
E3
100
AcDbEntity
  8
0
  6
Continuous
100
AcDbLine
 10
117.0568460600948
 20
149.796645570129
 30
0.0
 11
117.9085544929255
 21
149.3877631677758
 31
0.0
  0
LINE
  5
58B
330
E3
100
AcDbEntity
  8
0
  6
Continuous
100
AcDbLine
 10
117.9085544929255
 20
149.3877631677758
 30
0.0
 11
118.7405659019029
 21
149.0182000474285
 31
0.0
  0
LINE
  5
58C
330
E3
100
AcDbEntity
  8
0
  6
Continuous
100
AcDbLine
 10
118.7405659019029
 20
149.0182000474285
 30
0.0
 11
119.5465438938915
 21
148.6991897556194
 31
0.0
  0
LINE
  5
58D
330
E3
100
AcDbEntity
  8
0
  6
Continuous
100
AcDbLine
 10
119.5465438938915
 20
148.6991897556194
 30
0.0
 11
120.3203614197177
 21
148.440418188876
 31
0.0
  0
LINE
  5
58E
330
E3
100
AcDbEntity
  8
0
  6
Continuous
100
AcDbLine
 10
120.3203614197177
 20
148.440418188876
 30
0.0
 11
121.0561269421652
 21
148.2497544371987
 31
0.0
  0
LINE
  5
58F
330
E3
100
AcDbEntity
  8
0
  6
Continuous
100
AcDbLine
 10
121.0561269421652
 20
148.2497544371987
 30
0.0
 11
121.7482405102504
 21
148.1329853658226
 31
0.0
  0
LINE
  5
590
330
E3
100
AcDbEntity
  8
0
  6
Continuous
100
AcDbLine
 10
121.7482405102504
 20
148.1329853658226
 30
0.0
 11
122.3914311420731
 21
148.0936660838168
 31
0.0
  0
LINE
  5
591
330
E3
100
AcDbEntity
  8
0
  6
Continuous
100
AcDbLine
 10
122.3914311420731
 20
148.0936660838168
 30
0.0
 11
122.9808091608064
 21
148.1329853658226
 31
0.0
  0
LINE
  5
592
330
E3
100
AcDbEntity
  8
0
  6
Continuous
100
AcDbLine
 10
122.9808091608064
 20
148.1329853658226
 30
0.0
 11
123.5118848861224
 21
148.2497544371987
 31
0.0
  0
LINE
  5
593
330
E3
100
AcDbEntity
  8
0
  6
Continuous
100
AcDbLine
 10
123.5118848861224
 20
148.2497544371987
 30
0.0
 11
123.9806172318976
 21
148.440418188876
 31
0.0
  0
LINE
  5
594
330
E3
100
AcDbEntity
  8
0
  6
Continuous
100
AcDbLine
 10
123.9806172318976
 20
148.440418188876
 30
0.0
 11
124.3834398742078
 21
148.6991897556194
 31
0.0
  0
LINE
  5
595
330
E3
100
AcDbEntity
  8
0
  6
Continuous
100
AcDbLine
 10
124.3834398742078
 20
148.6991897556194
 30
0.0
 11
124.7172911576088
 21
149.0182000474285
 31
0.0
  0
LINE
  5
596
330
E3
100
AcDbEntity
  8
0
  6
Continuous
100
AcDbLine
 10
124.7172911576088
 20
149.0182000474285
 30
0.0
 11
124.9796215717061
 21
149.3877631677758
 31
0.0
  0
LINE
  5
597
330
E3
100
AcDbEntity
  8
0
  6
Continuous
100
AcDbLine
 10
124.9796215717061
 20
149.3877631677758
 30
0.0
 11
125.1684423488609
 21
149.796645570129
 31
0.0
  0
LINE
  5
598
330
E3
100
AcDbEntity
  8
0
  6
Continuous
100
AcDbLine
 10
125.1684423488609
 20
149.796645570129
 30
0.0
 11
125.2823105110493
 21
150.2324211950291
 31
0.0
  0
LINE
  5
599
330
E3
100
AcDbEntity
  8
0
  6
Continuous
100
AcDbLine
 10
125.2823105110493
 20
150.2324211950291
 30
0.0
 11
125.320362514428
 21
150.6818565134498
 31
0.0
  0
HATCH
  5
59A
330
E3
100
AcDbEntity
  8
0
  6
Continuous
 62
   255
370
     0
100
AcDbHatch
 10
0.0
 20
0.0
 30
0.0
210
0.0
220
0.0
230
1.0
  2
SOLID
 70
     1
 71
     0
 91
        1
 92
        3
 72
     0
 73
     1
 93
       39
 10
105.3203618738719
 20
53.01315626921706
 10
125.320362514428
 20
53.01315626921706
 10
125.320362514428
 20
69.22475268656838
 10
125.2823105110493
 20
69.67418426670407
 10
125.1684423488609
 20
70.10996362988928
 10
124.9796215717061
 20
70.5188460322424
 10
124.7172911576088
 20
70.8884091525897
 10
124.3834398742078
 20
71.20741944439882
 10
123.9806172318976
 20
71.46619101114217
 10
123.5118848861224
 20
71.65685476281955
 10
122.9808091608064
 20
71.7736200959106
 10
122.3914311420731
 20
71.81294311620144
 10
121.7482405102504
 20
71.7736200959106
 10
121.0561269421652
 20
71.65685476281955
 10
120.3203614197177
 20
71.46619101114217
 10
119.5465438938915
 20
71.20741944439882
 10
118.7405659019029
 20
70.8884091525897
 10
117.9085544929255
 20
70.5188460322424
 10
117.0568460600948
 20
70.10996362988928
 10
116.1919190513778
 20
69.67418426670407
 10
115.3203640632924
 20
69.22475268656838
 10
114.448805336922
 20
68.77531736814765
 10
113.5838820664901
 20
68.33953800496245
 10
112.7321736336594
 20
67.93065560260933
 10
111.900162224682
 20
67.56109622054707
 10
111.0941804944083
 20
67.24208219045292
 10
110.3203629685822
 20
66.98331436199459
 10
109.5845974461347
 20
66.79264687203218
 10
108.8924876163344
 20
66.67588153894114
 10
108.2492969845118
 20
66.63656225693532
 10
107.6599189657785
 20
66.67588153894114
 10
107.1288432404624
 20
66.79264687203218
 10
106.6601108946873
 20
66.98331436199459
 10
106.257284514092
 20
67.24208219045292
 10
105.9234369689761
 20
67.56109622054707
 10
105.6611065548787
 20
67.93065560260933
 10
105.472285777724
 20
68.33953800496245
 10
105.3584176155356
 20
68.77531736814765
 10
105.3203618738719
 20
69.22475268656838
 97
        0
 75
     0
 76
     1
 98
        0
  0
HATCH
  5
59B
330
E3
100
AcDbEntity
  8
0
  6
Continuous
 62
   255
370
    18
100
AcDbHatch
 10
0.0
 20
0.0
 30
0.0
210
0.0
220
0.0
230
1.0
  2
SOLID
 70
     1
 71
     0
 91
        1
 92
        3
 72
     0
 73
     1
 93
       36
 10
115.3203630852323
 20
69.22475134647311
 10
116.1919205127089
 20
68.77531679119765
 10
117.0568448619016
 20
68.33953807745937
 10
117.9085535362575
 20
67.9306561209605
 10
118.740564518489
 20
67.56109459304511
 10
119.5465457026393
 20
67.24208243373165
 10
120.3203630852323
 20
66.983312666053
 10
121.0561274487428
 20
66.7926478784562
 10
121.7482391820977
 20
66.67588132403134
 10
122.3914308970977
 20
66.63656089544791
 10
122.9808075164221
 20
66.67588132403134
 10
123.5118835281222
 20
66.7926478784562
 10
123.9806171230767
 20
66.983312666053
 10
124.3834409555988
 20
67.24208243373165
 10
124.7172892930914
 20
67.56109459304511
 10
124.979621348123
 20
67.9306561209605
 10
125.1684406153544
 20
68.33953807745937
 10
125.2823100661498
 20
68.77531679119765
 10
125.3203630852323
 20
69.22475134647311
 10
125.2823100661498
 20
69.6741859017486
 10
125.1684406153544
 20
70.10996461548689
 10
124.979621348123
 20
70.51884657198572
 10
124.7172892930914
 20
70.88840809990114
 10
124.3834409555988
 20
71.20742025921457
 10
123.9806171230767
 20
71.46619002689326
 10
123.5118835281222
 20
71.65685481449006
 10
122.9808075164221
 20
71.77362136891492
 10
122.3914308970977
 20
71.81294179749833
 10
121.7482391820977
 20
71.77362136891492
 10
121.0561274487428
 20
71.65685481449006
 10
120.3203630852323
 20
71.46619002689326
 10
119.5465457026393
 20
71.20742025921457
 10
118.740564518489
 20
70.88840809990114
 10
117.9085535362575
 20
70.51884657198572
 10
117.0568448619016
 20
70.10996461548689
 10
116.1919205127089
 20
69.6741859017486
 97
        0
 75
     0
 76
     1
 98
        0
  0
LINE
  5
59C
330
E3
100
AcDbEntity
  8
0
  6
Continuous
100
AcDbLine
 10
116.1919190513778
 20
68.77531736814765
 30
0.0
 11
115.3203640632924
 21
69.22475268656838
 31
0.0
  0
LINE
  5
59D
330
E3
100
AcDbEntity
  8
0
  6
Continuous
100
AcDbLine
 10
117.0568460600948
 20
68.33953800496245
 30
0.0
 11
116.1919190513778
 21
68.77531736814765
 31
0.0
  0
LINE
  5
59E
330
E3
100
AcDbEntity
  8
0
  6
Continuous
100
AcDbLine
 10
117.9085544929255
 20
67.93065560260933
 30
0.0
 11
117.0568460600948
 21
68.33953800496245
 31
0.0
  0
LINE
  5
59F
330
E3
100
AcDbEntity
  8
0
  6
Continuous
100
AcDbLine
 10
118.7405659019029
 20
67.56109622054707
 30
0.0
 11
117.9085544929255
 21
67.93065560260933
 31
0.0
  0
LINE
  5
5A0
330
E3
100
AcDbEntity
  8
0
  6
Continuous
100
AcDbLine
 10
119.5465438938915
 20
67.24208219045292
 30
0.0
 11
118.7405659019029
 21
67.56109622054707
 31
0.0
  0
LINE
  5
5A1
330
E3
100
AcDbEntity
  8
0
  6
Continuous
100
AcDbLine
 10
120.3203614197177
 20
66.98331436199459
 30
0.0
 11
119.5465438938915
 21
67.24208219045292
 31
0.0
  0
LINE
  5
5A2
330
E3
100
AcDbEntity
  8
0
  6
Continuous
100
AcDbLine
 10
121.0561269421652
 20
66.79264687203218
 30
0.0
 11
120.3203614197177
 21
66.98331436199459
 31
0.0
  0
LINE
  5
5A3
330
E3
100
AcDbEntity
  8
0
  6
Continuous
100
AcDbLine
 10
121.7482405102504
 20
66.67588153894114
 30
0.0
 11
121.0561269421652
 21
66.79264687203218
 31
0.0
  0
LINE
  5
5A4
330
E3
100
AcDbEntity
  8
0
  6
Continuous
100
AcDbLine
 10
122.3914311420731
 20
66.63656225693532
 30
0.0
 11
121.7482405102504
 21
66.67588153894114
 31
0.0
  0
LINE
  5
5A5
330
E3
100
AcDbEntity
  8
0
  6
Continuous
100
AcDbLine
 10
122.9808091608064
 20
66.67588153894114
 30
0.0
 11
122.3914311420731
 21
66.63656225693532
 31
0.0
  0
LINE
  5
5A6
330
E3
100
AcDbEntity
  8
0
  6
Continuous
100
AcDbLine
 10
123.5118848861224
 20
66.79264687203218
 30
0.0
 11
122.9808091608064
 21
66.67588153894114
 31
0.0
  0
LINE
  5
5A7
330
E3
100
AcDbEntity
  8
0
  6
Continuous
100
AcDbLine
 10
123.9806172318976
 20
66.98331436199459
 30
0.0
 11
123.5118848861224
 21
66.79264687203218
 31
0.0
  0
LINE
  5
5A8
330
E3
100
AcDbEntity
  8
0
  6
Continuous
100
AcDbLine
 10
124.3834398742078
 20
67.24208219045292
 30
0.0
 11
123.9806172318976
 21
66.98331436199459
 31
0.0
  0
LINE
  5
5A9
330
E3
100
AcDbEntity
  8
0
  6
Continuous
100
AcDbLine
 10
124.7172911576088
 20
67.56109622054707
 30
0.0
 11
124.3834398742078
 21
67.24208219045292
 31
0.0
  0
LINE
  5
5AA
330
E3
100
AcDbEntity
  8
0
  6
Continuous
100
AcDbLine
 10
124.9796215717061
 20
67.93065560260933
 30
0.0
 11
124.7172911576088
 21
67.56109622054707
 31
0.0
  0
LINE
  5
5AB
330
E3
100
AcDbEntity
  8
0
  6
Continuous
100
AcDbLine
 10
125.1684423488609
 20
68.33953800496245
 30
0.0
 11
124.9796215717061
 21
67.93065560260933
 31
0.0
  0
LINE
  5
5AC
330
E3
100
AcDbEntity
  8
0
  6
Continuous
100
AcDbLine
 10
125.2823105110493
 20
68.77531736814765
 30
0.0
 11
125.1684423488609
 21
68.33953800496245
 31
0.0
  0
LINE
  5
5AD
330
E3
100
AcDbEntity
  8
0
  6
Continuous
100
AcDbLine
 10
125.320362514428
 20
69.22475268656838
 30
0.0
 11
125.2823105110493
 21
68.77531736814765
 31
0.0
  0
LINE
  5
5AE
330
E3
100
AcDbEntity
  8
0
  6
Continuous
100
AcDbLine
 10
125.2823105110493
 20
69.67418426670407
 30
0.0
 11
125.320362514428
 21
69.22475268656838
 31
0.0
  0
LINE
  5
5AF
330
E3
100
AcDbEntity
  8
0
  6
Continuous
100
AcDbLine
 10
125.1684423488609
 20
70.10996362988928
 30
0.0
 11
125.2823105110493
 21
69.67418426670407
 31
0.0
  0
LINE
  5
5B0
330
E3
100
AcDbEntity
  8
0
  6
Continuous
100
AcDbLine
 10
124.9796215717061
 20
70.5188460322424
 30
0.0
 11
125.1684423488609
 21
70.10996362988928
 31
0.0
  0
LINE
  5
5B1
330
E3
100
AcDbEntity
  8
0
  6
Continuous
100
AcDbLine
 10
124.7172911576088
 20
70.8884091525897
 30
0.0
 11
124.9796215717061
 21
70.5188460322424
 31
0.0
  0
LINE
  5
5B2
330
E3
100
AcDbEntity
  8
0
  6
Continuous
100
AcDbLine
 10
124.3834398742078
 20
71.20741944439882
 30
0.0
 11
124.7172911576088
 21
70.8884091525897
 31
0.0
  0
LINE
  5
5B3
330
E3
100
AcDbEntity
  8
0
  6
Continuous
100
AcDbLine
 10
123.9806172318976
 20
71.46619101114217
 30
0.0
 11
124.3834398742078
 21
71.20741944439882
 31
0.0
  0
LINE
  5
5B4
330
E3
100
AcDbEntity
  8
0
  6
Continuous
100
AcDbLine
 10
123.5118848861224
 20
71.65685476281955
 30
0.0
 11
123.9806172318976
 21
71.46619101114217
 31
0.0
  0
LINE
  5
5B5
330
E3
100
AcDbEntity
  8
0
  6
Continuous
100
AcDbLine
 10
122.9808091608064
 20
71.7736200959106
 30
0.0
 11
123.5118848861224
 21
71.65685476281955
 31
0.0
  0
LINE
  5
5B6
330
E3
100
AcDbEntity
  8
0
  6
Continuous
100
AcDbLine
 10
122.3914311420731
 20
71.81294311620144
 30
0.0
 11
122.9808091608064
 21
71.7736200959106
 31
0.0
  0
LINE
  5
5B7
330
E3
100
AcDbEntity
  8
0
  6
Continuous
100
AcDbLine
 10
121.7482405102504
 20
71.7736200959106
 30
0.0
 11
122.3914311420731
 21
71.81294311620144
 31
0.0
  0
LINE
  5
5B8
330
E3
100
AcDbEntity
  8
0
  6
Continuous
100
AcDbLine
 10
121.0561269421652
 20
71.65685476281955
 30
0.0
 11
121.7482405102504
 21
71.7736200959106
 31
0.0
  0
LINE
  5
5B9
330
E3
100
AcDbEntity
  8
0
  6
Continuous
100
AcDbLine
 10
120.3203614197177
 20
71.46619101114217
 30
0.0
 11
121.0561269421652
 21
71.65685476281955
 31
0.0
  0
LINE
  5
5BA
330
E3
100
AcDbEntity
  8
0
  6
Continuous
100
AcDbLine
 10
119.5465438938915
 20
71.20741944439882
 30
0.0
 11
120.3203614197177
 21
71.46619101114217
 31
0.0
  0
LINE
  5
5BB
330
E3
100
AcDbEntity
  8
0
  6
Continuous
100
AcDbLine
 10
118.7405659019029
 20
70.8884091525897
 30
0.0
 11
119.5465438938915
 21
71.20741944439882
 31
0.0
  0
LINE
  5
5BC
330
E3
100
AcDbEntity
  8
0
  6
Continuous
100
AcDbLine
 10
117.9085544929255
 20
70.5188460322424
 30
0.0
 11
118.7405659019029
 21
70.8884091525897
 31
0.0
  0
LINE
  5
5BD
330
E3
100
AcDbEntity
  8
0
  6
Continuous
100
AcDbLine
 10
117.0568460600948
 20
70.10996362988928
 30
0.0
 11
117.9085544929255
 21
70.5188460322424
 31
0.0
  0
LINE
  5
5BE
330
E3
100
AcDbEntity
  8
0
  6
Continuous
100
AcDbLine
 10
116.1919190513778
 20
69.67418426670407
 30
0.0
 11
117.0568460600948
 21
70.10996362988928
 31
0.0
  0
LINE
  5
5BF
330
E3
100
AcDbEntity
  8
0
  6
Continuous
100
AcDbLine
 10
115.3203640632924
 20
69.22475268656838
 30
0.0
 11
116.1919190513778
 21
69.67418426670407
 31
0.0
  0
HATCH
  5
5C0
330
E3
100
AcDbEntity
  8
0
  6
Continuous
 62
   255
370
    18
100
AcDbHatch
 10
0.0
 20
0.0
 30
0.0
210
0.0
220
0.0
230
1.0
  2
SOLID
 70
     1
 71
     0
 91
        1
 92
        3
 72
     0
 73
     1
 93
       36
 10
115.3203630852323
 20
69.22475134647311
 10
116.1047647699612
 20
68.82026024672517
 10
116.8831966842347
 20
68.42805940436074
 10
117.649734491155
 20
68.06006564351176
 10
118.3985443751633
 20
67.7274602683879
 10
119.1239274408986
 20
67.4403493250058
 10
119.8203630852323
 20
67.207456534095
 10
120.4825510123917
 20
67.03585822525788
 10
121.1054515724112
 20
66.93076832627553
 10
121.6843241159112
 20
66.89537994055043
 10
122.2147630733031
 20
66.93076832627553
 10
122.6927314838332
 20
67.03585822525788
 10
123.1145917192922
 20
67.207456534095
 10
123.4771331685621
 20
67.4403493250058
 10
123.7775966723055
 20
67.7274602683879
 10
124.0136955218339
 20
68.06006564351176
 10
124.1836328623422
 20
68.42805940436074
 10
124.286115368058
 20
68.82026024672517
 10
124.3203630852323
 20
69.22475134647311
 10
124.286115368058
 20
69.62924244622106
 10
124.1836328623422
 20
70.02144328858552
 10
124.0136955218339
 20
70.38943704943446
 10
123.7775966723055
 20
70.72204242455834
 10
123.4771331685621
 20
71.00915336794046
 10
123.1145917192922
 20
71.24204615885122
 10
122.6927314838332
 20
71.41364446768837
 10
122.2147630733031
 20
71.51873436667074
 10
121.6843241159112
 20
71.55412275239583
 10
121.1054515724112
 20
71.51873436667074
 10
120.4825510123917
 20
71.41364446768837
 10
119.8203630852323
 20
71.24204615885122
 10
119.1239274408986
 20
71.00915336794046
 10
118.3985443751633
 20
70.72204242455835
 10
117.649734491155
 20
70.38943704943446
 10
116.8831966842347
 20
70.02144328858552
 10
116.1047647699612
 20
69.62924244622106
 97
        0
 75
     0
 76
     1
 98
        0
  0
LINE
  5
5C1
330
E3
100
AcDbEntity
  8
0
  6
Continuous
100
AcDbLine
 10
116.1047646740548
 20
68.82025903084721
 30
0.0
 11
115.3203640632924
 21
69.22475268656838
 31
0.0
  0
LINE
  5
5C2
330
E3
100
AcDbEntity
  8
0
  6
Continuous
100
AcDbLine
 10
116.8831952436151
 20
68.42806059460855
 30
0.0
 11
116.1047646740548
 21
68.82025903084721
 31
0.0
  0
LINE
  5
5C3
330
E3
100
AcDbEntity
  8
0
  6
Continuous
100
AcDbLine
 10
117.6497343284767
 20
68.06006381569121
 30
0.0
 11
116.8831952436151
 21
68.42806059460855
 31
0.0
  0
LINE
  5
5C4
330
E3
100
AcDbEntity
  8
0
  6
Continuous
100
AcDbLine
 10
118.3985427274138
 20
67.72746111949218
 30
0.0
 11
117.6497343284767
 21
68.06006381569121
 31
0.0
  0
LINE
  5
5C5
330
E3
100
AcDbEntity
  8
0
  6
Continuous
100
AcDbLine
 10
119.1239270323171
 20
67.44034961389296
 30
0.0
 11
118.3985427274138
 21
67.72746111949218
 31
0.0
  0
LINE
  5
5C6
330
E3
100
AcDbEntity
  8
0
  6
Continuous
100
AcDbLine
 10
119.8203620579037
 20
67.20745819445196
 30
0.0
 11
119.1239270323171
 21
67.44034961389296
 31
0.0
  0
LINE
  5
5C7
330
E3
100
AcDbEntity
  8
0
  6
Continuous
100
AcDbLine
 10
120.4825506542779
 20
67.03585969645682
 30
0.0
 11
119.8203620579037
 21
67.20745819445196
 31
0.0
  0
LINE
  5
5C8
330
E3
100
AcDbEntity
  8
0
  6
Continuous
100
AcDbLine
 10
121.1054498749266
 20
66.93076902753236
 30
0.0
 11
120.4825506542779
 21
67.03585969645682
 31
0.0
  0
LINE
  5
5C9
330
E3
100
AcDbEntity
  8
0
  6
Continuous
100
AcDbLine
 10
121.6843233127095
 20
66.8953786830991
 30
0.0
 11
121.1054498749266
 21
66.93076902753236
 31
0.0
  0
LINE
  5
5CA
330
E3
100
AcDbEntity
  8
0
  6
Continuous
100
AcDbLine
 10
122.2147635295695
 20
66.93076902753236
 30
0.0
 11
121.6843233127095
 21
66.8953786830991
 31
0.0
  0
LINE
  5
5CB
330
E3
100
AcDbEntity
  8
0
  6
Continuous
100
AcDbLine
 10
122.692733177668
 20
67.03585969645682
 30
0.0
 11
122.2147635295695
 21
66.93076902753236
 31
0.0
  0
LINE
  5
5CC
330
E3
100
AcDbEntity
  8
0
  6
Continuous
100
AcDbLine
 10
123.1145911673801
 20
67.20745819445196
 30
0.0
 11
122.692733177668
 21
67.03585969645682
 31
0.0
  0
LINE
  5
5CD
330
E3
100
AcDbEntity
  8
0
  6
Continuous
100
AcDbLine
 10
123.4771337884303
 20
67.44034961389296
 30
0.0
 11
123.1145911673801
 21
67.20745819445196
 31
0.0
  0
LINE
  5
5CE
330
E3
100
AcDbEntity
  8
0
  6
Continuous
100
AcDbLine
 10
123.7775984481771
 20
67.72746111949218
 30
0.0
 11
123.4771337884303
 21
67.44034961389296
 31
0.0
  0
LINE
  5
5CF
330
E3
100
AcDbEntity
  8
0
  6
Continuous
100
AcDbLine
 10
124.0136973161788
 20
68.06006381569121
 30
0.0
 11
123.7775984481771
 21
67.72746111949218
 31
0.0
  0
LINE
  5
5D0
330
E3
100
AcDbEntity
  8
0
  6
Continuous
100
AcDbLine
 10
124.183632277333
 20
68.42806059460855
 30
0.0
 11
124.0136973161788
 21
68.06006381569121
 31
0.0
  0
LINE
  5
5D1
330
E3
100
AcDbEntity
  8
0
  6
Continuous
100
AcDbLine
 10
124.2861136233026
 20
68.82025903084721
 30
0.0
 11
124.183632277333
 21
68.42806059460855
 31
0.0
  0
LINE
  5
5D2
330
E3
100
AcDbEntity
  8
0
  6
Continuous
100
AcDbLine
 10
124.3203637907999
 20
69.22475268656838
 30
0.0
 11
124.2861136233026
 21
68.82025903084721
 31
0.0
  0
LINE
  5
5D3
330
E3
100
AcDbEntity
  8
0
  6
Continuous
100
AcDbLine
 10
124.2861136233026
 20
69.62924260400452
 30
0.0
 11
124.3203637907999
 21
69.22475268656838
 31
0.0
  0
LINE
  5
5D4
330
E3
100
AcDbEntity
  8
0
  6
Continuous
100
AcDbLine
 10
124.183632277333
 20
70.0214447785282
 30
0.0
 11
124.2861136233026
 21
69.62924260400452
 31
0.0
  0
LINE
  5
5D5
330
E3
100
AcDbEntity
  8
0
  6
Continuous
100
AcDbLine
 10
124.0136973161788
 20
70.3894378191605
 30
0.0
 11
124.183632277333
 21
70.0214447785282
 31
0.0
  0
LINE
  5
5D6
330
E3
100
AcDbEntity
  8
0
  6
Continuous
100
AcDbLine
 10
123.7775984481771
 20
70.72204425364457
 30
0.0
 11
124.0136973161788
 21
70.3894378191605
 31
0.0
  0
LINE
  5
5D7
330
E3
100
AcDbEntity
  8
0
  6
Continuous
100
AcDbLine
 10
123.4771337884303
 20
71.00915202095877
 30
0.0
 11
123.7775984481771
 21
70.72204425364457
 31
0.0
  0
LINE
  5
5D8
330
E3
100
AcDbEntity
  8
0
  6
Continuous
100
AcDbLine
 10
123.1145911673801
 20
71.24204717868479
 30
0.0
 11
123.4771337884303
 21
71.00915202095877
 31
0.0
  0
LINE
  5
5D9
330
E3
100
AcDbEntity
  8
0
  6
Continuous
100
AcDbLine
 10
122.692733177668
 20
71.41364567667993
 30
0.0
 11
123.1145911673801
 21
71.24204717868479
 31
0.0
  0
LINE
  5
5DA
330
E3
100
AcDbEntity
  8
0
  6
Continuous
100
AcDbLine
 10
122.2147635295695
 20
71.51873260731936
 30
0.0
 11
122.692733177668
 21
71.41364567667993
 31
0.0
  0
LINE
  5
5DB
330
E3
100
AcDbEntity
  8
0
  6
Continuous
100
AcDbLine
 10
121.6843233127095
 20
71.55412295175263
 30
0.0
 11
122.2147635295695
 21
71.51873260731936
 31
0.0
  0
LINE
  5
5DC
330
E3
100
AcDbEntity
  8
0
  6
Continuous
100
AcDbLine
 10
121.1054498749266
 20
71.51873260731936
 30
0.0
 11
121.6843233127095
 21
71.55412295175263
 31
0.0
  0
LINE
  5
5DD
330
E3
100
AcDbEntity
  8
0
  6
Continuous
100
AcDbLine
 10
120.4825506542779
 20
71.41364567667993
 30
0.0
 11
121.1054498749266
 21
71.51873260731936
 31
0.0
  0
LINE
  5
5DE
330
E3
100
AcDbEntity
  8
0
  6
Continuous
100
AcDbLine
 10
119.8203620579037
 20
71.24204717868479
 30
0.0
 11
120.4825506542779
 21
71.41364567667993
 31
0.0
  0
LINE
  5
5DF
330
E3
100
AcDbEntity
  8
0
  6
Continuous
100
AcDbLine
 10
119.1239270323171
 20
71.00915202095877
 30
0.0
 11
119.8203620579037
 21
71.24204717868479
 31
0.0
  0
LINE
  5
5E0
330
E3
100
AcDbEntity
  8
0
  6
Continuous
100
AcDbLine
 10
118.3985427274138
 20
70.72204425364457
 30
0.0
 11
119.1239270323171
 21
71.00915202095877
 31
0.0
  0
LINE
  5
5E1
330
E3
100
AcDbEntity
  8
0
  6
Continuous
100
AcDbLine
 10
117.6497343284767
 20
70.3894378191605
 30
0.0
 11
118.3985427274138
 21
70.72204425364457
 31
0.0
  0
LINE
  5
5E2
330
E3
100
AcDbEntity
  8
0
  6
Continuous
100
AcDbLine
 10
116.8831952436151
 20
70.0214447785282
 30
0.0
 11
117.6497343284767
 21
70.3894378191605
 31
0.0
  0
LINE
  5
5E3
330
E3
100
AcDbEntity
  8
0
  6
Continuous
100
AcDbLine
 10
116.1047646740548
 20
69.62924260400452
 30
0.0
 11
116.8831952436151
 21
70.0214447785282
 31
0.0
  0
LINE
  5
5E4
330
E3
100
AcDbEntity
  8
0
  6
Continuous
100
AcDbLine
 10
115.3203640632924
 20
69.22475268656838
 30
0.0
 11
116.1047646740548
 21
69.62924260400452
 31
0.0
  0
LINE
  5
5E5
330
E3
100
AcDbEntity
  8
0
  6
Continuous
100
AcDbLine
 10
105.3203618738719
 20
69.22475268656838
 30
0.0
 11
105.3584176155356
 21
68.77531736814765
 31
0.0
  0
LINE
  5
5E6
330
E3
100
AcDbEntity
  8
0
  6
Continuous
100
AcDbLine
 10
105.3584176155356
 20
68.77531736814765
 30
0.0
 11
105.472285777724
 21
68.33953800496245
 31
0.0
  0
LINE
  5
5E7
330
E3
100
AcDbEntity
  8
0
  6
Continuous
100
AcDbLine
 10
105.472285777724
 20
68.33953800496245
 30
0.0
 11
105.6611065548787
 21
67.93065560260933
 31
0.0
  0
LINE
  5
5E8
330
E3
100
AcDbEntity
  8
0
  6
Continuous
100
AcDbLine
 10
105.6611065548787
 20
67.93065560260933
 30
0.0
 11
105.9234369689761
 21
67.56109622054707
 31
0.0
  0
LINE
  5
5E9
330
E3
100
AcDbEntity
  8
0
  6
Continuous
100
AcDbLine
 10
105.9234369689761
 20
67.56109622054707
 30
0.0
 11
106.257284514092
 21
67.24208219045292
 31
0.0
  0
LINE
  5
5EA
330
E3
100
AcDbEntity
  8
0
  6
Continuous
100
AcDbLine
 10
106.257284514092
 20
67.24208219045292
 30
0.0
 11
106.6601108946873
 21
66.98331436199459
 31
0.0
  0
LINE
  5
5EB
330
E3
100
AcDbEntity
  8
0
  6
Continuous
100
AcDbLine
 10
106.6601108946873
 20
66.98331436199459
 30
0.0
 11
107.1288432404624
 21
66.79264687203218
 31
0.0
  0
LINE
  5
5EC
330
E3
100
AcDbEntity
  8
0
  6
Continuous
100
AcDbLine
 10
107.1288432404624
 20
66.79264687203218
 30
0.0
 11
107.6599189657785
 21
66.67588153894114
 31
0.0
  0
LINE
  5
5ED
330
E3
100
AcDbEntity
  8
0
  6
Continuous
100
AcDbLine
 10
107.6599189657785
 20
66.67588153894114
 30
0.0
 11
108.2492969845118
 21
66.63656225693532
 31
0.0
  0
LINE
  5
5EE
330
E3
100
AcDbEntity
  8
0
  6
Continuous
100
AcDbLine
 10
108.2492969845118
 20
66.63656225693532
 30
0.0
 11
108.8924876163344
 21
66.67588153894114
 31
0.0
  0
LINE
  5
5EF
330
E3
100
AcDbEntity
  8
0
  6
Continuous
100
AcDbLine
 10
108.8924876163344
 20
66.67588153894114
 30
0.0
 11
109.5845974461347
 21
66.79264687203218
 31
0.0
  0
LINE
  5
5F0
330
E3
100
AcDbEntity
  8
0
  6
Continuous
100
AcDbLine
 10
109.5845974461347
 20
66.79264687203218
 30
0.0
 11
110.3203629685822
 21
66.98331436199459
 31
0.0
  0
LINE
  5
5F1
330
E3
100
AcDbEntity
  8
0
  6
Continuous
100
AcDbLine
 10
110.3203629685822
 20
66.98331436199459
 30
0.0
 11
111.0941804944083
 21
67.24208219045292
 31
0.0
  0
LINE
  5
5F2
330
E3
100
AcDbEntity
  8
0
  6
Continuous
100
AcDbLine
 10
111.0941804944083
 20
67.24208219045292
 30
0.0
 11
111.900162224682
 21
67.56109622054707
 31
0.0
  0
LINE
  5
5F3
330
E3
100
AcDbEntity
  8
0
  6
Continuous
100
AcDbLine
 10
111.900162224682
 20
67.56109622054707
 30
0.0
 11
112.7321736336594
 21
67.93065560260933
 31
0.0
  0
LINE
  5
5F4
330
E3
100
AcDbEntity
  8
0
  6
Continuous
100
AcDbLine
 10
112.7321736336594
 20
67.93065560260933
 30
0.0
 11
113.5838820664901
 21
68.33953800496245
 31
0.0
  0
LINE
  5
5F5
330
E3
100
AcDbEntity
  8
0
  6
Continuous
100
AcDbLine
 10
113.5838820664901
 20
68.33953800496245
 30
0.0
 11
114.448805336922
 21
68.77531736814765
 31
0.0
  0
LINE
  5
5F6
330
E3
100
AcDbEntity
  8
0
  6
Continuous
100
AcDbLine
 10
114.448805336922
 20
68.77531736814765
 30
0.0
 11
115.3203640632924
 21
69.22475268656838
 31
0.0
  0
LINE
  5
5F7
330
E3
100
AcDbEntity
  8
0
  6
Continuous
100
AcDbLine
 10
115.3203640632924
 20
69.22475268656838
 30
0.0
 11
116.1919190513778
 21
69.67418426670407
 31
0.0
  0
LINE
  5
5F8
330
E3
100
AcDbEntity
  8
0
  6
Continuous
100
AcDbLine
 10
116.1919190513778
 20
69.67418426670407
 30
0.0
 11
117.0568460600948
 21
70.10996362988928
 31
0.0
  0
LINE
  5
5F9
330
E3
100
AcDbEntity
  8
0
  6
Continuous
100
AcDbLine
 10
117.0568460600948
 20
70.10996362988928
 30
0.0
 11
117.9085544929255
 21
70.5188460322424
 31
0.0
  0
LINE
  5
5FA
330
E3
100
AcDbEntity
  8
0
  6
Continuous
100
AcDbLine
 10
117.9085544929255
 20
70.5188460322424
 30
0.0
 11
118.7405659019029
 21
70.8884091525897
 31
0.0
  0
LINE
  5
5FB
330
E3
100
AcDbEntity
  8
0
  6
Continuous
100
AcDbLine
 10
118.7405659019029
 20
70.8884091525897
 30
0.0
 11
119.5465438938915
 21
71.20741944439882
 31
0.0
  0
LINE
  5
5FC
330
E3
100
AcDbEntity
  8
0
  6
Continuous
100
AcDbLine
 10
119.5465438938915
 20
71.20741944439882
 30
0.0
 11
120.3203614197177
 21
71.46619101114217
 31
0.0
  0
LINE
  5
5FD
330
E3
100
AcDbEntity
  8
0
  6
Continuous
100
AcDbLine
 10
120.3203614197177
 20
71.46619101114217
 30
0.0
 11
121.0561269421652
 21
71.65685476281955
 31
0.0
  0
LINE
  5
5FE
330
E3
100
AcDbEntity
  8
0
  6
Continuous
100
AcDbLine
 10
121.0561269421652
 20
71.65685476281955
 30
0.0
 11
121.7482405102504
 21
71.7736200959106
 31
0.0
  0
LINE
  5
5FF
330
E3
100
AcDbEntity
  8
0
  6
Continuous
100
AcDbLine
 10
121.7482405102504
 20
71.7736200959106
 30
0.0
 11
122.3914311420731
 21
71.81294311620144
 31
0.0
  0
LINE
  5
600
330
E3
100
AcDbEntity
  8
0
  6
Continuous
100
AcDbLine
 10
122.3914311420731
 20
71.81294311620144
 30
0.0
 11
122.9808091608064
 21
71.7736200959106
 31
0.0
  0
LINE
  5
601
330
E3
100
AcDbEntity
  8
0
  6
Continuous
100
AcDbLine
 10
122.9808091608064
 20
71.7736200959106
 30
0.0
 11
123.5118848861224
 21
71.65685476281955
 31
0.0
  0
LINE
  5
602
330
E3
100
AcDbEntity
  8
0
  6
Continuous
100
AcDbLine
 10
123.5118848861224
 20
71.65685476281955
 30
0.0
 11
123.9806172318976
 21
71.46619101114217
 31
0.0
  0
LINE
  5
603
330
E3
100
AcDbEntity
  8
0
  6
Continuous
100
AcDbLine
 10
123.9806172318976
 20
71.46619101114217
 30
0.0
 11
124.3834398742078
 21
71.20741944439882
 31
0.0
  0
LINE
  5
604
330
E3
100
AcDbEntity
  8
0
  6
Continuous
100
AcDbLine
 10
124.3834398742078
 20
71.20741944439882
 30
0.0
 11
124.7172911576088
 21
70.8884091525897
 31
0.0
  0
LINE
  5
605
330
E3
100
AcDbEntity
  8
0
  6
Continuous
100
AcDbLine
 10
124.7172911576088
 20
70.8884091525897
 30
0.0
 11
124.9796215717061
 21
70.5188460322424
 31
0.0
  0
LINE
  5
606
330
E3
100
AcDbEntity
  8
0
  6
Continuous
100
AcDbLine
 10
124.9796215717061
 20
70.5188460322424
 30
0.0
 11
125.1684423488609
 21
70.10996362988928
 31
0.0
  0
LINE
  5
607
330
E3
100
AcDbEntity
  8
0
  6
Continuous
100
AcDbLine
 10
125.1684423488609
 20
70.10996362988928
 30
0.0
 11
125.2823105110493
 21
69.67418426670407
 31
0.0
  0
LINE
  5
608
330
E3
100
AcDbEntity
  8
0
  6
Continuous
100
AcDbLine
 10
125.2823105110493
 20
69.67418426670407
 30
0.0
 11
125.320362514428
 21
69.22475268656838
 31
0.0
  0
HATCH
  5
609
330
E3
100
AcDbEntity
  8
0
  6
Continuous
 62
   255
370
     0
100
AcDbHatch
 10
0.0
 20
0.0
 30
0.0
210
0.0
220
0.0
230
1.0
  2
SOLID
 70
     1
 71
     0
 91
        1
 92
        3
 72
     0
 73
     1
 93
        8
 10
141.28120078914
 20
125.7658680070877
 10
146.0758362259903
 20
98.57413922238338
 10
152.3073671295462
 20
97.2610622183671
 10
140.5388980331021
 20
95.94798521435081
 10
146.770428936658
 20
94.63490821033453
 10
151.5650643735084
 20
67.44317942563023
 10
158.0123666566892
 20
67.44317942563023
 10
147.7285030723207
 20
125.7658680070877
 97
        0
 75
     0
 76
     1
 98
        0
  0
LINE
  5
60A
330
E3
100
AcDbEntity
  8
0
  6
Continuous
100
AcDbLine
 10
141.2812022481525
 20
125.7658689960764
 30
0.0
 11
146.0758369161399
 21
98.57414065064144
 31
0.0
  0
LINE
  5
60B
330
E3
100
AcDbEntity
  8
0
  6
Continuous
100
AcDbLine
 10
146.7704289672039
 20
94.63490784110003
 30
0.0
 11
151.5650636351913
 21
67.443179495665
 31
0.0
  0
LINE
  5
60C
330
E3
100
AcDbEntity
  8
0
  6
Continuous
100
AcDbLine
 10
146.7704289672039
 20
94.63490784110003
 30
0.0
 11
140.5388984651776
 21
95.94798419818548
 31
0.0
  0
LINE
  5
60D
330
E3
100
AcDbEntity
  8
0
  6
Continuous
100
AcDbLine
 10
140.5388984651776
 20
95.94798419818548
 30
0.0
 11
152.3073674181663
 21
97.26106055527094
 31
0.0
  0
LINE
  5
60E
330
E3
100
AcDbEntity
  8
0
  6
Continuous
100
AcDbLine
 10
152.3073674181663
 20
97.26106055527094
 30
0.0
 11
146.0758369161399
 21
98.57414065064144
 31
0.0
  0
LINE
  5
60F
330
E3
100
AcDbEntity
  8
0
  6
Continuous
100
AcDbLine
 10
105.3203618738719
 20
150.6818565134498
 30
0.0
 11
105.3203618738719
 21
69.22475268656838
 31
0.0
  0
LINE
  5
610
330
E3
100
AcDbEntity
  8
0
  6
Continuous
100
AcDbLine
 10
125.320362514428
 20
150.6818565134498
 30
0.0
 11
125.320362514428
 21
69.22475268656838
 31
0.0
  0
LINE
  5
611
330
E3
100
AcDbEntity
  8
0
  6
Dashed
100
AcDbLine
 10
181.8047129656685
 20
126.5552751705016
 30
0.0
 11
184.4713849513417
 21
127.0254804005809
 31
0.0
  0
MTEXT
  5
613
330
E3
100
AcDbEntity
  8
Doc_ Floor
  6
Continuous
100
AcDbMText
 10
178.8671380140328
 20
149.8255792909582
 30
0.0
 40
2.5
 41
37.16984108392926
 71
     4
 72
     1
  1
\A1;{\fCentury Gothic|b0|i0|c0|p34;TRS 6\PMIN. ROOF PITCH 4\fArial|b0|i0|c0|p34;\H1.029412x;\U+00B0}
  7
GENERATED_STYLE_1
 73
     1
 44
1.056356172275314
  0
LINE
  5
614
330
E3
100
AcDbEntity
  8
Doc_ Floor
  6
Continuous
100
AcDbLine
 10
164.7285970126691
 20
121.0279029909457
 30
0.0
 11
164.3762972926168
 21
124.8755104342614
 31
0.0
  0
LINE
  5
615
330
E3
100
AcDbEntity
  8
Doc_ Floor
  6
Continuous
100
AcDbLine
 10
164.7285970126691
 20
121.0279029909457
 30
0.0
 11
166.3473006011357
 21
124.536178824998
 31
0.0
  0
LINE
  5
616
330
E3
100
AcDbEntity
  8
Doc_ Floor
  6
Continuous
100
AcDbLine
 10
164.3762972926168
 20
124.8755104342614
 30
0.0
 11
166.3473006011357
 21
124.536178824998
 31
0.0
  0
LWPOLYLINE
  5
617
330
E3
100
AcDbEntity
  8
Doc_ Floor
  6
Continuous
100
AcDbPolyline
 90
       14
 70
   128
 43
0.0
 10
165.3617972137537
 20
124.7058441957207
 10
166.6206378643984
 20
131.1721270371639
 10
167.9022886561189
 20
136.5480281032848
 10
169.2388197968615
 20
140.9038863176507
 10
169.9376874380993
 20
142.7212802690404
 10
170.6623014945727
 20
144.3100406038292
 10
171.4166707422748
 20
145.6789596874629
 10
172.2048039571989
 20
146.8368298853875
 10
173.0307099153385
 20
147.792443563049
 10
173.8983973926867
 20
148.5545930858934
 10
174.811875165237
 20
149.1320708193664
 10
175.7751520089826
 20
149.533669128914
 10
176.7922366999167
 20
149.7681803799823
 10
177.8671380140328
 20
149.844396938017
  0
MTEXT
  5
618
330
E3
100
AcDbEntity
  8
Doc_ Floor
  6
Continuous
100
AcDbMText
 10
133.1378905173744
 20
169.2012217500074
 30
0.0
 40
2.5
 41
0.0
 71
     4
 72
     1
  1
{PIPE PENETRATION}
  7
GENERATED_STYLE_1
 73
     1
 44
1.0
  0
LINE
  5
619
330
E3
100
AcDbEntity
  8
Doc_ Floor
  6
Continuous
100
AcDbLine
 10
118.8661947088137
 20
151.6163866512471
 30
0.0
 11
118.9676031669779
 21
155.4787603204539
 31
0.0
  0
LINE
  5
61A
330
E3
100
AcDbEntity
  8
Doc_ Floor
  6
Continuous
100
AcDbLine
 10
118.8661947088137
 20
151.6163866512471
 30
0.0
 11
120.8852013354765
 21
154.9105970692984
 31
0.0
  0
LINE
  5
61B
330
E3
100
AcDbEntity
  8
Doc_ Floor
  6
Continuous
100
AcDbLine
 10
118.9676031669779
 20
155.4787603204539
 30
0.0
 11
120.8852013354765
 21
154.9105970692984
 31
0.0
  0
LWPOLYLINE
  5
61C
330
E3
100
AcDbEntity
  8
Doc_ Floor
  6
Continuous
100
AcDbPolyline
 90
       12
 70
   128
 43
0.0
 10
119.9264027344981
 20
155.194677314375
 10
121.1656092169787
 20
158.7925550149367
 10
122.4295167331018
 20
161.7872833192084
 10
123.7468075503862
 20
164.2169064506812
 10
125.1461639363502
 20
166.1194686328458
 10
125.8855799261867
 20
166.8849906877785
 10
126.6562681585125
 20
167.5330140891934
 10
127.4618139167675
 20
168.0682943650266
 10
128.3058024843916
 20
168.4955870432147
 10
129.1918191448245
 20
168.819647651694
 10
130.123449181506
 20
169.0452317184008
 10
132.1378905173744
 20
169.2199923382426
  0
MTEXT
  5
61D
330
E3
100
AcDbEntity
  8
Doc_ Floor
  6
Continuous
100
AcDbMText
 10
143.5855990277058
 20
161.7638025678286
 30
0.0
 40
2.5
 41
0.0
 71
     4
 72
     1
  1
{EPDM FLEXIBLE CONE SLEEVE}
  7
GENERATED_STYLE_1
 73
     1
 44
1.0
  0
LINE
  5
61E
330
E3
100
AcDbEntity
  8
Doc_ Floor
  6
Continuous
100
AcDbLine
 10
130.7262703366029
 20
130.8204826968737
 30
0.0
 11
130.1725181742601
 21
134.6442959559369
 31
0.0
  0
LINE
  5
61F
330
E3
100
AcDbEntity
  8
Doc_ Floor
  6
Continuous
100
AcDbLine
 10
130.7262703366029
 20
130.8204826968737
 30
0.0
 11
132.1586129394684
 21
134.4088811940968
 31
0.0
  0
LINE
  5
620
330
E3
100
AcDbEntity
  8
Doc_ Floor
  6
Continuous
100
AcDbLine
 10
130.1725181742601
 20
134.6442959559369
 30
0.0
 11
132.1586129394684
 21
134.4088811940968
 31
0.0
  0
LWPOLYLINE
  5
621
330
E3
100
AcDbEntity
  8
Doc_ Floor
  6
Continuous
100
AcDbPolyline
 90
       14
 70
   128
 43
0.0
 10
131.1655645708317
 20
134.5265883517005
 10
132.1395850853193
 20
141.539448508558
 10
133.184570272296
 20
147.3690651264688
 10
134.3298211944633
 20
152.0919368240046
 10
134.9492028883376
 20
154.0622491459355
 10
135.6046389145225
 20
155.7845622197369
 10
136.2997919058558
 20
157.2684383727304
 10
137.038324495175
 20
158.5234399322374
 10
137.8238993153179
 20
159.5591292255793
 10
138.6601789991221
 20
160.3850685800776
 10
139.5508261794254
 20
161.0108203230538
 10
140.4995034890653
 20
161.4459467818293
 10
141.5098735608796
 20
161.7000102837255
 10
142.5855990277058
 20
161.7825731560639
  0
ENDBLK
  5
E5
330
E3
100
AcDbEntity
  8
0
100
AcDbBlockEnd
  0
BLOCK
  5
627
330
626
100
AcDbEntity
  8
0
100
AcDbBlockBegin
  2
R-TRS6-15 PIPE PENETRATION DETA_STORY_MARKER
 70
     0
 10
0.0
 20
0.0
 30
0.0
  3
R-TRS6-15 PIPE PENETRATION DETA_STORY_MARKER
  1

  0
ENDBLK
  5
628
330
626
100
AcDbEntity
  8
0
100
AcDbBlockEnd
  0
ENDSEC
  0
SECTION
  2
ENTITIES
  0
HATCH
  5
3F
330
1F
100
AcDbEntity
  8
Doc_ Finishes
  6
Continuous
100
AcDbHatch
 10
0.0
 20
0.0
 30
0.0
210
0.0
220
0.0
230
1.0
  2
SOLID
 70
     1
 71
     0
 91
        1
 92
        3
 72
     0
 73
     1
 93
       54
 10
27.4117749414874
 20
16.87044408857867
 10
26.89356552397386
 20
16.5825499677378
 10
26.5480925789648
 20
16.29465584689693
 10
26.12584786839819
 20
16.02595466744544
 10
25.76118198199976
 20
15.60370995687884
 10
25.39651609560134
 20
15.33500877742737
 10
25.07023609198168
 20
14.89357112547136
 10
24.49444785029994
 20
14.45213347351537
 10
23.93785255000758
 20
14.02988876294876
 10
23.43883607388344
 20
13.81876640766546
 10
22.74789018386533
 20
13.39652169709885
 10
22.09533017662603
 20
12.99346992792163
 10
21.63469958328064
 20
12.55203227596564
 10
20.90536781048376
 20
12.12978756539902
 10
20.59828074825351
 20
11.7459287376112
 10
20.04168544796116
 20
11.28529814426581
 10
19.36993249933246
 20
10.8630534336992
 10
18.73656543348255
 20
10.42161578174319
 10
18.04561954346447
 20
10.15291460229172
 10
17.1051654153843
 20
9.692284008946325
 10
16.39502658397681
 20
9.020531060317637
 10
15.83843128368446
 20
8.598286349751023
 10
15.12829245227699
 20
8.137655756405634
 10
14.84039833143612
 20
7.98411222529051
 10
14.37976773809073
 20
7.81137575278599
 10
14.07268067586046
 20
7.523481631945121
 10
14.0151018516923
 20
7.216394569714853
 10
14.14945244141803
 20
6.890114566095209
 10
14.4373465622589
 20
6.563834562475543
 10
14.8787842142149
 20
6.659799269422514
 10
15.51215128006482
 20
7.06285103859973
 10
16.01116775618899
 20
7.389131042219374
 10
16.33744775980864
 20
7.696218104449641
 10
16.51018423231316
 20
7.907340459732938
 10
17.01303929671522
 20
8.421711288968723
 10
17.33548071205699
 20
8.652026585641417
 10
17.75004824606785
 20
8.99749953065046
 10
18.14158425041142
 20
9.204783297655894
 10
19.24709767444037
 20
9.75754000967037
 10
20.23745345013295
 20
10.47151742935572
 10
21.4120614631637
 20
11.1624633193738
 10
21.84966052684182
 20
11.64612544238645
 10
22.49454335752537
 20
12.06069297639732
 10
23.78430901889248
 20
12.9819541630881
 10
24.3600972605742
 20
13.25833251909534
 10
25.6498629219413
 20
14.24868829478776
 10
25.85714668894673
 20
14.64022429913134
 10
26.68628175696843
 20
15.23904407048036
 10
27.28510152831745
 20
15.72270619349301
 10
27.81482671066464
 20
16.1142421978366
 10
28.27545730401003
 20
16.52880973184745
 10
28.22939424467549
 20
16.7821565581874
 10
28.09120506667188
 20
16.89731420652375
 10
27.56147988432467
 20
16.89731420652375
 97
        0
 75
     0
 76
     1
 98
        0
  0
LINE
  5
41
330
1F
100
AcDbEntity
  8
Doc_ Finishes
  6
Continuous
100
AcDbLine
 10
27.41177566876475
 20
16.87044600708104
 30
0.0
 11
26.89356756490952
 21
16.58254868214004
 31
0.0
  0
LINE
  5
42
330
1F
100
AcDbEntity
  8
Doc_ Finishes
  6
Continuous
100
AcDbLine
 10
26.89356756490952
 20
16.58254868214004
 30
0.0
 11
26.54809254523997
 21
16.29465578284815
 31
0.0
  0
LINE
  5
43
330
1F
100
AcDbEntity
  8
Doc_ Finishes
  6
Continuous
100
AcDbLine
 10
26.54809254523997
 20
16.29465578284815
 30
0.0
 11
26.12584579071597
 21
16.02595249803305
 31
0.0
  0
LINE
  5
44
330
1F
100
AcDbEntity
  8
Doc_ Finishes
  6
Continuous
100
AcDbLine
 10
26.12584579071597
 20
16.02595249803305
 30
0.0
 11
25.76118115656963
 21
15.60371016915814
 31
0.0
  0
LINE
  5
45
330
1F
100
AcDbEntity
  8
Doc_ Finishes
  6
Continuous
100
AcDbLine
 10
25.76118115656963
 20
15.60371016915814
 30
0.0
 11
25.39651652242329
 21
15.33500688434304
 31
0.0
  0
LINE
  5
46
330
1F
100
AcDbEntity
  8
Doc_ Finishes
  6
Continuous
100
AcDbLine
 10
25.39651652242329
 20
15.33500688434304
 30
0.0
 11
25.07023554287962
 21
14.89357051534225
 31
0.0
  0
LINE
  5
47
330
1F
100
AcDbEntity
  8
Doc_ Finishes
  6
Continuous
100
AcDbLine
 10
25.07023554287962
 20
14.89357051534225
 30
0.0
 11
24.49444974429583
 21
14.45213414634146
 31
0.0
  0
LINE
  5
48
330
1F
100
AcDbEntity
  8
Doc_ Finishes
  6
Continuous
100
AcDbLine
 10
24.49444974429583
 20
14.45213414634146
 30
0.0
 11
23.93785356018882
 21
14.02988739181747
 31
0.0
  0
LINE
  5
49
330
1F
100
AcDbEntity
  8
Doc_ Finishes
  6
Continuous
100
AcDbLine
 10
23.93785356018882
 20
14.02988739181747
 30
0.0
 11
23.43883507081038
 21
13.81876622738001
 31
0.0
  0
LINE
  5
4A
330
1F
100
AcDbEntity
  8
Doc_ Finishes
  6
Continuous
100
AcDbLine
 10
23.43883507081038
 20
13.81876622738001
 30
0.0
 11
22.74788945712038
 21
13.39652389850511
 31
0.0
  0
LINE
  5
4B
330
1F
100
AcDbEntity
  8
Doc_ Finishes
  6
Continuous
100
AcDbLine
 10
22.74788945712038
 20
13.39652389850511
 30
0.0
 11
22.09533192368214
 21
12.993471184107
 31
0.0
  0
LINE
  5
4C
330
1F
100
AcDbEntity
  8
Doc_ Finishes
  6
Continuous
100
AcDbLine
 10
22.09533192368214
 20
12.993471184107
 30
0.0
 11
21.63470151455547
 21
12.55203038945712
 31
0.0
  0
LINE
  5
4D
330
1F
100
AcDbEntity
  8
Doc_ Finishes
  6
Continuous
100
AcDbLine
 10
21.63470151455547
 20
12.55203038945712
 30
0.0
 11
20.90536782061369
 21
12.12978806058222
 31
0.0
  0
LINE
  5
4E
330
1F
100
AcDbEntity
  8
Doc_ Finishes
  6
Continuous
100
AcDbLine
 10
20.90536782061369
 20
12.12978806058222
 30
0.0
 11
20.59828088119591
 21
11.74592938630999
 31
0.0
  0
LINE
  5
4F
330
1F
100
AcDbEntity
  8
Doc_ Finishes
  6
Continuous
100
AcDbLine
 10
20.59828088119591
 20
11.74592938630999
 30
0.0
 11
20.0416846970889
 21
11.28529897718332
 31
0.0
  0
LINE
  5
50
330
1F
100
AcDbEntity
  8
Doc_ Finishes
  6
Continuous
100
AcDbLine
 10
20.0416846970889
 20
11.28529897718332
 30
0.0
 11
19.36993312352478
 21
10.86305222265932
 31
0.0
  0
LINE
  5
51
330
1F
100
AcDbEntity
  8
Doc_ Finishes
  6
Continuous
100
AcDbLine
 10
19.36993312352478
 20
10.86305222265932
 30
0.0
 11
18.73656520456333
 21
10.42161585365854
 31
0.0
  0
LINE
  5
52
330
1F
100
AcDbEntity
  8
Doc_ Finishes
  6
Continuous
100
AcDbLine
 10
18.73656520456333
 20
10.42161585365854
 30
0.0
 11
18.04561959087333
 21
10.15291256884343
 31
0.0
  0
LINE
  5
53
330
1F
100
AcDbEntity
  8
Doc_ Finishes
  6
Continuous
100
AcDbLine
 10
18.04561959087333
 20
10.15291256884343
 30
0.0
 11
17.1051647324941
 21
9.692282159716758
 31
0.0
  0
LINE
  5
54
330
1F
100
AcDbEntity
  8
Doc_ Finishes
  6
Continuous
100
AcDbLine
 10
17.1051647324941
 20
9.692282159716758
 30
0.0
 11
16.3950250786782
 21
9.020530586152635
 31
0.0
  0
LINE
  5
55
330
1F
100
AcDbEntity
  8
Doc_ Finishes
  6
Continuous
100
AcDbLine
 10
16.3950250786782
 20
9.020530586152635
 30
0.0
 11
15.8384333202203
 21
8.598288257277733
 31
0.0
  0
LINE
  5
56
330
1F
100
AcDbEntity
  8
Doc_ Finishes
  6
Continuous
100
AcDbLine
 10
15.8384333202203
 20
8.598288257277733
 30
0.0
 11
15.1282936664044
 21
8.137657848151063
 31
0.0
  0
LINE
  5
57
330
1F
100
AcDbEntity
  8
Doc_ Finishes
  6
Continuous
100
AcDbLine
 10
15.1282936664044
 20
8.137657848151063
 30
0.0
 11
14.84039634146341
 21
7.984114378442171
 31
0.0
  0
LINE
  5
58
330
1F
100
AcDbEntity
  8
Doc_ Finishes
  6
Continuous
100
AcDbLine
 10
14.84039634146341
 20
7.984114378442171
 30
0.0
 11
14.37976593233674
 21
7.811376868607396
 31
0.0
  0
LINE
  5
59
330
1F
100
AcDbEntity
  8
Doc_ Finishes
  6
Continuous
100
AcDbLine
 10
14.37976593233674
 20
7.811376868607396
 30
0.0
 11
14.07267899291896
 21
7.523479543666405
 31
0.0
  0
LINE
  5
5A
330
1F
100
AcDbEntity
  8
Doc_ Finishes
  6
Continuous
100
AcDbLine
 10
14.07267899291896
 20
7.523479543666405
 30
0.0
 11
14.0151012981904
 21
7.216392604248622
 31
0.0
  0
LINE
  5
5B
330
1F
100
AcDbEntity
  8
Doc_ Finishes
  6
Continuous
100
AcDbLine
 10
14.0151012981904
 20
7.216392604248622
 30
0.0
 11
14.14945072777341
 21
6.890116050354051
 31
0.0
  0
LINE
  5
5C
330
1F
100
AcDbEntity
  8
Doc_ Finishes
  6
Continuous
100
AcDbLine
 10
14.14945072777341
 20
6.890116050354051
 30
0.0
 11
14.4373480527144
 21
6.563835070810386
 31
0.0
  0
LINE
  5
5D
330
1F
100
AcDbEntity
  8
Doc_ Finishes
  6
Continuous
100
AcDbLine
 10
14.4373480527144
 20
6.563835070810386
 30
0.0
 11
14.87878442171519
 21
6.659800845790715
 31
0.0
  0
LINE
  5
5E
330
1F
100
AcDbEntity
  8
Doc_ Finishes
  6
Continuous
100
AcDbLine
 10
14.87878442171519
 20
6.659800845790715
 30
0.0
 11
15.51215234067663
 21
7.062849134539732
 31
0.0
  0
LINE
  5
5F
330
1F
100
AcDbEntity
  8
Doc_ Finishes
  6
Continuous
100
AcDbLine
 10
15.51215234067663
 20
7.062849134539732
 30
0.0
 11
16.01116640440598
 21
7.389130114083398
 31
0.0
  0
LINE
  5
60
330
1F
100
AcDbEntity
  8
Doc_ Finishes
  6
Continuous
100
AcDbLine
 10
16.01116640440598
 20
7.389130114083398
 30
0.0
 11
16.33744738394964
 21
7.69621705350118
 31
0.0
  0
LINE
  5
61
330
1F
100
AcDbEntity
  8
Doc_ Finishes
  6
Continuous
100
AcDbLine
 10
16.33744738394964
 20
7.69621705350118
 30
0.0
 11
16.51018489378442
 21
7.907342643587726
 31
0.0
  0
LINE
  5
62
330
1F
100
AcDbEntity
  8
Doc_ Finishes
  6
Continuous
100
AcDbLine
 10
16.51018489378442
 20
7.907342643587726
 30
0.0
 11
17.0130404209284
 21
8.421709284028323
 31
0.0
  0
LINE
  5
63
330
1F
100
AcDbEntity
  8
Doc_ Finishes
  6
Continuous
100
AcDbLine
 10
17.0130404209284
 20
8.421709284028323
 30
0.0
 11
17.33547993705743
 21
8.65202448859166
 31
0.0
  0
LINE
  5
64
330
1F
100
AcDbEntity
  8
Doc_ Finishes
  6
Continuous
100
AcDbLine
 10
17.33547993705743
 20
8.65202448859166
 30
0.0
 11
17.75004819040126
 21
8.997499508261212
 31
0.0
  0
LINE
  5
65
330
1F
100
AcDbEntity
  8
Doc_ Finishes
  6
Continuous
100
AcDbLine
 10
17.75004819040126
 20
8.997499508261212
 30
0.0
 11
18.14158536585366
 21
9.204783634933122
 31
0.0
  0
LINE
  5
66
330
1F
100
AcDbEntity
  8
Doc_ Finishes
  6
Continuous
100
AcDbLine
 10
18.14158536585366
 20
9.204783634933122
 30
0.0
 11
19.24709923288749
 21
9.75753835562549
 31
0.0
  0
LINE
  5
67
330
1F
100
AcDbEntity
  8
Doc_ Finishes
  6
Continuous
100
AcDbLine
 10
19.24709923288749
 20
9.75753835562549
 30
0.0
 11
20.23745328481511
 21
10.47151947285602
 31
0.0
  0
LINE
  5
68
330
1F
100
AcDbEntity
  8
Doc_ Finishes
  6
Continuous
100
AcDbLine
 10
20.23745328481511
 20
10.47151947285602
 30
0.0
 11
21.41206038552321
 21
11.16246508654602
 31
0.0
  0
LINE
  5
69
330
1F
100
AcDbEntity
  8
Doc_ Finishes
  6
Continuous
100
AcDbLine
 10
21.41206038552321
 20
11.16246508654602
 30
0.0
 11
21.84965971675846
 21
11.64612657356412
 31
0.0
  0
LINE
  5
6A
330
1F
100
AcDbEntity
  8
Doc_ Finishes
  6
Continuous
100
AcDbLine
 10
21.84965971675846
 20
11.64612657356412
 30
0.0
 11
22.49454317466562
 21
12.06069482690795
 31
0.0
  0
LINE
  5
6B
330
1F
100
AcDbEntity
  8
Doc_ Finishes
  6
Continuous
100
AcDbLine
 10
22.49454317466562
 20
12.06069482690795
 30
0.0
 11
23.78431009047993
 21
12.98195564516129
 31
0.0
  0
LINE
  5
6C
330
1F
100
AcDbEntity
  8
Doc_ Finishes
  6
Continuous
100
AcDbLine
 10
23.78431009047993
 20
12.98195564516129
 30
0.0
 11
24.36009588906373
 21
13.25833300550747
 31
0.0
  0
LINE
  5
6D
330
1F
100
AcDbEntity
  8
Doc_ Finishes
  6
Continuous
100
AcDbLine
 10
24.36009588906373
 20
13.25833300550747
 30
0.0
 11
25.64986280487805
 21
14.24868705743509
 31
0.0
  0
LINE
  5
6E
330
1F
100
AcDbEntity
  8
Doc_ Finishes
  6
Continuous
100
AcDbLine
 10
25.64986280487805
 20
14.24868705743509
 30
0.0
 11
25.85714693154996
 21
14.64022423288749
 31
0.0
  0
LINE
  5
6F
330
1F
100
AcDbEntity
  8
Doc_ Finishes
  6
Continuous
100
AcDbLine
 10
25.85714693154996
 20
14.64022423288749
 30
0.0
 11
26.68628343823761
 21
15.2390455350118
 31
0.0
  0
LINE
  5
70
330
1F
100
AcDbEntity
  8
Doc_ Finishes
  6
Continuous
100
AcDbLine
 10
26.68628343823761
 20
15.2390455350118
 30
0.0
 11
27.28510031471282
 21
15.7227070220299
 31
0.0
  0
LINE
  5
71
330
1F
100
AcDbEntity
  8
Doc_ Finishes
  6
Continuous
100
AcDbLine
 10
27.28510031471282
 20
15.7227070220299
 30
0.0
 11
27.81482838316287
 21
16.1142441974823
 31
0.0
  0
LINE
  5
72
330
1F
100
AcDbEntity
  8
Doc_ Finishes
  6
Continuous
100
AcDbLine
 10
27.81482838316287
 20
16.1142441974823
 30
0.0
 11
28.27545879228953
 21
16.52880802517702
 31
0.0
  0
LINE
  5
73
330
1F
100
AcDbEntity
  8
Doc_ Finishes
  6
Continuous
100
AcDbLine
 10
28.27545879228953
 20
16.52880802517702
 30
0.0
 11
28.22939221085759
 21
16.78215873328088
 31
0.0
  0
LINE
  5
74
330
1F
100
AcDbEntity
  8
Doc_ Finishes
  6
Continuous
100
AcDbLine
 10
28.22939221085759
 20
16.78215873328088
 30
0.0
 11
28.09120574350905
 21
16.897314122738
 31
0.0
  0
LINE
  5
75
330
1F
100
AcDbEntity
  8
Doc_ Finishes
  6
Continuous
100
AcDbLine
 10
28.09120574350905
 20
16.897314122738
 30
0.0
 11
27.56147767505901
 21
16.897314122738
 31
0.0
  0
LINE
  5
76
330
1F
100
AcDbEntity
  8
Doc_ Finishes
  6
Continuous
100
AcDbLine
 10
27.56147767505901
 20
16.897314122738
 30
0.0
 11
27.41177566876475
 21
16.87044600708104
 31
0.0
  0
HATCH
  5
77
330
1F
100
AcDbEntity
  8
Doc_ Finishes
  6
Continuous
100
AcDbHatch
 10
0.0
 20
0.0
 30
0.0
210
0.0
220
0.0
230
1.0
  2
SOLID
 70
     1
 71
     0
 91
        1
 92
        3
 72
     0
 73
     1
 93
       39
 10
27.65360600299377
 20
13.12014334109181
 10
27.21600693931564
 20
12.77467039608275
 10
26.54809257896482
 20
12.24494521373555
 10
25.92624127794851
 20
11.85340920939199
 10
25.32742150659951
 20
11.32368402704478
 10
24.72860173525052
 20
11.04730567103754
 10
24.08371890456698
 20
10.56364354802488
 10
23.62308831122158
 20
10.33332825135219
 10
23.231552306878
 20
10.03391836567767
 10
22.81698477286715
 20
9.619350831666825
 10
22.40241723885631
 20
9.38903553499415
 10
21.91875511584363
 20
9.043562589985086
 10
21.66540828950367
 20
8.859310352646935
 10
21.25084075549282
 20
8.582931996639696
 10
20.09926427212933
 20
7.753796928618002
 10
19.75379132712029
 20
7.477418572610764
 10
19.2931607337749
 20
7.316197864939873
 10
19.22406614477309
 20
6.993756449598113
 10
19.3622553227767
 20
6.717378093590874
 10
19.63863367878394
 20
6.602220445254527
 10
20.00713815346026
 20
6.8325357419272
 10
20.26048497980021
 20
7.131945627601722
 10
20.55989486547472
 20
7.362260924274415
 10
21.31993534449462
 20
7.707733869283458
 10
21.84966052684182
 20
8.122301403294307
 10
22.88607936186895
 20
8.882341882314256
 10
23.20852077721072
 20
9.342972475659646
 10
24.01462431556515
 20
9.734508480003234
 10
24.5673810275796
 20
10.05694989534501
 10
25.46561068460312
 20
10.60970660735953
 10
25.88017821861399
 20
11.07033720070492
 10
26.31777728229212
 20
11.34671555671216
 10
26.70931328663569
 20
11.30065249737762
 10
27.21600693931562
 20
11.55399932371759
 10
28.0681735370046
 20
12.17585062473387
 10
28.41364648201364
 20
12.49829204007566
 10
28.39061495234636
 20
12.77467039608289
 10
28.22939424467547
 20
13.00498569275559
 10
28.04514200733732
 20
13.05104875209013
 97
        0
 75
     0
 76
     1
 98
        0
  0
LINE
  5
78
330
1F
100
AcDbEntity
  8
Doc_ Finishes
  6
Continuous
100
AcDbLine
 10
27.6536064122738
 20
13.12014211250983
 30
0.0
 11
27.21600708103855
 21
12.77467151848938
 31
0.0
  0
LINE
  5
79
330
1F
100
AcDbEntity
  8
Doc_ Finishes
  6
Continuous
100
AcDbLine
 10
27.21600708103855
 20
12.77467151848938
 30
0.0
 11
26.54809254523997
 21
12.24494345003934
 31
0.0
  0
LINE
  5
7A
330
1F
100
AcDbEntity
  8
Doc_ Finishes
  6
Continuous
100
AcDbLine
 10
26.54809254523997
 20
12.24494345003934
 30
0.0
 11
25.92624016522423
 21
11.85341070023603
 31
0.0
  0
LINE
  5
7B
330
1F
100
AcDbEntity
  8
Doc_ Finishes
  6
Continuous
100
AcDbLine
 10
25.92624016522423
 20
11.85341070023603
 30
0.0
 11
25.32742328874902
 21
11.32368263178599
 31
0.0
  0
LINE
  5
7C
330
1F
100
AcDbEntity
  8
Doc_ Finishes
  6
Continuous
100
AcDbLine
 10
25.32742328874902
 20
11.32368263178599
 30
0.0
 11
24.72860198662471
 21
11.04730527143981
 31
0.0
  0
LINE
  5
7D
330
1F
100
AcDbEntity
  8
Doc_ Finishes
  6
Continuous
100
AcDbLine
 10
24.72860198662471
 20
11.04730527143981
 30
0.0
 11
24.08371852871754
 21
10.56364378442171
 31
0.0
  0
LINE
  5
7E
330
1F
100
AcDbEntity
  8
Doc_ Finishes
  6
Continuous
100
AcDbLine
 10
24.08371852871754
 20
10.56364378442171
 30
0.0
 11
23.62308811959087
 21
10.33332857985838
 31
0.0
  0
LINE
  5
7F
330
1F
100
AcDbEntity
  8
Doc_ Finishes
  6
Continuous
100
AcDbLine
 10
23.62308811959087
 20
10.33332857985838
 30
0.0
 11
23.23155094413847
 21
10.03392014162077
 31
0.0
  0
LINE
  5
80
330
1F
100
AcDbEntity
  8
Doc_ Finishes
  6
Continuous
100
AcDbLine
 10
23.23155094413847
 20
10.03392014162077
 30
0.0
 11
22.81698269079465
 21
9.619351888276947
 31
0.0
  0
LINE
  5
81
330
1F
100
AcDbEntity
  8
Doc_ Finishes
  6
Continuous
100
AcDbLine
 10
22.81698269079465
 20
9.619351888276947
 30
0.0
 11
22.40241886309992
 21
9.389036683713611
 31
0.0
  0
LINE
  5
82
330
1F
100
AcDbEntity
  8
Doc_ Finishes
  6
Continuous
100
AcDbLine
 10
22.40241886309992
 20
9.389036683713611
 30
0.0
 11
21.91875295043273
 21
9.04356166404406
 31
0.0
  0
LINE
  5
83
330
1F
100
AcDbEntity
  8
Doc_ Finishes
  6
Continuous
100
AcDbLine
 10
21.91875295043273
 20
9.04356166404406
 30
0.0
 11
21.66540666797797
 21
8.859308615263572
 31
0.0
  0
LINE
  5
84
330
1F
100
AcDbEntity
  8
Doc_ Finishes
  6
Continuous
100
AcDbLine
 10
21.66540666797797
 20
8.859308615263572
 30
0.0
 11
21.25084284028324
 21
8.582931254917387
 31
0.0
  0
LINE
  5
85
330
1F
100
AcDbEntity
  8
Doc_ Finishes
  6
Continuous
100
AcDbLine
 10
21.25084284028324
 20
8.582931254917387
 30
0.0
 11
20.09926239181747
 21
7.75379474822974
 31
0.0
  0
LINE
  5
86
330
1F
100
AcDbEntity
  8
Doc_ Finishes
  6
Continuous
100
AcDbLine
 10
20.09926239181747
 20
7.75379474822974
 30
0.0
 11
19.75379179779701
 21
7.477417387883556
 31
0.0
  0
LINE
  5
87
330
1F
100
AcDbEntity
  8
Doc_ Finishes
  6
Continuous
100
AcDbLine
 10
19.75379179779701
 20
7.477417387883556
 30
0.0
 11
19.29316138867033
 21
7.316199842643588
 31
0.0
  0
LINE
  5
88
330
1F
100
AcDbEntity
  8
Doc_ Finishes
  6
Continuous
100
AcDbLine
 10
19.29316138867033
 20
7.316199842643588
 30
0.0
 11
19.22406815499606
 21
6.993755900865461
 31
0.0
  0
LINE
  5
89
330
1F
100
AcDbEntity
  8
Doc_ Finishes
  6
Continuous
100
AcDbLine
 10
19.22406815499606
 20
6.993755900865461
 30
0.0
 11
19.36225462234461
 21
6.717378540519276
 31
0.0
  0
LINE
  5
8A
330
1F
100
AcDbEntity
  8
Doc_ Finishes
  6
Continuous
100
AcDbLine
 10
19.36225462234461
 20
6.717378540519276
 30
0.0
 11
19.63863198269079
 21
6.602218725413059
 31
0.0
  0
LINE
  5
8B
330
1F
100
AcDbEntity
  8
Doc_ Finishes
  6
Continuous
100
AcDbLine
 10
19.63863198269079
 20
6.602218725413059
 30
0.0
 11
20.00713808025177
 21
6.832533929976396
 31
0.0
  0
LINE
  5
8C
330
1F
100
AcDbEntity
  8
Doc_ Finishes
  6
Continuous
100
AcDbLine
 10
20.00713808025177
 20
6.832533929976396
 30
0.0
 11
20.26048436270653
 21
7.1319467938631
 31
0.0
  0
LINE
  5
8D
330
1F
100
AcDbEntity
  8
Doc_ Finishes
  6
Continuous
100
AcDbLine
 10
20.26048436270653
 20
7.1319467938631
 30
0.0
 11
20.55989280094414
 21
7.362261998426435
 31
0.0
  0
LINE
  5
8E
330
1F
100
AcDbEntity
  8
Doc_ Finishes
  6
Continuous
100
AcDbLine
 10
20.55989280094414
 20
7.362261998426435
 30
0.0
 11
21.31993607395751
 21
7.707732592446892
 31
0.0
  0
LINE
  5
8F
330
1F
100
AcDbEntity
  8
Doc_ Finishes
  6
Continuous
100
AcDbLine
 10
21.31993607395751
 20
7.707732592446892
 30
0.0
 11
21.84965971675846
 21
8.122300845790717
 31
0.0
  0
LINE
  5
90
330
1F
100
AcDbEntity
  8
Doc_ Finishes
  6
Continuous
100
AcDbLine
 10
21.84965971675846
 20
8.122300845790717
 30
0.0
 11
22.88608035011802
 21
8.882339693154996
 31
0.0
  0
LINE
  5
91
330
1F
100
AcDbEntity
  8
Doc_ Finishes
  6
Continuous
100
AcDbLine
 10
22.88608035011802
 20
8.882339693154996
 30
0.0
 11
23.20851986624705
 21
9.342974527930762
 31
0.0
  0
LINE
  5
92
330
1F
100
AcDbEntity
  8
Doc_ Finishes
  6
Continuous
100
AcDbLine
 10
23.20851986624705
 20
9.342974527930762
 30
0.0
 11
24.01462529504327
 21
9.734507277734066
 31
0.0
  0
LINE
  5
93
330
1F
100
AcDbEntity
  8
Doc_ Finishes
  6
Continuous
100
AcDbLine
 10
24.01462529504327
 20
9.734507277734066
 30
0.0
 11
24.56738001573564
 21
10.05695121951219
 31
0.0
  0
LINE
  5
94
330
1F
100
AcDbEntity
  8
Doc_ Finishes
  6
Continuous
100
AcDbLine
 10
24.56738001573564
 20
10.05695121951219
 30
0.0
 11
25.46560975609756
 21
10.60970594020456
 31
0.0
  0
LINE
  5
95
330
1F
100
AcDbEntity
  8
Doc_ Finishes
  6
Continuous
100
AcDbLine
 10
25.46560975609756
 20
10.60970594020456
 30
0.0
 11
25.88017800944139
 21
11.07033634933124
 31
0.0
  0
LINE
  5
96
330
1F
100
AcDbEntity
  8
Doc_ Finishes
  6
Continuous
100
AcDbLine
 10
25.88017800944139
 20
11.07033634933124
 30
0.0
 11
26.31777734067663
 21
11.34671370967742
 31
0.0
  0
LINE
  5
97
330
1F
100
AcDbEntity
  8
Doc_ Finishes
  6
Continuous
100
AcDbLine
 10
26.31777734067663
 20
11.34671370967742
 30
0.0
 11
26.70931451612903
 21
11.30065155389457
 31
0.0
  0
LINE
  5
98
330
1F
100
AcDbEntity
  8
Doc_ Finishes
  6
Continuous
100
AcDbLine
 10
26.70931451612903
 20
11.30065155389457
 30
0.0
 11
27.21600708103855
 21
11.55399783634933
 31
0.0
  0
LINE
  5
99
330
1F
100
AcDbEntity
  8
Doc_ Finishes
  6
Continuous
100
AcDbLine
 10
27.21600708103855
 20
11.55399783634933
 30
0.0
 11
28.06817466561763
 21
12.17585021636507
 31
0.0
  0
LINE
  5
9A
330
1F
100
AcDbEntity
  8
Doc_ Finishes
  6
Continuous
100
AcDbLine
 10
28.06817466561763
 20
12.17585021636507
 30
0.0
 11
28.41364525963808
 21
12.49829415814319
 31
0.0
  0
LINE
  5
9B
330
1F
100
AcDbEntity
  8
Doc_ Finishes
  6
Continuous
100
AcDbLine
 10
28.41364525963808
 20
12.49829415814319
 30
0.0
 11
28.39061418174666
 21
12.77467151848938
 31
0.0
  0
LINE
  5
9C
330
1F
100
AcDbEntity
  8
Doc_ Finishes
  6
Continuous
100
AcDbLine
 10
28.39061418174666
 20
12.77467151848938
 30
0.0
 11
28.22939221085759
 21
13.00498672305271
 31
0.0
  0
LINE
  5
9D
330
1F
100
AcDbEntity
  8
Doc_ Finishes
  6
Continuous
100
AcDbLine
 10
28.22939221085759
 20
13.00498672305271
 30
0.0
 11
28.04514358772619
 21
13.05104887883556
 31
0.0
  0
LINE
  5
9E
330
1F
100
AcDbEntity
  8
Doc_ Finishes
  6
Continuous
100
AcDbLine
 10
28.04514358772619
 20
13.05104887883556
 30
0.0
 11
27.6536064122738
 21
13.12014211250983
 31
0.0
  0
HATCH
  5
9F
330
1F
100
AcDbEntity
  8
Doc_ Finishes
  6
Continuous
100
AcDbHatch
 10
0.0
 20
0.0
 30
0.0
210
0.0
220
0.0
230
1.0
  2
SOLID
 70
     1
 71
     0
 91
        1
 92
        3
 72
     0
 73
     1
 93
       47
 10
28.06817353700456
 20
15.74573772316067
 10
28.30309513961077
 20
15.62136746295728
 10
28.4412843176144
 20
15.4002647781515
 10
28.93876535842742
 20
15.17916209334572
 10
29.82317609765057
 20
14.40530269652538
 10
30.92868952167951
 20
13.74199464210799
 10
31.59199757609689
 20
13.3827027792986
 10
32.20002995931279
 20
13.07868658769064
 10
33.55428390374828
 20
12.08372450606458
 10
34.07940278016201
 20
11.69679480765445
 10
34.88090001258301
 20
11.08876242443854
 10
35.59948373820179
 20
10.50836787682334
 10
36.5668079842271
 20
9.817421986805197
 10
37.06428902504012
 20
9.458130123995785
 10
37.81051058625966
 20
8.933011247582023
 10
38.61200781868061
 20
8.407892371168286
 10
38.77783483228498
 20
8.186789686362482
 10
39.38586721550092
 20
7.744584316750918
 10
40.18736444792187
 20
6.915449248729224
 10
40.7953968311378
 20
6.44560604351692
 10
41.56925622795804
 20
6.169227687509681
 10
42.23256428237543
 20
6.086314180707507
 10
42.48130480278193
 20
6.30741686551329
 10
42.14965077557326
 20
6.611433057121246
 10
41.48634272115586
 20
6.998362755531397
 10
40.76775899553709
 20
7.357654618340788
 10
40.18736444792187
 20
8.048600508358874
 10
38.99893751709079
 20
8.822459905179112
 10
38.47381864067705
 20
9.319940945992132
 10
38.22507812027052
 20
9.734508480003
 10
37.17484036744301
 20
10.31490302761817
 10
36.73263499783144
 20
10.78474623283046
 10
36.2351539570184
 20
11.17167593124059
 10
35.48893239579888
 20
11.61388130085215
 10
34.85326217698223
 20
12.16663801286669
 10
34.35578113616919
 20
12.58120554687754
 10
33.69247308175183
 20
12.99577308088841
 10
33.22262987653953
 20
13.32742710809708
 10
32.7251488357265
 20
13.5761676285036
 10
31.93747052110588
 20
14.06443605744977
 10
31.43077686842594
 20
14.38687747279155
 10
30.92408321574601
 20
14.70931888813342
 10
30.62467333007151
 20
15.100854892477
 10
29.95675896972068
 20
15.67664313415887
 10
29.47309684670803
 20
15.9530214901661
 10
28.82821401602447
 20
16.36758902417695
 10
28.50577260068269
 20
16.22939984617334
 97
        0
 75
     0
 76
     1
 98
        0
  0
LINE
  5
A0
330
1F
100
AcDbEntity
  8
Doc_ Finishes
  6
Continuous
100
AcDbLine
 10
28.30309697088906
 20
15.62136850904799
 30
0.0
 11
28.06817466561763
 21
15.74573809992132
 31
0.0
  0
LINE
  5
A1
330
1F
100
AcDbEntity
  8
Doc_ Finishes
  6
Continuous
100
AcDbLine
 10
28.44128343823761
 20
15.40026308025177
 30
0.0
 11
28.30309697088906
 21
15.62136850904799
 31
0.0
  0
LINE
  5
A2
330
1F
100
AcDbEntity
  8
Doc_ Finishes
  6
Continuous
100
AcDbLine
 10
28.93876622738001
 20
15.17916207710464
 30
0.0
 11
28.44128343823761
 21
15.40026308025177
 31
0.0
  0
LINE
  5
A3
330
1F
100
AcDbEntity
  8
Doc_ Finishes
  6
Continuous
100
AcDbLine
 10
29.82317466561762
 20
14.40530192761605
 30
0.0
 11
28.93876622738001
 21
15.17916207710464
 31
0.0
  0
LINE
  5
A4
330
1F
100
AcDbEntity
  8
Doc_ Finishes
  6
Continuous
100
AcDbLine
 10
30.92868853265146
 20
13.74199449252557
 30
0.0
 11
29.82317466561762
 21
14.40530192761605
 31
0.0
  0
LINE
  5
A5
330
1F
100
AcDbEntity
  8
Doc_ Finishes
  6
Continuous
100
AcDbLine
 10
31.59199596774193
 20
13.3827025963808
 30
0.0
 11
30.92868853265146
 21
13.74199449252557
 31
0.0
  0
LINE
  5
A6
330
1F
100
AcDbEntity
  8
Doc_ Finishes
  6
Continuous
100
AcDbLine
 10
32.20003147128246
 20
13.07868705743509
 30
0.0
 11
31.59199596774193
 21
13.3827025963808
 31
0.0
  0
LINE
  5
A7
330
1F
100
AcDbEntity
  8
Doc_ Finishes
  6
Continuous
100
AcDbLine
 10
33.55428452006294
 20
12.08372590479937
 30
0.0
 11
32.20003147128246
 21
13.07868705743509
 31
0.0
  0
LINE
  5
A8
330
1F
100
AcDbEntity
  8
Doc_ Finishes
  6
Continuous
100
AcDbLine
 10
34.07940106215578
 20
11.69679583005508
 30
0.0
 11
33.55428452006294
 21
12.08372590479937
 31
0.0
  0
LINE
  5
A9
330
1F
100
AcDbEntity
  8
Doc_ Finishes
  6
Continuous
100
AcDbLine
 10
34.8808993902439
 20
11.08876032651456
 30
0.0
 11
34.07940106215578
 21
11.69679583005508
 31
0.0
  0
LINE
  5
AA
330
1F
100
AcDbEntity
  8
Doc_ Finishes
  6
Continuous
100
AcDbLine
 10
35.59948318253343
 20
10.50836742722266
 30
0.0
 11
34.8808993902439
 21
11.08876032651456
 31
0.0
  0
LINE
  5
AB
330
1F
100
AcDbEntity
  8
Doc_ Finishes
  6
Continuous
100
AcDbLine
 10
36.56680615656963
 20
9.817421813532652
 30
0.0
 11
35.59948318253343
 21
10.50836742722266
 31
0.0
  0
LINE
  5
AC
330
1F
100
AcDbEntity
  8
Doc_ Finishes
  6
Continuous
100
AcDbLine
 10
37.06428894571204
 20
9.458129917387884
 30
0.0
 11
36.56680615656963
 21
9.817421813532652
 31
0.0
  0
LINE
  5
AD
330
1F
100
AcDbEntity
  8
Doc_ Finishes
  6
Continuous
100
AcDbLine
 10
37.8105109166011
 20
8.933013375295044
 30
0.0
 11
37.06428894571204
 21
9.458129917387884
 31
0.0
  0
LINE
  5
AE
330
1F
100
AcDbEntity
  8
Doc_ Finishes
  6
Continuous
100
AcDbLine
 10
38.61200924468922
 20
8.407892407553108
 30
0.0
 11
37.8105109166011
 21
8.933013375295044
 31
0.0
  0
LINE
  5
AF
330
1F
100
AcDbEntity
  8
Doc_ Finishes
  6
Continuous
100
AcDbLine
 10
38.77783389063729
 20
8.18679140440598
 30
0.0
 11
38.61200924468922
 21
8.407892407553108
 31
0.0
  0
LINE
  5
B0
330
1F
100
AcDbEntity
  8
Doc_ Finishes
  6
Continuous
100
AcDbLine
 10
39.3858693941778
 20
7.744584972462627
 30
0.0
 11
38.77783389063729
 21
8.18679140440598
 31
0.0
  0
LINE
  5
B1
330
1F
100
AcDbEntity
  8
Doc_ Finishes
  6
Continuous
100
AcDbLine
 10
40.18736329661684
 20
6.915448465774981
 30
0.0
 11
39.3858693941778
 21
7.744584972462627
 31
0.0
  0
LINE
  5
B2
330
1F
100
AcDbEntity
  8
Doc_ Finishes
  6
Continuous
100
AcDbLine
 10
40.79539880015735
 20
6.4456038552321
 30
0.0
 11
40.18736329661684
 21
6.915448465774981
 31
0.0
  0
LINE
  5
B3
330
1F
100
AcDbEntity
  8
Doc_ Finishes
  6
Continuous
100
AcDbLine
 10
41.56925452399685
 20
6.169226494885916
 30
0.0
 11
40.79539880015735
 21
6.4456038552321
 31
0.0
  0
LINE
  5
B4
330
1F
100
AcDbEntity
  8
Doc_ Finishes
  6
Continuous
100
AcDbLine
 10
42.23256638473643
 20
6.086316384736428
 30
0.0
 11
41.56925452399685
 21
6.169226494885916
 31
0.0
  0
LINE
  5
B5
330
1F
100
AcDbEntity
  8
Doc_ Finishes
  6
Continuous
100
AcDbLine
 10
42.48130556648308
 20
6.307417387883556
 30
0.0
 11
42.23256638473643
 21
6.086316384736428
 31
0.0
  0
LINE
  5
B6
330
1F
100
AcDbEntity
  8
Doc_ Finishes
  6
Continuous
100
AcDbLine
 10
42.14965184893784
 20
6.611432926829268
 30
0.0
 11
42.48130556648308
 21
6.307417387883556
 31
0.0
  0
LINE
  5
B7
330
1F
100
AcDbEntity
  8
Doc_ Finishes
  6
Continuous
100
AcDbLine
 10
41.48634441384736
 20
6.998363001573564
 30
0.0
 11
42.14965184893784
 21
6.611432926829268
 31
0.0
  0
LINE
  5
B8
330
1F
100
AcDbEntity
  8
Doc_ Finishes
  6
Continuous
100
AcDbLine
 10
40.76776062155783
 20
7.357654897718332
 30
0.0
 11
41.48634441384736
 21
6.998363001573564
 31
0.0
  0
LINE
  5
B9
330
1F
100
AcDbEntity
  8
Doc_ Finishes
  6
Continuous
100
AcDbLine
 10
40.18736329661684
 20
8.048600511408338
 30
0.0
 11
40.76776062155783
 21
7.357654897718332
 31
0.0
  0
LINE
  5
BA
330
1F
100
AcDbEntity
  8
Doc_ Finishes
  6
Continuous
100
AcDbLine
 10
38.99893931943352
 20
8.822460660896931
 30
0.0
 11
40.18736329661684
 21
8.048600511408338
 31
0.0
  0
LINE
  5
BB
330
1F
100
AcDbEntity
  8
Doc_ Finishes
  6
Continuous
100
AcDbLine
 10
38.47381835169158
 20
9.319939024390242
 30
0.0
 11
38.99893931943352
 21
8.822460660896931
 31
0.0
  0
LINE
  5
BC
330
1F
100
AcDbEntity
  8
Doc_ Finishes
  6
Continuous
100
AcDbLine
 10
38.22507916994492
 20
9.734507277734066
 30
0.0
 11
38.47381835169158
 21
9.319939024390242
 31
0.0
  0
LINE
  5
BD
330
1F
100
AcDbEntity
  8
Doc_ Finishes
  6
Continuous
100
AcDbLine
 10
37.17484166011014
 20
10.31490460267506
 30
0.0
 11
38.22507916994492
 21
9.734507277734066
 31
0.0
  0
LINE
  5
BE
330
1F
100
AcDbEntity
  8
Doc_ Finishes
  6
Continuous
100
AcDbLine
 10
36.7326352281668
 20
10.78474478756884
 30
0.0
 11
37.17484166011014
 21
10.31490460267506
 31
0.0
  0
LINE
  5
BF
330
1F
100
AcDbEntity
  8
Doc_ Finishes
  6
Continuous
100
AcDbLine
 10
36.23515243902439
 20
11.17167486231314
 30
0.0
 11
36.7326352281668
 21
10.78474478756884
 31
0.0
  0
LINE
  5
C0
330
1F
100
AcDbEntity
  8
Doc_ Finishes
  6
Continuous
100
AcDbLine
 10
35.48893046813532
 20
11.61388129425649
 30
0.0
 11
36.23515243902439
 21
11.17167486231314
 31
0.0
  0
LINE
  5
C1
330
1F
100
AcDbEntity
  8
Doc_ Finishes
  6
Continuous
100
AcDbLine
 10
34.85326121164437
 20
12.16663601494886
 30
0.0
 11
35.48893046813532
 21
11.61388129425649
 31
0.0
  0
LINE
  5
C2
330
1F
100
AcDbEntity
  8
Doc_ Finishes
  6
Continuous
100
AcDbLine
 10
34.35578284815106
 20
12.58120426829268
 30
0.0
 11
34.85326121164437
 21
12.16663601494886
 31
0.0
  0
LINE
  5
C3
330
1F
100
AcDbEntity
  8
Doc_ Finishes
  6
Continuous
100
AcDbLine
 10
33.69247098741149
 20
12.99577252163651
 30
0.0
 11
34.35578284815106
 21
12.58120426829268
 31
0.0
  0
LINE
  5
C4
330
1F
100
AcDbEntity
  8
Doc_ Finishes
  6
Continuous
100
AcDbLine
 10
33.2226308025177
 20
13.32742623918175
 30
0.0
 11
33.69247098741149
 21
12.99577252163651
 31
0.0
  0
LINE
  5
C5
330
1F
100
AcDbEntity
  8
Doc_ Finishes
  6
Continuous
100
AcDbLine
 10
32.7251480133753
 20
13.5761654209284
 30
0.0
 11
33.2226308025177
 21
13.32742623918175
 31
0.0
  0
LINE
  5
C6
330
1F
100
AcDbEntity
  8
Doc_ Finishes
  6
Continuous
100
AcDbLine
 10
31.93747098741148
 20
14.0644340086546
 30
0.0
 11
32.7251480133753
 21
13.5761654209284
 31
0.0
  0
LINE
  5
C7
330
1F
100
AcDbEntity
  8
Doc_ Finishes
  6
Continuous
100
AcDbLine
 10
31.43077842250197
 20
14.38687795043273
 30
0.0
 11
31.93747098741148
 21
14.0644340086546
 31
0.0
  0
LINE
  5
C8
330
1F
100
AcDbEntity
  8
Doc_ Finishes
  6
Continuous
100
AcDbLine
 10
30.92408143194335
 20
14.70931746656176
 30
0.0
 11
31.43077842250197
 21
14.38687795043273
 31
0.0
  0
LINE
  5
C9
330
1F
100
AcDbEntity
  8
Doc_ Finishes
  6
Continuous
100
AcDbLine
 10
30.62467299370574
 20
15.10085464201416
 30
0.0
 11
30.92408143194335
 21
14.70931746656176
 31
0.0
  0
LINE
  5
CA
330
1F
100
AcDbEntity
  8
Doc_ Finishes
  6
Continuous
100
AcDbLine
 10
29.95675845790716
 20
15.67664486624705
 30
0.0
 11
30.62467299370574
 21
15.10085464201416
 31
0.0
  0
LINE
  5
CB
330
1F
100
AcDbEntity
  8
Doc_ Finishes
  6
Continuous
100
AcDbLine
 10
29.47309697088906
 20
15.95302222659323
 30
0.0
 11
29.95675845790716
 21
15.67664486624705
 31
0.0
  0
LINE
  5
CC
330
1F
100
AcDbEntity
  8
Doc_ Finishes
  6
Continuous
100
AcDbLine
 10
28.8282135129819
 20
16.36759047993706
 30
0.0
 11
29.47309697088906
 21
15.95302222659323
 31
0.0
  0
LINE
  5
CD
330
1F
100
AcDbEntity
  8
Doc_ Finishes
  6
Continuous
100
AcDbLine
 10
28.50577399685287
 20
16.22939958693942
 30
0.0
 11
28.8282135129819
 21
16.36759047993706
 31
0.0
  0
LINE
  5
CE
330
1F
100
AcDbEntity
  8
Doc_ Finishes
  6
Continuous
100
AcDbLine
 10
28.06817466561763
 20
15.74573809992132
 30
0.0
 11
28.50577399685287
 21
16.22939958693942
 31
0.0
  0
LINE
  5
CF
330
1F
100
AcDbEntity
  8
Doc_ Finishes
  6
Continuous
 62
   254
370
    18
100
AcDbLine
 10
97.43333792289535
 20
5.093360051140834
 30
0.0
 11
97.43333792289535
 21
20.69901750590086
 31
0.0
  0
LINE
  5
D0
330
1F
100
AcDbEntity
  8
Doc_ Finishes
  6
Continuous
 62
   254
370
    18
100
AcDbLine
 10
7.000000491738787
 20
20.69901750590086
 30
0.0
 11
290.2406840086546
 21
20.69901750590086
 31
0.0
  0
LINE
  5
D1
330
1F
100
AcDbEntity
  8
Doc_ Finishes
  6
Continuous
 62
   254
370
    18
100
AcDbLine
 10
290.2406840086546
 20
20.69901750590086
 30
0.0
 11
290.2406840086546
 21
5.000000983477577
 31
0.0
  0
LINE
  5
D2
330
1F
100
AcDbEntity
  8
Doc_ Finishes
  6
Continuous
 62
   254
370
    18
100
AcDbLine
 10
290.2406840086546
 20
5.000000983477577
 30
0.0
 11
7.000000491738787
 21
5.000000983477577
 31
0.0
  0
LINE
  5
D3
330
1F
100
AcDbEntity
  8
Doc_ Finishes
  6
Continuous
 62
   254
370
    18
100
AcDbLine
 10
7.000000491738787
 20
20.69901750590086
 30
0.0
 11
7.000000491738787
 21
5.000000983477577
 31
0.0
  0
LINE
  5
D4
330
1F
100
AcDbEntity
  8
Doc_ Finishes
  6
Continuous
 62
   254
370
    18
100
AcDbLine
 10
190.2919443351691
 20
5.093360051140834
 30
0.0
 11
190.2919443351691
 21
20.69901750590086
 31
0.0
  0
LINE
  5
D5
330
1F
100
AcDbEntity
  8
Doc_ Finishes
  6
Continuous
 62
   254
370
    18
100
AcDbLine
 10
190.2919443351691
 20
12.8961909913454
 30
0.0
 11
290.2406840086546
 21
12.8961909913454
 31
0.0
  0
MTEXT
  5
D7
330
1F
100
AcDbEntity
  8
0
  6
Continuous
100
AcDbMText
 10
210.3494767103412
 20
15.00228372306228
 30
0.0
 40
2.25
 41
0.0
 71
     7
 72
     1
  1
{R-TRS6-15}
  7
GENERATED_STYLE_1
 73
     1
 44
1.0
  0
MTEXT
  5
D8
330
1F
100
AcDbEntity
  8
0
  6
Continuous
100
AcDbMText
 10
210.3494767103412
 20
11.03300550383743
 30
0.0
 40
3.0
 41
0.0
 71
     1
 72
     1
  1
{PIPE PENETRATION DETAIL - SIDE}
  7
GENERATED_STYLE_1
 73
     1
 44
1.0
  0
MTEXT
  5
DA
330
1F
100
AcDbEntity
  8
Doc_ Floor
  6
Continuous
100
AcDbMText
 10
29.78353726544612
 20
13.33283672870609
 30
0.0
 40
5.603347280334726
 41
0.0
 71
     1
 72
     1
  1
{The Roofing Store}
  7
GENERATED_STYLE_2
 73
     1
 44
1.0
  0
MTEXT
  5
DC
102
{ACAD_XDICTIONARY
360
654
102
}
330
1F
100
AcDbEntity
  8
0
  6
Continuous
100
AcDbMText
 10
102.7389238446655
 20
6.378784417288156
 30
0.0
 40
1.5
 41
0.0
 71
     7
 72
     1
  1
{P: HEAD OFFICE              09 277 2717\P    ALBANY             09 972 0060\P    KATIKAIT            07 549 5190\P    WELLINGTON              04 974 5792\P    CHRISTCHURCH          03 348 6528}
  7
GENERATED_STYLE_1
 73
     1
 44
1.062946161486498
  0
MTEXT
  5
DD
330
1F
100
AcDbEntity
  8
0
  6
Continuous
100
AcDbMText
 10
149.4184566143587
 20
9.199084231526156
 30
0.0
 40
1.5
 41
0.0
 71
     7
 72
     1
  1
{WEB: www.theroofingstore.co.nz}
  7
GENERATED_STYLE_1
 73
     1
 44
1.0
  0
MTEXT
  5
DE
330
1F
100
AcDbEntity
  8
0
  6
Continuous
100
AcDbMText
 10
149.4184566143587
 20
6.620946023411263
 30
0.0
 40
1.5
 41
0.0
 71
     7
 72
     1
  1
{Copyright \U+00A9 The Roofing Store 2013}
  7
GENERATED_STYLE_1
 73
     1
 44
1.0
  0
MTEXT
  5
DF
330
1F
100
AcDbEntity
  8
0
  6
Continuous
100
AcDbMText
 10
273.9546684065315
 20
15.01595205690762
 30
0.0
 40
2.25
 41
0.0
 71
     7
 72
     1
  1
{1:5}
  7
GENERATED_STYLE_1
 73
     1
 44
1.0
  0
MTEXT
  5
E0
330
1F
100
AcDbEntity
  8
0
  6
Continuous
100
AcDbMText
 10
264.8396605309016
 20
15.51746459162148
 30
0.0
 40
1.5
 41
0.0
 71
     7
 72
     1
  1
{SCALE:}
  7
GENERATED_STYLE_1
 73
     1
 44
1.0
  0
MTEXT
  5
E1
330
1F
100
AcDbEntity
  8
0
  6
Continuous
100
AcDbMText
 10
191.5066235617487
 20
15.48695559872207
 30
0.0
 40
1.5
 41
0.0
 71
     7
 72
     1
  1
{DETAIL NUMBER:}
  7
GENERATED_STYLE_1
 73
     1
 44
1.0
  0
MTEXT
  5
E2
330
1F
100
AcDbEntity
  8
0
  6
Continuous
100
AcDbMText
 10
191.5066235617487
 20
9.005462392315325
 30
0.0
 40
1.5
 41
0.0
 71
     7
 72
     1
  1
{TITLE:}
  7
GENERATED_STYLE_1
 73
     1
 44
1.0
  0
INSERT
  5
622
102
{ACAD_XDICTIONARY
360
623
102
}
330
1F
100
AcDbEntity
  8
0
  6
Continuous
100
AcDbBlockReference
  2
Drawing_1_2
 10
203.9331314616245
 20
-67.40556088284451
 30
0.0
  0
ENDSEC
  0
SECTION
  2
OBJECTS
  0
DICTIONARY
  5
C
330
0
100
AcDbDictionary
281
     1
  3
ACAD_GROUP
350
D
  3
ACAD_LAYOUT
350
1A
  3
ACAD_MATERIAL
350
3B
  3
ACAD_MLEADERSTYLE
350
64F
  3
ACAD_MLINESTYLE
350
17
  3
ACAD_PLOTSETTINGS
350
19
  3
ACAD_PLOTSTYLENAME
350
E
  3
ACAD_SCALELIST
350
629
  3
ACAD_VISUALSTYLE
350
2A
  3
AcDbVariableDictionary
350
64D
  3
WATERMARKS
350
64B
  0
DICTIONARY
  5
654
330
DC
100
AcDbDictionary
280
     1
281
     1
  3
ACAD_MTEXT_RT
360
655
  0
DICTIONARY
  5
623
330
622
100
AcDbDictionary
280
     1
281
     1
  3
ACAD_FILTER
360
624
  0
DICTIONARY
  5
D
102
{ACAD_REACTORS
330
C
102
}
330
C
100
AcDbDictionary
281
     1
  0
DICTIONARY
  5
1A
102
{ACAD_REACTORS
330
C
102
}
330
C
100
AcDbDictionary
281
     1
  3
Layout1
350
1E
  3
Model
350
22
  0
DICTIONARY
  5
3B
102
{ACAD_REACTORS
330
C
102
}
330
C
100
AcDbDictionary
281
     1
  3
ByBlock
350
3D
  3
ByLayer
350
3C
  3
Global
350
3E
  0
DICTIONARY
  5
64F
102
{ACAD_REACTORS
330
C
102
}
330
C
100
AcDbDictionary
281
     1
  0
DICTIONARY
  5
17
102
{ACAD_REACTORS
330
C
102
}
330
C
100
AcDbDictionary
281
     1
  3
Standard
350
18
  0
DICTIONARY
  5
19
102
{ACAD_REACTORS
330
C
102
}
330
C
100
AcDbDictionary
281
     1
  0
ACDBDICTIONARYWDFLT
  5
E
102
{ACAD_REACTORS
330
C
102
}
330
C
100
AcDbDictionary
281
     1
  3
Normal
350
F
100
AcDbDictionaryWithDefault
340
F
  0
DICTIONARY
  5
629
102
{ACAD_REACTORS
330
C
102
}
330
C
100
AcDbDictionary
281
     1
  3
A0
350
62A
  3
A1
350
62B
  3
A2
350
62C
  3
A3
350
62D
  3
A4
350
62E
  3
A5
350
62F
  3
A6
350
630
  3
A7
350
631
  3
A8
350
632
  3
A9
350
633
  3
B0
350
634
  3
B1
350
635
  3
B2
350
636
  3
B3
350
637
  3
B4
350
638
  3
B5
350
639
  3
B6
350
63A
  3
B7
350
63B
  3
B8
350
63C
  3
B9
350
63D
  3
C0
350
63E
  3
C1
350
63F
  3
C2
350
640
  3
C3
350
641
  3
C4
350
642
  3
C5
350
643
  3
C6
350
644
  3
C7
350
645
  3
C8
350
646
  3
C9
350
647
  3
D0
350
648
  3
D1
350
649
  3
D2
350
64A
  0
DICTIONARY
  5
2A
102
{ACAD_REACTORS
330
C
102
}
330
C
100
AcDbDictionary
281
     1
  3
2dWireframe
350
2F
  3
3D Hidden
350
31
  3
3dWireframe
350
30
  3
Basic
350
32
  3
Brighten
350
36
  3
ColorChange
350
3A
  3
Conceptual
350
34
  3
Dim
350
35
  3
Facepattern
350
39
  3
Flat
350
2B
  3
FlatWithEdges
350
2C
  3
Gouraud
350
2D
  3
GouraudWithEdges
350
2E
  3
Linepattern
350
38
  3
Realistic
350
33
  3
Thicken
350
37
  0
DICTIONARY
  5
64D
102
{ACAD_REACTORS
330
C
102
}
330
C
100
AcDbDictionary
281
     1
  3
CANNOSCALE
350
651
  3
DIMASSOC
350
652
  3
HIDETEXT
350
653
  3
XCLIPFRAME
350
650
  0
DICTIONARY
  5
64B
102
{ACAD_REACTORS
330
C
102
}
330
C
100
AcDbDictionary
281
     1
  3
AC_WATERMARK
350
64C
  0
XRECORD
  5
655
102
{ACAD_REACTORS
330
654
102
}
330
654
100
AcDbXrecord
280
     1
 40
956118.0
  1
{P: HEAD OFFICE ^I^I09 277 2717\P    ALBANY ^I^I09 972 0060\P    KATIKAIT^I^I07 549 5190\P    WELLINGTON^I^I04 974 5792\P    CHRISTCHURCH^I^I03 348 6528}
  0
DICTIONARY
  5
624
102
{ACAD_REACTORS
330
623
102
}
330
623
100
AcDbDictionary
280
     1
281
     1
  3
SPATIAL
360
625
  0
LAYOUT
  5
1E
102
{ACAD_REACTORS
330
1A
102
}
330
1A
100
AcDbPlotSettings
  1

  2
none_device
  4

  6

 40
0.0
 41
0.0
 42
0.0
 43
0.0
 44
0.0
 45
0.0
 46
0.0
 47
0.0
 48
0.0
 49
0.0
140
0.0
141
0.0
142
1.0
143
1.0
 70
   688
 72
     0
 73
     0
 74
     5
  7

 75
    16
147
1.0
148
0.0
149
0.0
100
AcDbLayout
  1
Layout1
 70
     1
 71
     1
 10
0.0
 20
0.0
 11
12.0
 21
9.0
 12
0.0
 22
0.0
 32
0.0
 14
1.000000000000000E+20
 24
1.000000000000000E+20
 34
1.000000000000000E+20
 15
-1.000000000000000E+20
 25
-1.000000000000000E+20
 35
-1.000000000000000E+20
146
0.0
 13
0.0
 23
0.0
 33
0.0
 16
1.0
 26
0.0
 36
0.0
 17
0.0
 27
1.0
 37
0.0
 76
     0
330
1B
  0
LAYOUT
  5
22
102
{ACAD_REACTORS
330
1A
102
}
330
1A
100
AcDbPlotSettings
  1

  2
none_device
  4

  6

 40
0.0
 41
0.0
 42
0.0
 43
0.0
 44
0.0
 45
0.0
 46
0.0
 47
0.0
 48
0.0
 49
0.0
140
0.0
141
0.0
142
1.0
143
1.0
 70
  1712
 72
     0
 73
     0
 74
     0
  7

 75
     0
147
1.0
148
0.0
149
0.0
100
AcDbLayout
  1
Model
 70
     1
 71
     0
 10
0.0
 20
0.0
 11
12.0
 21
9.0
 12
0.0
 22
0.0
 32
0.0
 14
1.000000000000000E+20
 24
1.000000000000000E+20
 34
1.000000000000000E+20
 15
-1.000000000000000E+20
 25
-1.000000000000000E+20
 35
-1.000000000000000E+20
146
0.0
 13
0.0
 23
0.0
 33
0.0
 16
1.0
 26
0.0
 36
0.0
 17
0.0
 27
1.0
 37
0.0
 76
     0
330
1F
331
29
  0
MATERIAL
  5
3D
102
{ACAD_REACTORS
330
3B
102
}
102
{ACAD_XDICTIONARY
360
678
102
}
330
3B
100
AcDbMaterial
  1
ByBlock
  0
MATERIAL
  5
3C
102
{ACAD_REACTORS
330
3B
102
}
102
{ACAD_XDICTIONARY
360
676
102
}
330
3B
100
AcDbMaterial
  1
ByLayer
  0
MATERIAL
  5
3E
102
{ACAD_REACTORS
330
3B
102
}
102
{ACAD_XDICTIONARY
360
67A
102
}
330
3B
100
AcDbMaterial
  1
Global
  0
MLINESTYLE
  5
18
102
{ACAD_REACTORS
330
17
102
}
330
17
100
AcDbMlineStyle
  2
Standard
 70
     0
  3

 62
   256
 51
90.0
 52
90.0
 71
     2
 49
0.5
 62
   256
  6
BYLAYER
 49
-0.5
 62
   256
  6
BYLAYER
  0
ACDBPLACEHOLDER
  5
F
102
{ACAD_REACTORS
330
E
102
}
330
E
  0
SCALE
  5
62A
102
{ACAD_REACTORS
330
629
102
}
330
629
100
AcDbScale
 70
     0
300
1:1
140
1.0
141
1.0
290
     1
  0
SCALE
  5
62B
102
{ACAD_REACTORS
330
629
102
}
330
629
100
AcDbScale
 70
     0
300
1:2
140
1.0
141
2.0
290
     0
  0
SCALE
  5
62C
102
{ACAD_REACTORS
330
629
102
}
330
629
100
AcDbScale
 70
     0
300
1:4
140
1.0
141
4.0
290
     0
  0
SCALE
  5
62D
102
{ACAD_REACTORS
330
629
102
}
330
629
100
AcDbScale
 70
     0
300
1:5
140
1.0
141
5.0
290
     0
  0
SCALE
  5
62E
102
{ACAD_REACTORS
330
629
102
}
330
629
100
AcDbScale
 70
     0
300
1:8
140
1.0
141
8.0
290
     0
  0
SCALE
  5
62F
102
{ACAD_REACTORS
330
629
102
}
330
629
100
AcDbScale
 70
     0
300
1:10
140
1.0
141
10.0
290
     0
  0
SCALE
  5
630
102
{ACAD_REACTORS
330
629
102
}
330
629
100
AcDbScale
 70
     0
300
1:16
140
1.0
141
16.0
290
     0
  0
SCALE
  5
631
102
{ACAD_REACTORS
330
629
102
}
330
629
100
AcDbScale
 70
     0
300
1:20
140
1.0
141
20.0
290
     0
  0
SCALE
  5
632
102
{ACAD_REACTORS
330
629
102
}
330
629
100
AcDbScale
 70
     0
300
1:30
140
1.0
141
30.0
290
     0
  0
SCALE
  5
633
102
{ACAD_REACTORS
330
629
102
}
330
629
100
AcDbScale
 70
     0
300
1:40
140
1.0
141
40.0
290
     0
  0
SCALE
  5
634
102
{ACAD_REACTORS
330
629
102
}
330
629
100
AcDbScale
 70
     0
300
1:50
140
1.0
141
50.0
290
     0
  0
SCALE
  5
635
102
{ACAD_REACTORS
330
629
102
}
330
629
100
AcDbScale
 70
     0
300
1:100
140
1.0
141
100.0
290
     0
  0
SCALE
  5
636
102
{ACAD_REACTORS
330
629
102
}
330
629
100
AcDbScale
 70
     0
300
2:1
140
2.0
141
1.0
290
     0
  0
SCALE
  5
637
102
{ACAD_REACTORS
330
629
102
}
330
629
100
AcDbScale
 70
     0
300
4:1
140
4.0
141
1.0
290
     0
  0
SCALE
  5
638
102
{ACAD_REACTORS
330
629
102
}
330
629
100
AcDbScale
 70
     0
300
8:1
140
8.0
141
1.0
290
     0
  0
SCALE
  5
639
102
{ACAD_REACTORS
330
629
102
}
330
629
100
AcDbScale
 70
     0
300
10:1
140
10.0
141
1.0
290
     0
  0
SCALE
  5
63A
102
{ACAD_REACTORS
330
629
102
}
330
629
100
AcDbScale
 70
     0
300
100:1
140
100.0
141
1.0
290
     0
  0
SCALE
  5
63B
102
{ACAD_REACTORS
330
629
102
}
330
629
100
AcDbScale
 70
     0
300
1/128" = 1'-0"
140
0.0078125
141
12.0
290
     0
  0
SCALE
  5
63C
102
{ACAD_REACTORS
330
629
102
}
330
629
100
AcDbScale
 70
     0
300
1/64" = 1'-0"
140
0.015625
141
12.0
290
     0
  0
SCALE
  5
63D
102
{ACAD_REACTORS
330
629
102
}
330
629
100
AcDbScale
 70
     0
300
1/32" = 1'-0"
140
0.03125
141
12.0
290
     0
  0
SCALE
  5
63E
102
{ACAD_REACTORS
330
629
102
}
330
629
100
AcDbScale
 70
     0
300
1/16" = 1'-0"
140
0.0625
141
12.0
290
     0
  0
SCALE
  5
63F
102
{ACAD_REACTORS
330
629
102
}
330
629
100
AcDbScale
 70
     0
300
3/32" = 1'-0"
140
0.09375
141
12.0
290
     0
  0
SCALE
  5
640
102
{ACAD_REACTORS
330
629
102
}
330
629
100
AcDbScale
 70
     0
300
1/8" = 1'-0"
140
0.125
141
12.0
290
     0
  0
SCALE
  5
641
102
{ACAD_REACTORS
330
629
102
}
330
629
100
AcDbScale
 70
     0
300
3/16" = 1'-0"
140
0.1875
141
12.0
290
     0
  0
SCALE
  5
642
102
{ACAD_REACTORS
330
629
102
}
330
629
100
AcDbScale
 70
     0
300
1/4" = 1'-0"
140
0.25
141
12.0
290
     0
  0
SCALE
  5
643
102
{ACAD_REACTORS
330
629
102
}
330
629
100
AcDbScale
 70
     0
300
3/8" = 1'-0"
140
0.375
141
12.0
290
     0
  0
SCALE
  5
644
102
{ACAD_REACTORS
330
629
102
}
330
629
100
AcDbScale
 70
     0
300
1/2" = 1'-0"
140
0.5
141
12.0
290
     0
  0
SCALE
  5
645
102
{ACAD_REACTORS
330
629
102
}
330
629
100
AcDbScale
 70
     0
300
3/4" = 1'-0"
140
0.75
141
12.0
290
     0
  0
SCALE
  5
646
102
{ACAD_REACTORS
330
629
102
}
330
629
100
AcDbScale
 70
     0
300
1" = 1'-0"
140
1.0
141
12.0
290
     0
  0
SCALE
  5
647
102
{ACAD_REACTORS
330
629
102
}
330
629
100
AcDbScale
 70
     0
300
1-1/2" = 1'-0"
140
1.5
141
12.0
290
     0
  0
SCALE
  5
648
102
{ACAD_REACTORS
330
629
102
}
330
629
100
AcDbScale
 70
     0
300
3" = 1'-0"
140
3.0
141
12.0
290
     0
  0
SCALE
  5
649
102
{ACAD_REACTORS
330
629
102
}
330
629
100
AcDbScale
 70
     0
300
6" = 1'-0"
140
6.0
141
12.0
290
     0
  0
SCALE
  5
64A
102
{ACAD_REACTORS
330
629
102
}
330
629
100
AcDbScale
 70
     0
300
1'-0" = 1'-0"
140
12.0
141
12.0
290
     0
  0
VISUALSTYLE
  5
2F
102
{ACAD_REACTORS
330
2A
102
}
102
{ACAD_XDICTIONARY
360
65E
102
}
330
2A
100
AcDbVisualStyle
  2
2dWireframe
 70
     4
 71
     0
 72
     2
 73
     0
 90
        0
 40
-0.6
 41
-30.0
 62
     5
 63
     7
 74
     1
 91
        4
 64
     7
 65
   257
 75
     1
175
     1
 42
1.0
 92
        0
 66
   257
 43
1.0
 76
     1
 77
     6
 78
     2
 67
     7
 79
     5
170
     0
171
     0
290
     0
174
     0
 93
        1
 44
0.0
173
     0
291
     0
 45
0.0
1001
ACAD
1000
AcDbSavedByObjectVersion
1070
     0
  0
VISUALSTYLE
  5
31
102
{ACAD_REACTORS
330
2A
102
}
102
{ACAD_XDICTIONARY
360
662
102
}
330
2A
100
AcDbVisualStyle
  2
3D Hidden
 70
     6
 71
     1
 72
     2
 73
     2
 90
        0
 40
-0.6
 41
-30.0
 62
     5
 63
     7
 74
     2
 91
        2
 64
     7
 65
   257
 75
     2
175
     1
 42
40.0
 92
        0
 66
   257
 43
1.0
 76
     1
 77
     6
 78
     2
 67
     7
 79
     3
170
     0
171
     0
290
     0
174
     0
 93
        1
 44
0.0
173
     0
291
     0
 45
0.0
1001
ACAD
1000
AcDbSavedByObjectVersion
1070
     0
  0
VISUALSTYLE
  5
30
102
{ACAD_REACTORS
330
2A
102
}
102
{ACAD_XDICTIONARY
360
660
102
}
330
2A
100
AcDbVisualStyle
  2
3dWireframe
 70
     5
 71
     0
 72
     2
 73
     0
 90
        0
 40
-0.6
 41
-30.0
 62
     5
 63
     7
 74
     1
 91
        4
 64
     7
 65
   257
 75
     1
175
     1
 42
1.0
 92
        0
 66
   257
 43
1.0
 76
     1
 77
     6
 78
     2
 67
     7
 79
     5
170
     0
171
     0
290
     0
174
     0
 93
        1
 44
0.0
173
     0
291
     0
 45
0.0
1001
ACAD
1000
AcDbSavedByObjectVersion
1070
     0
  0
VISUALSTYLE
  5
32
102
{ACAD_REACTORS
330
2A
102
}
102
{ACAD_XDICTIONARY
360
664
102
}
330
2A
100
AcDbVisualStyle
  2
Basic
 70
     7
 71
     1
 72
     0
 73
     1
 90
        0
 40
-0.6
 41
-30.0
 62
     5
 63
     7
 74
     0
 91
        4
 64
     7
 65
   257
 75
     1
175
     1
 42
1.0
 92
        8
 66
     7
 43
1.0
 76
     1
 77
     6
 78
     2
 67
     7
 79
     5
170
     0
171
     0
290
     0
174
     0
 93
        1
 44
0.0
173
     0
291
     1
 45
0.0
1001
ACAD
1000
AcDbSavedByObjectVersion
1070
     0
  0
VISUALSTYLE
  5
36
102
{ACAD_REACTORS
330
2A
102
}
102
{ACAD_XDICTIONARY
360
66C
102
}
330
2A
100
AcDbVisualStyle
  2
Brighten
 70
    12
 71
     2
 72
     2
 73
     0
 90
        0
 40
-0.6
 41
-30.0
 62
     5
 63
     7
 74
     1
 91
        4
 64
     7
 65
   257
 75
     1
175
     1
 42
1.0
 92
        8
 66
     7
 43
1.0
 76
     1
 77
     6
 78
     2
 67
     7
 79
     5
170
     0
171
     0
290
     0
174
     0
 93
        1
 44
50.0
173
     0
291
     1
 45
0.0
1001
ACAD
1000
AcDbSavedByObjectVersion
1070
     0
  0
VISUALSTYLE
  5
3A
102
{ACAD_REACTORS
330
2A
102
}
102
{ACAD_XDICTIONARY
360
674
102
}
330
2A
100
AcDbVisualStyle
  2
ColorChange
 70
    16
 71
     2
 72
     2
 73
     3
 90
        0
 40
-0.6
 41
-30.0
 62
     5
 63
     8
 74
     1
 91
        4
 64
     7
 65
   257
 75
     1
175
     1
 42
1.0
 92
        8
 66
     8
 43
1.0
 76
     1
 77
     6
 78
     2
 67
     7
 79
     5
170
     0
171
     0
290
     0
174
     0
 93
        1
 44
0.0
173
     0
291
     1
 45
0.0
1001
ACAD
1000
AcDbSavedByObjectVersion
1070
     0
  0
VISUALSTYLE
  5
34
102
{ACAD_REACTORS
330
2A
102
}
102
{ACAD_XDICTIONARY
360
668
102
}
330
2A
100
AcDbVisualStyle
  2
Conceptual
 70
     9
 71
     3
 72
     2
 73
     0
 90
        0
 40
-0.6
 41
-30.0
 62
     5
 63
     7
 74
     2
 91
        2
 64
     7
 65
   257
 75
     1
175
     1
 42
40.0
 92
        8
 66
     7
 43
1.0
 76
     1
 77
     6
 78
     2
 67
     7
 79
     3
170
     0
171
     0
290
     0
174
     0
 93
        1
 44
0.0
173
     0
291
     0
 45
0.0
1001
ACAD
1000
AcDbSavedByObjectVersion
1070
     0
  0
VISUALSTYLE
  5
35
102
{ACAD_REACTORS
330
2A
102
}
102
{ACAD_XDICTIONARY
360
66A
102
}
330
2A
100
AcDbVisualStyle
  2
Dim
 70
    11
 71
     2
 72
     2
 73
     0
 90
        0
 40
-0.6
 41
-30.0
 62
     5
 63
     7
 74
     1
 91
        4
 64
     7
 65
   257
 75
     1
175
     1
 42
1.0
 92
        8
 66
     7
 43
1.0
 76
     1
 77
     6
 78
     2
 67
     7
 79
     5
170
     0
171
     0
290
     0
174
     0
 93
        1
 44
-50.0
173
     0
291
     1
 45
0.0
1001
ACAD
1000
AcDbSavedByObjectVersion
1070
     0
  0
VISUALSTYLE
  5
39
102
{ACAD_REACTORS
330
2A
102
}
102
{ACAD_XDICTIONARY
360
672
102
}
330
2A
100
AcDbVisualStyle
  2
Facepattern
 70
    15
 71
     2
 72
     2
 73
     0
 90
        0
 40
-0.6
 41
-30.0
 62
     5
 63
     7
 74
     1
 91
        4
 64
     7
 65
   257
 75
     1
175
     1
 42
1.0
 92
        8
 66
     7
 43
1.0
 76
     1
 77
     6
 78
     2
 67
     7
 79
     5
170
     0
171
     0
290
     0
174
     0
 93
        1
 44
0.0
173
     0
291
     1
 45
0.0
1001
ACAD
1000
AcDbSavedByObjectVersion
1070
     0
  0
VISUALSTYLE
  5
2B
102
{ACAD_REACTORS
330
2A
102
}
102
{ACAD_XDICTIONARY
360
656
102
}
330
2A
100
AcDbVisualStyle
  2
Flat
 70
     0
 71
     2
 72
     1
 73
     1
 90
        2
 40
-0.6
 41
30.0
 62
     5
 63
     7
 74
     0
 91
        4
 64
     7
 65
   257
 75
     1
175
     1
 42
1.0
 92
        8
 66
     7
 43
1.0
 76
     1
 77
     6
 78
     2
 67
     7
 79
     5
170
     0
171
     0
290
     0
174
     0
 93
       13
 44
0.0
173
     0
291
     1
 45
0.0
1001
ACAD
1000
AcDbSavedByObjectVersion
1070
     0
  0
VISUALSTYLE
  5
2C
102
{ACAD_REACTORS
330
2A
102
}
102
{ACAD_XDICTIONARY
360
658
102
}
330
2A
100
AcDbVisualStyle
  2
FlatWithEdges
 70
     1
 71
     2
 72
     1
 73
     1
 90
        2
 40
-0.6
 41
30.0
 62
     5
 63
     7
 74
     1
 91
        4
 64
     7
 65
   257
 75
     1
175
     1
 42
1.0
 92
        0
 66
   257
 43
1.0
 76
     1
 77
     6
 78
     2
 67
     7
 79
     5
170
     0
171
     0
290
     0
174
     0
 93
       13
 44
0.0
173
     0
291
     1
 45
0.0
1001
ACAD
1000
AcDbSavedByObjectVersion
1070
     0
  0
VISUALSTYLE
  5
2D
102
{ACAD_REACTORS
330
2A
102
}
102
{ACAD_XDICTIONARY
360
65A
102
}
330
2A
100
AcDbVisualStyle
  2
Gouraud
 70
     2
 71
     2
 72
     2
 73
     1
 90
        2
 40
-0.6
 41
30.0
 62
     5
 63
     7
 74
     0
 91
        4
 64
     7
 65
   257
 75
     1
175
     1
 42
1.0
 92
        0
 66
     7
 43
1.0
 76
     1
 77
     6
 78
     2
 67
     7
 79
     5
170
     0
171
     0
290
     0
174
     0
 93
       13
 44
0.0
173
     0
291
     1
 45
0.0
1001
ACAD
1000
AcDbSavedByObjectVersion
1070
     0
  0
VISUALSTYLE
  5
2E
102
{ACAD_REACTORS
330
2A
102
}
102
{ACAD_XDICTIONARY
360
65C
102
}
330
2A
100
AcDbVisualStyle
  2
GouraudWithEdges
 70
     3
 71
     2
 72
     2
 73
     1
 90
        2
 40
-0.6
 41
30.0
 62
     5
 63
     7
 74
     1
 91
        4
 64
     7
 65
   257
 75
     1
175
     1
 42
1.0
 92
        0
 66
   257
 43
1.0
 76
     1
 77
     6
 78
     2
 67
     7
 79
     5
170
     0
171
     0
290
     0
174
     0
 93
       13
 44
0.0
173
     0
291
     1
 45
0.0
1001
ACAD
1000
AcDbSavedByObjectVersion
1070
     0
  0
VISUALSTYLE
  5
38
102
{ACAD_REACTORS
330
2A
102
}
102
{ACAD_XDICTIONARY
360
670
102
}
330
2A
100
AcDbVisualStyle
  2
Linepattern
 70
    14
 71
     2
 72
     2
 73
     0
 90
        0
 40
-0.6
 41
-30.0
 62
     5
 63
     7
 74
     1
 91
        4
 64
     7
 65
   257
 75
     7
175
     7
 42
1.0
 92
        8
 66
     7
 43
1.0
 76
     1
 77
     6
 78
     2
 67
     7
 79
     5
170
     0
171
     0
290
     0
174
     0
 93
        1
 44
0.0
173
     0
291
     1
 45
0.0
1001
ACAD
1000
AcDbSavedByObjectVersion
1070
     0
  0
VISUALSTYLE
  5
33
102
{ACAD_REACTORS
330
2A
102
}
102
{ACAD_XDICTIONARY
360
666
102
}
330
2A
100
AcDbVisualStyle
  2
Realistic
 70
     8
 71
     2
 72
     2
 73
     0
 90
        0
 40
-0.6
 41
-30.0
 62
     5
 63
     7
 74
     1
 91
        0
 64
     7
 65
   257
 75
     1
175
     1
 42
1.0
 92
        8
 66
     8
 43
1.0
 76
     1
 77
     6
 78
     2
 67
     7
 79
     5
170
     0
171
     0
290
     0
174
     0
 93
       13
 44
0.0
173
     0
291
     0
 45
0.0
1001
ACAD
1000
AcDbSavedByObjectVersion
1070
     0
  0
VISUALSTYLE
  5
37
102
{ACAD_REACTORS
330
2A
102
}
102
{ACAD_XDICTIONARY
360
66E
102
}
330
2A
100
AcDbVisualStyle
  2
Thicken
 70
    13
 71
     2
 72
     2
 73
     0
 90
        0
 40
-0.6
 41
-30.0
 62
     5
 63
     7
 74
     1
 91
        4
 64
     7
 65
   257
 75
     1
175
     1
 42
1.0
 92
       12
 66
     7
 43
1.0
 76
     1
 77
     6
 78
     2
 67
     7
 79
     5
170
     0
171
     0
290
     0
174
     0
 93
        1
 44
0.0
173
     0
291
     1
 45
0.0
1001
ACAD
1000
AcDbSavedByObjectVersion
1070
     0
  0
DICTIONARYVAR
  5
651
102
{ACAD_REACTORS
330
64D
102
}
330
64D
100
DictionaryVariables
280
     0
  1
1:1
  0
DICTIONARYVAR
  5
652
102
{ACAD_REACTORS
330
64D
102
}
330
64D
100
DictionaryVariables
280
     0
  1
2
  0
DICTIONARYVAR
  5
653
102
{ACAD_REACTORS
330
64D
102
}
330
64D
100
DictionaryVariables
280
     0
  1
1
  0
DICTIONARYVAR
  5
650
102
{ACAD_REACTORS
330
64D
102
}
330
64D
100
DictionaryVariables
280
     0
  1
0
  0
XRECORD
  5
64C
102
{ACAD_REACTORS
330
64B
102
}
330
64B
100
AcDbXrecord
280
     1
1000
This DWG file was created in ArchiCAD(TM)®
  0
SPATIAL_FILTER
  5
625
102
{ACAD_REACTORS
330
624
102
}
330
624
100
AcDbFilter
100
AcDbSpatialFilter
 70
     4
 10
277.8382424758522
 20
172.462645475756
 10
26.96641967000562
 20
172.462645475756
 10
26.96641967000562
 20
53.01315626921706
 10
277.8382424758522
 20
53.01315626921706
210
0.0
220
0.0
230
1.0
 11
0.0
 21
0.0
 31
0.0
 71
     1
 72
     0
 73
     0
 40
1.0
 40
0.0
 40
0.0
 40
0.0
 40
0.0
 40
1.0
 40
0.0
 40
0.0
 40
0.0
 40
0.0
 40
1.0
 40
0.0
 40
1.0
 40
0.0
 40
0.0
 40
0.0
 40
0.0
 40
1.0
 40
0.0
 40
0.0
 40
0.0
 40
0.0
 40
1.0
 40
0.0
  0
DICTIONARY
  5
678
330
3D
100
AcDbDictionary
280
     1
281
     1
  3
ACAD_XREC_ROUNDTRIP
360
679
  0
DICTIONARY
  5
676
330
3C
100
AcDbDictionary
280
     1
281
     1
  3
ACAD_XREC_ROUNDTRIP
360
677
  0
DICTIONARY
  5
67A
330
3E
100
AcDbDictionary
280
     1
281
     1
  3
ACAD_XREC_ROUNDTRIP
360
67B
  0
DICTIONARY
  5
65E
330
2F
100
AcDbDictionary
280
     1
281
     1
  3
ACAD_XREC_ROUNDTRIP
360
65F
  0
DICTIONARY
  5
662
330
31
100
AcDbDictionary
280
     1
281
     1
  3
ACAD_XREC_ROUNDTRIP
360
663
  0
DICTIONARY
  5
660
330
30
100
AcDbDictionary
280
     1
281
     1
  3
ACAD_XREC_ROUNDTRIP
360
661
  0
DICTIONARY
  5
664
330
32
100
AcDbDictionary
280
     1
281
     1
  3
ACAD_XREC_ROUNDTRIP
360
665
  0
DICTIONARY
  5
66C
330
36
100
AcDbDictionary
280
     1
281
     1
  3
ACAD_XREC_ROUNDTRIP
360
66D
  0
DICTIONARY
  5
674
330
3A
100
AcDbDictionary
280
     1
281
     1
  3
ACAD_XREC_ROUNDTRIP
360
675
  0
DICTIONARY
  5
668
330
34
100
AcDbDictionary
280
     1
281
     1
  3
ACAD_XREC_ROUNDTRIP
360
669
  0
DICTIONARY
  5
66A
330
35
100
AcDbDictionary
280
     1
281
     1
  3
ACAD_XREC_ROUNDTRIP
360
66B
  0
DICTIONARY
  5
672
330
39
100
AcDbDictionary
280
     1
281
     1
  3
ACAD_XREC_ROUNDTRIP
360
673
  0
DICTIONARY
  5
656
330
2B
100
AcDbDictionary
280
     1
281
     1
  3
ACAD_XREC_ROUNDTRIP
360
657
  0
DICTIONARY
  5
658
330
2C
100
AcDbDictionary
280
     1
281
     1
  3
ACAD_XREC_ROUNDTRIP
360
659
  0
DICTIONARY
  5
65A
330
2D
100
AcDbDictionary
280
     1
281
     1
  3
ACAD_XREC_ROUNDTRIP
360
65B
  0
DICTIONARY
  5
65C
330
2E
100
AcDbDictionary
280
     1
281
     1
  3
ACAD_XREC_ROUNDTRIP
360
65D
  0
DICTIONARY
  5
670
330
38
100
AcDbDictionary
280
     1
281
     1
  3
ACAD_XREC_ROUNDTRIP
360
671
  0
DICTIONARY
  5
666
330
33
100
AcDbDictionary
280
     1
281
     1
  3
ACAD_XREC_ROUNDTRIP
360
667
  0
DICTIONARY
  5
66E
330
37
100
AcDbDictionary
280
     1
281
     1
  3
ACAD_XREC_ROUNDTRIP
360
66F
  0
XRECORD
  5
679
102
{ACAD_REACTORS
330
678
102
}
330
678
100
AcDbXrecord
280
     1
102
MATERIAL
148
0.0
149
0.0
149
0.0
 93
        0
 94
      127
282
     0
 72
     1
 77
     1
171
     1
175
     1
179
     1
273
     0
  0
XRECORD
  5
677
102
{ACAD_REACTORS
330
676
102
}
330
676
100
AcDbXrecord
280
     1
102
MATERIAL
148
0.0
149
0.0
149
0.0
 93
        0
 94
      127
282
     0
 72
     1
 77
     1
171
     1
175
     1
179
     1
273
     0
  0
XRECORD
  5
67B
102
{ACAD_REACTORS
330
67A
102
}
330
67A
100
AcDbXrecord
280
     1
102
MATERIAL
148
0.0
149
0.0
149
0.0
 93
        0
 94
      127
282
     0
 72
     1
 77
     1
171
     1
175
     1
179
     1
273
     0
  0
XRECORD
  5
65F
102
{ACAD_REACTORS
330
65E
102
}
330
65E
100
AcDbXrecord
280
     1
102
RTVSPropertyOp0
 70
     1
102
RTVSPropertyOp1
 70
     1
102
RTVSPropertyOp2
 70
     1
102
RTVSPropertyOp3
 70
     1
102
RTVSPropertyOp4
 70
     1
102
RTVSPropertyOp5
 70
     1
102
RTVSPropertyOp6
 70
     1
102
RTVSPropertyOp7
 70
     1
102
RTVSPropertyOp8
 70
     1
102
RTVSPropertyOp9
 70
     1
102
RTVSPropertyOp10
 70
     1
102
RTVSPropertyOp11
 70
     1
102
RTVSPropertyOp12
 70
     1
102
RTVSPropertyOp13
 70
     1
102
RTVSPropertyOp14
 70
     1
102
RTVSPropertyOp15
 70
     1
102
RTVSPropertyOp16
 70
     1
102
RTVSPropertyOp17
 70
     1
102
RTVSPropertyOp18
 70
     1
102
RTVSPropertyOp19
 70
     1
102
RTVSPropertyOp20
 70
     1
102
RTVSPropertyOp21
 70
     1
102
RTVSPropertyOp22
 70
     1
102
RTVSPropertyOp23
 70
     1
102
RTVSPropertyOp24
 70
     1
102
RTVSPropertyOp25
 70
     1
102
RTVSPropertyOp26
 70
     1
102
RTVSPropertyOp27
 70
     1
102
RTVSPropertyOp28
 70
     1
102
RTVSPropertyOp29
 70
     1
102
RTVSPropertyOp30
 70
     1
102
RTVSPropertyOp31
 70
     1
102
RTVSPropertyOp32
 70
     1
  0
XRECORD
  5
663
102
{ACAD_REACTORS
330
662
102
}
330
662
100
AcDbXrecord
280
     1
102
RTVSPropertyOp0
 70
     1
102
RTVSPropertyOp1
 70
     1
102
RTVSPropertyOp2
 70
     1
102
RTVSPropertyOp3
 70
     1
102
RTVSPropertyOp4
 70
     1
102
RTVSPropertyOp5
 70
     1
102
RTVSPropertyOp6
 70
     1
102
RTVSPropertyOp7
 70
     1
102
RTVSPropertyOp8
 70
     1
102
RTVSPropertyOp9
 70
     1
102
RTVSPropertyOp10
 70
     1
102
RTVSPropertyOp11
 70
     1
102
RTVSPropertyOp12
 70
     1
102
RTVSPropertyOp13
 70
     1
102
RTVSPropertyOp14
 70
     1
102
RTVSPropertyOp15
 70
     1
102
RTVSPropertyOp16
 70
     1
102
RTVSPropertyOp17
 70
     1
102
RTVSPropertyOp18
 70
     1
102
RTVSPropertyOp19
 70
     1
102
RTVSPropertyOp20
 70
     1
102
RTVSPropertyOp21
 70
     1
102
RTVSPropertyOp22
 70
     1
102
RTVSPropertyOp23
 70
     1
102
RTVSPropertyOp24
 70
     1
102
RTVSPropertyOp25
 70
     1
102
RTVSPropertyOp26
 70
     1
102
RTVSPropertyOp27
 70
     1
102
RTVSPropertyOp28
 70
     1
102
RTVSPropertyOp29
 70
     1
102
RTVSPropertyOp30
 70
     1
102
RTVSPropertyOp31
 70
     1
102
RTVSPropertyOp32
 70
     1
  0
XRECORD
  5
661
102
{ACAD_REACTORS
330
660
102
}
330
660
100
AcDbXrecord
280
     1
102
RTVSPropertyOp0
 70
     1
102
RTVSPropertyOp1
 70
     1
102
RTVSPropertyOp2
 70
     1
102
RTVSPropertyOp3
 70
     1
102
RTVSPropertyOp4
 70
     1
102
RTVSPropertyOp5
 70
     1
102
RTVSPropertyOp6
 70
     1
102
RTVSPropertyOp7
 70
     1
102
RTVSPropertyOp8
 70
     1
102
RTVSPropertyOp9
 70
     1
102
RTVSPropertyOp10
 70
     1
102
RTVSPropertyOp11
 70
     1
102
RTVSPropertyOp12
 70
     1
102
RTVSPropertyOp13
 70
     1
102
RTVSPropertyOp14
 70
     1
102
RTVSPropertyOp15
 70
     1
102
RTVSPropertyOp16
 70
     1
102
RTVSPropertyOp17
 70
     1
102
RTVSPropertyOp18
 70
     1
102
RTVSPropertyOp19
 70
     1
102
RTVSPropertyOp20
 70
     1
102
RTVSPropertyOp21
 70
     1
102
RTVSPropertyOp22
 70
     1
102
RTVSPropertyOp23
 70
     1
102
RTVSPropertyOp24
 70
     1
102
RTVSPropertyOp25
 70
     1
102
RTVSPropertyOp26
 70
     1
102
RTVSPropertyOp27
 70
     1
102
RTVSPropertyOp28
 70
     1
102
RTVSPropertyOp29
 70
     1
102
RTVSPropertyOp30
 70
     1
102
RTVSPropertyOp31
 70
     1
102
RTVSPropertyOp32
 70
     1
  0
XRECORD
  5
665
102
{ACAD_REACTORS
330
664
102
}
330
664
100
AcDbXrecord
280
     1
102
RTVSPropertyOp0
 70
     1
102
RTVSPropertyOp1
 70
     1
102
RTVSPropertyOp2
 70
     1
102
RTVSPropertyOp3
 70
     1
102
RTVSPropertyOp4
 70
     1
102
RTVSPropertyOp5
 70
     1
102
RTVSPropertyOp6
 70
     1
102
RTVSPropertyOp7
 70
     1
102
RTVSPropertyOp8
 70
     1
102
RTVSPropertyOp9
 70
     1
102
RTVSPropertyOp10
 70
     1
102
RTVSPropertyOp11
 70
     1
102
RTVSPropertyOp12
 70
     1
102
RTVSPropertyOp13
 70
     1
102
RTVSPropertyOp14
 70
     1
102
RTVSPropertyOp15
 70
     1
102
RTVSPropertyOp16
 70
     1
102
RTVSPropertyOp17
 70
     1
102
RTVSPropertyOp18
 70
     1
102
RTVSPropertyOp19
 70
     1
102
RTVSPropertyOp20
 70
     1
102
RTVSPropertyOp21
 70
     1
102
RTVSPropertyOp22
 70
     1
102
RTVSPropertyOp23
 70
     1
102
RTVSPropertyOp24
 70
     1
102
RTVSPropertyOp25
 70
     1
102
RTVSPropertyOp26
 70
     1
102
RTVSPropertyOp27
 70
     1
102
RTVSPropertyOp28
 70
     1
102
RTVSPropertyOp29
 70
     1
102
RTVSPropertyOp30
 70
     1
102
RTVSPropertyOp31
 70
     1
102
RTVSPropertyOp32
 70
     1
  0
XRECORD
  5
66D
102
{ACAD_REACTORS
330
66C
102
}
330
66C
100
AcDbXrecord
280
     1
102
RTVSPropertyOp0
 70
     1
102
RTVSPropertyOp1
 70
     1
102
RTVSPropertyOp2
 70
     1
102
RTVSPropertyOp3
 70
     1
102
RTVSPropertyOp4
 70
     1
102
RTVSPropertyOp5
 70
     1
102
RTVSPropertyOp6
 70
     1
102
RTVSPropertyOp7
 70
     1
102
RTVSPropertyOp8
 70
     1
102
RTVSPropertyOp9
 70
     1
102
RTVSPropertyOp10
 70
     1
102
RTVSPropertyOp11
 70
     1
102
RTVSPropertyOp12
 70
     1
102
RTVSPropertyOp13
 70
     1
102
RTVSPropertyOp14
 70
     1
102
RTVSPropertyOp15
 70
     1
102
RTVSPropertyOp16
 70
     1
102
RTVSPropertyOp17
 70
     1
102
RTVSPropertyOp18
 70
     1
102
RTVSPropertyOp19
 70
     1
102
RTVSPropertyOp20
 70
     1
102
RTVSPropertyOp21
 70
     1
102
RTVSPropertyOp22
 70
     1
102
RTVSPropertyOp23
 70
     1
102
RTVSPropertyOp24
 70
     1
102
RTVSPropertyOp25
 70
     1
102
RTVSPropertyOp26
 70
     1
102
RTVSPropertyOp27
 70
     1
102
RTVSPropertyOp28
 70
     1
102
RTVSPropertyOp29
 70
     1
102
RTVSPropertyOp30
 70
     1
102
RTVSPropertyOp31
 70
     1
102
RTVSPropertyOp32
 70
     1
  0
XRECORD
  5
675
102
{ACAD_REACTORS
330
674
102
}
330
674
100
AcDbXrecord
280
     1
102
RTVSPropertyOp0
 70
     1
102
RTVSPropertyOp1
 70
     1
102
RTVSPropertyOp2
 70
     1
102
RTVSPropertyOp3
 70
     1
102
RTVSPropertyOp4
 70
     1
102
RTVSPropertyOp5
 70
     1
102
RTVSPropertyOp6
 70
     1
102
RTVSPropertyOp7
 70
     1
102
RTVSPropertyOp8
 70
     1
102
RTVSPropertyOp9
 70
     1
102
RTVSPropertyOp10
 70
     1
102
RTVSPropertyOp11
 70
     1
102
RTVSPropertyOp12
 70
     1
102
RTVSPropertyOp13
 70
     1
102
RTVSPropertyOp14
 70
     1
102
RTVSPropertyOp15
 70
     1
102
RTVSPropertyOp16
 70
     1
102
RTVSPropertyOp17
 70
     1
102
RTVSPropertyOp18
 70
     1
102
RTVSPropertyOp19
 70
     1
102
RTVSPropertyOp20
 70
     1
102
RTVSPropertyOp21
 70
     1
102
RTVSPropertyOp22
 70
     1
102
RTVSPropertyOp23
 70
     1
102
RTVSPropertyOp24
 70
     1
102
RTVSPropertyOp25
 70
     1
102
RTVSPropertyOp26
 70
     1
102
RTVSPropertyOp27
 70
     1
102
RTVSPropertyOp28
 70
     1
102
RTVSPropertyOp29
 70
     1
102
RTVSPropertyOp30
 70
     1
102
RTVSPropertyOp31
 70
     1
102
RTVSPropertyOp32
 70
     1
  0
XRECORD
  5
669
102
{ACAD_REACTORS
330
668
102
}
330
668
100
AcDbXrecord
280
     1
102
RTVSPropertyOp0
 70
     1
102
RTVSPropertyOp1
 70
     1
102
RTVSPropertyOp2
 70
     1
102
RTVSPropertyOp3
 70
     1
102
RTVSPropertyOp4
 70
     1
102
RTVSPropertyOp5
 70
     1
102
RTVSPropertyOp6
 70
     1
102
RTVSPropertyOp7
 70
     1
102
RTVSPropertyOp8
 70
     1
102
RTVSPropertyOp9
 70
     1
102
RTVSPropertyOp10
 70
     1
102
RTVSPropertyOp11
 70
     1
102
RTVSPropertyOp12
 70
     1
102
RTVSPropertyOp13
 70
     1
102
RTVSPropertyOp14
 70
     1
102
RTVSPropertyOp15
 70
     1
102
RTVSPropertyOp16
 70
     1
102
RTVSPropertyOp17
 70
     1
102
RTVSPropertyOp18
 70
     1
102
RTVSPropertyOp19
 70
     1
102
RTVSPropertyOp20
 70
     1
102
RTVSPropertyOp21
 70
     1
102
RTVSPropertyOp22
 70
     1
102
RTVSPropertyOp23
 70
     1
102
RTVSPropertyOp24
 70
     1
102
RTVSPropertyOp25
 70
     1
102
RTVSPropertyOp26
 70
     1
102
RTVSPropertyOp27
 70
     1
102
RTVSPropertyOp28
 70
     1
102
RTVSPropertyOp29
 70
     1
102
RTVSPropertyOp30
 70
     1
102
RTVSPropertyOp31
 70
     1
102
RTVSPropertyOp32
 70
     1
  0
XRECORD
  5
66B
102
{ACAD_REACTORS
330
66A
102
}
330
66A
100
AcDbXrecord
280
     1
102
RTVSPropertyOp0
 70
     1
102
RTVSPropertyOp1
 70
     1
102
RTVSPropertyOp2
 70
     1
102
RTVSPropertyOp3
 70
     1
102
RTVSPropertyOp4
 70
     1
102
RTVSPropertyOp5
 70
     1
102
RTVSPropertyOp6
 70
     1
102
RTVSPropertyOp7
 70
     1
102
RTVSPropertyOp8
 70
     1
102
RTVSPropertyOp9
 70
     1
102
RTVSPropertyOp10
 70
     1
102
RTVSPropertyOp11
 70
     1
102
RTVSPropertyOp12
 70
     1
102
RTVSPropertyOp13
 70
     1
102
RTVSPropertyOp14
 70
     1
102
RTVSPropertyOp15
 70
     1
102
RTVSPropertyOp16
 70
     1
102
RTVSPropertyOp17
 70
     1
102
RTVSPropertyOp18
 70
     1
102
RTVSPropertyOp19
 70
     1
102
RTVSPropertyOp20
 70
     1
102
RTVSPropertyOp21
 70
     1
102
RTVSPropertyOp22
 70
     1
102
RTVSPropertyOp23
 70
     1
102
RTVSPropertyOp24
 70
     1
102
RTVSPropertyOp25
 70
     1
102
RTVSPropertyOp26
 70
     1
102
RTVSPropertyOp27
 70
     1
102
RTVSPropertyOp28
 70
     1
102
RTVSPropertyOp29
 70
     1
102
RTVSPropertyOp30
 70
     1
102
RTVSPropertyOp31
 70
     1
102
RTVSPropertyOp32
 70
     1
  0
XRECORD
  5
673
102
{ACAD_REACTORS
330
672
102
}
330
672
100
AcDbXrecord
280
     1
102
RTVSPropertyOp0
 70
     1
102
RTVSPropertyOp1
 70
     1
102
RTVSPropertyOp2
 70
     1
102
RTVSPropertyOp3
 70
     1
102
RTVSPropertyOp4
 70
     1
102
RTVSPropertyOp5
 70
     1
102
RTVSPropertyOp6
 70
     1
102
RTVSPropertyOp7
 70
     1
102
RTVSPropertyOp8
 70
     1
102
RTVSPropertyOp9
 70
     1
102
RTVSPropertyOp10
 70
     1
102
RTVSPropertyOp11
 70
     1
102
RTVSPropertyOp12
 70
     1
102
RTVSPropertyOp13
 70
     1
102
RTVSPropertyOp14
 70
     1
102
RTVSPropertyOp15
 70
     1
102
RTVSPropertyOp16
 70
     1
102
RTVSPropertyOp17
 70
     1
102
RTVSPropertyOp18
 70
     1
102
RTVSPropertyOp19
 70
     1
102
RTVSPropertyOp20
 70
     1
102
RTVSPropertyOp21
 70
     1
102
RTVSPropertyOp22
 70
     1
102
RTVSPropertyOp23
 70
     1
102
RTVSPropertyOp24
 70
     1
102
RTVSPropertyOp25
 70
     1
102
RTVSPropertyOp26
 70
     1
102
RTVSPropertyOp27
 70
     1
102
RTVSPropertyOp28
 70
     1
102
RTVSPropertyOp29
 70
     1
102
RTVSPropertyOp30
 70
     1
102
RTVSPropertyOp31
 70
     1
102
RTVSPropertyOp32
 70
     1
  0
XRECORD
  5
657
102
{ACAD_REACTORS
330
656
102
}
330
656
100
AcDbXrecord
280
     1
102
RTVSPropertyOp0
 70
     1
102
RTVSPropertyOp1
 70
     1
102
RTVSPropertyOp2
 70
     1
102
RTVSPropertyOp3
 70
     1
102
RTVSPropertyOp4
 70
     1
102
RTVSPropertyOp5
 70
     1
102
RTVSPropertyOp6
 70
     1
102
RTVSPropertyOp7
 70
     1
102
RTVSPropertyOp8
 70
     1
102
RTVSPropertyOp9
 70
     1
102
RTVSPropertyOp10
 70
     1
102
RTVSPropertyOp11
 70
     1
102
RTVSPropertyOp12
 70
     1
102
RTVSPropertyOp13
 70
     1
102
RTVSPropertyOp14
 70
     1
102
RTVSPropertyOp15
 70
     1
102
RTVSPropertyOp16
 70
     1
102
RTVSPropertyOp17
 70
     1
102
RTVSPropertyOp18
 70
     1
102
RTVSPropertyOp19
 70
     1
102
RTVSPropertyOp20
 70
     1
102
RTVSPropertyOp21
 70
     1
102
RTVSPropertyOp22
 70
     1
102
RTVSPropertyOp23
 70
     1
102
RTVSPropertyOp24
 70
     1
102
RTVSPropertyOp25
 70
     1
102
RTVSPropertyOp26
 70
     1
102
RTVSPropertyOp27
 70
     1
102
RTVSPropertyOp28
 70
     1
102
RTVSPropertyOp29
 70
     1
102
RTVSPropertyOp30
 70
     1
102
RTVSPropertyOp31
 70
     1
102
RTVSPropertyOp32
 70
     1
  0
XRECORD
  5
659
102
{ACAD_REACTORS
330
658
102
}
330
658
100
AcDbXrecord
280
     1
102
RTVSPropertyOp0
 70
     1
102
RTVSPropertyOp1
 70
     1
102
RTVSPropertyOp2
 70
     1
102
RTVSPropertyOp3
 70
     1
102
RTVSPropertyOp4
 70
     1
102
RTVSPropertyOp5
 70
     1
102
RTVSPropertyOp6
 70
     1
102
RTVSPropertyOp7
 70
     1
102
RTVSPropertyOp8
 70
     1
102
RTVSPropertyOp9
 70
     1
102
RTVSPropertyOp10
 70
     1
102
RTVSPropertyOp11
 70
     1
102
RTVSPropertyOp12
 70
     1
102
RTVSPropertyOp13
 70
     1
102
RTVSPropertyOp14
 70
     1
102
RTVSPropertyOp15
 70
     1
102
RTVSPropertyOp16
 70
     1
102
RTVSPropertyOp17
 70
     1
102
RTVSPropertyOp18
 70
     1
102
RTVSPropertyOp19
 70
     1
102
RTVSPropertyOp20
 70
     1
102
RTVSPropertyOp21
 70
     1
102
RTVSPropertyOp22
 70
     1
102
RTVSPropertyOp23
 70
     1
102
RTVSPropertyOp24
 70
     1
102
RTVSPropertyOp25
 70
     1
102
RTVSPropertyOp26
 70
     1
102
RTVSPropertyOp27
 70
     1
102
RTVSPropertyOp28
 70
     1
102
RTVSPropertyOp29
 70
     1
102
RTVSPropertyOp30
 70
     1
102
RTVSPropertyOp31
 70
     1
102
RTVSPropertyOp32
 70
     1
  0
XRECORD
  5
65B
102
{ACAD_REACTORS
330
65A
102
}
330
65A
100
AcDbXrecord
280
     1
102
RTVSPropertyOp0
 70
     1
102
RTVSPropertyOp1
 70
     1
102
RTVSPropertyOp2
 70
     1
102
RTVSPropertyOp3
 70
     1
102
RTVSPropertyOp4
 70
     1
102
RTVSPropertyOp5
 70
     1
102
RTVSPropertyOp6
 70
     1
102
RTVSPropertyOp7
 70
     1
102
RTVSPropertyOp8
 70
     1
102
RTVSPropertyOp9
 70
     1
102
RTVSPropertyOp10
 70
     1
102
RTVSPropertyOp11
 70
     1
102
RTVSPropertyOp12
 70
     1
102
RTVSPropertyOp13
 70
     1
102
RTVSPropertyOp14
 70
     1
102
RTVSPropertyOp15
 70
     1
102
RTVSPropertyOp16
 70
     1
102
RTVSPropertyOp17
 70
     1
102
RTVSPropertyOp18
 70
     1
102
RTVSPropertyOp19
 70
     1
102
RTVSPropertyOp20
 70
     1
102
RTVSPropertyOp21
 70
     1
102
RTVSPropertyOp22
 70
     1
102
RTVSPropertyOp23
 70
     1
102
RTVSPropertyOp24
 70
     1
102
RTVSPropertyOp25
 70
     1
102
RTVSPropertyOp26
 70
     1
102
RTVSPropertyOp27
 70
     1
102
RTVSPropertyOp28
 70
     1
102
RTVSPropertyOp29
 70
     1
102
RTVSPropertyOp30
 70
     1
102
RTVSPropertyOp31
 70
     1
102
RTVSPropertyOp32
 70
     1
  0
XRECORD
  5
65D
102
{ACAD_REACTORS
330
65C
102
}
330
65C
100
AcDbXrecord
280
     1
102
RTVSPropertyOp0
 70
     1
102
RTVSPropertyOp1
 70
     1
102
RTVSPropertyOp2
 70
     1
102
RTVSPropertyOp3
 70
     1
102
RTVSPropertyOp4
 70
     1
102
RTVSPropertyOp5
 70
     1
102
RTVSPropertyOp6
 70
     1
102
RTVSPropertyOp7
 70
     1
102
RTVSPropertyOp8
 70
     1
102
RTVSPropertyOp9
 70
     1
102
RTVSPropertyOp10
 70
     1
102
RTVSPropertyOp11
 70
     1
102
RTVSPropertyOp12
 70
     1
102
RTVSPropertyOp13
 70
     1
102
RTVSPropertyOp14
 70
     1
102
RTVSPropertyOp15
 70
     1
102
RTVSPropertyOp16
 70
     1
102
RTVSPropertyOp17
 70
     1
102
RTVSPropertyOp18
 70
     1
102
RTVSPropertyOp19
 70
     1
102
RTVSPropertyOp20
 70
     1
102
RTVSPropertyOp21
 70
     1
102
RTVSPropertyOp22
 70
     1
102
RTVSPropertyOp23
 70
     1
102
RTVSPropertyOp24
 70
     1
102
RTVSPropertyOp25
 70
     1
102
RTVSPropertyOp26
 70
     1
102
RTVSPropertyOp27
 70
     1
102
RTVSPropertyOp28
 70
     1
102
RTVSPropertyOp29
 70
     1
102
RTVSPropertyOp30
 70
     1
102
RTVSPropertyOp31
 70
     1
102
RTVSPropertyOp32
 70
     1
  0
XRECORD
  5
671
102
{ACAD_REACTORS
330
670
102
}
330
670
100
AcDbXrecord
280
     1
102
RTVSPropertyOp0
 70
     1
102
RTVSPropertyOp1
 70
     1
102
RTVSPropertyOp2
 70
     1
102
RTVSPropertyOp3
 70
     1
102
RTVSPropertyOp4
 70
     1
102
RTVSPropertyOp5
 70
     1
102
RTVSPropertyOp6
 70
     1
102
RTVSPropertyOp7
 70
     1
102
RTVSPropertyOp8
 70
     1
102
RTVSPropertyOp9
 70
     1
102
RTVSPropertyOp10
 70
     1
102
RTVSPropertyOp11
 70
     1
102
RTVSPropertyOp12
 70
     1
102
RTVSPropertyOp13
 70
     1
102
RTVSPropertyOp14
 70
     1
102
RTVSPropertyOp15
 70
     1
102
RTVSPropertyOp16
 70
     1
102
RTVSPropertyOp17
 70
     1
102
RTVSPropertyOp18
 70
     1
102
RTVSPropertyOp19
 70
     1
102
RTVSPropertyOp20
 70
     1
102
RTVSPropertyOp21
 70
     1
102
RTVSPropertyOp22
 70
     1
102
RTVSPropertyOp23
 70
     1
102
RTVSPropertyOp24
 70
     1
102
RTVSPropertyOp25
 70
     1
102
RTVSPropertyOp26
 70
     1
102
RTVSPropertyOp27
 70
     1
102
RTVSPropertyOp28
 70
     1
102
RTVSPropertyOp29
 70
     1
102
RTVSPropertyOp30
 70
     1
102
RTVSPropertyOp31
 70
     1
102
RTVSPropertyOp32
 70
     1
  0
XRECORD
  5
667
102
{ACAD_REACTORS
330
666
102
}
330
666
100
AcDbXrecord
280
     1
102
RTVSPropertyOp0
 70
     1
102
RTVSPropertyOp1
 70
     1
102
RTVSPropertyOp2
 70
     1
102
RTVSPropertyOp3
 70
     1
102
RTVSPropertyOp4
 70
     1
102
RTVSPropertyOp5
 70
     1
102
RTVSPropertyOp6
 70
     1
102
RTVSPropertyOp7
 70
     1
102
RTVSPropertyOp8
 70
     1
102
RTVSPropertyOp9
 70
     1
102
RTVSPropertyOp10
 70
     1
102
RTVSPropertyOp11
 70
     1
102
RTVSPropertyOp12
 70
     1
102
RTVSPropertyOp13
 70
     1
102
RTVSPropertyOp14
 70
     1
102
RTVSPropertyOp15
 70
     1
102
RTVSPropertyOp16
 70
     1
102
RTVSPropertyOp17
 70
     1
102
RTVSPropertyOp18
 70
     1
102
RTVSPropertyOp19
 70
     1
102
RTVSPropertyOp20
 70
     1
102
RTVSPropertyOp21
 70
     1
102
RTVSPropertyOp22
 70
     1
102
RTVSPropertyOp23
 70
     1
102
RTVSPropertyOp24
 70
     1
102
RTVSPropertyOp25
 70
     1
102
RTVSPropertyOp26
 70
     1
102
RTVSPropertyOp27
 70
     1
102
RTVSPropertyOp28
 70
     1
102
RTVSPropertyOp29
 70
     1
102
RTVSPropertyOp30
 70
     1
102
RTVSPropertyOp31
 70
     1
102
RTVSPropertyOp32
 70
     1
  0
XRECORD
  5
66F
102
{ACAD_REACTORS
330
66E
102
}
330
66E
100
AcDbXrecord
280
     1
102
RTVSPropertyOp0
 70
     1
102
RTVSPropertyOp1
 70
     1
102
RTVSPropertyOp2
 70
     1
102
RTVSPropertyOp3
 70
     1
102
RTVSPropertyOp4
 70
     1
102
RTVSPropertyOp5
 70
     1
102
RTVSPropertyOp6
 70
     1
102
RTVSPropertyOp7
 70
     1
102
RTVSPropertyOp8
 70
     1
102
RTVSPropertyOp9
 70
     1
102
RTVSPropertyOp10
 70
     1
102
RTVSPropertyOp11
 70
     1
102
RTVSPropertyOp12
 70
     1
102
RTVSPropertyOp13
 70
     1
102
RTVSPropertyOp14
 70
     1
102
RTVSPropertyOp15
 70
     1
102
RTVSPropertyOp16
 70
     1
102
RTVSPropertyOp17
 70
     1
102
RTVSPropertyOp18
 70
     1
102
RTVSPropertyOp19
 70
     1
102
RTVSPropertyOp20
 70
     1
102
RTVSPropertyOp21
 70
     1
102
RTVSPropertyOp22
 70
     1
102
RTVSPropertyOp23
 70
     1
102
RTVSPropertyOp24
 70
     1
102
RTVSPropertyOp25
 70
     1
102
RTVSPropertyOp26
 70
     1
102
RTVSPropertyOp27
 70
     1
102
RTVSPropertyOp28
 70
     1
102
RTVSPropertyOp29
 70
     1
102
RTVSPropertyOp30
 70
     1
102
RTVSPropertyOp31
 70
     1
102
RTVSPropertyOp32
 70
     1
  0
ENDSEC
  0
EOF
