  0
SECTION
  2
HEADER
  9
$ACADVER
  1
AC1015
  9
$ACADMAINTVER
 70
     6
  9
$DWGCODEPAGE
  3
ANSI_949
  9
$INSBASE
 10
0.0
 20
0.0
 30
0.0
  9
$EXTMIN
 10
1.000000000000000E+20
 20
1.000000000000000E+20
 30
1.000000000000000E+20
  9
$EXTMAX
 10
-1.000000000000000E+20
 20
-1.000000000000000E+20
 30
-1.000000000000000E+20
  9
$LIMMIN
 10
0.0
 20
0.0
  9
$LIMMAX
 10
12.0
 20
9.0
  9
$ORTHOMODE
 70
     0
  9
$REGENMODE
 70
     1
  9
$FILLMODE
 70
     1
  9
$QTEXTMODE
 70
     0
  9
$MIRRTEXT
 70
     1
  9
$LTSCALE
 40
1.0
  9
$ATTMODE
 70
     1
  9
$TEXTSIZE
 40
0.2
  9
$TRACEWID
 40
0.05
  9
$TEXTSTYLE
  7
Standard
  9
$CLAYER
  8
0
  9
$CELTYPE
  6
ByLayer
  9
$CECOLOR
 62
   256
  9
$CELTSCALE
 40
1.0
  9
$DISPSILH
 70
     0
  9
$DIMSCALE
 40
1.0
  9
$DIMASZ
 40
0.18
  9
$DIMEXO
 40
0.0625
  9
$DIMDLI
 40
0.38
  9
$DIMRND
 40
0.0
  9
$DIMDLE
 40
0.0
  9
$DIMEXE
 40
0.18
  9
$DIMTP
 40
0.0
  9
$DIMTM
 40
0.0
  9
$DIMTXT
 40
0.18
  9
$DIMCEN
 40
0.09
  9
$DIMTSZ
 40
0.0
  9
$DIMTOL
 70
     0
  9
$DIMLIM
 70
     0
  9
$DIMTIH
 70
     1
  9
$DIMTOH
 70
     1
  9
$DIMSE1
 70
     0
  9
$DIMSE2
 70
     0
  9
$DIMTAD
 70
     0
  9
$DIMZIN
 70
     0
  9
$DIMBLK
  1

  9
$DIMASO
 70
     1
  9
$DIMSHO
 70
     1
  9
$DIMPOST
  1

  9
$DIMAPOST
  1

  9
$DIMALT
 70
     0
  9
$DIMALTD
 70
     2
  9
$DIMALTF
 40
25.4
  9
$DIMLFAC
 40
1.0
  9
$DIMTOFL
 70
     0
  9
$DIMTVP
 40
0.0
  9
$DIMTIX
 70
     0
  9
$DIMSOXD
 70
     0
  9
$DIMSAH
 70
     0
  9
$DIMBLK1
  1

  9
$DIMBLK2
  1

  9
$DIMSTYLE
  2
Standard
  9
$DIMCLRD
 70
     0
  9
$DIMCLRE
 70
     0
  9
$DIMCLRT
 70
     0
  9
$DIMTFAC
 40
1.0
  9
$DIMGAP
 40
0.09
  9
$DIMJUST
 70
     0
  9
$DIMSD1
 70
     0
  9
$DIMSD2
 70
     0
  9
$DIMTOLJ
 70
     1
  9
$DIMTZIN
 70
     0
  9
$DIMALTZ
 70
     0
  9
$DIMALTTZ
 70
     0
  9
$DIMUPT
 70
     0
  9
$DIMDEC
 70
     4
  9
$DIMTDEC
 70
     4
  9
$DIMALTU
 70
     2
  9
$DIMALTTD
 70
     2
  9
$DIMTXSTY
  7
Standard
  9
$DIMAUNIT
 70
     0
  9
$DIMADEC
 70
     0
  9
$DIMALTRND
 40
0.0
  9
$DIMAZIN
 70
     0
  9
$DIMDSEP
 70
    46
  9
$DIMATFIT
 70
     3
  9
$DIMFRAC
 70
     0
  9
$DIMLDRBLK
  1

  9
$DIMLUNIT
 70
     2
  9
$DIMLWD
 70
    -2
  9
$DIMLWE
 70
    -2
  9
$DIMTMOVE
 70
     0
  9
$LUNITS
 70
     2
  9
$LUPREC
 70
     4
  9
$SKETCHINC
 40
0.1
  9
$FILLETRAD
 40
0.5
  9
$AUNITS
 70
     0
  9
$AUPREC
 70
     0
  9
$MENU
  1
.
  9
$ELEVATION
 40
0.0
  9
$PELEVATION
 40
0.0
  9
$THICKNESS
 40
0.0
  9
$LIMCHECK
 70
     0
  9
$CHAMFERA
 40
0.5
  9
$CHAMFERB
 40
0.5
  9
$CHAMFERC
 40
1.0
  9
$CHAMFERD
 40
0.0
  9
$SKPOLY
 70
     0
  9
$TDCREATE
 40
2456522.583764224
  9
$TDUCREATE
 40
2456522.083764224
  9
$TDUPDATE
 40
2456522.583794259
  9
$TDUUPDATE
 40
2456522.083794259
  9
$TDINDWG
 40
0.0000000116
  9
$TDUSRTIMER
 40
0.0000000116
  9
$USRTIMER
 70
     1
  9
$ANGBASE
 50
0.0
  9
$ANGDIR
 70
     0
  9
$PDMODE
 70
     0
  9
$PDSIZE
 40
0.0
  9
$PLINEWID
 40
0.0
  9
$SPLFRAME
 70
     0
  9
$SPLINETYPE
 70
     6
  9
$SPLINESEGS
 70
     8
  9
$HANDSEED
  5
687
  9
$SURFTAB1
 70
     6
  9
$SURFTAB2
 70
     6
  9
$SURFTYPE
 70
     6
  9
$SURFU
 70
     6
  9
$SURFV
 70
     6
  9
$UCSBASE
  2

  9
$UCSNAME
  2

  9
$UCSORG
 10
0.0
 20
0.0
 30
0.0
  9
$UCSXDIR
 10
1.0
 20
0.0
 30
0.0
  9
$UCSYDIR
 10
0.0
 20
1.0
 30
0.0
  9
$UCSORTHOREF
  2

  9
$UCSORTHOVIEW
 70
     0
  9
$UCSORGTOP
 10
0.0
 20
0.0
 30
0.0
  9
$UCSORGBOTTOM
 10
0.0
 20
0.0
 30
0.0
  9
$UCSORGLEFT
 10
0.0
 20
0.0
 30
0.0
  9
$UCSORGRIGHT
 10
0.0
 20
0.0
 30
0.0
  9
$UCSORGFRONT
 10
0.0
 20
0.0
 30
0.0
  9
$UCSORGBACK
 10
0.0
 20
0.0
 30
0.0
  9
$PUCSBASE
  2

  9
$PUCSNAME
  2

  9
$PUCSORG
 10
0.0
 20
0.0
 30
0.0
  9
$PUCSXDIR
 10
1.0
 20
0.0
 30
0.0
  9
$PUCSYDIR
 10
0.0
 20
1.0
 30
0.0
  9
$PUCSORTHOREF
  2

  9
$PUCSORTHOVIEW
 70
     0
  9
$PUCSORGTOP
 10
0.0
 20
0.0
 30
0.0
  9
$PUCSORGBOTTOM
 10
0.0
 20
0.0
 30
0.0
  9
$PUCSORGLEFT
 10
0.0
 20
0.0
 30
0.0
  9
$PUCSORGRIGHT
 10
0.0
 20
0.0
 30
0.0
  9
$PUCSORGFRONT
 10
0.0
 20
0.0
 30
0.0
  9
$PUCSORGBACK
 10
0.0
 20
0.0
 30
0.0
  9
$USERI1
 70
     0
  9
$USERI2
 70
     0
  9
$USERI3
 70
     0
  9
$USERI4
 70
     0
  9
$USERI5
 70
     0
  9
$USERR1
 40
0.0
  9
$USERR2
 40
0.0
  9
$USERR3
 40
0.0
  9
$USERR4
 40
0.0
  9
$USERR5
 40
0.0
  9
$WORLDVIEW
 70
     1
  9
$SHADEDGE
 70
     3
  9
$SHADEDIF
 70
    70
  9
$TILEMODE
 70
     1
  9
$MAXACTVP
 70
    64
  9
$PINSBASE
 10
0.0
 20
0.0
 30
0.0
  9
$PLIMCHECK
 70
     0
  9
$PEXTMIN
 10
1.000000000000000E+20
 20
1.000000000000000E+20
 30
1.000000000000000E+20
  9
$PEXTMAX
 10
-1.000000000000000E+20
 20
-1.000000000000000E+20
 30
-1.000000000000000E+20
  9
$PLIMMIN
 10
0.0
 20
0.0
  9
$PLIMMAX
 10
12.0
 20
9.0
  9
$UNITMODE
 70
     0
  9
$VISRETAIN
 70
     1
  9
$PLINEGEN
 70
     0
  9
$PSLTSCALE
 70
     1
  9
$TREEDEPTH
 70
  3020
  9
$CMLSTYLE
  2
Standard
  9
$CMLJUST
 70
     0
  9
$CMLSCALE
 40
1.0
  9
$PROXYGRAPHICS
 70
     1
  9
$MEASUREMENT
 70
     0
  9
$CELWEIGHT
370
    -1
  9
$ENDCAPS
280
     0
  9
$JOINSTYLE
280
     0
  9
$LWDISPLAY
290
     1
  9
$INSUNITS
 70
     4
  9
$HYPERLINKBASE
  1

  9
$STYLESHEET
  1

  9
$XEDIT
290
     1
  9
$CEPSNTYPE
380
     0
  9
$PSTYLEMODE
290
     1
  9
$FINGERPRINTGUID
  2
{8AA8D877-C649-4567-A505-AAF828587314}
  9
$VERSIONGUID
  2
{FAEB1C32-E019-11D5-929B-00C0DF256EC4}
  9
$EXTNAMES
290
     1
  9
$PSVPSCALE
 40
0.0
  9
$OLESTARTUP
290
     0
  0
ENDSEC
  0
SECTION
  2
CLASSES
  0
CLASS
  1
ACDBDICTIONARYWDFLT
  2
AcDbDictionaryWithDefault
  3
ObjectDBX Classes
 90
        0
280
     0
281
     0
  0
CLASS
  1
VISUALSTYLE
  2
AcDbVisualStyle
  3
ObjectDBX Classes
 90
     4095
280
     0
281
     0
  0
CLASS
  1
MATERIAL
  2
AcDbMaterial
  3
ObjectDBX Classes
 90
     1153
280
     0
281
     0
  0
CLASS
  1
SPATIAL_FILTER
  2
AcDbSpatialFilter
  3
ObjectDBX Classes
 90
        0
280
     0
281
     0
  0
CLASS
  1
SCALE
  2
AcDbScale
  3
ObjectDBX Classes
 90
     1153
280
     0
281
     0
  0
CLASS
  1
DICTIONARYVAR
  2
AcDbDictionaryVar
  3
ObjectDBX Classes
 90
        0
280
     0
281
     0
  0
CLASS
  1
ACDBPLACEHOLDER
  2
AcDbPlaceHolder
  3
ObjectDBX Classes
 90
        0
280
     0
281
     0
  0
CLASS
  1
LAYOUT
  2
AcDbLayout
  3
ObjectDBX Classes
 90
        0
280
     0
281
     0
  0
ENDSEC
  0
SECTION
  2
TABLES
  0
TABLE
  2
VPORT
  5
8
330
0
100
AcDbSymbolTable
 70
     1
  0
VPORT
  5
29
330
8
100
AcDbSymbolTableRecord
100
AcDbViewportTableRecord
  2
*Active
 70
     0
 10
0.0
 20
0.0
 11
1.0
 21
1.0
 12
148.6203422501967
 22
97.01054600287482
 13
0.0
 23
0.0
 14
0.5
 24
0.5
 15
0.5
 25
0.5
 16
0.0
 26
0.0
 36
1.0
 17
0.0
 27
0.0
 37
0.0
 40
193.7666017324761
 41
1.490997388632183
 42
50.0
 43
0.0
 44
0.0
 50
0.0
 51
0.0
 71
     0
 72
   100
 73
     1
 74
     3
 75
     0
 76
     0
 77
     0
 78
     0
281
     0
 65
     1
110
0.0
120
0.0
130
0.0
111
1.0
121
0.0
131
0.0
112
0.0
122
1.0
132
0.0
 79
     0
146
0.0
  0
ENDTAB
  0
TABLE
  2
LTYPE
  5
5
330
0
100
AcDbSymbolTable
 70
     2
  0
LTYPE
  5
14
330
5
100
AcDbSymbolTableRecord
100
AcDbLinetypeTableRecord
  2
ByBlock
 70
     0
  3

 72
    65
 73
     0
 40
0.0
  0
LTYPE
  5
15
330
5
100
AcDbSymbolTableRecord
100
AcDbLinetypeTableRecord
  2
ByLayer
 70
     0
  3

 72
    65
 73
     0
 40
0.0
  0
LTYPE
  5
16
330
5
100
AcDbSymbolTableRecord
100
AcDbLinetypeTableRecord
  2
Continuous
 70
     0
  3
Solid line
 72
    65
 73
     0
 40
0.0
  0
LTYPE
  5
11E
330
5
100
AcDbSymbolTableRecord
100
AcDbLinetypeTableRecord
  2
Dashed
 70
     0
  3
- - - - - 
 72
    65
 73
     2
 40
5.644444465637207
 49
2.822222232818604
 74
     0
 49
-2.822222232818603
 74
     0
  0
ENDTAB
  0
TABLE
  2
LAYER
  5
2
330
0
100
AcDbSymbolTable
 70
     3
  0
LAYER
  5
10
330
2
100
AcDbSymbolTableRecord
100
AcDbLayerTableRecord
  2
0
 70
     0
 62
     7
  6
Continuous
370
    -3
390
F
  0
LAYER
  5
40
330
2
100
AcDbSymbolTableRecord
100
AcDbLayerTableRecord
  2
Doc_ Finishes
 70
     0
 62
     7
  6
Continuous
370
    -3
390
F
  0
LAYER
  5
DB
330
2
100
AcDbSymbolTableRecord
100
AcDbLayerTableRecord
  2
Doc_ Floor
 70
     0
 62
     7
  6
Continuous
370
    -3
390
F
  0
ENDTAB
  0
TABLE
  2
STYLE
  5
3
330
0
100
AcDbSymbolTable
 70
     4
  0
STYLE
  5
11
330
3
100
AcDbSymbolTableRecord
100
AcDbTextStyleTableRecord
  2
Standard
 70
     0
 40
0.0
 41
1.0
 50
0.0
 71
     0
 42
0.2
  3
txt
  4

  0
STYLE
  5
D6
330
3
100
AcDbSymbolTableRecord
100
AcDbTextStyleTableRecord
  2
GENERATED_STYLE_1
 70
     0
 40
0.0
 41
1.0
 50
0.0
 71
     0
 42
0.2
  3

  4

1001
ACAD
1000
Century Gothic
1071
       34
  0
STYLE
  5
D9
330
3
100
AcDbSymbolTableRecord
100
AcDbTextStyleTableRecord
  2
GENERATED_STYLE_2
 70
     0
 40
0.0
 41
1.0
 50
0.0
 71
     0
 42
0.2
  3

  4

1001
ACAD
1000
DilleniaUPC
1071
 33554450
  0
STYLE
  5
141
330
3
100
AcDbSymbolTableRecord
100
AcDbTextStyleTableRecord
  2
GENERATED_STYLE_3
 70
     0
 40
0.0
 41
1.0
 50
0.0
 71
     0
 42
0.2
  3

  4

1001
ACAD
1000
Arial
1071
       34
  0
ENDTAB
  0
TABLE
  2
VIEW
  5
6
330
0
100
AcDbSymbolTable
 70
     0
  0
ENDTAB
  0
TABLE
  2
UCS
  5
7
330
0
100
AcDbSymbolTable
 70
     0
  0
ENDTAB
  0
TABLE
  2
APPID
  5
9
330
0
100
AcDbSymbolTable
 70
     1
  0
APPID
  5
12
330
9
100
AcDbSymbolTableRecord
100
AcDbRegAppTableRecord
  2
ACAD
 70
     0
  0
ENDTAB
  0
TABLE
  2
DIMSTYLE
  5
A
330
0
100
AcDbSymbolTable
 70
     1
100
AcDbDimStyleTable
  0
DIMSTYLE
105
27
330
A
100
AcDbSymbolTableRecord
100
AcDbDimStyleTableRecord
  2
Standard
 70
     0
178
     0
340
11
  0
ENDTAB
  0
TABLE
  2
BLOCK_RECORD
  5
1
330
0
100
AcDbSymbolTable
 70
     3
  0
BLOCK_RECORD
  5
1F
330
1
100
AcDbSymbolTableRecord
100
AcDbBlockTableRecord
  2
*Model_Space
340
22
  0
BLOCK_RECORD
  5
1B
330
1
100
AcDbSymbolTableRecord
100
AcDbBlockTableRecord
  2
*Paper_Space
340
1E
  0
BLOCK_RECORD
  5
E3
330
1
100
AcDbSymbolTableRecord
100
AcDbBlockTableRecord
  2
Drawing_1_2
340
0
102
{BLKREFS
331
62D
102
}
  0
BLOCK_RECORD
  5
631
330
1
100
AcDbSymbolTableRecord
100
AcDbBlockTableRecord
  2
R-TRS7-06 BARGE DETAIL - HEAD_STORY_MARKER
340
0
  0
ENDTAB
  0
ENDSEC
  0
SECTION
  2
BLOCKS
  0
BLOCK
  5
20
330
1F
100
AcDbEntity
  8
0
100
AcDbBlockBegin
  2
*Model_Space
 70
     0
 10
0.0
 20
0.0
 30
0.0
  3
*Model_Space
  1

  0
ENDBLK
  5
21
330
1F
100
AcDbEntity
  8
0
100
AcDbBlockEnd
  0
BLOCK
  5
1C
330
1B
100
AcDbEntity
 67
     1
  8
0
100
AcDbBlockBegin
  2
*Paper_Space
 70
     0
 10
0.0
 20
0.0
 30
0.0
  3
*Paper_Space
  1

  0
ENDBLK
  5
1D
330
1B
100
AcDbEntity
 67
     1
  8
0
100
AcDbBlockEnd
  0
BLOCK
  5
E4
330
E3
100
AcDbEntity
  8
0
100
AcDbBlockBegin
  2
Drawing_1_2
 70
     0
 10
107.2260115974659
 20
-35.16744529250214
 30
0.0
  3
Drawing_1_2
  1

  0
HATCH
  5
E6
330
E3
100
AcDbEntity
  8
0
  6
Continuous
 62
   255
370
     0
100
AcDbHatch
 10
0.0
 20
0.0
 30
0.0
210
0.0
220
0.0
230
1.0
  2
SOLID
 70
     1
 71
     0
 91
        1
 92
        3
 72
     0
 73
     1
 93
        4
 10
139.5725703313196
 20
32.4027868319835
 10
268.2951204155992
 20
32.4027868319835
 10
268.2951204155992
 20
105.2866077618993
 10
139.5725703313196
 20
127.9838673464639
 97
        0
 75
     0
 76
     1
 98
        0
  0
HATCH
  5
E7
330
E3
100
AcDbEntity
  8
0
  6
Continuous
 62
   255
370
     0
100
AcDbHatch
 10
0.0
 20
0.0
 30
0.0
210
0.0
220
0.0
230
1.0
  2
SOLID
 70
     1
 71
     0
 91
        1
 92
        3
 72
     0
 73
     1
 93
        4
 10
139.5725642695223
 20
127.9838682952208
 10
268.2951251912679
 20
105.2866110479837
 10
268.2951251912679
 20
123.564288958505
 10
139.5725642695223
 20
146.2615462057422
 97
        0
 75
     0
 76
     1
 98
        0
  0
LINE
  5
E8
330
E3
100
AcDbEntity
  8
0
  6
Continuous
100
AcDbLine
 10
139.5725642695223
 20
146.2615473091642
 30
0.0
 11
268.2951251912679
 21
123.5642900619271
 31
0.0
  0
LINE
  5
E9
330
E3
100
AcDbEntity
  8
0
  6
Continuous
100
AcDbLine
 10
139.572569603554
 20
127.9838711399741
 30
0.0
 11
139.572569603554
 21
146.2615502536416
 31
0.0
  0
LINE
  5
EA
330
E3
100
AcDbEntity
  8
0
  6
Continuous
100
AcDbLine
 10
268.2951204155992
 20
105.2866077618993
 30
0.0
 11
139.5725703313196
 21
127.9838673464639
 31
0.0
  0
HATCH
  5
EB
330
E3
100
AcDbEntity
  8
0
  6
Continuous
 62
   255
370
     0
100
AcDbHatch
 10
0.0
 20
0.0
 30
0.0
210
0.0
220
0.0
230
1.0
  2
SOLID
 70
     1
 71
     0
 91
        1
 92
        3
 72
     0
 73
     1
 93
        4
 10
268.2951204155992
 20
40.18768148619853
 10
139.5725703313196
 20
40.18768148619853
 10
139.5725703313196
 20
32.4027868319835
 10
268.2951204155992
 20
32.4027868319835
 97
        0
 75
     0
 76
     1
 98
        0
  0
LINE
  5
EC
330
E3
100
AcDbEntity
  8
0
  6
Continuous
100
AcDbLine
 10
139.5725662413803
 20
40.18768275541628
 30
0.0
 11
268.2951239349237
 21
40.18768275541628
 31
0.0
  0
LINE
  5
ED
330
E3
100
AcDbEntity
  8
0
  6
Continuous
100
AcDbLine
 10
139.572569603554
 20
32.40279198529486
 30
0.0
 11
139.572569603554
 21
40.18768229263806
 31
0.0
  0
HATCH
  5
EE
330
E3
100
AcDbEntity
  8
0
  6
Continuous
 62
   255
370
     0
100
AcDbHatch
 10
0.0
 20
0.0
 30
0.0
210
0.0
220
0.0
230
1.0
  2
SOLID
 70
     1
 71
     0
 91
        1
 92
        3
 72
     0
 73
     1
 93
        4
 10
149.572568411742
 20
40.18768281630238
 10
149.572568411742
 20
126.2206014342968
 10
139.572568411742
 20
127.9838712413814
 10
139.572568411742
 20
40.18768281630238
 97
        0
 75
     0
 76
     1
 98
        0
  0
LINE
  5
EF
330
E3
100
AcDbEntity
  8
0
  6
Continuous
100
AcDbLine
 10
149.5725681187243
 20
126.2205998912586
 30
0.0
 11
149.5725681187243
 21
40.18768165454389
 31
0.0
  0
LINE
  5
F0
330
E3
100
AcDbEntity
  8
0
  6
Continuous
100
AcDbLine
 10
139.572569603554
 20
127.9838711399741
 30
0.0
 11
149.5725681187243
 21
126.2205998912586
 31
0.0
  0
LINE
  5
F1
330
E3
100
AcDbEntity
  8
0
  6
Continuous
100
AcDbLine
 10
139.572569603554
 20
40.18768165454389
 30
0.0
 11
139.572569603554
 21
127.9838711399741
 31
0.0
  0
LINE
  5
F2
330
E3
100
AcDbEntity
  8
0
  6
Continuous
100
AcDbLine
 10
149.5725681187243
 20
40.18768165454389
 30
0.0
 11
139.572569603554
 21
40.18768165454389
 31
0.0
  0
HATCH
  5
F3
330
E3
100
AcDbEntity
  8
0
  6
Continuous
 62
   255
370
     0
100
AcDbHatch
 10
0.0
 20
0.0
 30
0.0
210
0.0
220
0.0
230
1.0
  2
SOLID
 70
     1
 71
     0
 91
        1
 92
        3
 72
     0
 73
     1
 93
        5
 10
149.5725673034869
 20
40.1876810653721
 10
163.416589144229
 20
40.1876810653721
 10
268.2951211393186
 20
80.80814944083514
 10
268.2951211393186
 20
91.53199399575237
 10
149.5725673034869
 20
45.54960538638562
 97
        0
 75
     0
 76
     1
 98
        0
  0
LINE
  5
F4
330
E3
100
AcDbEntity
  8
0
  6
Continuous
100
AcDbLine
 10
268.2951211393186
 20
80.80814944083514
 30
0.0
 11
163.416589144229
 21
40.1876810653721
 31
0.0
  0
LINE
  5
F5
330
E3
100
AcDbEntity
  8
0
  6
Continuous
100
AcDbLine
 10
149.5725684897948
 20
45.54960536250537
 30
0.0
 11
268.2951213141043
 21
91.53200008395777
 31
0.0
  0
LINE
  5
F6
330
E3
100
AcDbEntity
  8
0
  6
Continuous
100
AcDbLine
 10
149.5725681187243
 20
40.18768165454389
 30
0.0
 11
149.5725681187243
 21
45.54960607359671
 31
0.0
  0
LINE
  5
F7
330
E3
100
AcDbEntity
  8
0
  6
Continuous
100
AcDbLine
 10
163.4165887883929
 20
40.18768165454389
 30
0.0
 11
149.5725681187243
 21
40.18768165454389
 31
0.0
  0
HATCH
  5
F8
330
E3
100
AcDbEntity
  8
0
  6
Continuous
 62
   253
370
    25
100
AcDbHatch
 10
0.0
 20
0.0
 30
0.0
210
0.0
220
0.0
230
1.0
  2
SOLID
 70
     1
 71
     0
 91
        1
 92
        3
 72
     0
 73
     1
 93
        4
 10
132.7797202068282
 20
158.6985152161107
 10
237.7892622935412
 20
140.182499714382
 10
239.0395291727431
 20
147.2731155360699
 10
134.02998708603
 20
165.7891310377986
 97
        0
 75
     0
 76
     1
 98
        0
  0
LINE
  5
F9
330
E3
100
AcDbEntity
  8
0
  6
Continuous
100
AcDbLine
 10
132.7797212928099
 20
158.6985155819714
 30
0.0
 11
237.7892617183556
 21
140.182498391157
 31
0.0
  0
LINE
  5
FA
330
E3
100
AcDbEntity
  8
0
  6
Continuous
100
AcDbLine
 10
237.7892617183556
 20
140.182498391157
 30
0.0
 11
239.0395274751084
 21
147.2731161800083
 31
0.0
  0
LINE
  5
FB
330
E3
100
AcDbEntity
  8
0
  6
Continuous
100
AcDbLine
 10
239.0395274751084
 20
147.2731161800083
 30
0.0
 11
134.0299870495627
 21
165.7891297891075
 31
0.0
  0
LINE
  5
FC
330
E3
100
AcDbEntity
  8
0
  6
Continuous
100
AcDbLine
 10
134.0299870495627
 20
165.7891297891075
 30
0.0
 11
132.7797212928099
 21
158.6985155819714
 31
0.0
  0
HATCH
  5
FD
330
E3
100
AcDbEntity
  8
0
  6
Continuous
 62
   255
370
     0
100
AcDbHatch
 10
0.0
 20
0.0
 30
0.0
210
0.0
220
0.0
230
1.0
  2
SOLID
 70
     1
 71
     0
 91
        1
 92
        3
 72
     0
 73
     1
 93
        4
 10
142.7663338758
 20
154.8372427409282
 10
141.2035002767976
 20
145.9739729638183
 10
154.9908088189685
 20
143.5428984764813
 10
156.5536424179709
 20
152.4061682535911
 97
        0
 75
     0
 76
     1
 98
        0
  0
LINE
  5
FE
330
E3
100
AcDbEntity
  8
0
  6
Continuous
100
AcDbLine
 10
141.2035000559048
 20
145.9739743371046
 30
0.0
 11
156.5536427287069
 21
152.4061689952908
 31
0.0
  0
LINE
  5
FF
330
E3
100
AcDbEntity
  8
0
  6
Continuous
100
AcDbLine
 10
142.7663349381322
 20
154.8372438868822
 30
0.0
 11
154.9908078464794
 21
143.5428994455131
 31
0.0
  0
LINE
  5
100
330
E3
100
AcDbEntity
  8
0
  6
Continuous
100
AcDbLine
 10
142.7663349381322
 20
154.8372438868822
 30
0.0
 11
141.2035000559048
 21
145.9739743371046
 31
0.0
  0
LINE
  5
101
330
E3
100
AcDbEntity
  8
0
  6
Continuous
100
AcDbLine
 10
141.2035000559048
 20
145.9739743371046
 30
0.0
 11
154.9908078464794
 21
143.5428994455131
 31
0.0
  0
LINE
  5
102
330
E3
100
AcDbEntity
  8
0
  6
Continuous
100
AcDbLine
 10
154.9908078464794
 20
143.5428994455131
 30
0.0
 11
156.5536427287069
 21
152.4061689952908
 31
0.0
  0
LINE
  5
103
330
E3
100
AcDbEntity
  8
0
  6
Continuous
100
AcDbLine
 10
156.5536427287069
 20
152.4061689952908
 30
0.0
 11
142.7663349381322
 21
154.8372438868822
 31
0.0
  0
HATCH
  5
104
330
E3
100
AcDbEntity
  8
0
  6
Continuous
 62
   255
370
     0
100
AcDbHatch
 10
0.0
 20
0.0
 30
0.0
210
0.0
220
0.0
230
1.0
  2
SOLID
 70
     1
 71
     0
 91
        1
 92
        3
 72
     0
 73
     1
 93
       12
 10
131.3943280739767
 20
132.5773569609295
 10
131.3943280739767
 20
134.5773569609295
 10
129.7943280739767
 20
134.5773569609295
 10
129.7943280739767
 20
135.5773569609295
 10
131.3943280739767
 20
135.5773569609295
 10
131.3943280739767
 20
159.5773569609296
 10
129.7943280739767
 20
159.5773569609296
 10
129.7943280739767
 20
160.5773569609296
 10
131.3943280739767
 20
160.5773569609296
 10
131.3943280739767
 20
162.5773569609296
 10
127.3943280739767
 20
162.5773569609296
 10
127.3943280739767
 20
132.5773569609295
 97
        0
 75
     0
 76
     1
 98
        0
  0
HATCH
  5
105
330
E3
100
AcDbEntity
  8
0
  6
Continuous
100
AcDbHatch
 10
0.0
 20
0.0
 30
0.0
210
0.0
220
0.0
230
1.0
  2
Wood_0002
 70
     0
 71
     0
 91
        1
 92
        3
 72
     0
 73
     1
 93
       12
 10
131.3943280739767
 20
132.5773569609295
 10
131.3943280739767
 20
134.5773569609295
 10
129.7943280739767
 20
134.5773569609295
 10
129.7943280739767
 20
135.5773569609295
 10
131.3943280739767
 20
135.5773569609295
 10
131.3943280739767
 20
159.5773569609296
 10
129.7943280739767
 20
159.5773569609296
 10
129.7943280739767
 20
160.5773569609296
 10
131.3943280739767
 20
160.5773569609296
 10
131.3943280739767
 20
162.5773569609296
 10
127.3943280739767
 20
162.5773569609296
 10
127.3943280739767
 20
132.5773569609295
 97
        0
 75
     0
 76
     2
 52
0.0
 41
1.0
 77
     0
 78
     1
 53
9.999999999999996
 43
107.2260115974659
 44
-35.16744529250214
 45
-0.1562833557601421
 46
0.8863269542313407
 79
     0
 98
        0
  0
LINE
  5
106
330
E3
100
AcDbEntity
  8
0
  6
Continuous
100
AcDbLine
 10
131.3943281652364
 20
132.5773564630817
 30
0.0
 11
131.3943281652364
 21
134.5773575988018
 31
0.0
  0
LINE
  5
107
330
E3
100
AcDbEntity
  8
0
  6
Continuous
100
AcDbLine
 10
131.3943281652364
 20
134.5773575988018
 30
0.0
 11
129.7943294056894
 21
134.5773575988018
 31
0.0
  0
LINE
  5
108
330
E3
100
AcDbEntity
  8
0
  6
Continuous
100
AcDbLine
 10
129.7943294056894
 20
134.5773575988018
 30
0.0
 11
129.7943294056894
 21
135.5773581666619
 31
0.0
  0
LINE
  5
109
330
E3
100
AcDbEntity
  8
0
  6
Continuous
100
AcDbLine
 10
129.7943294056894
 20
135.5773581666619
 30
0.0
 11
131.3943281652364
 21
135.5773581666619
 31
0.0
  0
LINE
  5
10A
330
E3
100
AcDbEntity
  8
0
  6
Continuous
100
AcDbLine
 10
131.3943281652364
 20
135.5773581666619
 30
0.0
 11
131.3943281652364
 21
159.5773574684428
 31
0.0
  0
LINE
  5
10B
330
E3
100
AcDbEntity
  8
0
  6
Continuous
100
AcDbLine
 10
131.3943281652364
 20
159.5773574684428
 30
0.0
 11
129.7943294056894
 21
159.5773574684428
 31
0.0
  0
LINE
  5
10C
330
E3
100
AcDbEntity
  8
0
  6
Continuous
100
AcDbLine
 10
129.7943294056894
 20
159.5773574684428
 30
0.0
 11
129.7943294056894
 21
160.5773580363029
 31
0.0
  0
LINE
  5
10D
330
E3
100
AcDbEntity
  8
0
  6
Continuous
100
AcDbLine
 10
129.7943294056894
 20
160.5773580363029
 30
0.0
 11
131.3943281652364
 21
160.5773580363029
 31
0.0
  0
LINE
  5
10E
330
E3
100
AcDbEntity
  8
0
  6
Continuous
100
AcDbLine
 10
131.3943281652364
 20
160.5773580363029
 30
0.0
 11
131.3943281652364
 21
162.5773555903078
 31
0.0
  0
LINE
  5
10F
330
E3
100
AcDbEntity
  8
0
  6
Continuous
100
AcDbLine
 10
131.3943281652364
 20
162.5773555903078
 30
0.0
 11
127.3943294755114
 21
162.5773555903078
 31
0.0
  0
LINE
  5
110
330
E3
100
AcDbEntity
  8
0
  6
Continuous
100
AcDbLine
 10
127.3943294755114
 20
162.5773555903078
 30
0.0
 11
127.3943294755114
 21
132.5773564630817
 31
0.0
  0
LINE
  5
111
330
E3
100
AcDbEntity
  8
0
  6
Continuous
100
AcDbLine
 10
127.3943294755114
 20
132.5773564630817
 30
0.0
 11
131.3943281652364
 21
132.5773564630817
 31
0.0
  0
HATCH
  5
112
330
E3
100
AcDbEntity
  8
0
  6
Continuous
 62
   255
370
     0
100
AcDbHatch
 10
0.0
 20
0.0
 30
0.0
210
0.0
220
0.0
230
1.0
  2
SOLID
 70
     1
 71
     0
 91
        1
 92
        3
 72
     0
 73
     1
 93
        4
 10
134.2636554386134
 20
132.5087844611539
 10
138.2636554386133
 20
132.5087844611539
 10
138.2636554386133
 20
141.5087844611539
 10
134.2636554386133
 20
141.5087844611539
 97
        0
 75
     0
 76
     1
 98
        0
  0
LINE
  5
113
330
E3
100
AcDbEntity
  8
0
  6
Continuous
100
AcDbLine
 10
134.263654570038
 20
132.5087845248316
 30
0.0
 11
138.2636568414783
 21
141.508786053857
 31
0.0
  0
LINE
  5
114
330
E3
100
AcDbEntity
  8
0
  6
Continuous
100
AcDbLine
 10
134.263654570038
 20
132.5087845248316
 30
0.0
 11
138.2636568414783
 21
132.5087845248316
 31
0.0
  0
LINE
  5
115
330
E3
100
AcDbEntity
  8
0
  6
Continuous
100
AcDbLine
 10
138.2636568414783
 20
132.5087845248316
 30
0.0
 11
138.2636568414783
 21
141.508786053857
 31
0.0
  0
LINE
  5
116
330
E3
100
AcDbEntity
  8
0
  6
Continuous
100
AcDbLine
 10
138.2636568414783
 20
141.508786053857
 30
0.0
 11
134.263654570038
 21
141.508786053857
 31
0.0
  0
LINE
  5
117
330
E3
100
AcDbEntity
  8
0
  6
Continuous
100
AcDbLine
 10
134.263654570038
 20
141.508786053857
 30
0.0
 11
134.263654570038
 21
132.5087845248316
 31
0.0
  0
HATCH
  5
118
330
E3
100
AcDbEntity
  8
0
  6
Continuous
 62
   255
370
     0
100
AcDbHatch
 10
0.0
 20
0.0
 30
0.0
210
0.0
220
0.0
230
1.0
  2
SOLID
 70
     1
 71
     0
 91
        1
 92
        3
 72
     0
 73
     1
 93
        4
 10
132.4636554386134
 20
156.9195308765072
 10
132.4636554386134
 20
60.04973053735953
 10
134.2636554386134
 20
60.04973053735953
 10
134.2636554386134
 20
156.9195308765072
 97
        0
 75
     0
 76
     1
 98
        0
  0
HATCH
  5
119
330
E3
100
AcDbEntity
  8
0
  6
Continuous
100
AcDbHatch
 10
0.0
 20
0.0
 30
0.0
210
0.0
220
0.0
230
1.0
  2
Plaster_0002
 70
     0
 71
     0
 91
        1
 92
        3
 72
     0
 73
     1
 93
        4
 10
132.4636554386134
 20
156.9195308765072
 10
132.4636554386134
 20
60.04973053735953
 10
134.2636554386134
 20
60.04973053735953
 10
134.2636554386134
 20
156.9195308765072
 97
        0
 75
     0
 76
     2
 52
0.0
 41
1.0
 77
     0
 78
     2
 53
0.0
 43
107.2260115974659
 44
-35.16744529250214
 45
0.0
 46
1.732050807568877
 79
     2
 49
0.0
 49
-1.0
 53
0.0
 43
107.7260115974659
 44
-34.30141990426132
 45
0.0
 46
1.732050807568877
 79
     2
 49
0.0
 49
-1.0
 98
        0
  0
LINE
  5
11A
330
E3
100
AcDbEntity
  8
0
  6
Continuous
100
AcDbLine
 10
132.463656413262
 20
156.9195313485025
 30
0.0
 11
132.463656413262
 21
60.04972892245548
 31
0.0
  0
LINE
  5
11B
330
E3
100
AcDbEntity
  8
0
  6
Continuous
100
AcDbLine
 10
132.463656413262
 20
60.04972892245548
 30
0.0
 11
134.263654570038
 21
60.04972892245548
 31
0.0
  0
LINE
  5
11C
330
E3
100
AcDbEntity
  8
0
  6
Continuous
100
AcDbLine
 10
134.263654570038
 20
60.04972892245548
 30
0.0
 11
134.263654570038
 21
156.9195313485025
 31
0.0
  0
LINE
  5
11D
330
E3
100
AcDbEntity
  8
0
  6
Continuous
100
AcDbLine
 10
134.263654570038
 20
156.9195313485025
 30
0.0
 11
132.463656413262
 21
156.9195313485025
 31
0.0
  0
LINE
  5
11F
330
E3
100
AcDbEntity
  8
0
  6
Dashed
100
AcDbLine
 10
138.3875841887468
 20
156.9366877644972
 30
0.0
 11
235.76737272081
 21
139.7660057980236
 31
0.0
  0
LINE
  5
120
330
E3
100
AcDbEntity
  8
0
  6
Dashed
100
AcDbLine
 10
150.4016169999435
 20
163.6060564423777
 30
0.0
 11
153.068289956524
 21
163.1358488658055
 31
0.0
  0
LINE
  5
121
330
E3
100
AcDbEntity
  8
0
  6
Dashed
100
AcDbLine
 10
139.1104853571437
 20
155.8703072681133
 30
0.0
 11
139.1104853571437
 21
49.31458693620137
 31
0.0
  0
LINE
  5
122
330
E3
100
AcDbEntity
  8
0
  6
Continuous
 62
     9
370
    18
100
AcDbLine
 10
134.0299870495627
 20
165.7891297891075
 30
0.0
 11
134.7114549360753
 21
158.3578980444604
 31
0.0
  0
LINE
  5
123
330
E3
100
AcDbEntity
  8
0
  6
Dashed
100
AcDbLine
 10
138.3875841887468
 20
142.7041548611421
 30
0.0
 11
138.3875841887468
 21
156.9366877644972
 31
0.0
  0
LWPOLYLINE
  5
124
330
E3
100
AcDbEntity
  8
0
  6
Continuous
100
AcDbPolyline
 90
        6
 70
   128
 43
0.0
 10
158.5240249097286
 20
154.9692495451805
 10
158.1846005069315
 20
161.8610839169628
 10
126.6377320917205
 20
167.4236479760334
 10
126.6377320917205
 20
150.0353444658529
 10
124.6369367122487
 20
148.7244785275783
 10
126.6032356196606
 20
146.7581796201663
  0
HATCH
  5
125
330
E3
100
AcDbEntity
  8
0
  6
Continuous
 62
   255
370
     0
100
AcDbHatch
 10
0.0
 20
0.0
 30
0.0
210
0.0
220
0.0
230
1.0
  2
SOLID
 70
     1
 71
     0
 91
        1
 92
        3
 72
     0
 73
     1
 93
        8
 10
202.2660422139567
 20
130.3929326260704
 10
196.0345127398982
 20
129.0798542986855
 10
207.8029801946164
 20
127.7667798986749
 10
201.5714507205579
 20
126.45370157129
 10
196.776813976436
 20
99.26197176422622
 10
268.2951210143314
 20
99.26197176422622
 10
268.2951210143314
 20
157.5846624331342
 10
207.0606789580786
 20
157.5846624331342
 97
        0
 75
     0
 76
     1
 98
        0
  0
LINE
  5
126
330
E3
100
AcDbEntity
  8
0
  6
Continuous
100
AcDbLine
 10
207.0606772406483
 20
157.5846594500949
 30
0.0
 11
202.26604278972
 21
130.3929328097068
 31
0.0
  0
LINE
  5
127
330
E3
100
AcDbEntity
  8
0
  6
Continuous
100
AcDbLine
 10
201.5714514985719
 20
126.4537015007262
 30
0.0
 11
196.7768134659285
 21
99.26197127862282
 31
0.0
  0
LINE
  5
128
330
E3
100
AcDbEntity
  8
0
  6
Continuous
100
AcDbLine
 10
201.5714514985719
 20
126.4537015007262
 30
0.0
 11
207.8029805604947
 21
127.7667797976248
 31
0.0
  0
LINE
  5
129
330
E3
100
AcDbEntity
  8
0
  6
Continuous
100
AcDbLine
 10
207.8029805604947
 20
127.7667797976248
 30
0.0
 11
196.0345101460819
 21
129.0798545128082
 31
0.0
  0
LINE
  5
12A
330
E3
100
AcDbEntity
  8
0
  6
Continuous
100
AcDbLine
 10
196.0345101460819
 20
129.0798545128082
 30
0.0
 11
202.26604278972
 21
130.3929328097068
 31
0.0
  0
HATCH
  5
12B
330
E3
100
AcDbEntity
  8
0
  6
Continuous
 62
   255
370
     0
100
AcDbHatch
 10
0.0
 20
0.0
 30
0.0
210
0.0
220
0.0
230
1.0
  2
SOLID
 70
     1
 71
     0
 91
        1
 92
        3
 72
     0
 73
     1
 93
        8
 10
141.7463269089472
 20
99.19453332372244
 10
114.5545966868439
 20
103.9891677746506
 10
114.5545966868439
 20
32.40278992681966
 10
172.8772848583159
 20
32.40278992681966
 10
172.8772848583159
 20
93.70530399993083
 10
145.6855582179279
 20
98.49993845085902
 10
144.3724799210292
 20
104.7314710944971
 10
143.0594052058458
 20
92.96300068008432
 97
        0
 75
     0
 76
     1
 98
        0
  0
LINE
  5
12C
330
E3
100
AcDbEntity
  8
0
  6
Continuous
100
AcDbLine
 10
172.8772848583159
 20
93.70530542031189
 30
0.0
 11
145.6855582179279
 21
98.49993987124006
 31
0.0
  0
LINE
  5
12D
330
E3
100
AcDbEntity
  8
0
  6
Continuous
100
AcDbLine
 10
141.7463269089472
 20
99.19453116238824
 30
0.0
 11
114.5545966868439
 21
103.9891691950317
 31
0.0
  0
LINE
  5
12E
330
E3
100
AcDbEntity
  8
0
  6
Continuous
100
AcDbLine
 10
141.7463269089472
 20
99.19453116238824
 30
0.0
 11
143.0594052058458
 21
92.96300210046537
 31
0.0
  0
LINE
  5
12F
330
E3
100
AcDbEntity
  8
0
  6
Continuous
100
AcDbLine
 10
143.0594052058458
 20
92.96300210046537
 30
0.0
 11
144.3724799210292
 21
104.7314689331629
 31
0.0
  0
LINE
  5
130
330
E3
100
AcDbEntity
  8
0
  6
Continuous
100
AcDbLine
 10
144.3724799210292
 20
104.7314689331629
 30
0.0
 11
145.6855582179279
 21
98.49993987124006
 31
0.0
  0
LINE
  5
131
330
E3
100
AcDbEntity
  8
Doc_ Floor
  6
Continuous
100
AcDbLine
 10
119.9680942236226
 20
149.0573440445871
 30
0.0
 11
119.9680942236226
 21
150.0353457174494
 31
0.0
  0
LINE
  5
132
330
E3
100
AcDbEntity
  8
Doc_ Floor
  6
Continuous
100
AcDbLine
 10
119.9680942236226
 20
150.0353457174494
 30
0.0
 11
119.9680942236226
 21
162.5773555903078
 31
0.0
  0
LINE
  5
133
330
E3
100
AcDbEntity
  8
Doc_ Floor
  6
Continuous
100
AcDbLine
 10
118.9680936557626
 20
150.6126931419651
 30
0.0
 11
120.9680912097675
 21
149.4579947112185
 31
0.0
  0
LINE
  5
134
330
E3
100
AcDbEntity
  8
Doc_ Floor
  6
Continuous
100
AcDbLine
 10
120.9680912097675
 20
162.0000081657922
 30
0.0
 11
118.9680936557626
 21
163.1547065965387
 31
0.0
  0
LINE
  5
135
330
E3
100
AcDbEntity
  8
Doc_ Floor
  6
Continuous
100
AcDbLine
 10
119.9680942236226
 20
162.5773555903078
 30
0.0
 11
119.9680942236226
 21
163.5553572631701
 31
0.0
  0
LINE
  5
136
330
E3
100
AcDbEntity
  8
Doc_ Floor
  6
Continuous
100
AcDbLine
 10
121.4680914936975
 20
150.0353457174494
 30
0.0
 11
118.4680933718325
 21
150.0353457174494
 31
0.0
  0
LINE
  5
137
330
E3
100
AcDbEntity
  8
Doc_ Floor
  6
Continuous
100
AcDbLine
 10
121.4680914936975
 20
162.5773555903078
 30
0.0
 11
118.4680933718325
 21
162.5773555903078
 31
0.0
  0
MTEXT
  5
138
330
E3
100
AcDbEntity
  8
Doc_ Floor
  6
Continuous
100
AcDbMText
 10
119.4680925578211
 20
154.9769382158111
 30
0.0
 40
2.5
 41
0.0
 71
     7
 72
     1
  1
{A}
  7
GENERATED_STYLE_1
 11
6.123233995736766E-17
 21
1.0
 31
0.0
 73
     1
 44
1.0
  0
LINE
  5
139
330
E3
100
AcDbEntity
  8
Doc_ Floor
  6
Continuous
100
AcDbLine
 10
160.9995613839688
 20
172.1934443758736
 30
0.0
 11
160.0364202476329
 21
172.3632714039295
 31
0.0
  0
LINE
  5
13A
330
E3
100
AcDbEntity
  8
Doc_ Floor
  6
Continuous
100
AcDbLine
 10
160.0364202476329
 20
172.3632714039295
 30
0.0
 11
135.9384216351985
 21
176.6123998788165
 31
0.0
  0
LINE
  5
13B
330
E3
100
AcDbEntity
  8
Doc_ Floor
  6
Continuous
100
AcDbLine
 10
159.2941921438065
 20
171.4787202633672
 30
0.0
 11
160.7786483514595
 21
173.247826126207
 31
0.0
  0
LINE
  5
13C
330
E3
100
AcDbEntity
  8
Doc_ Floor
  6
Continuous
100
AcDbLine
 10
136.680649739025
 20
177.4969510193788
 30
0.0
 11
135.196193531372
 21
175.7278487382542
 31
0.0
  0
LINE
  5
13D
330
E3
100
AcDbEntity
  8
Doc_ Floor
  6
Continuous
100
AcDbLine
 10
135.9384216351985
 20
176.6123998788165
 30
0.0
 11
134.9752804988627
 21
176.7822269068724
 31
0.0
  0
LINE
  5
13E
330
E3
100
AcDbEntity
  8
Doc_ Floor
  6
Continuous
100
AcDbLine
 10
160.2968933249567
 20
173.8404853833692
 30
0.0
 11
159.7759471703091
 21
170.886061006205
 31
0.0
  0
LINE
  5
13F
330
E3
100
AcDbEntity
  8
Doc_ Floor
  6
Continuous
100
AcDbLine
 10
136.1988947125223
 20
178.089610276541
 30
0.0
 11
135.6779485578747
 21
175.135189481092
 31
0.0
  0
MTEXT
  5
140
330
E3
100
AcDbEntity
  8
Doc_ Floor
  6
Continuous
100
AcDbMText
 10
147.0778506108574
 20
175.15593112877
 30
0.0
 40
2.5
 41
0.0
 71
     7
 72
     1
  1
{B}
  7
GENERATED_STYLE_1
 11
0.9848077530089556
 21
-0.1736481776853757
 31
0.0
 73
     1
 44
1.0
  0
MTEXT
  5
142
330
E3
100
AcDbEntity
  8
Doc_ Floor
  6
Continuous
100
AcDbMText
 10
210.4979851994772
 20
164.5841122552278
 30
0.0
 40
2.5
 41
56.6835322004004
 71
     4
 72
     1
  1
\A1;{\fCentury Gothic|b0|i0|c0|p34;TRS 7\PMIN. ROOF PITCH 3\fArial|b0|i0|c0|p34;\H1.029412x;\U+00B0}
  7
GENERATED_STYLE_1
 73
     1
 44
1.056356172275314
  0
LINE
  5
143
330
E3
100
AcDbEntity
  8
Doc_ Floor
  6
Continuous
100
AcDbLine
 10
187.1681459943377
 20
156.4194415216915
 30
0.0
 11
189.9117649393972
 21
159.1398724422938
 31
0.0
  0
LINE
  5
144
330
E3
100
AcDbEntity
  8
Doc_ Floor
  6
Continuous
100
AcDbLine
 10
187.1681459943377
 20
156.4194415216915
 30
0.0
 11
190.9044050824411
 21
157.4035929996191
 31
0.0
  0
LINE
  5
145
330
E3
100
AcDbEntity
  8
Doc_ Floor
  6
Continuous
100
AcDbLine
 10
189.9117649393972
 20
159.1398724422938
 30
0.0
 11
190.9044050824411
 21
157.4035929996191
 31
0.0
  0
LWPOLYLINE
  5
146
330
E3
100
AcDbEntity
  8
Doc_ Floor
  6
Continuous
100
AcDbPolyline
 90
        9
 70
   128
 43
0.0
 10
190.408085616093
 20
158.2717309509631
 10
193.4283264499661
 20
159.8944416904527
 10
196.1746477493342
 20
161.2456343888951
 10
198.6934373691713
 20
162.3423093710175
 10
201.0310831644511
 20
163.2014669615473
 10
203.2339729901477
 20
163.8401074852117
 10
205.348494701235
 20
164.2752312667382
 10
207.4210361526869
 20
164.5238386308541
 10
209.4979851994772
 20
164.6029299022866
  0
MTEXT
  5
147
330
E3
100
AcDbEntity
  8
Doc_ Floor
  6
Continuous
100
AcDbMText
 10
217.7652934107131
 20
135.8151137183091
 30
0.0
 40
2.5
 41
0.0
 71
     4
 72
     1
  1
{UNDERLAY}
  7
GENERATED_STYLE_1
 73
     1
 44
1.0
  0
LINE
  5
148
330
E3
100
AcDbEntity
  8
Doc_ Floor
  6
Continuous
100
AcDbLine
 10
190.3055351310545
 20
147.7821531314863
 30
0.0
 11
193.3591407849012
 21
145.414943804321
 31
0.0
  0
LINE
  5
149
330
E3
100
AcDbEntity
  8
Doc_ Floor
  6
Continuous
100
AcDbLine
 10
190.3055351310545
 20
147.7821531314863
 30
0.0
 11
191.7664308158655
 21
144.2052839532325
 31
0.0
  0
LINE
  5
14A
330
E3
100
AcDbEntity
  8
Doc_ Floor
  6
Continuous
100
AcDbLine
 10
193.3591407849012
 20
145.414943804321
 30
0.0
 11
191.7664308158655
 21
144.2052839532325
 31
0.0
  0
LWPOLYLINE
  5
14B
330
E3
100
AcDbEntity
  8
Doc_ Floor
  6
Continuous
100
AcDbPolyline
 90
       11
 70
   128
 43
0.0
 10
192.5627848521073
 20
144.8101141336437
 10
194.7186386754931
 20
142.5196592464375
 10
197.0173643686526
 20
140.6117085419212
 10
198.2367956039972
 20
139.79374512012
 10
199.5117345319048
 20
139.0624951783292
 10
200.8487777274152
 20
138.4149878613279
 10
202.2545217655684
 20
137.8482523138954
 10
205.2984986699622
 20
136.9452131068541
 10
208.6964378454051
 20
136.3296107154394
 10
212.5011118922158
 20
135.9776782978856
 10
216.7652934107131
 20
135.8656490124267
  0
MTEXT
  5
14C
330
E3
100
AcDbEntity
  8
Doc_ Floor
  6
Continuous
100
AcDbMText
 10
108.0339098253378
 20
181.72615262139
 30
0.0
 40
2.5
 41
0.0
 71
     6
 72
     1
  1
{ROOF FIXING}
  7
GENERATED_STYLE_1
 73
     1
 44
1.0
  0
LINE
  5
14D
330
E3
100
AcDbEntity
  8
Doc_ Floor
  6
Continuous
100
AcDbLine
 10
151.0475757615769
 20
164.3128327287689
 30
0.0
 11
147.2685295032288
 21
165.1171856834154
 31
0.0
  0
LINE
  5
14E
330
E3
100
AcDbEntity
  8
Doc_ Floor
  6
Continuous
100
AcDbLine
 10
151.0475757615769
 20
164.3128327287689
 30
0.0
 11
148.1770029198721
 21
166.8989457461945
 31
0.0
  0
LINE
  5
14F
330
E3
100
AcDbEntity
  8
Doc_ Floor
  6
Continuous
100
AcDbLine
 10
147.2685295032288
 20
165.1171856834154
 30
0.0
 11
148.1770029198721
 21
166.8989457461945
 31
0.0
  0
LWPOLYLINE
  5
150
330
E3
100
AcDbEntity
  8
Doc_ Floor
  6
Continuous
100
AcDbPolyline
 90
        9
 70
   128
 43
0.0
 10
147.7227645716063
 20
166.0080650585122
 10
139.6471038138089
 20
170.0601904876937
 10
132.711757605693
 20
173.42750273638
 10
126.8093620887769
 20
176.1545486576341
 10
121.8325534045792
 20
178.2858751045189
 10
117.673967694618
 20
179.8660289300974
 10
114.2262411004118
 20
180.9395569874327
 10
111.3820097634789
 20
181.5510061295876
 10
109.0339098253378
 20
181.7449232096253
  0
MTEXT
  5
151
330
E3
100
AcDbEntity
  8
Doc_ Floor
  6
Continuous
100
AcDbMText
 10
177.6480029686301
 20
188.0355984963774
 30
0.0
 40
2.499999999999999
 41
0.0
 71
     4
 72
     1
  1
{PURLIN}
  7
GENERATED_STYLE_1
 73
     1
 44
1.0
  0
LINE
  5
152
330
E3
100
AcDbEntity
  8
Doc_ Floor
  6
Continuous
100
AcDbLine
 10
152.8732082543182
 20
150.5063806702419
 30
0.0
 11
153.3582835308474
 21
154.3395108286985
 31
0.0
  0
LINE
  5
153
330
E3
100
AcDbEntity
  8
Doc_ Floor
  6
Continuous
100
AcDbLine
 10
152.8732082543182
 20
150.5063806702419
 30
0.0
 11
155.2098619687798
 21
153.5834322320429
 31
0.0
  0
LINE
  5
154
330
E3
100
AcDbEntity
  8
Doc_ Floor
  6
Continuous
100
AcDbLine
 10
153.3582835308474
 20
154.3395108286985
 30
0.0
 11
155.2098619687798
 21
153.5834322320429
 31
0.0
  0
LWPOLYLINE
  5
155
330
E3
100
AcDbEntity
  8
Doc_ Floor
  6
Continuous
100
AcDbPolyline
 90
       14
 70
   128
 43
0.0
 10
154.2840741126332
 20
153.9614718991056
 10
158.0090126297231
 20
162.7498874274614
 10
161.3459271242157
 20
170.0524859383113
 10
164.356051405968
 20
175.9660569701324
 10
165.7577027826471
 20
178.4322039121811
 10
167.1006192848375
 20
180.5873900614014
 10
168.3924551387715
 20
182.4437141101029
 10
169.6408645706812
 20
184.0132747505952
 10
170.8535018067988
 20
185.308170675188
 10
172.0380210733564
 20
186.3405005761908
 10
173.2020765965862
 20
187.1223631459133
 10
174.3533226027203
 20
187.6658570766651
 10
175.4994133179909
 20
187.9830810607558
 10
176.6480029686301
 20
188.086133790495
  0
MTEXT
  5
156
330
E3
100
AcDbEntity
  8
Doc_ Floor
  6
Continuous
100
AcDbMText
 10
108.0339098253378
 20
109.9747713303125
 30
0.0
 40
2.5
 41
39.1484652691462
 71
     6
 72
     1
  1
{CLADDING ON CAVITY BATTENS WITH BUILDING WRAP }
  7
GENERATED_STYLE_1
 73
     1
 44
1.081394112015884
  0
LINE
  5
157
330
E3
100
AcDbEntity
  8
Doc_ Floor
  6
Continuous
100
AcDbLine
 10
132.5155339767833
 20
106.8748389664687
 30
0.0
 11
128.6545774726351
 21
106.7292458237197
 31
0.0
  0
LINE
  5
158
330
E3
100
AcDbEntity
  8
Doc_ Floor
  6
Continuous
100
AcDbLine
 10
132.5155339767833
 20
106.8748389664687
 30
0.0
 11
129.0990504252154
 21
108.6792318878428
 31
0.0
  0
LINE
  5
159
330
E3
100
AcDbEntity
  8
Doc_ Floor
  6
Continuous
100
AcDbLine
 10
128.6545774726351
 20
106.7292458237197
 30
0.0
 11
129.0990504252154
 21
108.6792318878428
 31
0.0
  0
LWPOLYLINE
  5
15A
330
E3
100
AcDbEntity
  8
Doc_ Floor
  6
Continuous
100
AcDbPolyline
 90
        5
 70
   128
 43
0.0
 10
128.8768139823939
 20
107.7042399712023
 10
123.4362372838358
 20
108.778239716983
 10
118.5579467362369
 20
109.485596657588
 10
113.8783637724525
 20
109.8745992712483
 10
109.0339098253379
 20
109.9935360361949
  0
MTEXT
  5
15B
330
E3
100
AcDbEntity
  8
Doc_ Floor
  6
Continuous
100
AcDbMText
 10
108.0339098253378
 20
124.960361232442
 30
0.0
 40
2.5
 41
0.0
 71
     6
 72
     1
  1
{FASCIA}
  7
GENERATED_STYLE_1
 73
     1
 44
1.0
  0
LINE
  5
15C
330
E3
100
AcDbEntity
  8
Doc_ Floor
  6
Continuous
100
AcDbLine
 10
127.9988871906975
 20
135.8141238708189
 30
0.0
 11
126.353332595026
 21
132.3183626341516
 31
0.0
  0
LINE
  5
15D
330
E3
100
AcDbEntity
  8
Doc_ Floor
  6
Continuous
100
AcDbLine
 10
127.9988871906975
 20
135.8141238708189
 30
0.0
 11
124.8259137130815
 21
133.6094850166353
 31
0.0
  0
LINE
  5
15E
330
E3
100
AcDbEntity
  8
Doc_ Floor
  6
Continuous
100
AcDbLine
 10
126.353332595026
 20
132.3183626341516
 30
0.0
 11
124.8259137130815
 21
133.6094850166353
 31
0.0
  0
LWPOLYLINE
  5
15F
330
E3
100
AcDbEntity
  8
Doc_ Floor
  6
Continuous
100
AcDbPolyline
 90
        9
 70
   128
 43
0.0
 10
125.5896244402762
 20
132.9639245708123
 10
123.6204634313926
 20
130.9203200424862
 10
121.6964454848545
 20
129.2175951226089
 10
119.780670024063
 20
127.8346679261786
 10
117.8362364724189
 20
126.7504565681938
 10
115.8262442533234
 20
125.9438791636529
 10
113.7137927901774
 20
125.3938538275543
 10
111.4619815063819
 20
125.0792986748963
 10
109.0339098253379
 20
124.9791318206773
  0
MTEXT
  5
160
330
E3
100
AcDbEntity
  8
Doc_ Floor
  6
Continuous
100
AcDbMText
 10
164.9235787333881
 20
105.17706211541
 30
0.0
 40
2.5
 41
0.0
 71
     4
 72
     1
  1
{ROOF FRAME}
  7
GENERATED_STYLE_1
 73
     1
 44
1.0
  0
LINE
  5
161
330
E3
100
AcDbEntity
  8
Doc_ Floor
  6
Continuous
100
AcDbLine
 10
152.6041533872818
 20
131.267619906501
 30
0.0
 11
153.88207714911
 21
127.6213729040683
 31
0.0
  0
LINE
  5
162
330
E3
100
AcDbEntity
  8
Doc_ Floor
  6
Continuous
100
AcDbLine
 10
152.6041533872818
 20
131.267619906501
 30
0.0
 11
151.8877422868978
 21
127.47091937374
 31
0.0
  0
LINE
  5
163
330
E3
100
AcDbEntity
  8
Doc_ Floor
  6
Continuous
100
AcDbLine
 10
153.88207714911
 20
127.6213729040683
 30
0.0
 11
151.8877422868978
 21
127.47091937374
 31
0.0
  0
LWPOLYLINE
  5
164
330
E3
100
AcDbEntity
  8
Doc_ Floor
  6
Continuous
100
AcDbPolyline
 90
       15
 70
   128
 43
0.0
 10
152.8849095788885
 20
127.5461462691856
 10
153.4915914543278
 20
121.8000985571859
 10
154.2651929717568
 20
117.0218862506804
 10
154.7230231061241
 20
114.9762913475718
 10
155.2327045628767
 20
113.1493428635373
 10
155.7976111459775
 20
111.5332699878105
 10
156.421116659389
 20
110.1203019096248
 10
157.1065949070739
 20
108.9026678182138
 10
157.8574196929949
 20
107.8725969028111
 10
158.6769648211147
 20
107.0223183526501
 10
159.5686040953959
 20
106.3440613569645
 10
160.5357113198011
 20
105.8300551049876
 10
161.5816602982931
 20
105.4725287859531
 10
162.7098248348345
 20
105.2637115890945
 10
163.9235787333881
 20
105.1958327036453
  0
MTEXT
  5
165
330
E3
100
AcDbEntity
  8
Doc_ Floor
  6
Continuous
100
AcDbMText
 10
108.0339098253378
 20
167.0421997300251
 30
0.0
 40
2.5
 41
0.0
 71
     6
 72
     1
  1
{METAL FLASHING}
  7
GENERATED_STYLE_1
 73
     1
 44
1.0
  0
LINE
  5
166
330
E3
100
AcDbEntity
  8
Doc_ Floor
  6
Continuous
100
AcDbLine
 10
126.6377315301461
 20
160.8400517770748
 30
0.0
 11
123.0718403090997
 21
162.3275416975352
 31
0.0
  0
LINE
  5
167
330
E3
100
AcDbEntity
  8
Doc_ Floor
  6
Continuous
100
AcDbLine
 10
126.6377315301461
 20
160.8400517770748
 30
0.0
 11
124.2933234021921
 21
163.911200672162
 31
0.0
  0
LINE
  5
168
330
E3
100
AcDbEntity
  8
Doc_ Floor
  6
Continuous
100
AcDbLine
 10
123.0718403090997
 20
162.3275416975352
 30
0.0
 11
124.2933234021921
 21
163.911200672162
 31
0.0
  0
LWPOLYLINE
  5
169
330
E3
100
AcDbEntity
  8
Doc_ Floor
  6
Continuous
100
AcDbPolyline
 90
        9
 70
   128
 43
0.0
 10
123.6825828105559
 20
163.1193701917353
 10
122.0880847713312
 20
164.123773623539
 10
120.4818407728519
 20
164.962239531881
 10
118.8359257827555
 20
165.6446361904938
 10
117.1224147686798
 20
166.18083187311
 10
115.3133826982625
 20
166.5806948534622
 10
113.3809045391413
 20
166.8540934052829
 10
111.2970552589538
 20
167.0108958023048
 10
109.0339098253379
 20
167.0609703182604
  0
MTEXT
  5
16A
330
E3
100
AcDbEntity
  8
Doc_ Floor
  6
Continuous
100
AcDbMText
 10
108.0339098253378
 20
139.2806289391384
 30
0.0
 40
2.5
 41
39.1484652691462
 71
     6
 72
     1
  1
{BIRD'S BEAK AT BOTTOM EDGE}
  7
GENERATED_STYLE_1
 73
     1
 44
1.070162922071087
  0
LINE
  5
16B
330
E3
100
AcDbEntity
  8
Doc_ Floor
  6
Continuous
100
AcDbLine
 10
125.0436246921672
 20
145.0048803900416
 30
0.0
 11
122.8617476383273
 21
141.8162118362485
 31
0.0
  0
LINE
  5
16C
330
E3
100
AcDbEntity
  8
Doc_ Floor
  6
Continuous
100
AcDbLine
 10
125.0436246921672
 20
145.0048803900416
 30
0.0
 11
121.5597296780866
 21
143.3343504940087
 31
0.0
  0
LINE
  5
16D
330
E3
100
AcDbEntity
  8
Doc_ Floor
  6
Continuous
100
AcDbLine
 10
122.8617476383273
 20
141.8162118362485
 30
0.0
 11
121.5597296780866
 21
143.3343504940087
 31
0.0
  0
LWPOLYLINE
  5
16E
330
E3
100
AcDbEntity
  8
Doc_ Floor
  6
Continuous
100
AcDbPolyline
 90
        8
 70
   128
 43
0.0
 10
122.2107386989913
 20
142.5752796850201
 10
120.9177043003348
 20
141.742845784936
 10
119.5679416574175
 20
141.0470913315622
 10
118.139233576577
 20
140.4800987105053
 10
116.6093628641507
 20
140.0339503073715
 10
114.9561123264761
 20
139.7007285077674
 10
113.1572647698908
 20
139.4725156972993
 10
109.0339098253378
 20
139.2994465861972
  0
MTEXT
  5
16F
330
E3
100
AcDbEntity
  8
Doc_ Floor
  6
Continuous
100
AcDbMText
 10
188.6636468236601
 20
176.5690386934106
 30
0.0
 40
2.5
 41
62.39977031285682
 71
     4
 72
     1
  1
{NOTCHED TURN-DOWN OVER TRS 7.\P5MM MAX. GAP BETWEEN PAN AND EDGE OF FLASHING}
  7
GENERATED_STYLE_1
 73
     1
 44
1.065340909090909
  0
LINE
  5
170
330
E3
100
AcDbEntity
  8
Doc_ Floor
  6
Continuous
100
AcDbLine
 10
158.4037813171132
 20
157.4107671752428
 30
0.0
 11
160.4920394980369
 21
160.661517599273
 31
0.0
  0
LINE
  5
171
330
E3
100
AcDbEntity
  8
Doc_ Floor
  6
Continuous
100
AcDbLine
 10
158.4037813171132
 20
157.4107671752428
 30
0.0
 11
161.8376397693054
 21
159.1818680534707
 31
0.0
  0
LINE
  5
172
330
E3
100
AcDbEntity
  8
Doc_ Floor
  6
Continuous
100
AcDbLine
 10
160.4920394980369
 20
160.661517599273
 30
0.0
 11
161.8376397693054
 21
159.1818680534707
 31
0.0
  0
LWPOLYLINE
  5
173
330
E3
100
AcDbEntity
  8
Doc_ Floor
  6
Continuous
100
AcDbPolyline
 90
       11
 70
   128
 43
0.0
 10
161.164839481301
 20
159.921692554194
 10
166.025081642311
 20
164.208154551084
 10
170.3009506619634
 20
167.7719863196398
 10
174.0635057904777
 20
170.659760382421
 10
177.3838062780734
 20
172.9180492619871
 10
180.33291137497
 20
174.5934254808978
 10
182.9818803313869
 20
175.7324615617126
 10
184.2160197726091
 20
176.1154059636339
 10
185.4017723975438
 20
176.3817300269911
 10
186.5480206124683
 20
176.5372553171041
 10
187.6636468236601
 20
176.5878033992929
  0
MTEXT
  5
174
330
E3
100
AcDbEntity
  8
Doc_ Floor
  6
Continuous
100
AcDbMText
 10
108.0339098253378
 20
174.9367703809074
 30
0.0
 40
2.500000000000001
 41
0.0
 71
     6
 72
     1
  1
{STOPEND}
  7
GENERATED_STYLE_1
 73
     1
 44
1.0
  0
LINE
  5
175
330
E3
100
AcDbEntity
  8
Doc_ Floor
  6
Continuous
100
AcDbLine
 10
133.6674744867958
 20
160.0543452319624
 30
0.0
 11
130.2064272342246
 21
161.7717132181753
 31
0.0
  0
LINE
  5
176
330
E3
100
AcDbEntity
  8
Doc_ Floor
  6
Continuous
100
AcDbLine
 10
133.6674744867958
 20
160.0543452319624
 30
0.0
 11
131.5288036638837
 21
163.2721546209398
 31
0.0
  0
LINE
  5
177
330
E3
100
AcDbEntity
  8
Doc_ Floor
  6
Continuous
100
AcDbLine
 10
130.2064272342246
 20
161.7717132181753
 30
0.0
 11
131.5288036638837
 21
163.2721546209398
 31
0.0
  0
LWPOLYLINE
  5
178
330
E3
100
AcDbEntity
  8
Doc_ Floor
  6
Continuous
100
AcDbPolyline
 90
        9
 70
   128
 43
0.0
 10
130.8676151700328
 20
162.5219346490566
 10
127.0919861873974
 20
165.715898837504
 10
123.7286247139161
 20
168.3728275144363
 10
120.7208849685188
 20
170.5269865215487
 10
118.0121211701354
 20
172.2126417005363
 10
115.5456875376957
 20
173.4640588930943
 10
113.2649382901296
 20
174.315503940918
 10
111.113227646367
 20
174.8012426857024
 10
109.0339098253378
 20
174.9555409691427
  0
HATCH
  5
179
330
E3
100
AcDbEntity
  8
Doc_ Finishes
  6
Continuous
 62
   255
370
    18
100
AcDbHatch
 10
0.0
 20
0.0
 30
0.0
210
0.0
220
0.0
230
1.0
  2
SOLID
 70
     1
 71
     0
 91
        1
 92
        3
 72
     0
 73
     1
 93
        5
 10
160.5563082766261
 20
56.29457709202391
 10
160.5563082766261
 20
32.40279176343062
 10
268.2951197319069
 20
32.40279176343062
 10
268.2951197319069
 20
123.5642900369606
 10
220.3623675821381
 20
103.2850467728525
 97
        0
 75
     0
 76
     1
 98
        0
  0
LINE
  5
17A
330
E3
100
AcDbEntity
  8
Doc_ Finishes
  6
Continuous
 62
   255
370
    18
100
AcDbLine
 10
220.3623653339774
 20
103.2850505413478
 30
0.0
 11
160.556309796285
 21
56.29457628646654
 31
0.0
  0
LINE
  5
17B
330
E3
100
AcDbEntity
  8
Doc_ Finishes
  6
Continuous
 62
   255
370
    18
100
AcDbLine
 10
160.556309796285
 20
56.29457690591958
 30
0.0
 11
160.556309796285
 21
32.40279196665374
 31
0.0
  0
LINE
  5
17C
330
E3
100
AcDbEntity
  8
Doc_ Finishes
  6
Continuous
 62
   255
370
    18
100
AcDbLine
 10
268.2951203660438
 20
123.5642935969986
 30
0.0
 11
220.3623675193274
 21
103.2850486173552
 31
0.0
  0
LINE
  5
17D
330
E3
100
AcDbEntity
  8
0
  6
Continuous
100
AcDbLine
 10
94.7059307070651
 20
67.13021045718048
 30
0.0
 11
219.0690330331912
 21
67.13021045718048
 31
0.0
  0
LINE
  5
17E
330
E3
100
AcDbEntity
  8
0
  6
Continuous
100
AcDbLine
 10
195.0990162696757
 20
75.21657731790322
 30
0.0
 11
195.0990162696757
 21
34.84842949295378
 31
0.0
  0
LINE
  5
17F
330
E3
100
AcDbEntity
  8
0
  6
Continuous
100
AcDbLine
 10
94.7059307070651
 20
34.84842949295378
 30
0.0
 11
94.7059307070651
 21
67.13021045718048
 31
0.0
  0
LINE
  5
180
330
E3
100
AcDbEntity
  8
0
  6
Continuous
100
AcDbLine
 10
171.1289995061602
 20
75.21657731790322
 30
0.0
 11
171.1289995061602
 21
34.84842949295378
 31
0.0
  0
LINE
  5
181
330
E3
100
AcDbEntity
  8
0
  6
Continuous
100
AcDbLine
 10
94.7059307070651
 20
56.36961680243825
 30
0.0
 11
219.0690330331912
 21
56.36961680243825
 31
0.0
  0
LINE
  5
182
330
E3
100
AcDbEntity
  8
0
  6
Continuous
100
AcDbLine
 10
94.7059307070651
 20
45.60902314769601
 30
0.0
 11
219.0690330331912
 21
45.60902314769601
 31
0.0
  0
LINE
  5
183
330
E3
100
AcDbEntity
  8
0
  6
Continuous
100
AcDbLine
 10
171.1289995061602
 20
75.21657731790322
 30
0.0
 11
195.0990162696757
 21
75.21657731790322
 31
0.0
  0
LINE
  5
184
330
E3
100
AcDbEntity
  8
0
  6
Continuous
100
AcDbLine
 10
94.7059307070651
 20
34.84842949295378
 30
0.0
 11
219.0690330331912
 21
34.84842949295378
 31
0.0
  0
LINE
  5
185
330
E3
100
AcDbEntity
  8
0
  6
Continuous
100
AcDbLine
 10
219.0690330331912
 20
75.21657731790322
 30
0.0
 11
219.0690330331912
 21
34.84842949295378
 31
0.0
  0
LINE
  5
186
330
E3
100
AcDbEntity
  8
0
  6
Continuous
100
AcDbLine
 10
195.0990162696757
 20
75.21657731790322
 30
0.0
 11
219.0690330331912
 21
75.21657731790322
 31
0.0
  0
MTEXT
  5
187
330
E3
100
AcDbEntity
  8
0
  6
Continuous
100
AcDbMText
 10
98.261856873839
 20
58.28656778696154
 30
0.0
 40
2.499999999999999
 41
69.01187578516154
 71
     7
 72
     1
  1
\A1;{\fCentury Gothic|b0|i0|c0|p34;LOW, MEDIUM OR HIGH WIND ZONE.\P ROOF PITCH \fArial|b0|i0|c0|p34;\H1.029412x;\U+2265\fCentury Gothic|b0|i0|c0|p34;\H0.971429x; 10\fArial|b0|i0|c0|p34;\H1.029412x;\U+00B0}
  7
GENERATED_STYLE_1
 73
     1
 44
1.056355725756043
  0
MTEXT
  5
188
330
E3
100
AcDbEntity
  8
0
  6
Continuous
100
AcDbMText
 10
98.261856873839
 20
47.86372317897222
 30
0.0
 40
2.5
 41
69.01187578516154
 71
     7
 72
     1
  1
\A1;{\fCentury Gothic|b0|i0|c0|p34;VERY HIGH WIND ZONE.\P ROOF PITCH \fArial|b0|i0|c0|p34;\H1.029412x;<\fCentury Gothic|b0|i0|c0|p34;\H0.971429x; 10\fArial|b0|i0|c0|p34;\H1.029412x;\U+00B0}
  7
GENERATED_STYLE_1
 73
     1
 44
1.056355725756043
  0
MTEXT
  5
189
330
E3
100
AcDbEntity
  8
0
  6
Continuous
100
AcDbMText
 10
182.7611909304271
 20
60.32639526062167
 30
0.0
 40
2.499999999999999
 41
0.0
 71
     8
 72
     1
  1
{50MM}
  7
GENERATED_STYLE_1
 73
     1
 44
1.0
  0
MTEXT
  5
18A
330
E3
100
AcDbEntity
  8
0
  6
Continuous
100
AcDbMText
 10
182.7611909304271
 20
49.08761573916392
 30
0.0
 40
2.499999999999999
 41
0.0
 71
     8
 72
     1
  1
{75MM}
  7
GENERATED_STYLE_1
 73
     1
 44
1.0
  0
MTEXT
  5
18B
330
E3
100
AcDbEntity
  8
0
  6
Continuous
100
AcDbMText
 10
182.7611909304271
 20
70.20845958382333
 30
0.0
 40
2.499999999999999
 41
0.0
 71
     8
 72
     1
  1
{A}
  7
GENERATED_STYLE_1
 73
     1
 44
1.0
  0
MTEXT
  5
18C
330
E3
100
AcDbEntity
  8
0
  6
Continuous
100
AcDbMText
 10
98.261856873839
 20
39.3921518697125
 30
0.0
 40
2.5
 41
0.0
 71
     7
 72
     1
  1
{EXTRA WIND ZONE.}
  7
GENERATED_STYLE_1
 73
     1
 44
1.0
  0
MTEXT
  5
18D
330
E3
100
AcDbEntity
  8
0
  6
Continuous
100
AcDbMText
 10
182.7611909304271
 20
38.32702237368838
 30
0.0
 40
2.499999999999999
 41
0.0
 71
     8
 72
     1
  1
{90MM}
  7
GENERATED_STYLE_1
 73
     1
 44
1.0
  0
MTEXT
  5
18E
330
E3
100
AcDbEntity
  8
0
  6
Continuous
100
AcDbMText
 10
206.7312077672151
 20
60.32640241381011
 30
0.0
 40
2.499999999999999
 41
0.0
 71
     8
 72
     1
  1
{150MM}
  7
GENERATED_STYLE_1
 73
     1
 44
1.0
  0
MTEXT
  5
18F
330
E3
100
AcDbEntity
  8
0
  6
Continuous
100
AcDbMText
 10
206.7312077672151
 20
49.08762289235236
 30
0.0
 40
2.499999999999999
 41
0.0
 71
     8
 72
     1
  1
{200MM}
  7
GENERATED_STYLE_1
 73
     1
 44
1.0
  0
MTEXT
  5
190
330
E3
100
AcDbEntity
  8
0
  6
Continuous
100
AcDbMText
 10
206.7312077672151
 20
70.20846009875902
 30
0.0
 40
2.499999999999999
 41
0.0
 71
     8
 72
     1
  1
{B}
  7
GENERATED_STYLE_1
 73
     1
 44
1.0
  0
MTEXT
  5
191
330
E3
100
AcDbEntity
  8
0
  6
Continuous
100
AcDbMText
 10
206.7312077672151
 20
38.32702038669159
 30
0.0
 40
2.499999999999999
 41
0.0
 71
     8
 72
     1
  1
{200MM}
  7
GENERATED_STYLE_1
 73
     1
 44
1.0
  0
HATCH
  5
192
330
E3
100
AcDbEntity
  8
0
  6
Continuous
 62
   255
370
     0
100
AcDbHatch
 10
0.0
 20
0.0
 30
0.0
210
0.0
220
0.0
230
1.0
  2
SOLID
 70
     1
 71
     0
 91
        1
 92
        3
 72
     0
 73
     1
 93
        4
 10
152.636023069651
 20
164.0551031165809
 10
151.1588114401327
 20
164.3155753830813
 10
151.0719873512993
 20
163.8231715065752
 10
152.5491989808176
 20
163.5626992400748
 97
        0
 75
     0
 76
     1
 98
        0
  0
HATCH
  5
193
330
E3
100
AcDbEntity
  8
0
  6
Continuous
 62
   255
370
     0
100
AcDbHatch
 10
0.0
 20
0.0
 30
0.0
210
0.0
220
0.0
230
1.0
  2
SOLID
 70
     1
 71
     0
 91
        1
 92
        3
 72
     1
 73
     1
 93
        4
 10
152.3753504499257
 20
164.0164478482467
 42
0.1666666666666667
 10
151.3905426969135
 20
164.1900960259136
 42
0.0
 10
151.3326599710246
 20
163.8618267749094
 42
0.1666666666666667
 10
152.3174677240368
 20
163.6881785972425
 42
0.0
 97
        0
 75
     0
 76
     1
 98
        0
  0
ARC
  5
194
330
E3
100
AcDbEntity
  8
0
  6
Continuous
100
AcDbCircle
 10
151.6297096476554
 20
162.6670939639373
 30
0.0
 40
1.541666666666623
100
AcDbArc
 50
61.07535558395009
 51
98.92464441605254
  0
LINE
  5
195
330
E3
100
AcDbEntity
  8
0
  6
Continuous
100
AcDbLine
 10
151.3905429042847
 20
164.1900945109598
 30
0.0
 11
151.3326588043076
 21
163.8618267275928
 31
0.0
  0
ARC
  5
196
330
E3
100
AcDbEntity
  8
0
  6
Continuous
100
AcDbCircle
 10
152.0783007732949
 20
165.2111806592188
 30
0.0
 40
1.541666666666623
100
AcDbArc
 50
241.0753555839501
 51
278.9246444160535
  0
LINE
  5
197
330
E3
100
AcDbEntity
  8
0
  6
Continuous
100
AcDbLine
 10
152.3174693178392
 20
163.6881780093769
 30
0.0
 11
152.375349836101
 21
164.0164493744592
 31
0.0
  0
HATCH
  5
198
330
E3
100
AcDbEntity
  8
0
  6
Continuous
 62
   255
370
     0
100
AcDbHatch
 10
0.0
 20
0.0
 30
0.0
210
0.0
220
0.0
230
1.0
  2
SOLID
 70
     1
 71
     0
 91
        1
 92
        3
 72
     1
 73
     1
 93
        4
 10
152.8677543264319
 20
163.9296237594132
 42
0.3333333333333333
 10
152.3753504499257
 20
164.0164478482467
 42
0.0
 10
152.3174677240368
 20
163.6881785972425
 42
0.3333333333333333
 10
152.8098716005429
 20
163.6013545084091
 42
0.0
 97
        0
 75
     0
 76
     1
 98
        0
  0
ARC
  5
199
330
E3
100
AcDbEntity
  8
0
  6
Continuous
100
AcDbCircle
 10
152.5636696622898
 20
163.6447665528258
 30
0.0
 40
0.4166666666666826
100
AcDbArc
 50
43.13010235415265
 51
116.8698976458419
  0
LINE
  5
19A
330
E3
100
AcDbEntity
  8
0
  6
Continuous
100
AcDbLine
 10
152.375349836101
 20
164.0164493744592
 30
0.0
 11
152.3174693178392
 21
163.6881780093769
 31
0.0
  0
ARC
  5
19B
330
E3
100
AcDbEntity
  8
0
  6
Continuous
100
AcDbCircle
 10
152.6215523881788
 20
163.9730358038299
 30
0.0
 40
0.4166666666666826
100
AcDbArc
 50
223.1301023541527
 51
296.8698976458419
  0
LINE
  5
19C
330
E3
100
AcDbEntity
  8
0
  6
Continuous
100
AcDbLine
 10
152.8098727837474
 20
163.6013536502689
 30
0.0
 11
152.8677533020092
 21
163.9296250153513
 31
0.0
  0
HATCH
  5
19D
330
E3
100
AcDbEntity
  8
0
  6
Continuous
 62
   255
370
     0
100
AcDbHatch
 10
0.0
 20
0.0
 30
0.0
210
0.0
220
0.0
230
1.0
  2
SOLID
 70
     1
 71
     0
 91
        1
 92
        3
 72
     1
 73
     1
 93
        4
 10
150.8981388204074
 20
164.276920114747
 42
0.0
 10
150.8402560945185
 20
163.9486508637429
 42
0.3333333333333333
 10
151.3326599710246
 20
163.8618267749094
 42
0.0
 10
151.3905426969135
 20
164.1900960259136
 42
0.3333333333333333
 97
        0
 75
     0
 76
     1
 98
        0
  0
LINE
  5
19E
330
E3
100
AcDbEntity
  8
0
  6
Continuous
100
AcDbLine
 10
150.8402553383995
 20
163.9486510867007
 30
0.0
 11
150.8981394383765
 21
164.2769188700677
 31
0.0
  0
ARC
  5
19F
330
E3
100
AcDbEntity
  8
0
  6
Continuous
100
AcDbCircle
 10
151.1443407586605
 20
164.2335080703302
 30
0.0
 40
0.4166666666666231
100
AcDbArc
 50
223.1301023541551
 51
296.8698976458471
  0
LINE
  5
1A0
330
E3
100
AcDbEntity
  8
0
  6
Continuous
100
AcDbLine
 10
151.3905429042847
 20
164.1900945109598
 30
0.0
 11
151.3326588043076
 21
163.8618267275928
 31
0.0
  0
ARC
  5
1A1
330
E3
100
AcDbEntity
  8
0
  6
Continuous
100
AcDbCircle
 10
151.0864580327715
 20
163.9052388193262
 30
0.0
 40
0.4166666666666826
100
AcDbArc
 50
43.13010235415265
 51
116.8698976458419
  0
HATCH
  5
1A2
330
E3
100
AcDbEntity
  8
0
  6
Continuous
 62
   255
370
     0
100
AcDbHatch
 10
0.0
 20
0.0
 30
0.0
210
0.0
220
0.0
230
1.0
  2
SOLID
 70
     1
 71
     0
 91
        1
 92
        3
 72
     0
 73
     1
 93
        4
 10
151.4823242433236
 20
163.7508180413312
 10
151.2044871590565
 20
162.1751256365117
 10
151.8610250045261
 20
162.0593603004992
 10
152.1388620887932
 20
163.6350527053187
 97
        0
 75
     0
 76
     1
 98
        0
  0
LINE
  5
1A3
330
E3
100
AcDbEntity
  8
0
  6
Continuous
100
AcDbLine
 10
151.4823243572833
 20
163.7508186271913
 30
0.0
 11
151.204487124481
 21
162.175125387256
 31
0.0
  0
LINE
  5
1A4
330
E3
100
AcDbEntity
  8
0
  6
Continuous
100
AcDbLine
 10
151.204487124481
 20
162.175125387256
 30
0.0
 11
151.8610262729304
 21
162.0593607690171
 31
0.0
  0
LINE
  5
1A5
330
E3
100
AcDbEntity
  8
0
  6
Continuous
100
AcDbLine
 10
151.8610262729304
 20
162.0593607690171
 30
0.0
 11
152.1388635057326
 21
163.6350540089525
 31
0.0
  0
LINE
  5
1A6
330
E3
100
AcDbEntity
  8
0
  6
Continuous
100
AcDbLine
 10
152.1388635057326
 20
163.6350540089525
 30
0.0
 11
151.4823243572833
 21
163.7508186271913
 31
0.0
  0
HATCH
  5
1A7
330
E3
100
AcDbEntity
  8
0
  6
Continuous
 62
   255
370
     0
100
AcDbHatch
 10
0.0
 20
0.0
 30
0.0
210
0.0
220
0.0
230
1.0
  2
SOLID
 70
     1
 71
     0
 91
        1
 92
        3
 72
     0
 73
     1
 93
        5
 10
151.2373137558877
 20
162.1693374218056
 10
149.0840763528177
 20
149.9577212844542
 10
149.2753297721212
 20
149.3147421793468
 10
149.674961004625
 20
149.853532377854
 10
151.828198407695
 20
162.0651485152054
 97
        0
 75
     0
 76
     1
 98
        0
  0
LINE
  5
1A8
330
E3
100
AcDbEntity
  8
0
  6
Continuous
100
AcDbLine
 10
151.2373135446462
 20
162.1693373354298
 30
0.0
 11
149.0840758858571
 21
149.9577227847904
 31
0.0
  0
LINE
  5
1A9
330
E3
100
AcDbEntity
  8
0
  6
Continuous
100
AcDbLine
 10
149.0840758858571
 20
149.9577227847904
 30
0.0
 11
149.2753287344725
 21
149.3147404285206
 31
0.0
  0
LINE
  5
1AA
330
E3
100
AcDbEntity
  8
0
  6
Continuous
100
AcDbLine
 10
149.2753287344725
 20
149.3147404285206
 30
0.0
 11
149.674962193976
 21
149.8535306884887
 31
0.0
  0
LINE
  5
1AB
330
E3
100
AcDbEntity
  8
0
  6
Continuous
100
AcDbLine
 10
149.674962193976
 20
149.8535306884887
 30
0.0
 11
151.8281998527652
 21
162.0651488208433
 31
0.0
  0
LINE
  5
1AC
330
E3
100
AcDbEntity
  8
0
  6
Continuous
100
AcDbLine
 10
151.8281998527652
 20
162.0651488208433
 30
0.0
 11
151.2373135446462
 21
162.1693373354298
 31
0.0
  0
LINE
  5
1AD
330
E3
100
AcDbEntity
  8
0
  6
Continuous
100
AcDbLine
 10
152.6360234894782
 20
164.0551032453182
 30
0.0
 11
151.1588130917537
 21
164.315576322642
 31
0.0
  0
LINE
  5
1AE
330
E3
100
AcDbEntity
  8
0
  6
Continuous
100
AcDbLine
 10
151.0719887326457
 20
163.8231728567337
 30
0.0
 11
152.5491991303702
 21
163.56269977941
 31
0.0
  0
LINE
  5
1AF
330
E3
100
AcDbEntity
  8
0
  6
Continuous
100
AcDbLine
 10
152.0251599582974
 20
162.030418879672
 30
0.0
 11
152.0223361176384
 21
162.025361013635
 31
0.0
  0
LINE
  5
1B0
330
E3
100
AcDbEntity
  8
0
  6
Continuous
100
AcDbLine
 10
152.0223361176384
 20
162.025361013635
 30
0.0
 11
152.0157790464914
 21
162.0209614168583
 31
0.0
  0
LINE
  5
1B1
330
E3
100
AcDbEntity
  8
0
  6
Continuous
100
AcDbLine
 10
152.0157790464914
 20
162.0209614168583
 30
0.0
 11
152.0055305742466
 21
162.0172111440849
 31
0.0
  0
LINE
  5
1B2
330
E3
100
AcDbEntity
  8
0
  6
Continuous
100
AcDbLine
 10
152.0055305742466
 20
162.0172111440849
 30
0.0
 11
151.9916657545566
 21
162.0141022152575
 31
0.0
  0
LINE
  5
1B3
330
E3
100
AcDbEntity
  8
0
  6
Continuous
100
AcDbLine
 10
151.9916657545566
 20
162.0141022152575
 30
0.0
 11
151.9742765270714
 21
162.0116129231664
 31
0.0
  0
LINE
  5
1B4
330
E3
100
AcDbEntity
  8
0
  6
Continuous
100
AcDbLine
 10
151.9742765270714
 20
162.0116129231664
 30
0.0
 11
151.9534882518244
 21
162.0097217775202
 31
0.0
  0
LINE
  5
1B5
330
E3
100
AcDbEntity
  8
0
  6
Continuous
100
AcDbLine
 10
151.9534882518244
 20
162.0097217775202
 30
0.0
 11
151.9294585242861
 21
162.0084037063123
 31
0.0
  0
LINE
  5
1B6
330
E3
100
AcDbEntity
  8
0
  6
Continuous
100
AcDbLine
 10
151.9294585242861
 20
162.0084037063123
 30
0.0
 11
151.9023592667881
 21
162.0076264741055
 31
0.0
  0
LINE
  5
1B7
330
E3
100
AcDbEntity
  8
0
  6
Continuous
100
AcDbLine
 10
151.9023592667881
 20
162.0076264741055
 30
0.0
 11
151.8723874736683
 21
162.0073542637473
 31
0.0
  0
LINE
  5
1B8
330
E3
100
AcDbEntity
  8
0
  6
Continuous
100
AcDbLine
 10
151.8723874736683
 20
162.0073542637473
 30
0.0
 11
151.8397652112718
 21
162.0075512580854
 31
0.0
  0
LINE
  5
1B9
330
E3
100
AcDbEntity
  8
0
  6
Continuous
100
AcDbLine
 10
151.8397652112718
 20
162.0075512580854
 30
0.0
 11
151.8047360362347
 21
162.0081708948217
 31
0.0
  0
LINE
  5
1BA
330
E3
100
AcDbEntity
  8
0
  6
Continuous
100
AcDbLine
 10
151.8047360362347
 20
162.0081708948217
 30
0.0
 11
151.7675578320541
 21
162.0091701933734
 31
0.0
  0
LINE
  5
1BB
330
E3
100
AcDbEntity
  8
0
  6
Continuous
100
AcDbLine
 10
151.7675578320541
 20
162.0091701933734
 30
0.0
 11
151.7285028090883
 21
162.0105025914423
 31
0.0
  0
LINE
  5
1BC
330
E3
100
AcDbEntity
  8
0
  6
Continuous
100
AcDbLine
 10
151.7285028090883
 20
162.0105025914423
 30
0.0
 11
151.6878682497022
 21
162.0121107815846
 31
0.0
  0
LINE
  5
1BD
330
E3
100
AcDbEntity
  8
0
  6
Continuous
100
AcDbLine
 10
151.6878682497022
 20
162.0121107815846
 30
0.0
 11
151.6459478545453
 21
162.0139482015022
 31
0.0
  0
LINE
  5
1BE
330
E3
100
AcDbEntity
  8
0
  6
Continuous
100
AcDbLine
 10
151.6459478545453
 20
162.0139482015022
 30
0.0
 11
151.6030603962738
 21
162.015953962036
 31
0.0
  0
LINE
  5
1BF
330
E3
100
AcDbEntity
  8
0
  6
Continuous
100
AcDbLine
 10
151.6030603962738
 20
162.015953962036
 30
0.0
 11
151.5595210658289
 21
162.0180743374575
 31
0.0
  0
LINE
  5
1C0
330
E3
100
AcDbEntity
  8
0
  6
Continuous
100
AcDbLine
 10
151.5595210658289
 20
162.0180743374575
 30
0.0
 11
151.5156557992972
 21
162.020255602038
 31
0.0
  0
LINE
  5
1C1
330
E3
100
AcDbEntity
  8
0
  6
Continuous
100
AcDbLine
 10
151.5156557992972
 20
162.020255602038
 30
0.0
 11
151.4717869510502
 21
162.0224332849033
 31
0.0
  0
LINE
  5
1C2
330
E3
100
AcDbEntity
  8
0
  6
Continuous
100
AcDbLine
 10
151.4717869510502
 20
162.0224332849033
 30
0.0
 11
151.4282476206053
 21
162.0245536603248
 31
0.0
  0
LINE
  5
1C3
330
E3
100
AcDbEntity
  8
0
  6
Continuous
100
AcDbLine
 10
151.4282476206053
 20
162.0245536603248
 30
0.0
 11
151.3853601623339
 21
162.0265630025739
 31
0.0
  0
LINE
  5
1C4
330
E3
100
AcDbEntity
  8
0
  6
Continuous
100
AcDbLine
 10
151.3853601623339
 20
162.0265630025739
 30
0.0
 11
151.3434433488922
 21
162.0283968407763
 31
0.0
  0
LINE
  5
1C5
330
E3
100
AcDbEntity
  8
0
  6
Continuous
100
AcDbLine
 10
151.3434433488922
 20
162.0283968407763
 30
0.0
 11
151.3028052077908
 21
162.0300050309185
 31
0.0
  0
LINE
  5
1C6
330
E3
100
AcDbEntity
  8
0
  6
Continuous
100
AcDbLine
 10
151.3028052077908
 20
162.0300050309185
 30
0.0
 11
151.263750184825
 21
162.0313374289874
 31
0.0
  0
LINE
  5
1C7
330
E3
100
AcDbEntity
  8
0
  6
Continuous
100
AcDbLine
 10
151.263750184825
 20
162.0313374289874
 30
0.0
 11
151.2265719806445
 21
162.0323367275391
 31
0.0
  0
LINE
  5
1C8
330
E3
100
AcDbEntity
  8
0
  6
Continuous
100
AcDbLine
 10
151.2265719806445
 20
162.0323367275391
 30
0.0
 11
151.1915428056074
 21
162.0329563642754
 31
0.0
  0
LINE
  5
1C9
330
E3
100
AcDbEntity
  8
0
  6
Continuous
100
AcDbLine
 10
151.1915428056074
 20
162.0329563642754
 30
0.0
 11
151.1589205432108
 21
162.0331533586136
 31
0.0
  0
LINE
  5
1CA
330
E3
100
AcDbEntity
  8
0
  6
Continuous
100
AcDbLine
 10
151.1589205432108
 20
162.0331533586136
 30
0.0
 11
151.1289487500911
 21
162.0328811482554
 31
0.0
  0
LINE
  5
1CB
330
E3
100
AcDbEntity
  8
0
  6
Continuous
100
AcDbLine
 10
151.1289487500911
 20
162.0328811482554
 30
0.0
 11
151.101849492593
 21
162.0321039160486
 31
0.0
  0
LINE
  5
1CC
330
E3
100
AcDbEntity
  8
0
  6
Continuous
100
AcDbLine
 10
151.101849492593
 20
162.0321039160486
 30
0.0
 11
151.0778197650548
 21
162.0307858448406
 31
0.0
  0
LINE
  5
1CD
330
E3
100
AcDbEntity
  8
0
  6
Continuous
100
AcDbLine
 10
151.0778197650548
 20
162.0307858448406
 30
0.0
 11
151.057035071523
 21
162.0288946991945
 31
0.0
  0
LINE
  5
1CE
330
E3
100
AcDbEntity
  8
0
  6
Continuous
100
AcDbLine
 10
151.057035071523
 20
162.0288946991945
 30
0.0
 11
151.0396458440378
 21
162.0264054071034
 31
0.0
  0
LINE
  5
1CF
330
E3
100
AcDbEntity
  8
0
  6
Continuous
100
AcDbLine
 10
151.0396458440378
 20
162.0264054071034
 30
0.0
 11
151.0257774426325
 21
162.023296478276
 31
0.0
  0
LINE
  5
1D0
330
E3
100
AcDbEntity
  8
0
  6
Continuous
100
AcDbLine
 10
151.0257774426325
 20
162.023296478276
 30
0.0
 11
151.0155301553338
 21
162.0195464224207
 31
0.0
  0
LINE
  5
1D1
330
E3
100
AcDbEntity
  8
0
  6
Continuous
100
AcDbLine
 10
151.0155301553338
 20
162.0195464224207
 30
0.0
 11
151.0089726170099
 21
162.0151476386917
 31
0.0
  0
LINE
  5
1D2
330
E3
100
AcDbEntity
  8
0
  6
Continuous
100
AcDbLine
 10
151.0089726170099
 20
162.0151476386917
 30
0.0
 11
151.0061487763508
 21
162.0100897726547
 31
0.0
  0
LINE
  5
1D3
330
E3
100
AcDbEntity
  8
0
  6
Continuous
100
AcDbLine
 10
151.9567531004286
 20
161.6424643103036
 30
0.0
 11
151.9539292597696
 21
161.6374064442666
 31
0.0
  0
LINE
  5
1D4
330
E3
100
AcDbEntity
  8
0
  6
Continuous
100
AcDbLine
 10
151.9539292597696
 20
161.6374064442666
 30
0.0
 11
151.9473721886226
 21
161.6330068474898
 31
0.0
  0
LINE
  5
1D5
330
E3
100
AcDbEntity
  8
0
  6
Continuous
100
AcDbLine
 10
151.9473721886226
 20
161.6330068474898
 30
0.0
 11
151.9371233948975
 21
161.6292576579756
 31
0.0
  0
LINE
  5
1D6
330
E3
100
AcDbEntity
  8
0
  6
Continuous
100
AcDbLine
 10
151.9371233948975
 20
161.6292576579756
 30
0.0
 11
151.9232585752075
 21
161.6261487291482
 31
0.0
  0
LINE
  5
1D7
330
E3
100
AcDbEntity
  8
0
  6
Continuous
100
AcDbLine
 10
151.9232585752075
 20
161.6261487291482
 30
0.0
 11
151.9058693477223
 21
161.6236594370571
 31
0.0
  0
LINE
  5
1D8
330
E3
100
AcDbEntity
  8
0
  6
Continuous
100
AcDbLine
 10
151.9058693477223
 20
161.6236594370571
 30
0.0
 11
151.8850846541905
 21
161.6217682914109
 31
0.0
  0
LINE
  5
1D9
330
E3
100
AcDbEntity
  8
0
  6
Continuous
100
AcDbLine
 10
151.8850846541905
 20
161.6217682914109
 30
0.0
 11
151.861051344937
 21
161.620450220203
 31
0.0
  0
LINE
  5
1DA
330
E3
100
AcDbEntity
  8
0
  6
Continuous
100
AcDbLine
 10
151.861051344937
 20
161.620450220203
 30
0.0
 11
151.8339520874389
 21
161.6196729879962
 31
0.0
  0
LINE
  5
1DB
330
E3
100
AcDbEntity
  8
0
  6
Continuous
100
AcDbLine
 10
151.8339520874389
 20
161.6196729879962
 30
0.0
 11
151.8039802943192
 21
161.619400777638
 31
0.0
  0
LINE
  5
1DC
330
E3
100
AcDbEntity
  8
0
  6
Continuous
100
AcDbLine
 10
151.8039802943192
 20
161.619400777638
 30
0.0
 11
151.7713580319227
 21
161.6195977719761
 31
0.0
  0
LINE
  5
1DD
330
E3
100
AcDbEntity
  8
0
  6
Continuous
100
AcDbLine
 10
151.7713580319227
 20
161.6195977719761
 30
0.0
 11
151.7363288568855
 21
161.6202174087125
 31
0.0
  0
LINE
  5
1DE
330
E3
100
AcDbEntity
  8
0
  6
Continuous
100
AcDbLine
 10
151.7363288568855
 20
161.6202174087125
 30
0.0
 11
151.699150652705
 21
161.6212167072642
 31
0.0
  0
LINE
  5
1DF
330
E3
100
AcDbEntity
  8
0
  6
Continuous
100
AcDbLine
 10
151.699150652705
 20
161.6212167072642
 30
0.0
 11
151.6600956297392
 21
161.6225491053331
 31
0.0
  0
LINE
  5
1E0
330
E3
100
AcDbEntity
  8
0
  6
Continuous
100
AcDbLine
 10
151.6600956297392
 20
161.6225491053331
 30
0.0
 11
151.6194610703531
 21
161.6241572954754
 31
0.0
  0
LINE
  5
1E1
330
E3
100
AcDbEntity
  8
0
  6
Continuous
100
AcDbLine
 10
151.6194610703531
 20
161.6241572954754
 30
0.0
 11
151.5775406751962
 21
161.6259911336777
 31
0.0
  0
LINE
  5
1E2
330
E3
100
AcDbEntity
  8
0
  6
Continuous
100
AcDbLine
 10
151.5775406751962
 20
161.6259911336777
 30
0.0
 11
151.5346532169247
 21
161.6280004759268
 31
0.0
  0
LINE
  5
1E3
330
E3
100
AcDbEntity
  8
0
  6
Continuous
100
AcDbLine
 10
151.5346532169247
 20
161.6280004759268
 30
0.0
 11
151.4911138864798
 21
161.6301208513482
 31
0.0
  0
LINE
  5
1E4
330
E3
100
AcDbEntity
  8
0
  6
Continuous
100
AcDbLine
 10
151.4911138864798
 20
161.6301208513482
 30
0.0
 11
151.4472486199481
 21
161.6322985342135
 31
0.0
  0
LINE
  5
1E5
330
E3
100
AcDbEntity
  8
0
  6
Continuous
100
AcDbLine
 10
151.4472486199481
 20
161.6322985342135
 30
0.0
 11
151.4033833534164
 21
161.634479798794
 31
0.0
  0
LINE
  5
1E6
330
E3
100
AcDbEntity
  8
0
  6
Continuous
100
AcDbLine
 10
151.4033833534164
 20
161.634479798794
 30
0.0
 11
151.3598440229714
 21
161.6366001742155
 31
0.0
  0
LINE
  5
1E7
330
E3
100
AcDbEntity
  8
0
  6
Continuous
100
AcDbLine
 10
151.3598440229714
 20
161.6366001742155
 30
0.0
 11
151.3169529829847
 21
161.6386059347494
 31
0.0
  0
LINE
  5
1E8
330
E3
100
AcDbEntity
  8
0
  6
Continuous
100
AcDbLine
 10
151.3169529829847
 20
161.6386059347494
 30
0.0
 11
151.2750361695431
 21
161.640443354667
 31
0.0
  0
LINE
  5
1E9
330
E3
100
AcDbEntity
  8
0
  6
Continuous
100
AcDbLine
 10
151.2750361695431
 20
161.640443354667
 30
0.0
 11
151.2343980284417
 21
161.6420515448092
 31
0.0
  0
LINE
  5
1EA
330
E3
100
AcDbEntity
  8
0
  6
Continuous
100
AcDbLine
 10
151.2343980284417
 20
161.6420515448092
 30
0.0
 11
151.1953465871911
 21
161.6433839428782
 31
0.0
  0
LINE
  5
1EB
330
E3
100
AcDbEntity
  8
0
  6
Continuous
100
AcDbLine
 10
151.1953465871911
 20
161.6433839428782
 30
0.0
 11
151.1581648012954
 21
161.6443832414299
 31
0.0
  0
LINE
  5
1EC
330
E3
100
AcDbEntity
  8
0
  6
Continuous
100
AcDbLine
 10
151.1581648012954
 20
161.6443832414299
 30
0.0
 11
151.1231356262582
 21
161.6450028781662
 31
0.0
  0
LINE
  5
1ED
330
E3
100
AcDbEntity
  8
0
  6
Continuous
100
AcDbLine
 10
151.1231356262582
 20
161.6450028781662
 30
0.0
 11
151.0905133638616
 21
161.6451998725043
 31
0.0
  0
LINE
  5
1EE
330
E3
100
AcDbEntity
  8
0
  6
Continuous
100
AcDbLine
 10
151.0905133638616
 20
161.6451998725043
 30
0.0
 11
151.0605415707419
 21
161.6449276621462
 31
0.0
  0
LINE
  5
1EF
330
E3
100
AcDbEntity
  8
0
  6
Continuous
100
AcDbLine
 10
151.0605415707419
 20
161.6449276621462
 30
0.0
 11
151.0334423132439
 21
161.6441504299393
 31
0.0
  0
LINE
  5
1F0
330
E3
100
AcDbEntity
  8
0
  6
Continuous
100
AcDbLine
 10
151.0334423132439
 20
161.6441504299393
 30
0.0
 11
151.0094125857056
 21
161.6428323587314
 31
0.0
  0
LINE
  5
1F1
330
E3
100
AcDbEntity
  8
0
  6
Continuous
100
AcDbLine
 10
151.0094125857056
 20
161.6428323587314
 30
0.0
 11
150.9886278921739
 21
161.6409412130852
 31
0.0
  0
LINE
  5
1F2
330
E3
100
AcDbEntity
  8
0
  6
Continuous
100
AcDbLine
 10
150.9886278921739
 20
161.6409412130852
 30
0.0
 11
150.9712386646887
 21
161.6384519209941
 31
0.0
  0
LINE
  5
1F3
330
E3
100
AcDbEntity
  8
0
  6
Continuous
100
AcDbLine
 10
150.9712386646887
 20
161.6384519209941
 30
0.0
 11
150.9573702632834
 21
161.6353429921666
 31
0.0
  0
LINE
  5
1F4
330
E3
100
AcDbEntity
  8
0
  6
Continuous
100
AcDbLine
 10
150.9573702632834
 20
161.6353429921666
 30
0.0
 11
150.9471229759847
 21
161.6315929363114
 31
0.0
  0
LINE
  5
1F5
330
E3
100
AcDbEntity
  8
0
  6
Continuous
100
AcDbLine
 10
150.9471229759847
 20
161.6315929363114
 30
0.0
 11
150.9405657591411
 21
161.6271930693233
 31
0.0
  0
LINE
  5
1F6
330
E3
100
AcDbEntity
  8
0
  6
Continuous
100
AcDbLine
 10
150.9405657591411
 20
161.6271930693233
 30
0.0
 11
150.937741918482
 21
161.6221352032863
 31
0.0
  0
LINE
  5
1F7
330
E3
100
AcDbEntity
  8
0
  6
Continuous
100
AcDbLine
 10
151.8883462425598
 20
161.2545097409351
 30
0.0
 11
151.8855224019007
 21
161.2494518748981
 31
0.0
  0
LINE
  5
1F8
330
E3
100
AcDbEntity
  8
0
  6
Continuous
100
AcDbLine
 10
151.8855224019007
 20
161.2494518748981
 30
0.0
 11
151.8789653307539
 21
161.2450522781214
 31
0.0
  0
LINE
  5
1F9
330
E3
100
AcDbEntity
  8
0
  6
Continuous
100
AcDbLine
 10
151.8789653307539
 20
161.2450522781214
 30
0.0
 11
151.8687162155484
 21
161.2413041718664
 31
0.0
  0
LINE
  5
1FA
330
E3
100
AcDbEntity
  8
0
  6
Continuous
100
AcDbLine
 10
151.8687162155484
 20
161.2413041718664
 30
0.0
 11
151.8548513958584
 21
161.2381916613237
 31
0.0
  0
LINE
  5
1FB
330
E3
100
AcDbEntity
  8
0
  6
Continuous
100
AcDbLine
 10
151.8548513958584
 20
161.2381916613237
 30
0.0
 11
151.8374621683731
 21
161.2357023692326
 31
0.0
  0
LINE
  5
1FC
330
E3
100
AcDbEntity
  8
0
  6
Continuous
100
AcDbLine
 10
151.8374621683731
 20
161.2357023692326
 30
0.0
 11
151.8166774748414
 21
161.2338112235865
 31
0.0
  0
LINE
  5
1FD
330
E3
100
AcDbEntity
  8
0
  6
Continuous
100
AcDbLine
 10
151.8166774748414
 20
161.2338112235865
 30
0.0
 11
151.7926441655879
 21
161.2324931523785
 31
0.0
  0
LINE
  5
1FE
330
E3
100
AcDbEntity
  8
0
  6
Continuous
100
AcDbLine
 10
151.7926441655879
 20
161.2324931523785
 30
0.0
 11
151.7655449080898
 21
161.2317159201717
 31
0.0
  0
LINE
  5
1FF
330
E3
100
AcDbEntity
  8
0
  6
Continuous
100
AcDbLine
 10
151.7655449080898
 20
161.2317159201717
 30
0.0
 11
151.7355731149701
 21
161.2314472915288
 31
0.0
  0
LINE
  5
200
330
E3
100
AcDbEntity
  8
0
  6
Continuous
100
AcDbLine
 10
151.7355731149701
 20
161.2314472915288
 30
0.0
 11
151.7029508525735
 21
161.2316407041516
 31
0.0
  0
LINE
  5
201
330
E3
100
AcDbEntity
  8
0
  6
Continuous
100
AcDbLine
 10
151.7029508525735
 20
161.2316407041516
 30
0.0
 11
151.6679216775364
 21
161.2322639226032
 31
0.0
  0
LINE
  5
202
330
E3
100
AcDbEntity
  8
0
  6
Continuous
100
AcDbLine
 10
151.6679216775364
 20
161.2322639226032
 30
0.0
 11
151.6307434733559
 21
161.2332632211549
 31
0.0
  0
LINE
  5
203
330
E3
100
AcDbEntity
  8
0
  6
Continuous
100
AcDbLine
 10
151.6307434733559
 20
161.2332632211549
 30
0.0
 11
151.5916884503901
 21
161.2345920375085
 31
0.0
  0
LINE
  5
204
330
E3
100
AcDbEntity
  8
0
  6
Continuous
100
AcDbLine
 10
151.5916884503901
 20
161.2345920375085
 30
0.0
 11
151.551053891004
 21
161.2362038093661
 31
0.0
  0
LINE
  5
205
330
E3
100
AcDbEntity
  8
0
  6
Continuous
100
AcDbLine
 10
151.551053891004
 20
161.2362038093661
 30
0.0
 11
151.509133495847
 21
161.2380376475684
 31
0.0
  0
LINE
  5
206
330
E3
100
AcDbEntity
  8
0
  6
Continuous
100
AcDbLine
 10
151.509133495847
 20
161.2380376475684
 30
0.0
 11
151.4662460375756
 21
161.2400434081023
 31
0.0
  0
LINE
  5
207
330
E3
100
AcDbEntity
  8
0
  6
Continuous
100
AcDbLine
 10
151.4662460375756
 20
161.2400434081023
 30
0.0
 11
151.4227067071307
 21
161.242167365239
 31
0.0
  0
LINE
  5
208
330
E3
100
AcDbEntity
  8
0
  6
Continuous
100
AcDbLine
 10
151.4227067071307
 20
161.242167365239
 30
0.0
 11
151.3788414405989
 21
161.2443450481043
 31
0.0
  0
LINE
  5
209
330
E3
100
AcDbEntity
  8
0
  6
Continuous
100
AcDbLine
 10
151.3788414405989
 20
161.2443450481043
 30
0.0
 11
151.3349761740673
 21
161.2465227309696
 31
0.0
  0
LINE
  5
20A
330
E3
100
AcDbEntity
  8
0
  6
Continuous
100
AcDbLine
 10
151.3349761740673
 20
161.2465227309696
 30
0.0
 11
151.2914368436223
 21
161.2486466881062
 31
0.0
  0
LINE
  5
20B
330
E3
100
AcDbEntity
  8
0
  6
Continuous
100
AcDbLine
 10
151.2914368436223
 20
161.2486466881062
 30
0.0
 11
151.2485458036356
 21
161.2506524486401
 31
0.0
  0
LINE
  5
20C
330
E3
100
AcDbEntity
  8
0
  6
Continuous
100
AcDbLine
 10
151.2485458036356
 20
161.2506524486401
 30
0.0
 11
151.2066289901939
 21
161.2524862868424
 31
0.0
  0
LINE
  5
20D
330
E3
100
AcDbEntity
  8
0
  6
Continuous
100
AcDbLine
 10
151.2066289901939
 20
161.2524862868424
 30
0.0
 11
151.1659908490925
 21
161.2540980587
 31
0.0
  0
LINE
  5
20E
330
E3
100
AcDbEntity
  8
0
  6
Continuous
100
AcDbLine
 10
151.1659908490925
 20
161.2540980587
 30
0.0
 11
151.126939407842
 21
161.2554268750536
 31
0.0
  0
LINE
  5
20F
330
E3
100
AcDbEntity
  8
0
  6
Continuous
100
AcDbLine
 10
151.126939407842
 20
161.2554268750536
 30
0.0
 11
151.0897576219462
 21
161.2564261736053
 31
0.0
  0
LINE
  5
210
330
E3
100
AcDbEntity
  8
0
  6
Continuous
100
AcDbLine
 10
151.0897576219462
 20
161.2564261736053
 30
0.0
 11
151.0547284469091
 21
161.2570493920569
 31
0.0
  0
LINE
  5
211
330
E3
100
AcDbEntity
  8
0
  6
Continuous
100
AcDbLine
 10
151.0547284469091
 20
161.2570493920569
 30
0.0
 11
151.0221061845126
 21
161.2572463863951
 31
0.0
  0
LINE
  5
212
330
E3
100
AcDbEntity
  8
0
  6
Continuous
100
AcDbLine
 10
151.0221061845126
 20
161.2572463863951
 30
0.0
 11
150.9921379731081
 21
161.2569741760369
 31
0.0
  0
LINE
  5
213
330
E3
100
AcDbEntity
  8
0
  6
Continuous
100
AcDbLine
 10
150.9921379731081
 20
161.2569741760369
 30
0.0
 11
150.9650351338948
 21
161.25619694383
 31
0.0
  0
LINE
  5
214
330
E3
100
AcDbEntity
  8
0
  6
Continuous
100
AcDbLine
 10
150.9650351338948
 20
161.25619694383
 30
0.0
 11
150.9410054063565
 21
161.2548788726221
 31
0.0
  0
LINE
  5
215
330
E3
100
AcDbEntity
  8
0
  6
Continuous
100
AcDbLine
 10
150.9410054063565
 20
161.2548788726221
 30
0.0
 11
150.9202207128247
 21
161.2529877269759
 31
0.0
  0
LINE
  5
216
330
E3
100
AcDbEntity
  8
0
  6
Continuous
100
AcDbLine
 10
150.9202207128247
 20
161.2529877269759
 30
0.0
 11
150.9028314853395
 21
161.2504984348848
 31
0.0
  0
LINE
  5
217
330
E3
100
AcDbEntity
  8
0
  6
Continuous
100
AcDbLine
 10
150.9028314853395
 20
161.2504984348848
 30
0.0
 11
150.8889630839342
 21
161.2473859243422
 31
0.0
  0
LINE
  5
218
330
E3
100
AcDbEntity
  8
0
  6
Continuous
100
AcDbLine
 10
150.8889630839342
 20
161.2473859243422
 30
0.0
 11
150.8787157966355
 21
161.2436394502022
 31
0.0
  0
LINE
  5
219
330
E3
100
AcDbEntity
  8
0
  6
Continuous
100
AcDbLine
 10
150.8787157966355
 20
161.2436394502022
 30
0.0
 11
150.8721589012723
 21
161.2392384999548
 31
0.0
  0
LINE
  5
21A
330
E3
100
AcDbEntity
  8
0
  6
Continuous
100
AcDbLine
 10
150.8721589012723
 20
161.2392384999548
 30
0.0
 11
150.8693350606132
 21
161.2341806339178
 31
0.0
  0
LINE
  5
21B
330
E3
100
AcDbEntity
  8
0
  6
Continuous
100
AcDbLine
 10
151.8199393846911
 20
160.8665551715667
 30
0.0
 11
151.817115544032
 21
160.8614973055297
 31
0.0
  0
LINE
  5
21C
330
E3
100
AcDbEntity
  8
0
  6
Continuous
100
AcDbLine
 10
151.817115544032
 20
160.8614973055297
 30
0.0
 11
151.810558472885
 21
160.8570977087529
 31
0.0
  0
LINE
  5
21D
330
E3
100
AcDbEntity
  8
0
  6
Continuous
100
AcDbLine
 10
151.810558472885
 20
160.8570977087529
 30
0.0
 11
151.8003126179145
 21
160.8533471040419
 31
0.0
  0
LINE
  5
21E
330
E3
100
AcDbEntity
  8
0
  6
Continuous
100
AcDbLine
 10
151.8003126179145
 20
160.8533471040419
 30
0.0
 11
151.7864442165092
 21
160.8502381752145
 31
0.0
  0
LINE
  5
21F
330
E3
100
AcDbEntity
  8
0
  6
Continuous
100
AcDbLine
 10
151.7864442165092
 20
160.8502381752145
 30
0.0
 11
151.769054989024
 21
160.8477488831234
 31
0.0
  0
LINE
  5
220
330
E3
100
AcDbEntity
  8
0
  6
Continuous
100
AcDbLine
 10
151.769054989024
 20
160.8477488831234
 30
0.0
 11
151.7482702954923
 21
160.8458577374772
 31
0.0
  0
LINE
  5
221
330
E3
100
AcDbEntity
  8
0
  6
Continuous
100
AcDbLine
 10
151.7482702954923
 20
160.8458577374772
 30
0.0
 11
151.7242369862387
 21
160.8445396662692
 31
0.0
  0
LINE
  5
222
330
E3
100
AcDbEntity
  8
0
  6
Continuous
100
AcDbLine
 10
151.7242369862387
 20
160.8445396662692
 30
0.0
 11
151.6971377287407
 21
160.8437624340624
 31
0.0
  0
LINE
  5
223
330
E3
100
AcDbEntity
  8
0
  6
Continuous
100
AcDbLine
 10
151.6971377287407
 20
160.8437624340624
 30
0.0
 11
151.667165935621
 21
160.8434902237042
 31
0.0
  0
LINE
  5
224
330
E3
100
AcDbEntity
  8
0
  6
Continuous
100
AcDbLine
 10
151.667165935621
 20
160.8434902237042
 30
0.0
 11
151.6345472549396
 21
160.8436872180423
 31
0.0
  0
LINE
  5
225
330
E3
100
AcDbEntity
  8
0
  6
Continuous
100
AcDbLine
 10
151.6345472549396
 20
160.8436872180423
 30
0.0
 11
151.5995144981873
 21
160.8443068547787
 31
0.0
  0
LINE
  5
226
330
E3
100
AcDbEntity
  8
0
  6
Continuous
100
AcDbLine
 10
151.5995144981873
 20
160.8443068547787
 30
0.0
 11
151.5623362940067
 21
160.8453097350456
 31
0.0
  0
LINE
  5
227
330
E3
100
AcDbEntity
  8
0
  6
Continuous
100
AcDbLine
 10
151.5623362940067
 20
160.8453097350456
 30
0.0
 11
151.5232848527562
 21
160.8466385513993
 31
0.0
  0
LINE
  5
228
330
E3
100
AcDbEntity
  8
0
  6
Continuous
100
AcDbLine
 10
151.5232848527562
 20
160.8466385513993
 30
0.0
 11
151.4826467116548
 21
160.8482467415416
 31
0.0
  0
LINE
  5
229
330
E3
100
AcDbEntity
  8
0
  6
Continuous
100
AcDbLine
 10
151.4826467116548
 20
160.8482467415416
 30
0.0
 11
151.4407263164979
 21
160.8500841614592
 31
0.0
  0
LINE
  5
22A
330
E3
100
AcDbEntity
  8
0
  6
Continuous
100
AcDbLine
 10
151.4407263164979
 20
160.8500841614592
 30
0.0
 11
151.3978388582264
 21
160.852089921993
 31
0.0
  0
LINE
  5
22B
330
E3
100
AcDbEntity
  8
0
  6
Continuous
100
AcDbLine
 10
151.3978388582264
 20
160.852089921993
 30
0.0
 11
151.3542995277815
 21
160.8542102974145
 31
0.0
  0
LINE
  5
22C
330
E3
100
AcDbEntity
  8
0
  6
Continuous
100
AcDbLine
 10
151.3542995277815
 20
160.8542102974145
 30
0.0
 11
151.3104342612498
 21
160.856391561995
 31
0.0
  0
LINE
  5
22D
330
E3
100
AcDbEntity
  8
0
  6
Continuous
100
AcDbLine
 10
151.3104342612498
 20
160.856391561995
 30
0.0
 11
151.2665689947181
 21
160.8585692448603
 31
0.0
  0
LINE
  5
22E
330
E3
100
AcDbEntity
  8
0
  6
Continuous
100
AcDbLine
 10
151.2665689947181
 20
160.8585692448603
 30
0.0
 11
151.2230296642732
 21
160.8606896202818
 31
0.0
  0
LINE
  5
22F
330
E3
100
AcDbEntity
  8
0
  6
Continuous
100
AcDbLine
 10
151.2230296642732
 20
160.8606896202818
 30
0.0
 11
151.1801386242865
 21
160.8626989625308
 31
0.0
  0
LINE
  5
230
330
E3
100
AcDbEntity
  8
0
  6
Continuous
100
AcDbLine
 10
151.1801386242865
 20
160.8626989625308
 30
0.0
 11
151.1382218108448
 21
160.8645328007332
 31
0.0
  0
LINE
  5
231
330
E3
100
AcDbEntity
  8
0
  6
Continuous
100
AcDbLine
 10
151.1382218108448
 20
160.8645328007332
 30
0.0
 11
151.0975836697434
 21
160.8661409908755
 31
0.0
  0
LINE
  5
232
330
E3
100
AcDbEntity
  8
0
  6
Continuous
100
AcDbLine
 10
151.0975836697434
 20
160.8661409908755
 30
0.0
 11
151.0585322284929
 21
160.8674733889443
 31
0.0
  0
LINE
  5
233
330
E3
100
AcDbEntity
  8
0
  6
Continuous
100
AcDbLine
 10
151.0585322284929
 20
160.8674733889443
 30
0.0
 11
151.0213504425971
 21
160.8684726874961
 31
0.0
  0
LINE
  5
234
330
E3
100
AcDbEntity
  8
0
  6
Continuous
100
AcDbLine
 10
151.0213504425971
 20
160.8684726874961
 30
0.0
 11
150.98632126756
 21
160.8690923242324
 31
0.0
  0
LINE
  5
235
330
E3
100
AcDbEntity
  8
0
  6
Continuous
100
AcDbLine
 10
150.98632126756
 20
160.8690923242324
 30
0.0
 11
150.9537025868787
 21
160.8692893185705
 31
0.0
  0
LINE
  5
236
330
E3
100
AcDbEntity
  8
0
  6
Continuous
100
AcDbLine
 10
150.9537025868787
 20
160.8692893185705
 30
0.0
 11
150.9237307937589
 21
160.8690206899276
 31
0.0
  0
LINE
  5
237
330
E3
100
AcDbEntity
  8
0
  6
Continuous
100
AcDbLine
 10
150.9237307937589
 20
160.8690206899276
 30
0.0
 11
150.8966279545456
 21
160.8682434577208
 31
0.0
  0
LINE
  5
238
330
E3
100
AcDbEntity
  8
0
  6
Continuous
100
AcDbLine
 10
150.8966279545456
 20
160.8682434577208
 30
0.0
 11
150.8725982270074
 21
160.8669218047976
 31
0.0
  0
LINE
  5
239
330
E3
100
AcDbEntity
  8
0
  6
Continuous
100
AcDbLine
 10
150.8725982270074
 20
160.8669218047976
 30
0.0
 11
150.8518135334756
 21
160.8650342408666
 31
0.0
  0
LINE
  5
23A
330
E3
100
AcDbEntity
  8
0
  6
Continuous
100
AcDbLine
 10
150.8518135334756
 20
160.8650342408666
 30
0.0
 11
150.8344243059904
 21
160.8625413670603
 31
0.0
  0
LINE
  5
23B
330
E3
100
AcDbEntity
  8
0
  6
Continuous
100
AcDbLine
 10
150.8344243059904
 20
160.8625413670603
 30
0.0
 11
150.8205559045851
 21
160.8594324382329
 31
0.0
  0
LINE
  5
23C
330
E3
100
AcDbEntity
  8
0
  6
Continuous
100
AcDbLine
 10
150.8205559045851
 20
160.8594324382329
 30
0.0
 11
150.8103086172864
 21
160.8556823823777
 31
0.0
  0
LINE
  5
23D
330
E3
100
AcDbEntity
  8
0
  6
Continuous
100
AcDbLine
 10
150.8103086172864
 20
160.8556823823777
 30
0.0
 11
150.8037520434035
 21
160.8512839305863
 31
0.0
  0
LINE
  5
23E
330
E3
100
AcDbEntity
  8
0
  6
Continuous
100
AcDbLine
 10
150.8037520434035
 20
160.8512839305863
 30
0.0
 11
150.8009282027444
 21
160.8462260645493
 31
0.0
  0
LINE
  5
23F
330
E3
100
AcDbEntity
  8
0
  6
Continuous
100
AcDbLine
 10
151.7515325268222
 20
160.4786006021982
 30
0.0
 11
151.7487086861632
 21
160.4735427361613
 31
0.0
  0
LINE
  5
240
330
E3
100
AcDbEntity
  8
0
  6
Continuous
100
AcDbLine
 10
151.7487086861632
 20
160.4735427361613
 30
0.0
 11
151.7421516150163
 21
160.4691431393845
 31
0.0
  0
LINE
  5
241
330
E3
100
AcDbEntity
  8
0
  6
Continuous
100
AcDbLine
 10
151.7421516150163
 20
160.4691431393845
 30
0.0
 11
151.7319054385654
 21
160.4653936179326
 31
0.0
  0
LINE
  5
242
330
E3
100
AcDbEntity
  8
0
  6
Continuous
100
AcDbLine
 10
151.7319054385654
 20
160.4653936179326
 30
0.0
 11
151.7180370371601
 21
160.4622846891051
 31
0.0
  0
LINE
  5
243
330
E3
100
AcDbEntity
  8
0
  6
Continuous
100
AcDbLine
 10
151.7180370371601
 20
160.4622846891051
 30
0.0
 11
151.7006478096748
 21
160.4597953970141
 31
0.0
  0
LINE
  5
244
330
E3
100
AcDbEntity
  8
0
  6
Continuous
100
AcDbLine
 10
151.7006478096748
 20
160.4597953970141
 30
0.0
 11
151.6798631161431
 21
160.4579042513679
 31
0.0
  0
LINE
  5
245
330
E3
100
AcDbEntity
  8
0
  6
Continuous
100
AcDbLine
 10
151.6798631161431
 20
160.4579042513679
 30
0.0
 11
151.6558333886049
 21
160.4565861801599
 31
0.0
  0
LINE
  5
246
330
E3
100
AcDbEntity
  8
0
  6
Continuous
100
AcDbLine
 10
151.6558333886049
 20
160.4565861801599
 30
0.0
 11
151.6287305493915
 21
160.4558089479531
 31
0.0
  0
LINE
  5
247
330
E3
100
AcDbEntity
  8
0
  6
Continuous
100
AcDbLine
 10
151.6287305493915
 20
160.4558089479531
 30
0.0
 11
151.5987587562718
 21
160.4555367375949
 31
0.0
  0
LINE
  5
248
330
E3
100
AcDbEntity
  8
0
  6
Continuous
100
AcDbLine
 10
151.5987587562718
 20
160.4555367375949
 30
0.0
 11
151.5661400755905
 21
160.4557337319331
 31
0.0
  0
LINE
  5
249
330
E3
100
AcDbEntity
  8
0
  6
Continuous
100
AcDbLine
 10
151.5661400755905
 20
160.4557337319331
 30
0.0
 11
151.5311073188381
 21
160.4563533686694
 31
0.0
  0
LINE
  5
24A
330
E3
100
AcDbEntity
  8
0
  6
Continuous
100
AcDbLine
 10
151.5311073188381
 20
160.4563533686694
 30
0.0
 11
151.4939291146576
 21
160.4573526672211
 31
0.0
  0
LINE
  5
24B
330
E3
100
AcDbEntity
  8
0
  6
Continuous
100
AcDbLine
 10
151.4939291146576
 20
160.4573526672211
 30
0.0
 11
151.4548776734071
 21
160.45868506529
 31
0.0
  0
LINE
  5
24C
330
E3
100
AcDbEntity
  8
0
  6
Continuous
100
AcDbLine
 10
151.4548776734071
 20
160.45868506529
 30
0.0
 11
151.4142395323057
 21
160.4602932554323
 31
0.0
  0
LINE
  5
24D
330
E3
100
AcDbEntity
  8
0
  6
Continuous
100
AcDbLine
 10
151.4142395323057
 20
160.4602932554323
 30
0.0
 11
151.3723191371488
 21
160.4621306753499
 31
0.0
  0
LINE
  5
24E
330
E3
100
AcDbEntity
  8
0
  6
Continuous
100
AcDbLine
 10
151.3723191371488
 20
160.4621306753499
 30
0.0
 11
151.3294316788773
 21
160.4641364358837
 31
0.0
  0
LINE
  5
24F
330
E3
100
AcDbEntity
  8
0
  6
Continuous
100
AcDbLine
 10
151.3294316788773
 20
160.4641364358837
 30
0.0
 11
151.2858923484324
 21
160.4662568113052
 31
0.0
  0
LINE
  5
250
330
E3
100
AcDbEntity
  8
0
  6
Continuous
100
AcDbLine
 10
151.2858923484324
 20
160.4662568113052
 30
0.0
 11
151.2420270819007
 21
160.4684344941705
 31
0.0
  0
LINE
  5
251
330
E3
100
AcDbEntity
  8
0
  6
Continuous
100
AcDbLine
 10
151.2420270819007
 20
160.4684344941705
 30
0.0
 11
151.198161815369
 21
160.470615758751
 31
0.0
  0
LINE
  5
252
330
E3
100
AcDbEntity
  8
0
  6
Continuous
100
AcDbLine
 10
151.198161815369
 20
160.470615758751
 30
0.0
 11
151.1546224849241
 21
160.4727361341725
 31
0.0
  0
LINE
  5
253
330
E3
100
AcDbEntity
  8
0
  6
Continuous
100
AcDbLine
 10
151.1546224849241
 20
160.4727361341725
 30
0.0
 11
151.1117314449373
 21
160.4747418947063
 31
0.0
  0
LINE
  5
254
330
E3
100
AcDbEntity
  8
0
  6
Continuous
100
AcDbLine
 10
151.1117314449373
 20
160.4747418947063
 30
0.0
 11
151.0698146314957
 21
160.4765793146239
 31
0.0
  0
LINE
  5
255
330
E3
100
AcDbEntity
  8
0
  6
Continuous
100
AcDbLine
 10
151.0698146314957
 20
160.4765793146239
 30
0.0
 11
151.0291764903943
 21
160.4781875047662
 31
0.0
  0
LINE
  5
256
330
E3
100
AcDbEntity
  8
0
  6
Continuous
100
AcDbLine
 10
151.0291764903943
 20
160.4781875047662
 30
0.0
 11
150.9901250491438
 21
160.4795199028351
 31
0.0
  0
LINE
  5
257
330
E3
100
AcDbEntity
  8
0
  6
Continuous
100
AcDbLine
 10
150.9901250491438
 20
160.4795199028351
 30
0.0
 11
150.952943263248
 21
160.4805192013868
 31
0.0
  0
LINE
  5
258
330
E3
100
AcDbEntity
  8
0
  6
Continuous
100
AcDbLine
 10
150.952943263248
 20
160.4805192013868
 30
0.0
 11
150.9179140882109
 21
160.4811388381231
 31
0.0
  0
LINE
  5
259
330
E3
100
AcDbEntity
  8
0
  6
Continuous
100
AcDbLine
 10
150.9179140882109
 20
160.4811388381231
 30
0.0
 11
150.8852954075295
 21
160.4813358324613
 31
0.0
  0
LINE
  5
25A
330
E3
100
AcDbEntity
  8
0
  6
Continuous
100
AcDbLine
 10
150.8852954075295
 20
160.4813358324613
 30
0.0
 11
150.8553236144098
 21
160.4810636221031
 31
0.0
  0
LINE
  5
25B
330
E3
100
AcDbEntity
  8
0
  6
Continuous
100
AcDbLine
 10
150.8553236144098
 20
160.4810636221031
 30
0.0
 11
150.8282207751965
 21
160.4802863898963
 31
0.0
  0
LINE
  5
25C
330
E3
100
AcDbEntity
  8
0
  6
Continuous
100
AcDbLine
 10
150.8282207751965
 20
160.4802863898963
 30
0.0
 11
150.8041910476582
 21
160.4789683186883
 31
0.0
  0
LINE
  5
25D
330
E3
100
AcDbEntity
  8
0
  6
Continuous
100
AcDbLine
 10
150.8041910476582
 20
160.4789683186883
 30
0.0
 11
150.7834063541265
 21
160.4770771730421
 31
0.0
  0
LINE
  5
25E
330
E3
100
AcDbEntity
  8
0
  6
Continuous
100
AcDbLine
 10
150.7834063541265
 20
160.4770771730421
 30
0.0
 11
150.7660171266413
 21
160.474587880951
 31
0.0
  0
LINE
  5
25F
330
E3
100
AcDbEntity
  8
0
  6
Continuous
100
AcDbLine
 10
150.7660171266413
 20
160.474587880951
 30
0.0
 11
150.752148725236
 21
160.4714789521236
 31
0.0
  0
LINE
  5
260
330
E3
100
AcDbEntity
  8
0
  6
Continuous
100
AcDbLine
 10
150.752148725236
 20
160.4714789521236
 30
0.0
 11
150.7419014379373
 21
160.4677288962684
 31
0.0
  0
LINE
  5
261
330
E3
100
AcDbEntity
  8
0
  6
Continuous
100
AcDbLine
 10
150.7419014379373
 20
160.4677288962684
 30
0.0
 11
150.7353451855347
 21
160.4633293612179
 31
0.0
  0
LINE
  5
262
330
E3
100
AcDbEntity
  8
0
  6
Continuous
100
AcDbLine
 10
150.7353451855347
 20
160.4633293612179
 30
0.0
 11
150.7325213448756
 21
160.4582714951809
 31
0.0
  0
LINE
  5
263
330
E3
100
AcDbEntity
  8
0
  6
Continuous
100
AcDbLine
 10
151.6831256689534
 20
160.0906460328298
 30
0.0
 11
151.6803018282944
 21
160.0855881667928
 31
0.0
  0
LINE
  5
264
330
E3
100
AcDbEntity
  8
0
  6
Continuous
100
AcDbLine
 10
151.6803018282944
 20
160.0855881667928
 30
0.0
 11
151.6737447571475
 21
160.081188570016
 31
0.0
  0
LINE
  5
265
330
E3
100
AcDbEntity
  8
0
  6
Continuous
100
AcDbLine
 10
151.6737447571475
 20
160.081188570016
 30
0.0
 11
151.6634982592163
 21
160.0774401318233
 31
0.0
  0
LINE
  5
266
330
E3
100
AcDbEntity
  8
0
  6
Continuous
100
AcDbLine
 10
151.6634982592163
 20
160.0774401318233
 30
0.0
 11
151.649629857811
 21
160.0743276212806
 31
0.0
  0
LINE
  5
267
330
E3
100
AcDbEntity
  8
0
  6
Continuous
100
AcDbLine
 10
151.649629857811
 20
160.0743276212806
 30
0.0
 11
151.6322406303257
 21
160.0718383291895
 31
0.0
  0
LINE
  5
268
330
E3
100
AcDbEntity
  8
0
  6
Continuous
100
AcDbLine
 10
151.6322406303257
 20
160.0718383291895
 30
0.0
 11
151.611455936794
 21
160.0699471835434
 31
0.0
  0
LINE
  5
269
330
E3
100
AcDbEntity
  8
0
  6
Continuous
100
AcDbLine
 10
151.611455936794
 20
160.0699471835434
 30
0.0
 11
151.5874262092557
 21
160.0686291123355
 31
0.0
  0
LINE
  5
26A
330
E3
100
AcDbEntity
  8
0
  6
Continuous
100
AcDbLine
 10
151.5874262092557
 20
160.0686291123355
 30
0.0
 11
151.5603233700424
 21
160.0678518801286
 31
0.0
  0
LINE
  5
26B
330
E3
100
AcDbEntity
  8
0
  6
Continuous
100
AcDbLine
 10
151.5603233700424
 20
160.0678518801286
 30
0.0
 11
151.5303515769227
 21
160.0675832514857
 31
0.0
  0
LINE
  5
26C
330
E3
100
AcDbEntity
  8
0
  6
Continuous
100
AcDbLine
 10
151.5303515769227
 20
160.0675832514857
 30
0.0
 11
151.4977328962414
 21
160.0677766641086
 31
0.0
  0
LINE
  5
26D
330
E3
100
AcDbEntity
  8
0
  6
Continuous
100
AcDbLine
 10
151.4977328962414
 20
160.0677766641086
 30
0.0
 11
151.4627037212042
 21
160.0683998825602
 31
0.0
  0
LINE
  5
26E
330
E3
100
AcDbEntity
  8
0
  6
Continuous
100
AcDbLine
 10
151.4627037212042
 20
160.0683998825602
 30
0.0
 11
151.4255219353084
 21
160.0693991811118
 31
0.0
  0
LINE
  5
26F
330
E3
100
AcDbEntity
  8
0
  6
Continuous
100
AcDbLine
 10
151.4255219353084
 20
160.0693991811118
 30
0.0
 11
151.386470494058
 21
160.0707279974655
 31
0.0
  0
LINE
  5
270
330
E3
100
AcDbEntity
  8
0
  6
Continuous
100
AcDbLine
 10
151.386470494058
 20
160.0707279974655
 30
0.0
 11
151.3458323529566
 21
160.072339769323
 31
0.0
  0
LINE
  5
271
330
E3
100
AcDbEntity
  8
0
  6
Continuous
100
AcDbLine
 10
151.3458323529566
 20
160.072339769323
 30
0.0
 11
151.3039155395149
 21
160.0741736075254
 31
0.0
  0
LINE
  5
272
330
E3
100
AcDbEntity
  8
0
  6
Continuous
100
AcDbLine
 10
151.3039155395149
 20
160.0741736075254
 30
0.0
 11
151.2610244995282
 21
160.0761793680592
 31
0.0
  0
LINE
  5
273
330
E3
100
AcDbEntity
  8
0
  6
Continuous
100
AcDbLine
 10
151.2610244995282
 20
160.0761793680592
 30
0.0
 11
151.2174851690832
 21
160.0783033251959
 31
0.0
  0
LINE
  5
274
330
E3
100
AcDbEntity
  8
0
  6
Continuous
100
AcDbLine
 10
151.2174851690832
 20
160.0783033251959
 30
0.0
 11
151.1736199025515
 21
160.0804810080612
 31
0.0
  0
LINE
  5
275
330
E3
100
AcDbEntity
  8
0
  6
Continuous
100
AcDbLine
 10
151.1736199025515
 20
160.0804810080612
 30
0.0
 11
151.1297546360198
 21
160.0826586909265
 31
0.0
  0
LINE
  5
276
330
E3
100
AcDbEntity
  8
0
  6
Continuous
100
AcDbLine
 10
151.1297546360198
 20
160.0826586909265
 30
0.0
 11
151.0862153055749
 21
160.0847826480632
 31
0.0
  0
LINE
  5
277
330
E3
100
AcDbEntity
  8
0
  6
Continuous
100
AcDbLine
 10
151.0862153055749
 20
160.0847826480632
 30
0.0
 11
151.0433278473035
 21
160.086788408597
 31
0.0
  0
LINE
  5
278
330
E3
100
AcDbEntity
  8
0
  6
Continuous
100
AcDbLine
 10
151.0433278473035
 20
160.086788408597
 30
0.0
 11
151.0014074521465
 21
160.0886222467994
 31
0.0
  0
LINE
  5
279
330
E3
100
AcDbEntity
  8
0
  6
Continuous
100
AcDbLine
 10
151.0014074521465
 20
160.0886222467994
 30
0.0
 11
150.9607693110451
 21
160.0902340186569
 31
0.0
  0
LINE
  5
27A
330
E3
100
AcDbEntity
  8
0
  6
Continuous
100
AcDbLine
 10
150.9607693110451
 20
160.0902340186569
 30
0.0
 11
150.9217178697946
 21
160.0915628350106
 31
0.0
  0
LINE
  5
27B
330
E3
100
AcDbEntity
  8
0
  6
Continuous
100
AcDbLine
 10
150.9217178697946
 20
160.0915628350106
 30
0.0
 11
150.8845396656141
 21
160.0925657152775
 31
0.0
  0
LINE
  5
27C
330
E3
100
AcDbEntity
  8
0
  6
Continuous
100
AcDbLine
 10
150.8845396656141
 20
160.0925657152775
 30
0.0
 11
150.8495069088617
 21
160.0931853520138
 31
0.0
  0
LINE
  5
27D
330
E3
100
AcDbEntity
  8
0
  6
Continuous
100
AcDbLine
 10
150.8495069088617
 20
160.0931853520138
 30
0.0
 11
150.8168882281804
 21
160.093382346352
 31
0.0
  0
LINE
  5
27E
330
E3
100
AcDbEntity
  8
0
  6
Continuous
100
AcDbLine
 10
150.8168882281804
 20
160.093382346352
 30
0.0
 11
150.7869164350607
 21
160.0931101359938
 31
0.0
  0
LINE
  5
27F
330
E3
100
AcDbEntity
  8
0
  6
Continuous
100
AcDbLine
 10
150.7869164350607
 20
160.0931101359938
 30
0.0
 11
150.7598171775626
 21
160.092332903787
 31
0.0
  0
LINE
  5
280
330
E3
100
AcDbEntity
  8
0
  6
Continuous
100
AcDbLine
 10
150.7598171775626
 20
160.092332903787
 30
0.0
 11
150.7357838683091
 21
160.091014832579
 31
0.0
  0
LINE
  5
281
330
E3
100
AcDbEntity
  8
0
  6
Continuous
100
AcDbLine
 10
150.7357838683091
 20
160.091014832579
 30
0.0
 11
150.7149991747774
 21
160.0891236869329
 31
0.0
  0
LINE
  5
282
330
E3
100
AcDbEntity
  8
0
  6
Continuous
100
AcDbLine
 10
150.7149991747774
 20
160.0891236869329
 30
0.0
 11
150.6976099472921
 21
160.0866343948418
 31
0.0
  0
LINE
  5
283
330
E3
100
AcDbEntity
  8
0
  6
Continuous
100
AcDbLine
 10
150.6976099472921
 20
160.0866343948418
 30
0.0
 11
150.6837415458869
 21
160.0835218842991
 31
0.0
  0
LINE
  5
284
330
E3
100
AcDbEntity
  8
0
  6
Continuous
100
AcDbLine
 10
150.6837415458869
 20
160.0835218842991
 30
0.0
 11
150.6734942585881
 21
160.0797754101591
 31
0.0
  0
LINE
  5
285
330
E3
100
AcDbEntity
  8
0
  6
Continuous
100
AcDbLine
 10
150.6734942585881
 20
160.0797754101591
 30
0.0
 11
150.6669383276659
 21
160.0753747918495
 31
0.0
  0
LINE
  5
286
330
E3
100
AcDbEntity
  8
0
  6
Continuous
100
AcDbLine
 10
150.6669383276659
 20
160.0753747918495
 30
0.0
 11
150.6641144870069
 21
160.0703169258125
 31
0.0
  0
LINE
  5
287
330
E3
100
AcDbEntity
  8
0
  6
Continuous
100
AcDbLine
 10
151.6147188110847
 20
159.7026914634613
 30
0.0
 11
151.6118949704256
 21
159.6976335974243
 31
0.0
  0
LINE
  5
288
330
E3
100
AcDbEntity
  8
0
  6
Continuous
100
AcDbLine
 10
151.6118949704256
 20
159.6976335974243
 30
0.0
 11
151.6053378992787
 21
159.6932340006476
 31
0.0
  0
LINE
  5
289
330
E3
100
AcDbEntity
  8
0
  6
Continuous
100
AcDbLine
 10
151.6053378992787
 20
159.6932340006476
 30
0.0
 11
151.5950910798671
 21
159.6894866457141
 31
0.0
  0
LINE
  5
28A
330
E3
100
AcDbEntity
  8
0
  6
Continuous
100
AcDbLine
 10
151.5950910798671
 20
159.6894866457141
 30
0.0
 11
151.5812226784618
 21
159.6863741351714
 31
0.0
  0
LINE
  5
28B
330
E3
100
AcDbEntity
  8
0
  6
Continuous
100
AcDbLine
 10
151.5812226784618
 20
159.6863741351714
 30
0.0
 11
151.5638334509766
 21
159.6838848430803
 31
0.0
  0
LINE
  5
28C
330
E3
100
AcDbEntity
  8
0
  6
Continuous
100
AcDbLine
 10
151.5638334509766
 20
159.6838848430803
 30
0.0
 11
151.5430487574448
 21
159.6819936974341
 31
0.0
  0
LINE
  5
28D
330
E3
100
AcDbEntity
  8
0
  6
Continuous
100
AcDbLine
 10
151.5430487574448
 20
159.6819936974341
 30
0.0
 11
151.5190190299066
 21
159.6806756262262
 31
0.0
  0
LINE
  5
28E
330
E3
100
AcDbEntity
  8
0
  6
Continuous
100
AcDbLine
 10
151.5190190299066
 20
159.6806756262262
 30
0.0
 11
151.4919161906933
 21
159.6798983940193
 31
0.0
  0
LINE
  5
28F
330
E3
100
AcDbEntity
  8
0
  6
Continuous
100
AcDbLine
 10
151.4919161906933
 20
159.6798983940193
 30
0.0
 11
151.4619479792888
 21
159.6796261836612
 31
0.0
  0
LINE
  5
290
330
E3
100
AcDbEntity
  8
0
  6
Continuous
100
AcDbLine
 10
151.4619479792888
 20
159.6796261836612
 30
0.0
 11
151.4293257168922
 21
159.6798231779993
 31
0.0
  0
LINE
  5
291
330
E3
100
AcDbEntity
  8
0
  6
Continuous
100
AcDbLine
 10
151.4293257168922
 20
159.6798231779993
 30
0.0
 11
151.3942965418551
 21
159.6804428147356
 31
0.0
  0
LINE
  5
292
330
E3
100
AcDbEntity
  8
0
  6
Continuous
100
AcDbLine
 10
151.3942965418551
 20
159.6804428147356
 30
0.0
 11
151.3571147559593
 21
159.6814456950026
 31
0.0
  0
LINE
  5
293
330
E3
100
AcDbEntity
  8
0
  6
Continuous
100
AcDbLine
 10
151.3571147559593
 20
159.6814456950026
 30
0.0
 11
151.3180633147088
 21
159.6827745113562
 31
0.0
  0
LINE
  5
294
330
E3
100
AcDbEntity
  8
0
  6
Continuous
100
AcDbLine
 10
151.3180633147088
 20
159.6827745113562
 30
0.0
 11
151.2774251736074
 21
159.6843827014985
 31
0.0
  0
LINE
  5
295
330
E3
100
AcDbEntity
  8
0
  6
Continuous
100
AcDbLine
 10
151.2774251736074
 20
159.6843827014985
 30
0.0
 11
151.2355083601657
 21
159.6862201214161
 31
0.0
  0
LINE
  5
296
330
E3
100
AcDbEntity
  8
0
  6
Continuous
100
AcDbLine
 10
151.2355083601657
 20
159.6862201214161
 30
0.0
 11
151.192617320179
 21
159.6882258819499
 31
0.0
  0
LINE
  5
297
330
E3
100
AcDbEntity
  8
0
  6
Continuous
100
AcDbLine
 10
151.192617320179
 20
159.6882258819499
 30
0.0
 11
151.1490779897341
 21
159.6903462573714
 31
0.0
  0
LINE
  5
298
330
E3
100
AcDbEntity
  8
0
  6
Continuous
100
AcDbLine
 10
151.1490779897341
 20
159.6903462573714
 30
0.0
 11
151.1052127232024
 21
159.6925275219519
 31
0.0
  0
LINE
  5
299
330
E3
100
AcDbEntity
  8
0
  6
Continuous
100
AcDbLine
 10
151.1052127232024
 20
159.6925275219519
 30
0.0
 11
151.0613474566707
 21
159.6947052048172
 31
0.0
  0
LINE
  5
29A
330
E3
100
AcDbEntity
  8
0
  6
Continuous
100
AcDbLine
 10
151.0613474566707
 20
159.6947052048172
 30
0.0
 11
151.0178081262258
 21
159.6968255802387
 31
0.0
  0
LINE
  5
29B
330
E3
100
AcDbEntity
  8
0
  6
Continuous
100
AcDbLine
 10
151.0178081262258
 20
159.6968255802387
 30
0.0
 11
150.9749206679543
 21
159.6988349224878
 31
0.0
  0
LINE
  5
29C
330
E3
100
AcDbEntity
  8
0
  6
Continuous
100
AcDbLine
 10
150.9749206679543
 20
159.6988349224878
 30
0.0
 11
150.9330002727974
 21
159.7006687606901
 31
0.0
  0
LINE
  5
29D
330
E3
100
AcDbEntity
  8
0
  6
Continuous
100
AcDbLine
 10
150.9330002727974
 20
159.7006687606901
 30
0.0
 11
150.892362131696
 21
159.7022805325477
 31
0.0
  0
LINE
  5
29E
330
E3
100
AcDbEntity
  8
0
  6
Continuous
100
AcDbLine
 10
150.892362131696
 20
159.7022805325477
 30
0.0
 11
150.8533106904455
 21
159.7036093489013
 31
0.0
  0
LINE
  5
29F
330
E3
100
AcDbEntity
  8
0
  6
Continuous
100
AcDbLine
 10
150.8533106904455
 20
159.7036093489013
 30
0.0
 11
150.816132486265
 21
159.704608647453
 31
0.0
  0
LINE
  5
2A0
330
E3
100
AcDbEntity
  8
0
  6
Continuous
100
AcDbLine
 10
150.816132486265
 20
159.704608647453
 30
0.0
 11
150.7810997295126
 21
159.7052318659046
 31
0.0
  0
LINE
  5
2A1
330
E3
100
AcDbEntity
  8
0
  6
Continuous
100
AcDbLine
 10
150.7810997295126
 20
159.7052318659046
 30
0.0
 11
150.7484810488313
 21
159.7054252785275
 31
0.0
  0
LINE
  5
2A2
330
E3
100
AcDbEntity
  8
0
  6
Continuous
100
AcDbLine
 10
150.7484810488313
 20
159.7054252785275
 30
0.0
 11
150.7185092557116
 21
159.7051566498846
 31
0.0
  0
LINE
  5
2A3
330
E3
100
AcDbEntity
  8
0
  6
Continuous
100
AcDbLine
 10
150.7185092557116
 20
159.7051566498846
 30
0.0
 11
150.6914099982135
 21
159.7043794176777
 31
0.0
  0
LINE
  5
2A4
330
E3
100
AcDbEntity
  8
0
  6
Continuous
100
AcDbLine
 10
150.6914099982135
 20
159.7043794176777
 30
0.0
 11
150.66737668896
 21
159.7030613464698
 31
0.0
  0
LINE
  5
2A5
330
E3
100
AcDbEntity
  8
0
  6
Continuous
100
AcDbLine
 10
150.66737668896
 20
159.7030613464698
 30
0.0
 11
150.6465919954282
 21
159.7011702008236
 31
0.0
  0
LINE
  5
2A6
330
E3
100
AcDbEntity
  8
0
  6
Continuous
100
AcDbLine
 10
150.6465919954282
 20
159.7011702008236
 30
0.0
 11
150.629202767943
 21
159.6986809087325
 31
0.0
  0
LINE
  5
2A7
330
E3
100
AcDbEntity
  8
0
  6
Continuous
100
AcDbLine
 10
150.629202767943
 20
159.6986809087325
 30
0.0
 11
150.6153379482529
 21
159.6955683981898
 31
0.0
  0
LINE
  5
2A8
330
E3
100
AcDbEntity
  8
0
  6
Continuous
100
AcDbLine
 10
150.6153379482529
 20
159.6955683981898
 30
0.0
 11
150.605087079239
 21
159.6918183423346
 31
0.0
  0
LINE
  5
2A9
330
E3
100
AcDbEntity
  8
0
  6
Continuous
100
AcDbLine
 10
150.605087079239
 20
159.6918183423346
 30
0.0
 11
150.5985314697972
 21
159.687420222481
 31
0.0
  0
LINE
  5
2AA
330
E3
100
AcDbEntity
  8
0
  6
Continuous
100
AcDbLine
 10
150.5985314697972
 20
159.687420222481
 30
0.0
 11
150.5957076291381
 21
159.6823623564441
 31
0.0
  0
LINE
  5
2AB
330
E3
100
AcDbEntity
  8
0
  6
Continuous
100
AcDbLine
 10
151.5463119532159
 20
159.3147368940929
 30
0.0
 11
151.5434881125568
 21
159.3096790280559
 31
0.0
  0
LINE
  5
2AC
330
E3
100
AcDbEntity
  8
0
  6
Continuous
100
AcDbLine
 10
151.5434881125568
 20
159.3096790280559
 30
0.0
 11
151.5369310414099
 21
159.3052794312791
 31
0.0
  0
LINE
  5
2AD
330
E3
100
AcDbEntity
  8
0
  6
Continuous
100
AcDbLine
 10
151.5369310414099
 20
159.3052794312791
 30
0.0
 11
151.526683900518
 21
159.3015295778895
 31
0.0
  0
LINE
  5
2AE
330
E3
100
AcDbEntity
  8
0
  6
Continuous
100
AcDbLine
 10
151.526683900518
 20
159.3015295778895
 30
0.0
 11
151.5128154991127
 21
159.2984206490621
 31
0.0
  0
LINE
  5
2AF
330
E3
100
AcDbEntity
  8
0
  6
Continuous
100
AcDbLine
 10
151.5128154991127
 20
159.2984206490621
 30
0.0
 11
151.4954262716275
 21
159.295931356971
 31
0.0
  0
LINE
  5
2B0
330
E3
100
AcDbEntity
  8
0
  6
Continuous
100
AcDbLine
 10
151.4954262716275
 20
159.295931356971
 30
0.0
 11
151.4746415780957
 21
159.2940402113249
 31
0.0
  0
LINE
  5
2B1
330
E3
100
AcDbEntity
  8
0
  6
Continuous
100
AcDbLine
 10
151.4746415780957
 20
159.2940402113249
 30
0.0
 11
151.4506118505575
 21
159.2927221401169
 31
0.0
  0
LINE
  5
2B2
330
E3
100
AcDbEntity
  8
0
  6
Continuous
100
AcDbLine
 10
151.4506118505575
 20
159.2927221401169
 30
0.0
 11
151.4235090113442
 21
159.2919449079101
 31
0.0
  0
LINE
  5
2B3
330
E3
100
AcDbEntity
  8
0
  6
Continuous
100
AcDbLine
 10
151.4235090113442
 20
159.2919449079101
 30
0.0
 11
151.3935407999397
 21
159.2916726975519
 31
0.0
  0
LINE
  5
2B4
330
E3
100
AcDbEntity
  8
0
  6
Continuous
100
AcDbLine
 10
151.3935407999397
 20
159.2916726975519
 30
0.0
 11
151.3609185375431
 21
159.29186969189
 31
0.0
  0
LINE
  5
2B5
330
E3
100
AcDbEntity
  8
0
  6
Continuous
100
AcDbLine
 10
151.3609185375431
 20
159.29186969189
 30
0.0
 11
151.325889362506
 21
159.2924893286264
 31
0.0
  0
LINE
  5
2B6
330
E3
100
AcDbEntity
  8
0
  6
Continuous
100
AcDbLine
 10
151.325889362506
 20
159.2924893286264
 30
0.0
 11
151.2887075766102
 21
159.2934886271781
 31
0.0
  0
LINE
  5
2B7
330
E3
100
AcDbEntity
  8
0
  6
Continuous
100
AcDbLine
 10
151.2887075766102
 20
159.2934886271781
 30
0.0
 11
151.2496561353597
 21
159.294821025247
 31
0.0
  0
LINE
  5
2B8
330
E3
100
AcDbEntity
  8
0
  6
Continuous
100
AcDbLine
 10
151.2496561353597
 20
159.294821025247
 30
0.0
 11
151.2090179942583
 21
159.2964292153893
 31
0.0
  0
LINE
  5
2B9
330
E3
100
AcDbEntity
  8
0
  6
Continuous
100
AcDbLine
 10
151.2090179942583
 20
159.2964292153893
 30
0.0
 11
151.1671011808166
 21
159.2982666353068
 31
0.0
  0
LINE
  5
2BA
330
E3
100
AcDbEntity
  8
0
  6
Continuous
100
AcDbLine
 10
151.1671011808166
 20
159.2982666353068
 30
0.0
 11
151.1242101408299
 21
159.3002723958407
 31
0.0
  0
LINE
  5
2BB
330
E3
100
AcDbEntity
  8
0
  6
Continuous
100
AcDbLine
 10
151.1242101408299
 20
159.3002723958407
 30
0.0
 11
151.080670810385
 21
159.3023927712621
 31
0.0
  0
LINE
  5
2BC
330
E3
100
AcDbEntity
  8
0
  6
Continuous
100
AcDbLine
 10
151.080670810385
 20
159.3023927712621
 30
0.0
 11
151.0368055438533
 21
159.3045740358427
 31
0.0
  0
LINE
  5
2BD
330
E3
100
AcDbEntity
  8
0
  6
Continuous
100
AcDbLine
 10
151.0368055438533
 20
159.3045740358427
 30
0.0
 11
150.9929402773216
 21
159.3067517187079
 31
0.0
  0
LINE
  5
2BE
330
E3
100
AcDbEntity
  8
0
  6
Continuous
100
AcDbLine
 10
150.9929402773216
 20
159.3067517187079
 30
0.0
 11
150.9494009468766
 21
159.3088720941294
 31
0.0
  0
LINE
  5
2BF
330
E3
100
AcDbEntity
  8
0
  6
Continuous
100
AcDbLine
 10
150.9494009468766
 20
159.3088720941294
 30
0.0
 11
150.9065134886052
 21
159.3108778546633
 31
0.0
  0
LINE
  5
2C0
330
E3
100
AcDbEntity
  8
0
  6
Continuous
100
AcDbLine
 10
150.9065134886052
 20
159.3108778546633
 30
0.0
 11
150.8645930934483
 21
159.3127152745809
 31
0.0
  0
LINE
  5
2C1
330
E3
100
AcDbEntity
  8
0
  6
Continuous
100
AcDbLine
 10
150.8645930934483
 20
159.3127152745809
 30
0.0
 11
150.8239585340621
 21
159.3143234647231
 31
0.0
  0
LINE
  5
2C2
330
E3
100
AcDbEntity
  8
0
  6
Continuous
100
AcDbLine
 10
150.8239585340621
 20
159.3143234647231
 30
0.0
 11
150.7849035110964
 21
159.315655862792
 31
0.0
  0
LINE
  5
2C3
330
E3
100
AcDbEntity
  8
0
  6
Continuous
100
AcDbLine
 10
150.7849035110964
 20
159.315655862792
 30
0.0
 11
150.7477253069158
 21
159.3166551613437
 31
0.0
  0
LINE
  5
2C4
330
E3
100
AcDbEntity
  8
0
  6
Continuous
100
AcDbLine
 10
150.7477253069158
 20
159.3166551613437
 30
0.0
 11
150.7126961318787
 21
159.3172747980801
 31
0.0
  0
LINE
  5
2C5
330
E3
100
AcDbEntity
  8
0
  6
Continuous
100
AcDbLine
 10
150.7126961318787
 20
159.3172747980801
 30
0.0
 11
150.6800738694821
 21
159.3174717924182
 31
0.0
  0
LINE
  5
2C6
330
E3
100
AcDbEntity
  8
0
  6
Continuous
100
AcDbLine
 10
150.6800738694821
 20
159.3174717924182
 30
0.0
 11
150.6501020763624
 21
159.31719958206
 31
0.0
  0
LINE
  5
2C7
330
E3
100
AcDbEntity
  8
0
  6
Continuous
100
AcDbLine
 10
150.6501020763624
 20
159.31719958206
 30
0.0
 11
150.6230028188644
 21
159.3164223498532
 31
0.0
  0
LINE
  5
2C8
330
E3
100
AcDbEntity
  8
0
  6
Continuous
100
AcDbLine
 10
150.6230028188644
 20
159.3164223498532
 30
0.0
 11
150.5989695096108
 21
159.3151042786452
 31
0.0
  0
LINE
  5
2C9
330
E3
100
AcDbEntity
  8
0
  6
Continuous
100
AcDbLine
 10
150.5989695096108
 20
159.3151042786452
 30
0.0
 11
150.5781848160791
 21
159.3132131329991
 31
0.0
  0
LINE
  5
2CA
330
E3
100
AcDbEntity
  8
0
  6
Continuous
100
AcDbLine
 10
150.5781848160791
 20
159.3132131329991
 30
0.0
 11
150.5607955885939
 21
159.310723840908
 31
0.0
  0
LINE
  5
2CB
330
E3
100
AcDbEntity
  8
0
  6
Continuous
100
AcDbLine
 10
150.5607955885939
 20
159.310723840908
 30
0.0
 11
150.5469307689038
 21
159.3076149120806
 31
0.0
  0
LINE
  5
2CC
330
E3
100
AcDbEntity
  8
0
  6
Continuous
100
AcDbLine
 10
150.5469307689038
 20
159.3076149120806
 30
0.0
 11
150.5366798998899
 21
159.3038648562253
 31
0.0
  0
LINE
  5
2CD
330
E3
100
AcDbEntity
  8
0
  6
Continuous
100
AcDbLine
 10
150.5366798998899
 20
159.3038648562253
 30
0.0
 11
150.5301246119284
 21
159.2994656531126
 31
0.0
  0
LINE
  5
2CE
330
E3
100
AcDbEntity
  8
0
  6
Continuous
100
AcDbLine
 10
150.5301246119284
 20
159.2994656531126
 30
0.0
 11
150.5273007712693
 21
159.2944077870756
 31
0.0
  0
LINE
  5
2CF
330
E3
100
AcDbEntity
  8
0
  6
Continuous
100
AcDbLine
 10
151.4779050953471
 20
158.9267823247245
 30
0.0
 11
151.475081254688
 21
158.9217244586875
 31
0.0
  0
LINE
  5
2D0
330
E3
100
AcDbEntity
  8
0
  6
Continuous
100
AcDbLine
 10
151.475081254688
 20
158.9217244586875
 30
0.0
 11
151.4685241835411
 21
158.9173248619107
 31
0.0
  0
LINE
  5
2D1
330
E3
100
AcDbEntity
  8
0
  6
Continuous
100
AcDbLine
 10
151.4685241835411
 20
158.9173248619107
 30
0.0
 11
151.4582767211689
 21
158.9135760917803
 31
0.0
  0
LINE
  5
2D2
330
E3
100
AcDbEntity
  8
0
  6
Continuous
100
AcDbLine
 10
151.4582767211689
 20
158.9135760917803
 30
0.0
 11
151.4444083197636
 21
158.9104671629528
 31
0.0
  0
LINE
  5
2D3
330
E3
100
AcDbEntity
  8
0
  6
Continuous
100
AcDbLine
 10
151.4444083197636
 20
158.9104671629528
 30
0.0
 11
151.4270190922784
 21
158.9079742891465
 31
0.0
  0
LINE
  5
2D4
330
E3
100
AcDbEntity
  8
0
  6
Continuous
100
AcDbLine
 10
151.4270190922784
 20
158.9079742891465
 30
0.0
 11
151.4062343987466
 21
158.9060867252155
 31
0.0
  0
LINE
  5
2D5
330
E3
100
AcDbEntity
  8
0
  6
Continuous
100
AcDbLine
 10
151.4062343987466
 20
158.9060867252155
 30
0.0
 11
151.3822046712083
 21
158.9047650722924
 31
0.0
  0
LINE
  5
2D6
330
E3
100
AcDbEntity
  8
0
  6
Continuous
100
AcDbLine
 10
151.3822046712083
 20
158.9047650722924
 30
0.0
 11
151.3551054137103
 21
158.9039878400855
 31
0.0
  0
LINE
  5
2D7
330
E3
100
AcDbEntity
  8
0
  6
Continuous
100
AcDbLine
 10
151.3551054137103
 20
158.9039878400855
 30
0.0
 11
151.3251336205905
 21
158.9037192114426
 31
0.0
  0
LINE
  5
2D8
330
E3
100
AcDbEntity
  8
0
  6
Continuous
100
AcDbLine
 10
151.3251336205905
 20
158.9037192114426
 30
0.0
 11
151.292511358194
 21
158.9039126240655
 31
0.0
  0
LINE
  5
2D9
330
E3
100
AcDbEntity
  8
0
  6
Continuous
100
AcDbLine
 10
151.292511358194
 20
158.9039126240655
 30
0.0
 11
151.2574821831568
 21
158.9045358425171
 31
0.0
  0
LINE
  5
2DA
330
E3
100
AcDbEntity
  8
0
  6
Continuous
100
AcDbLine
 10
151.2574821831568
 20
158.9045358425171
 30
0.0
 11
151.2203003972611
 21
158.9055351410688
 31
0.0
  0
LINE
  5
2DB
330
E3
100
AcDbEntity
  8
0
  6
Continuous
100
AcDbLine
 10
151.2203003972611
 20
158.9055351410688
 30
0.0
 11
151.1812489560106
 21
158.9068639574224
 31
0.0
  0
LINE
  5
2DC
330
E3
100
AcDbEntity
  8
0
  6
Continuous
100
AcDbLine
 10
151.1812489560106
 20
158.9068639574224
 30
0.0
 11
151.1406108149092
 21
158.90847572928
 31
0.0
  0
LINE
  5
2DD
330
E3
100
AcDbEntity
  8
0
  6
Continuous
100
AcDbLine
 10
151.1406108149092
 20
158.90847572928
 30
0.0
 11
151.0986940014675
 21
158.9103095674823
 31
0.0
  0
LINE
  5
2DE
330
E3
100
AcDbEntity
  8
0
  6
Continuous
100
AcDbLine
 10
151.0986940014675
 20
158.9103095674823
 30
0.0
 11
151.0558029614808
 21
158.9123189097314
 31
0.0
  0
LINE
  5
2DF
330
E3
100
AcDbEntity
  8
0
  6
Continuous
100
AcDbLine
 10
151.0558029614808
 20
158.9123189097314
 30
0.0
 11
151.0122672127511
 21
158.9144392851529
 31
0.0
  0
LINE
  5
2E0
330
E3
100
AcDbEntity
  8
0
  6
Continuous
100
AcDbLine
 10
151.0122672127511
 20
158.9144392851529
 30
0.0
 11
150.9683983645041
 21
158.9166169680182
 31
0.0
  0
LINE
  5
2E1
330
E3
100
AcDbEntity
  8
0
  6
Continuous
100
AcDbLine
 10
150.9683983645041
 20
158.9166169680182
 30
0.0
 11
150.9245330979725
 21
158.9187982325987
 31
0.0
  0
LINE
  5
2E2
330
E3
100
AcDbEntity
  8
0
  6
Continuous
100
AcDbLine
 10
150.9245330979725
 20
158.9187982325987
 30
0.0
 11
150.8809937675275
 21
158.9209186080201
 31
0.0
  0
LINE
  5
2E3
330
E3
100
AcDbEntity
  8
0
  6
Continuous
100
AcDbLine
 10
150.8809937675275
 20
158.9209186080201
 30
0.0
 11
150.8381063092561
 21
158.922924368554
 31
0.0
  0
LINE
  5
2E4
330
E3
100
AcDbEntity
  8
0
  6
Continuous
100
AcDbLine
 10
150.8381063092561
 20
158.922924368554
 30
0.0
 11
150.7961859140991
 21
158.9247617884716
 31
0.0
  0
LINE
  5
2E5
330
E3
100
AcDbEntity
  8
0
  6
Continuous
100
AcDbLine
 10
150.7961859140991
 20
158.9247617884716
 30
0.0
 11
150.755551354713
 21
158.9263699786139
 31
0.0
  0
LINE
  5
2E6
330
E3
100
AcDbEntity
  8
0
  6
Continuous
100
AcDbLine
 10
150.755551354713
 20
158.9263699786139
 30
0.0
 11
150.7164963317472
 21
158.9276987949675
 31
0.0
  0
LINE
  5
2E7
330
E3
100
AcDbEntity
  8
0
  6
Continuous
100
AcDbLine
 10
150.7164963317472
 20
158.9276987949675
 30
0.0
 11
150.6793181275667
 21
158.9287016752345
 31
0.0
  0
LINE
  5
2E8
330
E3
100
AcDbEntity
  8
0
  6
Continuous
100
AcDbLine
 10
150.6793181275667
 20
158.9287016752345
 30
0.0
 11
150.6442889525296
 21
158.9293213119708
 31
0.0
  0
LINE
  5
2E9
330
E3
100
AcDbEntity
  8
0
  6
Continuous
100
AcDbLine
 10
150.6442889525296
 20
158.9293213119708
 30
0.0
 11
150.611666690133
 21
158.9295183063089
 31
0.0
  0
LINE
  5
2EA
330
E3
100
AcDbEntity
  8
0
  6
Continuous
100
AcDbLine
 10
150.611666690133
 20
158.9295183063089
 30
0.0
 11
150.5816948970133
 21
158.9292460959508
 31
0.0
  0
LINE
  5
2EB
330
E3
100
AcDbEntity
  8
0
  6
Continuous
100
AcDbLine
 10
150.5816948970133
 20
158.9292460959508
 30
0.0
 11
150.5545956395152
 21
158.9284688637439
 31
0.0
  0
LINE
  5
2EC
330
E3
100
AcDbEntity
  8
0
  6
Continuous
100
AcDbLine
 10
150.5545956395152
 20
158.9284688637439
 30
0.0
 11
150.5305623302617
 21
158.927150792536
 31
0.0
  0
LINE
  5
2ED
330
E3
100
AcDbEntity
  8
0
  6
Continuous
100
AcDbLine
 10
150.5305623302617
 20
158.927150792536
 30
0.0
 11
150.50977763673
 21
158.9252596468898
 31
0.0
  0
LINE
  5
2EE
330
E3
100
AcDbEntity
  8
0
  6
Continuous
100
AcDbLine
 10
150.50977763673
 20
158.9252596468898
 30
0.0
 11
150.4923884092448
 21
158.9227703547987
 31
0.0
  0
LINE
  5
2EF
330
E3
100
AcDbEntity
  8
0
  6
Continuous
100
AcDbLine
 10
150.4923884092448
 20
158.9227703547987
 30
0.0
 11
150.4785235895547
 21
158.9196578442561
 31
0.0
  0
LINE
  5
2F0
330
E3
100
AcDbEntity
  8
0
  6
Continuous
100
AcDbLine
 10
150.4785235895547
 20
158.9196578442561
 30
0.0
 11
150.468276302256
 21
158.9159113701161
 31
0.0
  0
LINE
  5
2F1
330
E3
100
AcDbEntity
  8
0
  6
Continuous
100
AcDbLine
 10
150.468276302256
 20
158.9159113701161
 30
0.0
 11
150.4617177540595
 21
158.9115110837441
 31
0.0
  0
LINE
  5
2F2
330
E3
100
AcDbEntity
  8
0
  6
Continuous
100
AcDbLine
 10
150.4617177540595
 20
158.9115110837441
 30
0.0
 11
150.4588939134005
 21
158.9064532177071
 31
0.0
  0
LINE
  5
2F3
330
E3
100
AcDbEntity
  8
0
  6
Continuous
100
AcDbLine
 10
151.4094982374783
 20
158.538827755356
 30
0.0
 11
151.4066743968192
 21
158.533769889319
 31
0.0
  0
LINE
  5
2F4
330
E3
100
AcDbEntity
  8
0
  6
Continuous
100
AcDbLine
 10
151.4066743968192
 20
158.533769889319
 30
0.0
 11
151.4001173256723
 21
158.5293702925423
 31
0.0
  0
LINE
  5
2F5
330
E3
100
AcDbEntity
  8
0
  6
Continuous
100
AcDbLine
 10
151.4001173256723
 20
158.5293702925423
 30
0.0
 11
151.3898695418197
 21
158.525622605671
 31
0.0
  0
LINE
  5
2F6
330
E3
100
AcDbEntity
  8
0
  6
Continuous
100
AcDbLine
 10
151.3898695418197
 20
158.525622605671
 30
0.0
 11
151.3760011404144
 21
158.5225100951283
 31
0.0
  0
LINE
  5
2F7
330
E3
100
AcDbEntity
  8
0
  6
Continuous
100
AcDbLine
 10
151.3760011404144
 20
158.5225100951283
 30
0.0
 11
151.3586119129292
 21
158.5200208030372
 31
0.0
  0
LINE
  5
2F8
330
E3
100
AcDbEntity
  8
0
  6
Continuous
100
AcDbLine
 10
151.3586119129292
 20
158.5200208030372
 30
0.0
 11
151.3378272193975
 21
158.5181296573911
 31
0.0
  0
LINE
  5
2F9
330
E3
100
AcDbEntity
  8
0
  6
Continuous
100
AcDbLine
 10
151.3378272193975
 20
158.5181296573911
 30
0.0
 11
151.3137974918592
 21
158.5168115861831
 31
0.0
  0
LINE
  5
2FA
330
E3
100
AcDbEntity
  8
0
  6
Continuous
100
AcDbLine
 10
151.3137974918592
 20
158.5168115861831
 30
0.0
 11
151.2866982343611
 21
158.5160343539763
 31
0.0
  0
LINE
  5
2FB
330
E3
100
AcDbEntity
  8
0
  6
Continuous
100
AcDbLine
 10
151.2866982343611
 20
158.5160343539763
 30
0.0
 11
151.2567264412414
 21
158.5157621436181
 31
0.0
  0
LINE
  5
2FC
330
E3
100
AcDbEntity
  8
0
  6
Continuous
100
AcDbLine
 10
151.2567264412414
 20
158.5157621436181
 30
0.0
 11
151.2241041788448
 21
158.5159591379562
 31
0.0
  0
LINE
  5
2FD
330
E3
100
AcDbEntity
  8
0
  6
Continuous
100
AcDbLine
 10
151.2241041788448
 20
158.5159591379562
 30
0.0
 11
151.1890750038077
 21
158.5165823564078
 31
0.0
  0
LINE
  5
2FE
330
E3
100
AcDbEntity
  8
0
  6
Continuous
100
AcDbLine
 10
151.1890750038077
 20
158.5165823564078
 30
0.0
 11
151.1518967996272
 21
158.5175816549595
 31
0.0
  0
LINE
  5
2FF
330
E3
100
AcDbEntity
  8
0
  6
Continuous
100
AcDbLine
 10
151.1518967996272
 20
158.5175816549595
 30
0.0
 11
151.1128417766614
 21
158.5189104713132
 31
0.0
  0
LINE
  5
300
330
E3
100
AcDbEntity
  8
0
  6
Continuous
100
AcDbLine
 10
151.1128417766614
 20
158.5189104713132
 30
0.0
 11
151.0722036355601
 21
158.5205222431707
 31
0.0
  0
LINE
  5
301
330
E3
100
AcDbEntity
  8
0
  6
Continuous
100
AcDbLine
 10
151.0722036355601
 20
158.5205222431707
 30
0.0
 11
151.0302868221183
 21
158.5223560813731
 31
0.0
  0
LINE
  5
302
330
E3
100
AcDbEntity
  8
0
  6
Continuous
100
AcDbLine
 10
151.0302868221183
 20
158.5223560813731
 30
0.0
 11
150.9873993638469
 21
158.5243618419069
 31
0.0
  0
LINE
  5
303
330
E3
100
AcDbEntity
  8
0
  6
Continuous
100
AcDbLine
 10
150.9873993638469
 20
158.5243618419069
 30
0.0
 11
150.9438600334019
 21
158.5264857990436
 31
0.0
  0
LINE
  5
304
330
E3
100
AcDbEntity
  8
0
  6
Continuous
100
AcDbLine
 10
150.9438600334019
 20
158.5264857990436
 30
0.0
 11
150.899991185155
 21
158.5286634819089
 31
0.0
  0
LINE
  5
305
330
E3
100
AcDbEntity
  8
0
  6
Continuous
100
AcDbLine
 10
150.899991185155
 20
158.5286634819089
 30
0.0
 11
150.8561259186233
 21
158.5308411647742
 31
0.0
  0
LINE
  5
306
330
E3
100
AcDbEntity
  8
0
  6
Continuous
100
AcDbLine
 10
150.8561259186233
 20
158.5308411647742
 30
0.0
 11
150.8125865881784
 21
158.5329651219109
 31
0.0
  0
LINE
  5
307
330
E3
100
AcDbEntity
  8
0
  6
Continuous
100
AcDbLine
 10
150.8125865881784
 20
158.5329651219109
 30
0.0
 11
150.7696991299069
 21
158.5349708824447
 31
0.0
  0
LINE
  5
308
330
E3
100
AcDbEntity
  8
0
  6
Continuous
100
AcDbLine
 10
150.7696991299069
 20
158.5349708824447
 30
0.0
 11
150.72777873475
 21
158.5368047206471
 31
0.0
  0
LINE
  5
309
330
E3
100
AcDbEntity
  8
0
  6
Continuous
100
AcDbLine
 10
150.72777873475
 20
158.5368047206471
 30
0.0
 11
150.6871441753639
 21
158.5384164925046
 31
0.0
  0
LINE
  5
30A
330
E3
100
AcDbEntity
  8
0
  6
Continuous
100
AcDbLine
 10
150.6871441753639
 20
158.5384164925046
 30
0.0
 11
150.6480891523981
 21
158.5397453088583
 31
0.0
  0
LINE
  5
30B
330
E3
100
AcDbEntity
  8
0
  6
Continuous
100
AcDbLine
 10
150.6480891523981
 20
158.5397453088583
 30
0.0
 11
150.6109109482176
 21
158.5407446074099
 31
0.0
  0
LINE
  5
30C
330
E3
100
AcDbEntity
  8
0
  6
Continuous
100
AcDbLine
 10
150.6109109482176
 20
158.5407446074099
 30
0.0
 11
150.5758817731804
 21
158.5413678258615
 31
0.0
  0
LINE
  5
30D
330
E3
100
AcDbEntity
  8
0
  6
Continuous
100
AcDbLine
 10
150.5758817731804
 20
158.5413678258615
 30
0.0
 11
150.5432595107839
 21
158.5415612384844
 31
0.0
  0
LINE
  5
30E
330
E3
100
AcDbEntity
  8
0
  6
Continuous
100
AcDbLine
 10
150.5432595107839
 20
158.5415612384844
 30
0.0
 11
150.5132877176642
 21
158.5412926098415
 31
0.0
  0
LINE
  5
30F
330
E3
100
AcDbEntity
  8
0
  6
Continuous
100
AcDbLine
 10
150.5132877176642
 20
158.5412926098415
 30
0.0
 11
150.4861884601661
 21
158.5405153776346
 31
0.0
  0
LINE
  5
310
330
E3
100
AcDbEntity
  8
0
  6
Continuous
100
AcDbLine
 10
150.4861884601661
 20
158.5405153776346
 30
0.0
 11
150.4621587326278
 21
158.5391973064267
 31
0.0
  0
LINE
  5
311
330
E3
100
AcDbEntity
  8
0
  6
Continuous
100
AcDbLine
 10
150.4621587326278
 20
158.5391973064267
 30
0.0
 11
150.4413704573808
 21
158.5373061607805
 31
0.0
  0
LINE
  5
312
330
E3
100
AcDbEntity
  8
0
  6
Continuous
100
AcDbLine
 10
150.4413704573808
 20
158.5373061607805
 30
0.0
 11
150.4239848116109
 21
158.5348168686895
 31
0.0
  0
LINE
  5
313
330
E3
100
AcDbEntity
  8
0
  6
Continuous
100
AcDbLine
 10
150.4239848116109
 20
158.5348168686895
 30
0.0
 11
150.4101164102056
 21
158.5317043581468
 31
0.0
  0
LINE
  5
314
330
E3
100
AcDbEntity
  8
0
  6
Continuous
100
AcDbLine
 10
150.4101164102056
 20
158.5317043581468
 30
0.0
 11
150.3998691229069
 21
158.5279578840068
 31
0.0
  0
LINE
  5
315
330
E3
100
AcDbEntity
  8
0
  6
Continuous
100
AcDbLine
 10
150.3998691229069
 20
158.5279578840068
 30
0.0
 11
150.3933108961908
 21
158.5235565143757
 31
0.0
  0
LINE
  5
316
330
E3
100
AcDbEntity
  8
0
  6
Continuous
100
AcDbLine
 10
150.3933108961908
 20
158.5235565143757
 30
0.0
 11
150.3904870555317
 21
158.5184986483387
 31
0.0
  0
LINE
  5
317
330
E3
100
AcDbEntity
  8
0
  6
Continuous
100
AcDbLine
 10
151.3410913796095
 20
158.1508731859875
 30
0.0
 11
151.3382675389504
 21
158.1458153199506
 31
0.0
  0
LINE
  5
318
330
E3
100
AcDbEntity
  8
0
  6
Continuous
100
AcDbLine
 10
151.3382675389504
 20
158.1458153199506
 30
0.0
 11
151.3317104678035
 21
158.1414157231738
 31
0.0
  0
LINE
  5
319
330
E3
100
AcDbEntity
  8
0
  6
Continuous
100
AcDbLine
 10
151.3317104678035
 20
158.1414157231738
 30
0.0
 11
151.3214623624706
 21
158.1376655378465
 31
0.0
  0
LINE
  5
31A
330
E3
100
AcDbEntity
  8
0
  6
Continuous
100
AcDbLine
 10
151.3214623624706
 20
158.1376655378465
 30
0.0
 11
151.3075939610653
 21
158.1345566090191
 31
0.0
  0
LINE
  5
31B
330
E3
100
AcDbEntity
  8
0
  6
Continuous
100
AcDbLine
 10
151.3075939610653
 20
158.1345566090191
 30
0.0
 11
151.2902047335801
 21
158.132067316928
 31
0.0
  0
LINE
  5
31C
330
E3
100
AcDbEntity
  8
0
  6
Continuous
100
AcDbLine
 10
151.2902047335801
 20
158.132067316928
 30
0.0
 11
151.2694200400483
 21
158.1301761712818
 31
0.0
  0
LINE
  5
31D
330
E3
100
AcDbEntity
  8
0
  6
Continuous
100
AcDbLine
 10
151.2694200400483
 20
158.1301761712818
 30
0.0
 11
151.2453903125101
 21
158.1288581000738
 31
0.0
  0
LINE
  5
31E
330
E3
100
AcDbEntity
  8
0
  6
Continuous
100
AcDbLine
 10
151.2453903125101
 20
158.1288581000738
 30
0.0
 11
151.218291055012
 21
158.128080867867
 31
0.0
  0
LINE
  5
31F
330
E3
100
AcDbEntity
  8
0
  6
Continuous
100
AcDbLine
 10
151.218291055012
 20
158.128080867867
 30
0.0
 11
151.1883192618923
 21
158.1278086575088
 31
0.0
  0
LINE
  5
320
330
E3
100
AcDbEntity
  8
0
  6
Continuous
100
AcDbLine
 10
151.1883192618923
 20
158.1278086575088
 30
0.0
 11
151.1556969994957
 21
158.128005651847
 31
0.0
  0
LINE
  5
321
330
E3
100
AcDbEntity
  8
0
  6
Continuous
100
AcDbLine
 10
151.1556969994957
 20
158.128005651847
 30
0.0
 11
151.1206678244586
 21
158.1286252885833
 31
0.0
  0
LINE
  5
322
330
E3
100
AcDbEntity
  8
0
  6
Continuous
100
AcDbLine
 10
151.1206678244586
 20
158.1286252885833
 30
0.0
 11
151.0834896202781
 21
158.129624587135
 31
0.0
  0
LINE
  5
323
330
E3
100
AcDbEntity
  8
0
  6
Continuous
100
AcDbLine
 10
151.0834896202781
 20
158.129624587135
 30
0.0
 11
151.0444345973123
 21
158.1309569852039
 31
0.0
  0
LINE
  5
324
330
E3
100
AcDbEntity
  8
0
  6
Continuous
100
AcDbLine
 10
151.0444345973123
 20
158.1309569852039
 30
0.0
 11
151.0037964562109
 21
158.1325651753462
 31
0.0
  0
LINE
  5
325
330
E3
100
AcDbEntity
  8
0
  6
Continuous
100
AcDbLine
 10
151.0037964562109
 20
158.1325651753462
 30
0.0
 11
150.9618796427692
 21
158.1344025952638
 31
0.0
  0
LINE
  5
326
330
E3
100
AcDbEntity
  8
0
  6
Continuous
100
AcDbLine
 10
150.9618796427692
 20
158.1344025952638
 30
0.0
 11
150.9189921844978
 21
158.1364083557976
 31
0.0
  0
LINE
  5
327
330
E3
100
AcDbEntity
  8
0
  6
Continuous
100
AcDbLine
 10
150.9189921844978
 20
158.1364083557976
 30
0.0
 11
150.8754528540528
 21
158.1385287312191
 31
0.0
  0
LINE
  5
328
330
E3
100
AcDbEntity
  8
0
  6
Continuous
100
AcDbLine
 10
150.8754528540528
 20
158.1385287312191
 30
0.0
 11
150.8315840058059
 21
158.1407099957996
 31
0.0
  0
LINE
  5
329
330
E3
100
AcDbEntity
  8
0
  6
Continuous
100
AcDbLine
 10
150.8315840058059
 20
158.1407099957996
 30
0.0
 11
150.7877187392742
 21
158.1428876786649
 31
0.0
  0
LINE
  5
32A
330
E3
100
AcDbEntity
  8
0
  6
Continuous
100
AcDbLine
 10
150.7877187392742
 20
158.1428876786649
 30
0.0
 11
150.7441794088293
 21
158.1450080540864
 31
0.0
  0
LINE
  5
32B
330
E3
100
AcDbEntity
  8
0
  6
Continuous
100
AcDbLine
 10
150.7441794088293
 20
158.1450080540864
 30
0.0
 11
150.7012919505578
 21
158.1470138146202
 31
0.0
  0
LINE
  5
32C
330
E3
100
AcDbEntity
  8
0
  6
Continuous
100
AcDbLine
 10
150.7012919505578
 20
158.1470138146202
 30
0.0
 11
150.6593751371161
 21
158.1488512345378
 31
0.0
  0
LINE
  5
32D
330
E3
100
AcDbEntity
  8
0
  6
Continuous
100
AcDbLine
 10
150.6593751371161
 20
158.1488512345378
 30
0.0
 11
150.6187369960147
 21
158.1504594246801
 31
0.0
  0
LINE
  5
32E
330
E3
100
AcDbEntity
  8
0
  6
Continuous
100
AcDbLine
 10
150.6187369960147
 20
158.1504594246801
 30
0.0
 11
150.579681973049
 21
158.151791822749
 31
0.0
  0
LINE
  5
32F
330
E3
100
AcDbEntity
  8
0
  6
Continuous
100
AcDbLine
 10
150.579681973049
 20
158.151791822749
 30
0.0
 11
150.5425037688685
 21
158.1527911213007
 31
0.0
  0
LINE
  5
330
330
E3
100
AcDbEntity
  8
0
  6
Continuous
100
AcDbLine
 10
150.5425037688685
 20
158.1527911213007
 30
0.0
 11
150.5074745938313
 21
158.153410758037
 31
0.0
  0
LINE
  5
331
330
E3
100
AcDbEntity
  8
0
  6
Continuous
100
AcDbLine
 10
150.5074745938313
 20
158.153410758037
 30
0.0
 11
150.4748523314348
 21
158.1536077523752
 31
0.0
  0
LINE
  5
332
330
E3
100
AcDbEntity
  8
0
  6
Continuous
100
AcDbLine
 10
150.4748523314348
 20
158.1536077523752
 30
0.0
 11
150.444880538315
 21
158.153335542017
 31
0.0
  0
LINE
  5
333
330
E3
100
AcDbEntity
  8
0
  6
Continuous
100
AcDbLine
 10
150.444880538315
 20
158.153335542017
 30
0.0
 11
150.417781280817
 21
158.1525583098102
 31
0.0
  0
LINE
  5
334
330
E3
100
AcDbEntity
  8
0
  6
Continuous
100
AcDbLine
 10
150.417781280817
 20
158.1525583098102
 30
0.0
 11
150.3937515532787
 21
158.1512402386022
 31
0.0
  0
LINE
  5
335
330
E3
100
AcDbEntity
  8
0
  6
Continuous
100
AcDbLine
 10
150.3937515532787
 20
158.1512402386022
 30
0.0
 11
150.3729668597469
 21
158.149349092956
 31
0.0
  0
LINE
  5
336
330
E3
100
AcDbEntity
  8
0
  6
Continuous
100
AcDbLine
 10
150.3729668597469
 20
158.149349092956
 30
0.0
 11
150.3555776322617
 21
158.1468598008649
 31
0.0
  0
LINE
  5
337
330
E3
100
AcDbEntity
  8
0
  6
Continuous
100
AcDbLine
 10
150.3555776322617
 20
158.1468598008649
 30
0.0
 11
150.3417092308564
 21
158.1437508720375
 31
0.0
  0
LINE
  5
338
330
E3
100
AcDbEntity
  8
0
  6
Continuous
100
AcDbLine
 10
150.3417092308564
 20
158.1437508720375
 30
0.0
 11
150.3314619435577
 21
158.1400008161823
 31
0.0
  0
LINE
  5
339
330
E3
100
AcDbEntity
  8
0
  6
Continuous
100
AcDbLine
 10
150.3314619435577
 20
158.1400008161823
 30
0.0
 11
150.324904038322
 21
158.1356019450073
 31
0.0
  0
LINE
  5
33A
330
E3
100
AcDbEntity
  8
0
  6
Continuous
100
AcDbLine
 10
150.324904038322
 20
158.1356019450073
 30
0.0
 11
150.3220801976629
 21
158.1305440789702
 31
0.0
  0
LINE
  5
33B
330
E3
100
AcDbEntity
  8
0
  6
Continuous
100
AcDbLine
 10
151.2726845217407
 20
157.7629186166191
 30
0.0
 11
151.2698606810816
 21
157.7578607505821
 31
0.0
  0
LINE
  5
33C
330
E3
100
AcDbEntity
  8
0
  6
Continuous
100
AcDbLine
 10
151.2698606810816
 20
157.7578607505821
 30
0.0
 11
151.2633036099347
 21
157.7534611538053
 31
0.0
  0
LINE
  5
33D
330
E3
100
AcDbEntity
  8
0
  6
Continuous
100
AcDbLine
 10
151.2633036099347
 20
157.7534611538053
 30
0.0
 11
151.2530551831215
 21
157.7497120517372
 31
0.0
  0
LINE
  5
33E
330
E3
100
AcDbEntity
  8
0
  6
Continuous
100
AcDbLine
 10
151.2530551831215
 20
157.7497120517372
 30
0.0
 11
151.2391867817162
 21
157.7466031229098
 31
0.0
  0
LINE
  5
33F
330
E3
100
AcDbEntity
  8
0
  6
Continuous
100
AcDbLine
 10
151.2391867817162
 20
157.7466031229098
 30
0.0
 11
151.2218011359462
 21
157.7441138308187
 31
0.0
  0
LINE
  5
340
330
E3
100
AcDbEntity
  8
0
  6
Continuous
100
AcDbLine
 10
151.2218011359462
 20
157.7441138308187
 30
0.0
 11
151.2010128606992
 21
157.7422226851725
 31
0.0
  0
LINE
  5
341
330
E3
100
AcDbEntity
  8
0
  6
Continuous
100
AcDbLine
 10
151.2010128606992
 20
157.7422226851725
 30
0.0
 11
151.1769831331609
 21
157.7409010322494
 31
0.0
  0
LINE
  5
342
330
E3
100
AcDbEntity
  8
0
  6
Continuous
100
AcDbLine
 10
151.1769831331609
 20
157.7409010322494
 30
0.0
 11
151.1498838756629
 21
157.7401238000425
 31
0.0
  0
LINE
  5
343
330
E3
100
AcDbEntity
  8
0
  6
Continuous
100
AcDbLine
 10
151.1498838756629
 20
157.7401238000425
 30
0.0
 11
151.1199120825432
 21
157.7398551713996
 31
0.0
  0
LINE
  5
344
330
E3
100
AcDbEntity
  8
0
  6
Continuous
100
AcDbLine
 10
151.1199120825432
 20
157.7398551713996
 30
0.0
 11
151.0872898201466
 21
157.7400521657377
 31
0.0
  0
LINE
  5
345
330
E3
100
AcDbEntity
  8
0
  6
Continuous
100
AcDbLine
 10
151.0872898201466
 20
157.7400521657377
 30
0.0
 11
151.0522606451095
 21
157.7406718024741
 31
0.0
  0
LINE
  5
346
330
E3
100
AcDbEntity
  8
0
  6
Continuous
100
AcDbLine
 10
151.0522606451095
 20
157.7406718024741
 30
0.0
 11
151.0150824409289
 21
157.7416711010257
 31
0.0
  0
LINE
  5
347
330
E3
100
AcDbEntity
  8
0
  6
Continuous
100
AcDbLine
 10
151.0150824409289
 20
157.7416711010257
 30
0.0
 11
150.9760274179632
 21
157.7430034990946
 31
0.0
  0
LINE
  5
348
330
E3
100
AcDbEntity
  8
0
  6
Continuous
100
AcDbLine
 10
150.9760274179632
 20
157.7430034990946
 30
0.0
 11
150.935392858577
 21
157.7446116892369
 31
0.0
  0
LINE
  5
349
330
E3
100
AcDbEntity
  8
0
  6
Continuous
100
AcDbLine
 10
150.935392858577
 20
157.7446116892369
 30
0.0
 11
150.8934724634201
 21
157.7464455274393
 31
0.0
  0
LINE
  5
34A
330
E3
100
AcDbEntity
  8
0
  6
Continuous
100
AcDbLine
 10
150.8934724634201
 20
157.7464455274393
 30
0.0
 11
150.8505850051486
 21
157.7484548696883
 31
0.0
  0
LINE
  5
34B
330
E3
100
AcDbEntity
  8
0
  6
Continuous
100
AcDbLine
 10
150.8505850051486
 20
157.7484548696883
 30
0.0
 11
150.8070456747037
 21
157.7505752451098
 31
0.0
  0
LINE
  5
34C
330
E3
100
AcDbEntity
  8
0
  6
Continuous
100
AcDbLine
 10
150.8070456747037
 20
157.7505752451098
 30
0.0
 11
150.763180408172
 21
157.7527529279751
 31
0.0
  0
LINE
  5
34D
330
E3
100
AcDbEntity
  8
0
  6
Continuous
100
AcDbLine
 10
150.763180408172
 20
157.7527529279751
 30
0.0
 11
150.7193115599251
 21
157.7549341925556
 31
0.0
  0
LINE
  5
34E
330
E3
100
AcDbEntity
  8
0
  6
Continuous
100
AcDbLine
 10
150.7193115599251
 20
157.7549341925556
 30
0.0
 11
150.6757722294801
 21
157.7570545679771
 31
0.0
  0
LINE
  5
34F
330
E3
100
AcDbEntity
  8
0
  6
Continuous
100
AcDbLine
 10
150.6757722294801
 20
157.7570545679771
 30
0.0
 11
150.6328847712087
 21
157.7590603285109
 31
0.0
  0
LINE
  5
350
330
E3
100
AcDbEntity
  8
0
  6
Continuous
100
AcDbLine
 10
150.6328847712087
 20
157.7590603285109
 30
0.0
 11
150.590967957767
 21
157.7608977484285
 31
0.0
  0
LINE
  5
351
330
E3
100
AcDbEntity
  8
0
  6
Continuous
100
AcDbLine
 10
150.590967957767
 20
157.7608977484285
 30
0.0
 11
150.5503298166656
 21
157.7625059385708
 31
0.0
  0
LINE
  5
352
330
E3
100
AcDbEntity
  8
0
  6
Continuous
100
AcDbLine
 10
150.5503298166656
 20
157.7625059385708
 30
0.0
 11
150.5112747936999
 21
157.7638383366397
 31
0.0
  0
LINE
  5
353
330
E3
100
AcDbEntity
  8
0
  6
Continuous
100
AcDbLine
 10
150.5112747936999
 20
157.7638383366397
 30
0.0
 11
150.4740965895193
 21
157.7648376351914
 31
0.0
  0
LINE
  5
354
330
E3
100
AcDbEntity
  8
0
  6
Continuous
100
AcDbLine
 10
150.4740965895193
 20
157.7648376351914
 30
0.0
 11
150.4390674144821
 21
157.7654572719277
 31
0.0
  0
LINE
  5
355
330
E3
100
AcDbEntity
  8
0
  6
Continuous
100
AcDbLine
 10
150.4390674144821
 20
157.7654572719277
 30
0.0
 11
150.4064451520856
 21
157.7656542662659
 31
0.0
  0
LINE
  5
356
330
E3
100
AcDbEntity
  8
0
  6
Continuous
100
AcDbLine
 10
150.4064451520856
 20
157.7656542662659
 30
0.0
 11
150.3764733589659
 21
157.7653820559077
 31
0.0
  0
LINE
  5
357
330
E3
100
AcDbEntity
  8
0
  6
Continuous
100
AcDbLine
 10
150.3764733589659
 20
157.7653820559077
 30
0.0
 11
150.3493741014678
 21
157.7646048237009
 31
0.0
  0
LINE
  5
358
330
E3
100
AcDbEntity
  8
0
  6
Continuous
100
AcDbLine
 10
150.3493741014678
 20
157.7646048237009
 30
0.0
 11
150.3253443739296
 21
157.7632867524929
 31
0.0
  0
LINE
  5
359
330
E3
100
AcDbEntity
  8
0
  6
Continuous
100
AcDbLine
 10
150.3253443739296
 20
157.7632867524929
 30
0.0
 11
150.3045596803978
 21
157.7613956068467
 31
0.0
  0
LINE
  5
35A
330
E3
100
AcDbEntity
  8
0
  6
Continuous
100
AcDbLine
 10
150.3045596803978
 20
157.7613956068467
 30
0.0
 11
150.2871704529126
 21
157.7589063147556
 31
0.0
  0
LINE
  5
35B
330
E3
100
AcDbEntity
  8
0
  6
Continuous
100
AcDbLine
 10
150.2871704529126
 20
157.7589063147556
 30
0.0
 11
150.2733020515073
 21
157.7557973859282
 31
0.0
  0
LINE
  5
35C
330
E3
100
AcDbEntity
  8
0
  6
Continuous
100
AcDbLine
 10
150.2733020515073
 20
157.7557973859282
 30
0.0
 11
150.2630547642086
 21
157.752047330073
 31
0.0
  0
LINE
  5
35D
330
E3
100
AcDbEntity
  8
0
  6
Continuous
100
AcDbLine
 10
150.2630547642086
 20
157.752047330073
 30
0.0
 11
150.2564971804532
 21
157.7476473756388
 31
0.0
  0
LINE
  5
35E
330
E3
100
AcDbEntity
  8
0
  6
Continuous
100
AcDbLine
 10
150.2564971804532
 20
157.7476473756388
 30
0.0
 11
150.2536733397941
 21
157.7425895096019
 31
0.0
  0
LINE
  5
35F
330
E3
100
AcDbEntity
  8
0
  6
Continuous
100
AcDbLine
 10
151.2042776638719
 20
157.3749640472506
 30
0.0
 11
151.2014538232129
 21
157.3699061812137
 31
0.0
  0
LINE
  5
360
330
E3
100
AcDbEntity
  8
0
  6
Continuous
100
AcDbLine
 10
151.2014538232129
 20
157.3699061812137
 30
0.0
 11
151.1948967520659
 21
157.3655065844369
 31
0.0
  0
LINE
  5
361
330
E3
100
AcDbEntity
  8
0
  6
Continuous
100
AcDbLine
 10
151.1948967520659
 20
157.3655065844369
 30
0.0
 11
151.1846480037723
 21
157.361758565628
 31
0.0
  0
LINE
  5
362
330
E3
100
AcDbEntity
  8
0
  6
Continuous
100
AcDbLine
 10
151.1846480037723
 20
157.361758565628
 30
0.0
 11
151.1707831840823
 21
157.3586460550853
 31
0.0
  0
LINE
  5
363
330
E3
100
AcDbEntity
  8
0
  6
Continuous
100
AcDbLine
 10
151.1707831840823
 20
157.3586460550853
 30
0.0
 11
151.1533939565971
 21
157.3561567629942
 31
0.0
  0
LINE
  5
364
330
E3
100
AcDbEntity
  8
0
  6
Continuous
100
AcDbLine
 10
151.1533939565971
 20
157.3561567629942
 30
0.0
 11
151.1326092630653
 21
157.354265617348
 31
0.0
  0
LINE
  5
365
330
E3
100
AcDbEntity
  8
0
  6
Continuous
100
AcDbLine
 10
151.1326092630653
 20
157.354265617348
 30
0.0
 11
151.1085759538118
 21
157.3529475461401
 31
0.0
  0
LINE
  5
366
330
E3
100
AcDbEntity
  8
0
  6
Continuous
100
AcDbLine
 10
151.1085759538118
 20
157.3529475461401
 30
0.0
 11
151.0814766963138
 21
157.3521703139332
 31
0.0
  0
LINE
  5
367
330
E3
100
AcDbEntity
  8
0
  6
Continuous
100
AcDbLine
 10
151.0814766963138
 20
157.3521703139332
 30
0.0
 11
151.051504903194
 21
157.3519016852903
 31
0.0
  0
LINE
  5
368
330
E3
100
AcDbEntity
  8
0
  6
Continuous
100
AcDbLine
 10
151.051504903194
 20
157.3519016852903
 30
0.0
 11
151.0188826407975
 21
157.3520950979132
 31
0.0
  0
LINE
  5
369
330
E3
100
AcDbEntity
  8
0
  6
Continuous
100
AcDbLine
 10
151.0188826407975
 20
157.3520950979132
 30
0.0
 11
150.9838534657603
 21
157.3527183163648
 31
0.0
  0
LINE
  5
36A
330
E3
100
AcDbEntity
  8
0
  6
Continuous
100
AcDbLine
 10
150.9838534657603
 20
157.3527183163648
 30
0.0
 11
150.9466752615798
 21
157.3537176149165
 31
0.0
  0
LINE
  5
36B
330
E3
100
AcDbEntity
  8
0
  6
Continuous
100
AcDbLine
 10
150.9466752615798
 20
157.3537176149165
 30
0.0
 11
150.907620238614
 21
157.3550464312701
 31
0.0
  0
LINE
  5
36C
330
E3
100
AcDbEntity
  8
0
  6
Continuous
100
AcDbLine
 10
150.907620238614
 20
157.3550464312701
 30
0.0
 11
150.8669856792279
 21
157.3566582031277
 31
0.0
  0
LINE
  5
36D
330
E3
100
AcDbEntity
  8
0
  6
Continuous
100
AcDbLine
 10
150.8669856792279
 20
157.3566582031277
 30
0.0
 11
150.825065284071
 21
157.35849204133
 31
0.0
  0
LINE
  5
36E
330
E3
100
AcDbEntity
  8
0
  6
Continuous
100
AcDbLine
 10
150.825065284071
 20
157.35849204133
 30
0.0
 11
150.7821778257995
 21
157.3604978018638
 31
0.0
  0
LINE
  5
36F
330
E3
100
AcDbEntity
  8
0
  6
Continuous
100
AcDbLine
 10
150.7821778257995
 20
157.3604978018638
 30
0.0
 11
150.7386384953546
 21
157.3626217590005
 31
0.0
  0
LINE
  5
370
330
E3
100
AcDbEntity
  8
0
  6
Continuous
100
AcDbLine
 10
150.7386384953546
 20
157.3626217590005
 30
0.0
 11
150.6947732288229
 21
157.3647994418658
 31
0.0
  0
LINE
  5
371
330
E3
100
AcDbEntity
  8
0
  6
Continuous
100
AcDbLine
 10
150.6947732288229
 20
157.3647994418658
 30
0.0
 11
150.650904380576
 21
157.3669771247311
 31
0.0
  0
LINE
  5
372
330
E3
100
AcDbEntity
  8
0
  6
Continuous
100
AcDbLine
 10
150.650904380576
 20
157.3669771247311
 30
0.0
 11
150.6073686318463
 21
157.3691010818679
 31
0.0
  0
LINE
  5
373
330
E3
100
AcDbEntity
  8
0
  6
Continuous
100
AcDbLine
 10
150.6073686318463
 20
157.3691010818679
 30
0.0
 11
150.5644775918596
 21
157.3711068424017
 31
0.0
  0
LINE
  5
374
330
E3
100
AcDbEntity
  8
0
  6
Continuous
100
AcDbLine
 10
150.5644775918596
 20
157.3711068424017
 30
0.0
 11
150.5225607784179
 21
157.372940680604
 31
0.0
  0
LINE
  5
375
330
E3
100
AcDbEntity
  8
0
  6
Continuous
100
AcDbLine
 10
150.5225607784179
 20
157.372940680604
 30
0.0
 11
150.4819226373165
 21
157.3745524524615
 31
0.0
  0
LINE
  5
376
330
E3
100
AcDbEntity
  8
0
  6
Continuous
100
AcDbLine
 10
150.4819226373165
 20
157.3745524524615
 30
0.0
 11
150.442871196066
 21
157.3758812688152
 31
0.0
  0
LINE
  5
377
330
E3
100
AcDbEntity
  8
0
  6
Continuous
100
AcDbLine
 10
150.442871196066
 20
157.3758812688152
 30
0.0
 11
150.4056894101702
 21
157.3768805673669
 31
0.0
  0
LINE
  5
378
330
E3
100
AcDbEntity
  8
0
  6
Continuous
100
AcDbLine
 10
150.4056894101702
 20
157.3768805673669
 30
0.0
 11
150.3706602351331
 21
157.3775037858185
 31
0.0
  0
LINE
  5
379
330
E3
100
AcDbEntity
  8
0
  6
Continuous
100
AcDbLine
 10
150.3706602351331
 20
157.3775037858185
 30
0.0
 11
150.3380379727365
 21
157.3777007801566
 31
0.0
  0
LINE
  5
37A
330
E3
100
AcDbEntity
  8
0
  6
Continuous
100
AcDbLine
 10
150.3380379727365
 20
157.3777007801566
 30
0.0
 11
150.3080661796168
 21
157.3774285697984
 31
0.0
  0
LINE
  5
37B
330
E3
100
AcDbEntity
  8
0
  6
Continuous
100
AcDbLine
 10
150.3080661796168
 20
157.3774285697984
 30
0.0
 11
150.2809669221187
 21
157.3766513375916
 31
0.0
  0
LINE
  5
37C
330
E3
100
AcDbEntity
  8
0
  6
Continuous
100
AcDbLine
 10
150.2809669221187
 20
157.3766513375916
 30
0.0
 11
150.2569371945804
 21
157.3753332663836
 31
0.0
  0
LINE
  5
37D
330
E3
100
AcDbEntity
  8
0
  6
Continuous
100
AcDbLine
 10
150.2569371945804
 20
157.3753332663836
 30
0.0
 11
150.2361525010487
 21
157.3734421207375
 31
0.0
  0
LINE
  5
37E
330
E3
100
AcDbEntity
  8
0
  6
Continuous
100
AcDbLine
 10
150.2361525010487
 20
157.3734421207375
 30
0.0
 11
150.2187632735635
 21
157.3709528286464
 31
0.0
  0
LINE
  5
37F
330
E3
100
AcDbEntity
  8
0
  6
Continuous
100
AcDbLine
 10
150.2187632735635
 20
157.3709528286464
 30
0.0
 11
150.2048948721581
 21
157.3678403181037
 31
0.0
  0
LINE
  5
380
330
E3
100
AcDbEntity
  8
0
  6
Continuous
100
AcDbLine
 10
150.2048948721581
 20
157.3678403181037
 30
0.0
 11
150.1946475848595
 21
157.3640938439638
 31
0.0
  0
LINE
  5
381
330
E3
100
AcDbEntity
  8
0
  6
Continuous
100
AcDbLine
 10
150.1946475848595
 20
157.3640938439638
 30
0.0
 11
150.1880903225844
 21
157.3596928062704
 31
0.0
  0
LINE
  5
382
330
E3
100
AcDbEntity
  8
0
  6
Continuous
100
AcDbLine
 10
150.1880903225844
 20
157.3596928062704
 30
0.0
 11
150.1852664819253
 21
157.3546349402334
 31
0.0
  0
LINE
  5
383
330
E3
100
AcDbEntity
  8
0
  6
Continuous
100
AcDbLine
 10
151.1358708060031
 20
156.9870094778823
 30
0.0
 11
151.1330469653441
 21
156.9819516118453
 31
0.0
  0
LINE
  5
384
330
E3
100
AcDbEntity
  8
0
  6
Continuous
100
AcDbLine
 10
151.1330469653441
 20
156.9819516118453
 30
0.0
 11
151.1264898941971
 21
156.9775520150685
 31
0.0
  0
LINE
  5
385
330
E3
100
AcDbEntity
  8
0
  6
Continuous
100
AcDbLine
 10
151.1264898941971
 20
156.9775520150685
 30
0.0
 11
151.1162408244232
 21
156.9738014978035
 31
0.0
  0
LINE
  5
386
330
E3
100
AcDbEntity
  8
0
  6
Continuous
100
AcDbLine
 10
151.1162408244232
 20
156.9738014978035
 30
0.0
 11
151.1023760047331
 21
156.970692568976
 31
0.0
  0
LINE
  5
387
330
E3
100
AcDbEntity
  8
0
  6
Continuous
100
AcDbLine
 10
151.1023760047331
 20
156.970692568976
 30
0.0
 11
151.0849867772479
 21
156.9682032768849
 31
0.0
  0
LINE
  5
388
330
E3
100
AcDbEntity
  8
0
  6
Continuous
100
AcDbLine
 10
151.0849867772479
 20
156.9682032768849
 30
0.0
 11
151.0642020837162
 21
156.9663121312387
 31
0.0
  0
LINE
  5
389
330
E3
100
AcDbEntity
  8
0
  6
Continuous
100
AcDbLine
 10
151.0642020837162
 20
156.9663121312387
 30
0.0
 11
151.0401687744627
 21
156.9649940600308
 31
0.0
  0
LINE
  5
38A
330
E3
100
AcDbEntity
  8
0
  6
Continuous
100
AcDbLine
 10
151.0401687744627
 20
156.9649940600308
 30
0.0
 11
151.0130695169646
 21
156.9642168278239
 31
0.0
  0
LINE
  5
38B
330
E3
100
AcDbEntity
  8
0
  6
Continuous
100
AcDbLine
 10
151.0130695169646
 20
156.9642168278239
 30
0.0
 11
150.9830977238449
 21
156.9639446174658
 31
0.0
  0
LINE
  5
38C
330
E3
100
AcDbEntity
  8
0
  6
Continuous
100
AcDbLine
 10
150.9830977238449
 20
156.9639446174658
 30
0.0
 11
150.9504754614483
 21
156.9641416118039
 31
0.0
  0
LINE
  5
38D
330
E3
100
AcDbEntity
  8
0
  6
Continuous
100
AcDbLine
 10
150.9504754614483
 20
156.9641416118039
 30
0.0
 11
150.9154462864112
 21
156.9647612485403
 31
0.0
  0
LINE
  5
38E
330
E3
100
AcDbEntity
  8
0
  6
Continuous
100
AcDbLine
 10
150.9154462864112
 20
156.9647612485403
 30
0.0
 11
150.8782680822306
 21
156.9657641288072
 31
0.0
  0
LINE
  5
38F
330
E3
100
AcDbEntity
  8
0
  6
Continuous
100
AcDbLine
 10
150.8782680822306
 20
156.9657641288072
 30
0.0
 11
150.8392130592649
 21
156.9670929451608
 31
0.0
  0
LINE
  5
390
330
E3
100
AcDbEntity
  8
0
  6
Continuous
100
AcDbLine
 10
150.8392130592649
 20
156.9670929451608
 30
0.0
 11
150.7985784998788
 21
156.9687011353031
 31
0.0
  0
LINE
  5
391
330
E3
100
AcDbEntity
  8
0
  6
Continuous
100
AcDbLine
 10
150.7985784998788
 20
156.9687011353031
 30
0.0
 11
150.7566581047218
 21
156.9705385552207
 31
0.0
  0
LINE
  5
392
330
E3
100
AcDbEntity
  8
0
  6
Continuous
100
AcDbLine
 10
150.7566581047218
 20
156.9705385552207
 30
0.0
 11
150.7137706464504
 21
156.9725443157546
 31
0.0
  0
LINE
  5
393
330
E3
100
AcDbEntity
  8
0
  6
Continuous
100
AcDbLine
 10
150.7137706464504
 20
156.9725443157546
 30
0.0
 11
150.6702313160054
 21
156.9746646911761
 31
0.0
  0
LINE
  5
394
330
E3
100
AcDbEntity
  8
0
  6
Continuous
100
AcDbLine
 10
150.6702313160054
 20
156.9746646911761
 30
0.0
 11
150.6263660494738
 21
156.9768459557566
 31
0.0
  0
LINE
  5
395
330
E3
100
AcDbEntity
  8
0
  6
Continuous
100
AcDbLine
 10
150.6263660494738
 20
156.9768459557566
 30
0.0
 11
150.582500782942
 21
156.9790236386219
 31
0.0
  0
LINE
  5
396
330
E3
100
AcDbEntity
  8
0
  6
Continuous
100
AcDbLine
 10
150.582500782942
 20
156.9790236386219
 30
0.0
 11
150.5389614524971
 21
156.9811440140433
 31
0.0
  0
LINE
  5
397
330
E3
100
AcDbEntity
  8
0
  6
Continuous
100
AcDbLine
 10
150.5389614524971
 20
156.9811440140433
 30
0.0
 11
150.4960704125104
 21
156.9831533562924
 31
0.0
  0
LINE
  5
398
330
E3
100
AcDbEntity
  8
0
  6
Continuous
100
AcDbLine
 10
150.4960704125104
 20
156.9831533562924
 30
0.0
 11
150.4541535990687
 21
156.9849871944947
 31
0.0
  0
LINE
  5
399
330
E3
100
AcDbEntity
  8
0
  6
Continuous
100
AcDbLine
 10
150.4541535990687
 20
156.9849871944947
 30
0.0
 11
150.4135154579673
 21
156.986595384637
 31
0.0
  0
LINE
  5
39A
330
E3
100
AcDbEntity
  8
0
  6
Continuous
100
AcDbLine
 10
150.4135154579673
 20
156.986595384637
 30
0.0
 11
150.3744640167168
 21
156.987927782706
 31
0.0
  0
LINE
  5
39B
330
E3
100
AcDbEntity
  8
0
  6
Continuous
100
AcDbLine
 10
150.3744640167168
 20
156.987927782706
 30
0.0
 11
150.3372822308211
 21
156.9889270812576
 31
0.0
  0
LINE
  5
39C
330
E3
100
AcDbEntity
  8
0
  6
Continuous
100
AcDbLine
 10
150.3372822308211
 20
156.9889270812576
 30
0.0
 11
150.3022530557839
 21
156.989546717994
 31
0.0
  0
LINE
  5
39D
330
E3
100
AcDbEntity
  8
0
  6
Continuous
100
AcDbLine
 10
150.3022530557839
 20
156.989546717994
 30
0.0
 11
150.2696307933874
 21
156.9897437123321
 31
0.0
  0
LINE
  5
39E
330
E3
100
AcDbEntity
  8
0
  6
Continuous
100
AcDbLine
 10
150.2696307933874
 20
156.9897437123321
 30
0.0
 11
150.2396625819829
 21
156.9894750836892
 31
0.0
  0
LINE
  5
39F
330
E3
100
AcDbEntity
  8
0
  6
Continuous
100
AcDbLine
 10
150.2396625819829
 20
156.9894750836892
 30
0.0
 11
150.2125597427696
 21
156.9886978514823
 31
0.0
  0
LINE
  5
3A0
330
E3
100
AcDbEntity
  8
0
  6
Continuous
100
AcDbLine
 10
150.2125597427696
 20
156.9886978514823
 30
0.0
 11
150.1885300152313
 21
156.9873761985592
 31
0.0
  0
LINE
  5
3A1
330
E3
100
AcDbEntity
  8
0
  6
Continuous
100
AcDbLine
 10
150.1885300152313
 20
156.9873761985592
 30
0.0
 11
150.1677453216996
 21
156.9854886346282
 31
0.0
  0
LINE
  5
3A2
330
E3
100
AcDbEntity
  8
0
  6
Continuous
100
AcDbLine
 10
150.1677453216996
 20
156.9854886346282
 30
0.0
 11
150.1503560942143
 21
156.9829957608219
 31
0.0
  0
LINE
  5
3A3
330
E3
100
AcDbEntity
  8
0
  6
Continuous
100
AcDbLine
 10
150.1503560942143
 20
156.9829957608219
 30
0.0
 11
150.1364876928091
 21
156.9798868319945
 31
0.0
  0
LINE
  5
3A4
330
E3
100
AcDbEntity
  8
0
  6
Continuous
100
AcDbLine
 10
150.1364876928091
 20
156.9798868319945
 30
0.0
 11
150.1262404055104
 21
156.9761367761392
 31
0.0
  0
LINE
  5
3A5
330
E3
100
AcDbEntity
  8
0
  6
Continuous
100
AcDbLine
 10
150.1262404055104
 20
156.9761367761392
 30
0.0
 11
150.1196834647156
 21
156.9717382369019
 31
0.0
  0
LINE
  5
3A6
330
E3
100
AcDbEntity
  8
0
  6
Continuous
100
AcDbLine
 10
150.1196834647156
 20
156.9717382369019
 30
0.0
 11
150.1168596240565
 21
156.9666803708649
 31
0.0
  0
LINE
  5
3A7
330
E3
100
AcDbEntity
  8
0
  6
Continuous
100
AcDbLine
 10
151.0674639481343
 20
156.5990549085138
 30
0.0
 11
151.0646401074752
 21
156.5939970424768
 31
0.0
  0
LINE
  5
3A8
330
E3
100
AcDbEntity
  8
0
  6
Continuous
100
AcDbLine
 10
151.0646401074752
 20
156.5939970424768
 30
0.0
 11
151.0580830363283
 21
156.5895974457
 31
0.0
  0
LINE
  5
3A9
330
E3
100
AcDbEntity
  8
0
  6
Continuous
100
AcDbLine
 10
151.0580830363283
 20
156.5895974457
 30
0.0
 11
151.0478336450741
 21
156.5858480116942
 31
0.0
  0
LINE
  5
3AA
330
E3
100
AcDbEntity
  8
0
  6
Continuous
100
AcDbLine
 10
151.0478336450741
 20
156.5858480116942
 30
0.0
 11
151.033968825384
 21
156.5827390828667
 31
0.0
  0
LINE
  5
3AB
330
E3
100
AcDbEntity
  8
0
  6
Continuous
100
AcDbLine
 10
151.033968825384
 20
156.5827390828667
 30
0.0
 11
151.0165795978988
 21
156.5802497907756
 31
0.0
  0
LINE
  5
3AC
330
E3
100
AcDbEntity
  8
0
  6
Continuous
100
AcDbLine
 10
151.0165795978988
 20
156.5802497907756
 30
0.0
 11
150.995794904367
 21
156.5783586451295
 31
0.0
  0
LINE
  5
3AD
330
E3
100
AcDbEntity
  8
0
  6
Continuous
100
AcDbLine
 10
150.995794904367
 20
156.5783586451295
 30
0.0
 11
150.9717615951135
 21
156.5770405739215
 31
0.0
  0
LINE
  5
3AE
330
E3
100
AcDbEntity
  8
0
  6
Continuous
100
AcDbLine
 10
150.9717615951135
 20
156.5770405739215
 30
0.0
 11
150.9446623376155
 21
156.5762633417147
 31
0.0
  0
LINE
  5
3AF
330
E3
100
AcDbEntity
  8
0
  6
Continuous
100
AcDbLine
 10
150.9446623376155
 20
156.5762633417147
 30
0.0
 11
150.9146905444958
 21
156.5759911313565
 31
0.0
  0
LINE
  5
3B0
330
E3
100
AcDbEntity
  8
0
  6
Continuous
100
AcDbLine
 10
150.9146905444958
 20
156.5759911313565
 30
0.0
 11
150.8820718638144
 21
156.5761881256946
 31
0.0
  0
LINE
  5
3B1
330
E3
100
AcDbEntity
  8
0
  6
Continuous
100
AcDbLine
 10
150.8820718638144
 20
156.5761881256946
 30
0.0
 11
150.847039107062
 21
156.576807762431
 31
0.0
  0
LINE
  5
3B2
330
E3
100
AcDbEntity
  8
0
  6
Continuous
100
AcDbLine
 10
150.847039107062
 20
156.576807762431
 30
0.0
 11
150.8098609028815
 21
156.5778070609827
 31
0.0
  0
LINE
  5
3B3
330
E3
100
AcDbEntity
  8
0
  6
Continuous
100
AcDbLine
 10
150.8098609028815
 20
156.5778070609827
 30
0.0
 11
150.770809461631
 21
156.5791394590516
 31
0.0
  0
LINE
  5
3B4
330
E3
100
AcDbEntity
  8
0
  6
Continuous
100
AcDbLine
 10
150.770809461631
 20
156.5791394590516
 30
0.0
 11
150.7301713205296
 21
156.5807476491939
 31
0.0
  0
LINE
  5
3B5
330
E3
100
AcDbEntity
  8
0
  6
Continuous
100
AcDbLine
 10
150.7301713205296
 20
156.5807476491939
 30
0.0
 11
150.6882509253727
 21
156.5825850691115
 31
0.0
  0
LINE
  5
3B6
330
E3
100
AcDbEntity
  8
0
  6
Continuous
100
AcDbLine
 10
150.6882509253727
 20
156.5825850691115
 30
0.0
 11
150.6453634671012
 21
156.5845908296453
 31
0.0
  0
LINE
  5
3B7
330
E3
100
AcDbEntity
  8
0
  6
Continuous
100
AcDbLine
 10
150.6453634671012
 20
156.5845908296453
 30
0.0
 11
150.6018241366563
 21
156.5867112050668
 31
0.0
  0
LINE
  5
3B8
330
E3
100
AcDbEntity
  8
0
  6
Continuous
100
AcDbLine
 10
150.6018241366563
 20
156.5867112050668
 30
0.0
 11
150.5579588701246
 21
156.588888887932
 31
0.0
  0
LINE
  5
3B9
330
E3
100
AcDbEntity
  8
0
  6
Continuous
100
AcDbLine
 10
150.5579588701246
 20
156.588888887932
 30
0.0
 11
150.5140936035929
 21
156.5910701525126
 31
0.0
  0
LINE
  5
3BA
330
E3
100
AcDbEntity
  8
0
  6
Continuous
100
AcDbLine
 10
150.5140936035929
 20
156.5910701525126
 30
0.0
 11
150.470554273148
 21
156.5931905279341
 31
0.0
  0
LINE
  5
3BB
330
E3
100
AcDbEntity
  8
0
  6
Continuous
100
AcDbLine
 10
150.470554273148
 20
156.5931905279341
 30
0.0
 11
150.4276632331613
 21
156.5951962884679
 31
0.0
  0
LINE
  5
3BC
330
E3
100
AcDbEntity
  8
0
  6
Continuous
100
AcDbLine
 10
150.4276632331613
 20
156.5951962884679
 30
0.0
 11
150.3857464197196
 21
156.5970337083855
 31
0.0
  0
LINE
  5
3BD
330
E3
100
AcDbEntity
  8
0
  6
Continuous
100
AcDbLine
 10
150.3857464197196
 20
156.5970337083855
 30
0.0
 11
150.3451082786182
 21
156.5986418985278
 31
0.0
  0
LINE
  5
3BE
330
E3
100
AcDbEntity
  8
0
  6
Continuous
100
AcDbLine
 10
150.3451082786182
 20
156.5986418985278
 30
0.0
 11
150.3060568373677
 21
156.5999742965967
 31
0.0
  0
LINE
  5
3BF
330
E3
100
AcDbEntity
  8
0
  6
Continuous
100
AcDbLine
 10
150.3060568373677
 20
156.5999742965967
 30
0.0
 11
150.2688750514719
 21
156.6009735951484
 31
0.0
  0
LINE
  5
3C0
330
E3
100
AcDbEntity
  8
0
  6
Continuous
100
AcDbLine
 10
150.2688750514719
 20
156.6009735951484
 30
0.0
 11
150.2338458764348
 21
156.6015932318847
 31
0.0
  0
LINE
  5
3C1
330
E3
100
AcDbEntity
  8
0
  6
Continuous
100
AcDbLine
 10
150.2338458764348
 20
156.6015932318847
 30
0.0
 11
150.2012236140382
 21
156.6017902262228
 31
0.0
  0
LINE
  5
3C2
330
E3
100
AcDbEntity
  8
0
  6
Continuous
100
AcDbLine
 10
150.2012236140382
 20
156.6017902262228
 30
0.0
 11
150.1712554026338
 21
156.6015180158647
 31
0.0
  0
LINE
  5
3C3
330
E3
100
AcDbEntity
  8
0
  6
Continuous
100
AcDbLine
 10
150.1712554026338
 20
156.6015180158647
 30
0.0
 11
150.1441525634204
 21
156.6007407836578
 31
0.0
  0
LINE
  5
3C4
330
E3
100
AcDbEntity
  8
0
  6
Continuous
100
AcDbLine
 10
150.1441525634204
 20
156.6007407836578
 30
0.0
 11
150.1201228358822
 21
156.5994227124499
 31
0.0
  0
LINE
  5
3C5
330
E3
100
AcDbEntity
  8
0
  6
Continuous
100
AcDbLine
 10
150.1201228358822
 20
156.5994227124499
 30
0.0
 11
150.0993381423504
 21
156.5975315668037
 31
0.0
  0
LINE
  5
3C6
330
E3
100
AcDbEntity
  8
0
  6
Continuous
100
AcDbLine
 10
150.0993381423504
 20
156.5975315668037
 30
0.0
 11
150.0819489148652
 21
156.5950422747126
 31
0.0
  0
LINE
  5
3C7
330
E3
100
AcDbEntity
  8
0
  6
Continuous
100
AcDbLine
 10
150.0819489148652
 20
156.5950422747126
 30
0.0
 11
150.0680805134599
 21
156.5919333458852
 31
0.0
  0
LINE
  5
3C8
330
E3
100
AcDbEntity
  8
0
  6
Continuous
100
AcDbLine
 10
150.0680805134599
 20
156.5919333458852
 30
0.0
 11
150.0578332261612
 21
156.58818329003
 31
0.0
  0
LINE
  5
3C9
330
E3
100
AcDbEntity
  8
0
  6
Continuous
100
AcDbLine
 10
150.0578332261612
 20
156.58818329003
 30
0.0
 11
150.0512766068468
 21
156.5837836675335
 31
0.0
  0
LINE
  5
3CA
330
E3
100
AcDbEntity
  8
0
  6
Continuous
100
AcDbLine
 10
150.0512766068468
 20
156.5837836675335
 30
0.0
 11
150.0484527661877
 21
156.5787258014965
 31
0.0
  0
LINE
  5
3CB
330
E3
100
AcDbEntity
  8
0
  6
Continuous
100
AcDbLine
 10
150.9990570902655
 20
156.2111003391453
 30
0.0
 11
150.9962332496065
 21
156.2060424731083
 31
0.0
  0
LINE
  5
3CC
330
E3
100
AcDbEntity
  8
0
  6
Continuous
100
AcDbLine
 10
150.9962332496065
 20
156.2060424731083
 30
0.0
 11
150.9896761784595
 21
156.2016428763316
 31
0.0
  0
LINE
  5
3CD
330
E3
100
AcDbEntity
  8
0
  6
Continuous
100
AcDbLine
 10
150.9896761784595
 20
156.2016428763316
 30
0.0
 11
150.9794300474402
 21
156.1978945255849
 31
0.0
  0
LINE
  5
3CE
330
E3
100
AcDbEntity
  8
0
  6
Continuous
100
AcDbLine
 10
150.9794300474402
 20
156.1978945255849
 30
0.0
 11
150.9655616460349
 21
156.1947820150422
 31
0.0
  0
LINE
  5
3CF
330
E3
100
AcDbEntity
  8
0
  6
Continuous
100
AcDbLine
 10
150.9655616460349
 20
156.1947820150422
 30
0.0
 11
150.9481724185497
 21
156.1922927229512
 31
0.0
  0
LINE
  5
3D0
330
E3
100
AcDbEntity
  8
0
  6
Continuous
100
AcDbLine
 10
150.9481724185497
 20
156.1922927229512
 30
0.0
 11
150.9273877250179
 21
156.190401577305
 31
0.0
  0
LINE
  5
3D1
330
E3
100
AcDbEntity
  8
0
  6
Continuous
100
AcDbLine
 10
150.9273877250179
 20
156.190401577305
 30
0.0
 11
150.9033544157644
 21
156.189083506097
 31
0.0
  0
LINE
  5
3D2
330
E3
100
AcDbEntity
  8
0
  6
Continuous
100
AcDbLine
 10
150.9033544157644
 20
156.189083506097
 30
0.0
 11
150.8762551582664
 21
156.1883062738902
 31
0.0
  0
LINE
  5
3D3
330
E3
100
AcDbEntity
  8
0
  6
Continuous
100
AcDbLine
 10
150.8762551582664
 20
156.1883062738902
 30
0.0
 11
150.8462833651466
 21
156.1880376452472
 31
0.0
  0
LINE
  5
3D4
330
E3
100
AcDbEntity
  8
0
  6
Continuous
100
AcDbLine
 10
150.8462833651466
 20
156.1880376452472
 30
0.0
 11
150.8136646844653
 21
156.1882310578702
 31
0.0
  0
LINE
  5
3D5
330
E3
100
AcDbEntity
  8
0
  6
Continuous
100
AcDbLine
 10
150.8136646844653
 20
156.1882310578702
 30
0.0
 11
150.778631927713
 21
156.1888542763217
 31
0.0
  0
LINE
  5
3D6
330
E3
100
AcDbEntity
  8
0
  6
Continuous
100
AcDbLine
 10
150.778631927713
 20
156.1888542763217
 30
0.0
 11
150.7414537235324
 21
156.1898535748734
 31
0.0
  0
LINE
  5
3D7
330
E3
100
AcDbEntity
  8
0
  6
Continuous
100
AcDbLine
 10
150.7414537235324
 20
156.1898535748734
 30
0.0
 11
150.7024022822819
 21
156.1911823912271
 31
0.0
  0
LINE
  5
3D8
330
E3
100
AcDbEntity
  8
0
  6
Continuous
100
AcDbLine
 10
150.7024022822819
 20
156.1911823912271
 30
0.0
 11
150.6617641411805
 21
156.1927941630846
 31
0.0
  0
LINE
  5
3D9
330
E3
100
AcDbEntity
  8
0
  6
Continuous
100
AcDbLine
 10
150.6617641411805
 20
156.1927941630846
 30
0.0
 11
150.6198437460235
 21
156.194628001287
 31
0.0
  0
LINE
  5
3DA
330
E3
100
AcDbEntity
  8
0
  6
Continuous
100
AcDbLine
 10
150.6198437460235
 20
156.194628001287
 30
0.0
 11
150.5769562877521
 21
156.1966337618208
 31
0.0
  0
LINE
  5
3DB
330
E3
100
AcDbEntity
  8
0
  6
Continuous
100
AcDbLine
 10
150.5769562877521
 20
156.1966337618208
 30
0.0
 11
150.5334169573072
 21
156.1987577189575
 31
0.0
  0
LINE
  5
3DC
330
E3
100
AcDbEntity
  8
0
  6
Continuous
100
AcDbLine
 10
150.5334169573072
 20
156.1987577189575
 30
0.0
 11
150.4895516907755
 21
156.2009354018228
 31
0.0
  0
LINE
  5
3DD
330
E3
100
AcDbEntity
  8
0
  6
Continuous
100
AcDbLine
 10
150.4895516907755
 20
156.2009354018228
 30
0.0
 11
150.4456864242438
 21
156.2031130846881
 31
0.0
  0
LINE
  5
3DE
330
E3
100
AcDbEntity
  8
0
  6
Continuous
100
AcDbLine
 10
150.4456864242438
 20
156.2031130846881
 30
0.0
 11
150.4021470937988
 21
156.2052370418248
 31
0.0
  0
LINE
  5
3DF
330
E3
100
AcDbEntity
  8
0
  6
Continuous
100
AcDbLine
 10
150.4021470937988
 20
156.2052370418248
 30
0.0
 11
150.3592560538122
 21
156.2072428023586
 31
0.0
  0
LINE
  5
3E0
330
E3
100
AcDbEntity
  8
0
  6
Continuous
100
AcDbLine
 10
150.3592560538122
 20
156.2072428023586
 30
0.0
 11
150.3173392403705
 21
156.209076640561
 31
0.0
  0
LINE
  5
3E1
330
E3
100
AcDbEntity
  8
0
  6
Continuous
100
AcDbLine
 10
150.3173392403705
 20
156.209076640561
 30
0.0
 11
150.2767010992691
 21
156.2106884124185
 31
0.0
  0
LINE
  5
3E2
330
E3
100
AcDbEntity
  8
0
  6
Continuous
100
AcDbLine
 10
150.2767010992691
 20
156.2106884124185
 30
0.0
 11
150.2376496580186
 21
156.2120172287722
 31
0.0
  0
LINE
  5
3E3
330
E3
100
AcDbEntity
  8
0
  6
Continuous
100
AcDbLine
 10
150.2376496580186
 20
156.2120172287722
 30
0.0
 11
150.2004678721228
 21
156.2130165273238
 31
0.0
  0
LINE
  5
3E4
330
E3
100
AcDbEntity
  8
0
  6
Continuous
100
AcDbLine
 10
150.2004678721228
 20
156.2130165273238
 30
0.0
 11
150.1654386970856
 21
156.2136397457754
 31
0.0
  0
LINE
  5
3E5
330
E3
100
AcDbEntity
  8
0
  6
Continuous
100
AcDbLine
 10
150.1654386970856
 20
156.2136397457754
 30
0.0
 11
150.1328200164043
 21
156.2138367401136
 31
0.0
  0
LINE
  5
3E6
330
E3
100
AcDbEntity
  8
0
  6
Continuous
100
AcDbLine
 10
150.1328200164043
 20
156.2138367401136
 30
0.0
 11
150.1028482232846
 21
156.2135645297554
 31
0.0
  0
LINE
  5
3E7
330
E3
100
AcDbEntity
  8
0
  6
Continuous
100
AcDbLine
 10
150.1028482232846
 20
156.2135645297554
 30
0.0
 11
150.0757453840713
 21
156.2127872975486
 31
0.0
  0
LINE
  5
3E8
330
E3
100
AcDbEntity
  8
0
  6
Continuous
100
AcDbLine
 10
150.0757453840713
 20
156.2127872975486
 30
0.0
 11
150.051715656533
 21
156.2114692263406
 31
0.0
  0
LINE
  5
3E9
330
E3
100
AcDbEntity
  8
0
  6
Continuous
100
AcDbLine
 10
150.051715656533
 20
156.2114692263406
 30
0.0
 11
150.0309309630013
 21
156.2095780806944
 31
0.0
  0
LINE
  5
3EA
330
E3
100
AcDbEntity
  8
0
  6
Continuous
100
AcDbLine
 10
150.0309309630013
 20
156.2095780806944
 30
0.0
 11
150.0135417355161
 21
156.2070887886033
 31
0.0
  0
LINE
  5
3EB
330
E3
100
AcDbEntity
  8
0
  6
Continuous
100
AcDbLine
 10
150.0135417355161
 20
156.2070887886033
 30
0.0
 11
149.9996733341108
 21
156.2039762780607
 31
0.0
  0
LINE
  5
3EC
330
E3
100
AcDbEntity
  8
0
  6
Continuous
100
AcDbLine
 10
149.9996733341108
 20
156.2039762780607
 30
0.0
 11
149.9894260468121
 21
156.2002298039207
 31
0.0
  0
LINE
  5
3ED
330
E3
100
AcDbEntity
  8
0
  6
Continuous
100
AcDbLine
 10
149.9894260468121
 20
156.2002298039207
 30
0.0
 11
149.982869748978
 21
156.195829098165
 31
0.0
  0
LINE
  5
3EE
330
E3
100
AcDbEntity
  8
0
  6
Continuous
100
AcDbLine
 10
149.982869748978
 20
156.195829098165
 30
0.0
 11
149.9800459083189
 21
156.190771232128
 31
0.0
  0
LINE
  5
3EF
330
E3
100
AcDbEntity
  8
0
  6
Continuous
100
AcDbLine
 10
150.9306502323967
 20
155.8231457697769
 30
0.0
 11
150.9278263917377
 21
155.8180879037399
 31
0.0
  0
LINE
  5
3F0
330
E3
100
AcDbEntity
  8
0
  6
Continuous
100
AcDbLine
 10
150.9278263917377
 20
155.8180879037399
 30
0.0
 11
150.9212693205908
 21
155.8136883069631
 31
0.0
  0
LINE
  5
3F1
330
E3
100
AcDbEntity
  8
0
  6
Continuous
100
AcDbLine
 10
150.9212693205908
 20
155.8136883069631
 30
0.0
 11
150.911022868091
 21
155.8099410394756
 31
0.0
  0
LINE
  5
3F2
330
E3
100
AcDbEntity
  8
0
  6
Continuous
100
AcDbLine
 10
150.911022868091
 20
155.8099410394756
 30
0.0
 11
150.8971544666858
 21
155.806828528933
 31
0.0
  0
LINE
  5
3F3
330
E3
100
AcDbEntity
  8
0
  6
Continuous
100
AcDbLine
 10
150.8971544666858
 20
155.806828528933
 30
0.0
 11
150.8797652392005
 21
155.8043392368419
 31
0.0
  0
LINE
  5
3F4
330
E3
100
AcDbEntity
  8
0
  6
Continuous
100
AcDbLine
 10
150.8797652392005
 20
155.8043392368419
 30
0.0
 11
150.8589805456688
 21
155.8024480911957
 31
0.0
  0
LINE
  5
3F5
330
E3
100
AcDbEntity
  8
0
  6
Continuous
100
AcDbLine
 10
150.8589805456688
 20
155.8024480911957
 30
0.0
 11
150.8349508181305
 21
155.8011300199878
 31
0.0
  0
LINE
  5
3F6
330
E3
100
AcDbEntity
  8
0
  6
Continuous
100
AcDbLine
 10
150.8349508181305
 20
155.8011300199878
 30
0.0
 11
150.8078479789172
 21
155.8003527877809
 31
0.0
  0
LINE
  5
3F7
330
E3
100
AcDbEntity
  8
0
  6
Continuous
100
AcDbLine
 10
150.8078479789172
 20
155.8003527877809
 30
0.0
 11
150.7778761857975
 21
155.8000805774228
 31
0.0
  0
LINE
  5
3F8
330
E3
100
AcDbEntity
  8
0
  6
Continuous
100
AcDbLine
 10
150.7778761857975
 20
155.8000805774228
 30
0.0
 11
150.7452575051162
 21
155.8002775717609
 31
0.0
  0
LINE
  5
3F9
330
E3
100
AcDbEntity
  8
0
  6
Continuous
100
AcDbLine
 10
150.7452575051162
 20
155.8002775717609
 30
0.0
 11
150.7102283300791
 21
155.8008972084972
 31
0.0
  0
LINE
  5
3FA
330
E3
100
AcDbEntity
  8
0
  6
Continuous
100
AcDbLine
 10
150.7102283300791
 20
155.8008972084972
 30
0.0
 11
150.6730465441833
 21
155.8019000887641
 31
0.0
  0
LINE
  5
3FB
330
E3
100
AcDbEntity
  8
0
  6
Continuous
100
AcDbLine
 10
150.6730465441833
 20
155.8019000887641
 30
0.0
 11
150.6339951029328
 21
155.8032289051178
 31
0.0
  0
LINE
  5
3FC
330
E3
100
AcDbEntity
  8
0
  6
Continuous
100
AcDbLine
 10
150.6339951029328
 20
155.8032289051178
 30
0.0
 11
150.5933569618314
 21
155.8048370952601
 31
0.0
  0
LINE
  5
3FD
330
E3
100
AcDbEntity
  8
0
  6
Continuous
100
AcDbLine
 10
150.5933569618314
 20
155.8048370952601
 30
0.0
 11
150.5514401483897
 21
155.8066745151777
 31
0.0
  0
LINE
  5
3FE
330
E3
100
AcDbEntity
  8
0
  6
Continuous
100
AcDbLine
 10
150.5514401483897
 20
155.8066745151777
 30
0.0
 11
150.508549108403
 21
155.8086802757115
 31
0.0
  0
LINE
  5
3FF
330
E3
100
AcDbEntity
  8
0
  6
Continuous
100
AcDbLine
 10
150.508549108403
 20
155.8086802757115
 30
0.0
 11
150.465009777958
 21
155.810800651133
 31
0.0
  0
LINE
  5
400
330
E3
100
AcDbEntity
  8
0
  6
Continuous
100
AcDbLine
 10
150.465009777958
 20
155.810800651133
 30
0.0
 11
150.4211445114263
 21
155.8129819157135
 31
0.0
  0
LINE
  5
401
330
E3
100
AcDbEntity
  8
0
  6
Continuous
100
AcDbLine
 10
150.4211445114263
 20
155.8129819157135
 30
0.0
 11
150.3772792448947
 21
155.8151595985788
 31
0.0
  0
LINE
  5
402
330
E3
100
AcDbEntity
  8
0
  6
Continuous
100
AcDbLine
 10
150.3772792448947
 20
155.8151595985788
 30
0.0
 11
150.3337399144497
 21
155.8172799740003
 31
0.0
  0
LINE
  5
403
330
E3
100
AcDbEntity
  8
0
  6
Continuous
100
AcDbLine
 10
150.3337399144497
 20
155.8172799740003
 30
0.0
 11
150.2908524561783
 21
155.8192893162493
 31
0.0
  0
LINE
  5
404
330
E3
100
AcDbEntity
  8
0
  6
Continuous
100
AcDbLine
 10
150.2908524561783
 20
155.8192893162493
 30
0.0
 11
150.2489320610213
 21
155.8211231544517
 31
0.0
  0
LINE
  5
405
330
E3
100
AcDbEntity
  8
0
  6
Continuous
100
AcDbLine
 10
150.2489320610213
 20
155.8211231544517
 30
0.0
 11
150.20829391992
 21
155.8227349263092
 31
0.0
  0
LINE
  5
406
330
E3
100
AcDbEntity
  8
0
  6
Continuous
100
AcDbLine
 10
150.20829391992
 20
155.8227349263092
 30
0.0
 11
150.1692424786694
 21
155.8240637426629
 31
0.0
  0
LINE
  5
407
330
E3
100
AcDbEntity
  8
0
  6
Continuous
100
AcDbLine
 10
150.1692424786694
 20
155.8240637426629
 30
0.0
 11
150.132064274489
 21
155.8250630412145
 31
0.0
  0
LINE
  5
408
330
E3
100
AcDbEntity
  8
0
  6
Continuous
100
AcDbLine
 10
150.132064274489
 20
155.8250630412145
 30
0.0
 11
150.0970315177366
 21
155.8256862596661
 31
0.0
  0
LINE
  5
409
330
E3
100
AcDbEntity
  8
0
  6
Continuous
100
AcDbLine
 10
150.0970315177366
 20
155.8256862596661
 30
0.0
 11
150.0644128370552
 21
155.825879672289
 31
0.0
  0
LINE
  5
40A
330
E3
100
AcDbEntity
  8
0
  6
Continuous
100
AcDbLine
 10
150.0644128370552
 20
155.825879672289
 30
0.0
 11
150.0344410439355
 21
155.8256110436461
 31
0.0
  0
LINE
  5
40B
330
E3
100
AcDbEntity
  8
0
  6
Continuous
100
AcDbLine
 10
150.0344410439355
 20
155.8256110436461
 30
0.0
 11
150.0073382047222
 21
155.8248338114393
 31
0.0
  0
LINE
  5
40C
330
E3
100
AcDbEntity
  8
0
  6
Continuous
100
AcDbLine
 10
150.0073382047222
 20
155.8248338114393
 30
0.0
 11
149.983308477184
 21
155.8235157402313
 31
0.0
  0
LINE
  5
40D
330
E3
100
AcDbEntity
  8
0
  6
Continuous
100
AcDbLine
 10
149.983308477184
 20
155.8235157402313
 30
0.0
 11
149.9625237836522
 21
155.8216245945852
 31
0.0
  0
LINE
  5
40E
330
E3
100
AcDbEntity
  8
0
  6
Continuous
100
AcDbLine
 10
149.9625237836522
 20
155.8216245945852
 30
0.0
 11
149.9451345561669
 21
155.8191353024941
 31
0.0
  0
LINE
  5
40F
330
E3
100
AcDbEntity
  8
0
  6
Continuous
100
AcDbLine
 10
149.9451345561669
 20
155.8191353024941
 30
0.0
 11
149.9312661547617
 21
155.8160227919514
 31
0.0
  0
LINE
  5
410
330
E3
100
AcDbEntity
  8
0
  6
Continuous
100
AcDbLine
 10
149.9312661547617
 20
155.8160227919514
 30
0.0
 11
149.9210188674629
 21
155.8122727360962
 31
0.0
  0
LINE
  5
411
330
E3
100
AcDbEntity
  8
0
  6
Continuous
100
AcDbLine
 10
149.9210188674629
 20
155.8122727360962
 30
0.0
 11
149.9144628911092
 21
155.8078745287966
 31
0.0
  0
LINE
  5
412
330
E3
100
AcDbEntity
  8
0
  6
Continuous
100
AcDbLine
 10
149.9144628911092
 20
155.8078745287966
 30
0.0
 11
149.9116390504501
 21
155.8028166627596
 31
0.0
  0
LINE
  5
413
330
E3
100
AcDbEntity
  8
0
  6
Continuous
100
AcDbLine
 10
150.862243374528
 20
155.4351912004084
 30
0.0
 11
150.8594195338689
 21
155.4301333343714
 31
0.0
  0
LINE
  5
414
330
E3
100
AcDbEntity
  8
0
  6
Continuous
100
AcDbLine
 10
150.8594195338689
 20
155.4301333343714
 30
0.0
 11
150.852862462722
 21
155.4257337375947
 31
0.0
  0
LINE
  5
415
330
E3
100
AcDbEntity
  8
0
  6
Continuous
100
AcDbLine
 10
150.852862462722
 20
155.4257337375947
 30
0.0
 11
150.8426156887419
 21
155.4219839716511
 31
0.0
  0
LINE
  5
416
330
E3
100
AcDbEntity
  8
0
  6
Continuous
100
AcDbLine
 10
150.8426156887419
 20
155.4219839716511
 30
0.0
 11
150.8287472873366
 21
155.4188750428237
 31
0.0
  0
LINE
  5
417
330
E3
100
AcDbEntity
  8
0
  6
Continuous
100
AcDbLine
 10
150.8287472873366
 20
155.4188750428237
 30
0.0
 11
150.8113580598514
 21
155.4163857507326
 31
0.0
  0
LINE
  5
418
330
E3
100
AcDbEntity
  8
0
  6
Continuous
100
AcDbLine
 10
150.8113580598514
 20
155.4163857507326
 30
0.0
 11
150.7905733663197
 21
155.4144946050864
 31
0.0
  0
LINE
  5
419
330
E3
100
AcDbEntity
  8
0
  6
Continuous
100
AcDbLine
 10
150.7905733663197
 20
155.4144946050864
 30
0.0
 11
150.7665436387814
 21
155.4131765338785
 31
0.0
  0
LINE
  5
41A
330
E3
100
AcDbEntity
  8
0
  6
Continuous
100
AcDbLine
 10
150.7665436387814
 20
155.4131765338785
 30
0.0
 11
150.7394407995681
 21
155.4123993016716
 31
0.0
  0
LINE
  5
41B
330
E3
100
AcDbEntity
  8
0
  6
Continuous
100
AcDbLine
 10
150.7394407995681
 20
155.4123993016716
 30
0.0
 11
150.7094690064484
 21
155.4121270913134
 31
0.0
  0
LINE
  5
41C
330
E3
100
AcDbEntity
  8
0
  6
Continuous
100
AcDbLine
 10
150.7094690064484
 20
155.4121270913134
 30
0.0
 11
150.676850325767
 21
155.4123240856516
 31
0.0
  0
LINE
  5
41D
330
E3
100
AcDbEntity
  8
0
  6
Continuous
100
AcDbLine
 10
150.676850325767
 20
155.4123240856516
 30
0.0
 11
150.6418211507299
 21
155.4129437223879
 31
0.0
  0
LINE
  5
41E
330
E3
100
AcDbEntity
  8
0
  6
Continuous
100
AcDbLine
 10
150.6418211507299
 20
155.4129437223879
 30
0.0
 11
150.6046393648342
 21
155.4139430209396
 31
0.0
  0
LINE
  5
41F
330
E3
100
AcDbEntity
  8
0
  6
Continuous
100
AcDbLine
 10
150.6046393648342
 20
155.4139430209396
 30
0.0
 11
150.5655879235836
 21
155.4152754190085
 31
0.0
  0
LINE
  5
420
330
E3
100
AcDbEntity
  8
0
  6
Continuous
100
AcDbLine
 10
150.5655879235836
 20
155.4152754190085
 30
0.0
 11
150.5249497824823
 21
155.4168836091508
 31
0.0
  0
LINE
  5
421
330
E3
100
AcDbEntity
  8
0
  6
Continuous
100
AcDbLine
 10
150.5249497824823
 20
155.4168836091508
 30
0.0
 11
150.4830329690406
 21
155.4187210290684
 31
0.0
  0
LINE
  5
422
330
E3
100
AcDbEntity
  8
0
  6
Continuous
100
AcDbLine
 10
150.4830329690406
 20
155.4187210290684
 30
0.0
 11
150.4401419290539
 21
155.4207267896022
 31
0.0
  0
LINE
  5
423
330
E3
100
AcDbEntity
  8
0
  6
Continuous
100
AcDbLine
 10
150.4401419290539
 20
155.4207267896022
 30
0.0
 11
150.3966025986089
 21
155.4228471650237
 31
0.0
  0
LINE
  5
424
330
E3
100
AcDbEntity
  8
0
  6
Continuous
100
AcDbLine
 10
150.3966025986089
 20
155.4228471650237
 30
0.0
 11
150.3527373320772
 21
155.4250284296042
 31
0.0
  0
LINE
  5
425
330
E3
100
AcDbEntity
  8
0
  6
Continuous
100
AcDbLine
 10
150.3527373320772
 20
155.4250284296042
 30
0.0
 11
150.3088720655456
 21
155.4272061124695
 31
0.0
  0
LINE
  5
426
330
E3
100
AcDbEntity
  8
0
  6
Continuous
100
AcDbLine
 10
150.3088720655456
 20
155.4272061124695
 30
0.0
 11
150.2653327351006
 21
155.429326487891
 31
0.0
  0
LINE
  5
427
330
E3
100
AcDbEntity
  8
0
  6
Continuous
100
AcDbLine
 10
150.2653327351006
 20
155.429326487891
 30
0.0
 11
150.2224452768291
 21
155.4313322484248
 31
0.0
  0
LINE
  5
428
330
E3
100
AcDbEntity
  8
0
  6
Continuous
100
AcDbLine
 10
150.2224452768291
 20
155.4313322484248
 30
0.0
 11
150.1805248816722
 21
155.4331696683424
 31
0.0
  0
LINE
  5
429
330
E3
100
AcDbEntity
  8
0
  6
Continuous
100
AcDbLine
 10
150.1805248816722
 20
155.4331696683424
 30
0.0
 11
150.1398867405708
 21
155.4347778584847
 31
0.0
  0
LINE
  5
42A
330
E3
100
AcDbEntity
  8
0
  6
Continuous
100
AcDbLine
 10
150.1398867405708
 20
155.4347778584847
 30
0.0
 11
150.1008352993203
 21
155.4361102565536
 31
0.0
  0
LINE
  5
42B
330
E3
100
AcDbEntity
  8
0
  6
Continuous
100
AcDbLine
 10
150.1008352993203
 20
155.4361102565536
 30
0.0
 11
150.0636570951398
 21
155.4371095551053
 31
0.0
  0
LINE
  5
42C
330
E3
100
AcDbEntity
  8
0
  6
Continuous
100
AcDbLine
 10
150.0636570951398
 20
155.4371095551053
 30
0.0
 11
150.0286243383874
 21
155.4377291918416
 31
0.0
  0
LINE
  5
42D
330
E3
100
AcDbEntity
  8
0
  6
Continuous
100
AcDbLine
 10
150.0286243383874
 20
155.4377291918416
 30
0.0
 11
149.9960056577061
 21
155.4379261861798
 31
0.0
  0
LINE
  5
42E
330
E3
100
AcDbEntity
  8
0
  6
Continuous
100
AcDbLine
 10
149.9960056577061
 20
155.4379261861798
 30
0.0
 11
149.9660338645863
 21
155.4376539758216
 31
0.0
  0
LINE
  5
42F
330
E3
100
AcDbEntity
  8
0
  6
Continuous
100
AcDbLine
 10
149.9660338645863
 20
155.4376539758216
 30
0.0
 11
149.9389346070883
 21
155.4368767436148
 31
0.0
  0
LINE
  5
430
330
E3
100
AcDbEntity
  8
0
  6
Continuous
100
AcDbLine
 10
149.9389346070883
 20
155.4368767436148
 30
0.0
 11
149.9149012978348
 21
155.4355586724068
 31
0.0
  0
LINE
  5
431
330
E3
100
AcDbEntity
  8
0
  6
Continuous
100
AcDbLine
 10
149.9149012978348
 20
155.4355586724068
 30
0.0
 11
149.894116604303
 21
155.4336675267606
 31
0.0
  0
LINE
  5
432
330
E3
100
AcDbEntity
  8
0
  6
Continuous
100
AcDbLine
 10
149.894116604303
 20
155.4336675267606
 30
0.0
 11
149.8767273768179
 21
155.4311782346696
 31
0.0
  0
LINE
  5
433
330
E3
100
AcDbEntity
  8
0
  6
Continuous
100
AcDbLine
 10
149.8767273768179
 20
155.4311782346696
 30
0.0
 11
149.8628589754125
 21
155.4280693058421
 31
0.0
  0
LINE
  5
434
330
E3
100
AcDbEntity
  8
0
  6
Continuous
100
AcDbLine
 10
149.8628589754125
 20
155.4280693058421
 30
0.0
 11
149.8526116881138
 21
155.4243192499869
 31
0.0
  0
LINE
  5
435
330
E3
100
AcDbEntity
  8
0
  6
Continuous
100
AcDbLine
 10
149.8526116881138
 20
155.4243192499869
 30
0.0
 11
149.8460560332404
 21
155.4199199594281
 31
0.0
  0
LINE
  5
436
330
E3
100
AcDbEntity
  8
0
  6
Continuous
100
AcDbLine
 10
149.8460560332404
 20
155.4199199594281
 30
0.0
 11
149.8432321925814
 21
155.4148620933912
 31
0.0
  0
LINE
  5
437
330
E3
100
AcDbEntity
  8
0
  6
Continuous
100
AcDbLine
 10
150.7938365166592
 20
155.04723663104
 30
0.0
 11
150.7910126760001
 21
155.042178765003
 31
0.0
  0
LINE
  5
438
330
E3
100
AcDbEntity
  8
0
  6
Continuous
100
AcDbLine
 10
150.7910126760001
 20
155.042178765003
 30
0.0
 11
150.7844556048532
 21
155.0377791682263
 31
0.0
  0
LINE
  5
439
330
E3
100
AcDbEntity
  8
0
  6
Continuous
100
AcDbLine
 10
150.7844556048532
 20
155.0377791682263
 30
0.0
 11
150.7742085093928
 21
155.0340304855418
 31
0.0
  0
LINE
  5
43A
330
E3
100
AcDbEntity
  8
0
  6
Continuous
100
AcDbLine
 10
150.7742085093928
 20
155.0340304855418
 30
0.0
 11
150.7603401079875
 21
155.0309179749991
 31
0.0
  0
LINE
  5
43B
330
E3
100
AcDbEntity
  8
0
  6
Continuous
100
AcDbLine
 10
150.7603401079875
 20
155.0309179749991
 30
0.0
 11
150.7429508805023
 21
155.0284286829081
 31
0.0
  0
LINE
  5
43C
330
E3
100
AcDbEntity
  8
0
  6
Continuous
100
AcDbLine
 10
150.7429508805023
 20
155.0284286829081
 30
0.0
 11
150.7221661869706
 21
155.0265375372619
 31
0.0
  0
LINE
  5
43D
330
E3
100
AcDbEntity
  8
0
  6
Continuous
100
AcDbLine
 10
150.7221661869706
 20
155.0265375372619
 30
0.0
 11
150.6981364594322
 21
155.025219466054
 31
0.0
  0
LINE
  5
43E
330
E3
100
AcDbEntity
  8
0
  6
Continuous
100
AcDbLine
 10
150.6981364594322
 20
155.025219466054
 30
0.0
 11
150.671033620219
 21
155.0244422338471
 31
0.0
  0
LINE
  5
43F
330
E3
100
AcDbEntity
  8
0
  6
Continuous
100
AcDbLine
 10
150.671033620219
 20
155.0244422338471
 30
0.0
 11
150.6410654088145
 21
155.0241736052042
 31
0.0
  0
LINE
  5
440
330
E3
100
AcDbEntity
  8
0
  6
Continuous
100
AcDbLine
 10
150.6410654088145
 20
155.0241736052042
 30
0.0
 11
150.6084431464179
 21
155.0243670178271
 31
0.0
  0
LINE
  5
441
330
E3
100
AcDbEntity
  8
0
  6
Continuous
100
AcDbLine
 10
150.6084431464179
 20
155.0243670178271
 30
0.0
 11
150.5734139713808
 21
155.0249902362787
 31
0.0
  0
LINE
  5
442
330
E3
100
AcDbEntity
  8
0
  6
Continuous
100
AcDbLine
 10
150.5734139713808
 20
155.0249902362787
 30
0.0
 11
150.536232185485
 21
155.0259895348304
 31
0.0
  0
LINE
  5
443
330
E3
100
AcDbEntity
  8
0
  6
Continuous
100
AcDbLine
 10
150.536232185485
 20
155.0259895348304
 30
0.0
 11
150.4971807442345
 21
155.027318351184
 31
0.0
  0
LINE
  5
444
330
E3
100
AcDbEntity
  8
0
  6
Continuous
100
AcDbLine
 10
150.4971807442345
 20
155.027318351184
 30
0.0
 11
150.4565426031331
 21
155.0289301230415
 31
0.0
  0
LINE
  5
445
330
E3
100
AcDbEntity
  8
0
  6
Continuous
100
AcDbLine
 10
150.4565426031331
 20
155.0289301230415
 30
0.0
 11
150.4146257896914
 21
155.0307639612439
 31
0.0
  0
LINE
  5
446
330
E3
100
AcDbEntity
  8
0
  6
Continuous
100
AcDbLine
 10
150.4146257896914
 20
155.0307639612439
 30
0.0
 11
150.3717347497047
 21
155.0327733034929
 31
0.0
  0
LINE
  5
447
330
E3
100
AcDbEntity
  8
0
  6
Continuous
100
AcDbLine
 10
150.3717347497047
 20
155.0327733034929
 30
0.0
 11
150.3281954192598
 21
155.0348936789144
 31
0.0
  0
LINE
  5
448
330
E3
100
AcDbEntity
  8
0
  6
Continuous
100
AcDbLine
 10
150.3281954192598
 20
155.0348936789144
 30
0.0
 11
150.2843301527281
 21
155.0370713617797
 31
0.0
  0
LINE
  5
449
330
E3
100
AcDbEntity
  8
0
  6
Continuous
100
AcDbLine
 10
150.2843301527281
 20
155.0370713617797
 30
0.0
 11
150.2404648861964
 21
155.0392526263603
 31
0.0
  0
LINE
  5
44A
330
E3
100
AcDbEntity
  8
0
  6
Continuous
100
AcDbLine
 10
150.2404648861964
 20
155.0392526263603
 30
0.0
 11
150.1969255557515
 21
155.0413730017817
 31
0.0
  0
LINE
  5
44B
330
E3
100
AcDbEntity
  8
0
  6
Continuous
100
AcDbLine
 10
150.1969255557515
 20
155.0413730017817
 30
0.0
 11
150.15403809748
 21
155.0433787623155
 31
0.0
  0
LINE
  5
44C
330
E3
100
AcDbEntity
  8
0
  6
Continuous
100
AcDbLine
 10
150.15403809748
 20
155.0433787623155
 30
0.0
 11
150.1121177023231
 21
155.0452161822332
 31
0.0
  0
LINE
  5
44D
330
E3
100
AcDbEntity
  8
0
  6
Continuous
100
AcDbLine
 10
150.1121177023231
 20
155.0452161822332
 30
0.0
 11
150.071483142937
 21
155.0468243723755
 31
0.0
  0
LINE
  5
44E
330
E3
100
AcDbEntity
  8
0
  6
Continuous
100
AcDbLine
 10
150.071483142937
 20
155.0468243723755
 30
0.0
 11
150.0324281199712
 21
155.0481531887291
 31
0.0
  0
LINE
  5
44F
330
E3
100
AcDbEntity
  8
0
  6
Continuous
100
AcDbLine
 10
150.0324281199712
 20
155.0481531887291
 30
0.0
 11
149.9952499157907
 21
155.049156068996
 31
0.0
  0
LINE
  5
450
330
E3
100
AcDbEntity
  8
0
  6
Continuous
100
AcDbLine
 10
149.9952499157907
 20
155.049156068996
 30
0.0
 11
149.9602207407535
 21
155.0497757057324
 31
0.0
  0
LINE
  5
451
330
E3
100
AcDbEntity
  8
0
  6
Continuous
100
AcDbLine
 10
149.9602207407535
 20
155.0497757057324
 30
0.0
 11
149.927598478357
 21
155.0499727000705
 31
0.0
  0
LINE
  5
452
330
E3
100
AcDbEntity
  8
0
  6
Continuous
100
AcDbLine
 10
149.927598478357
 20
155.0499727000705
 30
0.0
 11
149.8976266852372
 21
155.0497004897123
 31
0.0
  0
LINE
  5
453
330
E3
100
AcDbEntity
  8
0
  6
Continuous
100
AcDbLine
 10
149.8976266852372
 20
155.0497004897123
 30
0.0
 11
149.8705274277391
 21
155.0489232575055
 31
0.0
  0
LINE
  5
454
330
E3
100
AcDbEntity
  8
0
  6
Continuous
100
AcDbLine
 10
149.8705274277391
 20
155.0489232575055
 30
0.0
 11
149.8464941184857
 21
155.0476051862975
 31
0.0
  0
LINE
  5
455
330
E3
100
AcDbEntity
  8
0
  6
Continuous
100
AcDbLine
 10
149.8464941184857
 20
155.0476051862975
 30
0.0
 11
149.8257094249539
 21
155.0457140406514
 31
0.0
  0
LINE
  5
456
330
E3
100
AcDbEntity
  8
0
  6
Continuous
100
AcDbLine
 10
149.8257094249539
 20
155.0457140406514
 30
0.0
 11
149.8083201974687
 21
155.0432247485603
 31
0.0
  0
LINE
  5
457
330
E3
100
AcDbEntity
  8
0
  6
Continuous
100
AcDbLine
 10
149.8083201974687
 20
155.0432247485603
 30
0.0
 11
149.7944553777786
 21
155.0401122380176
 31
0.0
  0
LINE
  5
458
330
E3
100
AcDbEntity
  8
0
  6
Continuous
100
AcDbLine
 10
149.7944553777786
 20
155.0401122380176
 30
0.0
 11
149.7842045087647
 21
155.0363657638777
 31
0.0
  0
LINE
  5
459
330
E3
100
AcDbEntity
  8
0
  6
Continuous
100
AcDbLine
 10
149.7842045087647
 20
155.0363657638777
 30
0.0
 11
149.7776491753716
 21
155.0319653900597
 31
0.0
  0
LINE
  5
45A
330
E3
100
AcDbEntity
  8
0
  6
Continuous
100
AcDbLine
 10
149.7776491753716
 20
155.0319653900597
 30
0.0
 11
149.7748253347126
 21
155.0269075240227
 31
0.0
  0
LINE
  5
45B
330
E3
100
AcDbEntity
  8
0
  6
Continuous
100
AcDbLine
 10
150.7254296587904
 20
154.6592820616716
 30
0.0
 11
150.7226058181313
 21
154.6542241956346
 31
0.0
  0
LINE
  5
45C
330
E3
100
AcDbEntity
  8
0
  6
Continuous
100
AcDbLine
 10
150.7226058181313
 20
154.6542241956346
 30
0.0
 11
150.7160487469844
 21
154.6498245988578
 31
0.0
  0
LINE
  5
45D
330
E3
100
AcDbEntity
  8
0
  6
Continuous
100
AcDbLine
 10
150.7160487469844
 20
154.6498245988578
 30
0.0
 11
150.7058013300437
 21
154.6460769994326
 31
0.0
  0
LINE
  5
45E
330
E3
100
AcDbEntity
  8
0
  6
Continuous
100
AcDbLine
 10
150.7058013300437
 20
154.6460769994326
 30
0.0
 11
150.6919329286384
 21
154.6429644888899
 31
0.0
  0
LINE
  5
45F
330
E3
100
AcDbEntity
  8
0
  6
Continuous
100
AcDbLine
 10
150.6919329286384
 20
154.6429644888899
 30
0.0
 11
150.6745437011532
 21
154.6404751967988
 31
0.0
  0
LINE
  5
460
330
E3
100
AcDbEntity
  8
0
  6
Continuous
100
AcDbLine
 10
150.6745437011532
 20
154.6404751967988
 30
0.0
 11
150.6537590076214
 21
154.6385840511526
 31
0.0
  0
LINE
  5
461
330
E3
100
AcDbEntity
  8
0
  6
Continuous
100
AcDbLine
 10
150.6537590076214
 20
154.6385840511526
 30
0.0
 11
150.6297292800832
 21
154.6372659799447
 31
0.0
  0
LINE
  5
462
330
E3
100
AcDbEntity
  8
0
  6
Continuous
100
AcDbLine
 10
150.6297292800832
 20
154.6372659799447
 30
0.0
 11
150.6026300225851
 21
154.6364887477378
 31
0.0
  0
LINE
  5
463
330
E3
100
AcDbEntity
  8
0
  6
Continuous
100
AcDbLine
 10
150.6026300225851
 20
154.6364887477378
 30
0.0
 11
150.5726582294654
 21
154.6362165373797
 31
0.0
  0
LINE
  5
464
330
E3
100
AcDbEntity
  8
0
  6
Continuous
100
AcDbLine
 10
150.5726582294654
 20
154.6362165373797
 30
0.0
 11
150.5400359670688
 21
154.6364135317178
 31
0.0
  0
LINE
  5
465
330
E3
100
AcDbEntity
  8
0
  6
Continuous
100
AcDbLine
 10
150.5400359670688
 20
154.6364135317178
 30
0.0
 11
150.5050067920317
 21
154.6370367501694
 31
0.0
  0
LINE
  5
466
330
E3
100
AcDbEntity
  8
0
  6
Continuous
100
AcDbLine
 10
150.5050067920317
 20
154.6370367501694
 30
0.0
 11
150.4678250061359
 21
154.6380360487211
 31
0.0
  0
LINE
  5
467
330
E3
100
AcDbEntity
  8
0
  6
Continuous
100
AcDbLine
 10
150.4678250061359
 20
154.6380360487211
 30
0.0
 11
150.4287735648854
 21
154.6393648650747
 31
0.0
  0
LINE
  5
468
330
E3
100
AcDbEntity
  8
0
  6
Continuous
100
AcDbLine
 10
150.4287735648854
 20
154.6393648650747
 30
0.0
 11
150.388135423784
 21
154.6409766369323
 31
0.0
  0
LINE
  5
469
330
E3
100
AcDbEntity
  8
0
  6
Continuous
100
AcDbLine
 10
150.388135423784
 20
154.6409766369323
 30
0.0
 11
150.3462186103423
 21
154.6428104751346
 31
0.0
  0
LINE
  5
46A
330
E3
100
AcDbEntity
  8
0
  6
Continuous
100
AcDbLine
 10
150.3462186103423
 20
154.6428104751346
 30
0.0
 11
150.3033275703556
 21
154.6448162356685
 31
0.0
  0
LINE
  5
46B
330
E3
100
AcDbEntity
  8
0
  6
Continuous
100
AcDbLine
 10
150.3033275703556
 20
154.6448162356685
 30
0.0
 11
150.2597882399106
 21
154.6469401928051
 31
0.0
  0
LINE
  5
46C
330
E3
100
AcDbEntity
  8
0
  6
Continuous
100
AcDbLine
 10
150.2597882399106
 20
154.6469401928051
 30
0.0
 11
150.215922973379
 21
154.6491178756704
 31
0.0
  0
LINE
  5
46D
330
E3
100
AcDbEntity
  8
0
  6
Continuous
100
AcDbLine
 10
150.215922973379
 20
154.6491178756704
 30
0.0
 11
150.1720577068473
 21
154.6512955585357
 31
0.0
  0
LINE
  5
46E
330
E3
100
AcDbEntity
  8
0
  6
Continuous
100
AcDbLine
 10
150.1720577068473
 20
154.6512955585357
 30
0.0
 11
150.1285183764024
 21
154.6534195156725
 31
0.0
  0
LINE
  5
46F
330
E3
100
AcDbEntity
  8
0
  6
Continuous
100
AcDbLine
 10
150.1285183764024
 20
154.6534195156725
 30
0.0
 11
150.0856309181309
 21
154.6554252762063
 31
0.0
  0
LINE
  5
470
330
E3
100
AcDbEntity
  8
0
  6
Continuous
100
AcDbLine
 10
150.0856309181309
 20
154.6554252762063
 30
0.0
 11
150.0437105229739
 21
154.6572591144086
 31
0.0
  0
LINE
  5
471
330
E3
100
AcDbEntity
  8
0
  6
Continuous
100
AcDbLine
 10
150.0437105229739
 20
154.6572591144086
 30
0.0
 11
150.0030759635878
 21
154.6588708862662
 31
0.0
  0
LINE
  5
472
330
E3
100
AcDbEntity
  8
0
  6
Continuous
100
AcDbLine
 10
150.0030759635878
 20
154.6588708862662
 30
0.0
 11
149.964020940622
 21
154.6601997026198
 31
0.0
  0
LINE
  5
473
330
E3
100
AcDbEntity
  8
0
  6
Continuous
100
AcDbLine
 10
149.964020940622
 20
154.6601997026198
 30
0.0
 11
149.9268427364415
 21
154.6611990011715
 31
0.0
  0
LINE
  5
474
330
E3
100
AcDbEntity
  8
0
  6
Continuous
100
AcDbLine
 10
149.9268427364415
 20
154.6611990011715
 30
0.0
 11
149.8918135614044
 21
154.6618222196231
 31
0.0
  0
LINE
  5
475
330
E3
100
AcDbEntity
  8
0
  6
Continuous
100
AcDbLine
 10
149.8918135614044
 20
154.6618222196231
 30
0.0
 11
149.8591912990078
 21
154.662015632246
 31
0.0
  0
LINE
  5
476
330
E3
100
AcDbEntity
  8
0
  6
Continuous
100
AcDbLine
 10
149.8591912990078
 20
154.662015632246
 30
0.0
 11
149.8292195058881
 21
154.6617470036031
 31
0.0
  0
LINE
  5
477
330
E3
100
AcDbEntity
  8
0
  6
Continuous
100
AcDbLine
 10
149.8292195058881
 20
154.6617470036031
 30
0.0
 11
149.8021202483901
 21
154.6609697713962
 31
0.0
  0
LINE
  5
478
330
E3
100
AcDbEntity
  8
0
  6
Continuous
100
AcDbLine
 10
149.8021202483901
 20
154.6609697713962
 30
0.0
 11
149.7780869391365
 21
154.6596517001883
 31
0.0
  0
LINE
  5
479
330
E3
100
AcDbEntity
  8
0
  6
Continuous
100
AcDbLine
 10
149.7780869391365
 20
154.6596517001883
 30
0.0
 11
149.7573022456048
 21
154.6577605545421
 31
0.0
  0
LINE
  5
47A
330
E3
100
AcDbEntity
  8
0
  6
Continuous
100
AcDbLine
 10
149.7573022456048
 20
154.6577605545421
 30
0.0
 11
149.7399130181196
 21
154.655271262451
 31
0.0
  0
LINE
  5
47B
330
E3
100
AcDbEntity
  8
0
  6
Continuous
100
AcDbLine
 10
149.7399130181196
 20
154.655271262451
 30
0.0
 11
149.7260481984295
 21
154.6521587519083
 31
0.0
  0
LINE
  5
47C
330
E3
100
AcDbEntity
  8
0
  6
Continuous
100
AcDbLine
 10
149.7260481984295
 20
154.6521587519083
 30
0.0
 11
149.7158009111308
 21
154.6484086960531
 31
0.0
  0
LINE
  5
47D
330
E3
100
AcDbEntity
  8
0
  6
Continuous
100
AcDbLine
 10
149.7158009111308
 20
154.6484086960531
 30
0.0
 11
149.7092423175029
 21
154.6440108206912
 31
0.0
  0
LINE
  5
47E
330
E3
100
AcDbEntity
  8
0
  6
Continuous
100
AcDbLine
 10
149.7092423175029
 20
154.6440108206912
 30
0.0
 11
149.7064184768438
 21
154.6389529546542
 31
0.0
  0
LINE
  5
47F
330
E3
100
AcDbEntity
  8
0
  6
Continuous
100
AcDbLine
 10
150.6570228009216
 20
154.2713274923031
 30
0.0
 11
150.6541989602625
 21
154.2662696262661
 31
0.0
  0
LINE
  5
480
330
E3
100
AcDbEntity
  8
0
  6
Continuous
100
AcDbLine
 10
150.6541989602625
 20
154.2662696262661
 30
0.0
 11
150.6476418891156
 21
154.2618700294893
 31
0.0
  0
LINE
  5
481
330
E3
100
AcDbEntity
  8
0
  6
Continuous
100
AcDbLine
 10
150.6476418891156
 20
154.2618700294893
 30
0.0
 11
150.6373941506945
 21
154.2581199316081
 31
0.0
  0
LINE
  5
482
330
E3
100
AcDbEntity
  8
0
  6
Continuous
100
AcDbLine
 10
150.6373941506945
 20
154.2581199316081
 30
0.0
 11
150.6235257492893
 21
154.2550110027806
 31
0.0
  0
LINE
  5
483
330
E3
100
AcDbEntity
  8
0
  6
Continuous
100
AcDbLine
 10
150.6235257492893
 20
154.2550110027806
 30
0.0
 11
150.606136521804
 21
154.2525217106895
 31
0.0
  0
LINE
  5
484
330
E3
100
AcDbEntity
  8
0
  6
Continuous
100
AcDbLine
 10
150.606136521804
 20
154.2525217106895
 30
0.0
 11
150.5853518282723
 21
154.2506305650434
 31
0.0
  0
LINE
  5
485
330
E3
100
AcDbEntity
  8
0
  6
Continuous
100
AcDbLine
 10
150.5853518282723
 20
154.2506305650434
 30
0.0
 11
150.561322100734
 21
154.2493124938354
 31
0.0
  0
LINE
  5
486
330
E3
100
AcDbEntity
  8
0
  6
Continuous
100
AcDbLine
 10
150.561322100734
 20
154.2493124938354
 30
0.0
 11
150.534222843236
 21
154.2485352616286
 31
0.0
  0
LINE
  5
487
330
E3
100
AcDbEntity
  8
0
  6
Continuous
100
AcDbLine
 10
150.534222843236
 20
154.2485352616286
 30
0.0
 11
150.5042510501162
 21
154.2482630512704
 31
0.0
  0
LINE
  5
488
330
E3
100
AcDbEntity
  8
0
  6
Continuous
100
AcDbLine
 10
150.5042510501162
 20
154.2482630512704
 30
0.0
 11
150.4716287877197
 21
154.2484600456085
 31
0.0
  0
LINE
  5
489
330
E3
100
AcDbEntity
  8
0
  6
Continuous
100
AcDbLine
 10
150.4716287877197
 20
154.2484600456085
 30
0.0
 11
150.4365996126825
 21
154.2490796823449
 31
0.0
  0
LINE
  5
48A
330
E3
100
AcDbEntity
  8
0
  6
Continuous
100
AcDbLine
 10
150.4365996126825
 20
154.2490796823449
 30
0.0
 11
150.399421408502
 21
154.2500789808966
 31
0.0
  0
LINE
  5
48B
330
E3
100
AcDbEntity
  8
0
  6
Continuous
100
AcDbLine
 10
150.399421408502
 20
154.2500789808966
 30
0.0
 11
150.3603663855362
 21
154.2514113789655
 31
0.0
  0
LINE
  5
48C
330
E3
100
AcDbEntity
  8
0
  6
Continuous
100
AcDbLine
 10
150.3603663855362
 20
154.2514113789655
 30
0.0
 11
150.3197282444349
 21
154.2530195691078
 31
0.0
  0
LINE
  5
48D
330
E3
100
AcDbEntity
  8
0
  6
Continuous
100
AcDbLine
 10
150.3197282444349
 20
154.2530195691078
 30
0.0
 11
150.2778114309932
 21
154.2548569890254
 31
0.0
  0
LINE
  5
48E
330
E3
100
AcDbEntity
  8
0
  6
Continuous
100
AcDbLine
 10
150.2778114309932
 20
154.2548569890254
 30
0.0
 11
150.2349239727217
 21
154.2568627495592
 31
0.0
  0
LINE
  5
48F
330
E3
100
AcDbEntity
  8
0
  6
Continuous
100
AcDbLine
 10
150.2349239727217
 20
154.2568627495592
 30
0.0
 11
150.1913846422768
 21
154.2589831249807
 31
0.0
  0
LINE
  5
490
330
E3
100
AcDbEntity
  8
0
  6
Continuous
100
AcDbLine
 10
150.1913846422768
 20
154.2589831249807
 30
0.0
 11
150.1475157940299
 21
154.2611643895612
 31
0.0
  0
LINE
  5
491
330
E3
100
AcDbEntity
  8
0
  6
Continuous
100
AcDbLine
 10
150.1475157940299
 20
154.2611643895612
 30
0.0
 11
150.1036505274981
 21
154.2633420724265
 31
0.0
  0
LINE
  5
492
330
E3
100
AcDbEntity
  8
0
  6
Continuous
100
AcDbLine
 10
150.1036505274981
 20
154.2633420724265
 30
0.0
 11
150.0601111970532
 21
154.2654624478479
 31
0.0
  0
LINE
  5
493
330
E3
100
AcDbEntity
  8
0
  6
Continuous
100
AcDbLine
 10
150.0601111970532
 20
154.2654624478479
 30
0.0
 11
150.0172237387817
 21
154.2674682083818
 31
0.0
  0
LINE
  5
494
330
E3
100
AcDbEntity
  8
0
  6
Continuous
100
AcDbLine
 10
150.0172237387817
 20
154.2674682083818
 30
0.0
 11
149.9753033436248
 21
154.2693056282993
 31
0.0
  0
LINE
  5
495
330
E3
100
AcDbEntity
  8
0
  6
Continuous
100
AcDbLine
 10
149.9753033436248
 20
154.2693056282993
 30
0.0
 11
149.9346687842387
 21
154.2709138184417
 31
0.0
  0
LINE
  5
496
330
E3
100
AcDbEntity
  8
0
  6
Continuous
100
AcDbLine
 10
149.9346687842387
 20
154.2709138184417
 30
0.0
 11
149.8956137612729
 21
154.2722462165106
 31
0.0
  0
LINE
  5
497
330
E3
100
AcDbEntity
  8
0
  6
Continuous
100
AcDbLine
 10
149.8956137612729
 20
154.2722462165106
 30
0.0
 11
149.8584355570924
 21
154.2732455150623
 31
0.0
  0
LINE
  5
498
330
E3
100
AcDbEntity
  8
0
  6
Continuous
100
AcDbLine
 10
149.8584355570924
 20
154.2732455150623
 30
0.0
 11
149.8234063820553
 21
154.2738651517986
 31
0.0
  0
LINE
  5
499
330
E3
100
AcDbEntity
  8
0
  6
Continuous
100
AcDbLine
 10
149.8234063820553
 20
154.2738651517986
 30
0.0
 11
149.7907841196587
 21
154.2740621461367
 31
0.0
  0
LINE
  5
49A
330
E3
100
AcDbEntity
  8
0
  6
Continuous
100
AcDbLine
 10
149.7907841196587
 20
154.2740621461367
 30
0.0
 11
149.760812326539
 21
154.2737899357786
 31
0.0
  0
LINE
  5
49B
330
E3
100
AcDbEntity
  8
0
  6
Continuous
100
AcDbLine
 10
149.760812326539
 20
154.2737899357786
 30
0.0
 11
149.7337130690409
 21
154.2730127035717
 31
0.0
  0
LINE
  5
49C
330
E3
100
AcDbEntity
  8
0
  6
Continuous
100
AcDbLine
 10
149.7337130690409
 20
154.2730127035717
 30
0.0
 11
149.7096833415027
 21
154.2716946323638
 31
0.0
  0
LINE
  5
49D
330
E3
100
AcDbEntity
  8
0
  6
Continuous
100
AcDbLine
 10
149.7096833415027
 20
154.2716946323638
 30
0.0
 11
149.6888950662557
 21
154.2698034867176
 31
0.0
  0
LINE
  5
49E
330
E3
100
AcDbEntity
  8
0
  6
Continuous
100
AcDbLine
 10
149.6888950662557
 20
154.2698034867176
 30
0.0
 11
149.6715058387704
 21
154.2673141946265
 31
0.0
  0
LINE
  5
49F
330
E3
100
AcDbEntity
  8
0
  6
Continuous
100
AcDbLine
 10
149.6715058387704
 20
154.2673141946265
 30
0.0
 11
149.6576410190804
 21
154.2642052657991
 31
0.0
  0
LINE
  5
4A0
330
E3
100
AcDbEntity
  8
0
  6
Continuous
100
AcDbLine
 10
149.6576410190804
 20
154.2642052657991
 30
0.0
 11
149.6473937317816
 21
154.2604552099439
 31
0.0
  0
LINE
  5
4A1
330
E3
100
AcDbEntity
  8
0
  6
Continuous
100
AcDbLine
 10
149.6473937317816
 20
154.2604552099439
 30
0.0
 11
149.640835459634
 21
154.2560562513228
 31
0.0
  0
LINE
  5
4A2
330
E3
100
AcDbEntity
  8
0
  6
Continuous
100
AcDbLine
 10
149.640835459634
 20
154.2560562513228
 30
0.0
 11
149.638011618975
 21
154.2509983852858
 31
0.0
  0
LINE
  5
4A3
330
E3
100
AcDbEntity
  8
0
  6
Continuous
100
AcDbLine
 10
150.5886159430528
 20
153.8833729229346
 30
0.0
 11
150.5857921023937
 21
153.8783150568977
 31
0.0
  0
LINE
  5
4A4
330
E3
100
AcDbEntity
  8
0
  6
Continuous
100
AcDbLine
 10
150.5857921023937
 20
153.8783150568977
 30
0.0
 11
150.5792350312468
 21
153.8739154601209
 31
0.0
  0
LINE
  5
4A5
330
E3
100
AcDbEntity
  8
0
  6
Continuous
100
AcDbLine
 10
150.5792350312468
 20
153.8739154601209
 30
0.0
 11
150.5689869713454
 21
153.8701664454988
 31
0.0
  0
LINE
  5
4A6
330
E3
100
AcDbEntity
  8
0
  6
Continuous
100
AcDbLine
 10
150.5689869713454
 20
153.8701664454988
 30
0.0
 11
150.5551185699401
 21
153.8670575166714
 31
0.0
  0
LINE
  5
4A7
330
E3
100
AcDbEntity
  8
0
  6
Continuous
100
AcDbLine
 10
150.5551185699401
 20
153.8670575166714
 30
0.0
 11
150.5377293424549
 21
153.864564642865
 31
0.0
  0
LINE
  5
4A8
330
E3
100
AcDbEntity
  8
0
  6
Continuous
100
AcDbLine
 10
150.5377293424549
 20
153.864564642865
 30
0.0
 11
150.5169446489232
 21
153.8626770789341
 31
0.0
  0
LINE
  5
4A9
330
E3
100
AcDbEntity
  8
0
  6
Continuous
100
AcDbLine
 10
150.5169446489232
 20
153.8626770789341
 30
0.0
 11
150.4929149213849
 21
153.8613554260109
 31
0.0
  0
LINE
  5
4AA
330
E3
100
AcDbEntity
  8
0
  6
Continuous
100
AcDbLine
 10
150.4929149213849
 20
153.8613554260109
 30
0.0
 11
150.4658156638868
 21
153.8605781938041
 31
0.0
  0
LINE
  5
4AB
330
E3
100
AcDbEntity
  8
0
  6
Continuous
100
AcDbLine
 10
150.4658156638868
 20
153.8605781938041
 30
0.0
 11
150.4358438707671
 21
153.8603095651611
 31
0.0
  0
LINE
  5
4AC
330
E3
100
AcDbEntity
  8
0
  6
Continuous
100
AcDbLine
 10
150.4358438707671
 20
153.8603095651611
 30
0.0
 11
150.4032216083706
 21
153.8605065594993
 31
0.0
  0
LINE
  5
4AD
330
E3
100
AcDbEntity
  8
0
  6
Continuous
100
AcDbLine
 10
150.4032216083706
 20
153.8605065594993
 30
0.0
 11
150.3681924333334
 21
153.8611261962356
 31
0.0
  0
LINE
  5
4AE
330
E3
100
AcDbEntity
  8
0
  6
Continuous
100
AcDbLine
 10
150.3681924333334
 20
153.8611261962356
 30
0.0
 11
150.3310142291529
 21
153.8621254947873
 31
0.0
  0
LINE
  5
4AF
330
E3
100
AcDbEntity
  8
0
  6
Continuous
100
AcDbLine
 10
150.3310142291529
 20
153.8621254947873
 30
0.0
 11
150.2919592061871
 21
153.8634578928562
 31
0.0
  0
LINE
  5
4B0
330
E3
100
AcDbEntity
  8
0
  6
Continuous
100
AcDbLine
 10
150.2919592061871
 20
153.8634578928562
 30
0.0
 11
150.2513210650857
 21
153.8650660829985
 31
0.0
  0
LINE
  5
4B1
330
E3
100
AcDbEntity
  8
0
  6
Continuous
100
AcDbLine
 10
150.2513210650857
 20
153.8650660829985
 30
0.0
 11
150.209404251644
 21
153.8668999212008
 31
0.0
  0
LINE
  5
4B2
330
E3
100
AcDbEntity
  8
0
  6
Continuous
100
AcDbLine
 10
150.209404251644
 20
153.8668999212008
 30
0.0
 11
150.1665167933726
 21
153.8689092634499
 31
0.0
  0
LINE
  5
4B3
330
E3
100
AcDbEntity
  8
0
  6
Continuous
100
AcDbLine
 10
150.1665167933726
 20
153.8689092634499
 30
0.0
 11
150.1229774629277
 21
153.8710296388714
 31
0.0
  0
LINE
  5
4B4
330
E3
100
AcDbEntity
  8
0
  6
Continuous
100
AcDbLine
 10
150.1229774629277
 20
153.8710296388714
 30
0.0
 11
150.0791086146807
 21
153.8732073217367
 31
0.0
  0
LINE
  5
4B5
330
E3
100
AcDbEntity
  8
0
  6
Continuous
100
AcDbLine
 10
150.0791086146807
 20
153.8732073217367
 30
0.0
 11
150.035243348149
 21
153.8753885863172
 31
0.0
  0
LINE
  5
4B6
330
E3
100
AcDbEntity
  8
0
  6
Continuous
100
AcDbLine
 10
150.035243348149
 20
153.8753885863172
 30
0.0
 11
149.9917040177041
 21
153.8775089617387
 31
0.0
  0
LINE
  5
4B7
330
E3
100
AcDbEntity
  8
0
  6
Continuous
100
AcDbLine
 10
149.9917040177041
 20
153.8775089617387
 30
0.0
 11
149.9488165594327
 21
153.8795147222725
 31
0.0
  0
LINE
  5
4B8
330
E3
100
AcDbEntity
  8
0
  6
Continuous
100
AcDbLine
 10
149.9488165594327
 20
153.8795147222725
 30
0.0
 11
149.9068961642757
 21
153.8813521421901
 31
0.0
  0
LINE
  5
4B9
330
E3
100
AcDbEntity
  8
0
  6
Continuous
100
AcDbLine
 10
149.9068961642757
 20
153.8813521421901
 30
0.0
 11
149.8662616048896
 21
153.8829603323324
 31
0.0
  0
LINE
  5
4BA
330
E3
100
AcDbEntity
  8
0
  6
Continuous
100
AcDbLine
 10
149.8662616048896
 20
153.8829603323324
 30
0.0
 11
149.8272065819238
 21
153.884289148686
 31
0.0
  0
LINE
  5
4BB
330
E3
100
AcDbEntity
  8
0
  6
Continuous
100
AcDbLine
 10
149.8272065819238
 20
153.884289148686
 30
0.0
 11
149.7900283777433
 21
153.885292028953
 31
0.0
  0
LINE
  5
4BC
330
E3
100
AcDbEntity
  8
0
  6
Continuous
100
AcDbLine
 10
149.7900283777433
 20
153.885292028953
 30
0.0
 11
149.7549992027061
 21
153.8859116656893
 31
0.0
  0
LINE
  5
4BD
330
E3
100
AcDbEntity
  8
0
  6
Continuous
100
AcDbLine
 10
149.7549992027061
 20
153.8859116656893
 30
0.0
 11
149.7223769403096
 21
153.8861086600274
 31
0.0
  0
LINE
  5
4BE
330
E3
100
AcDbEntity
  8
0
  6
Continuous
100
AcDbLine
 10
149.7223769403096
 20
153.8861086600274
 30
0.0
 11
149.6924051471898
 21
153.8858364496693
 31
0.0
  0
LINE
  5
4BF
330
E3
100
AcDbEntity
  8
0
  6
Continuous
100
AcDbLine
 10
149.6924051471898
 20
153.8858364496693
 30
0.0
 11
149.6653058896918
 21
153.8850592174624
 31
0.0
  0
LINE
  5
4C0
330
E3
100
AcDbEntity
  8
0
  6
Continuous
100
AcDbLine
 10
149.6653058896918
 20
153.8850592174624
 30
0.0
 11
149.6412761621535
 21
153.8837411462545
 31
0.0
  0
LINE
  5
4C1
330
E3
100
AcDbEntity
  8
0
  6
Continuous
100
AcDbLine
 10
149.6412761621535
 20
153.8837411462545
 30
0.0
 11
149.6204878869065
 21
153.8818500006083
 31
0.0
  0
LINE
  5
4C2
330
E3
100
AcDbEntity
  8
0
  6
Continuous
100
AcDbLine
 10
149.6204878869065
 20
153.8818500006083
 30
0.0
 11
149.6031022411366
 21
153.8793607085172
 31
0.0
  0
LINE
  5
4C3
330
E3
100
AcDbEntity
  8
0
  6
Continuous
100
AcDbLine
 10
149.6031022411366
 20
153.8793607085172
 30
0.0
 11
149.5892338397312
 21
153.8762517796898
 31
0.0
  0
LINE
  5
4C4
330
E3
100
AcDbEntity
  8
0
  6
Continuous
100
AcDbLine
 10
149.5892338397312
 20
153.8762517796898
 30
0.0
 11
149.5789865524326
 21
153.8725017238346
 31
0.0
  0
LINE
  5
4C5
330
E3
100
AcDbEntity
  8
0
  6
Continuous
100
AcDbLine
 10
149.5789865524326
 20
153.8725017238346
 30
0.0
 11
149.5724286017653
 21
153.8681016819543
 31
0.0
  0
LINE
  5
4C6
330
E3
100
AcDbEntity
  8
0
  6
Continuous
100
AcDbLine
 10
149.5724286017653
 20
153.8681016819543
 30
0.0
 11
149.5696047611062
 21
153.8630438159174
 31
0.0
  0
LINE
  5
4C7
330
E3
100
AcDbEntity
  8
0
  6
Continuous
100
AcDbLine
 10
150.520209085184
 20
153.4954183535662
 30
0.0
 11
150.5173852445249
 21
153.4903604875292
 31
0.0
  0
LINE
  5
4C8
330
E3
100
AcDbEntity
  8
0
  6
Continuous
100
AcDbLine
 10
150.5173852445249
 20
153.4903604875292
 30
0.0
 11
150.510828173378
 21
153.4859608907524
 31
0.0
  0
LINE
  5
4C9
330
E3
100
AcDbEntity
  8
0
  6
Continuous
100
AcDbLine
 10
150.510828173378
 20
153.4859608907524
 30
0.0
 11
150.5005797919963
 21
153.4822129593895
 31
0.0
  0
LINE
  5
4CA
330
E3
100
AcDbEntity
  8
0
  6
Continuous
100
AcDbLine
 10
150.5005797919963
 20
153.4822129593895
 30
0.0
 11
150.486711390591
 21
153.4791004488468
 31
0.0
  0
LINE
  5
4CB
330
E3
100
AcDbEntity
  8
0
  6
Continuous
100
AcDbLine
 10
150.486711390591
 20
153.4791004488468
 30
0.0
 11
150.469325744821
 21
153.4766111567558
 31
0.0
  0
LINE
  5
4CC
330
E3
100
AcDbEntity
  8
0
  6
Continuous
100
AcDbLine
 10
150.469325744821
 20
153.4766111567558
 30
0.0
 11
150.448537469574
 21
153.4747200111096
 31
0.0
  0
LINE
  5
4CD
330
E3
100
AcDbEntity
  8
0
  6
Continuous
100
AcDbLine
 10
150.448537469574
 20
153.4747200111096
 30
0.0
 11
150.4245077420358
 21
153.4734019399016
 31
0.0
  0
LINE
  5
4CE
330
E3
100
AcDbEntity
  8
0
  6
Continuous
100
AcDbLine
 10
150.4245077420358
 20
153.4734019399016
 30
0.0
 11
150.3974084845377
 21
153.4726247076948
 31
0.0
  0
LINE
  5
4CF
330
E3
100
AcDbEntity
  8
0
  6
Continuous
100
AcDbLine
 10
150.3974084845377
 20
153.4726247076948
 30
0.0
 11
150.367436691418
 21
153.4723524973366
 31
0.0
  0
LINE
  5
4D0
330
E3
100
AcDbEntity
  8
0
  6
Continuous
100
AcDbLine
 10
150.367436691418
 20
153.4723524973366
 30
0.0
 11
150.3348144290214
 21
153.4725494916748
 31
0.0
  0
LINE
  5
4D1
330
E3
100
AcDbEntity
  8
0
  6
Continuous
100
AcDbLine
 10
150.3348144290214
 20
153.4725494916748
 30
0.0
 11
150.2997852539843
 21
153.4731727101263
 31
0.0
  0
LINE
  5
4D2
330
E3
100
AcDbEntity
  8
0
  6
Continuous
100
AcDbLine
 10
150.2997852539843
 20
153.4731727101263
 30
0.0
 11
150.2626070498037
 21
153.474172008678
 31
0.0
  0
LINE
  5
4D3
330
E3
100
AcDbEntity
  8
0
  6
Continuous
100
AcDbLine
 10
150.2626070498037
 20
153.474172008678
 30
0.0
 11
150.223552026838
 21
153.4755008250317
 31
0.0
  0
LINE
  5
4D4
330
E3
100
AcDbEntity
  8
0
  6
Continuous
100
AcDbLine
 10
150.223552026838
 20
153.4755008250317
 30
0.0
 11
150.1829174674519
 21
153.4771125968892
 31
0.0
  0
LINE
  5
4D5
330
E3
100
AcDbEntity
  8
0
  6
Continuous
100
AcDbLine
 10
150.1829174674519
 20
153.4771125968892
 30
0.0
 11
150.1409970722949
 21
153.4789464350916
 31
0.0
  0
LINE
  5
4D6
330
E3
100
AcDbEntity
  8
0
  6
Continuous
100
AcDbLine
 10
150.1409970722949
 20
153.4789464350916
 30
0.0
 11
150.0981096140235
 21
153.4809521956254
 31
0.0
  0
LINE
  5
4D7
330
E3
100
AcDbEntity
  8
0
  6
Continuous
100
AcDbLine
 10
150.0981096140235
 20
153.4809521956254
 30
0.0
 11
150.0545702835785
 21
153.4830761527621
 31
0.0
  0
LINE
  5
4D8
330
E3
100
AcDbEntity
  8
0
  6
Continuous
100
AcDbLine
 10
150.0545702835785
 20
153.4830761527621
 30
0.0
 11
150.0107050170468
 21
153.4852538356274
 31
0.0
  0
LINE
  5
4D9
330
E3
100
AcDbEntity
  8
0
  6
Continuous
100
AcDbLine
 10
150.0107050170468
 20
153.4852538356274
 30
0.0
 11
149.9668361687999
 21
153.4874315184927
 31
0.0
  0
LINE
  5
4DA
330
E3
100
AcDbEntity
  8
0
  6
Continuous
100
AcDbLine
 10
149.9668361687999
 20
153.4874315184927
 30
0.0
 11
149.923296838355
 21
153.4895554756294
 31
0.0
  0
LINE
  5
4DB
330
E3
100
AcDbEntity
  8
0
  6
Continuous
100
AcDbLine
 10
149.923296838355
 20
153.4895554756294
 30
0.0
 11
149.8804093800835
 21
153.4915612361632
 31
0.0
  0
LINE
  5
4DC
330
E3
100
AcDbEntity
  8
0
  6
Continuous
100
AcDbLine
 10
149.8804093800835
 20
153.4915612361632
 30
0.0
 11
149.8384925666418
 21
153.4933950743656
 31
0.0
  0
LINE
  5
4DD
330
E3
100
AcDbEntity
  8
0
  6
Continuous
100
AcDbLine
 10
149.8384925666418
 20
153.4933950743656
 30
0.0
 11
149.7978544255404
 21
153.4950068462231
 31
0.0
  0
LINE
  5
4DE
330
E3
100
AcDbEntity
  8
0
  6
Continuous
100
AcDbLine
 10
149.7978544255404
 20
153.4950068462231
 30
0.0
 11
149.7587994025747
 21
153.4963356625768
 31
0.0
  0
LINE
  5
4DF
330
E3
100
AcDbEntity
  8
0
  6
Continuous
100
AcDbLine
 10
149.7587994025747
 20
153.4963356625768
 30
0.0
 11
149.7216211983942
 21
153.4973349611284
 31
0.0
  0
LINE
  5
4E0
330
E3
100
AcDbEntity
  8
0
  6
Continuous
100
AcDbLine
 10
149.7216211983942
 20
153.4973349611284
 30
0.0
 11
149.686592023357
 21
153.49795817958
 31
0.0
  0
LINE
  5
4E1
330
E3
100
AcDbEntity
  8
0
  6
Continuous
100
AcDbLine
 10
149.686592023357
 20
153.49795817958
 30
0.0
 11
149.6539697609605
 21
153.4981515922029
 31
0.0
  0
LINE
  5
4E2
330
E3
100
AcDbEntity
  8
0
  6
Continuous
100
AcDbLine
 10
149.6539697609605
 20
153.4981515922029
 30
0.0
 11
149.6239979678407
 21
153.49788296356
 31
0.0
  0
LINE
  5
4E3
330
E3
100
AcDbEntity
  8
0
  6
Continuous
100
AcDbLine
 10
149.6239979678407
 20
153.49788296356
 30
0.0
 11
149.5968987103427
 21
153.4971057313532
 31
0.0
  0
LINE
  5
4E4
330
E3
100
AcDbEntity
  8
0
  6
Continuous
100
AcDbLine
 10
149.5968987103427
 20
153.4971057313532
 30
0.0
 11
149.5728689828044
 21
153.4957876601452
 31
0.0
  0
LINE
  5
4E5
330
E3
100
AcDbEntity
  8
0
  6
Continuous
100
AcDbLine
 10
149.5728689828044
 20
153.4957876601452
 30
0.0
 11
149.5520842892726
 21
153.4938965144991
 31
0.0
  0
LINE
  5
4E6
330
E3
100
AcDbEntity
  8
0
  6
Continuous
100
AcDbLine
 10
149.5520842892726
 20
153.4938965144991
 30
0.0
 11
149.5346950617874
 21
153.491407222408
 31
0.0
  0
LINE
  5
4E7
330
E3
100
AcDbEntity
  8
0
  6
Continuous
100
AcDbLine
 10
149.5346950617874
 20
153.491407222408
 30
0.0
 11
149.5208266603821
 21
153.4882947118653
 31
0.0
  0
LINE
  5
4E8
330
E3
100
AcDbEntity
  8
0
  6
Continuous
100
AcDbLine
 10
149.5208266603821
 20
153.4882947118653
 30
0.0
 11
149.5105793730834
 21
153.4845482377253
 31
0.0
  0
LINE
  5
4E9
330
E3
100
AcDbEntity
  8
0
  6
Continuous
100
AcDbLine
 10
149.5105793730834
 20
153.4845482377253
 30
0.0
 11
149.5040217438965
 21
153.4801471125859
 31
0.0
  0
LINE
  5
4EA
330
E3
100
AcDbEntity
  8
0
  6
Continuous
100
AcDbLine
 10
149.5040217438965
 20
153.4801471125859
 30
0.0
 11
149.5011979032374
 21
153.4750892465489
 31
0.0
  0
LINE
  5
4EB
330
E3
100
AcDbEntity
  8
0
  6
Continuous
100
AcDbLine
 10
150.4518022273152
 20
153.1074637841978
 30
0.0
 11
150.4489783866561
 21
153.1024059181608
 31
0.0
  0
LINE
  5
4EC
330
E3
100
AcDbEntity
  8
0
  6
Continuous
100
AcDbLine
 10
150.4489783866561
 20
153.1024059181608
 30
0.0
 11
150.4424213155092
 21
153.098006321384
 31
0.0
  0
LINE
  5
4ED
330
E3
100
AcDbEntity
  8
0
  6
Continuous
100
AcDbLine
 10
150.4424213155092
 20
153.098006321384
 30
0.0
 11
150.4321726126472
 21
153.094255891565
 31
0.0
  0
LINE
  5
4EE
330
E3
100
AcDbEntity
  8
0
  6
Continuous
100
AcDbLine
 10
150.4321726126472
 20
153.094255891565
 30
0.0
 11
150.4183077929571
 21
153.0911469627376
 31
0.0
  0
LINE
  5
4EF
330
E3
100
AcDbEntity
  8
0
  6
Continuous
100
AcDbLine
 10
150.4183077929571
 20
153.0911469627376
 30
0.0
 11
150.4009185654719
 21
153.0886576706465
 31
0.0
  0
LINE
  5
4F0
330
E3
100
AcDbEntity
  8
0
  6
Continuous
100
AcDbLine
 10
150.4009185654719
 20
153.0886576706465
 30
0.0
 11
150.3801302902249
 21
153.0867665250003
 31
0.0
  0
LINE
  5
4F1
330
E3
100
AcDbEntity
  8
0
  6
Continuous
100
AcDbLine
 10
150.3801302902249
 20
153.0867665250003
 30
0.0
 11
150.3561005626866
 21
153.0854484537924
 31
0.0
  0
LINE
  5
4F2
330
E3
100
AcDbEntity
  8
0
  6
Continuous
100
AcDbLine
 10
150.3561005626866
 20
153.0854484537924
 30
0.0
 11
150.3290013051886
 21
153.0846712215855
 31
0.0
  0
LINE
  5
4F3
330
E3
100
AcDbEntity
  8
0
  6
Continuous
100
AcDbLine
 10
150.3290013051886
 20
153.0846712215855
 30
0.0
 11
150.2990295120689
 21
153.0843990112274
 31
0.0
  0
LINE
  5
4F4
330
E3
100
AcDbEntity
  8
0
  6
Continuous
100
AcDbLine
 10
150.2990295120689
 20
153.0843990112274
 30
0.0
 11
150.2664072496723
 21
153.0845960055655
 31
0.0
  0
LINE
  5
4F5
330
E3
100
AcDbEntity
  8
0
  6
Continuous
100
AcDbLine
 10
150.2664072496723
 20
153.0845960055655
 30
0.0
 11
150.2313780746351
 21
153.0852156423018
 31
0.0
  0
LINE
  5
4F6
330
E3
100
AcDbEntity
  8
0
  6
Continuous
100
AcDbLine
 10
150.2313780746351
 20
153.0852156423018
 30
0.0
 11
150.1941998704546
 21
153.0862185225688
 31
0.0
  0
LINE
  5
4F7
330
E3
100
AcDbEntity
  8
0
  6
Continuous
100
AcDbLine
 10
150.1941998704546
 20
153.0862185225688
 30
0.0
 11
150.1551448474889
 21
153.0875473389224
 31
0.0
  0
LINE
  5
4F8
330
E3
100
AcDbEntity
  8
0
  6
Continuous
100
AcDbLine
 10
150.1551448474889
 20
153.0875473389224
 30
0.0
 11
150.1145102881027
 21
153.0891555290647
 31
0.0
  0
LINE
  5
4F9
330
E3
100
AcDbEntity
  8
0
  6
Continuous
100
AcDbLine
 10
150.1145102881027
 20
153.0891555290647
 30
0.0
 11
150.0725898929458
 21
153.0909929489823
 31
0.0
  0
LINE
  5
4FA
330
E3
100
AcDbEntity
  8
0
  6
Continuous
100
AcDbLine
 10
150.0725898929458
 20
153.0909929489823
 30
0.0
 11
150.0297024346743
 21
153.0929987095161
 31
0.0
  0
LINE
  5
4FB
330
E3
100
AcDbEntity
  8
0
  6
Continuous
100
AcDbLine
 10
150.0297024346743
 20
153.0929987095161
 30
0.0
 11
149.9861631042294
 21
153.0951190849376
 31
0.0
  0
LINE
  5
4FC
330
E3
100
AcDbEntity
  8
0
  6
Continuous
100
AcDbLine
 10
149.9861631042294
 20
153.0951190849376
 30
0.0
 11
149.9422978376977
 21
153.0973003495181
 31
0.0
  0
LINE
  5
4FD
330
E3
100
AcDbEntity
  8
0
  6
Continuous
100
AcDbLine
 10
149.9422978376977
 20
153.0973003495181
 30
0.0
 11
149.8984289894508
 21
153.0994780323834
 31
0.0
  0
LINE
  5
4FE
330
E3
100
AcDbEntity
  8
0
  6
Continuous
100
AcDbLine
 10
149.8984289894508
 20
153.0994780323834
 30
0.0
 11
149.8548896590058
 21
153.1015984078049
 31
0.0
  0
LINE
  5
4FF
330
E3
100
AcDbEntity
  8
0
  6
Continuous
100
AcDbLine
 10
149.8548896590058
 20
153.1015984078049
 30
0.0
 11
149.8120022007344
 21
153.103607750054
 31
0.0
  0
LINE
  5
500
330
E3
100
AcDbEntity
  8
0
  6
Continuous
100
AcDbLine
 10
149.8120022007344
 20
153.103607750054
 30
0.0
 11
149.7700853872927
 21
153.1054415882563
 31
0.0
  0
LINE
  5
501
330
E3
100
AcDbEntity
  8
0
  6
Continuous
100
AcDbLine
 10
149.7700853872927
 20
153.1054415882563
 30
0.0
 11
149.7294472461913
 21
153.1070497783986
 31
0.0
  0
LINE
  5
502
330
E3
100
AcDbEntity
  8
0
  6
Continuous
100
AcDbLine
 10
149.7294472461913
 20
153.1070497783986
 30
0.0
 11
149.6903958049408
 21
153.1083821764675
 31
0.0
  0
LINE
  5
503
330
E3
100
AcDbEntity
  8
0
  6
Continuous
100
AcDbLine
 10
149.6903958049408
 20
153.1083821764675
 30
0.0
 11
149.653214019045
 21
153.1093814750192
 31
0.0
  0
LINE
  5
504
330
E3
100
AcDbEntity
  8
0
  6
Continuous
100
AcDbLine
 10
149.653214019045
 20
153.1093814750192
 30
0.0
 11
149.6181848440079
 21
153.1100011117555
 31
0.0
  0
LINE
  5
505
330
E3
100
AcDbEntity
  8
0
  6
Continuous
100
AcDbLine
 10
149.6181848440079
 20
153.1100011117555
 30
0.0
 11
149.5855625816113
 21
153.1101981060937
 31
0.0
  0
LINE
  5
506
330
E3
100
AcDbEntity
  8
0
  6
Continuous
100
AcDbLine
 10
149.5855625816113
 20
153.1101981060937
 30
0.0
 11
149.5555907884916
 21
153.1099294774507
 31
0.0
  0
LINE
  5
507
330
E3
100
AcDbEntity
  8
0
  6
Continuous
100
AcDbLine
 10
149.5555907884916
 20
153.1099294774507
 30
0.0
 11
149.5284915309935
 21
153.1091522452439
 31
0.0
  0
LINE
  5
508
330
E3
100
AcDbEntity
  8
0
  6
Continuous
100
AcDbLine
 10
149.5284915309935
 20
153.1091522452439
 30
0.0
 11
149.5044618034552
 21
153.1078305923207
 31
0.0
  0
LINE
  5
509
330
E3
100
AcDbEntity
  8
0
  6
Continuous
100
AcDbLine
 10
149.5044618034552
 20
153.1078305923207
 30
0.0
 11
149.4836771099235
 21
153.1059394466745
 31
0.0
  0
LINE
  5
50A
330
E3
100
AcDbEntity
  8
0
  6
Continuous
100
AcDbLine
 10
149.4836771099235
 20
153.1059394466745
 30
0.0
 11
149.4662878824383
 21
153.1034501545835
 31
0.0
  0
LINE
  5
50B
330
E3
100
AcDbEntity
  8
0
  6
Continuous
100
AcDbLine
 10
149.4662878824383
 20
153.1034501545835
 30
0.0
 11
149.452419481033
 21
153.100341225756
 31
0.0
  0
LINE
  5
50C
330
E3
100
AcDbEntity
  8
0
  6
Continuous
100
AcDbLine
 10
149.452419481033
 20
153.100341225756
 30
0.0
 11
149.4421721937343
 21
153.0965911699008
 31
0.0
  0
LINE
  5
50D
330
E3
100
AcDbEntity
  8
0
  6
Continuous
100
AcDbLine
 10
149.4421721937343
 20
153.0965911699008
 30
0.0
 11
149.4356148860277
 21
153.0921925432174
 31
0.0
  0
LINE
  5
50E
330
E3
100
AcDbEntity
  8
0
  6
Continuous
100
AcDbLine
 10
149.4356148860277
 20
153.0921925432174
 30
0.0
 11
149.4327910453686
 21
153.0871346771805
 31
0.0
  0
LINE
  5
50F
330
E3
100
AcDbEntity
  8
0
  6
Continuous
100
AcDbLine
 10
150.3833953694464
 20
152.7195092148293
 30
0.0
 11
150.3805715287873
 21
152.7144513487924
 31
0.0
  0
LINE
  5
510
330
E3
100
AcDbEntity
  8
0
  6
Continuous
100
AcDbLine
 10
150.3805715287873
 20
152.7144513487924
 30
0.0
 11
150.3740144576404
 21
152.7100517520156
 31
0.0
  0
LINE
  5
511
330
E3
100
AcDbEntity
  8
0
  6
Continuous
100
AcDbLine
 10
150.3740144576404
 20
152.7100517520156
 30
0.0
 11
150.3637654332981
 21
152.7063024054557
 31
0.0
  0
LINE
  5
512
330
E3
100
AcDbEntity
  8
0
  6
Continuous
100
AcDbLine
 10
150.3637654332981
 20
152.7063024054557
 30
0.0
 11
150.349900613608
 21
152.7031934766283
 31
0.0
  0
LINE
  5
513
330
E3
100
AcDbEntity
  8
0
  6
Continuous
100
AcDbLine
 10
150.349900613608
 20
152.7031934766283
 30
0.0
 11
150.3325113861227
 21
152.7007041845372
 31
0.0
  0
LINE
  5
514
330
E3
100
AcDbEntity
  8
0
  6
Continuous
100
AcDbLine
 10
150.3325113861227
 20
152.7007041845372
 30
0.0
 11
150.311726692591
 21
152.698813038891
 31
0.0
  0
LINE
  5
515
330
E3
100
AcDbEntity
  8
0
  6
Continuous
100
AcDbLine
 10
150.311726692591
 20
152.698813038891
 30
0.0
 11
150.2876933833375
 21
152.6974949676831
 31
0.0
  0
LINE
  5
516
330
E3
100
AcDbEntity
  8
0
  6
Continuous
100
AcDbLine
 10
150.2876933833375
 20
152.6974949676831
 30
0.0
 11
150.2605941258394
 21
152.6967177354763
 31
0.0
  0
LINE
  5
517
330
E3
100
AcDbEntity
  8
0
  6
Continuous
100
AcDbLine
 10
150.2605941258394
 20
152.6967177354763
 30
0.0
 11
150.2306223327197
 21
152.6964455251181
 31
0.0
  0
LINE
  5
518
330
E3
100
AcDbEntity
  8
0
  6
Continuous
100
AcDbLine
 10
150.2306223327197
 20
152.6964455251181
 30
0.0
 11
150.1980000703231
 21
152.6966425194562
 31
0.0
  0
LINE
  5
519
330
E3
100
AcDbEntity
  8
0
  6
Continuous
100
AcDbLine
 10
150.1980000703231
 20
152.6966425194562
 30
0.0
 11
150.162970895286
 21
152.6972621561926
 31
0.0
  0
LINE
  5
51A
330
E3
100
AcDbEntity
  8
0
  6
Continuous
100
AcDbLine
 10
150.162970895286
 20
152.6972621561926
 30
0.0
 11
150.1257926911055
 21
152.6982614547443
 31
0.0
  0
LINE
  5
51B
330
E3
100
AcDbEntity
  8
0
  6
Continuous
100
AcDbLine
 10
150.1257926911055
 20
152.6982614547443
 30
0.0
 11
150.0867376681397
 21
152.6995938528131
 31
0.0
  0
LINE
  5
51C
330
E3
100
AcDbEntity
  8
0
  6
Continuous
100
AcDbLine
 10
150.0867376681397
 20
152.6995938528131
 30
0.0
 11
150.0461031087536
 21
152.7012020429554
 31
0.0
  0
LINE
  5
51D
330
E3
100
AcDbEntity
  8
0
  6
Continuous
100
AcDbLine
 10
150.0461031087536
 20
152.7012020429554
 30
0.0
 11
150.0041827135966
 21
152.703039462873
 31
0.0
  0
LINE
  5
51E
330
E3
100
AcDbEntity
  8
0
  6
Continuous
100
AcDbLine
 10
150.0041827135966
 20
152.703039462873
 30
0.0
 11
149.9612952553252
 21
152.7050452234069
 31
0.0
  0
LINE
  5
51F
330
E3
100
AcDbEntity
  8
0
  6
Continuous
100
AcDbLine
 10
149.9612952553252
 20
152.7050452234069
 30
0.0
 11
149.9177559248803
 21
152.7071655988283
 31
0.0
  0
LINE
  5
520
330
E3
100
AcDbEntity
  8
0
  6
Continuous
100
AcDbLine
 10
149.9177559248803
 20
152.7071655988283
 30
0.0
 11
149.8738906583486
 21
152.7093432816936
 31
0.0
  0
LINE
  5
521
330
E3
100
AcDbEntity
  8
0
  6
Continuous
100
AcDbLine
 10
149.8738906583486
 20
152.7093432816936
 30
0.0
 11
149.8300253918169
 21
152.7115245462741
 31
0.0
  0
LINE
  5
522
330
E3
100
AcDbEntity
  8
0
  6
Continuous
100
AcDbLine
 10
149.8300253918169
 20
152.7115245462741
 30
0.0
 11
149.7864860613719
 21
152.7136449216956
 31
0.0
  0
LINE
  5
523
330
E3
100
AcDbEntity
  8
0
  6
Continuous
100
AcDbLine
 10
149.7864860613719
 20
152.7136449216956
 30
0.0
 11
149.7435950213852
 21
152.7156506822294
 31
0.0
  0
LINE
  5
524
330
E3
100
AcDbEntity
  8
0
  6
Continuous
100
AcDbLine
 10
149.7435950213852
 20
152.7156506822294
 30
0.0
 11
149.7016782079436
 21
152.7174881021471
 31
0.0
  0
LINE
  5
525
330
E3
100
AcDbEntity
  8
0
  6
Continuous
100
AcDbLine
 10
149.7016782079436
 20
152.7174881021471
 30
0.0
 11
149.6610400668422
 21
152.7190962922894
 31
0.0
  0
LINE
  5
526
330
E3
100
AcDbEntity
  8
0
  6
Continuous
100
AcDbLine
 10
149.6610400668422
 20
152.7190962922894
 30
0.0
 11
149.6219886255916
 21
152.7204286903583
 31
0.0
  0
LINE
  5
527
330
E3
100
AcDbEntity
  8
0
  6
Continuous
100
AcDbLine
 10
149.6219886255916
 20
152.7204286903583
 30
0.0
 11
149.5848068396959
 21
152.7214279889099
 31
0.0
  0
LINE
  5
528
330
E3
100
AcDbEntity
  8
0
  6
Continuous
100
AcDbLine
 10
149.5848068396959
 20
152.7214279889099
 30
0.0
 11
149.5497776646587
 21
152.7220476256463
 31
0.0
  0
LINE
  5
529
330
E3
100
AcDbEntity
  8
0
  6
Continuous
100
AcDbLine
 10
149.5497776646587
 20
152.7220476256463
 30
0.0
 11
149.5171554022622
 21
152.7222446199844
 31
0.0
  0
LINE
  5
52A
330
E3
100
AcDbEntity
  8
0
  6
Continuous
100
AcDbLine
 10
149.5171554022622
 20
152.7222446199844
 30
0.0
 11
149.4871871908577
 21
152.7219724096262
 31
0.0
  0
LINE
  5
52B
330
E3
100
AcDbEntity
  8
0
  6
Continuous
100
AcDbLine
 10
149.4871871908577
 20
152.7219724096262
 30
0.0
 11
149.4600843516444
 21
152.7211951774194
 31
0.0
  0
LINE
  5
52C
330
E3
100
AcDbEntity
  8
0
  6
Continuous
100
AcDbLine
 10
149.4600843516444
 20
152.7211951774194
 30
0.0
 11
149.4360546241061
 21
152.7198771062115
 31
0.0
  0
LINE
  5
52D
330
E3
100
AcDbEntity
  8
0
  6
Continuous
100
AcDbLine
 10
149.4360546241061
 20
152.7198771062115
 30
0.0
 11
149.4152699305744
 21
152.7179859605653
 31
0.0
  0
LINE
  5
52E
330
E3
100
AcDbEntity
  8
0
  6
Continuous
100
AcDbLine
 10
149.4152699305744
 20
152.7179859605653
 30
0.0
 11
149.3978807030892
 21
152.7154966684742
 31
0.0
  0
LINE
  5
52F
330
E3
100
AcDbEntity
  8
0
  6
Continuous
100
AcDbLine
 10
149.3978807030892
 20
152.7154966684742
 30
0.0
 11
149.3840123016839
 21
152.7123877396467
 31
0.0
  0
LINE
  5
530
330
E3
100
AcDbEntity
  8
0
  6
Continuous
100
AcDbLine
 10
149.3840123016839
 20
152.7123877396467
 30
0.0
 11
149.3737650143852
 21
152.7086376837915
 31
0.0
  0
LINE
  5
531
330
E3
100
AcDbEntity
  8
0
  6
Continuous
100
AcDbLine
 10
149.3737650143852
 20
152.7086376837915
 30
0.0
 11
149.3672080281589
 21
152.704237973849
 31
0.0
  0
LINE
  5
532
330
E3
100
AcDbEntity
  8
0
  6
Continuous
100
AcDbLine
 10
149.3672080281589
 20
152.704237973849
 30
0.0
 11
149.3643841874998
 21
152.699180107812
 31
0.0
  0
LINE
  5
533
330
E3
100
AcDbEntity
  8
0
  6
Continuous
100
AcDbLine
 10
150.3149885115776
 20
152.3315546454609
 30
0.0
 11
150.3121646709185
 21
152.3264967794239
 31
0.0
  0
LINE
  5
534
330
E3
100
AcDbEntity
  8
0
  6
Continuous
100
AcDbLine
 10
150.3121646709185
 20
152.3264967794239
 30
0.0
 11
150.3056075997716
 21
152.3220971826471
 31
0.0
  0
LINE
  5
535
330
E3
100
AcDbEntity
  8
0
  6
Continuous
100
AcDbLine
 10
150.3056075997716
 20
152.3220971826471
 30
0.0
 11
150.2953582539489
 21
152.3183489193464
 31
0.0
  0
LINE
  5
536
330
E3
100
AcDbEntity
  8
0
  6
Continuous
100
AcDbLine
 10
150.2953582539489
 20
152.3183489193464
 30
0.0
 11
150.2814934342588
 21
152.3152364088038
 31
0.0
  0
LINE
  5
537
330
E3
100
AcDbEntity
  8
0
  6
Continuous
100
AcDbLine
 10
150.2814934342588
 20
152.3152364088038
 30
0.0
 11
150.2641042067736
 21
152.3127471167127
 31
0.0
  0
LINE
  5
538
330
E3
100
AcDbEntity
  8
0
  6
Continuous
100
AcDbLine
 10
150.2641042067736
 20
152.3127471167127
 30
0.0
 11
150.2433195132419
 21
152.3108559710665
 31
0.0
  0
LINE
  5
539
330
E3
100
AcDbEntity
  8
0
  6
Continuous
100
AcDbLine
 10
150.2433195132419
 20
152.3108559710665
 30
0.0
 11
150.2192862039884
 21
152.3095378998586
 31
0.0
  0
LINE
  5
53A
330
E3
100
AcDbEntity
  8
0
  6
Continuous
100
AcDbLine
 10
150.2192862039884
 20
152.3095378998586
 30
0.0
 11
150.1921869464903
 21
152.3087606676517
 31
0.0
  0
LINE
  5
53B
330
E3
100
AcDbEntity
  8
0
  6
Continuous
100
AcDbLine
 10
150.1921869464903
 20
152.3087606676517
 30
0.0
 11
150.1622151533706
 21
152.3084920390088
 31
0.0
  0
LINE
  5
53C
330
E3
100
AcDbEntity
  8
0
  6
Continuous
100
AcDbLine
 10
150.1622151533706
 20
152.3084920390088
 30
0.0
 11
150.1295964726893
 21
152.3086854516317
 31
0.0
  0
LINE
  5
53D
330
E3
100
AcDbEntity
  8
0
  6
Continuous
100
AcDbLine
 10
150.1295964726893
 20
152.3086854516317
 30
0.0
 11
150.0945637159369
 21
152.3093086700833
 31
0.0
  0
LINE
  5
53E
330
E3
100
AcDbEntity
  8
0
  6
Continuous
100
AcDbLine
 10
150.0945637159369
 20
152.3093086700833
 30
0.0
 11
150.0573855117563
 21
152.310307968635
 31
0.0
  0
LINE
  5
53F
330
E3
100
AcDbEntity
  8
0
  6
Continuous
100
AcDbLine
 10
150.0573855117563
 20
152.310307968635
 30
0.0
 11
150.0183304887906
 21
152.3116367849886
 31
0.0
  0
LINE
  5
540
330
E3
100
AcDbEntity
  8
0
  6
Continuous
100
AcDbLine
 10
150.0183304887906
 20
152.3116367849886
 30
0.0
 11
149.9776959294045
 21
152.3132485568462
 31
0.0
  0
LINE
  5
541
330
E3
100
AcDbEntity
  8
0
  6
Continuous
100
AcDbLine
 10
149.9776959294045
 20
152.3132485568462
 30
0.0
 11
149.9357755342475
 21
152.3150823950485
 31
0.0
  0
LINE
  5
542
330
E3
100
AcDbEntity
  8
0
  6
Continuous
100
AcDbLine
 10
149.9357755342475
 20
152.3150823950485
 30
0.0
 11
149.8928880759761
 21
152.3170881555824
 31
0.0
  0
LINE
  5
543
330
E3
100
AcDbEntity
  8
0
  6
Continuous
100
AcDbLine
 10
149.8928880759761
 20
152.3170881555824
 30
0.0
 11
149.8493487455311
 21
152.3192121127191
 31
0.0
  0
LINE
  5
544
330
E3
100
AcDbEntity
  8
0
  6
Continuous
100
AcDbLine
 10
149.8493487455311
 20
152.3192121127191
 30
0.0
 11
149.8054834789994
 21
152.3213897955843
 31
0.0
  0
LINE
  5
545
330
E3
100
AcDbEntity
  8
0
  6
Continuous
100
AcDbLine
 10
149.8054834789994
 20
152.3213897955843
 30
0.0
 11
149.7616182124677
 21
152.3235674784496
 31
0.0
  0
LINE
  5
546
330
E3
100
AcDbEntity
  8
0
  6
Continuous
100
AcDbLine
 10
149.7616182124677
 20
152.3235674784496
 30
0.0
 11
149.7180788820228
 21
152.3256914355864
 31
0.0
  0
LINE
  5
547
330
E3
100
AcDbEntity
  8
0
  6
Continuous
100
AcDbLine
 10
149.7180788820228
 20
152.3256914355864
 30
0.0
 11
149.6751878420361
 21
152.3276971961202
 31
0.0
  0
LINE
  5
548
330
E3
100
AcDbEntity
  8
0
  6
Continuous
100
AcDbLine
 10
149.6751878420361
 20
152.3276971961202
 30
0.0
 11
149.6332710285944
 21
152.3295310343225
 31
0.0
  0
LINE
  5
549
330
E3
100
AcDbEntity
  8
0
  6
Continuous
100
AcDbLine
 10
149.6332710285944
 20
152.3295310343225
 30
0.0
 11
149.592632887493
 21
152.3311428061801
 31
0.0
  0
LINE
  5
54A
330
E3
100
AcDbEntity
  8
0
  6
Continuous
100
AcDbLine
 10
149.592632887493
 20
152.3311428061801
 30
0.0
 11
149.5535814462425
 21
152.3324716225337
 31
0.0
  0
LINE
  5
54B
330
E3
100
AcDbEntity
  8
0
  6
Continuous
100
AcDbLine
 10
149.5535814462425
 20
152.3324716225337
 30
0.0
 11
149.5163996603467
 21
152.3334709210854
 31
0.0
  0
LINE
  5
54C
330
E3
100
AcDbEntity
  8
0
  6
Continuous
100
AcDbLine
 10
149.5163996603467
 20
152.3334709210854
 30
0.0
 11
149.4813704853096
 21
152.334094139537
 31
0.0
  0
LINE
  5
54D
330
E3
100
AcDbEntity
  8
0
  6
Continuous
100
AcDbLine
 10
149.4813704853096
 20
152.334094139537
 30
0.0
 11
149.4487482229131
 21
152.3342911338751
 31
0.0
  0
LINE
  5
54E
330
E3
100
AcDbEntity
  8
0
  6
Continuous
100
AcDbLine
 10
149.4487482229131
 20
152.3342911338751
 30
0.0
 11
149.4187800115086
 21
152.334018923517
 31
0.0
  0
LINE
  5
54F
330
E3
100
AcDbEntity
  8
0
  6
Continuous
100
AcDbLine
 10
149.4187800115086
 20
152.334018923517
 30
0.0
 11
149.3916771722953
 21
152.3332416913101
 31
0.0
  0
LINE
  5
550
330
E3
100
AcDbEntity
  8
0
  6
Continuous
100
AcDbLine
 10
149.3916771722953
 20
152.3332416913101
 30
0.0
 11
149.367647444757
 21
152.3319236201022
 31
0.0
  0
LINE
  5
551
330
E3
100
AcDbEntity
  8
0
  6
Continuous
100
AcDbLine
 10
149.367647444757
 20
152.3319236201022
 30
0.0
 11
149.3468627512252
 21
152.330032474456
 31
0.0
  0
LINE
  5
552
330
E3
100
AcDbEntity
  8
0
  6
Continuous
100
AcDbLine
 10
149.3468627512252
 20
152.330032474456
 30
0.0
 11
149.32947352374
 21
152.3275431823649
 31
0.0
  0
LINE
  5
553
330
E3
100
AcDbEntity
  8
0
  6
Continuous
100
AcDbLine
 10
149.32947352374
 20
152.3275431823649
 30
0.0
 11
149.3156051223347
 21
152.3244306718222
 31
0.0
  0
LINE
  5
554
330
E3
100
AcDbEntity
  8
0
  6
Continuous
100
AcDbLine
 10
149.3156051223347
 20
152.3244306718222
 30
0.0
 11
149.305357835036
 21
152.3206841976823
 31
0.0
  0
LINE
  5
555
330
E3
100
AcDbEntity
  8
0
  6
Continuous
100
AcDbLine
 10
149.305357835036
 20
152.3206841976823
 30
0.0
 11
149.2988011702901
 21
152.3162834044805
 31
0.0
  0
LINE
  5
556
330
E3
100
AcDbEntity
  8
0
  6
Continuous
100
AcDbLine
 10
149.2988011702901
 20
152.3162834044805
 30
0.0
 11
149.295977329631
 21
152.3112255384436
 31
0.0
  0
LINE
  5
557
330
E3
100
AcDbEntity
  8
0
  6
Continuous
100
AcDbLine
 10
150.2465816537088
 20
151.9436000760924
 30
0.0
 11
150.2437578130497
 21
151.9385422100554
 31
0.0
  0
LINE
  5
558
330
E3
100
AcDbEntity
  8
0
  6
Continuous
100
AcDbLine
 10
150.2437578130497
 20
151.9385422100554
 30
0.0
 11
150.2372007419028
 21
151.9341426132787
 31
0.0
  0
LINE
  5
559
330
E3
100
AcDbEntity
  8
0
  6
Continuous
100
AcDbLine
 10
150.2372007419028
 20
151.9341426132787
 30
0.0
 11
150.226954656315
 21
151.9303954332372
 31
0.0
  0
LINE
  5
55A
330
E3
100
AcDbEntity
  8
0
  6
Continuous
100
AcDbLine
 10
150.226954656315
 20
151.9303954332372
 30
0.0
 11
150.2130862549097
 21
151.9272829226945
 31
0.0
  0
LINE
  5
55B
330
E3
100
AcDbEntity
  8
0
  6
Continuous
100
AcDbLine
 10
150.2130862549097
 20
151.9272829226945
 30
0.0
 11
150.1956970274245
 21
151.9247936306034
 31
0.0
  0
LINE
  5
55C
330
E3
100
AcDbEntity
  8
0
  6
Continuous
100
AcDbLine
 10
150.1956970274245
 20
151.9247936306034
 30
0.0
 11
150.1749123338927
 21
151.9229024849573
 31
0.0
  0
LINE
  5
55D
330
E3
100
AcDbEntity
  8
0
  6
Continuous
100
AcDbLine
 10
150.1749123338927
 20
151.9229024849573
 30
0.0
 11
150.1508790246392
 21
151.9215844137493
 31
0.0
  0
LINE
  5
55E
330
E3
100
AcDbEntity
  8
0
  6
Continuous
100
AcDbLine
 10
150.1508790246392
 20
151.9215844137493
 30
0.0
 11
150.1237797671412
 21
151.9208071815425
 31
0.0
  0
LINE
  5
55F
330
E3
100
AcDbEntity
  8
0
  6
Continuous
100
AcDbLine
 10
150.1237797671412
 20
151.9208071815425
 30
0.0
 11
150.0938079740215
 21
151.9205349711843
 31
0.0
  0
LINE
  5
560
330
E3
100
AcDbEntity
  8
0
  6
Continuous
100
AcDbLine
 10
150.0938079740215
 20
151.9205349711843
 30
0.0
 11
150.0611892933401
 21
151.9207319655224
 31
0.0
  0
LINE
  5
561
330
E3
100
AcDbEntity
  8
0
  6
Continuous
100
AcDbLine
 10
150.0611892933401
 20
151.9207319655224
 30
0.0
 11
150.0261565365877
 21
151.9213516022588
 31
0.0
  0
LINE
  5
562
330
E3
100
AcDbEntity
  8
0
  6
Continuous
100
AcDbLine
 10
150.0261565365877
 20
151.9213516022588
 30
0.0
 11
149.9889783324072
 21
151.9223544825257
 31
0.0
  0
LINE
  5
563
330
E3
100
AcDbEntity
  8
0
  6
Continuous
100
AcDbLine
 10
149.9889783324072
 20
151.9223544825257
 30
0.0
 11
149.9499268911567
 21
151.9236832988794
 31
0.0
  0
LINE
  5
564
330
E3
100
AcDbEntity
  8
0
  6
Continuous
100
AcDbLine
 10
149.9499268911567
 20
151.9236832988794
 30
0.0
 11
149.9092887500553
 21
151.9252914890216
 31
0.0
  0
LINE
  5
565
330
E3
100
AcDbEntity
  8
0
  6
Continuous
100
AcDbLine
 10
149.9092887500553
 20
151.9252914890216
 30
0.0
 11
149.8673683548984
 21
151.9271289089392
 31
0.0
  0
LINE
  5
566
330
E3
100
AcDbEntity
  8
0
  6
Continuous
100
AcDbLine
 10
149.8673683548984
 20
151.9271289089392
 30
0.0
 11
149.8244808966269
 21
151.9291346694731
 31
0.0
  0
LINE
  5
567
330
E3
100
AcDbEntity
  8
0
  6
Continuous
100
AcDbLine
 10
149.8244808966269
 20
151.9291346694731
 30
0.0
 11
149.780941566182
 21
151.9312550448946
 31
0.0
  0
LINE
  5
568
330
E3
100
AcDbEntity
  8
0
  6
Continuous
100
AcDbLine
 10
149.780941566182
 20
151.9312550448946
 30
0.0
 11
149.7370762996503
 21
151.9334363094751
 31
0.0
  0
LINE
  5
569
330
E3
100
AcDbEntity
  8
0
  6
Continuous
100
AcDbLine
 10
149.7370762996503
 20
151.9334363094751
 30
0.0
 11
149.6932110331186
 21
151.9356139923404
 31
0.0
  0
LINE
  5
56A
330
E3
100
AcDbEntity
  8
0
  6
Continuous
100
AcDbLine
 10
149.6932110331186
 20
151.9356139923404
 30
0.0
 11
149.6496717026737
 21
151.9377343677618
 31
0.0
  0
LINE
  5
56B
330
E3
100
AcDbEntity
  8
0
  6
Continuous
100
AcDbLine
 10
149.6496717026737
 20
151.9377343677618
 30
0.0
 11
149.606780662687
 21
151.9397437100109
 31
0.0
  0
LINE
  5
56C
330
E3
100
AcDbEntity
  8
0
  6
Continuous
100
AcDbLine
 10
149.606780662687
 20
151.9397437100109
 30
0.0
 11
149.5648638492453
 21
151.9415775482132
 31
0.0
  0
LINE
  5
56D
330
E3
100
AcDbEntity
  8
0
  6
Continuous
100
AcDbLine
 10
149.5648638492453
 20
151.9415775482132
 30
0.0
 11
149.5242257081439
 21
151.9431893200708
 31
0.0
  0
LINE
  5
56E
330
E3
100
AcDbEntity
  8
0
  6
Continuous
100
AcDbLine
 10
149.5242257081439
 20
151.9431893200708
 30
0.0
 11
149.4851742668934
 21
151.9445181364244
 31
0.0
  0
LINE
  5
56F
330
E3
100
AcDbEntity
  8
0
  6
Continuous
100
AcDbLine
 10
149.4851742668934
 20
151.9445181364244
 30
0.0
 11
149.4479924809976
 21
151.9455174349761
 31
0.0
  0
LINE
  5
570
330
E3
100
AcDbEntity
  8
0
  6
Continuous
100
AcDbLine
 10
149.4479924809976
 20
151.9455174349761
 30
0.0
 11
149.4129633059605
 21
151.9461406534277
 31
0.0
  0
LINE
  5
571
330
E3
100
AcDbEntity
  8
0
  6
Continuous
100
AcDbLine
 10
149.4129633059605
 20
151.9461406534277
 30
0.0
 11
149.3803446252792
 21
151.9463340660506
 31
0.0
  0
LINE
  5
572
330
E3
100
AcDbEntity
  8
0
  6
Continuous
100
AcDbLine
 10
149.3803446252792
 20
151.9463340660506
 30
0.0
 11
149.3503728321594
 21
151.9460654374077
 31
0.0
  0
LINE
  5
573
330
E3
100
AcDbEntity
  8
0
  6
Continuous
100
AcDbLine
 10
149.3503728321594
 20
151.9460654374077
 30
0.0
 11
149.3232699929461
 21
151.9452882052009
 31
0.0
  0
LINE
  5
574
330
E3
100
AcDbEntity
  8
0
  6
Continuous
100
AcDbLine
 10
149.3232699929461
 20
151.9452882052009
 30
0.0
 11
149.2992402654079
 21
151.9439665522777
 31
0.0
  0
LINE
  5
575
330
E3
100
AcDbEntity
  8
0
  6
Continuous
100
AcDbLine
 10
149.2992402654079
 20
151.9439665522777
 30
0.0
 11
149.2784555718761
 21
151.9420789883467
 31
0.0
  0
LINE
  5
576
330
E3
100
AcDbEntity
  8
0
  6
Continuous
100
AcDbLine
 10
149.2784555718761
 20
151.9420789883467
 30
0.0
 11
149.2610663443909
 21
151.9395861145404
 31
0.0
  0
LINE
  5
577
330
E3
100
AcDbEntity
  8
0
  6
Continuous
100
AcDbLine
 10
149.2610663443909
 20
151.9395861145404
 30
0.0
 11
149.2471979429856
 21
151.936477185713
 31
0.0
  0
LINE
  5
578
330
E3
100
AcDbEntity
  8
0
  6
Continuous
100
AcDbLine
 10
149.2471979429856
 20
151.936477185713
 30
0.0
 11
149.2369506556869
 21
151.9327271298578
 31
0.0
  0
LINE
  5
579
330
E3
100
AcDbEntity
  8
0
  6
Continuous
100
AcDbLine
 10
149.2369506556869
 20
151.9327271298578
 30
0.0
 11
149.2303943124213
 21
151.9283288351121
 31
0.0
  0
LINE
  5
57A
330
E3
100
AcDbEntity
  8
0
  6
Continuous
100
AcDbLine
 10
149.2303943124213
 20
151.9283288351121
 30
0.0
 11
149.2275704717622
 21
151.9232709690752
 31
0.0
  0
LINE
  5
57B
330
E3
100
AcDbEntity
  8
0
  6
Continuous
100
AcDbLine
 10
150.17817479584
 20
151.5556455067239
 30
0.0
 11
150.175350955181
 21
151.550587640687
 31
0.0
  0
LINE
  5
57C
330
E3
100
AcDbEntity
  8
0
  6
Continuous
100
AcDbLine
 10
150.175350955181
 20
151.550587640687
 30
0.0
 11
150.168793884034
 21
151.5461880439102
 31
0.0
  0
LINE
  5
57D
330
E3
100
AcDbEntity
  8
0
  6
Continuous
100
AcDbLine
 10
150.168793884034
 20
151.5461880439102
 30
0.0
 11
150.1585474769659
 21
151.5424383654127
 31
0.0
  0
LINE
  5
57E
330
E3
100
AcDbEntity
  8
0
  6
Continuous
100
AcDbLine
 10
150.1585474769659
 20
151.5424383654127
 30
0.0
 11
150.1446790755606
 21
151.5393294365852
 31
0.0
  0
LINE
  5
57F
330
E3
100
AcDbEntity
  8
0
  6
Continuous
100
AcDbLine
 10
150.1446790755606
 20
151.5393294365852
 30
0.0
 11
150.1272898480754
 21
151.5368401444942
 31
0.0
  0
LINE
  5
580
330
E3
100
AcDbEntity
  8
0
  6
Continuous
100
AcDbLine
 10
150.1272898480754
 20
151.5368401444942
 30
0.0
 11
150.1065051545436
 21
151.534948998848
 31
0.0
  0
LINE
  5
581
330
E3
100
AcDbEntity
  8
0
  6
Continuous
100
AcDbLine
 10
150.1065051545436
 20
151.534948998848
 30
0.0
 11
150.0824754270053
 21
151.53363092764
 31
0.0
  0
LINE
  5
582
330
E3
100
AcDbEntity
  8
0
  6
Continuous
100
AcDbLine
 10
150.0824754270053
 20
151.53363092764
 30
0.0
 11
150.055372587792
 21
151.5328536954332
 31
0.0
  0
LINE
  5
583
330
E3
100
AcDbEntity
  8
0
  6
Continuous
100
AcDbLine
 10
150.055372587792
 20
151.5328536954332
 30
0.0
 11
150.0254007946723
 21
151.532581485075
 31
0.0
  0
LINE
  5
584
330
E3
100
AcDbEntity
  8
0
  6
Continuous
100
AcDbLine
 10
150.0254007946723
 20
151.532581485075
 30
0.0
 11
149.992782113991
 21
151.5327784794132
 31
0.0
  0
LINE
  5
585
330
E3
100
AcDbEntity
  8
0
  6
Continuous
100
AcDbLine
 10
149.992782113991
 20
151.5327784794132
 30
0.0
 11
149.9577493572386
 21
151.5333981161495
 31
0.0
  0
LINE
  5
586
330
E3
100
AcDbEntity
  8
0
  6
Continuous
100
AcDbLine
 10
149.9577493572386
 20
151.5333981161495
 30
0.0
 11
149.9205711530581
 21
151.5343974147012
 31
0.0
  0
LINE
  5
587
330
E3
100
AcDbEntity
  8
0
  6
Continuous
100
AcDbLine
 10
149.9205711530581
 20
151.5343974147012
 30
0.0
 11
149.8815197118076
 21
151.5357298127701
 31
0.0
  0
LINE
  5
588
330
E3
100
AcDbEntity
  8
0
  6
Continuous
100
AcDbLine
 10
149.8815197118076
 20
151.5357298127701
 30
0.0
 11
149.8408815707062
 21
151.5373380029124
 31
0.0
  0
LINE
  5
589
330
E3
100
AcDbEntity
  8
0
  6
Continuous
100
AcDbLine
 10
149.8408815707062
 20
151.5373380029124
 30
0.0
 11
149.7989647572645
 21
151.53917542283
 31
0.0
  0
LINE
  5
58A
330
E3
100
AcDbEntity
  8
0
  6
Continuous
100
AcDbLine
 10
149.7989647572645
 20
151.53917542283
 30
0.0
 11
149.7560737172778
 21
151.5411811833638
 31
0.0
  0
LINE
  5
58B
330
E3
100
AcDbEntity
  8
0
  6
Continuous
100
AcDbLine
 10
149.7560737172778
 20
151.5411811833638
 30
0.0
 11
149.7125343868329
 21
151.5433015587853
 31
0.0
  0
LINE
  5
58C
330
E3
100
AcDbEntity
  8
0
  6
Continuous
100
AcDbLine
 10
149.7125343868329
 20
151.5433015587853
 30
0.0
 11
149.6686691203012
 21
151.5454792416506
 31
0.0
  0
LINE
  5
58D
330
E3
100
AcDbEntity
  8
0
  6
Continuous
100
AcDbLine
 10
149.6686691203012
 20
151.5454792416506
 30
0.0
 11
149.6248038537695
 21
151.5476605062311
 31
0.0
  0
LINE
  5
58E
330
E3
100
AcDbEntity
  8
0
  6
Continuous
100
AcDbLine
 10
149.6248038537695
 20
151.5476605062311
 30
0.0
 11
149.5812645233245
 21
151.5497808816525
 31
0.0
  0
LINE
  5
58F
330
E3
100
AcDbEntity
  8
0
  6
Continuous
100
AcDbLine
 10
149.5812645233245
 20
151.5497808816525
 30
0.0
 11
149.5383770650531
 21
151.5517866421864
 31
0.0
  0
LINE
  5
590
330
E3
100
AcDbEntity
  8
0
  6
Continuous
100
AcDbLine
 10
149.5383770650531
 20
151.5517866421864
 30
0.0
 11
149.4964566698961
 21
151.553624062104
 31
0.0
  0
LINE
  5
591
330
E3
100
AcDbEntity
  8
0
  6
Continuous
100
AcDbLine
 10
149.4964566698961
 20
151.553624062104
 30
0.0
 11
149.4558185287948
 21
151.5552322522463
 31
0.0
  0
LINE
  5
592
330
E3
100
AcDbEntity
  8
0
  6
Continuous
100
AcDbLine
 10
149.4558185287948
 20
151.5552322522463
 30
0.0
 11
149.4167670875443
 21
151.5565646503152
 31
0.0
  0
LINE
  5
593
330
E3
100
AcDbEntity
  8
0
  6
Continuous
100
AcDbLine
 10
149.4167670875443
 20
151.5565646503152
 30
0.0
 11
149.3795888833637
 21
151.5575639488669
 31
0.0
  0
LINE
  5
594
330
E3
100
AcDbEntity
  8
0
  6
Continuous
100
AcDbLine
 10
149.3795888833637
 20
151.5575639488669
 30
0.0
 11
149.3445561266113
 21
151.5581835856032
 31
0.0
  0
LINE
  5
595
330
E3
100
AcDbEntity
  8
0
  6
Continuous
100
AcDbLine
 10
149.3445561266113
 20
151.5581835856032
 30
0.0
 11
149.31193744593
 21
151.5583805799413
 31
0.0
  0
LINE
  5
596
330
E3
100
AcDbEntity
  8
0
  6
Continuous
100
AcDbLine
 10
149.31193744593
 20
151.5583805799413
 30
0.0
 11
149.2819656528103
 21
151.5581083695832
 31
0.0
  0
LINE
  5
597
330
E3
100
AcDbEntity
  8
0
  6
Continuous
100
AcDbLine
 10
149.2819656528103
 20
151.5581083695832
 30
0.0
 11
149.254862813597
 21
151.5573311373763
 31
0.0
  0
LINE
  5
598
330
E3
100
AcDbEntity
  8
0
  6
Continuous
100
AcDbLine
 10
149.254862813597
 20
151.5573311373763
 30
0.0
 11
149.2308330860587
 21
151.5560130661684
 31
0.0
  0
LINE
  5
599
330
E3
100
AcDbEntity
  8
0
  6
Continuous
100
AcDbLine
 10
149.2308330860587
 20
151.5560130661684
 30
0.0
 11
149.210048392527
 21
151.5541219205222
 31
0.0
  0
LINE
  5
59A
330
E3
100
AcDbEntity
  8
0
  6
Continuous
100
AcDbLine
 10
149.210048392527
 20
151.5541219205222
 30
0.0
 11
149.1926591650418
 21
151.5516326284311
 31
0.0
  0
LINE
  5
59B
330
E3
100
AcDbEntity
  8
0
  6
Continuous
100
AcDbLine
 10
149.1926591650418
 20
151.5516326284311
 30
0.0
 11
149.1787907636365
 21
151.5485236996037
 31
0.0
  0
LINE
  5
59C
330
E3
100
AcDbEntity
  8
0
  6
Continuous
100
AcDbLine
 10
149.1787907636365
 20
151.5485236996037
 30
0.0
 11
149.1685434763378
 21
151.5447736437485
 31
0.0
  0
LINE
  5
59D
330
E3
100
AcDbEntity
  8
0
  6
Continuous
100
AcDbLine
 10
149.1685434763378
 20
151.5447736437485
 30
0.0
 11
149.1619874545525
 21
151.5403742657437
 31
0.0
  0
LINE
  5
59E
330
E3
100
AcDbEntity
  8
0
  6
Continuous
100
AcDbLine
 10
149.1619874545525
 20
151.5403742657437
 30
0.0
 11
149.1591636138934
 21
151.5353163997067
 31
0.0
  0
LINE
  5
59F
330
E3
100
AcDbEntity
  8
0
  6
Continuous
100
AcDbLine
 10
150.1097679379712
 20
151.1676909373556
 30
0.0
 11
150.1069440973122
 21
151.1626330713186
 31
0.0
  0
LINE
  5
5A0
330
E3
100
AcDbEntity
  8
0
  6
Continuous
100
AcDbLine
 10
150.1069440973122
 20
151.1626330713186
 30
0.0
 11
150.1003870261653
 21
151.1582334745418
 31
0.0
  0
LINE
  5
5A1
330
E3
100
AcDbEntity
  8
0
  6
Continuous
100
AcDbLine
 10
150.1003870261653
 20
151.1582334745418
 30
0.0
 11
150.0901402976168
 21
151.1544848793034
 31
0.0
  0
LINE
  5
5A2
330
E3
100
AcDbEntity
  8
0
  6
Continuous
100
AcDbLine
 10
150.0901402976168
 20
151.1544848793034
 30
0.0
 11
150.0762718962114
 21
151.1513723687607
 31
0.0
  0
LINE
  5
5A3
330
E3
100
AcDbEntity
  8
0
  6
Continuous
100
AcDbLine
 10
150.0762718962114
 20
151.1513723687607
 30
0.0
 11
150.0588826687263
 21
151.1488830766696
 31
0.0
  0
LINE
  5
5A4
330
E3
100
AcDbEntity
  8
0
  6
Continuous
100
AcDbLine
 10
150.0588826687263
 20
151.1488830766696
 30
0.0
 11
150.0380979751945
 21
151.1469919310235
 31
0.0
  0
LINE
  5
5A5
330
E3
100
AcDbEntity
  8
0
  6
Continuous
100
AcDbLine
 10
150.0380979751945
 20
151.1469919310235
 30
0.0
 11
150.0140682476562
 21
151.1456738598155
 31
0.0
  0
LINE
  5
5A6
330
E3
100
AcDbEntity
  8
0
  6
Continuous
100
AcDbLine
 10
150.0140682476562
 20
151.1456738598155
 30
0.0
 11
149.9869654084429
 21
151.1448966276087
 31
0.0
  0
LINE
  5
5A7
330
E3
100
AcDbEntity
  8
0
  6
Continuous
100
AcDbLine
 10
149.9869654084429
 20
151.1448966276087
 30
0.0
 11
149.9569936153232
 21
151.1446279989657
 31
0.0
  0
LINE
  5
5A8
330
E3
100
AcDbEntity
  8
0
  6
Continuous
100
AcDbLine
 10
149.9569936153232
 20
151.1446279989657
 30
0.0
 11
149.9243749346419
 21
151.1448214115887
 31
0.0
  0
LINE
  5
5A9
330
E3
100
AcDbEntity
  8
0
  6
Continuous
100
AcDbLine
 10
149.9243749346419
 20
151.1448214115887
 30
0.0
 11
149.8893457596047
 21
151.1454446300402
 31
0.0
  0
LINE
  5
5AA
330
E3
100
AcDbEntity
  8
0
  6
Continuous
100
AcDbLine
 10
149.8893457596047
 20
151.1454446300402
 30
0.0
 11
149.8521639737089
 21
151.1464439285919
 31
0.0
  0
LINE
  5
5AB
330
E3
100
AcDbEntity
  8
0
  6
Continuous
100
AcDbLine
 10
149.8521639737089
 20
151.1464439285919
 30
0.0
 11
149.8131125324584
 21
151.1477727449456
 31
0.0
  0
LINE
  5
5AC
330
E3
100
AcDbEntity
  8
0
  6
Continuous
100
AcDbLine
 10
149.8131125324584
 20
151.1477727449456
 30
0.0
 11
149.7724743913571
 21
151.1493845168031
 31
0.0
  0
LINE
  5
5AD
330
E3
100
AcDbEntity
  8
0
  6
Continuous
100
AcDbLine
 10
149.7724743913571
 20
151.1493845168031
 30
0.0
 11
149.7305575779154
 21
151.1512183550055
 31
0.0
  0
LINE
  5
5AE
330
E3
100
AcDbEntity
  8
0
  6
Continuous
100
AcDbLine
 10
149.7305575779154
 20
151.1512183550055
 30
0.0
 11
149.6876665379287
 21
151.1532276972545
 31
0.0
  0
LINE
  5
5AF
330
E3
100
AcDbEntity
  8
0
  6
Continuous
100
AcDbLine
 10
149.6876665379287
 20
151.1532276972545
 30
0.0
 11
149.6441272074837
 21
151.155348072676
 31
0.0
  0
LINE
  5
5B0
330
E3
100
AcDbEntity
  8
0
  6
Continuous
100
AcDbLine
 10
149.6441272074837
 20
151.155348072676
 30
0.0
 11
149.600261940952
 21
151.1575257555413
 31
0.0
  0
LINE
  5
5B1
330
E3
100
AcDbEntity
  8
0
  6
Continuous
100
AcDbLine
 10
149.600261940952
 20
151.1575257555413
 30
0.0
 11
149.5563966744203
 21
151.1597070201218
 31
0.0
  0
LINE
  5
5B2
330
E3
100
AcDbEntity
  8
0
  6
Continuous
100
AcDbLine
 10
149.5563966744203
 20
151.1597070201218
 30
0.0
 11
149.5128573439754
 21
151.1618273955433
 31
0.0
  0
LINE
  5
5B3
330
E3
100
AcDbEntity
  8
0
  6
Continuous
100
AcDbLine
 10
149.5128573439754
 20
151.1618273955433
 30
0.0
 11
149.4699698857039
 21
151.1638331560771
 31
0.0
  0
LINE
  5
5B4
330
E3
100
AcDbEntity
  8
0
  6
Continuous
100
AcDbLine
 10
149.4699698857039
 20
151.1638331560771
 30
0.0
 11
149.428049490547
 21
151.1656705759947
 31
0.0
  0
LINE
  5
5B5
330
E3
100
AcDbEntity
  8
0
  6
Continuous
100
AcDbLine
 10
149.428049490547
 20
151.1656705759947
 30
0.0
 11
149.3874113494456
 21
151.167278766137
 31
0.0
  0
LINE
  5
5B6
330
E3
100
AcDbEntity
  8
0
  6
Continuous
100
AcDbLine
 10
149.3874113494456
 20
151.167278766137
 30
0.0
 11
149.3483599081951
 21
151.1686075824907
 31
0.0
  0
LINE
  5
5B7
330
E3
100
AcDbEntity
  8
0
  6
Continuous
100
AcDbLine
 10
149.3483599081951
 20
151.1686075824907
 30
0.0
 11
149.3111817040146
 21
151.1696104627576
 31
0.0
  0
LINE
  5
5B8
330
E3
100
AcDbEntity
  8
0
  6
Continuous
100
AcDbLine
 10
149.3111817040146
 20
151.1696104627576
 30
0.0
 11
149.2761489472622
 21
151.1702300994939
 31
0.0
  0
LINE
  5
5B9
330
E3
100
AcDbEntity
  8
0
  6
Continuous
100
AcDbLine
 10
149.2761489472622
 20
151.1702300994939
 30
0.0
 11
149.2435302665809
 21
151.1704270938321
 31
0.0
  0
LINE
  5
5BA
330
E3
100
AcDbEntity
  8
0
  6
Continuous
100
AcDbLine
 10
149.2435302665809
 20
151.1704270938321
 30
0.0
 11
149.2135584734612
 21
151.1701548834739
 31
0.0
  0
LINE
  5
5BB
330
E3
100
AcDbEntity
  8
0
  6
Continuous
100
AcDbLine
 10
149.2135584734612
 20
151.1701548834739
 30
0.0
 11
149.1864592159631
 21
151.1693776512671
 31
0.0
  0
LINE
  5
5BC
330
E3
100
AcDbEntity
  8
0
  6
Continuous
100
AcDbLine
 10
149.1864592159631
 20
151.1693776512671
 30
0.0
 11
149.1624259067096
 21
151.1680595800591
 31
0.0
  0
LINE
  5
5BD
330
E3
100
AcDbEntity
  8
0
  6
Continuous
100
AcDbLine
 10
149.1624259067096
 20
151.1680595800591
 30
0.0
 11
149.1416412131778
 21
151.166168434413
 31
0.0
  0
LINE
  5
5BE
330
E3
100
AcDbEntity
  8
0
  6
Continuous
100
AcDbLine
 10
149.1416412131778
 20
151.166168434413
 30
0.0
 11
149.1242519856926
 21
151.1636791423219
 31
0.0
  0
LINE
  5
5BF
330
E3
100
AcDbEntity
  8
0
  6
Continuous
100
AcDbLine
 10
149.1242519856926
 20
151.1636791423219
 30
0.0
 11
149.1103835842873
 21
151.1605666317792
 31
0.0
  0
LINE
  5
5C0
330
E3
100
AcDbEntity
  8
0
  6
Continuous
100
AcDbLine
 10
149.1103835842873
 20
151.1605666317792
 30
0.0
 11
149.1001362969886
 21
151.1568201576392
 31
0.0
  0
LINE
  5
5C1
330
E3
100
AcDbEntity
  8
0
  6
Continuous
100
AcDbLine
 10
149.1001362969886
 20
151.1568201576392
 30
0.0
 11
149.0935805966837
 21
151.1524196963752
 31
0.0
  0
LINE
  5
5C2
330
E3
100
AcDbEntity
  8
0
  6
Continuous
100
AcDbLine
 10
149.0935805966837
 20
151.1524196963752
 30
0.0
 11
149.0907567560246
 21
151.1473618303382
 31
0.0
  0
LINE
  5
5C3
330
E3
100
AcDbEntity
  8
0
  6
Continuous
100
AcDbLine
 10
150.0413610801025
 20
150.7797363679871
 30
0.0
 11
150.0385372394434
 21
150.7746785019501
 31
0.0
  0
LINE
  5
5C4
330
E3
100
AcDbEntity
  8
0
  6
Continuous
100
AcDbLine
 10
150.0385372394434
 20
150.7746785019501
 30
0.0
 11
150.0319801682965
 21
150.7702789051734
 31
0.0
  0
LINE
  5
5C5
330
E3
100
AcDbEntity
  8
0
  6
Continuous
100
AcDbLine
 10
150.0319801682965
 20
150.7702789051734
 30
0.0
 11
150.0217331182676
 21
150.7665313931941
 31
0.0
  0
LINE
  5
5C6
330
E3
100
AcDbEntity
  8
0
  6
Continuous
100
AcDbLine
 10
150.0217331182676
 20
150.7665313931941
 30
0.0
 11
150.0078647168623
 21
150.7634188826515
 31
0.0
  0
LINE
  5
5C7
330
E3
100
AcDbEntity
  8
0
  6
Continuous
100
AcDbLine
 10
150.0078647168623
 20
150.7634188826515
 30
0.0
 11
149.9904754893771
 21
150.7609295905604
 31
0.0
  0
LINE
  5
5C8
330
E3
100
AcDbEntity
  8
0
  6
Continuous
100
AcDbLine
 10
149.9904754893771
 20
150.7609295905604
 30
0.0
 11
149.9696907958453
 21
150.7590384449142
 31
0.0
  0
LINE
  5
5C9
330
E3
100
AcDbEntity
  8
0
  6
Continuous
100
AcDbLine
 10
149.9696907958453
 20
150.7590384449142
 30
0.0
 11
149.9456610683071
 21
150.7577203737062
 31
0.0
  0
LINE
  5
5CA
330
E3
100
AcDbEntity
  8
0
  6
Continuous
100
AcDbLine
 10
149.9456610683071
 20
150.7577203737062
 30
0.0
 11
149.9185582290938
 21
150.7569431414994
 31
0.0
  0
LINE
  5
5CB
330
E3
100
AcDbEntity
  8
0
  6
Continuous
100
AcDbLine
 10
149.9185582290938
 20
150.7569431414994
 30
0.0
 11
149.8885900176893
 21
150.7566709311412
 31
0.0
  0
LINE
  5
5CC
330
E3
100
AcDbEntity
  8
0
  6
Continuous
100
AcDbLine
 10
149.8885900176893
 20
150.7566709311412
 30
0.0
 11
149.8559677552927
 21
150.7568679254794
 31
0.0
  0
LINE
  5
5CD
330
E3
100
AcDbEntity
  8
0
  6
Continuous
100
AcDbLine
 10
149.8559677552927
 20
150.7568679254794
 30
0.0
 11
149.8209385802556
 21
150.757491143931
 31
0.0
  0
LINE
  5
5CE
330
E3
100
AcDbEntity
  8
0
  6
Continuous
100
AcDbLine
 10
149.8209385802556
 20
150.757491143931
 30
0.0
 11
149.7837567943598
 21
150.7584904424826
 31
0.0
  0
LINE
  5
5CF
330
E3
100
AcDbEntity
  8
0
  6
Continuous
100
AcDbLine
 10
149.7837567943598
 20
150.7584904424826
 30
0.0
 11
149.7447053531093
 21
150.7598192588363
 31
0.0
  0
LINE
  5
5D0
330
E3
100
AcDbEntity
  8
0
  6
Continuous
100
AcDbLine
 10
149.7447053531093
 20
150.7598192588363
 30
0.0
 11
149.7040672120079
 21
150.7614310306938
 31
0.0
  0
LINE
  5
5D1
330
E3
100
AcDbEntity
  8
0
  6
Continuous
100
AcDbLine
 10
149.7040672120079
 20
150.7614310306938
 30
0.0
 11
149.6621503985662
 21
150.7632648688962
 31
0.0
  0
LINE
  5
5D2
330
E3
100
AcDbEntity
  8
0
  6
Continuous
100
AcDbLine
 10
149.6621503985662
 20
150.7632648688962
 30
0.0
 11
149.6192593585796
 21
150.76527062943
 31
0.0
  0
LINE
  5
5D3
330
E3
100
AcDbEntity
  8
0
  6
Continuous
100
AcDbLine
 10
149.6192593585796
 20
150.76527062943
 30
0.0
 11
149.5757200281346
 21
150.7673945865667
 31
0.0
  0
LINE
  5
5D4
330
E3
100
AcDbEntity
  8
0
  6
Continuous
100
AcDbLine
 10
149.5757200281346
 20
150.7673945865667
 30
0.0
 11
149.5318547616029
 21
150.769572269432
 31
0.0
  0
LINE
  5
5D5
330
E3
100
AcDbEntity
  8
0
  6
Continuous
100
AcDbLine
 10
149.5318547616029
 20
150.769572269432
 30
0.0
 11
149.4879894950712
 21
150.7717499522973
 31
0.0
  0
LINE
  5
5D6
330
E3
100
AcDbEntity
  8
0
  6
Continuous
100
AcDbLine
 10
149.4879894950712
 20
150.7717499522973
 30
0.0
 11
149.4444501646263
 21
150.773873909434
 31
0.0
  0
LINE
  5
5D7
330
E3
100
AcDbEntity
  8
0
  6
Continuous
100
AcDbLine
 10
149.4444501646263
 20
150.773873909434
 30
0.0
 11
149.4015627063548
 21
150.7758796699678
 31
0.0
  0
LINE
  5
5D8
330
E3
100
AcDbEntity
  8
0
  6
Continuous
100
AcDbLine
 10
149.4015627063548
 20
150.7758796699678
 30
0.0
 11
149.3596423111979
 21
150.7777135081702
 31
0.0
  0
LINE
  5
5D9
330
E3
100
AcDbEntity
  8
0
  6
Continuous
100
AcDbLine
 10
149.3596423111979
 20
150.7777135081702
 30
0.0
 11
149.3190077518118
 21
150.7793252800277
 31
0.0
  0
LINE
  5
5DA
330
E3
100
AcDbEntity
  8
0
  6
Continuous
100
AcDbLine
 10
149.3190077518118
 20
150.7793252800277
 30
0.0
 11
149.279952728846
 21
150.7806540963814
 31
0.0
  0
LINE
  5
5DB
330
E3
100
AcDbEntity
  8
0
  6
Continuous
100
AcDbLine
 10
149.279952728846
 20
150.7806540963814
 30
0.0
 11
149.2427745246655
 21
150.7816533949331
 31
0.0
  0
LINE
  5
5DC
330
E3
100
AcDbEntity
  8
0
  6
Continuous
100
AcDbLine
 10
149.2427745246655
 20
150.7816533949331
 30
0.0
 11
149.2077453496283
 21
150.7822766133847
 31
0.0
  0
LINE
  5
5DD
330
E3
100
AcDbEntity
  8
0
  6
Continuous
100
AcDbLine
 10
149.2077453496283
 20
150.7822766133847
 30
0.0
 11
149.1751230872318
 21
150.7824700260076
 31
0.0
  0
LINE
  5
5DE
330
E3
100
AcDbEntity
  8
0
  6
Continuous
100
AcDbLine
 10
149.1751230872318
 20
150.7824700260076
 30
0.0
 11
149.1451512941121
 21
150.7822013973646
 31
0.0
  0
LINE
  5
5DF
330
E3
100
AcDbEntity
  8
0
  6
Continuous
100
AcDbLine
 10
149.1451512941121
 20
150.7822013973646
 30
0.0
 11
149.118052036614
 21
150.7814241651578
 31
0.0
  0
LINE
  5
5E0
330
E3
100
AcDbEntity
  8
0
  6
Continuous
100
AcDbLine
 10
149.118052036614
 20
150.7814241651578
 30
0.0
 11
149.0940187273604
 21
150.7801060939499
 31
0.0
  0
LINE
  5
5E1
330
E3
100
AcDbEntity
  8
0
  6
Continuous
100
AcDbLine
 10
149.0940187273604
 20
150.7801060939499
 30
0.0
 11
149.0732340338287
 21
150.7782149483037
 31
0.0
  0
LINE
  5
5E2
330
E3
100
AcDbEntity
  8
0
  6
Continuous
100
AcDbLine
 10
149.0732340338287
 20
150.7782149483037
 30
0.0
 11
149.0558448063435
 21
150.7757256562126
 31
0.0
  0
LINE
  5
5E3
330
E3
100
AcDbEntity
  8
0
  6
Continuous
100
AcDbLine
 10
149.0558448063435
 20
150.7757256562126
 30
0.0
 11
149.0419799866535
 21
150.7726131456699
 31
0.0
  0
LINE
  5
5E4
330
E3
100
AcDbEntity
  8
0
  6
Continuous
100
AcDbLine
 10
149.0419799866535
 20
150.7726131456699
 30
0.0
 11
149.0317291176395
 21
150.7688630898147
 31
0.0
  0
LINE
  5
5E5
330
E3
100
AcDbEntity
  8
0
  6
Continuous
100
AcDbLine
 10
149.0317291176395
 20
150.7688630898147
 30
0.0
 11
149.0251737388149
 21
150.7644651270068
 31
0.0
  0
LINE
  5
5E6
330
E3
100
AcDbEntity
  8
0
  6
Continuous
100
AcDbLine
 10
149.0251737388149
 20
150.7644651270068
 30
0.0
 11
149.0223498981559
 21
150.7594072609698
 31
0.0
  0
LINE
  5
5E7
330
E3
100
AcDbEntity
  8
0
  6
Continuous
100
AcDbLine
 10
149.9729542222337
 20
150.3917817986187
 30
0.0
 11
149.9701303815746
 21
150.3867239325817
 31
0.0
  0
LINE
  5
5E8
330
E3
100
AcDbEntity
  8
0
  6
Continuous
100
AcDbLine
 10
149.9701303815746
 20
150.3867239325817
 30
0.0
 11
149.9635733104277
 21
150.3823243358049
 31
0.0
  0
LINE
  5
5E9
330
E3
100
AcDbEntity
  8
0
  6
Continuous
100
AcDbLine
 10
149.9635733104277
 20
150.3823243358049
 30
0.0
 11
149.9533259389185
 21
150.3785743253696
 31
0.0
  0
LINE
  5
5EA
330
E3
100
AcDbEntity
  8
0
  6
Continuous
100
AcDbLine
 10
149.9533259389185
 20
150.3785743253696
 30
0.0
 11
149.9394575375132
 21
150.3754653965422
 31
0.0
  0
LINE
  5
5EB
330
E3
100
AcDbEntity
  8
0
  6
Continuous
100
AcDbLine
 10
149.9394575375132
 20
150.3754653965422
 30
0.0
 11
149.922068310028
 21
150.3729761044511
 31
0.0
  0
LINE
  5
5EC
330
E3
100
AcDbEntity
  8
0
  6
Continuous
100
AcDbLine
 10
149.922068310028
 20
150.3729761044511
 30
0.0
 11
149.9012836164962
 21
150.3710849588049
 31
0.0
  0
LINE
  5
5ED
330
E3
100
AcDbEntity
  8
0
  6
Continuous
100
AcDbLine
 10
149.9012836164962
 20
150.3710849588049
 30
0.0
 11
149.8772538889579
 21
150.369766887597
 31
0.0
  0
LINE
  5
5EE
330
E3
100
AcDbEntity
  8
0
  6
Continuous
100
AcDbLine
 10
149.8772538889579
 20
150.369766887597
 30
0.0
 11
149.8501510497447
 21
150.3689896553902
 31
0.0
  0
LINE
  5
5EF
330
E3
100
AcDbEntity
  8
0
  6
Continuous
100
AcDbLine
 10
149.8501510497447
 20
150.3689896553902
 30
0.0
 11
149.8201828383402
 21
150.368717445032
 31
0.0
  0
LINE
  5
5F0
330
E3
100
AcDbEntity
  8
0
  6
Continuous
100
AcDbLine
 10
149.8201828383402
 20
150.368717445032
 30
0.0
 11
149.7875605759436
 21
150.3689144393701
 31
0.0
  0
LINE
  5
5F1
330
E3
100
AcDbEntity
  8
0
  6
Continuous
100
AcDbLine
 10
149.7875605759436
 20
150.3689144393701
 30
0.0
 11
149.7525314009065
 21
150.3695340761064
 31
0.0
  0
LINE
  5
5F2
330
E3
100
AcDbEntity
  8
0
  6
Continuous
100
AcDbLine
 10
149.7525314009065
 20
150.3695340761064
 30
0.0
 11
149.7153496150107
 21
150.3705333746582
 31
0.0
  0
LINE
  5
5F3
330
E3
100
AcDbEntity
  8
0
  6
Continuous
100
AcDbLine
 10
149.7153496150107
 20
150.3705333746582
 30
0.0
 11
149.6762981737602
 21
150.371865772727
 31
0.0
  0
LINE
  5
5F4
330
E3
100
AcDbEntity
  8
0
  6
Continuous
100
AcDbLine
 10
149.6762981737602
 20
150.371865772727
 30
0.0
 11
149.6356600326588
 21
150.3734739628693
 31
0.0
  0
LINE
  5
5F5
330
E3
100
AcDbEntity
  8
0
  6
Continuous
100
AcDbLine
 10
149.6356600326588
 20
150.3734739628693
 30
0.0
 11
149.5937432192171
 21
150.3753113827869
 31
0.0
  0
LINE
  5
5F6
330
E3
100
AcDbEntity
  8
0
  6
Continuous
100
AcDbLine
 10
149.5937432192171
 20
150.3753113827869
 30
0.0
 11
149.5508521792304
 21
150.3773171433208
 31
0.0
  0
LINE
  5
5F7
330
E3
100
AcDbEntity
  8
0
  6
Continuous
100
AcDbLine
 10
149.5508521792304
 20
150.3773171433208
 30
0.0
 11
149.5073128487855
 21
150.3794375187422
 31
0.0
  0
LINE
  5
5F8
330
E3
100
AcDbEntity
  8
0
  6
Continuous
100
AcDbLine
 10
149.5073128487855
 20
150.3794375187422
 30
0.0
 11
149.4634475822538
 21
150.3816187833228
 31
0.0
  0
LINE
  5
5F9
330
E3
100
AcDbEntity
  8
0
  6
Continuous
100
AcDbLine
 10
149.4634475822538
 20
150.3816187833228
 30
0.0
 11
149.4195823157221
 21
150.383796466188
 31
0.0
  0
LINE
  5
5FA
330
E3
100
AcDbEntity
  8
0
  6
Continuous
100
AcDbLine
 10
149.4195823157221
 20
150.383796466188
 30
0.0
 11
149.3760429852771
 21
150.3859168416095
 31
0.0
  0
LINE
  5
5FB
330
E3
100
AcDbEntity
  8
0
  6
Continuous
100
AcDbLine
 10
149.3760429852771
 20
150.3859168416095
 30
0.0
 11
149.3331555270057
 21
150.3879226021433
 31
0.0
  0
LINE
  5
5FC
330
E3
100
AcDbEntity
  8
0
  6
Continuous
100
AcDbLine
 10
149.3331555270057
 20
150.3879226021433
 30
0.0
 11
149.2912351318488
 21
150.3897600220609
 31
0.0
  0
LINE
  5
5FD
330
E3
100
AcDbEntity
  8
0
  6
Continuous
100
AcDbLine
 10
149.2912351318488
 20
150.3897600220609
 30
0.0
 11
149.2506005724626
 21
150.3913682122032
 31
0.0
  0
LINE
  5
5FE
330
E3
100
AcDbEntity
  8
0
  6
Continuous
100
AcDbLine
 10
149.2506005724626
 20
150.3913682122032
 30
0.0
 11
149.2115455494968
 21
150.3927006102721
 31
0.0
  0
LINE
  5
5FF
330
E3
100
AcDbEntity
  8
0
  6
Continuous
100
AcDbLine
 10
149.2115455494968
 20
150.3927006102721
 30
0.0
 11
149.1743673453163
 21
150.3936999088238
 31
0.0
  0
LINE
  5
600
330
E3
100
AcDbEntity
  8
0
  6
Continuous
100
AcDbLine
 10
149.1743673453163
 20
150.3936999088238
 30
0.0
 11
149.1393381702792
 21
150.3943195455602
 31
0.0
  0
LINE
  5
601
330
E3
100
AcDbEntity
  8
0
  6
Continuous
100
AcDbLine
 10
149.1393381702792
 20
150.3943195455602
 30
0.0
 11
149.1067159078826
 21
150.3945165398983
 31
0.0
  0
LINE
  5
602
330
E3
100
AcDbEntity
  8
0
  6
Continuous
100
AcDbLine
 10
149.1067159078826
 20
150.3945165398983
 30
0.0
 11
149.0767441147629
 21
150.3942443295401
 31
0.0
  0
LINE
  5
603
330
E3
100
AcDbEntity
  8
0
  6
Continuous
100
AcDbLine
 10
149.0767441147629
 20
150.3942443295401
 30
0.0
 11
149.0496448572648
 21
150.3934670973333
 31
0.0
  0
LINE
  5
604
330
E3
100
AcDbEntity
  8
0
  6
Continuous
100
AcDbLine
 10
149.0496448572648
 20
150.3934670973333
 30
0.0
 11
149.0256115480114
 21
150.3921490261253
 31
0.0
  0
LINE
  5
605
330
E3
100
AcDbEntity
  8
0
  6
Continuous
100
AcDbLine
 10
149.0256115480114
 20
150.3921490261253
 30
0.0
 11
149.0048268544796
 21
150.3902578804791
 31
0.0
  0
LINE
  5
606
330
E3
100
AcDbEntity
  8
0
  6
Continuous
100
AcDbLine
 10
149.0048268544796
 20
150.3902578804791
 30
0.0
 11
148.9874376269944
 21
150.3877685883881
 31
0.0
  0
LINE
  5
607
330
E3
100
AcDbEntity
  8
0
  6
Continuous
100
AcDbLine
 10
148.9874376269944
 20
150.3877685883881
 30
0.0
 11
148.9735728073043
 21
150.3846596595606
 31
0.0
  0
LINE
  5
608
330
E3
100
AcDbEntity
  8
0
  6
Continuous
100
AcDbLine
 10
148.9735728073043
 20
150.3846596595606
 30
0.0
 11
148.9633255200056
 21
150.3809096037054
 31
0.0
  0
LINE
  5
609
330
E3
100
AcDbEntity
  8
0
  6
Continuous
100
AcDbLine
 10
148.9633255200056
 20
150.3809096037054
 30
0.0
 11
148.9567668809461
 21
150.3765105576383
 31
0.0
  0
LINE
  5
60A
330
E3
100
AcDbEntity
  8
0
  6
Continuous
100
AcDbLine
 10
148.9567668809461
 20
150.3765105576383
 30
0.0
 11
148.953943040287
 21
150.3714526916013
 31
0.0
  0
LINE
  5
60B
330
E3
100
AcDbEntity
  8
0
  6
Continuous
100
AcDbLine
 10
149.9045473643649
 20
150.0038272292502
 30
0.0
 11
149.9017235237058
 21
149.9987693632132
 31
0.0
  0
LINE
  5
60C
330
E3
100
AcDbEntity
  8
0
  6
Continuous
100
AcDbLine
 10
149.9017235237058
 20
149.9987693632132
 30
0.0
 11
149.8951664525589
 21
149.9943697664364
 31
0.0
  0
LINE
  5
60D
330
E3
100
AcDbEntity
  8
0
  6
Continuous
100
AcDbLine
 10
149.8951664525589
 20
149.9943697664364
 30
0.0
 11
149.8849187595693
 21
149.9906208392603
 31
0.0
  0
LINE
  5
60E
330
E3
100
AcDbEntity
  8
0
  6
Continuous
100
AcDbLine
 10
149.8849187595693
 20
149.9906208392603
 30
0.0
 11
149.8710503581641
 21
149.9875119104329
 31
0.0
  0
LINE
  5
60F
330
E3
100
AcDbEntity
  8
0
  6
Continuous
100
AcDbLine
 10
149.8710503581641
 20
149.9875119104329
 30
0.0
 11
149.8536611306788
 21
149.9850190366266
 31
0.0
  0
LINE
  5
610
330
E3
100
AcDbEntity
  8
0
  6
Continuous
100
AcDbLine
 10
149.8536611306788
 20
149.9850190366266
 30
0.0
 11
149.8328764371471
 21
149.9831314726956
 31
0.0
  0
LINE
  5
611
330
E3
100
AcDbEntity
  8
0
  6
Continuous
100
AcDbLine
 10
149.8328764371471
 20
149.9831314726956
 30
0.0
 11
149.8088467096088
 21
149.9818098197725
 31
0.0
  0
LINE
  5
612
330
E3
100
AcDbEntity
  8
0
  6
Continuous
100
AcDbLine
 10
149.8088467096088
 20
149.9818098197725
 30
0.0
 11
149.7817474521107
 21
149.9810325875656
 31
0.0
  0
LINE
  5
613
330
E3
100
AcDbEntity
  8
0
  6
Continuous
100
AcDbLine
 10
149.7817474521107
 20
149.9810325875656
 30
0.0
 11
149.7517756589911
 21
149.9807639589227
 31
0.0
  0
LINE
  5
614
330
E3
100
AcDbEntity
  8
0
  6
Continuous
100
AcDbLine
 10
149.7517756589911
 20
149.9807639589227
 30
0.0
 11
149.7191533965945
 21
149.9809609532608
 31
0.0
  0
LINE
  5
615
330
E3
100
AcDbEntity
  8
0
  6
Continuous
100
AcDbLine
 10
149.7191533965945
 20
149.9809609532608
 30
0.0
 11
149.6841242215574
 21
149.9815805899972
 31
0.0
  0
LINE
  5
616
330
E3
100
AcDbEntity
  8
0
  6
Continuous
100
AcDbLine
 10
149.6841242215574
 20
149.9815805899972
 30
0.0
 11
149.6469460173768
 21
149.9825798885489
 31
0.0
  0
LINE
  5
617
330
E3
100
AcDbEntity
  8
0
  6
Continuous
100
AcDbLine
 10
149.6469460173768
 20
149.9825798885489
 30
0.0
 11
149.6078909944111
 21
149.9839122866178
 31
0.0
  0
LINE
  5
618
330
E3
100
AcDbEntity
  8
0
  6
Continuous
100
AcDbLine
 10
149.6078909944111
 20
149.9839122866178
 30
0.0
 11
149.5672528533097
 21
149.9855204767601
 31
0.0
  0
LINE
  5
619
330
E3
100
AcDbEntity
  8
0
  6
Continuous
100
AcDbLine
 10
149.5672528533097
 20
149.9855204767601
 30
0.0
 11
149.525336039868
 21
149.9873543149624
 31
0.0
  0
LINE
  5
61A
330
E3
100
AcDbEntity
  8
0
  6
Continuous
100
AcDbLine
 10
149.525336039868
 20
149.9873543149624
 30
0.0
 11
149.4824485815965
 21
149.9893636572115
 31
0.0
  0
LINE
  5
61B
330
E3
100
AcDbEntity
  8
0
  6
Continuous
100
AcDbLine
 10
149.4824485815965
 20
149.9893636572115
 30
0.0
 11
149.4389092511516
 21
149.9914840326329
 31
0.0
  0
LINE
  5
61C
330
E3
100
AcDbEntity
  8
0
  6
Continuous
100
AcDbLine
 10
149.4389092511516
 20
149.9914840326329
 30
0.0
 11
149.3950404029047
 21
149.9936617154982
 31
0.0
  0
LINE
  5
61D
330
E3
100
AcDbEntity
  8
0
  6
Continuous
100
AcDbLine
 10
149.3950404029047
 20
149.9936617154982
 30
0.0
 11
149.351175136373
 21
149.9958429800788
 31
0.0
  0
LINE
  5
61E
330
E3
100
AcDbEntity
  8
0
  6
Continuous
100
AcDbLine
 10
149.351175136373
 20
149.9958429800788
 30
0.0
 11
149.307635805928
 21
149.9979633555002
 31
0.0
  0
LINE
  5
61F
330
E3
100
AcDbEntity
  8
0
  6
Continuous
100
AcDbLine
 10
149.307635805928
 20
149.9979633555002
 30
0.0
 11
149.2647483476566
 21
149.9999691160341
 31
0.0
  0
LINE
  5
620
330
E3
100
AcDbEntity
  8
0
  6
Continuous
100
AcDbLine
 10
149.2647483476566
 20
149.9999691160341
 30
0.0
 11
149.2228279524996
 21
150.0018065359517
 31
0.0
  0
LINE
  5
621
330
E3
100
AcDbEntity
  8
0
  6
Continuous
100
AcDbLine
 10
149.2228279524996
 20
150.0018065359517
 30
0.0
 11
149.1821933931135
 21
150.003414726094
 31
0.0
  0
LINE
  5
622
330
E3
100
AcDbEntity
  8
0
  6
Continuous
100
AcDbLine
 10
149.1821933931135
 20
150.003414726094
 30
0.0
 11
149.1431383701478
 21
150.0047435424476
 31
0.0
  0
LINE
  5
623
330
E3
100
AcDbEntity
  8
0
  6
Continuous
100
AcDbLine
 10
149.1431383701478
 20
150.0047435424476
 30
0.0
 11
149.1059601659672
 21
150.0057464227145
 31
0.0
  0
LINE
  5
624
330
E3
100
AcDbEntity
  8
0
  6
Continuous
100
AcDbLine
 10
149.1059601659672
 20
150.0057464227145
 30
0.0
 11
149.07093099093
 21
150.0063660594509
 31
0.0
  0
LINE
  5
625
330
E3
100
AcDbEntity
  8
0
  6
Continuous
100
AcDbLine
 10
149.07093099093
 20
150.0063660594509
 30
0.0
 11
149.0383087285335
 21
150.006563053789
 31
0.0
  0
LINE
  5
626
330
E3
100
AcDbEntity
  8
0
  6
Continuous
100
AcDbLine
 10
149.0383087285335
 20
150.006563053789
 30
0.0
 11
149.0083369354138
 21
150.0062908434308
 31
0.0
  0
LINE
  5
627
330
E3
100
AcDbEntity
  8
0
  6
Continuous
100
AcDbLine
 10
149.0083369354138
 20
150.0062908434308
 30
0.0
 11
148.9812376779157
 21
150.005513611224
 31
0.0
  0
LINE
  5
628
330
E3
100
AcDbEntity
  8
0
  6
Continuous
100
AcDbLine
 10
148.9812376779157
 20
150.005513611224
 30
0.0
 11
148.9572079503775
 21
150.0041955400161
 31
0.0
  0
LINE
  5
629
330
E3
100
AcDbEntity
  8
0
  6
Continuous
100
AcDbLine
 10
148.9572079503775
 20
150.0041955400161
 30
0.0
 11
148.9364196751305
 21
150.0023043943699
 31
0.0
  0
LINE
  5
62A
330
E3
100
AcDbEntity
  8
0
  6
Continuous
100
AcDbLine
 10
148.9364196751305
 20
150.0023043943699
 30
0.0
 11
148.9190304476452
 21
149.9998151022788
 31
0.0
  0
LINE
  5
62B
330
E3
100
AcDbEntity
  8
0
  6
Continuous
100
AcDbLine
 10
148.9190304476452
 20
149.9998151022788
 30
0.0
 11
148.9051656279552
 21
149.9967061734514
 31
0.0
  0
LINE
  5
62C
330
E3
100
AcDbEntity
  8
0
  6
Continuous
100
AcDbLine
 10
148.9051656279552
 20
149.9967061734514
 30
0.0
 11
148.8949183406565
 21
149.9929561175962
 31
0.0
  0
ENDBLK
  5
E5
330
E3
100
AcDbEntity
  8
0
100
AcDbBlockEnd
  0
BLOCK
  5
632
330
631
100
AcDbEntity
  8
0
100
AcDbBlockBegin
  2
R-TRS7-06 BARGE DETAIL - HEAD_STORY_MARKER
 70
     0
 10
0.0
 20
0.0
 30
0.0
  3
R-TRS7-06 BARGE DETAIL - HEAD_STORY_MARKER
  1

  0
ENDBLK
  5
633
330
631
100
AcDbEntity
  8
0
100
AcDbBlockEnd
  0
ENDSEC
  0
SECTION
  2
ENTITIES
  0
HATCH
  5
3F
330
1F
100
AcDbEntity
  8
Doc_ Finishes
  6
Continuous
100
AcDbHatch
 10
0.0
 20
0.0
 30
0.0
210
0.0
220
0.0
230
1.0
  2
SOLID
 70
     1
 71
     0
 91
        1
 92
        3
 72
     0
 73
     1
 93
       54
 10
27.4117749414874
 20
16.87044408857867
 10
26.89356552397386
 20
16.5825499677378
 10
26.5480925789648
 20
16.29465584689693
 10
26.12584786839819
 20
16.02595466744544
 10
25.76118198199976
 20
15.60370995687884
 10
25.39651609560134
 20
15.33500877742737
 10
25.07023609198168
 20
14.89357112547136
 10
24.49444785029994
 20
14.45213347351537
 10
23.93785255000758
 20
14.02988876294876
 10
23.43883607388344
 20
13.81876640766546
 10
22.74789018386533
 20
13.39652169709885
 10
22.09533017662603
 20
12.99346992792163
 10
21.63469958328064
 20
12.55203227596564
 10
20.90536781048376
 20
12.12978756539902
 10
20.59828074825351
 20
11.7459287376112
 10
20.04168544796116
 20
11.28529814426581
 10
19.36993249933246
 20
10.8630534336992
 10
18.73656543348255
 20
10.42161578174319
 10
18.04561954346447
 20
10.15291460229172
 10
17.1051654153843
 20
9.692284008946325
 10
16.39502658397681
 20
9.020531060317637
 10
15.83843128368446
 20
8.598286349751023
 10
15.12829245227699
 20
8.137655756405634
 10
14.84039833143612
 20
7.98411222529051
 10
14.37976773809073
 20
7.81137575278599
 10
14.07268067586046
 20
7.523481631945121
 10
14.0151018516923
 20
7.216394569714853
 10
14.14945244141803
 20
6.890114566095209
 10
14.4373465622589
 20
6.563834562475543
 10
14.8787842142149
 20
6.659799269422514
 10
15.51215128006482
 20
7.06285103859973
 10
16.01116775618899
 20
7.389131042219374
 10
16.33744775980864
 20
7.696218104449641
 10
16.51018423231316
 20
7.907340459732938
 10
17.01303929671522
 20
8.421711288968723
 10
17.33548071205699
 20
8.652026585641417
 10
17.75004824606785
 20
8.99749953065046
 10
18.14158425041142
 20
9.204783297655894
 10
19.24709767444037
 20
9.75754000967037
 10
20.23745345013295
 20
10.47151742935572
 10
21.4120614631637
 20
11.1624633193738
 10
21.84966052684182
 20
11.64612544238645
 10
22.49454335752537
 20
12.06069297639732
 10
23.78430901889248
 20
12.9819541630881
 10
24.3600972605742
 20
13.25833251909534
 10
25.6498629219413
 20
14.24868829478776
 10
25.85714668894673
 20
14.64022429913134
 10
26.68628175696843
 20
15.23904407048036
 10
27.28510152831745
 20
15.72270619349301
 10
27.81482671066464
 20
16.1142421978366
 10
28.27545730401003
 20
16.52880973184745
 10
28.22939424467549
 20
16.7821565581874
 10
28.09120506667188
 20
16.89731420652375
 10
27.56147988432467
 20
16.89731420652375
 97
        0
 75
     0
 76
     1
 98
        0
  0
LINE
  5
41
330
1F
100
AcDbEntity
  8
Doc_ Finishes
  6
Continuous
100
AcDbLine
 10
27.41177566876475
 20
16.87044600708104
 30
0.0
 11
26.89356756490952
 21
16.58254868214004
 31
0.0
  0
LINE
  5
42
330
1F
100
AcDbEntity
  8
Doc_ Finishes
  6
Continuous
100
AcDbLine
 10
26.89356756490952
 20
16.58254868214004
 30
0.0
 11
26.54809254523997
 21
16.29465578284815
 31
0.0
  0
LINE
  5
43
330
1F
100
AcDbEntity
  8
Doc_ Finishes
  6
Continuous
100
AcDbLine
 10
26.54809254523997
 20
16.29465578284815
 30
0.0
 11
26.12584579071597
 21
16.02595249803305
 31
0.0
  0
LINE
  5
44
330
1F
100
AcDbEntity
  8
Doc_ Finishes
  6
Continuous
100
AcDbLine
 10
26.12584579071597
 20
16.02595249803305
 30
0.0
 11
25.76118115656963
 21
15.60371016915814
 31
0.0
  0
LINE
  5
45
330
1F
100
AcDbEntity
  8
Doc_ Finishes
  6
Continuous
100
AcDbLine
 10
25.76118115656963
 20
15.60371016915814
 30
0.0
 11
25.39651652242329
 21
15.33500688434304
 31
0.0
  0
LINE
  5
46
330
1F
100
AcDbEntity
  8
Doc_ Finishes
  6
Continuous
100
AcDbLine
 10
25.39651652242329
 20
15.33500688434304
 30
0.0
 11
25.07023554287962
 21
14.89357051534225
 31
0.0
  0
LINE
  5
47
330
1F
100
AcDbEntity
  8
Doc_ Finishes
  6
Continuous
100
AcDbLine
 10
25.07023554287962
 20
14.89357051534225
 30
0.0
 11
24.49444974429583
 21
14.45213414634146
 31
0.0
  0
LINE
  5
48
330
1F
100
AcDbEntity
  8
Doc_ Finishes
  6
Continuous
100
AcDbLine
 10
24.49444974429583
 20
14.45213414634146
 30
0.0
 11
23.93785356018882
 21
14.02988739181747
 31
0.0
  0
LINE
  5
49
330
1F
100
AcDbEntity
  8
Doc_ Finishes
  6
Continuous
100
AcDbLine
 10
23.93785356018882
 20
14.02988739181747
 30
0.0
 11
23.43883507081038
 21
13.81876622738001
 31
0.0
  0
LINE
  5
4A
330
1F
100
AcDbEntity
  8
Doc_ Finishes
  6
Continuous
100
AcDbLine
 10
23.43883507081038
 20
13.81876622738001
 30
0.0
 11
22.74788945712038
 21
13.39652389850511
 31
0.0
  0
LINE
  5
4B
330
1F
100
AcDbEntity
  8
Doc_ Finishes
  6
Continuous
100
AcDbLine
 10
22.74788945712038
 20
13.39652389850511
 30
0.0
 11
22.09533192368214
 21
12.993471184107
 31
0.0
  0
LINE
  5
4C
330
1F
100
AcDbEntity
  8
Doc_ Finishes
  6
Continuous
100
AcDbLine
 10
22.09533192368214
 20
12.993471184107
 30
0.0
 11
21.63470151455547
 21
12.55203038945712
 31
0.0
  0
LINE
  5
4D
330
1F
100
AcDbEntity
  8
Doc_ Finishes
  6
Continuous
100
AcDbLine
 10
21.63470151455547
 20
12.55203038945712
 30
0.0
 11
20.90536782061369
 21
12.12978806058222
 31
0.0
  0
LINE
  5
4E
330
1F
100
AcDbEntity
  8
Doc_ Finishes
  6
Continuous
100
AcDbLine
 10
20.90536782061369
 20
12.12978806058222
 30
0.0
 11
20.59828088119591
 21
11.74592938630999
 31
0.0
  0
LINE
  5
4F
330
1F
100
AcDbEntity
  8
Doc_ Finishes
  6
Continuous
100
AcDbLine
 10
20.59828088119591
 20
11.74592938630999
 30
0.0
 11
20.0416846970889
 21
11.28529897718332
 31
0.0
  0
LINE
  5
50
330
1F
100
AcDbEntity
  8
Doc_ Finishes
  6
Continuous
100
AcDbLine
 10
20.0416846970889
 20
11.28529897718332
 30
0.0
 11
19.36993312352478
 21
10.86305222265932
 31
0.0
  0
LINE
  5
51
330
1F
100
AcDbEntity
  8
Doc_ Finishes
  6
Continuous
100
AcDbLine
 10
19.36993312352478
 20
10.86305222265932
 30
0.0
 11
18.73656520456333
 21
10.42161585365854
 31
0.0
  0
LINE
  5
52
330
1F
100
AcDbEntity
  8
Doc_ Finishes
  6
Continuous
100
AcDbLine
 10
18.73656520456333
 20
10.42161585365854
 30
0.0
 11
18.04561959087333
 21
10.15291256884343
 31
0.0
  0
LINE
  5
53
330
1F
100
AcDbEntity
  8
Doc_ Finishes
  6
Continuous
100
AcDbLine
 10
18.04561959087333
 20
10.15291256884343
 30
0.0
 11
17.1051647324941
 21
9.692282159716758
 31
0.0
  0
LINE
  5
54
330
1F
100
AcDbEntity
  8
Doc_ Finishes
  6
Continuous
100
AcDbLine
 10
17.1051647324941
 20
9.692282159716758
 30
0.0
 11
16.3950250786782
 21
9.020530586152635
 31
0.0
  0
LINE
  5
55
330
1F
100
AcDbEntity
  8
Doc_ Finishes
  6
Continuous
100
AcDbLine
 10
16.3950250786782
 20
9.020530586152635
 30
0.0
 11
15.8384333202203
 21
8.598288257277733
 31
0.0
  0
LINE
  5
56
330
1F
100
AcDbEntity
  8
Doc_ Finishes
  6
Continuous
100
AcDbLine
 10
15.8384333202203
 20
8.598288257277733
 30
0.0
 11
15.1282936664044
 21
8.137657848151063
 31
0.0
  0
LINE
  5
57
330
1F
100
AcDbEntity
  8
Doc_ Finishes
  6
Continuous
100
AcDbLine
 10
15.1282936664044
 20
8.137657848151063
 30
0.0
 11
14.84039634146341
 21
7.984114378442171
 31
0.0
  0
LINE
  5
58
330
1F
100
AcDbEntity
  8
Doc_ Finishes
  6
Continuous
100
AcDbLine
 10
14.84039634146341
 20
7.984114378442171
 30
0.0
 11
14.37976593233674
 21
7.811376868607396
 31
0.0
  0
LINE
  5
59
330
1F
100
AcDbEntity
  8
Doc_ Finishes
  6
Continuous
100
AcDbLine
 10
14.37976593233674
 20
7.811376868607396
 30
0.0
 11
14.07267899291896
 21
7.523479543666405
 31
0.0
  0
LINE
  5
5A
330
1F
100
AcDbEntity
  8
Doc_ Finishes
  6
Continuous
100
AcDbLine
 10
14.07267899291896
 20
7.523479543666405
 30
0.0
 11
14.0151012981904
 21
7.216392604248622
 31
0.0
  0
LINE
  5
5B
330
1F
100
AcDbEntity
  8
Doc_ Finishes
  6
Continuous
100
AcDbLine
 10
14.0151012981904
 20
7.216392604248622
 30
0.0
 11
14.14945072777341
 21
6.890116050354051
 31
0.0
  0
LINE
  5
5C
330
1F
100
AcDbEntity
  8
Doc_ Finishes
  6
Continuous
100
AcDbLine
 10
14.14945072777341
 20
6.890116050354051
 30
0.0
 11
14.4373480527144
 21
6.563835070810386
 31
0.0
  0
LINE
  5
5D
330
1F
100
AcDbEntity
  8
Doc_ Finishes
  6
Continuous
100
AcDbLine
 10
14.4373480527144
 20
6.563835070810386
 30
0.0
 11
14.87878442171519
 21
6.659800845790715
 31
0.0
  0
LINE
  5
5E
330
1F
100
AcDbEntity
  8
Doc_ Finishes
  6
Continuous
100
AcDbLine
 10
14.87878442171519
 20
6.659800845790715
 30
0.0
 11
15.51215234067663
 21
7.062849134539732
 31
0.0
  0
LINE
  5
5F
330
1F
100
AcDbEntity
  8
Doc_ Finishes
  6
Continuous
100
AcDbLine
 10
15.51215234067663
 20
7.062849134539732
 30
0.0
 11
16.01116640440598
 21
7.389130114083398
 31
0.0
  0
LINE
  5
60
330
1F
100
AcDbEntity
  8
Doc_ Finishes
  6
Continuous
100
AcDbLine
 10
16.01116640440598
 20
7.389130114083398
 30
0.0
 11
16.33744738394964
 21
7.69621705350118
 31
0.0
  0
LINE
  5
61
330
1F
100
AcDbEntity
  8
Doc_ Finishes
  6
Continuous
100
AcDbLine
 10
16.33744738394964
 20
7.69621705350118
 30
0.0
 11
16.51018489378442
 21
7.907342643587726
 31
0.0
  0
LINE
  5
62
330
1F
100
AcDbEntity
  8
Doc_ Finishes
  6
Continuous
100
AcDbLine
 10
16.51018489378442
 20
7.907342643587726
 30
0.0
 11
17.0130404209284
 21
8.421709284028323
 31
0.0
  0
LINE
  5
63
330
1F
100
AcDbEntity
  8
Doc_ Finishes
  6
Continuous
100
AcDbLine
 10
17.0130404209284
 20
8.421709284028323
 30
0.0
 11
17.33547993705743
 21
8.65202448859166
 31
0.0
  0
LINE
  5
64
330
1F
100
AcDbEntity
  8
Doc_ Finishes
  6
Continuous
100
AcDbLine
 10
17.33547993705743
 20
8.65202448859166
 30
0.0
 11
17.75004819040126
 21
8.997499508261212
 31
0.0
  0
LINE
  5
65
330
1F
100
AcDbEntity
  8
Doc_ Finishes
  6
Continuous
100
AcDbLine
 10
17.75004819040126
 20
8.997499508261212
 30
0.0
 11
18.14158536585366
 21
9.204783634933122
 31
0.0
  0
LINE
  5
66
330
1F
100
AcDbEntity
  8
Doc_ Finishes
  6
Continuous
100
AcDbLine
 10
18.14158536585366
 20
9.204783634933122
 30
0.0
 11
19.24709923288749
 21
9.75753835562549
 31
0.0
  0
LINE
  5
67
330
1F
100
AcDbEntity
  8
Doc_ Finishes
  6
Continuous
100
AcDbLine
 10
19.24709923288749
 20
9.75753835562549
 30
0.0
 11
20.23745328481511
 21
10.47151947285602
 31
0.0
  0
LINE
  5
68
330
1F
100
AcDbEntity
  8
Doc_ Finishes
  6
Continuous
100
AcDbLine
 10
20.23745328481511
 20
10.47151947285602
 30
0.0
 11
21.41206038552321
 21
11.16246508654602
 31
0.0
  0
LINE
  5
69
330
1F
100
AcDbEntity
  8
Doc_ Finishes
  6
Continuous
100
AcDbLine
 10
21.41206038552321
 20
11.16246508654602
 30
0.0
 11
21.84965971675846
 21
11.64612657356412
 31
0.0
  0
LINE
  5
6A
330
1F
100
AcDbEntity
  8
Doc_ Finishes
  6
Continuous
100
AcDbLine
 10
21.84965971675846
 20
11.64612657356412
 30
0.0
 11
22.49454317466562
 21
12.06069482690795
 31
0.0
  0
LINE
  5
6B
330
1F
100
AcDbEntity
  8
Doc_ Finishes
  6
Continuous
100
AcDbLine
 10
22.49454317466562
 20
12.06069482690795
 30
0.0
 11
23.78431009047993
 21
12.98195564516129
 31
0.0
  0
LINE
  5
6C
330
1F
100
AcDbEntity
  8
Doc_ Finishes
  6
Continuous
100
AcDbLine
 10
23.78431009047993
 20
12.98195564516129
 30
0.0
 11
24.36009588906373
 21
13.25833300550747
 31
0.0
  0
LINE
  5
6D
330
1F
100
AcDbEntity
  8
Doc_ Finishes
  6
Continuous
100
AcDbLine
 10
24.36009588906373
 20
13.25833300550747
 30
0.0
 11
25.64986280487805
 21
14.24868705743509
 31
0.0
  0
LINE
  5
6E
330
1F
100
AcDbEntity
  8
Doc_ Finishes
  6
Continuous
100
AcDbLine
 10
25.64986280487805
 20
14.24868705743509
 30
0.0
 11
25.85714693154996
 21
14.64022423288749
 31
0.0
  0
LINE
  5
6F
330
1F
100
AcDbEntity
  8
Doc_ Finishes
  6
Continuous
100
AcDbLine
 10
25.85714693154996
 20
14.64022423288749
 30
0.0
 11
26.68628343823761
 21
15.2390455350118
 31
0.0
  0
LINE
  5
70
330
1F
100
AcDbEntity
  8
Doc_ Finishes
  6
Continuous
100
AcDbLine
 10
26.68628343823761
 20
15.2390455350118
 30
0.0
 11
27.28510031471282
 21
15.7227070220299
 31
0.0
  0
LINE
  5
71
330
1F
100
AcDbEntity
  8
Doc_ Finishes
  6
Continuous
100
AcDbLine
 10
27.28510031471282
 20
15.7227070220299
 30
0.0
 11
27.81482838316287
 21
16.1142441974823
 31
0.0
  0
LINE
  5
72
330
1F
100
AcDbEntity
  8
Doc_ Finishes
  6
Continuous
100
AcDbLine
 10
27.81482838316287
 20
16.1142441974823
 30
0.0
 11
28.27545879228953
 21
16.52880802517702
 31
0.0
  0
LINE
  5
73
330
1F
100
AcDbEntity
  8
Doc_ Finishes
  6
Continuous
100
AcDbLine
 10
28.27545879228953
 20
16.52880802517702
 30
0.0
 11
28.22939221085759
 21
16.78215873328088
 31
0.0
  0
LINE
  5
74
330
1F
100
AcDbEntity
  8
Doc_ Finishes
  6
Continuous
100
AcDbLine
 10
28.22939221085759
 20
16.78215873328088
 30
0.0
 11
28.09120574350905
 21
16.897314122738
 31
0.0
  0
LINE
  5
75
330
1F
100
AcDbEntity
  8
Doc_ Finishes
  6
Continuous
100
AcDbLine
 10
28.09120574350905
 20
16.897314122738
 30
0.0
 11
27.56147767505901
 21
16.897314122738
 31
0.0
  0
LINE
  5
76
330
1F
100
AcDbEntity
  8
Doc_ Finishes
  6
Continuous
100
AcDbLine
 10
27.56147767505901
 20
16.897314122738
 30
0.0
 11
27.41177566876475
 21
16.87044600708104
 31
0.0
  0
HATCH
  5
77
330
1F
100
AcDbEntity
  8
Doc_ Finishes
  6
Continuous
100
AcDbHatch
 10
0.0
 20
0.0
 30
0.0
210
0.0
220
0.0
230
1.0
  2
SOLID
 70
     1
 71
     0
 91
        1
 92
        3
 72
     0
 73
     1
 93
       39
 10
27.65360600299377
 20
13.12014334109181
 10
27.21600693931564
 20
12.77467039608275
 10
26.54809257896482
 20
12.24494521373555
 10
25.92624127794851
 20
11.85340920939199
 10
25.32742150659951
 20
11.32368402704478
 10
24.72860173525052
 20
11.04730567103754
 10
24.08371890456698
 20
10.56364354802488
 10
23.62308831122158
 20
10.33332825135219
 10
23.231552306878
 20
10.03391836567767
 10
22.81698477286715
 20
9.619350831666825
 10
22.40241723885631
 20
9.38903553499415
 10
21.91875511584363
 20
9.043562589985086
 10
21.66540828950367
 20
8.859310352646935
 10
21.25084075549282
 20
8.582931996639696
 10
20.09926427212933
 20
7.753796928618002
 10
19.75379132712029
 20
7.477418572610764
 10
19.2931607337749
 20
7.316197864939873
 10
19.22406614477309
 20
6.993756449598113
 10
19.3622553227767
 20
6.717378093590874
 10
19.63863367878394
 20
6.602220445254527
 10
20.00713815346026
 20
6.8325357419272
 10
20.26048497980021
 20
7.131945627601722
 10
20.55989486547472
 20
7.362260924274415
 10
21.31993534449462
 20
7.707733869283458
 10
21.84966052684182
 20
8.122301403294307
 10
22.88607936186895
 20
8.882341882314256
 10
23.20852077721072
 20
9.342972475659646
 10
24.01462431556515
 20
9.734508480003234
 10
24.5673810275796
 20
10.05694989534501
 10
25.46561068460312
 20
10.60970660735953
 10
25.88017821861399
 20
11.07033720070492
 10
26.31777728229212
 20
11.34671555671216
 10
26.70931328663569
 20
11.30065249737762
 10
27.21600693931562
 20
11.55399932371759
 10
28.0681735370046
 20
12.17585062473387
 10
28.41364648201364
 20
12.49829204007566
 10
28.39061495234636
 20
12.77467039608289
 10
28.22939424467547
 20
13.00498569275559
 10
28.04514200733732
 20
13.05104875209013
 97
        0
 75
     0
 76
     1
 98
        0
  0
LINE
  5
78
330
1F
100
AcDbEntity
  8
Doc_ Finishes
  6
Continuous
100
AcDbLine
 10
27.6536064122738
 20
13.12014211250983
 30
0.0
 11
27.21600708103855
 21
12.77467151848938
 31
0.0
  0
LINE
  5
79
330
1F
100
AcDbEntity
  8
Doc_ Finishes
  6
Continuous
100
AcDbLine
 10
27.21600708103855
 20
12.77467151848938
 30
0.0
 11
26.54809254523997
 21
12.24494345003934
 31
0.0
  0
LINE
  5
7A
330
1F
100
AcDbEntity
  8
Doc_ Finishes
  6
Continuous
100
AcDbLine
 10
26.54809254523997
 20
12.24494345003934
 30
0.0
 11
25.92624016522423
 21
11.85341070023603
 31
0.0
  0
LINE
  5
7B
330
1F
100
AcDbEntity
  8
Doc_ Finishes
  6
Continuous
100
AcDbLine
 10
25.92624016522423
 20
11.85341070023603
 30
0.0
 11
25.32742328874902
 21
11.32368263178599
 31
0.0
  0
LINE
  5
7C
330
1F
100
AcDbEntity
  8
Doc_ Finishes
  6
Continuous
100
AcDbLine
 10
25.32742328874902
 20
11.32368263178599
 30
0.0
 11
24.72860198662471
 21
11.04730527143981
 31
0.0
  0
LINE
  5
7D
330
1F
100
AcDbEntity
  8
Doc_ Finishes
  6
Continuous
100
AcDbLine
 10
24.72860198662471
 20
11.04730527143981
 30
0.0
 11
24.08371852871754
 21
10.56364378442171
 31
0.0
  0
LINE
  5
7E
330
1F
100
AcDbEntity
  8
Doc_ Finishes
  6
Continuous
100
AcDbLine
 10
24.08371852871754
 20
10.56364378442171
 30
0.0
 11
23.62308811959087
 21
10.33332857985838
 31
0.0
  0
LINE
  5
7F
330
1F
100
AcDbEntity
  8
Doc_ Finishes
  6
Continuous
100
AcDbLine
 10
23.62308811959087
 20
10.33332857985838
 30
0.0
 11
23.23155094413847
 21
10.03392014162077
 31
0.0
  0
LINE
  5
80
330
1F
100
AcDbEntity
  8
Doc_ Finishes
  6
Continuous
100
AcDbLine
 10
23.23155094413847
 20
10.03392014162077
 30
0.0
 11
22.81698269079465
 21
9.619351888276947
 31
0.0
  0
LINE
  5
81
330
1F
100
AcDbEntity
  8
Doc_ Finishes
  6
Continuous
100
AcDbLine
 10
22.81698269079465
 20
9.619351888276947
 30
0.0
 11
22.40241886309992
 21
9.389036683713611
 31
0.0
  0
LINE
  5
82
330
1F
100
AcDbEntity
  8
Doc_ Finishes
  6
Continuous
100
AcDbLine
 10
22.40241886309992
 20
9.389036683713611
 30
0.0
 11
21.91875295043273
 21
9.04356166404406
 31
0.0
  0
LINE
  5
83
330
1F
100
AcDbEntity
  8
Doc_ Finishes
  6
Continuous
100
AcDbLine
 10
21.91875295043273
 20
9.04356166404406
 30
0.0
 11
21.66540666797797
 21
8.859308615263572
 31
0.0
  0
LINE
  5
84
330
1F
100
AcDbEntity
  8
Doc_ Finishes
  6
Continuous
100
AcDbLine
 10
21.66540666797797
 20
8.859308615263572
 30
0.0
 11
21.25084284028324
 21
8.582931254917387
 31
0.0
  0
LINE
  5
85
330
1F
100
AcDbEntity
  8
Doc_ Finishes
  6
Continuous
100
AcDbLine
 10
21.25084284028324
 20
8.582931254917387
 30
0.0
 11
20.09926239181747
 21
7.75379474822974
 31
0.0
  0
LINE
  5
86
330
1F
100
AcDbEntity
  8
Doc_ Finishes
  6
Continuous
100
AcDbLine
 10
20.09926239181747
 20
7.75379474822974
 30
0.0
 11
19.75379179779701
 21
7.477417387883556
 31
0.0
  0
LINE
  5
87
330
1F
100
AcDbEntity
  8
Doc_ Finishes
  6
Continuous
100
AcDbLine
 10
19.75379179779701
 20
7.477417387883556
 30
0.0
 11
19.29316138867033
 21
7.316199842643588
 31
0.0
  0
LINE
  5
88
330
1F
100
AcDbEntity
  8
Doc_ Finishes
  6
Continuous
100
AcDbLine
 10
19.29316138867033
 20
7.316199842643588
 30
0.0
 11
19.22406815499606
 21
6.993755900865461
 31
0.0
  0
LINE
  5
89
330
1F
100
AcDbEntity
  8
Doc_ Finishes
  6
Continuous
100
AcDbLine
 10
19.22406815499606
 20
6.993755900865461
 30
0.0
 11
19.36225462234461
 21
6.717378540519276
 31
0.0
  0
LINE
  5
8A
330
1F
100
AcDbEntity
  8
Doc_ Finishes
  6
Continuous
100
AcDbLine
 10
19.36225462234461
 20
6.717378540519276
 30
0.0
 11
19.63863198269079
 21
6.602218725413059
 31
0.0
  0
LINE
  5
8B
330
1F
100
AcDbEntity
  8
Doc_ Finishes
  6
Continuous
100
AcDbLine
 10
19.63863198269079
 20
6.602218725413059
 30
0.0
 11
20.00713808025177
 21
6.832533929976396
 31
0.0
  0
LINE
  5
8C
330
1F
100
AcDbEntity
  8
Doc_ Finishes
  6
Continuous
100
AcDbLine
 10
20.00713808025177
 20
6.832533929976396
 30
0.0
 11
20.26048436270653
 21
7.1319467938631
 31
0.0
  0
LINE
  5
8D
330
1F
100
AcDbEntity
  8
Doc_ Finishes
  6
Continuous
100
AcDbLine
 10
20.26048436270653
 20
7.1319467938631
 30
0.0
 11
20.55989280094414
 21
7.362261998426435
 31
0.0
  0
LINE
  5
8E
330
1F
100
AcDbEntity
  8
Doc_ Finishes
  6
Continuous
100
AcDbLine
 10
20.55989280094414
 20
7.362261998426435
 30
0.0
 11
21.31993607395751
 21
7.707732592446892
 31
0.0
  0
LINE
  5
8F
330
1F
100
AcDbEntity
  8
Doc_ Finishes
  6
Continuous
100
AcDbLine
 10
21.31993607395751
 20
7.707732592446892
 30
0.0
 11
21.84965971675846
 21
8.122300845790717
 31
0.0
  0
LINE
  5
90
330
1F
100
AcDbEntity
  8
Doc_ Finishes
  6
Continuous
100
AcDbLine
 10
21.84965971675846
 20
8.122300845790717
 30
0.0
 11
22.88608035011802
 21
8.882339693154996
 31
0.0
  0
LINE
  5
91
330
1F
100
AcDbEntity
  8
Doc_ Finishes
  6
Continuous
100
AcDbLine
 10
22.88608035011802
 20
8.882339693154996
 30
0.0
 11
23.20851986624705
 21
9.342974527930762
 31
0.0
  0
LINE
  5
92
330
1F
100
AcDbEntity
  8
Doc_ Finishes
  6
Continuous
100
AcDbLine
 10
23.20851986624705
 20
9.342974527930762
 30
0.0
 11
24.01462529504327
 21
9.734507277734066
 31
0.0
  0
LINE
  5
93
330
1F
100
AcDbEntity
  8
Doc_ Finishes
  6
Continuous
100
AcDbLine
 10
24.01462529504327
 20
9.734507277734066
 30
0.0
 11
24.56738001573564
 21
10.05695121951219
 31
0.0
  0
LINE
  5
94
330
1F
100
AcDbEntity
  8
Doc_ Finishes
  6
Continuous
100
AcDbLine
 10
24.56738001573564
 20
10.05695121951219
 30
0.0
 11
25.46560975609756
 21
10.60970594020456
 31
0.0
  0
LINE
  5
95
330
1F
100
AcDbEntity
  8
Doc_ Finishes
  6
Continuous
100
AcDbLine
 10
25.46560975609756
 20
10.60970594020456
 30
0.0
 11
25.88017800944139
 21
11.07033634933124
 31
0.0
  0
LINE
  5
96
330
1F
100
AcDbEntity
  8
Doc_ Finishes
  6
Continuous
100
AcDbLine
 10
25.88017800944139
 20
11.07033634933124
 30
0.0
 11
26.31777734067663
 21
11.34671370967742
 31
0.0
  0
LINE
  5
97
330
1F
100
AcDbEntity
  8
Doc_ Finishes
  6
Continuous
100
AcDbLine
 10
26.31777734067663
 20
11.34671370967742
 30
0.0
 11
26.70931451612903
 21
11.30065155389457
 31
0.0
  0
LINE
  5
98
330
1F
100
AcDbEntity
  8
Doc_ Finishes
  6
Continuous
100
AcDbLine
 10
26.70931451612903
 20
11.30065155389457
 30
0.0
 11
27.21600708103855
 21
11.55399783634933
 31
0.0
  0
LINE
  5
99
330
1F
100
AcDbEntity
  8
Doc_ Finishes
  6
Continuous
100
AcDbLine
 10
27.21600708103855
 20
11.55399783634933
 30
0.0
 11
28.06817466561763
 21
12.17585021636507
 31
0.0
  0
LINE
  5
9A
330
1F
100
AcDbEntity
  8
Doc_ Finishes
  6
Continuous
100
AcDbLine
 10
28.06817466561763
 20
12.17585021636507
 30
0.0
 11
28.41364525963808
 21
12.49829415814319
 31
0.0
  0
LINE
  5
9B
330
1F
100
AcDbEntity
  8
Doc_ Finishes
  6
Continuous
100
AcDbLine
 10
28.41364525963808
 20
12.49829415814319
 30
0.0
 11
28.39061418174666
 21
12.77467151848938
 31
0.0
  0
LINE
  5
9C
330
1F
100
AcDbEntity
  8
Doc_ Finishes
  6
Continuous
100
AcDbLine
 10
28.39061418174666
 20
12.77467151848938
 30
0.0
 11
28.22939221085759
 21
13.00498672305271
 31
0.0
  0
LINE
  5
9D
330
1F
100
AcDbEntity
  8
Doc_ Finishes
  6
Continuous
100
AcDbLine
 10
28.22939221085759
 20
13.00498672305271
 30
0.0
 11
28.04514358772619
 21
13.05104887883556
 31
0.0
  0
LINE
  5
9E
330
1F
100
AcDbEntity
  8
Doc_ Finishes
  6
Continuous
100
AcDbLine
 10
28.04514358772619
 20
13.05104887883556
 30
0.0
 11
27.6536064122738
 21
13.12014211250983
 31
0.0
  0
HATCH
  5
9F
330
1F
100
AcDbEntity
  8
Doc_ Finishes
  6
Continuous
100
AcDbHatch
 10
0.0
 20
0.0
 30
0.0
210
0.0
220
0.0
230
1.0
  2
SOLID
 70
     1
 71
     0
 91
        1
 92
        3
 72
     0
 73
     1
 93
       47
 10
28.06817353700456
 20
15.74573772316067
 10
28.30309513961077
 20
15.62136746295728
 10
28.4412843176144
 20
15.4002647781515
 10
28.93876535842742
 20
15.17916209334572
 10
29.82317609765057
 20
14.40530269652538
 10
30.92868952167951
 20
13.74199464210799
 10
31.59199757609689
 20
13.3827027792986
 10
32.20002995931279
 20
13.07868658769064
 10
33.55428390374828
 20
12.08372450606458
 10
34.07940278016201
 20
11.69679480765445
 10
34.88090001258301
 20
11.08876242443854
 10
35.59948373820179
 20
10.50836787682334
 10
36.5668079842271
 20
9.817421986805197
 10
37.06428902504012
 20
9.458130123995785
 10
37.81051058625966
 20
8.933011247582023
 10
38.61200781868061
 20
8.407892371168286
 10
38.77783483228498
 20
8.186789686362482
 10
39.38586721550092
 20
7.744584316750918
 10
40.18736444792187
 20
6.915449248729224
 10
40.7953968311378
 20
6.44560604351692
 10
41.56925622795804
 20
6.169227687509681
 10
42.23256428237543
 20
6.086314180707507
 10
42.48130480278193
 20
6.30741686551329
 10
42.14965077557326
 20
6.611433057121246
 10
41.48634272115586
 20
6.998362755531397
 10
40.76775899553709
 20
7.357654618340788
 10
40.18736444792187
 20
8.048600508358874
 10
38.99893751709079
 20
8.822459905179112
 10
38.47381864067705
 20
9.319940945992132
 10
38.22507812027052
 20
9.734508480003
 10
37.17484036744301
 20
10.31490302761817
 10
36.73263499783144
 20
10.78474623283046
 10
36.2351539570184
 20
11.17167593124059
 10
35.48893239579888
 20
11.61388130085215
 10
34.85326217698223
 20
12.16663801286669
 10
34.35578113616919
 20
12.58120554687754
 10
33.69247308175183
 20
12.99577308088841
 10
33.22262987653953
 20
13.32742710809708
 10
32.7251488357265
 20
13.5761676285036
 10
31.93747052110588
 20
14.06443605744977
 10
31.43077686842594
 20
14.38687747279155
 10
30.92408321574601
 20
14.70931888813342
 10
30.62467333007151
 20
15.100854892477
 10
29.95675896972068
 20
15.67664313415887
 10
29.47309684670803
 20
15.9530214901661
 10
28.82821401602447
 20
16.36758902417695
 10
28.50577260068269
 20
16.22939984617334
 97
        0
 75
     0
 76
     1
 98
        0
  0
LINE
  5
A0
330
1F
100
AcDbEntity
  8
Doc_ Finishes
  6
Continuous
100
AcDbLine
 10
28.30309697088906
 20
15.62136850904799
 30
0.0
 11
28.06817466561763
 21
15.74573809992132
 31
0.0
  0
LINE
  5
A1
330
1F
100
AcDbEntity
  8
Doc_ Finishes
  6
Continuous
100
AcDbLine
 10
28.44128343823761
 20
15.40026308025177
 30
0.0
 11
28.30309697088906
 21
15.62136850904799
 31
0.0
  0
LINE
  5
A2
330
1F
100
AcDbEntity
  8
Doc_ Finishes
  6
Continuous
100
AcDbLine
 10
28.93876622738001
 20
15.17916207710464
 30
0.0
 11
28.44128343823761
 21
15.40026308025177
 31
0.0
  0
LINE
  5
A3
330
1F
100
AcDbEntity
  8
Doc_ Finishes
  6
Continuous
100
AcDbLine
 10
29.82317466561762
 20
14.40530192761605
 30
0.0
 11
28.93876622738001
 21
15.17916207710464
 31
0.0
  0
LINE
  5
A4
330
1F
100
AcDbEntity
  8
Doc_ Finishes
  6
Continuous
100
AcDbLine
 10
30.92868853265146
 20
13.74199449252557
 30
0.0
 11
29.82317466561762
 21
14.40530192761605
 31
0.0
  0
LINE
  5
A5
330
1F
100
AcDbEntity
  8
Doc_ Finishes
  6
Continuous
100
AcDbLine
 10
31.59199596774193
 20
13.3827025963808
 30
0.0
 11
30.92868853265146
 21
13.74199449252557
 31
0.0
  0
LINE
  5
A6
330
1F
100
AcDbEntity
  8
Doc_ Finishes
  6
Continuous
100
AcDbLine
 10
32.20003147128246
 20
13.07868705743509
 30
0.0
 11
31.59199596774193
 21
13.3827025963808
 31
0.0
  0
LINE
  5
A7
330
1F
100
AcDbEntity
  8
Doc_ Finishes
  6
Continuous
100
AcDbLine
 10
33.55428452006294
 20
12.08372590479937
 30
0.0
 11
32.20003147128246
 21
13.07868705743509
 31
0.0
  0
LINE
  5
A8
330
1F
100
AcDbEntity
  8
Doc_ Finishes
  6
Continuous
100
AcDbLine
 10
34.07940106215578
 20
11.69679583005508
 30
0.0
 11
33.55428452006294
 21
12.08372590479937
 31
0.0
  0
LINE
  5
A9
330
1F
100
AcDbEntity
  8
Doc_ Finishes
  6
Continuous
100
AcDbLine
 10
34.8808993902439
 20
11.08876032651456
 30
0.0
 11
34.07940106215578
 21
11.69679583005508
 31
0.0
  0
LINE
  5
AA
330
1F
100
AcDbEntity
  8
Doc_ Finishes
  6
Continuous
100
AcDbLine
 10
35.59948318253343
 20
10.50836742722266
 30
0.0
 11
34.8808993902439
 21
11.08876032651456
 31
0.0
  0
LINE
  5
AB
330
1F
100
AcDbEntity
  8
Doc_ Finishes
  6
Continuous
100
AcDbLine
 10
36.56680615656963
 20
9.817421813532652
 30
0.0
 11
35.59948318253343
 21
10.50836742722266
 31
0.0
  0
LINE
  5
AC
330
1F
100
AcDbEntity
  8
Doc_ Finishes
  6
Continuous
100
AcDbLine
 10
37.06428894571204
 20
9.458129917387884
 30
0.0
 11
36.56680615656963
 21
9.817421813532652
 31
0.0
  0
LINE
  5
AD
330
1F
100
AcDbEntity
  8
Doc_ Finishes
  6
Continuous
100
AcDbLine
 10
37.8105109166011
 20
8.933013375295044
 30
0.0
 11
37.06428894571204
 21
9.458129917387884
 31
0.0
  0
LINE
  5
AE
330
1F
100
AcDbEntity
  8
Doc_ Finishes
  6
Continuous
100
AcDbLine
 10
38.61200924468922
 20
8.407892407553108
 30
0.0
 11
37.8105109166011
 21
8.933013375295044
 31
0.0
  0
LINE
  5
AF
330
1F
100
AcDbEntity
  8
Doc_ Finishes
  6
Continuous
100
AcDbLine
 10
38.77783389063729
 20
8.18679140440598
 30
0.0
 11
38.61200924468922
 21
8.407892407553108
 31
0.0
  0
LINE
  5
B0
330
1F
100
AcDbEntity
  8
Doc_ Finishes
  6
Continuous
100
AcDbLine
 10
39.3858693941778
 20
7.744584972462627
 30
0.0
 11
38.77783389063729
 21
8.18679140440598
 31
0.0
  0
LINE
  5
B1
330
1F
100
AcDbEntity
  8
Doc_ Finishes
  6
Continuous
100
AcDbLine
 10
40.18736329661684
 20
6.915448465774981
 30
0.0
 11
39.3858693941778
 21
7.744584972462627
 31
0.0
  0
LINE
  5
B2
330
1F
100
AcDbEntity
  8
Doc_ Finishes
  6
Continuous
100
AcDbLine
 10
40.79539880015735
 20
6.4456038552321
 30
0.0
 11
40.18736329661684
 21
6.915448465774981
 31
0.0
  0
LINE
  5
B3
330
1F
100
AcDbEntity
  8
Doc_ Finishes
  6
Continuous
100
AcDbLine
 10
41.56925452399685
 20
6.169226494885916
 30
0.0
 11
40.79539880015735
 21
6.4456038552321
 31
0.0
  0
LINE
  5
B4
330
1F
100
AcDbEntity
  8
Doc_ Finishes
  6
Continuous
100
AcDbLine
 10
42.23256638473643
 20
6.086316384736428
 30
0.0
 11
41.56925452399685
 21
6.169226494885916
 31
0.0
  0
LINE
  5
B5
330
1F
100
AcDbEntity
  8
Doc_ Finishes
  6
Continuous
100
AcDbLine
 10
42.48130556648308
 20
6.307417387883556
 30
0.0
 11
42.23256638473643
 21
6.086316384736428
 31
0.0
  0
LINE
  5
B6
330
1F
100
AcDbEntity
  8
Doc_ Finishes
  6
Continuous
100
AcDbLine
 10
42.14965184893784
 20
6.611432926829268
 30
0.0
 11
42.48130556648308
 21
6.307417387883556
 31
0.0
  0
LINE
  5
B7
330
1F
100
AcDbEntity
  8
Doc_ Finishes
  6
Continuous
100
AcDbLine
 10
41.48634441384736
 20
6.998363001573564
 30
0.0
 11
42.14965184893784
 21
6.611432926829268
 31
0.0
  0
LINE
  5
B8
330
1F
100
AcDbEntity
  8
Doc_ Finishes
  6
Continuous
100
AcDbLine
 10
40.76776062155783
 20
7.357654897718332
 30
0.0
 11
41.48634441384736
 21
6.998363001573564
 31
0.0
  0
LINE
  5
B9
330
1F
100
AcDbEntity
  8
Doc_ Finishes
  6
Continuous
100
AcDbLine
 10
40.18736329661684
 20
8.048600511408338
 30
0.0
 11
40.76776062155783
 21
7.357654897718332
 31
0.0
  0
LINE
  5
BA
330
1F
100
AcDbEntity
  8
Doc_ Finishes
  6
Continuous
100
AcDbLine
 10
38.99893931943352
 20
8.822460660896931
 30
0.0
 11
40.18736329661684
 21
8.048600511408338
 31
0.0
  0
LINE
  5
BB
330
1F
100
AcDbEntity
  8
Doc_ Finishes
  6
Continuous
100
AcDbLine
 10
38.47381835169158
 20
9.319939024390242
 30
0.0
 11
38.99893931943352
 21
8.822460660896931
 31
0.0
  0
LINE
  5
BC
330
1F
100
AcDbEntity
  8
Doc_ Finishes
  6
Continuous
100
AcDbLine
 10
38.22507916994492
 20
9.734507277734066
 30
0.0
 11
38.47381835169158
 21
9.319939024390242
 31
0.0
  0
LINE
  5
BD
330
1F
100
AcDbEntity
  8
Doc_ Finishes
  6
Continuous
100
AcDbLine
 10
37.17484166011014
 20
10.31490460267506
 30
0.0
 11
38.22507916994492
 21
9.734507277734066
 31
0.0
  0
LINE
  5
BE
330
1F
100
AcDbEntity
  8
Doc_ Finishes
  6
Continuous
100
AcDbLine
 10
36.7326352281668
 20
10.78474478756884
 30
0.0
 11
37.17484166011014
 21
10.31490460267506
 31
0.0
  0
LINE
  5
BF
330
1F
100
AcDbEntity
  8
Doc_ Finishes
  6
Continuous
100
AcDbLine
 10
36.23515243902439
 20
11.17167486231314
 30
0.0
 11
36.7326352281668
 21
10.78474478756884
 31
0.0
  0
LINE
  5
C0
330
1F
100
AcDbEntity
  8
Doc_ Finishes
  6
Continuous
100
AcDbLine
 10
35.48893046813532
 20
11.61388129425649
 30
0.0
 11
36.23515243902439
 21
11.17167486231314
 31
0.0
  0
LINE
  5
C1
330
1F
100
AcDbEntity
  8
Doc_ Finishes
  6
Continuous
100
AcDbLine
 10
34.85326121164437
 20
12.16663601494886
 30
0.0
 11
35.48893046813532
 21
11.61388129425649
 31
0.0
  0
LINE
  5
C2
330
1F
100
AcDbEntity
  8
Doc_ Finishes
  6
Continuous
100
AcDbLine
 10
34.35578284815106
 20
12.58120426829268
 30
0.0
 11
34.85326121164437
 21
12.16663601494886
 31
0.0
  0
LINE
  5
C3
330
1F
100
AcDbEntity
  8
Doc_ Finishes
  6
Continuous
100
AcDbLine
 10
33.69247098741149
 20
12.99577252163651
 30
0.0
 11
34.35578284815106
 21
12.58120426829268
 31
0.0
  0
LINE
  5
C4
330
1F
100
AcDbEntity
  8
Doc_ Finishes
  6
Continuous
100
AcDbLine
 10
33.2226308025177
 20
13.32742623918175
 30
0.0
 11
33.69247098741149
 21
12.99577252163651
 31
0.0
  0
LINE
  5
C5
330
1F
100
AcDbEntity
  8
Doc_ Finishes
  6
Continuous
100
AcDbLine
 10
32.7251480133753
 20
13.5761654209284
 30
0.0
 11
33.2226308025177
 21
13.32742623918175
 31
0.0
  0
LINE
  5
C6
330
1F
100
AcDbEntity
  8
Doc_ Finishes
  6
Continuous
100
AcDbLine
 10
31.93747098741148
 20
14.0644340086546
 30
0.0
 11
32.7251480133753
 21
13.5761654209284
 31
0.0
  0
LINE
  5
C7
330
1F
100
AcDbEntity
  8
Doc_ Finishes
  6
Continuous
100
AcDbLine
 10
31.43077842250197
 20
14.38687795043273
 30
0.0
 11
31.93747098741148
 21
14.0644340086546
 31
0.0
  0
LINE
  5
C8
330
1F
100
AcDbEntity
  8
Doc_ Finishes
  6
Continuous
100
AcDbLine
 10
30.92408143194335
 20
14.70931746656176
 30
0.0
 11
31.43077842250197
 21
14.38687795043273
 31
0.0
  0
LINE
  5
C9
330
1F
100
AcDbEntity
  8
Doc_ Finishes
  6
Continuous
100
AcDbLine
 10
30.62467299370574
 20
15.10085464201416
 30
0.0
 11
30.92408143194335
 21
14.70931746656176
 31
0.0
  0
LINE
  5
CA
330
1F
100
AcDbEntity
  8
Doc_ Finishes
  6
Continuous
100
AcDbLine
 10
29.95675845790716
 20
15.67664486624705
 30
0.0
 11
30.62467299370574
 21
15.10085464201416
 31
0.0
  0
LINE
  5
CB
330
1F
100
AcDbEntity
  8
Doc_ Finishes
  6
Continuous
100
AcDbLine
 10
29.47309697088906
 20
15.95302222659323
 30
0.0
 11
29.95675845790716
 21
15.67664486624705
 31
0.0
  0
LINE
  5
CC
330
1F
100
AcDbEntity
  8
Doc_ Finishes
  6
Continuous
100
AcDbLine
 10
28.8282135129819
 20
16.36759047993706
 30
0.0
 11
29.47309697088906
 21
15.95302222659323
 31
0.0
  0
LINE
  5
CD
330
1F
100
AcDbEntity
  8
Doc_ Finishes
  6
Continuous
100
AcDbLine
 10
28.50577399685287
 20
16.22939958693942
 30
0.0
 11
28.8282135129819
 21
16.36759047993706
 31
0.0
  0
LINE
  5
CE
330
1F
100
AcDbEntity
  8
Doc_ Finishes
  6
Continuous
100
AcDbLine
 10
28.06817466561763
 20
15.74573809992132
 30
0.0
 11
28.50577399685287
 21
16.22939958693942
 31
0.0
  0
LINE
  5
CF
330
1F
100
AcDbEntity
  8
Doc_ Finishes
  6
Continuous
 62
   254
370
    18
100
AcDbLine
 10
97.43333792289535
 20
5.093360051140834
 30
0.0
 11
97.43333792289535
 21
20.69901750590086
 31
0.0
  0
LINE
  5
D0
330
1F
100
AcDbEntity
  8
Doc_ Finishes
  6
Continuous
 62
   254
370
    18
100
AcDbLine
 10
7.000000491738787
 20
20.69901750590086
 30
0.0
 11
290.2406840086546
 21
20.69901750590086
 31
0.0
  0
LINE
  5
D1
330
1F
100
AcDbEntity
  8
Doc_ Finishes
  6
Continuous
 62
   254
370
    18
100
AcDbLine
 10
290.2406840086546
 20
20.69901750590086
 30
0.0
 11
290.2406840086546
 21
5.000000983477577
 31
0.0
  0
LINE
  5
D2
330
1F
100
AcDbEntity
  8
Doc_ Finishes
  6
Continuous
 62
   254
370
    18
100
AcDbLine
 10
290.2406840086546
 20
5.000000983477577
 30
0.0
 11
7.000000491738787
 21
5.000000983477577
 31
0.0
  0
LINE
  5
D3
330
1F
100
AcDbEntity
  8
Doc_ Finishes
  6
Continuous
 62
   254
370
    18
100
AcDbLine
 10
7.000000491738787
 20
20.69901750590086
 30
0.0
 11
7.000000491738787
 21
5.000000983477577
 31
0.0
  0
LINE
  5
D4
330
1F
100
AcDbEntity
  8
Doc_ Finishes
  6
Continuous
 62
   254
370
    18
100
AcDbLine
 10
190.2919443351691
 20
5.093360051140834
 30
0.0
 11
190.2919443351691
 21
20.69901750590086
 31
0.0
  0
LINE
  5
D5
330
1F
100
AcDbEntity
  8
Doc_ Finishes
  6
Continuous
 62
   254
370
    18
100
AcDbLine
 10
190.2919443351691
 20
12.8961909913454
 30
0.0
 11
290.2406840086546
 21
12.8961909913454
 31
0.0
  0
MTEXT
  5
D7
330
1F
100
AcDbEntity
  8
0
  6
Continuous
100
AcDbMText
 10
210.3494767103412
 20
15.00227993155626
 30
0.0
 40
2.25
 41
0.0
 71
     7
 72
     1
  1
{R-TRS7-06}
  7
GENERATED_STYLE_1
 73
     1
 44
1.0
  0
MTEXT
  5
D8
330
1F
100
AcDbEntity
  8
0
  6
Continuous
100
AcDbMText
 10
210.3494767103412
 20
11.03300550383743
 30
0.0
 40
3.0
 41
0.0
 71
     1
 72
     1
  1
{BARGE DETAIL - HEAD}
  7
GENERATED_STYLE_1
 73
     1
 44
1.0
  0
MTEXT
  5
DA
330
1F
100
AcDbEntity
  8
Doc_ Floor
  6
Continuous
100
AcDbMText
 10
29.78353726544612
 20
13.33283672870609
 30
0.0
 40
5.603347280334726
 41
0.0
 71
     1
 72
     1
  1
{The Roofing Store}
  7
GENERATED_STYLE_2
 73
     1
 44
1.0
  0
MTEXT
  5
DC
102
{ACAD_XDICTIONARY
360
65F
102
}
330
1F
100
AcDbEntity
  8
0
  6
Continuous
100
AcDbMText
 10
102.7389238446655
 20
6.378784417288156
 30
0.0
 40
1.5
 41
0.0
 71
     7
 72
     1
  1
{P: HEAD OFFICE              09 277 2717\P    ALBANY             09 972 0060\P    KATIKAIT            07 549 5190\P    WELLINGTON              04 974 5792\P    CHRISTCHURCH          03 348 6528}
  7
GENERATED_STYLE_1
 73
     1
 44
1.062946161486498
  0
MTEXT
  5
DD
330
1F
100
AcDbEntity
  8
0
  6
Continuous
100
AcDbMText
 10
149.4184566143587
 20
9.199084231526156
 30
0.0
 40
1.5
 41
0.0
 71
     7
 72
     1
  1
{WEB: www.theroofingstore.co.nz}
  7
GENERATED_STYLE_1
 73
     1
 44
1.0
  0
MTEXT
  5
DE
330
1F
100
AcDbEntity
  8
0
  6
Continuous
100
AcDbMText
 10
149.4184566143587
 20
6.620946023411263
 30
0.0
 40
1.5
 41
0.0
 71
     7
 72
     1
  1
{Copyright \U+00A9 The Roofing Store 2013}
  7
GENERATED_STYLE_1
 73
     1
 44
1.0
  0
MTEXT
  5
DF
330
1F
100
AcDbEntity
  8
0
  6
Continuous
100
AcDbMText
 10
273.9546684065315
 20
15.01594826540159
 30
0.0
 40
2.25
 41
0.0
 71
     7
 72
     1
  1
{1:5}
  7
GENERATED_STYLE_1
 73
     1
 44
1.0
  0
MTEXT
  5
E0
330
1F
100
AcDbEntity
  8
0
  6
Continuous
100
AcDbMText
 10
264.8396605309016
 20
15.51746459162148
 30
0.0
 40
1.5
 41
0.0
 71
     7
 72
     1
  1
{SCALE:}
  7
GENERATED_STYLE_1
 73
     1
 44
1.0
  0
MTEXT
  5
E1
330
1F
100
AcDbEntity
  8
0
  6
Continuous
100
AcDbMText
 10
191.5066235617487
 20
15.48695559872207
 30
0.0
 40
1.5
 41
0.0
 71
     7
 72
     1
  1
{DETAIL NUMBER:}
  7
GENERATED_STYLE_1
 73
     1
 44
1.0
  0
MTEXT
  5
E2
330
1F
100
AcDbEntity
  8
0
  6
Continuous
100
AcDbMText
 10
191.5066235617487
 20
9.005462392315325
 30
0.0
 40
1.5
 41
0.0
 71
     7
 72
     1
  1
{TITLE:}
  7
GENERATED_STYLE_1
 73
     1
 44
1.0
  0
INSERT
  5
62D
102
{ACAD_XDICTIONARY
360
62E
102
}
330
1F
100
AcDbEntity
  8
0
  6
Continuous
100
AcDbBlockReference
  2
Drawing_1_2
 10
107.2260115974659
 20
-35.16744529250214
 30
0.0
  0
ENDSEC
  0
SECTION
  2
OBJECTS
  0
DICTIONARY
  5
C
330
0
100
AcDbDictionary
281
     1
  3
ACAD_GROUP
350
D
  3
ACAD_LAYOUT
350
1A
  3
ACAD_MATERIAL
350
3B
  3
ACAD_MLEADERSTYLE
350
65A
  3
ACAD_MLINESTYLE
350
17
  3
ACAD_PLOTSETTINGS
350
19
  3
ACAD_PLOTSTYLENAME
350
E
  3
ACAD_SCALELIST
350
634
  3
ACAD_VISUALSTYLE
350
2A
  3
AcDbVariableDictionary
350
658
  3
WATERMARKS
350
656
  0
DICTIONARY
  5
65F
330
DC
100
AcDbDictionary
280
     1
281
     1
  3
ACAD_MTEXT_RT
360
660
  0
DICTIONARY
  5
62E
330
62D
100
AcDbDictionary
280
     1
281
     1
  3
ACAD_FILTER
360
62F
  0
DICTIONARY
  5
D
102
{ACAD_REACTORS
330
C
102
}
330
C
100
AcDbDictionary
281
     1
  0
DICTIONARY
  5
1A
102
{ACAD_REACTORS
330
C
102
}
330
C
100
AcDbDictionary
281
     1
  3
Layout1
350
1E
  3
Model
350
22
  0
DICTIONARY
  5
3B
102
{ACAD_REACTORS
330
C
102
}
330
C
100
AcDbDictionary
281
     1
  3
ByBlock
350
3D
  3
ByLayer
350
3C
  3
Global
350
3E
  0
DICTIONARY
  5
65A
102
{ACAD_REACTORS
330
C
102
}
330
C
100
AcDbDictionary
281
     1
  0
DICTIONARY
  5
17
102
{ACAD_REACTORS
330
C
102
}
330
C
100
AcDbDictionary
281
     1
  3
Standard
350
18
  0
DICTIONARY
  5
19
102
{ACAD_REACTORS
330
C
102
}
330
C
100
AcDbDictionary
281
     1
  0
ACDBDICTIONARYWDFLT
  5
E
102
{ACAD_REACTORS
330
C
102
}
330
C
100
AcDbDictionary
281
     1
  3
Normal
350
F
100
AcDbDictionaryWithDefault
340
F
  0
DICTIONARY
  5
634
102
{ACAD_REACTORS
330
C
102
}
330
C
100
AcDbDictionary
281
     1
  3
A0
350
635
  3
A1
350
636
  3
A2
350
637
  3
A3
350
638
  3
A4
350
639
  3
A5
350
63A
  3
A6
350
63B
  3
A7
350
63C
  3
A8
350
63D
  3
A9
350
63E
  3
B0
350
63F
  3
B1
350
640
  3
B2
350
641
  3
B3
350
642
  3
B4
350
643
  3
B5
350
644
  3
B6
350
645
  3
B7
350
646
  3
B8
350
647
  3
B9
350
648
  3
C0
350
649
  3
C1
350
64A
  3
C2
350
64B
  3
C3
350
64C
  3
C4
350
64D
  3
C5
350
64E
  3
C6
350
64F
  3
C7
350
650
  3
C8
350
651
  3
C9
350
652
  3
D0
350
653
  3
D1
350
654
  3
D2
350
655
  0
DICTIONARY
  5
2A
102
{ACAD_REACTORS
330
C
102
}
330
C
100
AcDbDictionary
281
     1
  3
2dWireframe
350
2F
  3
3D Hidden
350
31
  3
3dWireframe
350
30
  3
Basic
350
32
  3
Brighten
350
36
  3
ColorChange
350
3A
  3
Conceptual
350
34
  3
Dim
350
35
  3
Facepattern
350
39
  3
Flat
350
2B
  3
FlatWithEdges
350
2C
  3
Gouraud
350
2D
  3
GouraudWithEdges
350
2E
  3
Linepattern
350
38
  3
Realistic
350
33
  3
Thicken
350
37
  0
DICTIONARY
  5
658
102
{ACAD_REACTORS
330
C
102
}
330
C
100
AcDbDictionary
281
     1
  3
CANNOSCALE
350
65C
  3
DIMASSOC
350
65D
  3
HIDETEXT
350
65E
  3
XCLIPFRAME
350
65B
  0
DICTIONARY
  5
656
102
{ACAD_REACTORS
330
C
102
}
330
C
100
AcDbDictionary
281
     1
  3
AC_WATERMARK
350
657
  0
XRECORD
  5
660
102
{ACAD_REACTORS
330
65F
102
}
330
65F
100
AcDbXrecord
280
     1
 40
956118.0
  1
{P: HEAD OFFICE ^I^I09 277 2717\P    ALBANY ^I^I09 972 0060\P    KATIKAIT^I^I07 549 5190\P    WELLINGTON^I^I04 974 5792\P    CHRISTCHURCH^I^I03 348 6528}
  0
DICTIONARY
  5
62F
102
{ACAD_REACTORS
330
62E
102
}
330
62E
100
AcDbDictionary
280
     1
281
     1
  3
SPATIAL
360
630
  0
LAYOUT
  5
1E
102
{ACAD_REACTORS
330
1A
102
}
330
1A
100
AcDbPlotSettings
  1

  2
none_device
  4

  6

 40
0.0
 41
0.0
 42
0.0
 43
0.0
 44
0.0
 45
0.0
 46
0.0
 47
0.0
 48
0.0
 49
0.0
140
0.0
141
0.0
142
1.0
143
1.0
 70
   688
 72
     0
 73
     0
 74
     5
  7

 75
    16
147
1.0
148
0.0
149
0.0
100
AcDbLayout
  1
Layout1
 70
     1
 71
     1
 10
0.0
 20
0.0
 11
12.0
 21
9.0
 12
0.0
 22
0.0
 32
0.0
 14
1.000000000000000E+20
 24
1.000000000000000E+20
 34
1.000000000000000E+20
 15
-1.000000000000000E+20
 25
-1.000000000000000E+20
 35
-1.000000000000000E+20
146
0.0
 13
0.0
 23
0.0
 33
0.0
 16
1.0
 26
0.0
 36
0.0
 17
0.0
 27
1.0
 37
0.0
 76
     0
330
1B
  0
LAYOUT
  5
22
102
{ACAD_REACTORS
330
1A
102
}
330
1A
100
AcDbPlotSettings
  1

  2
none_device
  4

  6

 40
0.0
 41
0.0
 42
0.0
 43
0.0
 44
0.0
 45
0.0
 46
0.0
 47
0.0
 48
0.0
 49
0.0
140
0.0
141
0.0
142
1.0
143
1.0
 70
  1712
 72
     0
 73
     0
 74
     0
  7

 75
     0
147
1.0
148
0.0
149
0.0
100
AcDbLayout
  1
Model
 70
     1
 71
     0
 10
0.0
 20
0.0
 11
12.0
 21
9.0
 12
0.0
 22
0.0
 32
0.0
 14
1.000000000000000E+20
 24
1.000000000000000E+20
 34
1.000000000000000E+20
 15
-1.000000000000000E+20
 25
-1.000000000000000E+20
 35
-1.000000000000000E+20
146
0.0
 13
0.0
 23
0.0
 33
0.0
 16
1.0
 26
0.0
 36
0.0
 17
0.0
 27
1.0
 37
0.0
 76
     0
330
1F
331
29
  0
MATERIAL
  5
3D
102
{ACAD_REACTORS
330
3B
102
}
102
{ACAD_XDICTIONARY
360
683
102
}
330
3B
100
AcDbMaterial
  1
ByBlock
  0
MATERIAL
  5
3C
102
{ACAD_REACTORS
330
3B
102
}
102
{ACAD_XDICTIONARY
360
681
102
}
330
3B
100
AcDbMaterial
  1
ByLayer
  0
MATERIAL
  5
3E
102
{ACAD_REACTORS
330
3B
102
}
102
{ACAD_XDICTIONARY
360
685
102
}
330
3B
100
AcDbMaterial
  1
Global
  0
MLINESTYLE
  5
18
102
{ACAD_REACTORS
330
17
102
}
330
17
100
AcDbMlineStyle
  2
Standard
 70
     0
  3

 62
   256
 51
90.0
 52
90.0
 71
     2
 49
0.5
 62
   256
  6
BYLAYER
 49
-0.5
 62
   256
  6
BYLAYER
  0
ACDBPLACEHOLDER
  5
F
102
{ACAD_REACTORS
330
E
102
}
330
E
  0
SCALE
  5
635
102
{ACAD_REACTORS
330
634
102
}
330
634
100
AcDbScale
 70
     0
300
1:1
140
1.0
141
1.0
290
     1
  0
SCALE
  5
636
102
{ACAD_REACTORS
330
634
102
}
330
634
100
AcDbScale
 70
     0
300
1:2
140
1.0
141
2.0
290
     0
  0
SCALE
  5
637
102
{ACAD_REACTORS
330
634
102
}
330
634
100
AcDbScale
 70
     0
300
1:4
140
1.0
141
4.0
290
     0
  0
SCALE
  5
638
102
{ACAD_REACTORS
330
634
102
}
330
634
100
AcDbScale
 70
     0
300
1:5
140
1.0
141
5.0
290
     0
  0
SCALE
  5
639
102
{ACAD_REACTORS
330
634
102
}
330
634
100
AcDbScale
 70
     0
300
1:8
140
1.0
141
8.0
290
     0
  0
SCALE
  5
63A
102
{ACAD_REACTORS
330
634
102
}
330
634
100
AcDbScale
 70
     0
300
1:10
140
1.0
141
10.0
290
     0
  0
SCALE
  5
63B
102
{ACAD_REACTORS
330
634
102
}
330
634
100
AcDbScale
 70
     0
300
1:16
140
1.0
141
16.0
290
     0
  0
SCALE
  5
63C
102
{ACAD_REACTORS
330
634
102
}
330
634
100
AcDbScale
 70
     0
300
1:20
140
1.0
141
20.0
290
     0
  0
SCALE
  5
63D
102
{ACAD_REACTORS
330
634
102
}
330
634
100
AcDbScale
 70
     0
300
1:30
140
1.0
141
30.0
290
     0
  0
SCALE
  5
63E
102
{ACAD_REACTORS
330
634
102
}
330
634
100
AcDbScale
 70
     0
300
1:40
140
1.0
141
40.0
290
     0
  0
SCALE
  5
63F
102
{ACAD_REACTORS
330
634
102
}
330
634
100
AcDbScale
 70
     0
300
1:50
140
1.0
141
50.0
290
     0
  0
SCALE
  5
640
102
{ACAD_REACTORS
330
634
102
}
330
634
100
AcDbScale
 70
     0
300
1:100
140
1.0
141
100.0
290
     0
  0
SCALE
  5
641
102
{ACAD_REACTORS
330
634
102
}
330
634
100
AcDbScale
 70
     0
300
2:1
140
2.0
141
1.0
290
     0
  0
SCALE
  5
642
102
{ACAD_REACTORS
330
634
102
}
330
634
100
AcDbScale
 70
     0
300
4:1
140
4.0
141
1.0
290
     0
  0
SCALE
  5
643
102
{ACAD_REACTORS
330
634
102
}
330
634
100
AcDbScale
 70
     0
300
8:1
140
8.0
141
1.0
290
     0
  0
SCALE
  5
644
102
{ACAD_REACTORS
330
634
102
}
330
634
100
AcDbScale
 70
     0
300
10:1
140
10.0
141
1.0
290
     0
  0
SCALE
  5
645
102
{ACAD_REACTORS
330
634
102
}
330
634
100
AcDbScale
 70
     0
300
100:1
140
100.0
141
1.0
290
     0
  0
SCALE
  5
646
102
{ACAD_REACTORS
330
634
102
}
330
634
100
AcDbScale
 70
     0
300
1/128" = 1'-0"
140
0.0078125
141
12.0
290
     0
  0
SCALE
  5
647
102
{ACAD_REACTORS
330
634
102
}
330
634
100
AcDbScale
 70
     0
300
1/64" = 1'-0"
140
0.015625
141
12.0
290
     0
  0
SCALE
  5
648
102
{ACAD_REACTORS
330
634
102
}
330
634
100
AcDbScale
 70
     0
300
1/32" = 1'-0"
140
0.03125
141
12.0
290
     0
  0
SCALE
  5
649
102
{ACAD_REACTORS
330
634
102
}
330
634
100
AcDbScale
 70
     0
300
1/16" = 1'-0"
140
0.0625
141
12.0
290
     0
  0
SCALE
  5
64A
102
{ACAD_REACTORS
330
634
102
}
330
634
100
AcDbScale
 70
     0
300
3/32" = 1'-0"
140
0.09375
141
12.0
290
     0
  0
SCALE
  5
64B
102
{ACAD_REACTORS
330
634
102
}
330
634
100
AcDbScale
 70
     0
300
1/8" = 1'-0"
140
0.125
141
12.0
290
     0
  0
SCALE
  5
64C
102
{ACAD_REACTORS
330
634
102
}
330
634
100
AcDbScale
 70
     0
300
3/16" = 1'-0"
140
0.1875
141
12.0
290
     0
  0
SCALE
  5
64D
102
{ACAD_REACTORS
330
634
102
}
330
634
100
AcDbScale
 70
     0
300
1/4" = 1'-0"
140
0.25
141
12.0
290
     0
  0
SCALE
  5
64E
102
{ACAD_REACTORS
330
634
102
}
330
634
100
AcDbScale
 70
     0
300
3/8" = 1'-0"
140
0.375
141
12.0
290
     0
  0
SCALE
  5
64F
102
{ACAD_REACTORS
330
634
102
}
330
634
100
AcDbScale
 70
     0
300
1/2" = 1'-0"
140
0.5
141
12.0
290
     0
  0
SCALE
  5
650
102
{ACAD_REACTORS
330
634
102
}
330
634
100
AcDbScale
 70
     0
300
3/4" = 1'-0"
140
0.75
141
12.0
290
     0
  0
SCALE
  5
651
102
{ACAD_REACTORS
330
634
102
}
330
634
100
AcDbScale
 70
     0
300
1" = 1'-0"
140
1.0
141
12.0
290
     0
  0
SCALE
  5
652
102
{ACAD_REACTORS
330
634
102
}
330
634
100
AcDbScale
 70
     0
300
1-1/2" = 1'-0"
140
1.5
141
12.0
290
     0
  0
SCALE
  5
653
102
{ACAD_REACTORS
330
634
102
}
330
634
100
AcDbScale
 70
     0
300
3" = 1'-0"
140
3.0
141
12.0
290
     0
  0
SCALE
  5
654
102
{ACAD_REACTORS
330
634
102
}
330
634
100
AcDbScale
 70
     0
300
6" = 1'-0"
140
6.0
141
12.0
290
     0
  0
SCALE
  5
655
102
{ACAD_REACTORS
330
634
102
}
330
634
100
AcDbScale
 70
     0
300
1'-0" = 1'-0"
140
12.0
141
12.0
290
     0
  0
VISUALSTYLE
  5
2F
102
{ACAD_REACTORS
330
2A
102
}
102
{ACAD_XDICTIONARY
360
669
102
}
330
2A
100
AcDbVisualStyle
  2
2dWireframe
 70
     4
 71
     0
 72
     2
 73
     0
 90
        0
 40
-0.6
 41
-30.0
 62
     5
 63
     7
 74
     1
 91
        4
 64
     7
 65
   257
 75
     1
175
     1
 42
1.0
 92
        0
 66
   257
 43
1.0
 76
     1
 77
     6
 78
     2
 67
     7
 79
     5
170
     0
171
     0
290
     0
174
     0
 93
        1
 44
0.0
173
     0
291
     0
 45
0.0
1001
ACAD
1000
AcDbSavedByObjectVersion
1070
     0
  0
VISUALSTYLE
  5
31
102
{ACAD_REACTORS
330
2A
102
}
102
{ACAD_XDICTIONARY
360
66D
102
}
330
2A
100
AcDbVisualStyle
  2
3D Hidden
 70
     6
 71
     1
 72
     2
 73
     2
 90
        0
 40
-0.6
 41
-30.0
 62
     5
 63
     7
 74
     2
 91
        2
 64
     7
 65
   257
 75
     2
175
     1
 42
40.0
 92
        0
 66
   257
 43
1.0
 76
     1
 77
     6
 78
     2
 67
     7
 79
     3
170
     0
171
     0
290
     0
174
     0
 93
        1
 44
0.0
173
     0
291
     0
 45
0.0
1001
ACAD
1000
AcDbSavedByObjectVersion
1070
     0
  0
VISUALSTYLE
  5
30
102
{ACAD_REACTORS
330
2A
102
}
102
{ACAD_XDICTIONARY
360
66B
102
}
330
2A
100
AcDbVisualStyle
  2
3dWireframe
 70
     5
 71
     0
 72
     2
 73
     0
 90
        0
 40
-0.6
 41
-30.0
 62
     5
 63
     7
 74
     1
 91
        4
 64
     7
 65
   257
 75
     1
175
     1
 42
1.0
 92
        0
 66
   257
 43
1.0
 76
     1
 77
     6
 78
     2
 67
     7
 79
     5
170
     0
171
     0
290
     0
174
     0
 93
        1
 44
0.0
173
     0
291
     0
 45
0.0
1001
ACAD
1000
AcDbSavedByObjectVersion
1070
     0
  0
VISUALSTYLE
  5
32
102
{ACAD_REACTORS
330
2A
102
}
102
{ACAD_XDICTIONARY
360
66F
102
}
330
2A
100
AcDbVisualStyle
  2
Basic
 70
     7
 71
     1
 72
     0
 73
     1
 90
        0
 40
-0.6
 41
-30.0
 62
     5
 63
     7
 74
     0
 91
        4
 64
     7
 65
   257
 75
     1
175
     1
 42
1.0
 92
        8
 66
     7
 43
1.0
 76
     1
 77
     6
 78
     2
 67
     7
 79
     5
170
     0
171
     0
290
     0
174
     0
 93
        1
 44
0.0
173
     0
291
     1
 45
0.0
1001
ACAD
1000
AcDbSavedByObjectVersion
1070
     0
  0
VISUALSTYLE
  5
36
102
{ACAD_REACTORS
330
2A
102
}
102
{ACAD_XDICTIONARY
360
677
102
}
330
2A
100
AcDbVisualStyle
  2
Brighten
 70
    12
 71
     2
 72
     2
 73
     0
 90
        0
 40
-0.6
 41
-30.0
 62
     5
 63
     7
 74
     1
 91
        4
 64
     7
 65
   257
 75
     1
175
     1
 42
1.0
 92
        8
 66
     7
 43
1.0
 76
     1
 77
     6
 78
     2
 67
     7
 79
     5
170
     0
171
     0
290
     0
174
     0
 93
        1
 44
50.0
173
     0
291
     1
 45
0.0
1001
ACAD
1000
AcDbSavedByObjectVersion
1070
     0
  0
VISUALSTYLE
  5
3A
102
{ACAD_REACTORS
330
2A
102
}
102
{ACAD_XDICTIONARY
360
67F
102
}
330
2A
100
AcDbVisualStyle
  2
ColorChange
 70
    16
 71
     2
 72
     2
 73
     3
 90
        0
 40
-0.6
 41
-30.0
 62
     5
 63
     8
 74
     1
 91
        4
 64
     7
 65
   257
 75
     1
175
     1
 42
1.0
 92
        8
 66
     8
 43
1.0
 76
     1
 77
     6
 78
     2
 67
     7
 79
     5
170
     0
171
     0
290
     0
174
     0
 93
        1
 44
0.0
173
     0
291
     1
 45
0.0
1001
ACAD
1000
AcDbSavedByObjectVersion
1070
     0
  0
VISUALSTYLE
  5
34
102
{ACAD_REACTORS
330
2A
102
}
102
{ACAD_XDICTIONARY
360
673
102
}
330
2A
100
AcDbVisualStyle
  2
Conceptual
 70
     9
 71
     3
 72
     2
 73
     0
 90
        0
 40
-0.6
 41
-30.0
 62
     5
 63
     7
 74
     2
 91
        2
 64
     7
 65
   257
 75
     1
175
     1
 42
40.0
 92
        8
 66
     7
 43
1.0
 76
     1
 77
     6
 78
     2
 67
     7
 79
     3
170
     0
171
     0
290
     0
174
     0
 93
        1
 44
0.0
173
     0
291
     0
 45
0.0
1001
ACAD
1000
AcDbSavedByObjectVersion
1070
     0
  0
VISUALSTYLE
  5
35
102
{ACAD_REACTORS
330
2A
102
}
102
{ACAD_XDICTIONARY
360
675
102
}
330
2A
100
AcDbVisualStyle
  2
Dim
 70
    11
 71
     2
 72
     2
 73
     0
 90
        0
 40
-0.6
 41
-30.0
 62
     5
 63
     7
 74
     1
 91
        4
 64
     7
 65
   257
 75
     1
175
     1
 42
1.0
 92
        8
 66
     7
 43
1.0
 76
     1
 77
     6
 78
     2
 67
     7
 79
     5
170
     0
171
     0
290
     0
174
     0
 93
        1
 44
-50.0
173
     0
291
     1
 45
0.0
1001
ACAD
1000
AcDbSavedByObjectVersion
1070
     0
  0
VISUALSTYLE
  5
39
102
{ACAD_REACTORS
330
2A
102
}
102
{ACAD_XDICTIONARY
360
67D
102
}
330
2A
100
AcDbVisualStyle
  2
Facepattern
 70
    15
 71
     2
 72
     2
 73
     0
 90
        0
 40
-0.6
 41
-30.0
 62
     5
 63
     7
 74
     1
 91
        4
 64
     7
 65
   257
 75
     1
175
     1
 42
1.0
 92
        8
 66
     7
 43
1.0
 76
     1
 77
     6
 78
     2
 67
     7
 79
     5
170
     0
171
     0
290
     0
174
     0
 93
        1
 44
0.0
173
     0
291
     1
 45
0.0
1001
ACAD
1000
AcDbSavedByObjectVersion
1070
     0
  0
VISUALSTYLE
  5
2B
102
{ACAD_REACTORS
330
2A
102
}
102
{ACAD_XDICTIONARY
360
661
102
}
330
2A
100
AcDbVisualStyle
  2
Flat
 70
     0
 71
     2
 72
     1
 73
     1
 90
        2
 40
-0.6
 41
30.0
 62
     5
 63
     7
 74
     0
 91
        4
 64
     7
 65
   257
 75
     1
175
     1
 42
1.0
 92
        8
 66
     7
 43
1.0
 76
     1
 77
     6
 78
     2
 67
     7
 79
     5
170
     0
171
     0
290
     0
174
     0
 93
       13
 44
0.0
173
     0
291
     1
 45
0.0
1001
ACAD
1000
AcDbSavedByObjectVersion
1070
     0
  0
VISUALSTYLE
  5
2C
102
{ACAD_REACTORS
330
2A
102
}
102
{ACAD_XDICTIONARY
360
663
102
}
330
2A
100
AcDbVisualStyle
  2
FlatWithEdges
 70
     1
 71
     2
 72
     1
 73
     1
 90
        2
 40
-0.6
 41
30.0
 62
     5
 63
     7
 74
     1
 91
        4
 64
     7
 65
   257
 75
     1
175
     1
 42
1.0
 92
        0
 66
   257
 43
1.0
 76
     1
 77
     6
 78
     2
 67
     7
 79
     5
170
     0
171
     0
290
     0
174
     0
 93
       13
 44
0.0
173
     0
291
     1
 45
0.0
1001
ACAD
1000
AcDbSavedByObjectVersion
1070
     0
  0
VISUALSTYLE
  5
2D
102
{ACAD_REACTORS
330
2A
102
}
102
{ACAD_XDICTIONARY
360
665
102
}
330
2A
100
AcDbVisualStyle
  2
Gouraud
 70
     2
 71
     2
 72
     2
 73
     1
 90
        2
 40
-0.6
 41
30.0
 62
     5
 63
     7
 74
     0
 91
        4
 64
     7
 65
   257
 75
     1
175
     1
 42
1.0
 92
        0
 66
     7
 43
1.0
 76
     1
 77
     6
 78
     2
 67
     7
 79
     5
170
     0
171
     0
290
     0
174
     0
 93
       13
 44
0.0
173
     0
291
     1
 45
0.0
1001
ACAD
1000
AcDbSavedByObjectVersion
1070
     0
  0
VISUALSTYLE
  5
2E
102
{ACAD_REACTORS
330
2A
102
}
102
{ACAD_XDICTIONARY
360
667
102
}
330
2A
100
AcDbVisualStyle
  2
GouraudWithEdges
 70
     3
 71
     2
 72
     2
 73
     1
 90
        2
 40
-0.6
 41
30.0
 62
     5
 63
     7
 74
     1
 91
        4
 64
     7
 65
   257
 75
     1
175
     1
 42
1.0
 92
        0
 66
   257
 43
1.0
 76
     1
 77
     6
 78
     2
 67
     7
 79
     5
170
     0
171
     0
290
     0
174
     0
 93
       13
 44
0.0
173
     0
291
     1
 45
0.0
1001
ACAD
1000
AcDbSavedByObjectVersion
1070
     0
  0
VISUALSTYLE
  5
38
102
{ACAD_REACTORS
330
2A
102
}
102
{ACAD_XDICTIONARY
360
67B
102
}
330
2A
100
AcDbVisualStyle
  2
Linepattern
 70
    14
 71
     2
 72
     2
 73
     0
 90
        0
 40
-0.6
 41
-30.0
 62
     5
 63
     7
 74
     1
 91
        4
 64
     7
 65
   257
 75
     7
175
     7
 42
1.0
 92
        8
 66
     7
 43
1.0
 76
     1
 77
     6
 78
     2
 67
     7
 79
     5
170
     0
171
     0
290
     0
174
     0
 93
        1
 44
0.0
173
     0
291
     1
 45
0.0
1001
ACAD
1000
AcDbSavedByObjectVersion
1070
     0
  0
VISUALSTYLE
  5
33
102
{ACAD_REACTORS
330
2A
102
}
102
{ACAD_XDICTIONARY
360
671
102
}
330
2A
100
AcDbVisualStyle
  2
Realistic
 70
     8
 71
     2
 72
     2
 73
     0
 90
        0
 40
-0.6
 41
-30.0
 62
     5
 63
     7
 74
     1
 91
        0
 64
     7
 65
   257
 75
     1
175
     1
 42
1.0
 92
        8
 66
     8
 43
1.0
 76
     1
 77
     6
 78
     2
 67
     7
 79
     5
170
     0
171
     0
290
     0
174
     0
 93
       13
 44
0.0
173
     0
291
     0
 45
0.0
1001
ACAD
1000
AcDbSavedByObjectVersion
1070
     0
  0
VISUALSTYLE
  5
37
102
{ACAD_REACTORS
330
2A
102
}
102
{ACAD_XDICTIONARY
360
679
102
}
330
2A
100
AcDbVisualStyle
  2
Thicken
 70
    13
 71
     2
 72
     2
 73
     0
 90
        0
 40
-0.6
 41
-30.0
 62
     5
 63
     7
 74
     1
 91
        4
 64
     7
 65
   257
 75
     1
175
     1
 42
1.0
 92
       12
 66
     7
 43
1.0
 76
     1
 77
     6
 78
     2
 67
     7
 79
     5
170
     0
171
     0
290
     0
174
     0
 93
        1
 44
0.0
173
     0
291
     1
 45
0.0
1001
ACAD
1000
AcDbSavedByObjectVersion
1070
     0
  0
DICTIONARYVAR
  5
65C
102
{ACAD_REACTORS
330
658
102
}
330
658
100
DictionaryVariables
280
     0
  1
1:1
  0
DICTIONARYVAR
  5
65D
102
{ACAD_REACTORS
330
658
102
}
330
658
100
DictionaryVariables
280
     0
  1
2
  0
DICTIONARYVAR
  5
65E
102
{ACAD_REACTORS
330
658
102
}
330
658
100
DictionaryVariables
280
     0
  1
1
  0
DICTIONARYVAR
  5
65B
102
{ACAD_REACTORS
330
658
102
}
330
658
100
DictionaryVariables
280
     0
  1
0
  0
XRECORD
  5
657
102
{ACAD_REACTORS
330
656
102
}
330
656
100
AcDbXrecord
280
     1
1000
This DWG file was created in ArchiCAD(TM)®
  0
SPATIAL_FILTER
  5
630
102
{ACAD_REACTORS
330
62F
102
}
330
62F
100
AcDbFilter
100
AcDbSpatialFilter
 70
     4
 10
27.93050918650632
 20
32.4027913472007
 10
268.2951208156427
 20
32.4027913472007
 10
268.2951208156427
 20
191.9941743031082
 10
27.93050918650632
 20
191.9941743031082
210
0.0
220
0.0
230
1.0
 11
0.0
 21
0.0
 31
0.0
 71
     1
 72
     0
 73
     0
 40
1.0
 40
0.0
 40
0.0
 40
0.0
 40
0.0
 40
1.0
 40
0.0
 40
0.0
 40
0.0
 40
0.0
 40
1.0
 40
0.0
 40
1.0
 40
0.0
 40
0.0
 40
0.0
 40
0.0
 40
1.0
 40
0.0
 40
0.0
 40
0.0
 40
0.0
 40
1.0
 40
0.0
  0
DICTIONARY
  5
683
330
3D
100
AcDbDictionary
280
     1
281
     1
  3
ACAD_XREC_ROUNDTRIP
360
684
  0
DICTIONARY
  5
681
330
3C
100
AcDbDictionary
280
     1
281
     1
  3
ACAD_XREC_ROUNDTRIP
360
682
  0
DICTIONARY
  5
685
330
3E
100
AcDbDictionary
280
     1
281
     1
  3
ACAD_XREC_ROUNDTRIP
360
686
  0
DICTIONARY
  5
669
330
2F
100
AcDbDictionary
280
     1
281
     1
  3
ACAD_XREC_ROUNDTRIP
360
66A
  0
DICTIONARY
  5
66D
330
31
100
AcDbDictionary
280
     1
281
     1
  3
ACAD_XREC_ROUNDTRIP
360
66E
  0
DICTIONARY
  5
66B
330
30
100
AcDbDictionary
280
     1
281
     1
  3
ACAD_XREC_ROUNDTRIP
360
66C
  0
DICTIONARY
  5
66F
330
32
100
AcDbDictionary
280
     1
281
     1
  3
ACAD_XREC_ROUNDTRIP
360
670
  0
DICTIONARY
  5
677
330
36
100
AcDbDictionary
280
     1
281
     1
  3
ACAD_XREC_ROUNDTRIP
360
678
  0
DICTIONARY
  5
67F
330
3A
100
AcDbDictionary
280
     1
281
     1
  3
ACAD_XREC_ROUNDTRIP
360
680
  0
DICTIONARY
  5
673
330
34
100
AcDbDictionary
280
     1
281
     1
  3
ACAD_XREC_ROUNDTRIP
360
674
  0
DICTIONARY
  5
675
330
35
100
AcDbDictionary
280
     1
281
     1
  3
ACAD_XREC_ROUNDTRIP
360
676
  0
DICTIONARY
  5
67D
330
39
100
AcDbDictionary
280
     1
281
     1
  3
ACAD_XREC_ROUNDTRIP
360
67E
  0
DICTIONARY
  5
661
330
2B
100
AcDbDictionary
280
     1
281
     1
  3
ACAD_XREC_ROUNDTRIP
360
662
  0
DICTIONARY
  5
663
330
2C
100
AcDbDictionary
280
     1
281
     1
  3
ACAD_XREC_ROUNDTRIP
360
664
  0
DICTIONARY
  5
665
330
2D
100
AcDbDictionary
280
     1
281
     1
  3
ACAD_XREC_ROUNDTRIP
360
666
  0
DICTIONARY
  5
667
330
2E
100
AcDbDictionary
280
     1
281
     1
  3
ACAD_XREC_ROUNDTRIP
360
668
  0
DICTIONARY
  5
67B
330
38
100
AcDbDictionary
280
     1
281
     1
  3
ACAD_XREC_ROUNDTRIP
360
67C
  0
DICTIONARY
  5
671
330
33
100
AcDbDictionary
280
     1
281
     1
  3
ACAD_XREC_ROUNDTRIP
360
672
  0
DICTIONARY
  5
679
330
37
100
AcDbDictionary
280
     1
281
     1
  3
ACAD_XREC_ROUNDTRIP
360
67A
  0
XRECORD
  5
684
102
{ACAD_REACTORS
330
683
102
}
330
683
100
AcDbXrecord
280
     1
102
MATERIAL
148
0.0
149
0.0
149
0.0
 93
        0
 94
      127
282
     0
 72
     1
 77
     1
171
     1
175
     1
179
     1
273
     0
  0
XRECORD
  5
682
102
{ACAD_REACTORS
330
681
102
}
330
681
100
AcDbXrecord
280
     1
102
MATERIAL
148
0.0
149
0.0
149
0.0
 93
        0
 94
      127
282
     0
 72
     1
 77
     1
171
     1
175
     1
179
     1
273
     0
  0
XRECORD
  5
686
102
{ACAD_REACTORS
330
685
102
}
330
685
100
AcDbXrecord
280
     1
102
MATERIAL
148
0.0
149
0.0
149
0.0
 93
        0
 94
      127
282
     0
 72
     1
 77
     1
171
     1
175
     1
179
     1
273
     0
  0
XRECORD
  5
66A
102
{ACAD_REACTORS
330
669
102
}
330
669
100
AcDbXrecord
280
     1
102
RTVSPropertyOp0
 70
     1
102
RTVSPropertyOp1
 70
     1
102
RTVSPropertyOp2
 70
     1
102
RTVSPropertyOp3
 70
     1
102
RTVSPropertyOp4
 70
     1
102
RTVSPropertyOp5
 70
     1
102
RTVSPropertyOp6
 70
     1
102
RTVSPropertyOp7
 70
     1
102
RTVSPropertyOp8
 70
     1
102
RTVSPropertyOp9
 70
     1
102
RTVSPropertyOp10
 70
     1
102
RTVSPropertyOp11
 70
     1
102
RTVSPropertyOp12
 70
     1
102
RTVSPropertyOp13
 70
     1
102
RTVSPropertyOp14
 70
     1
102
RTVSPropertyOp15
 70
     1
102
RTVSPropertyOp16
 70
     1
102
RTVSPropertyOp17
 70
     1
102
RTVSPropertyOp18
 70
     1
102
RTVSPropertyOp19
 70
     1
102
RTVSPropertyOp20
 70
     1
102
RTVSPropertyOp21
 70
     1
102
RTVSPropertyOp22
 70
     1
102
RTVSPropertyOp23
 70
     1
102
RTVSPropertyOp24
 70
     1
102
RTVSPropertyOp25
 70
     1
102
RTVSPropertyOp26
 70
     1
102
RTVSPropertyOp27
 70
     1
102
RTVSPropertyOp28
 70
     1
102
RTVSPropertyOp29
 70
     1
102
RTVSPropertyOp30
 70
     1
102
RTVSPropertyOp31
 70
     1
102
RTVSPropertyOp32
 70
     1
  0
XRECORD
  5
66E
102
{ACAD_REACTORS
330
66D
102
}
330
66D
100
AcDbXrecord
280
     1
102
RTVSPropertyOp0
 70
     1
102
RTVSPropertyOp1
 70
     1
102
RTVSPropertyOp2
 70
     1
102
RTVSPropertyOp3
 70
     1
102
RTVSPropertyOp4
 70
     1
102
RTVSPropertyOp5
 70
     1
102
RTVSPropertyOp6
 70
     1
102
RTVSPropertyOp7
 70
     1
102
RTVSPropertyOp8
 70
     1
102
RTVSPropertyOp9
 70
     1
102
RTVSPropertyOp10
 70
     1
102
RTVSPropertyOp11
 70
     1
102
RTVSPropertyOp12
 70
     1
102
RTVSPropertyOp13
 70
     1
102
RTVSPropertyOp14
 70
     1
102
RTVSPropertyOp15
 70
     1
102
RTVSPropertyOp16
 70
     1
102
RTVSPropertyOp17
 70
     1
102
RTVSPropertyOp18
 70
     1
102
RTVSPropertyOp19
 70
     1
102
RTVSPropertyOp20
 70
     1
102
RTVSPropertyOp21
 70
     1
102
RTVSPropertyOp22
 70
     1
102
RTVSPropertyOp23
 70
     1
102
RTVSPropertyOp24
 70
     1
102
RTVSPropertyOp25
 70
     1
102
RTVSPropertyOp26
 70
     1
102
RTVSPropertyOp27
 70
     1
102
RTVSPropertyOp28
 70
     1
102
RTVSPropertyOp29
 70
     1
102
RTVSPropertyOp30
 70
     1
102
RTVSPropertyOp31
 70
     1
102
RTVSPropertyOp32
 70
     1
  0
XRECORD
  5
66C
102
{ACAD_REACTORS
330
66B
102
}
330
66B
100
AcDbXrecord
280
     1
102
RTVSPropertyOp0
 70
     1
102
RTVSPropertyOp1
 70
     1
102
RTVSPropertyOp2
 70
     1
102
RTVSPropertyOp3
 70
     1
102
RTVSPropertyOp4
 70
     1
102
RTVSPropertyOp5
 70
     1
102
RTVSPropertyOp6
 70
     1
102
RTVSPropertyOp7
 70
     1
102
RTVSPropertyOp8
 70
     1
102
RTVSPropertyOp9
 70
     1
102
RTVSPropertyOp10
 70
     1
102
RTVSPropertyOp11
 70
     1
102
RTVSPropertyOp12
 70
     1
102
RTVSPropertyOp13
 70
     1
102
RTVSPropertyOp14
 70
     1
102
RTVSPropertyOp15
 70
     1
102
RTVSPropertyOp16
 70
     1
102
RTVSPropertyOp17
 70
     1
102
RTVSPropertyOp18
 70
     1
102
RTVSPropertyOp19
 70
     1
102
RTVSPropertyOp20
 70
     1
102
RTVSPropertyOp21
 70
     1
102
RTVSPropertyOp22
 70
     1
102
RTVSPropertyOp23
 70
     1
102
RTVSPropertyOp24
 70
     1
102
RTVSPropertyOp25
 70
     1
102
RTVSPropertyOp26
 70
     1
102
RTVSPropertyOp27
 70
     1
102
RTVSPropertyOp28
 70
     1
102
RTVSPropertyOp29
 70
     1
102
RTVSPropertyOp30
 70
     1
102
RTVSPropertyOp31
 70
     1
102
RTVSPropertyOp32
 70
     1
  0
XRECORD
  5
670
102
{ACAD_REACTORS
330
66F
102
}
330
66F
100
AcDbXrecord
280
     1
102
RTVSPropertyOp0
 70
     1
102
RTVSPropertyOp1
 70
     1
102
RTVSPropertyOp2
 70
     1
102
RTVSPropertyOp3
 70
     1
102
RTVSPropertyOp4
 70
     1
102
RTVSPropertyOp5
 70
     1
102
RTVSPropertyOp6
 70
     1
102
RTVSPropertyOp7
 70
     1
102
RTVSPropertyOp8
 70
     1
102
RTVSPropertyOp9
 70
     1
102
RTVSPropertyOp10
 70
     1
102
RTVSPropertyOp11
 70
     1
102
RTVSPropertyOp12
 70
     1
102
RTVSPropertyOp13
 70
     1
102
RTVSPropertyOp14
 70
     1
102
RTVSPropertyOp15
 70
     1
102
RTVSPropertyOp16
 70
     1
102
RTVSPropertyOp17
 70
     1
102
RTVSPropertyOp18
 70
     1
102
RTVSPropertyOp19
 70
     1
102
RTVSPropertyOp20
 70
     1
102
RTVSPropertyOp21
 70
     1
102
RTVSPropertyOp22
 70
     1
102
RTVSPropertyOp23
 70
     1
102
RTVSPropertyOp24
 70
     1
102
RTVSPropertyOp25
 70
     1
102
RTVSPropertyOp26
 70
     1
102
RTVSPropertyOp27
 70
     1
102
RTVSPropertyOp28
 70
     1
102
RTVSPropertyOp29
 70
     1
102
RTVSPropertyOp30
 70
     1
102
RTVSPropertyOp31
 70
     1
102
RTVSPropertyOp32
 70
     1
  0
XRECORD
  5
678
102
{ACAD_REACTORS
330
677
102
}
330
677
100
AcDbXrecord
280
     1
102
RTVSPropertyOp0
 70
     1
102
RTVSPropertyOp1
 70
     1
102
RTVSPropertyOp2
 70
     1
102
RTVSPropertyOp3
 70
     1
102
RTVSPropertyOp4
 70
     1
102
RTVSPropertyOp5
 70
     1
102
RTVSPropertyOp6
 70
     1
102
RTVSPropertyOp7
 70
     1
102
RTVSPropertyOp8
 70
     1
102
RTVSPropertyOp9
 70
     1
102
RTVSPropertyOp10
 70
     1
102
RTVSPropertyOp11
 70
     1
102
RTVSPropertyOp12
 70
     1
102
RTVSPropertyOp13
 70
     1
102
RTVSPropertyOp14
 70
     1
102
RTVSPropertyOp15
 70
     1
102
RTVSPropertyOp16
 70
     1
102
RTVSPropertyOp17
 70
     1
102
RTVSPropertyOp18
 70
     1
102
RTVSPropertyOp19
 70
     1
102
RTVSPropertyOp20
 70
     1
102
RTVSPropertyOp21
 70
     1
102
RTVSPropertyOp22
 70
     1
102
RTVSPropertyOp23
 70
     1
102
RTVSPropertyOp24
 70
     1
102
RTVSPropertyOp25
 70
     1
102
RTVSPropertyOp26
 70
     1
102
RTVSPropertyOp27
 70
     1
102
RTVSPropertyOp28
 70
     1
102
RTVSPropertyOp29
 70
     1
102
RTVSPropertyOp30
 70
     1
102
RTVSPropertyOp31
 70
     1
102
RTVSPropertyOp32
 70
     1
  0
XRECORD
  5
680
102
{ACAD_REACTORS
330
67F
102
}
330
67F
100
AcDbXrecord
280
     1
102
RTVSPropertyOp0
 70
     1
102
RTVSPropertyOp1
 70
     1
102
RTVSPropertyOp2
 70
     1
102
RTVSPropertyOp3
 70
     1
102
RTVSPropertyOp4
 70
     1
102
RTVSPropertyOp5
 70
     1
102
RTVSPropertyOp6
 70
     1
102
RTVSPropertyOp7
 70
     1
102
RTVSPropertyOp8
 70
     1
102
RTVSPropertyOp9
 70
     1
102
RTVSPropertyOp10
 70
     1
102
RTVSPropertyOp11
 70
     1
102
RTVSPropertyOp12
 70
     1
102
RTVSPropertyOp13
 70
     1
102
RTVSPropertyOp14
 70
     1
102
RTVSPropertyOp15
 70
     1
102
RTVSPropertyOp16
 70
     1
102
RTVSPropertyOp17
 70
     1
102
RTVSPropertyOp18
 70
     1
102
RTVSPropertyOp19
 70
     1
102
RTVSPropertyOp20
 70
     1
102
RTVSPropertyOp21
 70
     1
102
RTVSPropertyOp22
 70
     1
102
RTVSPropertyOp23
 70
     1
102
RTVSPropertyOp24
 70
     1
102
RTVSPropertyOp25
 70
     1
102
RTVSPropertyOp26
 70
     1
102
RTVSPropertyOp27
 70
     1
102
RTVSPropertyOp28
 70
     1
102
RTVSPropertyOp29
 70
     1
102
RTVSPropertyOp30
 70
     1
102
RTVSPropertyOp31
 70
     1
102
RTVSPropertyOp32
 70
     1
  0
XRECORD
  5
674
102
{ACAD_REACTORS
330
673
102
}
330
673
100
AcDbXrecord
280
     1
102
RTVSPropertyOp0
 70
     1
102
RTVSPropertyOp1
 70
     1
102
RTVSPropertyOp2
 70
     1
102
RTVSPropertyOp3
 70
     1
102
RTVSPropertyOp4
 70
     1
102
RTVSPropertyOp5
 70
     1
102
RTVSPropertyOp6
 70
     1
102
RTVSPropertyOp7
 70
     1
102
RTVSPropertyOp8
 70
     1
102
RTVSPropertyOp9
 70
     1
102
RTVSPropertyOp10
 70
     1
102
RTVSPropertyOp11
 70
     1
102
RTVSPropertyOp12
 70
     1
102
RTVSPropertyOp13
 70
     1
102
RTVSPropertyOp14
 70
     1
102
RTVSPropertyOp15
 70
     1
102
RTVSPropertyOp16
 70
     1
102
RTVSPropertyOp17
 70
     1
102
RTVSPropertyOp18
 70
     1
102
RTVSPropertyOp19
 70
     1
102
RTVSPropertyOp20
 70
     1
102
RTVSPropertyOp21
 70
     1
102
RTVSPropertyOp22
 70
     1
102
RTVSPropertyOp23
 70
     1
102
RTVSPropertyOp24
 70
     1
102
RTVSPropertyOp25
 70
     1
102
RTVSPropertyOp26
 70
     1
102
RTVSPropertyOp27
 70
     1
102
RTVSPropertyOp28
 70
     1
102
RTVSPropertyOp29
 70
     1
102
RTVSPropertyOp30
 70
     1
102
RTVSPropertyOp31
 70
     1
102
RTVSPropertyOp32
 70
     1
  0
XRECORD
  5
676
102
{ACAD_REACTORS
330
675
102
}
330
675
100
AcDbXrecord
280
     1
102
RTVSPropertyOp0
 70
     1
102
RTVSPropertyOp1
 70
     1
102
RTVSPropertyOp2
 70
     1
102
RTVSPropertyOp3
 70
     1
102
RTVSPropertyOp4
 70
     1
102
RTVSPropertyOp5
 70
     1
102
RTVSPropertyOp6
 70
     1
102
RTVSPropertyOp7
 70
     1
102
RTVSPropertyOp8
 70
     1
102
RTVSPropertyOp9
 70
     1
102
RTVSPropertyOp10
 70
     1
102
RTVSPropertyOp11
 70
     1
102
RTVSPropertyOp12
 70
     1
102
RTVSPropertyOp13
 70
     1
102
RTVSPropertyOp14
 70
     1
102
RTVSPropertyOp15
 70
     1
102
RTVSPropertyOp16
 70
     1
102
RTVSPropertyOp17
 70
     1
102
RTVSPropertyOp18
 70
     1
102
RTVSPropertyOp19
 70
     1
102
RTVSPropertyOp20
 70
     1
102
RTVSPropertyOp21
 70
     1
102
RTVSPropertyOp22
 70
     1
102
RTVSPropertyOp23
 70
     1
102
RTVSPropertyOp24
 70
     1
102
RTVSPropertyOp25
 70
     1
102
RTVSPropertyOp26
 70
     1
102
RTVSPropertyOp27
 70
     1
102
RTVSPropertyOp28
 70
     1
102
RTVSPropertyOp29
 70
     1
102
RTVSPropertyOp30
 70
     1
102
RTVSPropertyOp31
 70
     1
102
RTVSPropertyOp32
 70
     1
  0
XRECORD
  5
67E
102
{ACAD_REACTORS
330
67D
102
}
330
67D
100
AcDbXrecord
280
     1
102
RTVSPropertyOp0
 70
     1
102
RTVSPropertyOp1
 70
     1
102
RTVSPropertyOp2
 70
     1
102
RTVSPropertyOp3
 70
     1
102
RTVSPropertyOp4
 70
     1
102
RTVSPropertyOp5
 70
     1
102
RTVSPropertyOp6
 70
     1
102
RTVSPropertyOp7
 70
     1
102
RTVSPropertyOp8
 70
     1
102
RTVSPropertyOp9
 70
     1
102
RTVSPropertyOp10
 70
     1
102
RTVSPropertyOp11
 70
     1
102
RTVSPropertyOp12
 70
     1
102
RTVSPropertyOp13
 70
     1
102
RTVSPropertyOp14
 70
     1
102
RTVSPropertyOp15
 70
     1
102
RTVSPropertyOp16
 70
     1
102
RTVSPropertyOp17
 70
     1
102
RTVSPropertyOp18
 70
     1
102
RTVSPropertyOp19
 70
     1
102
RTVSPropertyOp20
 70
     1
102
RTVSPropertyOp21
 70
     1
102
RTVSPropertyOp22
 70
     1
102
RTVSPropertyOp23
 70
     1
102
RTVSPropertyOp24
 70
     1
102
RTVSPropertyOp25
 70
     1
102
RTVSPropertyOp26
 70
     1
102
RTVSPropertyOp27
 70
     1
102
RTVSPropertyOp28
 70
     1
102
RTVSPropertyOp29
 70
     1
102
RTVSPropertyOp30
 70
     1
102
RTVSPropertyOp31
 70
     1
102
RTVSPropertyOp32
 70
     1
  0
XRECORD
  5
662
102
{ACAD_REACTORS
330
661
102
}
330
661
100
AcDbXrecord
280
     1
102
RTVSPropertyOp0
 70
     1
102
RTVSPropertyOp1
 70
     1
102
RTVSPropertyOp2
 70
     1
102
RTVSPropertyOp3
 70
     1
102
RTVSPropertyOp4
 70
     1
102
RTVSPropertyOp5
 70
     1
102
RTVSPropertyOp6
 70
     1
102
RTVSPropertyOp7
 70
     1
102
RTVSPropertyOp8
 70
     1
102
RTVSPropertyOp9
 70
     1
102
RTVSPropertyOp10
 70
     1
102
RTVSPropertyOp11
 70
     1
102
RTVSPropertyOp12
 70
     1
102
RTVSPropertyOp13
 70
     1
102
RTVSPropertyOp14
 70
     1
102
RTVSPropertyOp15
 70
     1
102
RTVSPropertyOp16
 70
     1
102
RTVSPropertyOp17
 70
     1
102
RTVSPropertyOp18
 70
     1
102
RTVSPropertyOp19
 70
     1
102
RTVSPropertyOp20
 70
     1
102
RTVSPropertyOp21
 70
     1
102
RTVSPropertyOp22
 70
     1
102
RTVSPropertyOp23
 70
     1
102
RTVSPropertyOp24
 70
     1
102
RTVSPropertyOp25
 70
     1
102
RTVSPropertyOp26
 70
     1
102
RTVSPropertyOp27
 70
     1
102
RTVSPropertyOp28
 70
     1
102
RTVSPropertyOp29
 70
     1
102
RTVSPropertyOp30
 70
     1
102
RTVSPropertyOp31
 70
     1
102
RTVSPropertyOp32
 70
     1
  0
XRECORD
  5
664
102
{ACAD_REACTORS
330
663
102
}
330
663
100
AcDbXrecord
280
     1
102
RTVSPropertyOp0
 70
     1
102
RTVSPropertyOp1
 70
     1
102
RTVSPropertyOp2
 70
     1
102
RTVSPropertyOp3
 70
     1
102
RTVSPropertyOp4
 70
     1
102
RTVSPropertyOp5
 70
     1
102
RTVSPropertyOp6
 70
     1
102
RTVSPropertyOp7
 70
     1
102
RTVSPropertyOp8
 70
     1
102
RTVSPropertyOp9
 70
     1
102
RTVSPropertyOp10
 70
     1
102
RTVSPropertyOp11
 70
     1
102
RTVSPropertyOp12
 70
     1
102
RTVSPropertyOp13
 70
     1
102
RTVSPropertyOp14
 70
     1
102
RTVSPropertyOp15
 70
     1
102
RTVSPropertyOp16
 70
     1
102
RTVSPropertyOp17
 70
     1
102
RTVSPropertyOp18
 70
     1
102
RTVSPropertyOp19
 70
     1
102
RTVSPropertyOp20
 70
     1
102
RTVSPropertyOp21
 70
     1
102
RTVSPropertyOp22
 70
     1
102
RTVSPropertyOp23
 70
     1
102
RTVSPropertyOp24
 70
     1
102
RTVSPropertyOp25
 70
     1
102
RTVSPropertyOp26
 70
     1
102
RTVSPropertyOp27
 70
     1
102
RTVSPropertyOp28
 70
     1
102
RTVSPropertyOp29
 70
     1
102
RTVSPropertyOp30
 70
     1
102
RTVSPropertyOp31
 70
     1
102
RTVSPropertyOp32
 70
     1
  0
XRECORD
  5
666
102
{ACAD_REACTORS
330
665
102
}
330
665
100
AcDbXrecord
280
     1
102
RTVSPropertyOp0
 70
     1
102
RTVSPropertyOp1
 70
     1
102
RTVSPropertyOp2
 70
     1
102
RTVSPropertyOp3
 70
     1
102
RTVSPropertyOp4
 70
     1
102
RTVSPropertyOp5
 70
     1
102
RTVSPropertyOp6
 70
     1
102
RTVSPropertyOp7
 70
     1
102
RTVSPropertyOp8
 70
     1
102
RTVSPropertyOp9
 70
     1
102
RTVSPropertyOp10
 70
     1
102
RTVSPropertyOp11
 70
     1
102
RTVSPropertyOp12
 70
     1
102
RTVSPropertyOp13
 70
     1
102
RTVSPropertyOp14
 70
     1
102
RTVSPropertyOp15
 70
     1
102
RTVSPropertyOp16
 70
     1
102
RTVSPropertyOp17
 70
     1
102
RTVSPropertyOp18
 70
     1
102
RTVSPropertyOp19
 70
     1
102
RTVSPropertyOp20
 70
     1
102
RTVSPropertyOp21
 70
     1
102
RTVSPropertyOp22
 70
     1
102
RTVSPropertyOp23
 70
     1
102
RTVSPropertyOp24
 70
     1
102
RTVSPropertyOp25
 70
     1
102
RTVSPropertyOp26
 70
     1
102
RTVSPropertyOp27
 70
     1
102
RTVSPropertyOp28
 70
     1
102
RTVSPropertyOp29
 70
     1
102
RTVSPropertyOp30
 70
     1
102
RTVSPropertyOp31
 70
     1
102
RTVSPropertyOp32
 70
     1
  0
XRECORD
  5
668
102
{ACAD_REACTORS
330
667
102
}
330
667
100
AcDbXrecord
280
     1
102
RTVSPropertyOp0
 70
     1
102
RTVSPropertyOp1
 70
     1
102
RTVSPropertyOp2
 70
     1
102
RTVSPropertyOp3
 70
     1
102
RTVSPropertyOp4
 70
     1
102
RTVSPropertyOp5
 70
     1
102
RTVSPropertyOp6
 70
     1
102
RTVSPropertyOp7
 70
     1
102
RTVSPropertyOp8
 70
     1
102
RTVSPropertyOp9
 70
     1
102
RTVSPropertyOp10
 70
     1
102
RTVSPropertyOp11
 70
     1
102
RTVSPropertyOp12
 70
     1
102
RTVSPropertyOp13
 70
     1
102
RTVSPropertyOp14
 70
     1
102
RTVSPropertyOp15
 70
     1
102
RTVSPropertyOp16
 70
     1
102
RTVSPropertyOp17
 70
     1
102
RTVSPropertyOp18
 70
     1
102
RTVSPropertyOp19
 70
     1
102
RTVSPropertyOp20
 70
     1
102
RTVSPropertyOp21
 70
     1
102
RTVSPropertyOp22
 70
     1
102
RTVSPropertyOp23
 70
     1
102
RTVSPropertyOp24
 70
     1
102
RTVSPropertyOp25
 70
     1
102
RTVSPropertyOp26
 70
     1
102
RTVSPropertyOp27
 70
     1
102
RTVSPropertyOp28
 70
     1
102
RTVSPropertyOp29
 70
     1
102
RTVSPropertyOp30
 70
     1
102
RTVSPropertyOp31
 70
     1
102
RTVSPropertyOp32
 70
     1
  0
XRECORD
  5
67C
102
{ACAD_REACTORS
330
67B
102
}
330
67B
100
AcDbXrecord
280
     1
102
RTVSPropertyOp0
 70
     1
102
RTVSPropertyOp1
 70
     1
102
RTVSPropertyOp2
 70
     1
102
RTVSPropertyOp3
 70
     1
102
RTVSPropertyOp4
 70
     1
102
RTVSPropertyOp5
 70
     1
102
RTVSPropertyOp6
 70
     1
102
RTVSPropertyOp7
 70
     1
102
RTVSPropertyOp8
 70
     1
102
RTVSPropertyOp9
 70
     1
102
RTVSPropertyOp10
 70
     1
102
RTVSPropertyOp11
 70
     1
102
RTVSPropertyOp12
 70
     1
102
RTVSPropertyOp13
 70
     1
102
RTVSPropertyOp14
 70
     1
102
RTVSPropertyOp15
 70
     1
102
RTVSPropertyOp16
 70
     1
102
RTVSPropertyOp17
 70
     1
102
RTVSPropertyOp18
 70
     1
102
RTVSPropertyOp19
 70
     1
102
RTVSPropertyOp20
 70
     1
102
RTVSPropertyOp21
 70
     1
102
RTVSPropertyOp22
 70
     1
102
RTVSPropertyOp23
 70
     1
102
RTVSPropertyOp24
 70
     1
102
RTVSPropertyOp25
 70
     1
102
RTVSPropertyOp26
 70
     1
102
RTVSPropertyOp27
 70
     1
102
RTVSPropertyOp28
 70
     1
102
RTVSPropertyOp29
 70
     1
102
RTVSPropertyOp30
 70
     1
102
RTVSPropertyOp31
 70
     1
102
RTVSPropertyOp32
 70
     1
  0
XRECORD
  5
672
102
{ACAD_REACTORS
330
671
102
}
330
671
100
AcDbXrecord
280
     1
102
RTVSPropertyOp0
 70
     1
102
RTVSPropertyOp1
 70
     1
102
RTVSPropertyOp2
 70
     1
102
RTVSPropertyOp3
 70
     1
102
RTVSPropertyOp4
 70
     1
102
RTVSPropertyOp5
 70
     1
102
RTVSPropertyOp6
 70
     1
102
RTVSPropertyOp7
 70
     1
102
RTVSPropertyOp8
 70
     1
102
RTVSPropertyOp9
 70
     1
102
RTVSPropertyOp10
 70
     1
102
RTVSPropertyOp11
 70
     1
102
RTVSPropertyOp12
 70
     1
102
RTVSPropertyOp13
 70
     1
102
RTVSPropertyOp14
 70
     1
102
RTVSPropertyOp15
 70
     1
102
RTVSPropertyOp16
 70
     1
102
RTVSPropertyOp17
 70
     1
102
RTVSPropertyOp18
 70
     1
102
RTVSPropertyOp19
 70
     1
102
RTVSPropertyOp20
 70
     1
102
RTVSPropertyOp21
 70
     1
102
RTVSPropertyOp22
 70
     1
102
RTVSPropertyOp23
 70
     1
102
RTVSPropertyOp24
 70
     1
102
RTVSPropertyOp25
 70
     1
102
RTVSPropertyOp26
 70
     1
102
RTVSPropertyOp27
 70
     1
102
RTVSPropertyOp28
 70
     1
102
RTVSPropertyOp29
 70
     1
102
RTVSPropertyOp30
 70
     1
102
RTVSPropertyOp31
 70
     1
102
RTVSPropertyOp32
 70
     1
  0
XRECORD
  5
67A
102
{ACAD_REACTORS
330
679
102
}
330
679
100
AcDbXrecord
280
     1
102
RTVSPropertyOp0
 70
     1
102
RTVSPropertyOp1
 70
     1
102
RTVSPropertyOp2
 70
     1
102
RTVSPropertyOp3
 70
     1
102
RTVSPropertyOp4
 70
     1
102
RTVSPropertyOp5
 70
     1
102
RTVSPropertyOp6
 70
     1
102
RTVSPropertyOp7
 70
     1
102
RTVSPropertyOp8
 70
     1
102
RTVSPropertyOp9
 70
     1
102
RTVSPropertyOp10
 70
     1
102
RTVSPropertyOp11
 70
     1
102
RTVSPropertyOp12
 70
     1
102
RTVSPropertyOp13
 70
     1
102
RTVSPropertyOp14
 70
     1
102
RTVSPropertyOp15
 70
     1
102
RTVSPropertyOp16
 70
     1
102
RTVSPropertyOp17
 70
     1
102
RTVSPropertyOp18
 70
     1
102
RTVSPropertyOp19
 70
     1
102
RTVSPropertyOp20
 70
     1
102
RTVSPropertyOp21
 70
     1
102
RTVSPropertyOp22
 70
     1
102
RTVSPropertyOp23
 70
     1
102
RTVSPropertyOp24
 70
     1
102
RTVSPropertyOp25
 70
     1
102
RTVSPropertyOp26
 70
     1
102
RTVSPropertyOp27
 70
     1
102
RTVSPropertyOp28
 70
     1
102
RTVSPropertyOp29
 70
     1
102
RTVSPropertyOp30
 70
     1
102
RTVSPropertyOp31
 70
     1
102
RTVSPropertyOp32
 70
     1
  0
ENDSEC
  0
EOF
