  0
SECTION
  2
HEADER
  9
$ACADVER
  1
AC1015
  9
$ACADMAINTVER
 70
     6
  9
$DWGCODEPAGE
  3
ANSI_949
  9
$INSBASE
 10
0.0
 20
0.0
 30
0.0
  9
$EXTMIN
 10
1.000000000000000E+20
 20
1.000000000000000E+20
 30
1.000000000000000E+20
  9
$EXTMAX
 10
-1.000000000000000E+20
 20
-1.000000000000000E+20
 30
-1.000000000000000E+20
  9
$LIMMIN
 10
0.0
 20
0.0
  9
$LIMMAX
 10
12.0
 20
9.0
  9
$ORTHOMODE
 70
     0
  9
$REGENMODE
 70
     1
  9
$FILLMODE
 70
     1
  9
$QTEXTMODE
 70
     0
  9
$MIRRTEXT
 70
     1
  9
$LTSCALE
 40
1.0
  9
$ATTMODE
 70
     1
  9
$TEXTSIZE
 40
0.2
  9
$TRACEWID
 40
0.05
  9
$TEXTSTYLE
  7
Standard
  9
$CLAYER
  8
0
  9
$CELTYPE
  6
ByLayer
  9
$CECOLOR
 62
   256
  9
$CELTSCALE
 40
1.0
  9
$DISPSILH
 70
     0
  9
$DIMSCALE
 40
1.0
  9
$DIMASZ
 40
0.18
  9
$DIMEXO
 40
0.0625
  9
$DIMDLI
 40
0.38
  9
$DIMRND
 40
0.0
  9
$DIMDLE
 40
0.0
  9
$DIMEXE
 40
0.18
  9
$DIMTP
 40
0.0
  9
$DIMTM
 40
0.0
  9
$DIMTXT
 40
0.18
  9
$DIMCEN
 40
0.09
  9
$DIMTSZ
 40
0.0
  9
$DIMTOL
 70
     0
  9
$DIMLIM
 70
     0
  9
$DIMTIH
 70
     1
  9
$DIMTOH
 70
     1
  9
$DIMSE1
 70
     0
  9
$DIMSE2
 70
     0
  9
$DIMTAD
 70
     0
  9
$DIMZIN
 70
     0
  9
$DIMBLK
  1

  9
$DIMASO
 70
     1
  9
$DIMSHO
 70
     1
  9
$DIMPOST
  1

  9
$DIMAPOST
  1

  9
$DIMALT
 70
     0
  9
$DIMALTD
 70
     2
  9
$DIMALTF
 40
25.4
  9
$DIMLFAC
 40
1.0
  9
$DIMTOFL
 70
     0
  9
$DIMTVP
 40
0.0
  9
$DIMTIX
 70
     0
  9
$DIMSOXD
 70
     0
  9
$DIMSAH
 70
     0
  9
$DIMBLK1
  1

  9
$DIMBLK2
  1

  9
$DIMSTYLE
  2
Standard
  9
$DIMCLRD
 70
     0
  9
$DIMCLRE
 70
     0
  9
$DIMCLRT
 70
     0
  9
$DIMTFAC
 40
1.0
  9
$DIMGAP
 40
0.09
  9
$DIMJUST
 70
     0
  9
$DIMSD1
 70
     0
  9
$DIMSD2
 70
     0
  9
$DIMTOLJ
 70
     1
  9
$DIMTZIN
 70
     0
  9
$DIMALTZ
 70
     0
  9
$DIMALTTZ
 70
     0
  9
$DIMUPT
 70
     0
  9
$DIMDEC
 70
     4
  9
$DIMTDEC
 70
     4
  9
$DIMALTU
 70
     2
  9
$DIMALTTD
 70
     2
  9
$DIMTXSTY
  7
Standard
  9
$DIMAUNIT
 70
     0
  9
$DIMADEC
 70
     0
  9
$DIMALTRND
 40
0.0
  9
$DIMAZIN
 70
     0
  9
$DIMDSEP
 70
    46
  9
$DIMATFIT
 70
     3
  9
$DIMFRAC
 70
     0
  9
$DIMLDRBLK
  1

  9
$DIMLUNIT
 70
     2
  9
$DIMLWD
 70
    -2
  9
$DIMLWE
 70
    -2
  9
$DIMTMOVE
 70
     0
  9
$LUNITS
 70
     2
  9
$LUPREC
 70
     4
  9
$SKETCHINC
 40
0.1
  9
$FILLETRAD
 40
0.5
  9
$AUNITS
 70
     0
  9
$AUPREC
 70
     0
  9
$MENU
  1
.
  9
$ELEVATION
 40
0.0
  9
$PELEVATION
 40
0.0
  9
$THICKNESS
 40
0.0
  9
$LIMCHECK
 70
     0
  9
$CHAMFERA
 40
0.5
  9
$CHAMFERB
 40
0.5
  9
$CHAMFERC
 40
1.0
  9
$CHAMFERD
 40
0.0
  9
$SKPOLY
 70
     0
  9
$TDCREATE
 40
2456522.583796666
  9
$TDUCREATE
 40
2456522.083796666
  9
$TDUPDATE
 40
2456522.583826713
  9
$TDUUPDATE
 40
2456522.083826713
  9
$TDINDWG
 40
0.0000000116
  9
$TDUSRTIMER
 40
0.0000000116
  9
$USRTIMER
 70
     1
  9
$ANGBASE
 50
0.0
  9
$ANGDIR
 70
     0
  9
$PDMODE
 70
     0
  9
$PDSIZE
 40
0.0
  9
$PLINEWID
 40
0.0
  9
$SPLFRAME
 70
     0
  9
$SPLINETYPE
 70
     6
  9
$SPLINESEGS
 70
     8
  9
$HANDSEED
  5
666
  9
$SURFTAB1
 70
     6
  9
$SURFTAB2
 70
     6
  9
$SURFTYPE
 70
     6
  9
$SURFU
 70
     6
  9
$SURFV
 70
     6
  9
$UCSBASE
  2

  9
$UCSNAME
  2

  9
$UCSORG
 10
0.0
 20
0.0
 30
0.0
  9
$UCSXDIR
 10
1.0
 20
0.0
 30
0.0
  9
$UCSYDIR
 10
0.0
 20
1.0
 30
0.0
  9
$UCSORTHOREF
  2

  9
$UCSORTHOVIEW
 70
     0
  9
$UCSORGTOP
 10
0.0
 20
0.0
 30
0.0
  9
$UCSORGBOTTOM
 10
0.0
 20
0.0
 30
0.0
  9
$UCSORGLEFT
 10
0.0
 20
0.0
 30
0.0
  9
$UCSORGRIGHT
 10
0.0
 20
0.0
 30
0.0
  9
$UCSORGFRONT
 10
0.0
 20
0.0
 30
0.0
  9
$UCSORGBACK
 10
0.0
 20
0.0
 30
0.0
  9
$PUCSBASE
  2

  9
$PUCSNAME
  2

  9
$PUCSORG
 10
0.0
 20
0.0
 30
0.0
  9
$PUCSXDIR
 10
1.0
 20
0.0
 30
0.0
  9
$PUCSYDIR
 10
0.0
 20
1.0
 30
0.0
  9
$PUCSORTHOREF
  2

  9
$PUCSORTHOVIEW
 70
     0
  9
$PUCSORGTOP
 10
0.0
 20
0.0
 30
0.0
  9
$PUCSORGBOTTOM
 10
0.0
 20
0.0
 30
0.0
  9
$PUCSORGLEFT
 10
0.0
 20
0.0
 30
0.0
  9
$PUCSORGRIGHT
 10
0.0
 20
0.0
 30
0.0
  9
$PUCSORGFRONT
 10
0.0
 20
0.0
 30
0.0
  9
$PUCSORGBACK
 10
0.0
 20
0.0
 30
0.0
  9
$USERI1
 70
     0
  9
$USERI2
 70
     0
  9
$USERI3
 70
     0
  9
$USERI4
 70
     0
  9
$USERI5
 70
     0
  9
$USERR1
 40
0.0
  9
$USERR2
 40
0.0
  9
$USERR3
 40
0.0
  9
$USERR4
 40
0.0
  9
$USERR5
 40
0.0
  9
$WORLDVIEW
 70
     1
  9
$SHADEDGE
 70
     3
  9
$SHADEDIF
 70
    70
  9
$TILEMODE
 70
     1
  9
$MAXACTVP
 70
    64
  9
$PINSBASE
 10
0.0
 20
0.0
 30
0.0
  9
$PLIMCHECK
 70
     0
  9
$PEXTMIN
 10
1.000000000000000E+20
 20
1.000000000000000E+20
 30
1.000000000000000E+20
  9
$PEXTMAX
 10
-1.000000000000000E+20
 20
-1.000000000000000E+20
 30
-1.000000000000000E+20
  9
$PLIMMIN
 10
0.0
 20
0.0
  9
$PLIMMAX
 10
12.0
 20
9.0
  9
$UNITMODE
 70
     0
  9
$VISRETAIN
 70
     1
  9
$PLINEGEN
 70
     0
  9
$PSLTSCALE
 70
     1
  9
$TREEDEPTH
 70
  3020
  9
$CMLSTYLE
  2
Standard
  9
$CMLJUST
 70
     0
  9
$CMLSCALE
 40
1.0
  9
$PROXYGRAPHICS
 70
     1
  9
$MEASUREMENT
 70
     0
  9
$CELWEIGHT
370
    -1
  9
$ENDCAPS
280
     0
  9
$JOINSTYLE
280
     0
  9
$LWDISPLAY
290
     1
  9
$INSUNITS
 70
     4
  9
$HYPERLINKBASE
  1

  9
$STYLESHEET
  1

  9
$XEDIT
290
     1
  9
$CEPSNTYPE
380
     0
  9
$PSTYLEMODE
290
     1
  9
$FINGERPRINTGUID
  2
{0F8AC6E4-233E-44ED-A196-E238467C82AE}
  9
$VERSIONGUID
  2
{FAEB1C32-E019-11D5-929B-00C0DF256EC4}
  9
$EXTNAMES
290
     1
  9
$PSVPSCALE
 40
0.0
  9
$OLESTARTUP
290
     0
  0
ENDSEC
  0
SECTION
  2
CLASSES
  0
CLASS
  1
ACDBDICTIONARYWDFLT
  2
AcDbDictionaryWithDefault
  3
ObjectDBX Classes
 90
        0
280
     0
281
     0
  0
CLASS
  1
VISUALSTYLE
  2
AcDbVisualStyle
  3
ObjectDBX Classes
 90
     4095
280
     0
281
     0
  0
CLASS
  1
MATERIAL
  2
AcDbMaterial
  3
ObjectDBX Classes
 90
     1153
280
     0
281
     0
  0
CLASS
  1
SPATIAL_FILTER
  2
AcDbSpatialFilter
  3
ObjectDBX Classes
 90
        0
280
     0
281
     0
  0
CLASS
  1
SCALE
  2
AcDbScale
  3
ObjectDBX Classes
 90
     1153
280
     0
281
     0
  0
CLASS
  1
DICTIONARYVAR
  2
AcDbDictionaryVar
  3
ObjectDBX Classes
 90
        0
280
     0
281
     0
  0
CLASS
  1
ACDBPLACEHOLDER
  2
AcDbPlaceHolder
  3
ObjectDBX Classes
 90
        0
280
     0
281
     0
  0
CLASS
  1
LAYOUT
  2
AcDbLayout
  3
ObjectDBX Classes
 90
        0
280
     0
281
     0
  0
ENDSEC
  0
SECTION
  2
TABLES
  0
TABLE
  2
VPORT
  5
8
330
0
100
AcDbSymbolTable
 70
     1
  0
VPORT
  5
29
330
8
100
AcDbSymbolTableRecord
100
AcDbViewportTableRecord
  2
*Active
 70
     0
 10
0.0
 20
0.0
 11
1.0
 21
1.0
 12
148.6203422501967
 22
90.78379343050779
 13
0.0
 23
0.0
 14
0.5
 24
0.5
 15
0.5
 25
0.5
 16
0.0
 26
0.0
 36
1.0
 17
0.0
 27
0.0
 37
0.0
 40
181.0640264848473
 41
1.595598544868501
 42
50.0
 43
0.0
 44
0.0
 50
0.0
 51
0.0
 71
     0
 72
   100
 73
     1
 74
     3
 75
     0
 76
     0
 77
     0
 78
     0
281
     0
 65
     1
110
0.0
120
0.0
130
0.0
111
1.0
121
0.0
131
0.0
112
0.0
122
1.0
132
0.0
 79
     0
146
0.0
  0
ENDTAB
  0
TABLE
  2
LTYPE
  5
5
330
0
100
AcDbSymbolTable
 70
     2
  0
LTYPE
  5
14
330
5
100
AcDbSymbolTableRecord
100
AcDbLinetypeTableRecord
  2
ByBlock
 70
     0
  3

 72
    65
 73
     0
 40
0.0
  0
LTYPE
  5
15
330
5
100
AcDbSymbolTableRecord
100
AcDbLinetypeTableRecord
  2
ByLayer
 70
     0
  3

 72
    65
 73
     0
 40
0.0
  0
LTYPE
  5
16
330
5
100
AcDbSymbolTableRecord
100
AcDbLinetypeTableRecord
  2
Continuous
 70
     0
  3
Solid line
 72
    65
 73
     0
 40
0.0
  0
LTYPE
  5
10B
330
5
100
AcDbSymbolTableRecord
100
AcDbLinetypeTableRecord
  2
Dashed
 70
     0
  3
- - - - - 
 72
    65
 73
     2
 40
5.644444465637207
 49
2.822222232818604
 74
     0
 49
-2.822222232818603
 74
     0
  0
ENDTAB
  0
TABLE
  2
LAYER
  5
2
330
0
100
AcDbSymbolTable
 70
     3
  0
LAYER
  5
10
330
2
100
AcDbSymbolTableRecord
100
AcDbLayerTableRecord
  2
0
 70
     0
 62
     7
  6
Continuous
370
    -3
390
F
  0
LAYER
  5
40
330
2
100
AcDbSymbolTableRecord
100
AcDbLayerTableRecord
  2
Doc_ Finishes
 70
     0
 62
     7
  6
Continuous
370
    -3
390
F
  0
LAYER
  5
DB
330
2
100
AcDbSymbolTableRecord
100
AcDbLayerTableRecord
  2
Doc_ Floor
 70
     0
 62
     7
  6
Continuous
370
    -3
390
F
  0
ENDTAB
  0
TABLE
  2
STYLE
  5
3
330
0
100
AcDbSymbolTable
 70
     4
  0
STYLE
  5
11
330
3
100
AcDbSymbolTableRecord
100
AcDbTextStyleTableRecord
  2
Standard
 70
     0
 40
0.0
 41
1.0
 50
0.0
 71
     0
 42
0.2
  3
txt
  4

  0
STYLE
  5
D6
330
3
100
AcDbSymbolTableRecord
100
AcDbTextStyleTableRecord
  2
GENERATED_STYLE_1
 70
     0
 40
0.0
 41
1.0
 50
0.0
 71
     0
 42
0.2
  3

  4

1001
ACAD
1000
Century Gothic
1071
       34
  0
STYLE
  5
D9
330
3
100
AcDbSymbolTableRecord
100
AcDbTextStyleTableRecord
  2
GENERATED_STYLE_2
 70
     0
 40
0.0
 41
1.0
 50
0.0
 71
     0
 42
0.2
  3

  4

1001
ACAD
1000
DilleniaUPC
1071
 33554450
  0
STYLE
  5
121
330
3
100
AcDbSymbolTableRecord
100
AcDbTextStyleTableRecord
  2
GENERATED_STYLE_3
 70
     0
 40
0.0
 41
1.0
 50
0.0
 71
     0
 42
0.2
  3

  4

1001
ACAD
1000
Arial
1071
       34
  0
ENDTAB
  0
TABLE
  2
VIEW
  5
6
330
0
100
AcDbSymbolTable
 70
     0
  0
ENDTAB
  0
TABLE
  2
UCS
  5
7
330
0
100
AcDbSymbolTable
 70
     0
  0
ENDTAB
  0
TABLE
  2
APPID
  5
9
330
0
100
AcDbSymbolTable
 70
     1
  0
APPID
  5
12
330
9
100
AcDbSymbolTableRecord
100
AcDbRegAppTableRecord
  2
ACAD
 70
     0
  0
ENDTAB
  0
TABLE
  2
DIMSTYLE
  5
A
330
0
100
AcDbSymbolTable
 70
     1
100
AcDbDimStyleTable
  0
DIMSTYLE
105
27
330
A
100
AcDbSymbolTableRecord
100
AcDbDimStyleTableRecord
  2
Standard
 70
     0
178
     0
340
11
  0
ENDTAB
  0
TABLE
  2
BLOCK_RECORD
  5
1
330
0
100
AcDbSymbolTable
 70
     3
  0
BLOCK_RECORD
  5
1F
330
1
100
AcDbSymbolTableRecord
100
AcDbBlockTableRecord
  2
*Model_Space
340
22
  0
BLOCK_RECORD
  5
1B
330
1
100
AcDbSymbolTableRecord
100
AcDbBlockTableRecord
  2
*Paper_Space
340
1E
  0
BLOCK_RECORD
  5
E3
330
1
100
AcDbSymbolTableRecord
100
AcDbBlockTableRecord
  2
Drawing_1_2
340
0
102
{BLKREFS
331
60C
102
}
  0
BLOCK_RECORD
  5
610
330
1
100
AcDbSymbolTableRecord
100
AcDbBlockTableRecord
  2
R-TRS7-07 BARGE DETAIL - SIDE_STORY_MARKER
340
0
  0
ENDTAB
  0
ENDSEC
  0
SECTION
  2
BLOCKS
  0
BLOCK
  5
20
330
1F
100
AcDbEntity
  8
0
100
AcDbBlockBegin
  2
*Model_Space
 70
     0
 10
0.0
 20
0.0
 30
0.0
  3
*Model_Space
  1

  0
ENDBLK
  5
21
330
1F
100
AcDbEntity
  8
0
100
AcDbBlockEnd
  0
BLOCK
  5
1C
330
1B
100
AcDbEntity
 67
     1
  8
0
100
AcDbBlockBegin
  2
*Paper_Space
 70
     0
 10
0.0
 20
0.0
 30
0.0
  3
*Paper_Space
  1

  0
ENDBLK
  5
1D
330
1B
100
AcDbEntity
 67
     1
  8
0
100
AcDbBlockEnd
  0
BLOCK
  5
E4
330
E3
100
AcDbEntity
  8
0
100
AcDbBlockBegin
  2
Drawing_1_2
 70
     0
 10
156.5565397722182
 20
110.7696525037415
 30
0.0
  3
Drawing_1_2
  1

  0
HATCH
  5
E6
330
E3
100
AcDbEntity
  8
0
  6
Continuous
 62
   255
370
     0
100
AcDbHatch
 10
0.0
 20
0.0
 30
0.0
210
0.0
220
0.0
230
1.0
  2
SOLID
 70
     1
 71
     0
 91
        1
 92
        3
 72
     0
 73
     1
 93
        4
 10
97.86967640222781
 20
137.6292955234528
 10
186.5474359094478
 20
137.6292955234528
 10
186.5474359094478
 20
146.6292955234528
 10
97.86967640222781
 20
146.6292955234528
 97
        0
 75
     0
 76
     1
 98
        0
  0
LINE
  5
E7
330
E3
100
AcDbEntity
  8
0
  6
Continuous
100
AcDbLine
 10
97.86967720951661
 20
137.6292952780691
 30
0.0
 11
186.5474361260769
 21
137.6292952780691
 31
0.0
  0
LINE
  5
E8
330
E3
100
AcDbEntity
  8
0
  6
Continuous
100
AcDbLine
 10
186.5474361260769
 20
137.6292952780691
 30
0.0
 11
186.5474361260769
 21
146.6292945073869
 31
0.0
  0
LINE
  5
E9
330
E3
100
AcDbEntity
  8
0
  6
Continuous
100
AcDbLine
 10
186.5474361260769
 20
146.6292945073869
 30
0.0
 11
97.86967720951661
 21
146.6292945073869
 31
0.0
  0
LINE
  5
EA
330
E3
100
AcDbEntity
  8
0
  6
Continuous
100
AcDbLine
 10
97.86967720951661
 20
146.6292945073869
 30
0.0
 11
97.86967720951661
 21
137.6292952780691
 31
0.0
  0
HATCH
  5
EB
330
E3
100
AcDbEntity
  8
0
  6
Continuous
 62
   255
370
     0
100
AcDbHatch
 10
0.0
 20
0.0
 30
0.0
210
0.0
220
0.0
230
1.0
  2
SOLID
 70
     1
 71
     0
 91
        1
 92
        3
 72
     0
 73
     1
 93
        4
 10
97.86967640222781
 20
146.6292955234528
 10
97.86967640222781
 20
137.6292955234528
 10
111.8696764022278
 20
137.6292955234528
 10
111.8696764022278
 20
146.6292955234528
 97
        0
 75
     0
 76
     1
 98
        0
  0
LINE
  5
EC
330
E3
100
AcDbEntity
  8
0
  6
Continuous
100
AcDbLine
 10
97.86967720951661
 20
146.6292945073869
 30
0.0
 11
111.8696751541864
 21
137.6292952780691
 31
0.0
  0
LINE
  5
ED
330
E3
100
AcDbEntity
  8
0
  6
Continuous
100
AcDbLine
 10
97.86967720951661
 20
146.6292945073869
 30
0.0
 11
97.86967720951661
 21
137.6292952780691
 31
0.0
  0
LINE
  5
EE
330
E3
100
AcDbEntity
  8
0
  6
Continuous
100
AcDbLine
 10
97.86967720951661
 20
137.6292952780691
 30
0.0
 11
111.8696751541864
 21
137.6292952780691
 31
0.0
  0
LINE
  5
EF
330
E3
100
AcDbEntity
  8
0
  6
Continuous
100
AcDbLine
 10
111.8696751541864
 20
137.6292952780691
 30
0.0
 11
111.8696751541864
 21
146.6292945073869
 31
0.0
  0
LINE
  5
F0
330
E3
100
AcDbEntity
  8
0
  6
Continuous
100
AcDbLine
 10
111.8696751541864
 20
146.6292945073869
 30
0.0
 11
97.86967720951661
 21
146.6292945073869
 31
0.0
  0
HATCH
  5
F1
330
E3
100
AcDbEntity
  8
0
  6
Continuous
 62
   255
370
     0
100
AcDbHatch
 10
0.0
 20
0.0
 30
0.0
210
0.0
220
0.0
230
1.0
  2
SOLID
 70
     1
 71
     0
 91
        1
 92
        3
 72
     0
 73
     1
 93
        4
 10
97.8696764022278
 20
119.6292955234528
 10
186.5474359094478
 20
119.6292955234528
 10
186.5474359094478
 20
137.6292955234528
 10
97.86967640222781
 20
137.6292955234528
 97
        0
 75
     0
 76
     1
 98
        0
  0
LINE
  5
F2
330
E3
100
AcDbEntity
  8
0
  6
Continuous
100
AcDbLine
 10
97.86967720951661
 20
119.6292968194333
 30
0.0
 11
186.5474361260769
 21
119.6292968194333
 31
0.0
  0
LINE
  5
F3
330
E3
100
AcDbEntity
  8
0
  6
Continuous
100
AcDbLine
 10
186.5474361260769
 20
119.6292968194333
 30
0.0
 11
186.5474361260769
 21
137.6292952780691
 31
0.0
  0
LINE
  5
F4
330
E3
100
AcDbEntity
  8
0
  6
Continuous
100
AcDbLine
 10
186.5474361260769
 20
137.6292952780691
 30
0.0
 11
97.86967720951661
 21
137.6292952780691
 31
0.0
  0
LINE
  5
F5
330
E3
100
AcDbEntity
  8
0
  6
Continuous
100
AcDbLine
 10
97.86967720951661
 20
137.6292952780691
 30
0.0
 11
97.86967720951661
 21
119.6292968194333
 31
0.0
  0
HATCH
  5
F6
330
E3
100
AcDbEntity
  8
0
  6
Continuous
 62
   255
370
     0
100
AcDbHatch
 10
0.0
 20
0.0
 30
0.0
210
0.0
220
0.0
230
1.0
  2
SOLID
 70
     1
 71
     0
 91
        1
 92
        3
 72
     0
 73
     1
 93
       12
 10
97.86967640222781
 20
116.1246949271835
 10
97.86967640222781
 20
118.1246949271835
 10
96.2696764022278
 20
118.1246949271835
 10
96.2696764022278
 20
119.1246949271835
 10
97.86967640222781
 20
119.1246949271835
 10
97.86967640222781
 20
149.1246949271835
 10
96.2696764022278
 20
149.1246949271835
 10
96.2696764022278
 20
150.1246949271835
 10
97.86967640222781
 20
150.1246949271835
 10
97.86967640222781
 20
152.1246949271835
 10
93.86967640222782
 20
152.1246949271835
 10
93.86967640222781
 20
116.1246949271835
 97
        0
 75
     0
 76
     1
 98
        0
  0
HATCH
  5
F7
330
E3
100
AcDbEntity
  8
0
  6
Continuous
100
AcDbHatch
 10
0.0
 20
0.0
 30
0.0
210
0.0
220
0.0
230
1.0
  2
Wood_0002
 70
     0
 71
     0
 91
        1
 92
        3
 72
     0
 73
     1
 93
       12
 10
97.86967640222781
 20
116.1246949271835
 10
97.86967640222781
 20
118.1246949271835
 10
96.2696764022278
 20
118.1246949271835
 10
96.2696764022278
 20
119.1246949271835
 10
97.86967640222781
 20
119.1246949271835
 10
97.86967640222781
 20
149.1246949271835
 10
96.2696764022278
 20
149.1246949271835
 10
96.2696764022278
 20
150.1246949271835
 10
97.86967640222781
 20
150.1246949271835
 10
97.86967640222781
 20
152.1246949271835
 10
93.86967640222782
 20
152.1246949271835
 10
93.86967640222781
 20
116.1246949271835
 97
        0
 75
     0
 76
     2
 52
0.0
 41
1.0
 77
     0
 78
     1
 53
9.999999999999996
 43
83.88230243259652
 44
79.33406998313191
 45
-0.1562833557601421
 46
0.8863269542313407
 79
     0
 98
        0
  0
LINE
  5
F8
330
E3
100
AcDbEntity
  8
0
  6
Continuous
100
AcDbLine
 10
97.86967720951661
 20
116.1246934780783
 30
0.0
 11
97.86967720951661
 21
118.1246937350613
 31
0.0
  0
LINE
  5
F9
330
E3
100
AcDbEntity
  8
0
  6
Continuous
100
AcDbLine
 10
97.86967720951661
 20
118.1246937350613
 30
0.0
 11
96.26967469140355
 21
118.1246937350613
 31
0.0
  0
LINE
  5
FA
330
E3
100
AcDbEntity
  8
0
  6
Continuous
100
AcDbLine
 10
96.26967469140355
 20
118.1246937350613
 30
0.0
 11
96.26967469140355
 21
119.1246957906583
 31
0.0
  0
LINE
  5
FB
330
E3
100
AcDbEntity
  8
0
  6
Continuous
100
AcDbLine
 10
96.26967469140355
 20
119.1246957906583
 30
0.0
 11
97.86967720951661
 21
119.1246957906583
 31
0.0
  0
LINE
  5
FC
330
E3
100
AcDbEntity
  8
0
  6
Continuous
100
AcDbLine
 10
97.86967720951661
 20
119.1246957906583
 30
0.0
 11
97.86967720951661
 21
149.1246957911919
 31
0.0
  0
LINE
  5
FD
330
E3
100
AcDbEntity
  8
0
  6
Continuous
100
AcDbLine
 10
97.86967720951661
 20
149.1246957911919
 30
0.0
 11
96.26967469140355
 21
149.1246957911919
 31
0.0
  0
LINE
  5
FE
330
E3
100
AcDbEntity
  8
0
  6
Continuous
100
AcDbLine
 10
96.26967469140355
 20
149.1246957911919
 30
0.0
 11
96.26967469140355
 21
150.1246939925778
 31
0.0
  0
LINE
  5
FF
330
E3
100
AcDbEntity
  8
0
  6
Continuous
100
AcDbLine
 10
96.26967469140355
 20
150.1246939925778
 30
0.0
 11
97.86967720951661
 21
150.1246939925778
 31
0.0
  0
LINE
  5
100
330
E3
100
AcDbEntity
  8
0
  6
Continuous
100
AcDbLine
 10
97.86967720951661
 20
150.1246939925778
 30
0.0
 11
97.86967720951661
 21
152.1246942495608
 31
0.0
  0
LINE
  5
101
330
E3
100
AcDbEntity
  8
0
  6
Continuous
100
AcDbLine
 10
97.86967720951661
 20
152.1246942495608
 30
0.0
 11
93.86967669555064
 21
152.1246942495608
 31
0.0
  0
LINE
  5
102
330
E3
100
AcDbEntity
  8
0
  6
Continuous
100
AcDbLine
 10
93.86967669555064
 20
152.1246942495608
 30
0.0
 11
93.86967669555064
 21
116.1246934780783
 31
0.0
  0
LINE
  5
103
330
E3
100
AcDbEntity
  8
0
  6
Continuous
100
AcDbLine
 10
93.86967669555064
 20
116.1246934780783
 30
0.0
 11
97.86967720951661
 21
116.1246934780783
 31
0.0
  0
HATCH
  5
104
330
E3
100
AcDbEntity
  8
0
  6
Continuous
 62
   255
370
     0
100
AcDbHatch
 10
0.0
 20
0.0
 30
0.0
210
0.0
220
0.0
230
1.0
  2
SOLID
 70
     1
 71
     0
 91
        1
 92
        3
 72
     0
 73
     1
 93
        4
 10
106.8696764022278
 20
137.6292955234528
 10
97.86967640222781
 20
137.6292955234528
 10
97.86967640222781
 20
119.6292955234528
 10
106.8696764022278
 20
119.6292955234528
 97
        0
 75
     0
 76
     1
 98
        0
  0
LINE
  5
105
330
E3
100
AcDbEntity
  8
0
  6
Continuous
100
AcDbLine
 10
97.86967720951661
 20
137.6292952780691
 30
0.0
 11
106.8696764388345
 21
119.6292968194333
 31
0.0
  0
LINE
  5
106
330
E3
100
AcDbEntity
  8
0
  6
Continuous
100
AcDbLine
 10
106.8696764388345
 20
137.6292952780691
 30
0.0
 11
97.86967720951661
 21
119.6292968194333
 31
0.0
  0
LINE
  5
107
330
E3
100
AcDbEntity
  8
0
  6
Continuous
100
AcDbLine
 10
106.8696764388345
 20
137.6292952780691
 30
0.0
 11
97.86967720951661
 21
137.6292952780691
 31
0.0
  0
LINE
  5
108
330
E3
100
AcDbEntity
  8
0
  6
Continuous
100
AcDbLine
 10
97.86967720951661
 20
137.6292952780691
 30
0.0
 11
97.86967720951661
 21
119.6292968194333
 31
0.0
  0
LINE
  5
109
330
E3
100
AcDbEntity
  8
0
  6
Continuous
100
AcDbLine
 10
97.86967720951661
 20
119.6292968194333
 30
0.0
 11
106.8696764388345
 21
119.6292968194333
 31
0.0
  0
LINE
  5
10A
330
E3
100
AcDbEntity
  8
0
  6
Continuous
100
AcDbLine
 10
106.8696764388345
 20
119.6292968194333
 30
0.0
 11
106.8696764388345
 21
137.6292952780691
 31
0.0
  0
LINE
  5
10C
330
E3
100
AcDbEntity
  8
0
  6
Dashed
100
AcDbLine
 10
98.5178244773935
 20
147.5813386139682
 30
0.0
 11
187.2274846994271
 21
147.5813386139682
 31
0.0
  0
LINE
  5
10D
330
E3
100
AcDbEntity
  8
0
  6
Dashed
100
AcDbLine
 10
98.5178244773935
 20
147.5813386139682
 30
0.0
 11
98.5178244773935
 21
152.1246942495608
 31
0.0
  0
LWPOLYLINE
  5
10E
330
E3
100
AcDbEntity
  8
0
  6
Continuous
100
AcDbPolyline
 90
        6
 70
   128
 43
0.0
 10
136.5808342529191
 20
150.9822540761809
 10
132.8883733852765
 20
156.0100733155921
 10
93.11308041997157
 20
156.0100733155921
 10
93.11308041997157
 20
138.6217698054116
 10
91.11228504049976
 20
137.310903867137
 10
93.07858394791171
 20
135.344604959725
  0
LWPOLYLINE
  5
10F
330
E3
100
AcDbEntity
  8
0
  6
Continuous
100
AcDbPolyline
 90
        3
 70
   128
 43
0.0
 10
173.92202874304
 20
150.1187399770792
 42
-0.5012060838038215
 10
166.2672529554057
 20
150.3410646480464
 42
0.4736328287552234
 10
158.9469518234656
 20
150.2359459029689
  0
LWPOLYLINE
  5
110
330
E3
100
AcDbEntity
  8
0
  6
Continuous
100
AcDbPolyline
 90
       32
 70
   128
 43
0.0
 10
99.35560821902433
 20
148.3490964568213
 10
104.5556082190243
 20
155.5490964568212
 10
108.1556082190244
 20
155.5490964568212
 10
113.3556082190244
 20
148.3490964568213
 10
123.3556082190244
 20
148.3490964568213
 10
128.5556082190243
 20
155.5490964568212
 10
132.1556082190245
 20
155.5490964568212
 10
137.3556082190244
 20
148.3490964568213
 10
147.3556082190244
 20
148.3490964568213
 10
152.5556082190243
 20
155.5490964568212
 10
156.1556082190245
 20
155.5490964568212
 10
161.3556082190244
 20
148.3490964568213
 10
171.3556082190244
 20
148.3490964568213
 10
176.5556082190244
 20
155.5490964568212
 10
180.1556082190245
 20
155.5490964568212
 10
185.3556082190245
 20
148.3490964568213
 10
195.3556082190244
 20
148.3490964568213
 10
200.5556082190244
 20
155.5490964568212
 10
204.1556082190245
 20
155.5490964568212
 10
209.3556082190245
 20
148.3490964568213
 10
219.3556082190244
 20
148.3490964568213
 10
224.5556082190244
 20
155.5490964568212
 10
228.1556082190245
 20
155.5490964568212
 10
233.3556082190245
 20
148.3490964568213
 10
243.3556082190245
 20
148.3490964568213
 10
248.5556082190244
 20
155.5490964568212
 10
252.1556082190245
 20
155.5490964568212
 10
257.3556082190245
 20
148.3490964568213
 10
267.3556082190245
 20
148.3490964568213
 10
272.5556082190245
 20
155.5490964568212
 10
276.1556082190246
 20
155.5490964568212
 10
281.3556082190245
 20
148.3490964568213
  0
LINE
  5
111
330
E3
100
AcDbEntity
  8
Doc_ Floor
  6
Continuous
100
AcDbLine
 10
86.00066874108977
 20
137.6437716950508
 30
0.0
 11
86.00066874108977
 21
138.6217700593409
 31
0.0
  0
LINE
  5
112
330
E3
100
AcDbEntity
  8
Doc_ Floor
  6
Continuous
100
AcDbLine
 10
86.00066874108977
 20
138.6217700593409
 30
0.0
 11
86.00066874108977
 21
152.1246942495608
 31
0.0
  0
LINE
  5
113
330
E3
100
AcDbEntity
  8
Doc_ Floor
  6
Continuous
100
AcDbLine
 10
85.00066668549272
 20
139.1991193230813
 30
0.0
 11
87.00066694247569
 21
138.0444207956006
 31
0.0
  0
LINE
  5
114
330
E3
100
AcDbEntity
  8
Doc_ Floor
  6
Continuous
100
AcDbLine
 10
87.00066694247569
 20
151.5473449858205
 30
0.0
 11
85.00066668549272
 21
152.7020435133011
 31
0.0
  0
LINE
  5
115
330
E3
100
AcDbEntity
  8
Doc_ Floor
  6
Continuous
100
AcDbLine
 10
86.00066874108977
 20
152.1246942495608
 30
0.0
 11
86.00066874108977
 21
153.1026964680622
 31
0.0
  0
LINE
  5
116
330
E3
100
AcDbEntity
  8
Doc_ Floor
  6
Continuous
100
AcDbLine
 10
87.50066604316865
 20
138.6217700593409
 30
0.0
 11
84.50066758479974
 21
138.6217700593409
 31
0.0
  0
LINE
  5
117
330
E3
100
AcDbEntity
  8
Doc_ Floor
  6
Continuous
100
AcDbLine
 10
87.50066604316865
 20
152.1246942495608
 30
0.0
 11
84.50066758479974
 21
152.1246942495608
 31
0.0
  0
MTEXT
  5
118
330
E3
100
AcDbEntity
  8
Doc_ Floor
  6
Continuous
100
AcDbMText
 10
85.50066744934102
 20
144.0438198687175
 30
0.0
 40
2.5
 41
0.0
 71
     7
 72
     1
  1
{A}
  7
GENERATED_STYLE_1
 11
6.123233995736766E-17
 21
1.0
 31
0.0
 73
     1
 44
1.0
  0
LINE
  5
119
330
E3
100
AcDbEntity
  8
Doc_ Floor
  6
Continuous
100
AcDbLine
 10
92.13508127077672
 20
162.8509753702582
 30
0.0
 11
93.11307963506692
 21
162.8509753702582
 31
0.0
  0
LINE
  5
11A
330
E3
100
AcDbEntity
  8
Doc_ Floor
  6
Continuous
100
AcDbLine
 10
93.11307963506692
 20
162.8509753702582
 30
0.0
 11
132.8883727035646
 21
162.8509753702582
 31
0.0
  0
LINE
  5
11B
330
E3
100
AcDbEntity
  8
Doc_ Floor
  6
Continuous
100
AcDbLine
 10
93.69042889880724
 20
163.8509774258552
 30
0.0
 11
92.53573037132662
 21
161.8509771688722
 31
0.0
  0
LINE
  5
11C
330
E3
100
AcDbEntity
  8
Doc_ Floor
  6
Continuous
100
AcDbLine
 10
132.3110234398243
 20
161.8509771688722
 30
0.0
 11
133.4657219673049
 21
163.8509774258552
 31
0.0
  0
LINE
  5
11D
330
E3
100
AcDbEntity
  8
Doc_ Floor
  6
Continuous
100
AcDbLine
 10
132.8883727035646
 20
162.8509753702582
 30
0.0
 11
133.8663749220659
 21
162.8509753702582
 31
0.0
  0
LINE
  5
11E
330
E3
100
AcDbEntity
  8
Doc_ Floor
  6
Continuous
100
AcDbLine
 10
93.11307963506692
 20
161.3509742139681
 30
0.0
 11
93.11307963506692
 21
164.3509765265482
 31
0.0
  0
LINE
  5
11F
330
E3
100
AcDbEntity
  8
Doc_ Floor
  6
Continuous
100
AcDbLine
 10
132.8883727035646
 20
161.3509742139681
 30
0.0
 11
132.8883727035646
 21
164.3509765265482
 31
0.0
  0
MTEXT
  5
120
330
E3
100
AcDbEntity
  8
Doc_ Floor
  6
Continuous
100
AcDbMText
 10
111.9889618994197
 20
163.3509755646085
 30
0.0
 40
2.5
 41
0.0
 71
     7
 72
     1
  1
{B}
  7
GENERATED_STYLE_1
 73
     1
 44
1.0
  0
MTEXT
  5
122
330
E3
100
AcDbEntity
  8
Doc_ Floor
  6
Continuous
100
AcDbMText
 10
101.5741977126489
 20
174.0365515113153
 30
0.0
 40
2.5
 41
56.6835322004004
 71
     6
 72
     1
  1
\A1;{\fCentury Gothic|b0|i0|c0|p34;TRS 7\PMIN. ROOF PITCH 3\fArial|b0|i0|c0|p34;\H1.029412x;\U+00B0}
  7
GENERATED_STYLE_1
 73
     1
 44
1.056356172275314
  0
LINE
  5
123
330
E3
100
AcDbEntity
  8
Doc_ Floor
  6
Continuous
100
AcDbLine
 10
124.7300175573924
 20
150.2521219207592
 30
0.0
 11
123.2423344598547
 21
153.8179339889743
 31
0.0
  0
LINE
  5
124
330
E3
100
AcDbEntity
  8
Doc_ Floor
  6
Continuous
100
AcDbLine
 10
124.7300175573924
 20
150.2521219207592
 30
0.0
 11
125.2245513867116
 21
154.0840441418191
 31
0.0
  0
LINE
  5
125
330
E3
100
AcDbEntity
  8
Doc_ Floor
  6
Continuous
100
AcDbLine
 10
123.2423344598547
 20
153.8179339889743
 30
0.0
 11
125.2245513867116
 21
154.0840441418191
 31
0.0
  0
LWPOLYLINE
  5
126
330
E3
100
AcDbEntity
  8
Doc_ Floor
  6
Continuous
100
AcDbPolyline
 90
       17
 70
   128
 43
0.0
 10
124.233441945749
 20
153.950988697408
 10
123.7481337488245
 20
156.646299501722
 10
123.1772480290926
 20
159.1173174247674
 10
122.5143115537938
 20
161.3709970260873
 10
121.7528510901683
 20
163.414292865225
 10
120.8863934054564
 20
165.2541595017236
 10
119.9084652668985
 20
166.8975514951262
 10
118.8125934417347
 20
168.3514234049762
 10
117.5923046972054
 20
169.6227297908164
 10
116.241125800551
 20
170.7184252121903
 10
114.7525835190116
 20
171.645464228641
 10
113.1202046198276
 20
172.4108013997115
 10
111.3375158702393
 20
173.0213912849452
 10
109.398044037487
 20
173.4841884438851
 10
107.295315888811
 20
173.8061474360744
 10
105.0228581914515
 20
173.9942228210564
 10
102.5741977126489
 20
174.0553691583741
  0
MTEXT
  5
127
330
E3
100
AcDbEntity
  8
Doc_ Floor
  6
Continuous
100
AcDbMText
 10
158.5825714771158
 20
159.7814592441181
 30
0.0
 40
2.5
 41
0.0
 71
     4
 72
     1
  1
{UNDERLAY}
  7
GENERATED_STYLE_1
 73
     1
 44
1.0
  0
LINE
  5
128
330
E3
100
AcDbEntity
  8
Doc_ Floor
  6
Continuous
100
AcDbLine
 10
149.9841732325123
 20
147.5813386139682
 30
0.0
 11
148.775708459852
 21
151.2511912572643
 31
0.0
  0
LINE
  5
129
330
E3
100
AcDbEntity
  8
Doc_ Floor
  6
Continuous
100
AcDbLine
 10
149.9841732325123
 20
147.5813386139682
 30
0.0
 11
150.772540555291
 21
151.3637534931404
 31
0.0
  0
LINE
  5
12A
330
E3
100
AcDbEntity
  8
Doc_ Floor
  6
Continuous
100
AcDbLine
 10
148.775708459852
 20
151.2511912572643
 30
0.0
 11
150.772540555291
 21
151.3637534931404
 31
0.0
  0
LWPOLYLINE
  5
12B
330
E3
100
AcDbEntity
  8
Doc_ Floor
  6
Continuous
100
AcDbPolyline
 90
        9
 70
   128
 43
0.0
 10
149.7741246620002
 20
151.3074719266342
 10
149.8746802379278
 20
153.4855633782061
 10
150.1980136030622
 20
155.301670272116
 10
150.7578073307944
 20
156.7778525836061
 10
151.5677439945158
 20
157.9361702879186
 10
152.6415061676174
 20
158.7986833602956
 10
153.9927764234905
 20
159.3874517759793
 10
155.6352373355263
 20
159.724535510212
 10
157.5825714771158
 20
159.8319945382357
  0
MTEXT
  5
12C
330
E3
100
AcDbEntity
  8
Doc_ Floor
  6
Continuous
100
AcDbMText
 10
67.37926330255699
 20
166.5529901436539
 30
0.0
 40
2.499999999999999
 41
0.0
 71
     6
 72
     1
  1
{PURLIN}
  7
GENERATED_STYLE_1
 73
     1
 44
1.0
  0
LINE
  5
12D
330
E3
100
AcDbEntity
  8
Doc_ Floor
  6
Continuous
100
AcDbLine
 10
104.5443460750866
 20
143.4615761977464
 30
0.0
 11
101.4279196070842
 21
145.7454545208558
 31
0.0
  0
LINE
  5
12E
330
E3
100
AcDbEntity
  8
Doc_ Floor
  6
Continuous
100
AcDbLine
 10
104.5443460750866
 20
143.4615761977464
 30
0.0
 11
102.9873835325952
 21
146.997683860829
 31
0.0
  0
LINE
  5
12F
330
E3
100
AcDbEntity
  8
Doc_ Floor
  6
Continuous
100
AcDbLine
 10
101.4279196070842
 20
145.7454545208558
 30
0.0
 11
102.9873835325952
 21
146.997683860829
 31
0.0
  0
LWPOLYLINE
  5
130
330
E3
100
AcDbEntity
  8
Doc_ Floor
  6
Continuous
100
AcDbPolyline
 90
       16
 70
   128
 43
0.0
 10
102.2076519828443
 20
146.3715684126118
 10
97.71699404565317
 20
151.5760884228366
 10
95.57168075890893
 20
153.8456555344208
 10
93.47828920119841
 20
155.9028693241113
 10
91.42575282837119
 20
157.7548112472516
 10
89.40300509627689
 20
159.4085627591853
 10
87.39897946076509
 20
160.8712053152562
 10
85.40260937768542
 20
162.1498203708079
 10
83.40282830288747
 20
163.2514893811841
 10
81.38856969222087
 20
164.1832938017285
 10
79.34876700153521
 20
164.9523150877847
 10
77.27235368668006
 20
165.5656346946964
 10
75.14826320350507
 20
166.0303340778073
 10
72.96542900785983
 20
166.353494692461
 10
70.71278455559393
 20
166.5421979940012
 10
68.37926330255699
 20
166.6035254377715
  0
MTEXT
  5
131
330
E3
100
AcDbEntity
  8
Doc_ Floor
  6
Continuous
100
AcDbMText
 10
50.10462093930418
 20
106.2209020242596
 30
0.0
 40
2.5
 41
0.0
 71
     4
 72
     1
  1
{FASCIA}
  7
GENERATED_STYLE_1
 73
     1
 44
1.0
  0
LINE
  5
132
330
E3
100
AcDbEntity
  8
Doc_ Floor
  6
Continuous
100
AcDbLine
 10
95.33684768148652
 20
124.5183212338922
 30
0.0
 11
93.7951555234683
 21
120.9755303687206
 31
0.0
  0
LINE
  5
133
330
E3
100
AcDbEntity
  8
Doc_ Floor
  6
Continuous
100
AcDbLine
 10
95.33684768148652
 20
124.5183212338922
 30
0.0
 11
92.23030726501715
 21
122.2210225476491
 31
0.0
  0
LINE
  5
134
330
E3
100
AcDbEntity
  8
Doc_ Floor
  6
Continuous
100
AcDbLine
 10
93.7951555234683
 20
120.9755303687206
 30
0.0
 11
92.23030726501715
 21
122.2210225476491
 31
0.0
  0
LWPOLYLINE
  5
135
330
E3
100
AcDbEntity
  8
Doc_ Floor
  6
Continuous
100
AcDbPolyline
 90
       13
 70
   128
 43
0.0
 10
93.01273090590456
 20
121.5982759810595
 10
89.63195852679345
 20
117.6521077519055
 10
86.46250120896897
 20
114.3697506674235
 10
83.4417855544582
 20
111.7087766992894
 10
81.9676516640789
 20
110.5980496250015
 10
80.50723816528819
 20
109.6267578191791
 10
79.05272338333941
 20
108.7895977782817
 10
77.59628564348598
 20
108.0812659987686
 10
76.13010327098128
 20
107.4964589770995
 10
74.64635459107869
 20
107.0298732097338
 10
73.13721792903158
 20
106.676205193131
 10
71.59487161009332
 20
106.4301514237506
 10
68.37926330255699
 20
106.2396726124949
  0
MTEXT
  5
136
330
E3
100
AcDbEntity
  8
Doc_ Floor
  6
Continuous
100
AcDbMText
 10
67.37926330255699
 20
156.6883827238835
 30
0.0
 40
2.5
 41
0.0
 71
     6
 72
     1
  1
{METAL FLASHING}
  7
GENERATED_STYLE_1
 73
     1
 44
1.0
  0
LINE
  5
137
330
E3
100
AcDbEntity
  8
Doc_ Floor
  6
Continuous
100
AcDbLine
 10
93.11307963506692
 20
151.0056895712995
 30
0.0
 11
89.27045812392684
 21
151.4087475538018
 31
0.0
  0
LINE
  5
138
330
E3
100
AcDbEntity
  8
Doc_ Floor
  6
Continuous
100
AcDbLine
 10
93.11307963506692
 20
151.0056895712995
 30
0.0
 11
89.9868018034316
 21
153.2760588844192
 31
0.0
  0
LINE
  5
139
330
E3
100
AcDbEntity
  8
Doc_ Floor
  6
Continuous
100
AcDbLine
 10
89.27045812392684
 20
151.4087475538018
 30
0.0
 11
89.9868018034316
 21
153.2760588844192
 31
0.0
  0
LWPOLYLINE
  5
13A
330
E3
100
AcDbEntity
  8
Doc_ Floor
  6
Continuous
100
AcDbPolyline
 90
        8
 70
   128
 43
0.0
 10
89.62862963861326
 20
152.3424030286796
 10
83.58230023872669
 20
154.392110558966
 10
80.86927879535597
 20
155.1481407339855
 10
78.29547482831124
 20
155.7405251023983
 10
75.81022981655077
 20
156.1809411043112
 10
73.36288523903275
 20
156.4810661798311
 10
70.90278257471542
 20
156.6525777690646
 10
68.37926330255699
 20
156.7071533121188
  0
MTEXT
  5
13B
330
E3
100
AcDbEntity
  8
Doc_ Floor
  6
Continuous
100
AcDbMText
 10
67.43197215661465
 20
130.4356267309858
 30
0.0
 40
2.5
 41
39.14846526914619
 71
     6
 72
     1
  1
{BIRD'S BEAK AT BOTTOM EDGE}
  7
GENERATED_STYLE_1
 73
     1
 44
1.070162922071087
  0
LINE
  5
13C
330
E3
100
AcDbEntity
  8
Doc_ Floor
  6
Continuous
100
AcDbLine
 10
91.93233049459924
 20
136.4908615215317
 30
0.0
 11
88.92269650842036
 21
134.0679887826579
 31
0.0
  0
LINE
  5
13D
330
E3
100
AcDbEntity
  8
Doc_ Floor
  6
Continuous
100
AcDbLine
 10
91.93233049459924
 20
136.4908615215317
 30
0.0
 11
88.1144722899308
 21
135.8974093637153
 31
0.0
  0
LINE
  5
13E
330
E3
100
AcDbEntity
  8
Doc_ Floor
  6
Continuous
100
AcDbLine
 10
88.92269650842036
 20
134.0679887826579
 30
0.0
 11
88.1144722899308
 21
135.8974093637153
 31
0.0
  0
LWPOLYLINE
  5
13F
330
E3
100
AcDbEntity
  8
Doc_ Floor
  6
Continuous
100
AcDbPolyline
 90
        9
 70
   128
 43
0.0
 10
88.51858468205654
 20
134.9826995080923
 10
85.65848277021509
 20
133.8231460155944
 10
82.99184050422245
 20
132.8572298042007
 10
80.47182453917725
 20
132.0729210335364
 10
78.0516015301781
 20
131.458189863227
 10
75.68433813232365
 20
131.0010064528977
 10
73.3232010007125
 20
130.689340962174
 10
70.9213567904433
 20
130.5111635506812
 10
68.43197215661465
 20
130.4544443780447
  0
LINE
  5
140
330
E3
100
AcDbEntity
  8
0
  6
Continuous
100
AcDbLine
 10
61.51022114597739
 20
74.28041748190047
 30
0.0
 11
185.8733230378577
 21
74.28041748190047
 31
0.0
  0
LINE
  5
141
330
E3
100
AcDbEntity
  8
0
  6
Continuous
100
AcDbLine
 10
161.9033057166066
 20
82.36678367269876
 30
0.0
 11
161.9033057166066
 21
41.99863584910897
 31
0.0
  0
LINE
  5
142
330
E3
100
AcDbEntity
  8
0
  6
Continuous
100
AcDbLine
 10
61.51022114597739
 20
41.99863584910897
 30
0.0
 11
61.51022114597739
 21
74.28041748190047
 31
0.0
  0
LINE
  5
143
330
E3
100
AcDbEntity
  8
0
  6
Continuous
100
AcDbLine
 10
137.9332883953554
 20
82.36678367269876
 30
0.0
 11
137.9332883953554
 21
41.99863584910897
 31
0.0
  0
LINE
  5
144
330
E3
100
AcDbEntity
  8
0
  6
Continuous
100
AcDbLine
 10
61.51022114597739
 20
63.51982231956627
 30
0.0
 11
185.8733230378577
 21
63.51982231956627
 31
0.0
  0
LINE
  5
145
330
E3
100
AcDbEntity
  8
0
  6
Continuous
100
AcDbLine
 10
61.51022114597739
 20
52.75923101144318
 30
0.0
 11
185.8733230378577
 21
52.75923101144318
 31
0.0
  0
LINE
  5
146
330
E3
100
AcDbEntity
  8
0
  6
Continuous
100
AcDbLine
 10
137.9332883953554
 20
82.36678367269876
 30
0.0
 11
161.9033057166066
 21
82.36678367269876
 31
0.0
  0
LINE
  5
147
330
E3
100
AcDbEntity
  8
0
  6
Continuous
100
AcDbLine
 10
61.51022114597739
 20
41.99863584910897
 30
0.0
 11
185.8733230378577
 21
41.99863584910897
 31
0.0
  0
LINE
  5
148
330
E3
100
AcDbEntity
  8
0
  6
Continuous
100
AcDbLine
 10
185.8733230378577
 20
82.36678367269876
 30
0.0
 11
185.8733230378577
 21
41.99863584910897
 31
0.0
  0
LINE
  5
149
330
E3
100
AcDbEntity
  8
0
  6
Continuous
100
AcDbLine
 10
161.9033057166066
 20
82.36678367269876
 30
0.0
 11
185.8733230378577
 21
82.36678367269876
 31
0.0
  0
MTEXT
  5
14A
330
E3
100
AcDbEntity
  8
0
  6
Continuous
100
AcDbMText
 10
65.06614843570077
 20
65.43677371778317
 30
0.0
 40
2.499999999999999
 41
69.01187578516155
 71
     7
 72
     1
  1
\A1;{\fCentury Gothic|b0|i0|c0|p34;LOW, MEDIUM OR HIGH WIND ZONE.\P ROOF PITCH \fArial|b0|i0|c0|p34;\H1.029412x;\U+2265\fCentury Gothic|b0|i0|c0|p34;\H0.971429x; 10\fArial|b0|i0|c0|p34;\H1.029412x;\U+00B0}
  7
GENERATED_STYLE_1
 73
     1
 44
1.056355725756043
  0
MTEXT
  5
14B
330
E3
100
AcDbEntity
  8
0
  6
Continuous
100
AcDbMText
 10
65.06614843570077
 20
55.01392910979385
 30
0.0
 40
2.5
 41
69.01187578516155
 71
     7
 72
     1
  1
\A1;{\fCentury Gothic|b0|i0|c0|p34;VERY HIGH WIND ZONE.\P ROOF PITCH \fArial|b0|i0|c0|p34;\H1.029412x;<\fCentury Gothic|b0|i0|c0|p34;\H0.971429x; 10\fArial|b0|i0|c0|p34;\H1.029412x;\U+00B0}
  7
GENERATED_STYLE_1
 73
     1
 44
1.056355725756043
  0
MTEXT
  5
14C
330
E3
100
AcDbEntity
  8
0
  6
Continuous
100
AcDbMText
 10
149.5654824922888
 20
67.4766011914433
 30
0.0
 40
2.499999999999999
 41
0.0
 71
     8
 72
     1
  1
{50MM}
  7
GENERATED_STYLE_1
 73
     1
 44
1.0
  0
MTEXT
  5
14D
330
E3
100
AcDbEntity
  8
0
  6
Continuous
100
AcDbMText
 10
149.5654824922888
 20
56.23782166998554
 30
0.0
 40
2.499999999999999
 41
0.0
 71
     8
 72
     1
  1
{75MM}
  7
GENERATED_STYLE_1
 73
     1
 44
1.0
  0
MTEXT
  5
14E
330
E3
100
AcDbEntity
  8
0
  6
Continuous
100
AcDbMText
 10
149.5654824922888
 20
77.35866551464495
 30
0.0
 40
2.499999999999999
 41
0.0
 71
     8
 72
     1
  1
{A}
  7
GENERATED_STYLE_1
 73
     1
 44
1.0
  0
MTEXT
  5
14F
330
E3
100
AcDbEntity
  8
0
  6
Continuous
100
AcDbMText
 10
65.06614843570077
 20
46.54235780053412
 30
0.0
 40
2.5
 41
0.0
 71
     7
 72
     1
  1
{EXTRA WIND ZONE.}
  7
GENERATED_STYLE_1
 73
     1
 44
1.0
  0
MTEXT
  5
150
330
E3
100
AcDbEntity
  8
0
  6
Continuous
100
AcDbMText
 10
149.5654824922888
 20
45.47722830451
 30
0.0
 40
2.499999999999999
 41
0.0
 71
     8
 72
     1
  1
{90MM}
  7
GENERATED_STYLE_1
 73
     1
 44
1.0
  0
MTEXT
  5
151
330
E3
100
AcDbEntity
  8
0
  6
Continuous
100
AcDbMText
 10
173.5354993290769
 20
67.47659859710718
 30
0.0
 40
2.499999999999999
 41
0.0
 71
     8
 72
     1
  1
{2 CRESTS}
  7
GENERATED_STYLE_1
 73
     1
 44
1.0
  0
MTEXT
  5
152
330
E3
100
AcDbEntity
  8
0
  6
Continuous
100
AcDbMText
 10
173.5354993290769
 20
56.23781858932761
 30
0.0
 40
2.499999999999999
 41
0.0
 71
     8
 72
     1
  1
{2 CRESTS}
  7
GENERATED_STYLE_1
 73
     1
 44
1.0
  0
MTEXT
  5
153
330
E3
100
AcDbEntity
  8
0
  6
Continuous
100
AcDbMText
 10
173.5354993290769
 20
77.35866602958063
 30
0.0
 40
2.499999999999999
 41
0.0
 71
     8
 72
     1
  1
{B}
  7
GENERATED_STYLE_1
 73
     1
 44
1.0
  0
MTEXT
  5
154
330
E3
100
AcDbEntity
  8
0
  6
Continuous
100
AcDbMText
 10
173.5354993290769
 20
45.47722522385207
 30
0.0
 40
2.499999999999999
 41
0.0
 71
     8
 72
     1
  1
{2 CRESTS}
  7
GENERATED_STYLE_1
 73
     1
 44
1.0
  0
HATCH
  5
155
330
E3
100
AcDbEntity
  8
0
  6
Continuous
 62
   255
370
     0
100
AcDbHatch
 10
0.0
 20
0.0
 30
0.0
210
0.0
220
0.0
230
1.0
  2
SOLID
 70
     1
 71
     0
 91
        1
 92
        3
 72
     0
 73
     1
 93
        4
 10
96.2696764022278
 20
118.1246949271835
 10
186.5474359094478
 20
118.1246949271835
 10
186.5474359094478
 20
119.0246949271835
 10
96.2696764022278
 20
119.0246949271835
 97
        0
 75
     0
 76
     1
 98
        0
  0
HATCH
  5
156
330
E3
100
AcDbEntity
  8
0
  6
Continuous
100
AcDbHatch
 10
0.0
 20
0.0
 30
0.0
210
0.0
220
0.0
230
1.0
  2
Plaster_0002
 70
     0
 71
     0
 91
        1
 92
        3
 72
     0
 73
     1
 93
        4
 10
96.2696764022278
 20
118.1246949271835
 10
186.5474359094478
 20
118.1246949271835
 10
186.5474359094478
 20
119.0246949271835
 10
96.2696764022278
 20
119.0246949271835
 97
        0
 75
     0
 76
     2
 52
0.0
 41
1.0
 77
     0
 78
     2
 53
0.0
 43
83.88230243259652
 44
79.33406998313191
 45
0.0
 46
1.732050807568877
 79
     2
 49
0.0
 49
-1.0
 53
0.0
 43
84.38230243259652
 44
80.20009537137273
 45
0.0
 46
1.732050807568877
 79
     2
 49
0.0
 49
-1.0
 98
        0
  0
LINE
  5
157
330
E3
100
AcDbEntity
  8
0
  6
Continuous
100
AcDbLine
 10
96.26967469140355
 20
118.1246937350613
 30
0.0
 11
186.5474361260769
 21
118.1246937350613
 31
0.0
  0
LINE
  5
158
330
E3
100
AcDbEntity
  8
0
  6
Continuous
100
AcDbLine
 10
186.5474361260769
 20
118.1246937350613
 30
0.0
 11
186.5474361260769
 21
119.0246944288353
 31
0.0
  0
LINE
  5
159
330
E3
100
AcDbEntity
  8
0
  6
Continuous
100
AcDbLine
 10
186.5474361260769
 20
119.0246944288353
 30
0.0
 11
96.26967469140355
 21
119.0246944288353
 31
0.0
  0
LINE
  5
15A
330
E3
100
AcDbEntity
  8
0
  6
Continuous
100
AcDbLine
 10
96.26967469140355
 20
119.0246944288353
 30
0.0
 11
96.26967469140355
 21
118.1246937350613
 31
0.0
  0
HATCH
  5
15B
330
E3
100
AcDbEntity
  8
0
  6
Continuous
 62
   255
370
     0
100
AcDbHatch
 10
0.0
 20
0.0
 30
0.0
210
0.0
220
0.0
230
1.0
  2
SOLID
 70
     1
 71
     0
 91
        1
 92
        3
 72
     0
 73
     1
 93
        8
 10
145.9793279751634
 20
134.041479518547
 10
151.747798575472
 20
132.7284037475594
 10
148.1793001221035
 20
112.4904344745122
 10
278.0506902381564
 20
112.4904344745122
 10
285.8822815110256
 20
156.9056003335695
 10
156.0108913949727
 20
156.9056003335695
 10
152.4423929416042
 20
136.6676310605223
 10
158.2108596877017
 20
135.3545552895347
 97
        0
 75
     0
 76
     1
 98
        0
  0
LINE
  5
15C
330
E3
100
AcDbEntity
  8
0
  6
Continuous
100
AcDbLine
 10
148.1793001221035
 20
112.4904344745122
 30
0.0
 11
151.747798575472
 21
132.7284037475594
 31
0.0
  0
LINE
  5
15D
330
E3
100
AcDbEntity
  8
0
  6
Continuous
100
AcDbLine
 10
152.4423929416042
 20
136.6676310605223
 30
0.0
 11
156.0108913949727
 21
156.9056003335695
 31
0.0
  0
LINE
  5
15E
330
E3
100
AcDbEntity
  8
0
  6
Continuous
100
AcDbLine
 10
152.4423929416042
 20
136.6676310605223
 30
0.0
 11
158.2108596877017
 21
135.3545552895347
 31
0.0
  0
LINE
  5
15F
330
E3
100
AcDbEntity
  8
0
  6
Continuous
100
AcDbLine
 10
158.2108596877017
 20
135.3545552895347
 30
0.0
 11
145.9793279751634
 21
134.041479518547
 31
0.0
  0
LINE
  5
160
330
E3
100
AcDbEntity
  8
0
  6
Continuous
100
AcDbLine
 10
145.9793279751634
 20
134.041479518547
 30
0.0
 11
151.747798575472
 21
132.7284037475594
 31
0.0
  0
MTEXT
  5
161
330
E3
100
AcDbEntity
  8
Doc_ Floor
  6
Continuous
100
AcDbMText
 10
156.9254001788311
 20
104.1614268557987
 30
0.0
 40
2.499999999999999
 41
0.0
 71
     4
 72
     1
  1
{ROOF FRAME}
  7
GENERATED_STYLE_1
 73
     1
 44
1.0
  0
LINE
  5
162
330
E3
100
AcDbEntity
  8
Doc_ Floor
  6
Continuous
100
AcDbLine
 10
136.3681857589701
 20
129.7926935307387
 30
0.0
 11
138.5840334015299
 21
126.6275382714956
 31
0.0
  0
LINE
  5
163
330
E3
100
AcDbEntity
  8
Doc_ Floor
  6
Continuous
100
AcDbLine
 10
136.3681857589701
 20
129.7926935307387
 30
0.0
 11
136.7045890142942
 21
125.9436624664994
 31
0.0
  0
LINE
  5
164
330
E3
100
AcDbEntity
  8
Doc_ Floor
  6
Continuous
100
AcDbLine
 10
138.5840334015299
 20
126.6275382714956
 30
0.0
 11
136.7045890142942
 21
125.9436624664994
 31
0.0
  0
LWPOLYLINE
  5
165
330
E3
100
AcDbEntity
  8
Doc_ Floor
  6
Continuous
100
AcDbPolyline
 90
       15
 70
   128
 43
0.0
 10
137.6443120843353
 20
126.2855999455933
 10
139.8993924181832
 20
120.6013594761087
 10
142.0689457506489
 20
115.8749629513841
 10
143.1363551566672
 20
113.8516977464375
 10
144.2000292507041
 20
112.0447834214379
 10
145.2658501788815
 20
110.4465166076375
 10
146.3397000873206
 20
109.0491939362887
 10
147.4274611221429
 20
107.8451120386438
 10
148.5350154294698
 20
106.8265675459551
 10
149.6682451554229
 20
105.985857089475
 10
150.8330324461236
 20
105.3152773004558
 10
152.0352594476932
 20
104.8071248101497
 10
153.2808083062534
 20
104.4536962498092
 10
154.5755611679255
 20
104.2472882506865
 10
155.9254001788311
 20
104.180197444034
  0
MTEXT
  5
166
330
E3
100
AcDbEntity
  8
Doc_ Floor
  6
Continuous
100
AcDbMText
 10
139.0606616344359
 20
95.43155827011118
 30
0.0
 40
2.5
 41
0.0
 71
     4
 72
     1
  1
{SOFFIT BOARD}
  7
GENERATED_STYLE_1
 73
     1
 44
1.0
  0
LINE
  5
167
330
E3
100
AcDbEntity
  8
Doc_ Floor
  6
Continuous
100
AcDbLine
 10
112.4861562234685
 20
118.1246937350613
 30
0.0
 11
115.2658325571457
 21
115.4411144473385
 31
0.0
  0
LINE
  5
168
330
E3
100
AcDbEntity
  8
Doc_ Floor
  6
Continuous
100
AcDbLine
 10
112.4861562234685
 20
118.1246937350613
 30
0.0
 11
113.5516374718511
 21
114.4108105838847
 31
0.0
  0
LINE
  5
169
330
E3
100
AcDbEntity
  8
Doc_ Floor
  6
Continuous
100
AcDbLine
 10
115.2658325571457
 20
115.4411144473385
 30
0.0
 11
113.5516374718511
 21
114.4108105838847
 31
0.0
  0
LWPOLYLINE
  5
16A
330
E3
100
AcDbEntity
  8
Doc_ Floor
  6
Continuous
100
AcDbPolyline
 90
       15
 70
   128
 43
0.0
 10
114.4087350927374
 20
114.9259624419595
 10
117.6386064682883
 20
109.9186739336452
 10
120.6680895421725
 20
105.754894057799
 10
122.1267916489359
 20
103.9723803077981
 10
123.5583240998179
 20
102.3804162568101
 10
124.9703293679973
 20
100.9722260851338
 10
126.3704499266523
 20
99.74103397306767
 10
127.7663282489616
 20
98.68006410091051
 10
129.1656068081035
 20
97.78254064896093
 10
130.5759280772566
 20
97.04168779751754
 10
132.0049345295993
 20
96.45072972687902
 10
133.4602686383101
 20
96.00289061734401
 10
134.9495728765675
 20
95.69139464921115
 10
136.4804897175499
 20
95.50946600277908
 10
138.0606616344359
 20
95.45032885834648
  0
HATCH
  5
16B
330
E3
100
AcDbEntity
  8
0
  6
Continuous
 62
   255
370
     0
100
AcDbHatch
 10
0.0
 20
0.0
 30
0.0
210
0.0
220
0.0
230
1.0
  2
SOLID
 70
     1
 71
     0
 91
        1
 92
        3
 72
     0
 73
     1
 93
        4
 10
131.181978420699
 20
157.4222000938079
 10
129.681978420699
 20
157.4222000938079
 10
129.681978420699
 20
156.9222000938079
 10
131.181978420699
 20
156.9222000938079
 97
        0
 75
     0
 76
     1
 98
        0
  0
HATCH
  5
16C
330
E3
100
AcDbEntity
  8
0
  6
Continuous
 62
   255
370
     0
100
AcDbHatch
 10
0.0
 20
0.0
 30
0.0
210
0.0
220
0.0
230
1.0
  2
SOLID
 70
     1
 71
     0
 91
        1
 92
        3
 72
     1
 73
     1
 93
        4
 10
130.931978420699
 20
157.3388667604746
 42
0.1666666666666667
 10
129.931978420699
 20
157.3388667604746
 42
0.0
 10
129.931978420699
 20
157.0055334271412
 42
0.1666666666666667
 10
130.931978420699
 20
157.0055334271412
 42
0.0
 97
        0
 75
     0
 76
     1
 98
        0
  0
ARC
  5
16D
330
E3
100
AcDbEntity
  8
0
  6
Continuous
100
AcDbCircle
 10
130.431978420699
 20
155.8805334271412
 30
0.0
 40
1.541666666666673
100
AcDbArc
 50
71.07535558394882
 51
108.9246444160512
  0
LINE
  5
16E
330
E3
100
AcDbEntity
  8
0
  6
Continuous
100
AcDbLine
 10
129.9319769356414
 20
157.3388676228617
 30
0.0
 11
129.9319769356414
 21
157.0055323195923
 31
0.0
  0
ARC
  5
16F
330
E3
100
AcDbEntity
  8
0
  6
Continuous
100
AcDbCircle
 10
130.431978420699
 20
158.4638667604746
 30
0.0
 40
1.541666666666673
100
AcDbArc
 50
251.0753555839488
 51
288.9246444160502
  0
LINE
  5
170
330
E3
100
AcDbEntity
  8
0
  6
Continuous
100
AcDbLine
 10
130.9319789912384
 20
157.0055323195923
 30
0.0
 11
130.9319789912384
 21
157.3388676228617
 31
0.0
  0
HATCH
  5
171
330
E3
100
AcDbEntity
  8
0
  6
Continuous
 62
   255
370
     0
100
AcDbHatch
 10
0.0
 20
0.0
 30
0.0
210
0.0
220
0.0
230
1.0
  2
SOLID
 70
     1
 71
     0
 91
        1
 92
        3
 72
     1
 73
     1
 93
        4
 10
131.431978420699
 20
157.3388667604745
 42
0.3333333333333333
 10
130.931978420699
 20
157.3388667604746
 42
0.0
 10
130.931978420699
 20
157.0055334271412
 42
0.3333333333333333
 10
131.431978420699
 20
157.0055334271412
 42
0.0
 97
        0
 75
     0
 76
     1
 98
        0
  0
ARC
  5
172
330
E3
100
AcDbEntity
  8
0
  6
Continuous
100
AcDbCircle
 10
131.181978420699
 20
157.0055334271412
 30
0.0
 40
0.4166666666666763
100
AcDbArc
 50
53.13010235415216
 51
126.8698976458394
  0
LINE
  5
173
330
E3
100
AcDbEntity
  8
0
  6
Continuous
100
AcDbLine
 10
130.9319789912384
 20
157.3388676228617
 30
0.0
 11
130.9319789912384
 21
157.0055323195923
 31
0.0
  0
ARC
  5
174
330
E3
100
AcDbEntity
  8
0
  6
Continuous
100
AcDbCircle
 10
131.181978420699
 20
157.3388667604746
 30
0.0
 40
0.4166666666666596
100
AcDbArc
 50
233.1301023541552
 51
306.8698976458448
  0
LINE
  5
175
330
E3
100
AcDbEntity
  8
0
  6
Continuous
100
AcDbLine
 10
131.4319780919314
 20
157.0055323195923
 30
0.0
 11
131.4319780919314
 21
157.3388676228617
 31
0.0
  0
HATCH
  5
176
330
E3
100
AcDbEntity
  8
0
  6
Continuous
 62
   255
370
     0
100
AcDbHatch
 10
0.0
 20
0.0
 30
0.0
210
0.0
220
0.0
230
1.0
  2
SOLID
 70
     1
 71
     0
 91
        1
 92
        3
 72
     1
 73
     1
 93
        4
 10
129.431978420699
 20
157.3388667604746
 42
0.0
 10
129.431978420699
 20
157.0055334271412
 42
0.3333333333333333
 10
129.931978420699
 20
157.0055334271412
 42
0.0
 10
129.931978420699
 20
157.3388667604746
 42
0.3333333333333333
 97
        0
 75
     0
 76
     1
 98
        0
  0
LINE
  5
177
330
E3
100
AcDbEntity
  8
0
  6
Continuous
100
AcDbLine
 10
129.4319778349484
 20
157.0055323195923
 30
0.0
 11
129.4319778349484
 21
157.3388676228617
 31
0.0
  0
ARC
  5
178
330
E3
100
AcDbEntity
  8
0
  6
Continuous
100
AcDbCircle
 10
129.681978420699
 20
157.3388667604746
 30
0.0
 40
0.4166666666666596
100
AcDbArc
 50
233.1301023541552
 51
306.8698976458448
  0
LINE
  5
179
330
E3
100
AcDbEntity
  8
0
  6
Continuous
100
AcDbLine
 10
129.9319769356414
 20
157.3388676228617
 30
0.0
 11
129.9319769356414
 21
157.0055323195923
 31
0.0
  0
ARC
  5
17A
330
E3
100
AcDbEntity
  8
0
  6
Continuous
100
AcDbCircle
 10
129.681978420699
 20
157.0055334271413
 30
0.0
 40
0.4166666666666375
100
AcDbArc
 50
53.13010235415292
 51
126.8698976458448
  0
HATCH
  5
17B
330
E3
100
AcDbEntity
  8
0
  6
Continuous
 62
   255
370
     0
100
AcDbHatch
 10
0.0
 20
0.0
 30
0.0
210
0.0
220
0.0
230
1.0
  2
SOLID
 70
     1
 71
     0
 91
        1
 92
        3
 72
     0
 73
     1
 93
        4
 10
130.098645420699
 20
156.9222000938079
 10
130.098645420699
 20
155.3222000938079
 10
130.765311420699
 20
155.3222000938079
 10
130.765311420699
 20
156.9222000938079
 97
        0
 75
     0
 76
     1
 98
        0
  0
LINE
  5
17C
330
E3
100
AcDbEntity
  8
0
  6
Continuous
100
AcDbLine
 10
130.0986445872761
 20
156.9222004208806
 30
0.0
 11
130.0986445872761
 21
155.3222017569786
 31
0.0
  0
LINE
  5
17D
330
E3
100
AcDbEntity
  8
0
  6
Continuous
100
AcDbLine
 10
130.0986445872761
 20
155.3222017569786
 30
0.0
 11
130.7653113396037
 21
155.3222017569786
 31
0.0
  0
LINE
  5
17E
330
E3
100
AcDbEntity
  8
0
  6
Continuous
100
AcDbLine
 10
130.7653113396037
 20
155.3222017569786
 30
0.0
 11
130.7653113396037
 21
156.9222004208806
 31
0.0
  0
LINE
  5
17F
330
E3
100
AcDbEntity
  8
0
  6
Continuous
100
AcDbLine
 10
130.7653113396037
 20
156.9222004208806
 30
0.0
 11
130.0986445872761
 21
156.9222004208806
 31
0.0
  0
HATCH
  5
180
330
E3
100
AcDbEntity
  8
0
  6
Continuous
 62
   255
370
     0
100
AcDbHatch
 10
0.0
 20
0.0
 30
0.0
210
0.0
220
0.0
230
1.0
  2
SOLID
 70
     1
 71
     0
 91
        1
 92
        3
 72
     0
 73
     1
 93
        5
 10
130.131978420699
 20
155.3222000938079
 10
130.1319784206989
 20
142.9222000938079
 10
130.4319784206989
 20
142.3222000938079
 10
130.7319784206989
 20
142.9222000938079
 10
130.731978420699
 20
155.3222000938079
 97
        0
 75
     0
 76
     1
 98
        0
  0
LINE
  5
181
330
E3
100
AcDbEntity
  8
0
  6
Continuous
100
AcDbLine
 10
130.1319796592875
 20
155.3222017569786
 30
0.0
 11
130.1319796592875
 21
142.9221986219997
 31
0.0
  0
LINE
  5
182
330
E3
100
AcDbEntity
  8
0
  6
Continuous
100
AcDbLine
 10
130.1319796592875
 20
142.9221986219997
 30
0.0
 11
130.4319798905454
 21
142.3222020136948
 31
0.0
  0
LINE
  5
183
330
E3
100
AcDbEntity
  8
0
  6
Continuous
100
AcDbLine
 10
130.4319798905454
 20
142.3222020136948
 30
0.0
 11
130.7319801218035
 21
142.9221986219997
 31
0.0
  0
LINE
  5
184
330
E3
100
AcDbEntity
  8
0
  6
Continuous
100
AcDbLine
 10
130.7319801218035
 20
142.9221986219997
 30
0.0
 11
130.7319801218035
 21
155.3222017569786
 31
0.0
  0
LINE
  5
185
330
E3
100
AcDbEntity
  8
0
  6
Continuous
100
AcDbLine
 10
130.7319801218035
 20
155.3222017569786
 30
0.0
 11
130.1319796592875
 21
155.3222017569786
 31
0.0
  0
LINE
  5
186
330
E3
100
AcDbEntity
  8
0
  6
Continuous
100
AcDbLine
 10
131.1819785415849
 20
157.4221995215735
 30
0.0
 11
129.6819773852949
 21
157.4221995215735
 31
0.0
  0
LINE
  5
187
330
E3
100
AcDbEntity
  8
0
  6
Continuous
100
AcDbLine
 10
129.6819773852949
 20
156.9222004208806
 30
0.0
 11
131.1819785415849
 21
156.9222004208806
 31
0.0
  0
LINE
  5
188
330
E3
100
AcDbEntity
  8
0
  6
Continuous
100
AcDbLine
 10
130.931978420699
 20
155.3222000938079
 30
0.0
 11
130.9300757697449
 21
155.3167287133365
 31
0.0
  0
LINE
  5
189
330
E3
100
AcDbEntity
  8
0
  6
Continuous
100
AcDbLine
 10
130.9300757697449
 20
155.3167287133365
 30
0.0
 11
130.9243822972051
 21
155.3112573328651
 31
0.0
  0
LINE
  5
18A
330
E3
100
AcDbEntity
  8
0
  6
Continuous
100
AcDbLine
 10
130.9243822972051
 20
155.3112573328651
 30
0.0
 11
130.9149395238593
 21
155.3057866718015
 31
0.0
  0
LINE
  5
18B
330
E3
100
AcDbEntity
  8
0
  6
Continuous
100
AcDbLine
 10
130.9149395238593
 20
155.3057866718015
 30
0.0
 11
130.9018236434043
 21
155.3003136920055
 31
0.0
  0
LINE
  5
18C
330
E3
100
AcDbEntity
  8
0
  6
Continuous
100
AcDbLine
 10
130.9018236434043
 20
155.3003136920055
 30
0.0
 11
130.8851310550263
 21
155.2948445664206
 31
0.0
  0
LINE
  5
18D
330
E3
100
AcDbEntity
  8
0
  6
Continuous
100
AcDbLine
 10
130.8851310550263
 20
155.2948445664206
 30
0.0
 11
130.8649928019035
 21
155.2893715866244
 31
0.0
  0
LINE
  5
18E
330
E3
100
AcDbEntity
  8
0
  6
Continuous
100
AcDbLine
 10
130.8649928019035
 20
155.2893715866244
 30
0.0
 11
130.8415553440585
 21
155.2838986068284
 31
0.0
  0
LINE
  5
18F
330
E3
100
AcDbEntity
  8
0
  6
Continuous
100
AcDbLine
 10
130.8415553440585
 20
155.2838986068284
 30
0.0
 11
130.8149998294142
 21
155.2784294812434
 31
0.0
  0
LINE
  5
190
330
E3
100
AcDbEntity
  8
0
  6
Continuous
100
AcDbLine
 10
130.8149998294142
 20
155.2784294812434
 30
0.0
 11
130.7855305311602
 21
155.2729565014474
 31
0.0
  0
LINE
  5
191
330
E3
100
AcDbEntity
  8
0
  6
Continuous
100
AcDbLine
 10
130.7855305311602
 20
155.2729565014474
 30
0.0
 11
130.7533709935416
 21
155.2674873758624
 31
0.0
  0
LINE
  5
192
330
E3
100
AcDbEntity
  8
0
  6
Continuous
100
AcDbLine
 10
130.7533709935416
 20
155.2674873758624
 30
0.0
 11
130.7187678860704
 21
155.2620143960664
 31
0.0
  0
LINE
  5
193
330
E3
100
AcDbEntity
  8
0
  6
Continuous
100
AcDbLine
 10
130.7187678860704
 20
155.2620143960664
 30
0.0
 11
130.681979440892
 21
155.2565452704814
 31
0.0
  0
LINE
  5
194
330
E3
100
AcDbEntity
  8
0
  6
Continuous
100
AcDbLine
 10
130.681979440892
 20
155.2565452704814
 30
0.0
 11
130.6432870154182
 21
155.2510722906854
 31
0.0
  0
LINE
  5
195
330
E3
100
AcDbEntity
  8
0
  6
Continuous
100
AcDbLine
 10
130.6432870154182
 20
155.2510722906854
 30
0.0
 11
130.6029873839058
 21
155.2455993108893
 31
0.0
  0
LINE
  5
196
330
E3
100
AcDbEntity
  8
0
  6
Continuous
100
AcDbLine
 10
130.6029873839058
 20
155.2455993108893
 30
0.0
 11
130.5613888832445
 21
155.2401301853044
 31
0.0
  0
LINE
  5
197
330
E3
100
AcDbEntity
  8
0
  6
Continuous
100
AcDbLine
 10
130.5613888832445
 20
155.2401301853044
 30
0.0
 11
130.5188037045356
 21
155.2346572055083
 31
0.0
  0
LINE
  5
198
330
E3
100
AcDbEntity
  8
0
  6
Continuous
100
AcDbLine
 10
130.5188037045356
 20
155.2346572055083
 30
0.0
 11
130.4755556015133
 21
155.2291880799234
 31
0.0
  0
LINE
  5
199
330
E3
100
AcDbEntity
  8
0
  6
Continuous
100
AcDbLine
 10
130.4755556015133
 20
155.2291880799234
 30
0.0
 11
130.4319798905454
 21
155.2237151001273
 31
0.0
  0
LINE
  5
19A
330
E3
100
AcDbEntity
  8
0
  6
Continuous
100
AcDbLine
 10
130.4319798905454
 20
155.2237151001273
 30
0.0
 11
130.3884003253665
 21
155.2182421203312
 31
0.0
  0
LINE
  5
19B
330
E3
100
AcDbEntity
  8
0
  6
Continuous
100
AcDbLine
 10
130.3884003253665
 20
155.2182421203312
 30
0.0
 11
130.3451560765553
 21
155.2127729947463
 31
0.0
  0
LINE
  5
19C
330
E3
100
AcDbEntity
  8
0
  6
Continuous
100
AcDbLine
 10
130.3451560765553
 20
155.2127729947463
 30
0.0
 11
130.3025670436352
 21
155.2073000149502
 31
0.0
  0
LINE
  5
19D
330
E3
100
AcDbEntity
  8
0
  6
Continuous
100
AcDbLine
 10
130.3025670436352
 20
155.2073000149502
 30
0.0
 11
130.260968542974
 21
155.2018308893653
 31
0.0
  0
LINE
  5
19E
330
E3
100
AcDbEntity
  8
0
  6
Continuous
100
AcDbLine
 10
130.260968542974
 20
155.2018308893653
 30
0.0
 11
130.2206689114616
 21
155.1963579095692
 31
0.0
  0
LINE
  5
19F
330
E3
100
AcDbEntity
  8
0
  6
Continuous
100
AcDbLine
 10
130.2206689114616
 20
155.1963579095692
 30
0.0
 11
130.181980340199
 21
155.1908887839843
 31
0.0
  0
LINE
  5
1A0
330
E3
100
AcDbEntity
  8
0
  6
Continuous
100
AcDbLine
 10
130.181980340199
 20
155.1908887839843
 30
0.0
 11
130.1451918950205
 21
155.1854158041882
 31
0.0
  0
LINE
  5
1A1
330
E3
100
AcDbEntity
  8
0
  6
Continuous
100
AcDbLine
 10
130.1451918950205
 20
155.1854158041882
 30
0.0
 11
130.1105849333382
 21
155.1799428243921
 31
0.0
  0
LINE
  5
1A2
330
E3
100
AcDbEntity
  8
0
  6
Continuous
100
AcDbLine
 10
130.1105849333382
 20
155.1799428243921
 30
0.0
 11
130.0784253957196
 21
155.1744736988072
 31
0.0
  0
LINE
  5
1A3
330
E3
100
AcDbEntity
  8
0
  6
Continuous
100
AcDbLine
 10
130.0784253957196
 20
155.1744736988072
 30
0.0
 11
130.0489560974656
 21
155.1690007190111
 31
0.0
  0
LINE
  5
1A4
330
E3
100
AcDbEntity
  8
0
  6
Continuous
100
AcDbLine
 10
130.0489560974656
 20
155.1690007190111
 30
0.0
 11
130.0224005828213
 21
155.1635315934262
 31
0.0
  0
LINE
  5
1A5
330
E3
100
AcDbEntity
  8
0
  6
Continuous
100
AcDbLine
 10
130.0224005828213
 20
155.1635315934262
 30
0.0
 11
129.9989669791875
 21
155.1580586136301
 31
0.0
  0
LINE
  5
1A6
330
E3
100
AcDbEntity
  8
0
  6
Continuous
100
AcDbLine
 10
129.9989669791875
 20
155.1580586136301
 30
0.0
 11
129.9788248718535
 21
155.1525856338341
 31
0.0
  0
LINE
  5
1A7
330
E3
100
AcDbEntity
  8
0
  6
Continuous
100
AcDbLine
 10
129.9788248718535
 20
155.1525856338341
 30
0.0
 11
129.9621322834755
 21
155.1471165082491
 31
0.0
  0
LINE
  5
1A8
330
E3
100
AcDbEntity
  8
0
  6
Continuous
100
AcDbLine
 10
129.9621322834755
 20
155.1471165082491
 30
0.0
 11
129.9490164030205
 21
155.141643528453
 31
0.0
  0
LINE
  5
1A9
330
E3
100
AcDbEntity
  8
0
  6
Continuous
100
AcDbLine
 10
129.9490164030205
 20
155.141643528453
 30
0.0
 11
129.9395735857667
 21
155.1361744028681
 31
0.0
  0
LINE
  5
1AA
330
E3
100
AcDbEntity
  8
0
  6
Continuous
100
AcDbLine
 10
129.9395735857667
 20
155.1361744028681
 30
0.0
 11
129.9338810716531
 21
155.1307017773096
 31
0.0
  0
LINE
  5
1AB
330
E3
100
AcDbEntity
  8
0
  6
Continuous
100
AcDbLine
 10
129.9338810716531
 20
155.1307017773096
 30
0.0
 11
129.931978420699
 21
155.1252303968382
 31
0.0
  0
LINE
  5
1AC
330
E3
100
AcDbEntity
  8
0
  6
Continuous
100
AcDbLine
 10
130.931978420699
 20
154.9282606998685
 30
0.0
 11
130.9300757697449
 21
154.9227893193971
 31
0.0
  0
LINE
  5
1AD
330
E3
100
AcDbEntity
  8
0
  6
Continuous
100
AcDbLine
 10
130.9300757697449
 20
154.9227893193971
 30
0.0
 11
130.9243822972051
 21
154.9173179389257
 31
0.0
  0
LINE
  5
1AE
330
E3
100
AcDbEntity
  8
0
  6
Continuous
100
AcDbLine
 10
130.9243822972051
 20
154.9173179389257
 30
0.0
 11
130.9149395238593
 21
154.9118477528185
 31
0.0
  0
LINE
  5
1AF
330
E3
100
AcDbEntity
  8
0
  6
Continuous
100
AcDbLine
 10
130.9149395238593
 20
154.9118477528185
 30
0.0
 11
130.9018236434043
 21
154.9063747730225
 31
0.0
  0
LINE
  5
1B0
330
E3
100
AcDbEntity
  8
0
  6
Continuous
100
AcDbLine
 10
130.9018236434043
 20
154.9063747730225
 30
0.0
 11
130.8851310550263
 21
154.9009056474375
 31
0.0
  0
LINE
  5
1B1
330
E3
100
AcDbEntity
  8
0
  6
Continuous
100
AcDbLine
 10
130.8851310550263
 20
154.9009056474375
 30
0.0
 11
130.8649928019035
 21
154.8954326676414
 31
0.0
  0
LINE
  5
1B2
330
E3
100
AcDbEntity
  8
0
  6
Continuous
100
AcDbLine
 10
130.8649928019035
 20
154.8954326676414
 30
0.0
 11
130.8415553440585
 21
154.8899596878454
 31
0.0
  0
LINE
  5
1B3
330
E3
100
AcDbEntity
  8
0
  6
Continuous
100
AcDbLine
 10
130.8415553440585
 20
154.8899596878454
 30
0.0
 11
130.8149998294142
 21
154.8844905622605
 31
0.0
  0
LINE
  5
1B4
330
E3
100
AcDbEntity
  8
0
  6
Continuous
100
AcDbLine
 10
130.8149998294142
 20
154.8844905622605
 30
0.0
 11
130.7855305311602
 21
154.8790175824644
 31
0.0
  0
LINE
  5
1B5
330
E3
100
AcDbEntity
  8
0
  6
Continuous
100
AcDbLine
 10
130.7855305311602
 20
154.8790175824644
 30
0.0
 11
130.7533709935416
 21
154.8735484568795
 31
0.0
  0
LINE
  5
1B6
330
E3
100
AcDbEntity
  8
0
  6
Continuous
100
AcDbLine
 10
130.7533709935416
 20
154.8735484568795
 30
0.0
 11
130.7187678860704
 21
154.8680754770834
 31
0.0
  0
LINE
  5
1B7
330
E3
100
AcDbEntity
  8
0
  6
Continuous
100
AcDbLine
 10
130.7187678860704
 20
154.8680754770834
 30
0.0
 11
130.681979440892
 21
154.8626024972873
 31
0.0
  0
LINE
  5
1B8
330
E3
100
AcDbEntity
  8
0
  6
Continuous
100
AcDbLine
 10
130.681979440892
 20
154.8626024972873
 30
0.0
 11
130.6432870154182
 21
154.8571333717024
 31
0.0
  0
LINE
  5
1B9
330
E3
100
AcDbEntity
  8
0
  6
Continuous
100
AcDbLine
 10
130.6432870154182
 20
154.8571333717024
 30
0.0
 11
130.6029873839058
 21
154.8516603919063
 31
0.0
  0
LINE
  5
1BA
330
E3
100
AcDbEntity
  8
0
  6
Continuous
100
AcDbLine
 10
130.6029873839058
 20
154.8516603919063
 30
0.0
 11
130.5613888832445
 21
154.8461912663213
 31
0.0
  0
LINE
  5
1BB
330
E3
100
AcDbEntity
  8
0
  6
Continuous
100
AcDbLine
 10
130.5613888832445
 20
154.8461912663213
 30
0.0
 11
130.5188037045356
 21
154.8407182865253
 31
0.0
  0
LINE
  5
1BC
330
E3
100
AcDbEntity
  8
0
  6
Continuous
100
AcDbLine
 10
130.5188037045356
 20
154.8407182865253
 30
0.0
 11
130.4755556015133
 21
154.8352453067292
 31
0.0
  0
LINE
  5
1BD
330
E3
100
AcDbEntity
  8
0
  6
Continuous
100
AcDbLine
 10
130.4755556015133
 20
154.8352453067292
 30
0.0
 11
130.4319798905454
 21
154.8297761811443
 31
0.0
  0
LINE
  5
1BE
330
E3
100
AcDbEntity
  8
0
  6
Continuous
100
AcDbLine
 10
130.4319798905454
 20
154.8297761811443
 30
0.0
 11
130.3884003253665
 21
154.8243032013482
 31
0.0
  0
LINE
  5
1BF
330
E3
100
AcDbEntity
  8
0
  6
Continuous
100
AcDbLine
 10
130.3884003253665
 20
154.8243032013482
 30
0.0
 11
130.3451560765553
 21
154.8188340757633
 31
0.0
  0
LINE
  5
1C0
330
E3
100
AcDbEntity
  8
0
  6
Continuous
100
AcDbLine
 10
130.3451560765553
 20
154.8188340757633
 30
0.0
 11
130.3025670436352
 21
154.8133610959672
 31
0.0
  0
LINE
  5
1C1
330
E3
100
AcDbEntity
  8
0
  6
Continuous
100
AcDbLine
 10
130.3025670436352
 20
154.8133610959672
 30
0.0
 11
130.260968542974
 21
154.8078919703823
 31
0.0
  0
LINE
  5
1C2
330
E3
100
AcDbEntity
  8
0
  6
Continuous
100
AcDbLine
 10
130.260968542974
 20
154.8078919703823
 30
0.0
 11
130.2206689114616
 21
154.8024189905862
 31
0.0
  0
LINE
  5
1C3
330
E3
100
AcDbEntity
  8
0
  6
Continuous
100
AcDbLine
 10
130.2206689114616
 20
154.8024189905862
 30
0.0
 11
130.181980340199
 21
154.7969460107902
 31
0.0
  0
LINE
  5
1C4
330
E3
100
AcDbEntity
  8
0
  6
Continuous
100
AcDbLine
 10
130.181980340199
 20
154.7969460107902
 30
0.0
 11
130.1451918950205
 21
154.7914768852052
 31
0.0
  0
LINE
  5
1C5
330
E3
100
AcDbEntity
  8
0
  6
Continuous
100
AcDbLine
 10
130.1451918950205
 20
154.7914768852052
 30
0.0
 11
130.1105849333382
 21
154.7860039054091
 31
0.0
  0
LINE
  5
1C6
330
E3
100
AcDbEntity
  8
0
  6
Continuous
100
AcDbLine
 10
130.1105849333382
 20
154.7860039054091
 30
0.0
 11
130.0784253957196
 21
154.7805347798242
 31
0.0
  0
LINE
  5
1C7
330
E3
100
AcDbEntity
  8
0
  6
Continuous
100
AcDbLine
 10
130.0784253957196
 20
154.7805347798242
 30
0.0
 11
130.0489560974656
 21
154.7750618000281
 31
0.0
  0
LINE
  5
1C8
330
E3
100
AcDbEntity
  8
0
  6
Continuous
100
AcDbLine
 10
130.0489560974656
 20
154.7750618000281
 30
0.0
 11
130.0224005828213
 21
154.7695888202321
 31
0.0
  0
LINE
  5
1C9
330
E3
100
AcDbEntity
  8
0
  6
Continuous
100
AcDbLine
 10
130.0224005828213
 20
154.7695888202321
 30
0.0
 11
129.9989669791875
 21
154.7641196946471
 31
0.0
  0
LINE
  5
1CA
330
E3
100
AcDbEntity
  8
0
  6
Continuous
100
AcDbLine
 10
129.9989669791875
 20
154.7641196946471
 30
0.0
 11
129.9788248718535
 21
154.7586467148511
 31
0.0
  0
LINE
  5
1CB
330
E3
100
AcDbEntity
  8
0
  6
Continuous
100
AcDbLine
 10
129.9788248718535
 20
154.7586467148511
 30
0.0
 11
129.9621322834755
 21
154.7531775892661
 31
0.0
  0
LINE
  5
1CC
330
E3
100
AcDbEntity
  8
0
  6
Continuous
100
AcDbLine
 10
129.9621322834755
 20
154.7531775892661
 30
0.0
 11
129.9490164030205
 21
154.74770460947
 31
0.0
  0
LINE
  5
1CD
330
E3
100
AcDbEntity
  8
0
  6
Continuous
100
AcDbLine
 10
129.9490164030205
 20
154.74770460947
 30
0.0
 11
129.9395735857667
 21
154.7422354838851
 31
0.0
  0
LINE
  5
1CE
330
E3
100
AcDbEntity
  8
0
  6
Continuous
100
AcDbLine
 10
129.9395735857667
 20
154.7422354838851
 30
0.0
 11
129.9338810716531
 21
154.7367623833702
 31
0.0
  0
LINE
  5
1CF
330
E3
100
AcDbEntity
  8
0
  6
Continuous
100
AcDbLine
 10
129.9338810716531
 20
154.7367623833702
 30
0.0
 11
129.931978420699
 21
154.7312910028988
 31
0.0
  0
LINE
  5
1D0
330
E3
100
AcDbEntity
  8
0
  6
Continuous
100
AcDbLine
 10
130.931978420699
 20
154.5343213059291
 30
0.0
 11
130.9300757697449
 21
154.5288499254577
 31
0.0
  0
LINE
  5
1D1
330
E3
100
AcDbEntity
  8
0
  6
Continuous
100
AcDbLine
 10
130.9300757697449
 20
154.5288499254577
 30
0.0
 11
130.9243822972051
 21
154.5233785449863
 31
0.0
  0
LINE
  5
1D2
330
E3
100
AcDbEntity
  8
0
  6
Continuous
100
AcDbLine
 10
130.9243822972051
 20
154.5233785449863
 30
0.0
 11
130.9149395238593
 21
154.5179088338355
 31
0.0
  0
LINE
  5
1D3
330
E3
100
AcDbEntity
  8
0
  6
Continuous
100
AcDbLine
 10
130.9149395238593
 20
154.5179088338355
 30
0.0
 11
130.9018236434043
 21
154.5124358540395
 31
0.0
  0
LINE
  5
1D4
330
E3
100
AcDbEntity
  8
0
  6
Continuous
100
AcDbLine
 10
130.9018236434043
 20
154.5124358540395
 30
0.0
 11
130.8851310550263
 21
154.5069628742434
 31
0.0
  0
LINE
  5
1D5
330
E3
100
AcDbEntity
  8
0
  6
Continuous
100
AcDbLine
 10
130.8851310550263
 20
154.5069628742434
 30
0.0
 11
130.8649928019035
 21
154.5014937486584
 31
0.0
  0
LINE
  5
1D6
330
E3
100
AcDbEntity
  8
0
  6
Continuous
100
AcDbLine
 10
130.8649928019035
 20
154.5014937486584
 30
0.0
 11
130.8415553440585
 21
154.4960207688624
 31
0.0
  0
LINE
  5
1D7
330
E3
100
AcDbEntity
  8
0
  6
Continuous
100
AcDbLine
 10
130.8415553440585
 20
154.4960207688624
 30
0.0
 11
130.8149998294142
 21
154.4905516432774
 31
0.0
  0
LINE
  5
1D8
330
E3
100
AcDbEntity
  8
0
  6
Continuous
100
AcDbLine
 10
130.8149998294142
 20
154.4905516432774
 30
0.0
 11
130.7855305311602
 21
154.4850786634814
 31
0.0
  0
LINE
  5
1D9
330
E3
100
AcDbEntity
  8
0
  6
Continuous
100
AcDbLine
 10
130.7855305311602
 20
154.4850786634814
 30
0.0
 11
130.7533709935416
 21
154.4796056836853
 31
0.0
  0
LINE
  5
1DA
330
E3
100
AcDbEntity
  8
0
  6
Continuous
100
AcDbLine
 10
130.7533709935416
 20
154.4796056836853
 30
0.0
 11
130.7187678860704
 21
154.4741365581004
 31
0.0
  0
LINE
  5
1DB
330
E3
100
AcDbEntity
  8
0
  6
Continuous
100
AcDbLine
 10
130.7187678860704
 20
154.4741365581004
 30
0.0
 11
130.681979440892
 21
154.4686635783043
 31
0.0
  0
LINE
  5
1DC
330
E3
100
AcDbEntity
  8
0
  6
Continuous
100
AcDbLine
 10
130.681979440892
 20
154.4686635783043
 30
0.0
 11
130.6432870154182
 21
154.4631944527194
 31
0.0
  0
LINE
  5
1DD
330
E3
100
AcDbEntity
  8
0
  6
Continuous
100
AcDbLine
 10
130.6432870154182
 20
154.4631944527194
 30
0.0
 11
130.6029873839058
 21
154.4577214729233
 31
0.0
  0
LINE
  5
1DE
330
E3
100
AcDbEntity
  8
0
  6
Continuous
100
AcDbLine
 10
130.6029873839058
 20
154.4577214729233
 30
0.0
 11
130.5613888832445
 21
154.4522523473383
 31
0.0
  0
LINE
  5
1DF
330
E3
100
AcDbEntity
  8
0
  6
Continuous
100
AcDbLine
 10
130.5613888832445
 20
154.4522523473383
 30
0.0
 11
130.5188037045356
 21
154.4467793675423
 31
0.0
  0
LINE
  5
1E0
330
E3
100
AcDbEntity
  8
0
  6
Continuous
100
AcDbLine
 10
130.5188037045356
 20
154.4467793675423
 30
0.0
 11
130.4755556015133
 21
154.4413063877462
 31
0.0
  0
LINE
  5
1E1
330
E3
100
AcDbEntity
  8
0
  6
Continuous
100
AcDbLine
 10
130.4755556015133
 20
154.4413063877462
 30
0.0
 11
130.4319798905454
 21
154.4358372621613
 31
0.0
  0
LINE
  5
1E2
330
E3
100
AcDbEntity
  8
0
  6
Continuous
100
AcDbLine
 10
130.4319798905454
 20
154.4358372621613
 30
0.0
 11
130.3884003253665
 21
154.4303642823652
 31
0.0
  0
LINE
  5
1E3
330
E3
100
AcDbEntity
  8
0
  6
Continuous
100
AcDbLine
 10
130.3884003253665
 20
154.4303642823652
 30
0.0
 11
130.3451560765553
 21
154.4248951567803
 31
0.0
  0
LINE
  5
1E4
330
E3
100
AcDbEntity
  8
0
  6
Continuous
100
AcDbLine
 10
130.3451560765553
 20
154.4248951567803
 30
0.0
 11
130.3025670436352
 21
154.4194221769842
 31
0.0
  0
LINE
  5
1E5
330
E3
100
AcDbEntity
  8
0
  6
Continuous
100
AcDbLine
 10
130.3025670436352
 20
154.4194221769842
 30
0.0
 11
130.260968542974
 21
154.4139491971881
 31
0.0
  0
LINE
  5
1E6
330
E3
100
AcDbEntity
  8
0
  6
Continuous
100
AcDbLine
 10
130.260968542974
 20
154.4139491971881
 30
0.0
 11
130.2206689114616
 21
154.4084800716032
 31
0.0
  0
LINE
  5
1E7
330
E3
100
AcDbEntity
  8
0
  6
Continuous
100
AcDbLine
 10
130.2206689114616
 20
154.4084800716032
 30
0.0
 11
130.181980340199
 21
154.4030070918071
 31
0.0
  0
LINE
  5
1E8
330
E3
100
AcDbEntity
  8
0
  6
Continuous
100
AcDbLine
 10
130.181980340199
 20
154.4030070918071
 30
0.0
 11
130.1451918950205
 21
154.3975379662222
 31
0.0
  0
LINE
  5
1E9
330
E3
100
AcDbEntity
  8
0
  6
Continuous
100
AcDbLine
 10
130.1451918950205
 20
154.3975379662222
 30
0.0
 11
130.1105849333382
 21
154.3920649864261
 31
0.0
  0
LINE
  5
1EA
330
E3
100
AcDbEntity
  8
0
  6
Continuous
100
AcDbLine
 10
130.1105849333382
 20
154.3920649864261
 30
0.0
 11
130.0784253957196
 21
154.3865958608412
 31
0.0
  0
LINE
  5
1EB
330
E3
100
AcDbEntity
  8
0
  6
Continuous
100
AcDbLine
 10
130.0784253957196
 20
154.3865958608412
 30
0.0
 11
130.0489560974656
 21
154.3811228810451
 31
0.0
  0
LINE
  5
1EC
330
E3
100
AcDbEntity
  8
0
  6
Continuous
100
AcDbLine
 10
130.0489560974656
 20
154.3811228810451
 30
0.0
 11
130.0224005828213
 21
154.375649901249
 31
0.0
  0
LINE
  5
1ED
330
E3
100
AcDbEntity
  8
0
  6
Continuous
100
AcDbLine
 10
130.0224005828213
 20
154.375649901249
 30
0.0
 11
129.9989669791875
 21
154.3701807756641
 31
0.0
  0
LINE
  5
1EE
330
E3
100
AcDbEntity
  8
0
  6
Continuous
100
AcDbLine
 10
129.9989669791875
 20
154.3701807756641
 30
0.0
 11
129.9788248718535
 21
154.364707795868
 31
0.0
  0
LINE
  5
1EF
330
E3
100
AcDbEntity
  8
0
  6
Continuous
100
AcDbLine
 10
129.9788248718535
 20
154.364707795868
 30
0.0
 11
129.9621322834755
 21
154.3592386702831
 31
0.0
  0
LINE
  5
1F0
330
E3
100
AcDbEntity
  8
0
  6
Continuous
100
AcDbLine
 10
129.9621322834755
 20
154.3592386702831
 30
0.0
 11
129.9490164030205
 21
154.353765690487
 31
0.0
  0
LINE
  5
1F1
330
E3
100
AcDbEntity
  8
0
  6
Continuous
100
AcDbLine
 10
129.9490164030205
 20
154.353765690487
 30
0.0
 11
129.9395735857667
 21
154.348292710691
 31
0.0
  0
LINE
  5
1F2
330
E3
100
AcDbEntity
  8
0
  6
Continuous
100
AcDbLine
 10
129.9395735857667
 20
154.348292710691
 30
0.0
 11
129.9338810716531
 21
154.3428229894308
 31
0.0
  0
LINE
  5
1F3
330
E3
100
AcDbEntity
  8
0
  6
Continuous
100
AcDbLine
 10
129.9338810716531
 20
154.3428229894308
 30
0.0
 11
129.931978420699
 21
154.3373516089594
 31
0.0
  0
LINE
  5
1F4
330
E3
100
AcDbEntity
  8
0
  6
Continuous
100
AcDbLine
 10
130.931978420699
 20
154.1403819119897
 30
0.0
 11
130.9300757697449
 21
154.1349105315183
 31
0.0
  0
LINE
  5
1F5
330
E3
100
AcDbEntity
  8
0
  6
Continuous
100
AcDbLine
 10
130.9300757697449
 20
154.1349105315183
 30
0.0
 11
130.9243822972051
 21
154.1294391510469
 31
0.0
  0
LINE
  5
1F6
330
E3
100
AcDbEntity
  8
0
  6
Continuous
100
AcDbLine
 10
130.9243822972051
 20
154.1294391510469
 30
0.0
 11
130.9149395238593
 21
154.1239660606414
 31
0.0
  0
LINE
  5
1F7
330
E3
100
AcDbEntity
  8
0
  6
Continuous
100
AcDbLine
 10
130.9149395238593
 20
154.1239660606414
 30
0.0
 11
130.9018236434043
 21
154.1184969350564
 31
0.0
  0
LINE
  5
1F8
330
E3
100
AcDbEntity
  8
0
  6
Continuous
100
AcDbLine
 10
130.9018236434043
 20
154.1184969350564
 30
0.0
 11
130.8851310550263
 21
154.1130239552604
 31
0.0
  0
LINE
  5
1F9
330
E3
100
AcDbEntity
  8
0
  6
Continuous
100
AcDbLine
 10
130.8851310550263
 20
154.1130239552604
 30
0.0
 11
130.8649928019035
 21
154.1075548296754
 31
0.0
  0
LINE
  5
1FA
330
E3
100
AcDbEntity
  8
0
  6
Continuous
100
AcDbLine
 10
130.8649928019035
 20
154.1075548296754
 30
0.0
 11
130.8415553440585
 21
154.1020818498794
 31
0.0
  0
LINE
  5
1FB
330
E3
100
AcDbEntity
  8
0
  6
Continuous
100
AcDbLine
 10
130.8415553440585
 20
154.1020818498794
 30
0.0
 11
130.8149998294142
 21
154.0966127242944
 31
0.0
  0
LINE
  5
1FC
330
E3
100
AcDbEntity
  8
0
  6
Continuous
100
AcDbLine
 10
130.8149998294142
 20
154.0966127242944
 30
0.0
 11
130.7855305311602
 21
154.0911397444983
 31
0.0
  0
LINE
  5
1FD
330
E3
100
AcDbEntity
  8
0
  6
Continuous
100
AcDbLine
 10
130.7855305311602
 20
154.0911397444983
 30
0.0
 11
130.7533709935416
 21
154.0856667647023
 31
0.0
  0
LINE
  5
1FE
330
E3
100
AcDbEntity
  8
0
  6
Continuous
100
AcDbLine
 10
130.7533709935416
 20
154.0856667647023
 30
0.0
 11
130.7187678860704
 21
154.0801976391174
 31
0.0
  0
LINE
  5
1FF
330
E3
100
AcDbEntity
  8
0
  6
Continuous
100
AcDbLine
 10
130.7187678860704
 20
154.0801976391174
 30
0.0
 11
130.681979440892
 21
154.0747246593212
 31
0.0
  0
LINE
  5
200
330
E3
100
AcDbEntity
  8
0
  6
Continuous
100
AcDbLine
 10
130.681979440892
 20
154.0747246593212
 30
0.0
 11
130.6432870154182
 21
154.0692555337363
 31
0.0
  0
LINE
  5
201
330
E3
100
AcDbEntity
  8
0
  6
Continuous
100
AcDbLine
 10
130.6432870154182
 20
154.0692555337363
 30
0.0
 11
130.6029873839058
 21
154.0637825539403
 31
0.0
  0
LINE
  5
202
330
E3
100
AcDbEntity
  8
0
  6
Continuous
100
AcDbLine
 10
130.6029873839058
 20
154.0637825539403
 30
0.0
 11
130.5613888832445
 21
154.0583095741442
 31
0.0
  0
LINE
  5
203
330
E3
100
AcDbEntity
  8
0
  6
Continuous
100
AcDbLine
 10
130.5613888832445
 20
154.0583095741442
 30
0.0
 11
130.5188037045356
 21
154.0528404485593
 31
0.0
  0
LINE
  5
204
330
E3
100
AcDbEntity
  8
0
  6
Continuous
100
AcDbLine
 10
130.5188037045356
 20
154.0528404485593
 30
0.0
 11
130.4755556015133
 21
154.0473674687632
 31
0.0
  0
LINE
  5
205
330
E3
100
AcDbEntity
  8
0
  6
Continuous
100
AcDbLine
 10
130.4755556015133
 20
154.0473674687632
 30
0.0
 11
130.4319798905454
 21
154.0418983431783
 31
0.0
  0
LINE
  5
206
330
E3
100
AcDbEntity
  8
0
  6
Continuous
100
AcDbLine
 10
130.4319798905454
 20
154.0418983431783
 30
0.0
 11
130.3884003253665
 21
154.0364253633822
 31
0.0
  0
LINE
  5
207
330
E3
100
AcDbEntity
  8
0
  6
Continuous
100
AcDbLine
 10
130.3884003253665
 20
154.0364253633822
 30
0.0
 11
130.3451560765553
 21
154.0309523835861
 31
0.0
  0
LINE
  5
208
330
E3
100
AcDbEntity
  8
0
  6
Continuous
100
AcDbLine
 10
130.3451560765553
 20
154.0309523835861
 30
0.0
 11
130.3025670436352
 21
154.0254832580012
 31
0.0
  0
LINE
  5
209
330
E3
100
AcDbEntity
  8
0
  6
Continuous
100
AcDbLine
 10
130.3025670436352
 20
154.0254832580012
 30
0.0
 11
130.260968542974
 21
154.0200102782051
 31
0.0
  0
LINE
  5
20A
330
E3
100
AcDbEntity
  8
0
  6
Continuous
100
AcDbLine
 10
130.260968542974
 20
154.0200102782051
 30
0.0
 11
130.2206689114616
 21
154.0145411526202
 31
0.0
  0
LINE
  5
20B
330
E3
100
AcDbEntity
  8
0
  6
Continuous
100
AcDbLine
 10
130.2206689114616
 20
154.0145411526202
 30
0.0
 11
130.181980340199
 21
154.0090681728241
 31
0.0
  0
LINE
  5
20C
330
E3
100
AcDbEntity
  8
0
  6
Continuous
100
AcDbLine
 10
130.181980340199
 20
154.0090681728241
 30
0.0
 11
130.1451918950205
 21
154.0035990472392
 31
0.0
  0
LINE
  5
20D
330
E3
100
AcDbEntity
  8
0
  6
Continuous
100
AcDbLine
 10
130.1451918950205
 20
154.0035990472392
 30
0.0
 11
130.1105849333382
 21
153.9981260674431
 31
0.0
  0
LINE
  5
20E
330
E3
100
AcDbEntity
  8
0
  6
Continuous
100
AcDbLine
 10
130.1105849333382
 20
153.9981260674431
 30
0.0
 11
130.0784253957196
 21
153.992653087647
 31
0.0
  0
LINE
  5
20F
330
E3
100
AcDbEntity
  8
0
  6
Continuous
100
AcDbLine
 10
130.0784253957196
 20
153.992653087647
 30
0.0
 11
130.0489560974656
 21
153.9871839620621
 31
0.0
  0
LINE
  5
210
330
E3
100
AcDbEntity
  8
0
  6
Continuous
100
AcDbLine
 10
130.0489560974656
 20
153.9871839620621
 30
0.0
 11
130.0224005828213
 21
153.981710982266
 31
0.0
  0
LINE
  5
211
330
E3
100
AcDbEntity
  8
0
  6
Continuous
100
AcDbLine
 10
130.0224005828213
 20
153.981710982266
 30
0.0
 11
129.9989669791875
 21
153.9762418566811
 31
0.0
  0
LINE
  5
212
330
E3
100
AcDbEntity
  8
0
  6
Continuous
100
AcDbLine
 10
129.9989669791875
 20
153.9762418566811
 30
0.0
 11
129.9788248718535
 21
153.970768876885
 31
0.0
  0
LINE
  5
213
330
E3
100
AcDbEntity
  8
0
  6
Continuous
100
AcDbLine
 10
129.9788248718535
 20
153.970768876885
 30
0.0
 11
129.9621322834755
 21
153.965295897089
 31
0.0
  0
LINE
  5
214
330
E3
100
AcDbEntity
  8
0
  6
Continuous
100
AcDbLine
 10
129.9621322834755
 20
153.965295897089
 30
0.0
 11
129.9490164030205
 21
153.959826771504
 31
0.0
  0
LINE
  5
215
330
E3
100
AcDbEntity
  8
0
  6
Continuous
100
AcDbLine
 10
129.9490164030205
 20
153.959826771504
 30
0.0
 11
129.9395735857667
 21
153.954353791708
 31
0.0
  0
LINE
  5
216
330
E3
100
AcDbEntity
  8
0
  6
Continuous
100
AcDbLine
 10
129.9395735857667
 20
153.954353791708
 30
0.0
 11
129.9338810716531
 21
153.9488835954914
 31
0.0
  0
LINE
  5
217
330
E3
100
AcDbEntity
  8
0
  6
Continuous
100
AcDbLine
 10
129.9338810716531
 20
153.9488835954914
 30
0.0
 11
129.931978420699
 21
153.94341221502
 31
0.0
  0
LINE
  5
218
330
E3
100
AcDbEntity
  8
0
  6
Continuous
100
AcDbLine
 10
130.931978420699
 20
153.7464425180503
 30
0.0
 11
130.9300757697449
 21
153.740971137579
 31
0.0
  0
LINE
  5
219
330
E3
100
AcDbEntity
  8
0
  6
Continuous
100
AcDbLine
 10
130.9300757697449
 20
153.740971137579
 30
0.0
 11
130.9243822972051
 21
153.7354997571075
 31
0.0
  0
LINE
  5
21A
330
E3
100
AcDbEntity
  8
0
  6
Continuous
100
AcDbLine
 10
130.9243822972051
 20
153.7354997571075
 30
0.0
 11
130.9149395238593
 21
153.7300271416584
 31
0.0
  0
LINE
  5
21B
330
E3
100
AcDbEntity
  8
0
  6
Continuous
100
AcDbLine
 10
130.9149395238593
 20
153.7300271416584
 30
0.0
 11
130.9018236434043
 21
153.7245580160734
 31
0.0
  0
LINE
  5
21C
330
E3
100
AcDbEntity
  8
0
  6
Continuous
100
AcDbLine
 10
130.9018236434043
 20
153.7245580160734
 30
0.0
 11
130.8851310550263
 21
153.7190850362773
 31
0.0
  0
LINE
  5
21D
330
E3
100
AcDbEntity
  8
0
  6
Continuous
100
AcDbLine
 10
130.8851310550263
 20
153.7190850362773
 30
0.0
 11
130.8649928019035
 21
153.7136159106924
 31
0.0
  0
LINE
  5
21E
330
E3
100
AcDbEntity
  8
0
  6
Continuous
100
AcDbLine
 10
130.8649928019035
 20
153.7136159106924
 30
0.0
 11
130.8415553440585
 21
153.7081429308963
 31
0.0
  0
LINE
  5
21F
330
E3
100
AcDbEntity
  8
0
  6
Continuous
100
AcDbLine
 10
130.8415553440585
 20
153.7081429308963
 30
0.0
 11
130.8149998294142
 21
153.7026699511003
 31
0.0
  0
LINE
  5
220
330
E3
100
AcDbEntity
  8
0
  6
Continuous
100
AcDbLine
 10
130.8149998294142
 20
153.7026699511003
 30
0.0
 11
130.7855305311602
 21
153.6972008255154
 31
0.0
  0
LINE
  5
221
330
E3
100
AcDbEntity
  8
0
  6
Continuous
100
AcDbLine
 10
130.7855305311602
 20
153.6972008255154
 30
0.0
 11
130.7533709935416
 21
153.6917278457193
 31
0.0
  0
LINE
  5
222
330
E3
100
AcDbEntity
  8
0
  6
Continuous
100
AcDbLine
 10
130.7533709935416
 20
153.6917278457193
 30
0.0
 11
130.7187678860704
 21
153.6862587201344
 31
0.0
  0
LINE
  5
223
330
E3
100
AcDbEntity
  8
0
  6
Continuous
100
AcDbLine
 10
130.7187678860704
 20
153.6862587201344
 30
0.0
 11
130.681979440892
 21
153.6807857403383
 31
0.0
  0
LINE
  5
224
330
E3
100
AcDbEntity
  8
0
  6
Continuous
100
AcDbLine
 10
130.681979440892
 20
153.6807857403383
 30
0.0
 11
130.6432870154182
 21
153.6753127605422
 31
0.0
  0
LINE
  5
225
330
E3
100
AcDbEntity
  8
0
  6
Continuous
100
AcDbLine
 10
130.6432870154182
 20
153.6753127605422
 30
0.0
 11
130.6029873839058
 21
153.6698436349573
 31
0.0
  0
LINE
  5
226
330
E3
100
AcDbEntity
  8
0
  6
Continuous
100
AcDbLine
 10
130.6029873839058
 20
153.6698436349573
 30
0.0
 11
130.5613888832445
 21
153.6643706551612
 31
0.0
  0
LINE
  5
227
330
E3
100
AcDbEntity
  8
0
  6
Continuous
100
AcDbLine
 10
130.5613888832445
 20
153.6643706551612
 30
0.0
 11
130.5188037045356
 21
153.6589015295763
 31
0.0
  0
LINE
  5
228
330
E3
100
AcDbEntity
  8
0
  6
Continuous
100
AcDbLine
 10
130.5188037045356
 20
153.6589015295763
 30
0.0
 11
130.4755556015133
 21
153.6534285497802
 31
0.0
  0
LINE
  5
229
330
E3
100
AcDbEntity
  8
0
  6
Continuous
100
AcDbLine
 10
130.4755556015133
 20
153.6534285497802
 30
0.0
 11
130.4319798905454
 21
153.6479594241952
 31
0.0
  0
LINE
  5
22A
330
E3
100
AcDbEntity
  8
0
  6
Continuous
100
AcDbLine
 10
130.4319798905454
 20
153.6479594241952
 30
0.0
 11
130.3884003253665
 21
153.6424864443992
 31
0.0
  0
LINE
  5
22B
330
E3
100
AcDbEntity
  8
0
  6
Continuous
100
AcDbLine
 10
130.3884003253665
 20
153.6424864443992
 30
0.0
 11
130.3451560765553
 21
153.6370134646031
 31
0.0
  0
LINE
  5
22C
330
E3
100
AcDbEntity
  8
0
  6
Continuous
100
AcDbLine
 10
130.3451560765553
 20
153.6370134646031
 30
0.0
 11
130.3025670436352
 21
153.6315443390182
 31
0.0
  0
LINE
  5
22D
330
E3
100
AcDbEntity
  8
0
  6
Continuous
100
AcDbLine
 10
130.3025670436352
 20
153.6315443390182
 30
0.0
 11
130.260968542974
 21
153.6260713592221
 31
0.0
  0
LINE
  5
22E
330
E3
100
AcDbEntity
  8
0
  6
Continuous
100
AcDbLine
 10
130.260968542974
 20
153.6260713592221
 30
0.0
 11
130.2206689114616
 21
153.6206022336372
 31
0.0
  0
LINE
  5
22F
330
E3
100
AcDbEntity
  8
0
  6
Continuous
100
AcDbLine
 10
130.2206689114616
 20
153.6206022336372
 30
0.0
 11
130.181980340199
 21
153.6151292538411
 31
0.0
  0
LINE
  5
230
330
E3
100
AcDbEntity
  8
0
  6
Continuous
100
AcDbLine
 10
130.181980340199
 20
153.6151292538411
 30
0.0
 11
130.1451918950205
 21
153.6096562740451
 31
0.0
  0
LINE
  5
231
330
E3
100
AcDbEntity
  8
0
  6
Continuous
100
AcDbLine
 10
130.1451918950205
 20
153.6096562740451
 30
0.0
 11
130.1105849333382
 21
153.6041871484601
 31
0.0
  0
LINE
  5
232
330
E3
100
AcDbEntity
  8
0
  6
Continuous
100
AcDbLine
 10
130.1105849333382
 20
153.6041871484601
 30
0.0
 11
130.0784253957196
 21
153.5987141686641
 31
0.0
  0
LINE
  5
233
330
E3
100
AcDbEntity
  8
0
  6
Continuous
100
AcDbLine
 10
130.0784253957196
 20
153.5987141686641
 30
0.0
 11
130.0489560974656
 21
153.5932450430791
 31
0.0
  0
LINE
  5
234
330
E3
100
AcDbEntity
  8
0
  6
Continuous
100
AcDbLine
 10
130.0489560974656
 20
153.5932450430791
 30
0.0
 11
130.0224005828213
 21
153.587772063283
 31
0.0
  0
LINE
  5
235
330
E3
100
AcDbEntity
  8
0
  6
Continuous
100
AcDbLine
 10
130.0224005828213
 20
153.587772063283
 30
0.0
 11
129.9989669791875
 21
153.5823029376981
 31
0.0
  0
LINE
  5
236
330
E3
100
AcDbEntity
  8
0
  6
Continuous
100
AcDbLine
 10
129.9989669791875
 20
153.5823029376981
 30
0.0
 11
129.9788248718535
 21
153.576829957902
 31
0.0
  0
LINE
  5
237
330
E3
100
AcDbEntity
  8
0
  6
Continuous
100
AcDbLine
 10
129.9788248718535
 20
153.576829957902
 30
0.0
 11
129.9621322834755
 21
153.5713569781059
 31
0.0
  0
LINE
  5
238
330
E3
100
AcDbEntity
  8
0
  6
Continuous
100
AcDbLine
 10
129.9621322834755
 20
153.5713569781059
 30
0.0
 11
129.9490164030205
 21
153.565887852521
 31
0.0
  0
LINE
  5
239
330
E3
100
AcDbEntity
  8
0
  6
Continuous
100
AcDbLine
 10
129.9490164030205
 20
153.565887852521
 30
0.0
 11
129.9395735857667
 21
153.5604148727249
 31
0.0
  0
LINE
  5
23A
330
E3
100
AcDbEntity
  8
0
  6
Continuous
100
AcDbLine
 10
129.9395735857667
 20
153.5604148727249
 30
0.0
 11
129.9338810716531
 21
153.554944201552
 31
0.0
  0
LINE
  5
23B
330
E3
100
AcDbEntity
  8
0
  6
Continuous
100
AcDbLine
 10
129.9338810716531
 20
153.554944201552
 30
0.0
 11
129.931978420699
 21
153.5494728210806
 31
0.0
  0
LINE
  5
23C
330
E3
100
AcDbEntity
  8
0
  6
Continuous
100
AcDbLine
 10
130.931978420699
 20
153.3525031241109
 30
0.0
 11
130.9300757697449
 21
153.3470317436395
 31
0.0
  0
LINE
  5
23D
330
E3
100
AcDbEntity
  8
0
  6
Continuous
100
AcDbLine
 10
130.9300757697449
 20
153.3470317436395
 30
0.0
 11
130.9243822972051
 21
153.3415603631682
 31
0.0
  0
LINE
  5
23E
330
E3
100
AcDbEntity
  8
0
  6
Continuous
100
AcDbLine
 10
130.9243822972051
 20
153.3415603631682
 30
0.0
 11
130.9149395238593
 21
153.3360882226754
 31
0.0
  0
LINE
  5
23F
330
E3
100
AcDbEntity
  8
0
  6
Continuous
100
AcDbLine
 10
130.9149395238593
 20
153.3360882226754
 30
0.0
 11
130.9018236434043
 21
153.3306190970904
 31
0.0
  0
LINE
  5
240
330
E3
100
AcDbEntity
  8
0
  6
Continuous
100
AcDbLine
 10
130.9018236434043
 20
153.3306190970904
 30
0.0
 11
130.8851310550263
 21
153.3251461172944
 31
0.0
  0
LINE
  5
241
330
E3
100
AcDbEntity
  8
0
  6
Continuous
100
AcDbLine
 10
130.8851310550263
 20
153.3251461172944
 30
0.0
 11
130.8649928019035
 21
153.3196731374983
 31
0.0
  0
LINE
  5
242
330
E3
100
AcDbEntity
  8
0
  6
Continuous
100
AcDbLine
 10
130.8649928019035
 20
153.3196731374983
 30
0.0
 11
130.8415553440585
 21
153.3142040119133
 31
0.0
  0
LINE
  5
243
330
E3
100
AcDbEntity
  8
0
  6
Continuous
100
AcDbLine
 10
130.8415553440585
 20
153.3142040119133
 30
0.0
 11
130.8149998294142
 21
153.3087310321173
 31
0.0
  0
LINE
  5
244
330
E3
100
AcDbEntity
  8
0
  6
Continuous
100
AcDbLine
 10
130.8149998294142
 20
153.3087310321173
 30
0.0
 11
130.7855305311602
 21
153.3032619065323
 31
0.0
  0
LINE
  5
245
330
E3
100
AcDbEntity
  8
0
  6
Continuous
100
AcDbLine
 10
130.7855305311602
 20
153.3032619065323
 30
0.0
 11
130.7533709935416
 21
153.2977889267363
 31
0.0
  0
LINE
  5
246
330
E3
100
AcDbEntity
  8
0
  6
Continuous
100
AcDbLine
 10
130.7533709935416
 20
153.2977889267363
 30
0.0
 11
130.7187678860704
 21
153.2923198011513
 31
0.0
  0
LINE
  5
247
330
E3
100
AcDbEntity
  8
0
  6
Continuous
100
AcDbLine
 10
130.7187678860704
 20
153.2923198011513
 30
0.0
 11
130.681979440892
 21
153.2868468213553
 31
0.0
  0
LINE
  5
248
330
E3
100
AcDbEntity
  8
0
  6
Continuous
100
AcDbLine
 10
130.681979440892
 20
153.2868468213553
 30
0.0
 11
130.6432870154182
 21
153.2813738415592
 31
0.0
  0
LINE
  5
249
330
E3
100
AcDbEntity
  8
0
  6
Continuous
100
AcDbLine
 10
130.6432870154182
 20
153.2813738415592
 30
0.0
 11
130.6029873839058
 21
153.2759047159742
 31
0.0
  0
LINE
  5
24A
330
E3
100
AcDbEntity
  8
0
  6
Continuous
100
AcDbLine
 10
130.6029873839058
 20
153.2759047159742
 30
0.0
 11
130.5613888832445
 21
153.2704317361782
 31
0.0
  0
LINE
  5
24B
330
E3
100
AcDbEntity
  8
0
  6
Continuous
100
AcDbLine
 10
130.5613888832445
 20
153.2704317361782
 30
0.0
 11
130.5188037045356
 21
153.2649626105932
 31
0.0
  0
LINE
  5
24C
330
E3
100
AcDbEntity
  8
0
  6
Continuous
100
AcDbLine
 10
130.5188037045356
 20
153.2649626105932
 30
0.0
 11
130.4755556015133
 21
153.2594896307972
 31
0.0
  0
LINE
  5
24D
330
E3
100
AcDbEntity
  8
0
  6
Continuous
100
AcDbLine
 10
130.4755556015133
 20
153.2594896307972
 30
0.0
 11
130.4319798905454
 21
153.2540166510011
 31
0.0
  0
LINE
  5
24E
330
E3
100
AcDbEntity
  8
0
  6
Continuous
100
AcDbLine
 10
130.4319798905454
 20
153.2540166510011
 30
0.0
 11
130.3884003253665
 21
153.2485475254162
 31
0.0
  0
LINE
  5
24F
330
E3
100
AcDbEntity
  8
0
  6
Continuous
100
AcDbLine
 10
130.3884003253665
 20
153.2485475254162
 30
0.0
 11
130.3451560765553
 21
153.2430745456201
 31
0.0
  0
LINE
  5
250
330
E3
100
AcDbEntity
  8
0
  6
Continuous
100
AcDbLine
 10
130.3451560765553
 20
153.2430745456201
 30
0.0
 11
130.3025670436352
 21
153.2376054200352
 31
0.0
  0
LINE
  5
251
330
E3
100
AcDbEntity
  8
0
  6
Continuous
100
AcDbLine
 10
130.3025670436352
 20
153.2376054200352
 30
0.0
 11
130.260968542974
 21
153.2321324402391
 31
0.0
  0
LINE
  5
252
330
E3
100
AcDbEntity
  8
0
  6
Continuous
100
AcDbLine
 10
130.260968542974
 20
153.2321324402391
 30
0.0
 11
130.2206689114616
 21
153.2266594604431
 31
0.0
  0
LINE
  5
253
330
E3
100
AcDbEntity
  8
0
  6
Continuous
100
AcDbLine
 10
130.2206689114616
 20
153.2266594604431
 30
0.0
 11
130.181980340199
 21
153.2211903348581
 31
0.0
  0
LINE
  5
254
330
E3
100
AcDbEntity
  8
0
  6
Continuous
100
AcDbLine
 10
130.181980340199
 20
153.2211903348581
 30
0.0
 11
130.1451918950205
 21
153.215717355062
 31
0.0
  0
LINE
  5
255
330
E3
100
AcDbEntity
  8
0
  6
Continuous
100
AcDbLine
 10
130.1451918950205
 20
153.215717355062
 30
0.0
 11
130.1105849333382
 21
153.2102482294771
 31
0.0
  0
LINE
  5
256
330
E3
100
AcDbEntity
  8
0
  6
Continuous
100
AcDbLine
 10
130.1105849333382
 20
153.2102482294771
 30
0.0
 11
130.0784253957196
 21
153.204775249681
 31
0.0
  0
LINE
  5
257
330
E3
100
AcDbEntity
  8
0
  6
Continuous
100
AcDbLine
 10
130.0784253957196
 20
153.204775249681
 30
0.0
 11
130.0489560974656
 21
153.1993061240961
 31
0.0
  0
LINE
  5
258
330
E3
100
AcDbEntity
  8
0
  6
Continuous
100
AcDbLine
 10
130.0489560974656
 20
153.1993061240961
 30
0.0
 11
130.0224005828213
 21
153.1938331443
 31
0.0
  0
LINE
  5
259
330
E3
100
AcDbEntity
  8
0
  6
Continuous
100
AcDbLine
 10
130.0224005828213
 20
153.1938331443
 30
0.0
 11
129.9989669791875
 21
153.1883601645039
 31
0.0
  0
LINE
  5
25A
330
E3
100
AcDbEntity
  8
0
  6
Continuous
100
AcDbLine
 10
129.9989669791875
 20
153.1883601645039
 30
0.0
 11
129.9788248718535
 21
153.182891038919
 31
0.0
  0
LINE
  5
25B
330
E3
100
AcDbEntity
  8
0
  6
Continuous
100
AcDbLine
 10
129.9788248718535
 20
153.182891038919
 30
0.0
 11
129.9621322834755
 21
153.1774180591229
 31
0.0
  0
LINE
  5
25C
330
E3
100
AcDbEntity
  8
0
  6
Continuous
100
AcDbLine
 10
129.9621322834755
 20
153.1774180591229
 30
0.0
 11
129.9490164030205
 21
153.171948933538
 31
0.0
  0
LINE
  5
25D
330
E3
100
AcDbEntity
  8
0
  6
Continuous
100
AcDbLine
 10
129.9490164030205
 20
153.171948933538
 30
0.0
 11
129.9395735857667
 21
153.166475953742
 31
0.0
  0
LINE
  5
25E
330
E3
100
AcDbEntity
  8
0
  6
Continuous
100
AcDbLine
 10
129.9395735857667
 20
153.166475953742
 30
0.0
 11
129.9338810716531
 21
153.1610048076126
 31
0.0
  0
LINE
  5
25F
330
E3
100
AcDbEntity
  8
0
  6
Continuous
100
AcDbLine
 10
129.9338810716531
 20
153.1610048076126
 30
0.0
 11
129.931978420699
 21
153.1555334271412
 31
0.0
  0
LINE
  5
260
330
E3
100
AcDbEntity
  8
0
  6
Continuous
100
AcDbLine
 10
130.931978420699
 20
152.9585637301715
 30
0.0
 11
130.9300757697449
 21
152.9530923497002
 31
0.0
  0
LINE
  5
261
330
E3
100
AcDbEntity
  8
0
  6
Continuous
100
AcDbLine
 10
130.9300757697449
 20
152.9530923497002
 30
0.0
 11
130.9243822972051
 21
152.9476209692288
 31
0.0
  0
LINE
  5
262
330
E3
100
AcDbEntity
  8
0
  6
Continuous
100
AcDbLine
 10
130.9243822972051
 20
152.9476209692288
 30
0.0
 11
130.9149395238593
 21
152.9421493036924
 31
0.0
  0
LINE
  5
263
330
E3
100
AcDbEntity
  8
0
  6
Continuous
100
AcDbLine
 10
130.9149395238593
 20
152.9421493036924
 30
0.0
 11
130.9018236434043
 21
152.9366763238963
 31
0.0
  0
LINE
  5
264
330
E3
100
AcDbEntity
  8
0
  6
Continuous
100
AcDbLine
 10
130.9018236434043
 20
152.9366763238963
 30
0.0
 11
130.8851310550263
 21
152.9312071983113
 31
0.0
  0
LINE
  5
265
330
E3
100
AcDbEntity
  8
0
  6
Continuous
100
AcDbLine
 10
130.8851310550263
 20
152.9312071983113
 30
0.0
 11
130.8649928019035
 21
152.9257342185153
 31
0.0
  0
LINE
  5
266
330
E3
100
AcDbEntity
  8
0
  6
Continuous
100
AcDbLine
 10
130.8649928019035
 20
152.9257342185153
 30
0.0
 11
130.8415553440585
 21
152.9202650929303
 31
0.0
  0
LINE
  5
267
330
E3
100
AcDbEntity
  8
0
  6
Continuous
100
AcDbLine
 10
130.8415553440585
 20
152.9202650929303
 30
0.0
 11
130.8149998294142
 21
152.9147921131343
 31
0.0
  0
LINE
  5
268
330
E3
100
AcDbEntity
  8
0
  6
Continuous
100
AcDbLine
 10
130.8149998294142
 20
152.9147921131343
 30
0.0
 11
130.7855305311602
 21
152.9093229875493
 31
0.0
  0
LINE
  5
269
330
E3
100
AcDbEntity
  8
0
  6
Continuous
100
AcDbLine
 10
130.7855305311602
 20
152.9093229875493
 30
0.0
 11
130.7533709935416
 21
152.9038500077532
 31
0.0
  0
LINE
  5
26A
330
E3
100
AcDbEntity
  8
0
  6
Continuous
100
AcDbLine
 10
130.7533709935416
 20
152.9038500077532
 30
0.0
 11
130.7187678860704
 21
152.8983770279572
 31
0.0
  0
LINE
  5
26B
330
E3
100
AcDbEntity
  8
0
  6
Continuous
100
AcDbLine
 10
130.7187678860704
 20
152.8983770279572
 30
0.0
 11
130.681979440892
 21
152.8929079023723
 31
0.0
  0
LINE
  5
26C
330
E3
100
AcDbEntity
  8
0
  6
Continuous
100
AcDbLine
 10
130.681979440892
 20
152.8929079023723
 30
0.0
 11
130.6432870154182
 21
152.8874349225762
 31
0.0
  0
LINE
  5
26D
330
E3
100
AcDbEntity
  8
0
  6
Continuous
100
AcDbLine
 10
130.6432870154182
 20
152.8874349225762
 30
0.0
 11
130.6029873839058
 21
152.8819657969913
 31
0.0
  0
LINE
  5
26E
330
E3
100
AcDbEntity
  8
0
  6
Continuous
100
AcDbLine
 10
130.6029873839058
 20
152.8819657969913
 30
0.0
 11
130.5613888832445
 21
152.8764928171952
 31
0.0
  0
LINE
  5
26F
330
E3
100
AcDbEntity
  8
0
  6
Continuous
100
AcDbLine
 10
130.5613888832445
 20
152.8764928171952
 30
0.0
 11
130.5188037045356
 21
152.8710198373991
 31
0.0
  0
LINE
  5
270
330
E3
100
AcDbEntity
  8
0
  6
Continuous
100
AcDbLine
 10
130.5188037045356
 20
152.8710198373991
 30
0.0
 11
130.4755556015133
 21
152.8655507118142
 31
0.0
  0
LINE
  5
271
330
E3
100
AcDbEntity
  8
0
  6
Continuous
100
AcDbLine
 10
130.4755556015133
 20
152.8655507118142
 30
0.0
 11
130.4319798905454
 21
152.8600777320181
 31
0.0
  0
LINE
  5
272
330
E3
100
AcDbEntity
  8
0
  6
Continuous
100
AcDbLine
 10
130.4319798905454
 20
152.8600777320181
 30
0.0
 11
130.3884003253665
 21
152.8546086064332
 31
0.0
  0
LINE
  5
273
330
E3
100
AcDbEntity
  8
0
  6
Continuous
100
AcDbLine
 10
130.3884003253665
 20
152.8546086064332
 30
0.0
 11
130.3451560765553
 21
152.8491356266371
 31
0.0
  0
LINE
  5
274
330
E3
100
AcDbEntity
  8
0
  6
Continuous
100
AcDbLine
 10
130.3451560765553
 20
152.8491356266371
 30
0.0
 11
130.3025670436352
 21
152.8436665010522
 31
0.0
  0
LINE
  5
275
330
E3
100
AcDbEntity
  8
0
  6
Continuous
100
AcDbLine
 10
130.3025670436352
 20
152.8436665010522
 30
0.0
 11
130.260968542974
 21
152.8381935212561
 31
0.0
  0
LINE
  5
276
330
E3
100
AcDbEntity
  8
0
  6
Continuous
100
AcDbLine
 10
130.260968542974
 20
152.8381935212561
 30
0.0
 11
130.2206689114616
 21
152.83272054146
 31
0.0
  0
LINE
  5
277
330
E3
100
AcDbEntity
  8
0
  6
Continuous
100
AcDbLine
 10
130.2206689114616
 20
152.83272054146
 30
0.0
 11
130.181980340199
 21
152.8272514158751
 31
0.0
  0
LINE
  5
278
330
E3
100
AcDbEntity
  8
0
  6
Continuous
100
AcDbLine
 10
130.181980340199
 20
152.8272514158751
 30
0.0
 11
130.1451918950205
 21
152.821778436079
 31
0.0
  0
LINE
  5
279
330
E3
100
AcDbEntity
  8
0
  6
Continuous
100
AcDbLine
 10
130.1451918950205
 20
152.821778436079
 30
0.0
 11
130.1105849333382
 21
152.8163093104941
 31
0.0
  0
LINE
  5
27A
330
E3
100
AcDbEntity
  8
0
  6
Continuous
100
AcDbLine
 10
130.1105849333382
 20
152.8163093104941
 30
0.0
 11
130.0784253957196
 21
152.810836330698
 31
0.0
  0
LINE
  5
27B
330
E3
100
AcDbEntity
  8
0
  6
Continuous
100
AcDbLine
 10
130.0784253957196
 20
152.810836330698
 30
0.0
 11
130.0489560974656
 21
152.805363350902
 31
0.0
  0
LINE
  5
27C
330
E3
100
AcDbEntity
  8
0
  6
Continuous
100
AcDbLine
 10
130.0489560974656
 20
152.805363350902
 30
0.0
 11
130.0224005828213
 21
152.799894225317
 31
0.0
  0
LINE
  5
27D
330
E3
100
AcDbEntity
  8
0
  6
Continuous
100
AcDbLine
 10
130.0224005828213
 20
152.799894225317
 30
0.0
 11
129.9989669791875
 21
152.7944212455209
 31
0.0
  0
LINE
  5
27E
330
E3
100
AcDbEntity
  8
0
  6
Continuous
100
AcDbLine
 10
129.9989669791875
 20
152.7944212455209
 30
0.0
 11
129.9788248718535
 21
152.788952119936
 31
0.0
  0
LINE
  5
27F
330
E3
100
AcDbEntity
  8
0
  6
Continuous
100
AcDbLine
 10
129.9788248718535
 20
152.788952119936
 30
0.0
 11
129.9621322834755
 21
152.7834791401399
 31
0.0
  0
LINE
  5
280
330
E3
100
AcDbEntity
  8
0
  6
Continuous
100
AcDbLine
 10
129.9621322834755
 20
152.7834791401399
 30
0.0
 11
129.9490164030205
 21
152.778010014555
 31
0.0
  0
LINE
  5
281
330
E3
100
AcDbEntity
  8
0
  6
Continuous
100
AcDbLine
 10
129.9490164030205
 20
152.778010014555
 30
0.0
 11
129.9395735857667
 21
152.7725370347589
 31
0.0
  0
LINE
  5
282
330
E3
100
AcDbEntity
  8
0
  6
Continuous
100
AcDbLine
 10
129.9395735857667
 20
152.7725370347589
 30
0.0
 11
129.9338810716531
 21
152.7670654136732
 31
0.0
  0
LINE
  5
283
330
E3
100
AcDbEntity
  8
0
  6
Continuous
100
AcDbLine
 10
129.9338810716531
 20
152.7670654136732
 30
0.0
 11
129.931978420699
 21
152.7615940332018
 31
0.0
  0
LINE
  5
284
330
E3
100
AcDbEntity
  8
0
  6
Continuous
100
AcDbLine
 10
130.931978420699
 20
152.5646243362321
 30
0.0
 11
130.9300757697449
 21
152.5591529557608
 31
0.0
  0
LINE
  5
285
330
E3
100
AcDbEntity
  8
0
  6
Continuous
100
AcDbLine
 10
130.9300757697449
 20
152.5591529557608
 30
0.0
 11
130.9243822972051
 21
152.5536815752894
 31
0.0
  0
LINE
  5
286
330
E3
100
AcDbEntity
  8
0
  6
Continuous
100
AcDbLine
 10
130.9243822972051
 20
152.5536815752894
 30
0.0
 11
130.9149395238593
 21
152.5482103847093
 31
0.0
  0
LINE
  5
287
330
E3
100
AcDbEntity
  8
0
  6
Continuous
100
AcDbLine
 10
130.9149395238593
 20
152.5482103847093
 30
0.0
 11
130.9018236434043
 21
152.5427374049133
 31
0.0
  0
LINE
  5
288
330
E3
100
AcDbEntity
  8
0
  6
Continuous
100
AcDbLine
 10
130.9018236434043
 20
152.5427374049133
 30
0.0
 11
130.8851310550263
 21
152.5372682793283
 31
0.0
  0
LINE
  5
289
330
E3
100
AcDbEntity
  8
0
  6
Continuous
100
AcDbLine
 10
130.8851310550263
 20
152.5372682793283
 30
0.0
 11
130.8649928019035
 21
152.5317952995323
 31
0.0
  0
LINE
  5
28A
330
E3
100
AcDbEntity
  8
0
  6
Continuous
100
AcDbLine
 10
130.8649928019035
 20
152.5317952995323
 30
0.0
 11
130.8415553440585
 21
152.5263261739473
 31
0.0
  0
LINE
  5
28B
330
E3
100
AcDbEntity
  8
0
  6
Continuous
100
AcDbLine
 10
130.8415553440585
 20
152.5263261739473
 30
0.0
 11
130.8149998294142
 21
152.5208531941513
 31
0.0
  0
LINE
  5
28C
330
E3
100
AcDbEntity
  8
0
  6
Continuous
100
AcDbLine
 10
130.8149998294142
 20
152.5208531941513
 30
0.0
 11
130.7855305311602
 21
152.5153802143552
 31
0.0
  0
LINE
  5
28D
330
E3
100
AcDbEntity
  8
0
  6
Continuous
100
AcDbLine
 10
130.7855305311602
 20
152.5153802143552
 30
0.0
 11
130.7533709935416
 21
152.5099110887703
 31
0.0
  0
LINE
  5
28E
330
E3
100
AcDbEntity
  8
0
  6
Continuous
100
AcDbLine
 10
130.7533709935416
 20
152.5099110887703
 30
0.0
 11
130.7187678860704
 21
152.5044381089742
 31
0.0
  0
LINE
  5
28F
330
E3
100
AcDbEntity
  8
0
  6
Continuous
100
AcDbLine
 10
130.7187678860704
 20
152.5044381089742
 30
0.0
 11
130.681979440892
 21
152.4989689833893
 31
0.0
  0
LINE
  5
290
330
E3
100
AcDbEntity
  8
0
  6
Continuous
100
AcDbLine
 10
130.681979440892
 20
152.4989689833893
 30
0.0
 11
130.6432870154182
 21
152.4934960035932
 31
0.0
  0
LINE
  5
291
330
E3
100
AcDbEntity
  8
0
  6
Continuous
100
AcDbLine
 10
130.6432870154182
 20
152.4934960035932
 30
0.0
 11
130.6029873839058
 21
152.4880268780082
 31
0.0
  0
LINE
  5
292
330
E3
100
AcDbEntity
  8
0
  6
Continuous
100
AcDbLine
 10
130.6029873839058
 20
152.4880268780082
 30
0.0
 11
130.5613888832445
 21
152.4825538982122
 31
0.0
  0
LINE
  5
293
330
E3
100
AcDbEntity
  8
0
  6
Continuous
100
AcDbLine
 10
130.5613888832445
 20
152.4825538982122
 30
0.0
 11
130.5188037045356
 21
152.4770809184161
 31
0.0
  0
LINE
  5
294
330
E3
100
AcDbEntity
  8
0
  6
Continuous
100
AcDbLine
 10
130.5188037045356
 20
152.4770809184161
 30
0.0
 11
130.4755556015133
 21
152.4716117928312
 31
0.0
  0
LINE
  5
295
330
E3
100
AcDbEntity
  8
0
  6
Continuous
100
AcDbLine
 10
130.4755556015133
 20
152.4716117928312
 30
0.0
 11
130.4319798905454
 21
152.4661388130351
 31
0.0
  0
LINE
  5
296
330
E3
100
AcDbEntity
  8
0
  6
Continuous
100
AcDbLine
 10
130.4319798905454
 20
152.4661388130351
 30
0.0
 11
130.3884003253665
 21
152.4606696874501
 31
0.0
  0
LINE
  5
297
330
E3
100
AcDbEntity
  8
0
  6
Continuous
100
AcDbLine
 10
130.3884003253665
 20
152.4606696874501
 30
0.0
 11
130.3451560765553
 21
152.4551967076541
 31
0.0
  0
LINE
  5
298
330
E3
100
AcDbEntity
  8
0
  6
Continuous
100
AcDbLine
 10
130.3451560765553
 20
152.4551967076541
 30
0.0
 11
130.3025670436352
 21
152.449723727858
 31
0.0
  0
LINE
  5
299
330
E3
100
AcDbEntity
  8
0
  6
Continuous
100
AcDbLine
 10
130.3025670436352
 20
152.449723727858
 30
0.0
 11
130.260968542974
 21
152.4442546022731
 31
0.0
  0
LINE
  5
29A
330
E3
100
AcDbEntity
  8
0
  6
Continuous
100
AcDbLine
 10
130.260968542974
 20
152.4442546022731
 30
0.0
 11
130.2206689114616
 21
152.4387816224771
 31
0.0
  0
LINE
  5
29B
330
E3
100
AcDbEntity
  8
0
  6
Continuous
100
AcDbLine
 10
130.2206689114616
 20
152.4387816224771
 30
0.0
 11
130.181980340199
 21
152.4333124968921
 31
0.0
  0
LINE
  5
29C
330
E3
100
AcDbEntity
  8
0
  6
Continuous
100
AcDbLine
 10
130.181980340199
 20
152.4333124968921
 30
0.0
 11
130.1451918950205
 21
152.427839517096
 31
0.0
  0
LINE
  5
29D
330
E3
100
AcDbEntity
  8
0
  6
Continuous
100
AcDbLine
 10
130.1451918950205
 20
152.427839517096
 30
0.0
 11
130.1105849333382
 21
152.4223665373
 31
0.0
  0
LINE
  5
29E
330
E3
100
AcDbEntity
  8
0
  6
Continuous
100
AcDbLine
 10
130.1105849333382
 20
152.4223665373
 30
0.0
 11
130.0784253957196
 21
152.416897411715
 31
0.0
  0
LINE
  5
29F
330
E3
100
AcDbEntity
  8
0
  6
Continuous
100
AcDbLine
 10
130.0784253957196
 20
152.416897411715
 30
0.0
 11
130.0489560974656
 21
152.4114244319189
 31
0.0
  0
LINE
  5
2A0
330
E3
100
AcDbEntity
  8
0
  6
Continuous
100
AcDbLine
 10
130.0489560974656
 20
152.4114244319189
 30
0.0
 11
130.0224005828213
 21
152.405955306334
 31
0.0
  0
LINE
  5
2A1
330
E3
100
AcDbEntity
  8
0
  6
Continuous
100
AcDbLine
 10
130.0224005828213
 20
152.405955306334
 30
0.0
 11
129.9989669791875
 21
152.4004823265379
 31
0.0
  0
LINE
  5
2A2
330
E3
100
AcDbEntity
  8
0
  6
Continuous
100
AcDbLine
 10
129.9989669791875
 20
152.4004823265379
 30
0.0
 11
129.9788248718535
 21
152.395013200953
 31
0.0
  0
LINE
  5
2A3
330
E3
100
AcDbEntity
  8
0
  6
Continuous
100
AcDbLine
 10
129.9788248718535
 20
152.395013200953
 30
0.0
 11
129.9621322834755
 21
152.3895402211569
 31
0.0
  0
LINE
  5
2A4
330
E3
100
AcDbEntity
  8
0
  6
Continuous
100
AcDbLine
 10
129.9621322834755
 20
152.3895402211569
 30
0.0
 11
129.9490164030205
 21
152.3840672413609
 31
0.0
  0
LINE
  5
2A5
330
E3
100
AcDbEntity
  8
0
  6
Continuous
100
AcDbLine
 10
129.9490164030205
 20
152.3840672413609
 30
0.0
 11
129.9395735857667
 21
152.3785981157759
 31
0.0
  0
LINE
  5
2A6
330
E3
100
AcDbEntity
  8
0
  6
Continuous
100
AcDbLine
 10
129.9395735857667
 20
152.3785981157759
 30
0.0
 11
129.9338810716531
 21
152.3731260197339
 31
0.0
  0
LINE
  5
2A7
330
E3
100
AcDbEntity
  8
0
  6
Continuous
100
AcDbLine
 10
129.9338810716531
 20
152.3731260197339
 30
0.0
 11
129.931978420699
 21
152.3676546392624
 31
0.0
  0
LINE
  5
2A8
330
E3
100
AcDbEntity
  8
0
  6
Continuous
100
AcDbLine
 10
130.931978420699
 20
152.1706849422928
 30
0.0
 11
130.9300757697449
 21
152.1652135618214
 31
0.0
  0
LINE
  5
2A9
330
E3
100
AcDbEntity
  8
0
  6
Continuous
100
AcDbLine
 10
130.9300757697449
 20
152.1652135618214
 30
0.0
 11
130.9243822972051
 21
152.15974218135
 31
0.0
  0
LINE
  5
2AA
330
E3
100
AcDbEntity
  8
0
  6
Continuous
100
AcDbLine
 10
130.9243822972051
 20
152.15974218135
 30
0.0
 11
130.9149395238593
 21
152.1542714657264
 31
0.0
  0
LINE
  5
2AB
330
E3
100
AcDbEntity
  8
0
  6
Continuous
100
AcDbLine
 10
130.9149395238593
 20
152.1542714657264
 30
0.0
 11
130.9018236434043
 21
152.1487984859303
 31
0.0
  0
LINE
  5
2AC
330
E3
100
AcDbEntity
  8
0
  6
Continuous
100
AcDbLine
 10
130.9018236434043
 20
152.1487984859303
 30
0.0
 11
130.8851310550263
 21
152.1433293603453
 31
0.0
  0
LINE
  5
2AD
330
E3
100
AcDbEntity
  8
0
  6
Continuous
100
AcDbLine
 10
130.8851310550263
 20
152.1433293603453
 30
0.0
 11
130.8649928019035
 21
152.1378563805493
 31
0.0
  0
LINE
  5
2AE
330
E3
100
AcDbEntity
  8
0
  6
Continuous
100
AcDbLine
 10
130.8649928019035
 20
152.1378563805493
 30
0.0
 11
130.8415553440585
 21
152.1323834007532
 31
0.0
  0
LINE
  5
2AF
330
E3
100
AcDbEntity
  8
0
  6
Continuous
100
AcDbLine
 10
130.8415553440585
 20
152.1323834007532
 30
0.0
 11
130.8149998294142
 21
152.1269142751682
 31
0.0
  0
LINE
  5
2B0
330
E3
100
AcDbEntity
  8
0
  6
Continuous
100
AcDbLine
 10
130.8149998294142
 20
152.1269142751682
 30
0.0
 11
130.7855305311602
 21
152.1214412953722
 31
0.0
  0
LINE
  5
2B1
330
E3
100
AcDbEntity
  8
0
  6
Continuous
100
AcDbLine
 10
130.7855305311602
 20
152.1214412953722
 30
0.0
 11
130.7533709935416
 21
152.1159721697872
 31
0.0
  0
LINE
  5
2B2
330
E3
100
AcDbEntity
  8
0
  6
Continuous
100
AcDbLine
 10
130.7533709935416
 20
152.1159721697872
 30
0.0
 11
130.7187678860704
 21
152.1104991899912
 31
0.0
  0
LINE
  5
2B3
330
E3
100
AcDbEntity
  8
0
  6
Continuous
100
AcDbLine
 10
130.7187678860704
 20
152.1104991899912
 30
0.0
 11
130.681979440892
 21
152.1050300644062
 31
0.0
  0
LINE
  5
2B4
330
E3
100
AcDbEntity
  8
0
  6
Continuous
100
AcDbLine
 10
130.681979440892
 20
152.1050300644062
 30
0.0
 11
130.6432870154182
 21
152.0995570846102
 31
0.0
  0
LINE
  5
2B5
330
E3
100
AcDbEntity
  8
0
  6
Continuous
100
AcDbLine
 10
130.6432870154182
 20
152.0995570846102
 30
0.0
 11
130.6029873839058
 21
152.0940841048141
 31
0.0
  0
LINE
  5
2B6
330
E3
100
AcDbEntity
  8
0
  6
Continuous
100
AcDbLine
 10
130.6029873839058
 20
152.0940841048141
 30
0.0
 11
130.5613888832445
 21
152.0886149792292
 31
0.0
  0
LINE
  5
2B7
330
E3
100
AcDbEntity
  8
0
  6
Continuous
100
AcDbLine
 10
130.5613888832445
 20
152.0886149792292
 30
0.0
 11
130.5188037045356
 21
152.0831419994331
 31
0.0
  0
LINE
  5
2B8
330
E3
100
AcDbEntity
  8
0
  6
Continuous
100
AcDbLine
 10
130.5188037045356
 20
152.0831419994331
 30
0.0
 11
130.4755556015133
 21
152.0776728738481
 31
0.0
  0
LINE
  5
2B9
330
E3
100
AcDbEntity
  8
0
  6
Continuous
100
AcDbLine
 10
130.4755556015133
 20
152.0776728738481
 30
0.0
 11
130.4319798905454
 21
152.0721998940521
 31
0.0
  0
LINE
  5
2BA
330
E3
100
AcDbEntity
  8
0
  6
Continuous
100
AcDbLine
 10
130.4319798905454
 20
152.0721998940521
 30
0.0
 11
130.3884003253665
 21
152.066726914256
 31
0.0
  0
LINE
  5
2BB
330
E3
100
AcDbEntity
  8
0
  6
Continuous
100
AcDbLine
 10
130.3884003253665
 20
152.066726914256
 30
0.0
 11
130.3451560765553
 21
152.0612577886711
 31
0.0
  0
LINE
  5
2BC
330
E3
100
AcDbEntity
  8
0
  6
Continuous
100
AcDbLine
 10
130.3451560765553
 20
152.0612577886711
 30
0.0
 11
130.3025670436352
 21
152.055784808875
 31
0.0
  0
LINE
  5
2BD
330
E3
100
AcDbEntity
  8
0
  6
Continuous
100
AcDbLine
 10
130.3025670436352
 20
152.055784808875
 30
0.0
 11
130.260968542974
 21
152.0503156832901
 31
0.0
  0
LINE
  5
2BE
330
E3
100
AcDbEntity
  8
0
  6
Continuous
100
AcDbLine
 10
130.260968542974
 20
152.0503156832901
 30
0.0
 11
130.2206689114616
 21
152.044842703494
 31
0.0
  0
LINE
  5
2BF
330
E3
100
AcDbEntity
  8
0
  6
Continuous
100
AcDbLine
 10
130.2206689114616
 20
152.044842703494
 30
0.0
 11
130.181980340199
 21
152.0393735779091
 31
0.0
  0
LINE
  5
2C0
330
E3
100
AcDbEntity
  8
0
  6
Continuous
100
AcDbLine
 10
130.181980340199
 20
152.0393735779091
 30
0.0
 11
130.1451918950205
 21
152.033900598113
 31
0.0
  0
LINE
  5
2C1
330
E3
100
AcDbEntity
  8
0
  6
Continuous
100
AcDbLine
 10
130.1451918950205
 20
152.033900598113
 30
0.0
 11
130.1105849333382
 21
152.028427618317
 31
0.0
  0
LINE
  5
2C2
330
E3
100
AcDbEntity
  8
0
  6
Continuous
100
AcDbLine
 10
130.1105849333382
 20
152.028427618317
 30
0.0
 11
130.0784253957196
 21
152.022958492732
 31
0.0
  0
LINE
  5
2C3
330
E3
100
AcDbEntity
  8
0
  6
Continuous
100
AcDbLine
 10
130.0784253957196
 20
152.022958492732
 30
0.0
 11
130.0489560974656
 21
152.0174855129359
 31
0.0
  0
LINE
  5
2C4
330
E3
100
AcDbEntity
  8
0
  6
Continuous
100
AcDbLine
 10
130.0489560974656
 20
152.0174855129359
 30
0.0
 11
130.0224005828213
 21
152.012016387351
 31
0.0
  0
LINE
  5
2C5
330
E3
100
AcDbEntity
  8
0
  6
Continuous
100
AcDbLine
 10
130.0224005828213
 20
152.012016387351
 30
0.0
 11
129.9989669791875
 21
152.0065434075549
 31
0.0
  0
LINE
  5
2C6
330
E3
100
AcDbEntity
  8
0
  6
Continuous
100
AcDbLine
 10
129.9989669791875
 20
152.0065434075549
 30
0.0
 11
129.9788248718535
 21
152.0010704277588
 31
0.0
  0
LINE
  5
2C7
330
E3
100
AcDbEntity
  8
0
  6
Continuous
100
AcDbLine
 10
129.9788248718535
 20
152.0010704277588
 30
0.0
 11
129.9621322834755
 21
151.9956013021739
 31
0.0
  0
LINE
  5
2C8
330
E3
100
AcDbEntity
  8
0
  6
Continuous
100
AcDbLine
 10
129.9621322834755
 20
151.9956013021739
 30
0.0
 11
129.9490164030205
 21
151.9901283223778
 31
0.0
  0
LINE
  5
2C9
330
E3
100
AcDbEntity
  8
0
  6
Continuous
100
AcDbLine
 10
129.9490164030205
 20
151.9901283223778
 30
0.0
 11
129.9395735857667
 21
151.9846591967929
 31
0.0
  0
LINE
  5
2CA
330
E3
100
AcDbEntity
  8
0
  6
Continuous
100
AcDbLine
 10
129.9395735857667
 20
151.9846591967929
 30
0.0
 11
129.9338810716531
 21
151.9791866257944
 31
0.0
  0
LINE
  5
2CB
330
E3
100
AcDbEntity
  8
0
  6
Continuous
100
AcDbLine
 10
129.9338810716531
 20
151.9791866257944
 30
0.0
 11
129.931978420699
 21
151.973715245323
 31
0.0
  0
LINE
  5
2CC
330
E3
100
AcDbEntity
  8
0
  6
Continuous
100
AcDbLine
 10
130.931978420699
 20
151.7767455483533
 30
0.0
 11
130.9300757697449
 21
151.771274167882
 31
0.0
  0
LINE
  5
2CD
330
E3
100
AcDbEntity
  8
0
  6
Continuous
100
AcDbLine
 10
130.9300757697449
 20
151.771274167882
 30
0.0
 11
130.9243822972051
 21
151.7658027874106
 31
0.0
  0
LINE
  5
2CE
330
E3
100
AcDbEntity
  8
0
  6
Continuous
100
AcDbLine
 10
130.9243822972051
 20
151.7658027874106
 30
0.0
 11
130.9149395238593
 21
151.7603325467433
 31
0.0
  0
LINE
  5
2CF
330
E3
100
AcDbEntity
  8
0
  6
Continuous
100
AcDbLine
 10
130.9149395238593
 20
151.7603325467433
 30
0.0
 11
130.9018236434043
 21
151.7548595669472
 31
0.0
  0
LINE
  5
2D0
330
E3
100
AcDbEntity
  8
0
  6
Continuous
100
AcDbLine
 10
130.9018236434043
 20
151.7548595669472
 30
0.0
 11
130.8851310550263
 21
151.7493904413623
 31
0.0
  0
LINE
  5
2D1
330
E3
100
AcDbEntity
  8
0
  6
Continuous
100
AcDbLine
 10
130.8851310550263
 20
151.7493904413623
 30
0.0
 11
130.8649928019035
 21
151.7439174615662
 31
0.0
  0
LINE
  5
2D2
330
E3
100
AcDbEntity
  8
0
  6
Continuous
100
AcDbLine
 10
130.8649928019035
 20
151.7439174615662
 30
0.0
 11
130.8415553440585
 21
151.7384444817702
 31
0.0
  0
LINE
  5
2D3
330
E3
100
AcDbEntity
  8
0
  6
Continuous
100
AcDbLine
 10
130.8415553440585
 20
151.7384444817702
 30
0.0
 11
130.8149998294142
 21
151.7329753561852
 31
0.0
  0
LINE
  5
2D4
330
E3
100
AcDbEntity
  8
0
  6
Continuous
100
AcDbLine
 10
130.8149998294142
 20
151.7329753561852
 30
0.0
 11
130.7855305311602
 21
151.7275023763892
 31
0.0
  0
LINE
  5
2D5
330
E3
100
AcDbEntity
  8
0
  6
Continuous
100
AcDbLine
 10
130.7855305311602
 20
151.7275023763892
 30
0.0
 11
130.7533709935416
 21
151.7220332508043
 31
0.0
  0
LINE
  5
2D6
330
E3
100
AcDbEntity
  8
0
  6
Continuous
100
AcDbLine
 10
130.7533709935416
 20
151.7220332508043
 30
0.0
 11
130.7187678860704
 21
151.7165602710081
 31
0.0
  0
LINE
  5
2D7
330
E3
100
AcDbEntity
  8
0
  6
Continuous
100
AcDbLine
 10
130.7187678860704
 20
151.7165602710081
 30
0.0
 11
130.681979440892
 21
151.7110872912121
 31
0.0
  0
LINE
  5
2D8
330
E3
100
AcDbEntity
  8
0
  6
Continuous
100
AcDbLine
 10
130.681979440892
 20
151.7110872912121
 30
0.0
 11
130.6432870154182
 21
151.7056181656272
 31
0.0
  0
LINE
  5
2D9
330
E3
100
AcDbEntity
  8
0
  6
Continuous
100
AcDbLine
 10
130.6432870154182
 20
151.7056181656272
 30
0.0
 11
130.6029873839058
 21
151.7001451858311
 31
0.0
  0
LINE
  5
2DA
330
E3
100
AcDbEntity
  8
0
  6
Continuous
100
AcDbLine
 10
130.6029873839058
 20
151.7001451858311
 30
0.0
 11
130.5613888832445
 21
151.6946760602462
 31
0.0
  0
LINE
  5
2DB
330
E3
100
AcDbEntity
  8
0
  6
Continuous
100
AcDbLine
 10
130.5613888832445
 20
151.6946760602462
 30
0.0
 11
130.5188037045356
 21
151.6892030804501
 31
0.0
  0
LINE
  5
2DC
330
E3
100
AcDbEntity
  8
0
  6
Continuous
100
AcDbLine
 10
130.5188037045356
 20
151.6892030804501
 30
0.0
 11
130.4755556015133
 21
151.6837339548651
 31
0.0
  0
LINE
  5
2DD
330
E3
100
AcDbEntity
  8
0
  6
Continuous
100
AcDbLine
 10
130.4755556015133
 20
151.6837339548651
 30
0.0
 11
130.4319798905454
 21
151.6782609750691
 31
0.0
  0
LINE
  5
2DE
330
E3
100
AcDbEntity
  8
0
  6
Continuous
100
AcDbLine
 10
130.4319798905454
 20
151.6782609750691
 30
0.0
 11
130.3884003253665
 21
151.672787995273
 31
0.0
  0
LINE
  5
2DF
330
E3
100
AcDbEntity
  8
0
  6
Continuous
100
AcDbLine
 10
130.3884003253665
 20
151.672787995273
 30
0.0
 11
130.3451560765553
 21
151.6673188696881
 31
0.0
  0
LINE
  5
2E0
330
E3
100
AcDbEntity
  8
0
  6
Continuous
100
AcDbLine
 10
130.3451560765553
 20
151.6673188696881
 30
0.0
 11
130.3025670436352
 21
151.661845889892
 31
0.0
  0
LINE
  5
2E1
330
E3
100
AcDbEntity
  8
0
  6
Continuous
100
AcDbLine
 10
130.3025670436352
 20
151.661845889892
 30
0.0
 11
130.260968542974
 21
151.6563767643071
 31
0.0
  0
LINE
  5
2E2
330
E3
100
AcDbEntity
  8
0
  6
Continuous
100
AcDbLine
 10
130.260968542974
 20
151.6563767643071
 30
0.0
 11
130.2206689114616
 21
151.650903784511
 31
0.0
  0
LINE
  5
2E3
330
E3
100
AcDbEntity
  8
0
  6
Continuous
100
AcDbLine
 10
130.2206689114616
 20
151.650903784511
 30
0.0
 11
130.181980340199
 21
151.6454308047149
 31
0.0
  0
LINE
  5
2E4
330
E3
100
AcDbEntity
  8
0
  6
Continuous
100
AcDbLine
 10
130.181980340199
 20
151.6454308047149
 30
0.0
 11
130.1451918950205
 21
151.63996167913
 31
0.0
  0
LINE
  5
2E5
330
E3
100
AcDbEntity
  8
0
  6
Continuous
100
AcDbLine
 10
130.1451918950205
 20
151.63996167913
 30
0.0
 11
130.1105849333382
 21
151.6344886993339
 31
0.0
  0
LINE
  5
2E6
330
E3
100
AcDbEntity
  8
0
  6
Continuous
100
AcDbLine
 10
130.1105849333382
 20
151.6344886993339
 30
0.0
 11
130.0784253957196
 21
151.629019573749
 31
0.0
  0
LINE
  5
2E7
330
E3
100
AcDbEntity
  8
0
  6
Continuous
100
AcDbLine
 10
130.0784253957196
 20
151.629019573749
 30
0.0
 11
130.0489560974656
 21
151.6235465939529
 31
0.0
  0
LINE
  5
2E8
330
E3
100
AcDbEntity
  8
0
  6
Continuous
100
AcDbLine
 10
130.0489560974656
 20
151.6235465939529
 30
0.0
 11
130.0224005828213
 21
151.6180736141569
 31
0.0
  0
LINE
  5
2E9
330
E3
100
AcDbEntity
  8
0
  6
Continuous
100
AcDbLine
 10
130.0224005828213
 20
151.6180736141569
 30
0.0
 11
129.9989669791875
 21
151.6126044885719
 31
0.0
  0
LINE
  5
2EA
330
E3
100
AcDbEntity
  8
0
  6
Continuous
100
AcDbLine
 10
129.9989669791875
 20
151.6126044885719
 30
0.0
 11
129.9788248718535
 21
151.6071315087759
 31
0.0
  0
LINE
  5
2EB
330
E3
100
AcDbEntity
  8
0
  6
Continuous
100
AcDbLine
 10
129.9788248718535
 20
151.6071315087759
 30
0.0
 11
129.9621322834755
 21
151.6016623831909
 31
0.0
  0
LINE
  5
2EC
330
E3
100
AcDbEntity
  8
0
  6
Continuous
100
AcDbLine
 10
129.9621322834755
 20
151.6016623831909
 30
0.0
 11
129.9490164030205
 21
151.5961894033948
 31
0.0
  0
LINE
  5
2ED
330
E3
100
AcDbEntity
  8
0
  6
Continuous
100
AcDbLine
 10
129.9490164030205
 20
151.5961894033948
 30
0.0
 11
129.9395735857667
 21
151.5907202778099
 31
0.0
  0
LINE
  5
2EE
330
E3
100
AcDbEntity
  8
0
  6
Continuous
100
AcDbLine
 10
129.9395735857667
 20
151.5907202778099
 30
0.0
 11
129.9338810716531
 21
151.585247231855
 31
0.0
  0
LINE
  5
2EF
330
E3
100
AcDbEntity
  8
0
  6
Continuous
100
AcDbLine
 10
129.9338810716531
 20
151.585247231855
 30
0.0
 11
129.931978420699
 21
151.5797758513837
 31
0.0
  0
LINE
  5
2F0
330
E3
100
AcDbEntity
  8
0
  6
Continuous
100
AcDbLine
 10
130.931978420699
 20
151.382806154414
 30
0.0
 11
130.9300757697449
 21
151.3773347739426
 31
0.0
  0
LINE
  5
2F1
330
E3
100
AcDbEntity
  8
0
  6
Continuous
100
AcDbLine
 10
130.9300757697449
 20
151.3773347739426
 30
0.0
 11
130.9243822972051
 21
151.3718633934712
 31
0.0
  0
LINE
  5
2F2
330
E3
100
AcDbEntity
  8
0
  6
Continuous
100
AcDbLine
 10
130.9243822972051
 20
151.3718633934712
 30
0.0
 11
130.9149395238593
 21
151.3663936277603
 31
0.0
  0
LINE
  5
2F3
330
E3
100
AcDbEntity
  8
0
  6
Continuous
100
AcDbLine
 10
130.9149395238593
 20
151.3663936277603
 30
0.0
 11
130.9018236434043
 21
151.3609206479642
 31
0.0
  0
LINE
  5
2F4
330
E3
100
AcDbEntity
  8
0
  6
Continuous
100
AcDbLine
 10
130.9018236434043
 20
151.3609206479642
 30
0.0
 11
130.8851310550263
 21
151.3554476681682
 31
0.0
  0
LINE
  5
2F5
330
E3
100
AcDbEntity
  8
0
  6
Continuous
100
AcDbLine
 10
130.8851310550263
 20
151.3554476681682
 30
0.0
 11
130.8649928019035
 21
151.3499785425832
 31
0.0
  0
LINE
  5
2F6
330
E3
100
AcDbEntity
  8
0
  6
Continuous
100
AcDbLine
 10
130.8649928019035
 20
151.3499785425832
 30
0.0
 11
130.8415553440585
 21
151.3445055627872
 31
0.0
  0
LINE
  5
2F7
330
E3
100
AcDbEntity
  8
0
  6
Continuous
100
AcDbLine
 10
130.8415553440585
 20
151.3445055627872
 30
0.0
 11
130.8149998294142
 21
151.3390364372022
 31
0.0
  0
LINE
  5
2F8
330
E3
100
AcDbEntity
  8
0
  6
Continuous
100
AcDbLine
 10
130.8149998294142
 20
151.3390364372022
 30
0.0
 11
130.7855305311602
 21
151.3335634574062
 31
0.0
  0
LINE
  5
2F9
330
E3
100
AcDbEntity
  8
0
  6
Continuous
100
AcDbLine
 10
130.7855305311602
 20
151.3335634574062
 30
0.0
 11
130.7533709935416
 21
151.3280904776101
 31
0.0
  0
LINE
  5
2FA
330
E3
100
AcDbEntity
  8
0
  6
Continuous
100
AcDbLine
 10
130.7533709935416
 20
151.3280904776101
 30
0.0
 11
130.7187678860704
 21
151.3226213520252
 31
0.0
  0
LINE
  5
2FB
330
E3
100
AcDbEntity
  8
0
  6
Continuous
100
AcDbLine
 10
130.7187678860704
 20
151.3226213520252
 30
0.0
 11
130.681979440892
 21
151.3171483722291
 31
0.0
  0
LINE
  5
2FC
330
E3
100
AcDbEntity
  8
0
  6
Continuous
100
AcDbLine
 10
130.681979440892
 20
151.3171483722291
 30
0.0
 11
130.6432870154182
 21
151.3116792466441
 31
0.0
  0
LINE
  5
2FD
330
E3
100
AcDbEntity
  8
0
  6
Continuous
100
AcDbLine
 10
130.6432870154182
 20
151.3116792466441
 30
0.0
 11
130.6029873839058
 21
151.3062062668481
 31
0.0
  0
LINE
  5
2FE
330
E3
100
AcDbEntity
  8
0
  6
Continuous
100
AcDbLine
 10
130.6029873839058
 20
151.3062062668481
 30
0.0
 11
130.5613888832445
 21
151.3007371412631
 31
0.0
  0
LINE
  5
2FF
330
E3
100
AcDbEntity
  8
0
  6
Continuous
100
AcDbLine
 10
130.5613888832445
 20
151.3007371412631
 30
0.0
 11
130.5188037045356
 21
151.2952641614671
 31
0.0
  0
LINE
  5
300
330
E3
100
AcDbEntity
  8
0
  6
Continuous
100
AcDbLine
 10
130.5188037045356
 20
151.2952641614671
 30
0.0
 11
130.4755556015133
 21
151.289791181671
 31
0.0
  0
LINE
  5
301
330
E3
100
AcDbEntity
  8
0
  6
Continuous
100
AcDbLine
 10
130.4755556015133
 20
151.289791181671
 30
0.0
 11
130.4319798905454
 21
151.2843220560861
 31
0.0
  0
LINE
  5
302
330
E3
100
AcDbEntity
  8
0
  6
Continuous
100
AcDbLine
 10
130.4319798905454
 20
151.2843220560861
 30
0.0
 11
130.3884003253665
 21
151.27884907629
 31
0.0
  0
LINE
  5
303
330
E3
100
AcDbEntity
  8
0
  6
Continuous
100
AcDbLine
 10
130.3884003253665
 20
151.27884907629
 30
0.0
 11
130.3451560765553
 21
151.273379950705
 31
0.0
  0
LINE
  5
304
330
E3
100
AcDbEntity
  8
0
  6
Continuous
100
AcDbLine
 10
130.3451560765553
 20
151.273379950705
 30
0.0
 11
130.3025670436352
 21
151.267906970909
 31
0.0
  0
LINE
  5
305
330
E3
100
AcDbEntity
  8
0
  6
Continuous
100
AcDbLine
 10
130.3025670436352
 20
151.267906970909
 30
0.0
 11
130.260968542974
 21
151.2624339911129
 31
0.0
  0
LINE
  5
306
330
E3
100
AcDbEntity
  8
0
  6
Continuous
100
AcDbLine
 10
130.260968542974
 20
151.2624339911129
 30
0.0
 11
130.2206689114616
 21
151.256964865528
 31
0.0
  0
LINE
  5
307
330
E3
100
AcDbEntity
  8
0
  6
Continuous
100
AcDbLine
 10
130.2206689114616
 20
151.256964865528
 30
0.0
 11
130.181980340199
 21
151.251491885732
 31
0.0
  0
LINE
  5
308
330
E3
100
AcDbEntity
  8
0
  6
Continuous
100
AcDbLine
 10
130.181980340199
 20
151.251491885732
 30
0.0
 11
130.1451918950205
 21
151.246022760147
 31
0.0
  0
LINE
  5
309
330
E3
100
AcDbEntity
  8
0
  6
Continuous
100
AcDbLine
 10
130.1451918950205
 20
151.246022760147
 30
0.0
 11
130.1105849333382
 21
151.2405497803509
 31
0.0
  0
LINE
  5
30A
330
E3
100
AcDbEntity
  8
0
  6
Continuous
100
AcDbLine
 10
130.1105849333382
 20
151.2405497803509
 30
0.0
 11
130.0784253957196
 21
151.235080654766
 31
0.0
  0
LINE
  5
30B
330
E3
100
AcDbEntity
  8
0
  6
Continuous
100
AcDbLine
 10
130.0784253957196
 20
151.235080654766
 30
0.0
 11
130.0489560974656
 21
151.2296076749699
 31
0.0
  0
LINE
  5
30C
330
E3
100
AcDbEntity
  8
0
  6
Continuous
100
AcDbLine
 10
130.0489560974656
 20
151.2296076749699
 30
0.0
 11
130.0224005828213
 21
151.2241346951739
 31
0.0
  0
LINE
  5
30D
330
E3
100
AcDbEntity
  8
0
  6
Continuous
100
AcDbLine
 10
130.0224005828213
 20
151.2241346951739
 30
0.0
 11
129.9989669791875
 21
151.2186655695889
 31
0.0
  0
LINE
  5
30E
330
E3
100
AcDbEntity
  8
0
  6
Continuous
100
AcDbLine
 10
129.9989669791875
 20
151.2186655695889
 30
0.0
 11
129.9788248718535
 21
151.2131925897928
 31
0.0
  0
LINE
  5
30F
330
E3
100
AcDbEntity
  8
0
  6
Continuous
100
AcDbLine
 10
129.9788248718535
 20
151.2131925897928
 30
0.0
 11
129.9621322834755
 21
151.2077234642079
 31
0.0
  0
LINE
  5
310
330
E3
100
AcDbEntity
  8
0
  6
Continuous
100
AcDbLine
 10
129.9621322834755
 20
151.2077234642079
 30
0.0
 11
129.9490164030205
 21
151.2022504844118
 31
0.0
  0
LINE
  5
311
330
E3
100
AcDbEntity
  8
0
  6
Continuous
100
AcDbLine
 10
129.9490164030205
 20
151.2022504844118
 30
0.0
 11
129.9395735857667
 21
151.1967775046157
 31
0.0
  0
LINE
  5
312
330
E3
100
AcDbEntity
  8
0
  6
Continuous
100
AcDbLine
 10
129.9395735857667
 20
151.1967775046157
 30
0.0
 11
129.9338810716531
 21
151.1913078379156
 31
0.0
  0
LINE
  5
313
330
E3
100
AcDbEntity
  8
0
  6
Continuous
100
AcDbLine
 10
129.9338810716531
 20
151.1913078379156
 30
0.0
 11
129.931978420699
 21
151.1858364574443
 31
0.0
  0
LINE
  5
314
330
E3
100
AcDbEntity
  8
0
  6
Continuous
100
AcDbLine
 10
130.931978420699
 20
150.9888667604746
 30
0.0
 11
130.9300757697449
 21
150.9833953800032
 31
0.0
  0
LINE
  5
315
330
E3
100
AcDbEntity
  8
0
  6
Continuous
100
AcDbLine
 10
130.9300757697449
 20
150.9833953800032
 30
0.0
 11
130.9243822972051
 21
150.9779239995318
 31
0.0
  0
LINE
  5
316
330
E3
100
AcDbEntity
  8
0
  6
Continuous
100
AcDbLine
 10
130.9243822972051
 20
150.9779239995318
 30
0.0
 11
130.9149395238593
 21
150.9724508545662
 31
0.0
  0
LINE
  5
317
330
E3
100
AcDbEntity
  8
0
  6
Continuous
100
AcDbLine
 10
130.9149395238593
 20
150.9724508545662
 30
0.0
 11
130.9018236434043
 21
150.9669817289812
 31
0.0
  0
LINE
  5
318
330
E3
100
AcDbEntity
  8
0
  6
Continuous
100
AcDbLine
 10
130.9018236434043
 20
150.9669817289812
 30
0.0
 11
130.8851310550263
 21
150.9615087491852
 31
0.0
  0
LINE
  5
319
330
E3
100
AcDbEntity
  8
0
  6
Continuous
100
AcDbLine
 10
130.8851310550263
 20
150.9615087491852
 30
0.0
 11
130.8649928019035
 21
150.9560396236002
 31
0.0
  0
LINE
  5
31A
330
E3
100
AcDbEntity
  8
0
  6
Continuous
100
AcDbLine
 10
130.8649928019035
 20
150.9560396236002
 30
0.0
 11
130.8415553440585
 21
150.9505666438042
 31
0.0
  0
LINE
  5
31B
330
E3
100
AcDbEntity
  8
0
  6
Continuous
100
AcDbLine
 10
130.8415553440585
 20
150.9505666438042
 30
0.0
 11
130.8149998294142
 21
150.9450975182192
 31
0.0
  0
LINE
  5
31C
330
E3
100
AcDbEntity
  8
0
  6
Continuous
100
AcDbLine
 10
130.8149998294142
 20
150.9450975182192
 30
0.0
 11
130.7855305311602
 21
150.9396245384232
 31
0.0
  0
LINE
  5
31D
330
E3
100
AcDbEntity
  8
0
  6
Continuous
100
AcDbLine
 10
130.7855305311602
 20
150.9396245384232
 30
0.0
 11
130.7533709935416
 21
150.9341515586271
 31
0.0
  0
LINE
  5
31E
330
E3
100
AcDbEntity
  8
0
  6
Continuous
100
AcDbLine
 10
130.7533709935416
 20
150.9341515586271
 30
0.0
 11
130.7187678860704
 21
150.9286824330421
 31
0.0
  0
LINE
  5
31F
330
E3
100
AcDbEntity
  8
0
  6
Continuous
100
AcDbLine
 10
130.7187678860704
 20
150.9286824330421
 30
0.0
 11
130.681979440892
 21
150.9232094532461
 31
0.0
  0
LINE
  5
320
330
E3
100
AcDbEntity
  8
0
  6
Continuous
100
AcDbLine
 10
130.681979440892
 20
150.9232094532461
 30
0.0
 11
130.6432870154182
 21
150.9177403276611
 31
0.0
  0
LINE
  5
321
330
E3
100
AcDbEntity
  8
0
  6
Continuous
100
AcDbLine
 10
130.6432870154182
 20
150.9177403276611
 30
0.0
 11
130.6029873839058
 21
150.9122673478651
 31
0.0
  0
LINE
  5
322
330
E3
100
AcDbEntity
  8
0
  6
Continuous
100
AcDbLine
 10
130.6029873839058
 20
150.9122673478651
 30
0.0
 11
130.5613888832445
 21
150.906794368069
 31
0.0
  0
LINE
  5
323
330
E3
100
AcDbEntity
  8
0
  6
Continuous
100
AcDbLine
 10
130.5613888832445
 20
150.906794368069
 30
0.0
 11
130.5188037045356
 21
150.9013252424841
 31
0.0
  0
LINE
  5
324
330
E3
100
AcDbEntity
  8
0
  6
Continuous
100
AcDbLine
 10
130.5188037045356
 20
150.9013252424841
 30
0.0
 11
130.4755556015133
 21
150.895852262688
 31
0.0
  0
LINE
  5
325
330
E3
100
AcDbEntity
  8
0
  6
Continuous
100
AcDbLine
 10
130.4755556015133
 20
150.895852262688
 30
0.0
 11
130.4319798905454
 21
150.8903831371031
 31
0.0
  0
LINE
  5
326
330
E3
100
AcDbEntity
  8
0
  6
Continuous
100
AcDbLine
 10
130.4319798905454
 20
150.8903831371031
 30
0.0
 11
130.3884003253665
 21
150.884910157307
 31
0.0
  0
LINE
  5
327
330
E3
100
AcDbEntity
  8
0
  6
Continuous
100
AcDbLine
 10
130.3884003253665
 20
150.884910157307
 30
0.0
 11
130.3451560765553
 21
150.8794410317221
 31
0.0
  0
LINE
  5
328
330
E3
100
AcDbEntity
  8
0
  6
Continuous
100
AcDbLine
 10
130.3451560765553
 20
150.8794410317221
 30
0.0
 11
130.3025670436352
 21
150.873968051926
 31
0.0
  0
LINE
  5
329
330
E3
100
AcDbEntity
  8
0
  6
Continuous
100
AcDbLine
 10
130.3025670436352
 20
150.873968051926
 30
0.0
 11
130.260968542974
 21
150.8684950721299
 31
0.0
  0
LINE
  5
32A
330
E3
100
AcDbEntity
  8
0
  6
Continuous
100
AcDbLine
 10
130.260968542974
 20
150.8684950721299
 30
0.0
 11
130.2206689114616
 21
150.863025946545
 31
0.0
  0
LINE
  5
32B
330
E3
100
AcDbEntity
  8
0
  6
Continuous
100
AcDbLine
 10
130.2206689114616
 20
150.863025946545
 30
0.0
 11
130.181980340199
 21
150.8575529667489
 31
0.0
  0
LINE
  5
32C
330
E3
100
AcDbEntity
  8
0
  6
Continuous
100
AcDbLine
 10
130.181980340199
 20
150.8575529667489
 30
0.0
 11
130.1451918950205
 21
150.852083841164
 31
0.0
  0
LINE
  5
32D
330
E3
100
AcDbEntity
  8
0
  6
Continuous
100
AcDbLine
 10
130.1451918950205
 20
150.852083841164
 30
0.0
 11
130.1105849333382
 21
150.8466108613679
 31
0.0
  0
LINE
  5
32E
330
E3
100
AcDbEntity
  8
0
  6
Continuous
100
AcDbLine
 10
130.1105849333382
 20
150.8466108613679
 30
0.0
 11
130.0784253957196
 21
150.8411378815718
 31
0.0
  0
LINE
  5
32F
330
E3
100
AcDbEntity
  8
0
  6
Continuous
100
AcDbLine
 10
130.0784253957196
 20
150.8411378815718
 30
0.0
 11
130.0489560974656
 21
150.8356687559869
 31
0.0
  0
LINE
  5
330
330
E3
100
AcDbEntity
  8
0
  6
Continuous
100
AcDbLine
 10
130.0489560974656
 20
150.8356687559869
 30
0.0
 11
130.0224005828213
 21
150.8301957761908
 31
0.0
  0
LINE
  5
331
330
E3
100
AcDbEntity
  8
0
  6
Continuous
100
AcDbLine
 10
130.0224005828213
 20
150.8301957761908
 30
0.0
 11
129.9989669791875
 21
150.8247266506059
 31
0.0
  0
LINE
  5
332
330
E3
100
AcDbEntity
  8
0
  6
Continuous
100
AcDbLine
 10
129.9989669791875
 20
150.8247266506059
 30
0.0
 11
129.9788248718535
 21
150.8192536708098
 31
0.0
  0
LINE
  5
333
330
E3
100
AcDbEntity
  8
0
  6
Continuous
100
AcDbLine
 10
129.9788248718535
 20
150.8192536708098
 30
0.0
 11
129.9621322834755
 21
150.8137806910138
 31
0.0
  0
LINE
  5
334
330
E3
100
AcDbEntity
  8
0
  6
Continuous
100
AcDbLine
 10
129.9621322834755
 20
150.8137806910138
 30
0.0
 11
129.9490164030205
 21
150.8083115654288
 31
0.0
  0
LINE
  5
335
330
E3
100
AcDbEntity
  8
0
  6
Continuous
100
AcDbLine
 10
129.9490164030205
 20
150.8083115654288
 30
0.0
 11
129.9395735857667
 21
150.8028385856328
 31
0.0
  0
LINE
  5
336
330
E3
100
AcDbEntity
  8
0
  6
Continuous
100
AcDbLine
 10
129.9395735857667
 20
150.8028385856328
 30
0.0
 11
129.9338810716531
 21
150.7973684439763
 31
0.0
  0
LINE
  5
337
330
E3
100
AcDbEntity
  8
0
  6
Continuous
100
AcDbLine
 10
129.9338810716531
 20
150.7973684439763
 30
0.0
 11
129.931978420699
 21
150.7918970635049
 31
0.0
  0
LINE
  5
338
330
E3
100
AcDbEntity
  8
0
  6
Continuous
100
AcDbLine
 10
130.931978420699
 20
150.5949273665352
 30
0.0
 11
130.9300757697448
 21
150.5894559860638
 31
0.0
  0
LINE
  5
339
330
E3
100
AcDbEntity
  8
0
  6
Continuous
100
AcDbLine
 10
130.9300757697448
 20
150.5894559860638
 30
0.0
 11
130.9243822972051
 21
150.5839846055924
 31
0.0
  0
LINE
  5
33A
330
E3
100
AcDbEntity
  8
0
  6
Continuous
100
AcDbLine
 10
130.9243822972051
 20
150.5839846055924
 30
0.0
 11
130.9149395238593
 21
150.5785119355832
 31
0.0
  0
LINE
  5
33B
330
E3
100
AcDbEntity
  8
0
  6
Continuous
100
AcDbLine
 10
130.9149395238593
 20
150.5785119355832
 30
0.0
 11
130.9018236434043
 21
150.5730428099982
 31
0.0
  0
LINE
  5
33C
330
E3
100
AcDbEntity
  8
0
  6
Continuous
100
AcDbLine
 10
130.9018236434043
 20
150.5730428099982
 30
0.0
 11
130.8851310550263
 21
150.5675698302021
 31
0.0
  0
LINE
  5
33D
330
E3
100
AcDbEntity
  8
0
  6
Continuous
100
AcDbLine
 10
130.8851310550263
 20
150.5675698302021
 30
0.0
 11
130.8649928019035
 21
150.5621007046172
 31
0.0
  0
LINE
  5
33E
330
E3
100
AcDbEntity
  8
0
  6
Continuous
100
AcDbLine
 10
130.8649928019035
 20
150.5621007046172
 30
0.0
 11
130.8415553440585
 21
150.5566277248211
 31
0.0
  0
LINE
  5
33F
330
E3
100
AcDbEntity
  8
0
  6
Continuous
100
AcDbLine
 10
130.8415553440585
 20
150.5566277248211
 30
0.0
 11
130.8149998294142
 21
150.5511547450251
 31
0.0
  0
LINE
  5
340
330
E3
100
AcDbEntity
  8
0
  6
Continuous
100
AcDbLine
 10
130.8149998294142
 20
150.5511547450251
 30
0.0
 11
130.7855305311602
 21
150.5456856194401
 31
0.0
  0
LINE
  5
341
330
E3
100
AcDbEntity
  8
0
  6
Continuous
100
AcDbLine
 10
130.7855305311602
 20
150.5456856194401
 30
0.0
 11
130.7533709935416
 21
150.5402126396441
 31
0.0
  0
LINE
  5
342
330
E3
100
AcDbEntity
  8
0
  6
Continuous
100
AcDbLine
 10
130.7533709935416
 20
150.5402126396441
 30
0.0
 11
130.7187678860704
 21
150.5347435140592
 31
0.0
  0
LINE
  5
343
330
E3
100
AcDbEntity
  8
0
  6
Continuous
100
AcDbLine
 10
130.7187678860704
 20
150.5347435140592
 30
0.0
 11
130.681979440892
 21
150.5292705342631
 31
0.0
  0
LINE
  5
344
330
E3
100
AcDbEntity
  8
0
  6
Continuous
100
AcDbLine
 10
130.681979440892
 20
150.5292705342631
 30
0.0
 11
130.6432870154182
 21
150.523797554467
 31
0.0
  0
LINE
  5
345
330
E3
100
AcDbEntity
  8
0
  6
Continuous
100
AcDbLine
 10
130.6432870154182
 20
150.523797554467
 30
0.0
 11
130.6029873839058
 21
150.5183284288821
 31
0.0
  0
LINE
  5
346
330
E3
100
AcDbEntity
  8
0
  6
Continuous
100
AcDbLine
 10
130.6029873839058
 20
150.5183284288821
 30
0.0
 11
130.5613888832445
 21
150.512855449086
 31
0.0
  0
LINE
  5
347
330
E3
100
AcDbEntity
  8
0
  6
Continuous
100
AcDbLine
 10
130.5613888832445
 20
150.512855449086
 30
0.0
 11
130.5188037045356
 21
150.5073863235011
 31
0.0
  0
LINE
  5
348
330
E3
100
AcDbEntity
  8
0
  6
Continuous
100
AcDbLine
 10
130.5188037045356
 20
150.5073863235011
 30
0.0
 11
130.4755556015133
 21
150.501913343705
 31
0.0
  0
LINE
  5
349
330
E3
100
AcDbEntity
  8
0
  6
Continuous
100
AcDbLine
 10
130.4755556015133
 20
150.501913343705
 30
0.0
 11
130.4319798905454
 21
150.49644421812
 31
0.0
  0
LINE
  5
34A
330
E3
100
AcDbEntity
  8
0
  6
Continuous
100
AcDbLine
 10
130.4319798905454
 20
150.49644421812
 30
0.0
 11
130.3884003253665
 21
150.490971238324
 31
0.0
  0
LINE
  5
34B
330
E3
100
AcDbEntity
  8
0
  6
Continuous
100
AcDbLine
 10
130.3884003253665
 20
150.490971238324
 30
0.0
 11
130.3451560765553
 21
150.4854982585279
 31
0.0
  0
LINE
  5
34C
330
E3
100
AcDbEntity
  8
0
  6
Continuous
100
AcDbLine
 10
130.3451560765553
 20
150.4854982585279
 30
0.0
 11
130.3025670436352
 21
150.480029132943
 31
0.0
  0
LINE
  5
34D
330
E3
100
AcDbEntity
  8
0
  6
Continuous
100
AcDbLine
 10
130.3025670436352
 20
150.480029132943
 30
0.0
 11
130.260968542974
 21
150.4745561531469
 31
0.0
  0
LINE
  5
34E
330
E3
100
AcDbEntity
  8
0
  6
Continuous
100
AcDbLine
 10
130.260968542974
 20
150.4745561531469
 30
0.0
 11
130.2206689114616
 21
150.469087027562
 31
0.0
  0
LINE
  5
34F
330
E3
100
AcDbEntity
  8
0
  6
Continuous
100
AcDbLine
 10
130.2206689114616
 20
150.469087027562
 30
0.0
 11
130.181980340199
 21
150.4636140477659
 31
0.0
  0
LINE
  5
350
330
E3
100
AcDbEntity
  8
0
  6
Continuous
100
AcDbLine
 10
130.181980340199
 20
150.4636140477659
 30
0.0
 11
130.1451918950205
 21
150.4581410679698
 31
0.0
  0
LINE
  5
351
330
E3
100
AcDbEntity
  8
0
  6
Continuous
100
AcDbLine
 10
130.1451918950205
 20
150.4581410679698
 30
0.0
 11
130.1105849333382
 21
150.4526719423849
 31
0.0
  0
LINE
  5
352
330
E3
100
AcDbEntity
  8
0
  6
Continuous
100
AcDbLine
 10
130.1105849333382
 20
150.4526719423849
 30
0.0
 11
130.0784253957196
 21
150.4471989625889
 31
0.0
  0
LINE
  5
353
330
E3
100
AcDbEntity
  8
0
  6
Continuous
100
AcDbLine
 10
130.0784253957196
 20
150.4471989625889
 30
0.0
 11
130.0489560974656
 21
150.4417298370039
 31
0.0
  0
LINE
  5
354
330
E3
100
AcDbEntity
  8
0
  6
Continuous
100
AcDbLine
 10
130.0489560974656
 20
150.4417298370039
 30
0.0
 11
130.0224005828213
 21
150.4362568572078
 31
0.0
  0
LINE
  5
355
330
E3
100
AcDbEntity
  8
0
  6
Continuous
100
AcDbLine
 10
130.0224005828213
 20
150.4362568572078
 30
0.0
 11
129.9989669791875
 21
150.4307877316229
 31
0.0
  0
LINE
  5
356
330
E3
100
AcDbEntity
  8
0
  6
Continuous
100
AcDbLine
 10
129.9989669791875
 20
150.4307877316229
 30
0.0
 11
129.9788248718535
 21
150.4253147518268
 31
0.0
  0
LINE
  5
357
330
E3
100
AcDbEntity
  8
0
  6
Continuous
100
AcDbLine
 10
129.9788248718535
 20
150.4253147518268
 30
0.0
 11
129.9621322834755
 21
150.4198417720308
 31
0.0
  0
LINE
  5
358
330
E3
100
AcDbEntity
  8
0
  6
Continuous
100
AcDbLine
 10
129.9621322834755
 20
150.4198417720308
 30
0.0
 11
129.9490164030205
 21
150.4143726464458
 31
0.0
  0
LINE
  5
359
330
E3
100
AcDbEntity
  8
0
  6
Continuous
100
AcDbLine
 10
129.9490164030205
 20
150.4143726464458
 30
0.0
 11
129.9395735857667
 21
150.4088996666497
 31
0.0
  0
LINE
  5
35A
330
E3
100
AcDbEntity
  8
0
  6
Continuous
100
AcDbLine
 10
129.9395735857667
 20
150.4088996666497
 30
0.0
 11
129.9338810716531
 21
150.4034290500368
 31
0.0
  0
LINE
  5
35B
330
E3
100
AcDbEntity
  8
0
  6
Continuous
100
AcDbLine
 10
129.9338810716531
 20
150.4034290500368
 30
0.0
 11
129.931978420699
 21
150.3979576695655
 31
0.0
  0
LINE
  5
35C
330
E3
100
AcDbEntity
  8
0
  6
Continuous
100
AcDbLine
 10
130.931978420699
 20
150.2009879725958
 30
0.0
 11
130.9300757697448
 21
150.1955165921244
 31
0.0
  0
LINE
  5
35D
330
E3
100
AcDbEntity
  8
0
  6
Continuous
100
AcDbLine
 10
130.9300757697448
 20
150.1955165921244
 30
0.0
 11
130.9243822972051
 21
150.190045211653
 31
0.0
  0
LINE
  5
35E
330
E3
100
AcDbEntity
  8
0
  6
Continuous
100
AcDbLine
 10
130.9243822972051
 20
150.190045211653
 30
0.0
 11
130.9149395238593
 21
150.1845730166002
 31
0.0
  0
LINE
  5
35F
330
E3
100
AcDbEntity
  8
0
  6
Continuous
100
AcDbLine
 10
130.9149395238593
 20
150.1845730166002
 30
0.0
 11
130.9018236434043
 21
150.1791038910152
 31
0.0
  0
LINE
  5
360
330
E3
100
AcDbEntity
  8
0
  6
Continuous
100
AcDbLine
 10
130.9018236434043
 20
150.1791038910152
 30
0.0
 11
130.8851310550263
 21
150.1736309112192
 31
0.0
  0
LINE
  5
361
330
E3
100
AcDbEntity
  8
0
  6
Continuous
100
AcDbLine
 10
130.8851310550263
 20
150.1736309112192
 30
0.0
 11
130.8649928019035
 21
150.1681579314231
 31
0.0
  0
LINE
  5
362
330
E3
100
AcDbEntity
  8
0
  6
Continuous
100
AcDbLine
 10
130.8649928019035
 20
150.1681579314231
 30
0.0
 11
130.8415553440585
 21
150.1626888058382
 31
0.0
  0
LINE
  5
363
330
E3
100
AcDbEntity
  8
0
  6
Continuous
100
AcDbLine
 10
130.8415553440585
 20
150.1626888058382
 30
0.0
 11
130.8149998294142
 21
150.1572158260421
 31
0.0
  0
LINE
  5
364
330
E3
100
AcDbEntity
  8
0
  6
Continuous
100
AcDbLine
 10
130.8149998294142
 20
150.1572158260421
 30
0.0
 11
130.7855305311602
 21
150.1517467004572
 31
0.0
  0
LINE
  5
365
330
E3
100
AcDbEntity
  8
0
  6
Continuous
100
AcDbLine
 10
130.7855305311602
 20
150.1517467004572
 30
0.0
 11
130.7533709935416
 21
150.1462737206611
 31
0.0
  0
LINE
  5
366
330
E3
100
AcDbEntity
  8
0
  6
Continuous
100
AcDbLine
 10
130.7533709935416
 20
150.1462737206611
 30
0.0
 11
130.7187678860704
 21
150.1408045950761
 31
0.0
  0
LINE
  5
367
330
E3
100
AcDbEntity
  8
0
  6
Continuous
100
AcDbLine
 10
130.7187678860704
 20
150.1408045950761
 30
0.0
 11
130.681979440892
 21
150.1353316152801
 31
0.0
  0
LINE
  5
368
330
E3
100
AcDbEntity
  8
0
  6
Continuous
100
AcDbLine
 10
130.681979440892
 20
150.1353316152801
 30
0.0
 11
130.6432870154182
 21
150.129858635484
 31
0.0
  0
LINE
  5
369
330
E3
100
AcDbEntity
  8
0
  6
Continuous
100
AcDbLine
 10
130.6432870154182
 20
150.129858635484
 30
0.0
 11
130.6029873839058
 21
150.124389509899
 31
0.0
  0
LINE
  5
36A
330
E3
100
AcDbEntity
  8
0
  6
Continuous
100
AcDbLine
 10
130.6029873839058
 20
150.124389509899
 30
0.0
 11
130.5613888832445
 21
150.118916530103
 31
0.0
  0
LINE
  5
36B
330
E3
100
AcDbEntity
  8
0
  6
Continuous
100
AcDbLine
 10
130.5613888832445
 20
150.118916530103
 30
0.0
 11
130.5188037045356
 21
150.113447404518
 31
0.0
  0
LINE
  5
36C
330
E3
100
AcDbEntity
  8
0
  6
Continuous
100
AcDbLine
 10
130.5188037045356
 20
150.113447404518
 30
0.0
 11
130.4755556015133
 21
150.107974424722
 31
0.0
  0
LINE
  5
36D
330
E3
100
AcDbEntity
  8
0
  6
Continuous
100
AcDbLine
 10
130.4755556015133
 20
150.107974424722
 30
0.0
 11
130.4319798905454
 21
150.1025014449259
 31
0.0
  0
LINE
  5
36E
330
E3
100
AcDbEntity
  8
0
  6
Continuous
100
AcDbLine
 10
130.4319798905454
 20
150.1025014449259
 30
0.0
 11
130.3884003253665
 21
150.097032319341
 31
0.0
  0
LINE
  5
36F
330
E3
100
AcDbEntity
  8
0
  6
Continuous
100
AcDbLine
 10
130.3884003253665
 20
150.097032319341
 30
0.0
 11
130.3451560765553
 21
150.0915593395449
 31
0.0
  0
LINE
  5
370
330
E3
100
AcDbEntity
  8
0
  6
Continuous
100
AcDbLine
 10
130.3451560765553
 20
150.0915593395449
 30
0.0
 11
130.3025670436352
 21
150.08609021396
 31
0.0
  0
LINE
  5
371
330
E3
100
AcDbEntity
  8
0
  6
Continuous
100
AcDbLine
 10
130.3025670436352
 20
150.08609021396
 30
0.0
 11
130.260968542974
 21
150.0806172341639
 31
0.0
  0
LINE
  5
372
330
E3
100
AcDbEntity
  8
0
  6
Continuous
100
AcDbLine
 10
130.260968542974
 20
150.0806172341639
 30
0.0
 11
130.2206689114616
 21
150.075148108579
 31
0.0
  0
LINE
  5
373
330
E3
100
AcDbEntity
  8
0
  6
Continuous
100
AcDbLine
 10
130.2206689114616
 20
150.075148108579
 30
0.0
 11
130.181980340199
 21
150.0696751287829
 31
0.0
  0
LINE
  5
374
330
E3
100
AcDbEntity
  8
0
  6
Continuous
100
AcDbLine
 10
130.181980340199
 20
150.0696751287829
 30
0.0
 11
130.1451918950205
 21
150.0642021489868
 31
0.0
  0
LINE
  5
375
330
E3
100
AcDbEntity
  8
0
  6
Continuous
100
AcDbLine
 10
130.1451918950205
 20
150.0642021489868
 30
0.0
 11
130.1105849333382
 21
150.0587330234019
 31
0.0
  0
LINE
  5
376
330
E3
100
AcDbEntity
  8
0
  6
Continuous
100
AcDbLine
 10
130.1105849333382
 20
150.0587330234019
 30
0.0
 11
130.0784253957196
 21
150.0532600436058
 31
0.0
  0
LINE
  5
377
330
E3
100
AcDbEntity
  8
0
  6
Continuous
100
AcDbLine
 10
130.0784253957196
 20
150.0532600436058
 30
0.0
 11
130.0489560974656
 21
150.0477909180209
 31
0.0
  0
LINE
  5
378
330
E3
100
AcDbEntity
  8
0
  6
Continuous
100
AcDbLine
 10
130.0489560974656
 20
150.0477909180209
 30
0.0
 11
130.0224005828213
 21
150.0423179382248
 31
0.0
  0
LINE
  5
379
330
E3
100
AcDbEntity
  8
0
  6
Continuous
100
AcDbLine
 10
130.0224005828213
 20
150.0423179382248
 30
0.0
 11
129.9989669791875
 21
150.0368449584288
 31
0.0
  0
LINE
  5
37A
330
E3
100
AcDbEntity
  8
0
  6
Continuous
100
AcDbLine
 10
129.9989669791875
 20
150.0368449584288
 30
0.0
 11
129.9788248718535
 21
150.0313758328438
 31
0.0
  0
LINE
  5
37B
330
E3
100
AcDbEntity
  8
0
  6
Continuous
100
AcDbLine
 10
129.9788248718535
 20
150.0313758328438
 30
0.0
 11
129.9621322834755
 21
150.0259028530477
 31
0.0
  0
LINE
  5
37C
330
E3
100
AcDbEntity
  8
0
  6
Continuous
100
AcDbLine
 10
129.9621322834755
 20
150.0259028530477
 30
0.0
 11
129.9490164030205
 21
150.0204337274628
 31
0.0
  0
LINE
  5
37D
330
E3
100
AcDbEntity
  8
0
  6
Continuous
100
AcDbLine
 10
129.9490164030205
 20
150.0204337274628
 30
0.0
 11
129.9395735857667
 21
150.0149607476667
 31
0.0
  0
LINE
  5
37E
330
E3
100
AcDbEntity
  8
0
  6
Continuous
100
AcDbLine
 10
129.9395735857667
 20
150.0149607476667
 30
0.0
 11
129.9338810716531
 21
150.0094896560975
 31
0.0
  0
LINE
  5
37F
330
E3
100
AcDbEntity
  8
0
  6
Continuous
100
AcDbLine
 10
129.9338810716531
 20
150.0094896560975
 30
0.0
 11
129.931978420699
 21
150.0040182756261
 31
0.0
  0
LINE
  5
380
330
E3
100
AcDbEntity
  8
0
  6
Continuous
100
AcDbLine
 10
130.931978420699
 20
149.8070485786564
 30
0.0
 11
130.9300757697448
 21
149.801577198185
 31
0.0
  0
LINE
  5
381
330
E3
100
AcDbEntity
  8
0
  6
Continuous
100
AcDbLine
 10
130.9300757697448
 20
149.801577198185
 30
0.0
 11
130.9243822972051
 21
149.7961058177136
 31
0.0
  0
LINE
  5
382
330
E3
100
AcDbEntity
  8
0
  6
Continuous
100
AcDbLine
 10
130.9243822972051
 20
149.7961058177136
 30
0.0
 11
130.9149395238593
 21
149.7906340976171
 31
0.0
  0
LINE
  5
383
330
E3
100
AcDbEntity
  8
0
  6
Continuous
100
AcDbLine
 10
130.9149395238593
 20
149.7906340976171
 30
0.0
 11
130.9018236434043
 21
149.7851649720322
 31
0.0
  0
LINE
  5
384
330
E3
100
AcDbEntity
  8
0
  6
Continuous
100
AcDbLine
 10
130.9018236434043
 20
149.7851649720322
 30
0.0
 11
130.8851310550263
 21
149.7796919922361
 31
0.0
  0
LINE
  5
385
330
E3
100
AcDbEntity
  8
0
  6
Continuous
100
AcDbLine
 10
130.8851310550263
 20
149.7796919922361
 30
0.0
 11
130.8649928019035
 21
149.7742190124401
 31
0.0
  0
LINE
  5
386
330
E3
100
AcDbEntity
  8
0
  6
Continuous
100
AcDbLine
 10
130.8649928019035
 20
149.7742190124401
 30
0.0
 11
130.8415553440585
 21
149.7687498868551
 31
0.0
  0
LINE
  5
387
330
E3
100
AcDbEntity
  8
0
  6
Continuous
100
AcDbLine
 10
130.8415553440585
 20
149.7687498868551
 30
0.0
 11
130.8149998294142
 21
149.7632769070591
 31
0.0
  0
LINE
  5
388
330
E3
100
AcDbEntity
  8
0
  6
Continuous
100
AcDbLine
 10
130.8149998294142
 20
149.7632769070591
 30
0.0
 11
130.7855305311602
 21
149.7578077814741
 31
0.0
  0
LINE
  5
389
330
E3
100
AcDbEntity
  8
0
  6
Continuous
100
AcDbLine
 10
130.7855305311602
 20
149.7578077814741
 30
0.0
 11
130.7533709935416
 21
149.7523348016781
 31
0.0
  0
LINE
  5
38A
330
E3
100
AcDbEntity
  8
0
  6
Continuous
100
AcDbLine
 10
130.7533709935416
 20
149.7523348016781
 30
0.0
 11
130.7187678860704
 21
149.746861821882
 31
0.0
  0
LINE
  5
38B
330
E3
100
AcDbEntity
  8
0
  6
Continuous
100
AcDbLine
 10
130.7187678860704
 20
149.746861821882
 30
0.0
 11
130.681979440892
 21
149.7413926962971
 31
0.0
  0
LINE
  5
38C
330
E3
100
AcDbEntity
  8
0
  6
Continuous
100
AcDbLine
 10
130.681979440892
 20
149.7413926962971
 30
0.0
 11
130.6432870154182
 21
149.735919716501
 31
0.0
  0
LINE
  5
38D
330
E3
100
AcDbEntity
  8
0
  6
Continuous
100
AcDbLine
 10
130.6432870154182
 20
149.735919716501
 30
0.0
 11
130.6029873839058
 21
149.7304505909161
 31
0.0
  0
LINE
  5
38E
330
E3
100
AcDbEntity
  8
0
  6
Continuous
100
AcDbLine
 10
130.6029873839058
 20
149.7304505909161
 30
0.0
 11
130.5613888832445
 21
149.72497761112
 31
0.0
  0
LINE
  5
38F
330
E3
100
AcDbEntity
  8
0
  6
Continuous
100
AcDbLine
 10
130.5613888832445
 20
149.72497761112
 30
0.0
 11
130.5188037045356
 21
149.7195046313239
 31
0.0
  0
LINE
  5
390
330
E3
100
AcDbEntity
  8
0
  6
Continuous
100
AcDbLine
 10
130.5188037045356
 20
149.7195046313239
 30
0.0
 11
130.4755556015133
 21
149.714035505739
 31
0.0
  0
LINE
  5
391
330
E3
100
AcDbEntity
  8
0
  6
Continuous
100
AcDbLine
 10
130.4755556015133
 20
149.714035505739
 30
0.0
 11
130.4319798905454
 21
149.7085625259429
 31
0.0
  0
LINE
  5
392
330
E3
100
AcDbEntity
  8
0
  6
Continuous
100
AcDbLine
 10
130.4319798905454
 20
149.7085625259429
 30
0.0
 11
130.3884003253665
 21
149.703093400358
 31
0.0
  0
LINE
  5
393
330
E3
100
AcDbEntity
  8
0
  6
Continuous
100
AcDbLine
 10
130.3884003253665
 20
149.703093400358
 30
0.0
 11
130.3451560765553
 21
149.6976204205619
 31
0.0
  0
LINE
  5
394
330
E3
100
AcDbEntity
  8
0
  6
Continuous
100
AcDbLine
 10
130.3451560765553
 20
149.6976204205619
 30
0.0
 11
130.3025670436352
 21
149.692151294977
 31
0.0
  0
LINE
  5
395
330
E3
100
AcDbEntity
  8
0
  6
Continuous
100
AcDbLine
 10
130.3025670436352
 20
149.692151294977
 30
0.0
 11
130.260968542974
 21
149.6866783151809
 31
0.0
  0
LINE
  5
396
330
E3
100
AcDbEntity
  8
0
  6
Continuous
100
AcDbLine
 10
130.260968542974
 20
149.6866783151809
 30
0.0
 11
130.2206689114616
 21
149.6812053353848
 31
0.0
  0
LINE
  5
397
330
E3
100
AcDbEntity
  8
0
  6
Continuous
100
AcDbLine
 10
130.2206689114616
 20
149.6812053353848
 30
0.0
 11
130.181980340199
 21
149.6757362097999
 31
0.0
  0
LINE
  5
398
330
E3
100
AcDbEntity
  8
0
  6
Continuous
100
AcDbLine
 10
130.181980340199
 20
149.6757362097999
 30
0.0
 11
130.1451918950205
 21
149.6702632300038
 31
0.0
  0
LINE
  5
399
330
E3
100
AcDbEntity
  8
0
  6
Continuous
100
AcDbLine
 10
130.1451918950205
 20
149.6702632300038
 30
0.0
 11
130.1105849333382
 21
149.6647941044189
 31
0.0
  0
LINE
  5
39A
330
E3
100
AcDbEntity
  8
0
  6
Continuous
100
AcDbLine
 10
130.1105849333382
 20
149.6647941044189
 30
0.0
 11
130.0784253957196
 21
149.6593211246228
 31
0.0
  0
LINE
  5
39B
330
E3
100
AcDbEntity
  8
0
  6
Continuous
100
AcDbLine
 10
130.0784253957196
 20
149.6593211246228
 30
0.0
 11
130.0489560974656
 21
149.6538481448268
 31
0.0
  0
LINE
  5
39C
330
E3
100
AcDbEntity
  8
0
  6
Continuous
100
AcDbLine
 10
130.0489560974656
 20
149.6538481448268
 30
0.0
 11
130.0224005828213
 21
149.6483790192418
 31
0.0
  0
LINE
  5
39D
330
E3
100
AcDbEntity
  8
0
  6
Continuous
100
AcDbLine
 10
130.0224005828213
 20
149.6483790192418
 30
0.0
 11
129.9989669791875
 21
149.6429060394457
 31
0.0
  0
LINE
  5
39E
330
E3
100
AcDbEntity
  8
0
  6
Continuous
100
AcDbLine
 10
129.9989669791875
 20
149.6429060394457
 30
0.0
 11
129.9788248718535
 21
149.6374369138608
 31
0.0
  0
LINE
  5
39F
330
E3
100
AcDbEntity
  8
0
  6
Continuous
100
AcDbLine
 10
129.9788248718535
 20
149.6374369138608
 30
0.0
 11
129.9621322834755
 21
149.6319639340647
 31
0.0
  0
LINE
  5
3A0
330
E3
100
AcDbEntity
  8
0
  6
Continuous
100
AcDbLine
 10
129.9621322834755
 20
149.6319639340647
 30
0.0
 11
129.9490164030205
 21
149.6264948084798
 31
0.0
  0
LINE
  5
3A1
330
E3
100
AcDbEntity
  8
0
  6
Continuous
100
AcDbLine
 10
129.9490164030205
 20
149.6264948084798
 30
0.0
 11
129.9395735857667
 21
149.6210218286837
 31
0.0
  0
LINE
  5
3A2
330
E3
100
AcDbEntity
  8
0
  6
Continuous
100
AcDbLine
 10
129.9395735857667
 20
149.6210218286837
 30
0.0
 11
129.9338810716531
 21
149.6155502621581
 31
0.0
  0
LINE
  5
3A3
330
E3
100
AcDbEntity
  8
0
  6
Continuous
100
AcDbLine
 10
129.9338810716531
 20
149.6155502621581
 30
0.0
 11
129.931978420699
 21
149.6100788816867
 31
0.0
  0
LINE
  5
3A4
330
E3
100
AcDbEntity
  8
0
  6
Continuous
100
AcDbLine
 10
130.931978420699
 20
149.413109184717
 30
0.0
 11
130.9300757697448
 21
149.4076378042456
 31
0.0
  0
LINE
  5
3A5
330
E3
100
AcDbEntity
  8
0
  6
Continuous
100
AcDbLine
 10
130.9300757697448
 20
149.4076378042456
 30
0.0
 11
130.9243822972051
 21
149.4021664237742
 31
0.0
  0
LINE
  5
3A6
330
E3
100
AcDbEntity
  8
0
  6
Continuous
100
AcDbLine
 10
130.9243822972051
 20
149.4021664237742
 30
0.0
 11
130.9149395238593
 21
149.3966951786341
 31
0.0
  0
LINE
  5
3A7
330
E3
100
AcDbEntity
  8
0
  6
Continuous
100
AcDbLine
 10
130.9149395238593
 20
149.3966951786341
 30
0.0
 11
130.9018236434043
 21
149.3912221988381
 31
0.0
  0
LINE
  5
3A8
330
E3
100
AcDbEntity
  8
0
  6
Continuous
100
AcDbLine
 10
130.9018236434043
 20
149.3912221988381
 30
0.0
 11
130.8851310550263
 21
149.3857530732531
 31
0.0
  0
LINE
  5
3A9
330
E3
100
AcDbEntity
  8
0
  6
Continuous
100
AcDbLine
 10
130.8851310550263
 20
149.3857530732531
 30
0.0
 11
130.8649928019035
 21
149.3802800934571
 31
0.0
  0
LINE
  5
3AA
330
E3
100
AcDbEntity
  8
0
  6
Continuous
100
AcDbLine
 10
130.8649928019035
 20
149.3802800934571
 30
0.0
 11
130.8415553440585
 21
149.3748109678722
 31
0.0
  0
LINE
  5
3AB
330
E3
100
AcDbEntity
  8
0
  6
Continuous
100
AcDbLine
 10
130.8415553440585
 20
149.3748109678722
 30
0.0
 11
130.8149998294142
 21
149.3693379880761
 31
0.0
  0
LINE
  5
3AC
330
E3
100
AcDbEntity
  8
0
  6
Continuous
100
AcDbLine
 10
130.8149998294142
 20
149.3693379880761
 30
0.0
 11
130.7855305311602
 21
149.36386500828
 31
0.0
  0
LINE
  5
3AD
330
E3
100
AcDbEntity
  8
0
  6
Continuous
100
AcDbLine
 10
130.7855305311602
 20
149.36386500828
 30
0.0
 11
130.7533709935416
 21
149.358395882695
 31
0.0
  0
LINE
  5
3AE
330
E3
100
AcDbEntity
  8
0
  6
Continuous
100
AcDbLine
 10
130.7533709935416
 20
149.358395882695
 30
0.0
 11
130.7187678860704
 21
149.352922902899
 31
0.0
  0
LINE
  5
3AF
330
E3
100
AcDbEntity
  8
0
  6
Continuous
100
AcDbLine
 10
130.7187678860704
 20
149.352922902899
 30
0.0
 11
130.681979440892
 21
149.3474537773141
 31
0.0
  0
LINE
  5
3B0
330
E3
100
AcDbEntity
  8
0
  6
Continuous
100
AcDbLine
 10
130.681979440892
 20
149.3474537773141
 30
0.0
 11
130.6432870154182
 21
149.341980797518
 31
0.0
  0
LINE
  5
3B1
330
E3
100
AcDbEntity
  8
0
  6
Continuous
100
AcDbLine
 10
130.6432870154182
 20
149.341980797518
 30
0.0
 11
130.6029873839058
 21
149.336511671933
 31
0.0
  0
LINE
  5
3B2
330
E3
100
AcDbEntity
  8
0
  6
Continuous
100
AcDbLine
 10
130.6029873839058
 20
149.336511671933
 30
0.0
 11
130.5613888832445
 21
149.331038692137
 31
0.0
  0
LINE
  5
3B3
330
E3
100
AcDbEntity
  8
0
  6
Continuous
100
AcDbLine
 10
130.5613888832445
 20
149.331038692137
 30
0.0
 11
130.5188037045356
 21
149.3255657123409
 31
0.0
  0
LINE
  5
3B4
330
E3
100
AcDbEntity
  8
0
  6
Continuous
100
AcDbLine
 10
130.5188037045356
 20
149.3255657123409
 30
0.0
 11
130.4755556015133
 21
149.320096586756
 31
0.0
  0
LINE
  5
3B5
330
E3
100
AcDbEntity
  8
0
  6
Continuous
100
AcDbLine
 10
130.4755556015133
 20
149.320096586756
 30
0.0
 11
130.4319798905454
 21
149.3146236069599
 31
0.0
  0
LINE
  5
3B6
330
E3
100
AcDbEntity
  8
0
  6
Continuous
100
AcDbLine
 10
130.4319798905454
 20
149.3146236069599
 30
0.0
 11
130.3884003253665
 21
149.3091544813749
 31
0.0
  0
LINE
  5
3B7
330
E3
100
AcDbEntity
  8
0
  6
Continuous
100
AcDbLine
 10
130.3884003253665
 20
149.3091544813749
 30
0.0
 11
130.3451560765553
 21
149.3036815015789
 31
0.0
  0
LINE
  5
3B8
330
E3
100
AcDbEntity
  8
0
  6
Continuous
100
AcDbLine
 10
130.3451560765553
 20
149.3036815015789
 30
0.0
 11
130.3025670436352
 21
149.2982085217828
 31
0.0
  0
LINE
  5
3B9
330
E3
100
AcDbEntity
  8
0
  6
Continuous
100
AcDbLine
 10
130.3025670436352
 20
149.2982085217828
 30
0.0
 11
130.260968542974
 21
149.2927393961979
 31
0.0
  0
LINE
  5
3BA
330
E3
100
AcDbEntity
  8
0
  6
Continuous
100
AcDbLine
 10
130.260968542974
 20
149.2927393961979
 30
0.0
 11
130.2206689114616
 21
149.2872664164018
 31
0.0
  0
LINE
  5
3BB
330
E3
100
AcDbEntity
  8
0
  6
Continuous
100
AcDbLine
 10
130.2206689114616
 20
149.2872664164018
 30
0.0
 11
130.181980340199
 21
149.2817972908169
 31
0.0
  0
LINE
  5
3BC
330
E3
100
AcDbEntity
  8
0
  6
Continuous
100
AcDbLine
 10
130.181980340199
 20
149.2817972908169
 30
0.0
 11
130.1451918950205
 21
149.2763243110208
 31
0.0
  0
LINE
  5
3BD
330
E3
100
AcDbEntity
  8
0
  6
Continuous
100
AcDbLine
 10
130.1451918950205
 20
149.2763243110208
 30
0.0
 11
130.1105849333382
 21
149.2708551854359
 31
0.0
  0
LINE
  5
3BE
330
E3
100
AcDbEntity
  8
0
  6
Continuous
100
AcDbLine
 10
130.1105849333382
 20
149.2708551854359
 30
0.0
 11
130.0784253957196
 21
149.2653822056398
 31
0.0
  0
LINE
  5
3BF
330
E3
100
AcDbEntity
  8
0
  6
Continuous
100
AcDbLine
 10
130.0784253957196
 20
149.2653822056398
 30
0.0
 11
130.0489560974656
 21
149.2599092258437
 31
0.0
  0
LINE
  5
3C0
330
E3
100
AcDbEntity
  8
0
  6
Continuous
100
AcDbLine
 10
130.0489560974656
 20
149.2599092258437
 30
0.0
 11
130.0224005828213
 21
149.2544401002588
 31
0.0
  0
LINE
  5
3C1
330
E3
100
AcDbEntity
  8
0
  6
Continuous
100
AcDbLine
 10
130.0224005828213
 20
149.2544401002588
 30
0.0
 11
129.9989669791875
 21
149.2489671204627
 31
0.0
  0
LINE
  5
3C2
330
E3
100
AcDbEntity
  8
0
  6
Continuous
100
AcDbLine
 10
129.9989669791875
 20
149.2489671204627
 30
0.0
 11
129.9788248718535
 21
149.2434979948778
 31
0.0
  0
LINE
  5
3C3
330
E3
100
AcDbEntity
  8
0
  6
Continuous
100
AcDbLine
 10
129.9788248718535
 20
149.2434979948778
 30
0.0
 11
129.9621322834755
 21
149.2380250150817
 31
0.0
  0
LINE
  5
3C4
330
E3
100
AcDbEntity
  8
0
  6
Continuous
100
AcDbLine
 10
129.9621322834755
 20
149.2380250150817
 30
0.0
 11
129.9490164030205
 21
149.2325520352857
 31
0.0
  0
LINE
  5
3C5
330
E3
100
AcDbEntity
  8
0
  6
Continuous
100
AcDbLine
 10
129.9490164030205
 20
149.2325520352857
 30
0.0
 11
129.9395735857667
 21
149.2270829097007
 31
0.0
  0
LINE
  5
3C6
330
E3
100
AcDbEntity
  8
0
  6
Continuous
100
AcDbLine
 10
129.9395735857667
 20
149.2270829097007
 30
0.0
 11
129.9338810716531
 21
149.2216108682187
 31
0.0
  0
LINE
  5
3C7
330
E3
100
AcDbEntity
  8
0
  6
Continuous
100
AcDbLine
 10
129.9338810716531
 20
149.2216108682187
 30
0.0
 11
129.931978420699
 21
149.2161394877473
 31
0.0
  0
LINE
  5
3C8
330
E3
100
AcDbEntity
  8
0
  6
Continuous
100
AcDbLine
 10
130.931978420699
 20
149.0191697907776
 30
0.0
 11
130.9300757697448
 21
149.0136984103062
 31
0.0
  0
LINE
  5
3C9
330
E3
100
AcDbEntity
  8
0
  6
Continuous
100
AcDbLine
 10
130.9300757697448
 20
149.0136984103062
 30
0.0
 11
130.9243822972051
 21
149.0082270298348
 31
0.0
  0
LINE
  5
3CA
330
E3
100
AcDbEntity
  8
0
  6
Continuous
100
AcDbLine
 10
130.9243822972051
 20
149.0082270298348
 30
0.0
 11
130.9149395238593
 21
149.0027562596511
 31
0.0
  0
LINE
  5
3CB
330
E3
100
AcDbEntity
  8
0
  6
Continuous
100
AcDbLine
 10
130.9149395238593
 20
149.0027562596511
 30
0.0
 11
130.9018236434043
 21
148.9972832798551
 31
0.0
  0
LINE
  5
3CC
330
E3
100
AcDbEntity
  8
0
  6
Continuous
100
AcDbLine
 10
130.9018236434043
 20
148.9972832798551
 30
0.0
 11
130.8851310550263
 21
148.9918141542701
 31
0.0
  0
LINE
  5
3CD
330
E3
100
AcDbEntity
  8
0
  6
Continuous
100
AcDbLine
 10
130.8851310550263
 20
148.9918141542701
 30
0.0
 11
130.8649928019035
 21
148.9863411744741
 31
0.0
  0
LINE
  5
3CE
330
E3
100
AcDbEntity
  8
0
  6
Continuous
100
AcDbLine
 10
130.8649928019035
 20
148.9863411744741
 30
0.0
 11
130.8415553440585
 21
148.9808720488891
 31
0.0
  0
LINE
  5
3CF
330
E3
100
AcDbEntity
  8
0
  6
Continuous
100
AcDbLine
 10
130.8415553440585
 20
148.9808720488891
 30
0.0
 11
130.8149998294142
 21
148.975399069093
 31
0.0
  0
LINE
  5
3D0
330
E3
100
AcDbEntity
  8
0
  6
Continuous
100
AcDbLine
 10
130.8149998294142
 20
148.975399069093
 30
0.0
 11
130.7855305311602
 21
148.969926089297
 31
0.0
  0
LINE
  5
3D1
330
E3
100
AcDbEntity
  8
0
  6
Continuous
100
AcDbLine
 10
130.7855305311602
 20
148.969926089297
 30
0.0
 11
130.7533709935416
 21
148.9644569637121
 31
0.0
  0
LINE
  5
3D2
330
E3
100
AcDbEntity
  8
0
  6
Continuous
100
AcDbLine
 10
130.7533709935416
 20
148.9644569637121
 30
0.0
 11
130.7187678860704
 21
148.958983983916
 31
0.0
  0
LINE
  5
3D3
330
E3
100
AcDbEntity
  8
0
  6
Continuous
100
AcDbLine
 10
130.7187678860704
 20
148.958983983916
 30
0.0
 11
130.681979440892
 21
148.953514858331
 31
0.0
  0
LINE
  5
3D4
330
E3
100
AcDbEntity
  8
0
  6
Continuous
100
AcDbLine
 10
130.681979440892
 20
148.953514858331
 30
0.0
 11
130.6432870154182
 21
148.948041878535
 31
0.0
  0
LINE
  5
3D5
330
E3
100
AcDbEntity
  8
0
  6
Continuous
100
AcDbLine
 10
130.6432870154182
 20
148.948041878535
 30
0.0
 11
130.6029873839058
 21
148.9425688987389
 31
0.0
  0
LINE
  5
3D6
330
E3
100
AcDbEntity
  8
0
  6
Continuous
100
AcDbLine
 10
130.6029873839058
 20
148.9425688987389
 30
0.0
 11
130.5613888832445
 21
148.937099773154
 31
0.0
  0
LINE
  5
3D7
330
E3
100
AcDbEntity
  8
0
  6
Continuous
100
AcDbLine
 10
130.5613888832445
 20
148.937099773154
 30
0.0
 11
130.5188037045356
 21
148.9316267933579
 31
0.0
  0
LINE
  5
3D8
330
E3
100
AcDbEntity
  8
0
  6
Continuous
100
AcDbLine
 10
130.5188037045356
 20
148.9316267933579
 30
0.0
 11
130.4755556015133
 21
148.9261576677729
 31
0.0
  0
LINE
  5
3D9
330
E3
100
AcDbEntity
  8
0
  6
Continuous
100
AcDbLine
 10
130.4755556015133
 20
148.9261576677729
 30
0.0
 11
130.4319798905454
 21
148.9206846879769
 31
0.0
  0
LINE
  5
3DA
330
E3
100
AcDbEntity
  8
0
  6
Continuous
100
AcDbLine
 10
130.4319798905454
 20
148.9206846879769
 30
0.0
 11
130.3884003253665
 21
148.9152117081808
 31
0.0
  0
LINE
  5
3DB
330
E3
100
AcDbEntity
  8
0
  6
Continuous
100
AcDbLine
 10
130.3884003253665
 20
148.9152117081808
 30
0.0
 11
130.3451560765553
 21
148.9097425825959
 31
0.0
  0
LINE
  5
3DC
330
E3
100
AcDbEntity
  8
0
  6
Continuous
100
AcDbLine
 10
130.3451560765553
 20
148.9097425825959
 30
0.0
 11
130.3025670436352
 21
148.9042696027998
 31
0.0
  0
LINE
  5
3DD
330
E3
100
AcDbEntity
  8
0
  6
Continuous
100
AcDbLine
 10
130.3025670436352
 20
148.9042696027998
 30
0.0
 11
130.260968542974
 21
148.8988004772149
 31
0.0
  0
LINE
  5
3DE
330
E3
100
AcDbEntity
  8
0
  6
Continuous
100
AcDbLine
 10
130.260968542974
 20
148.8988004772149
 30
0.0
 11
130.2206689114616
 21
148.8933274974188
 31
0.0
  0
LINE
  5
3DF
330
E3
100
AcDbEntity
  8
0
  6
Continuous
100
AcDbLine
 10
130.2206689114616
 20
148.8933274974188
 30
0.0
 11
130.181980340199
 21
148.8878583718339
 31
0.0
  0
LINE
  5
3E0
330
E3
100
AcDbEntity
  8
0
  6
Continuous
100
AcDbLine
 10
130.181980340199
 20
148.8878583718339
 30
0.0
 11
130.1451918950205
 21
148.8823853920378
 31
0.0
  0
LINE
  5
3E1
330
E3
100
AcDbEntity
  8
0
  6
Continuous
100
AcDbLine
 10
130.1451918950205
 20
148.8823853920378
 30
0.0
 11
130.1105849333382
 21
148.8769124122417
 31
0.0
  0
LINE
  5
3E2
330
E3
100
AcDbEntity
  8
0
  6
Continuous
100
AcDbLine
 10
130.1105849333382
 20
148.8769124122417
 30
0.0
 11
130.0784253957196
 21
148.8714432866568
 31
0.0
  0
LINE
  5
3E3
330
E3
100
AcDbEntity
  8
0
  6
Continuous
100
AcDbLine
 10
130.0784253957196
 20
148.8714432866568
 30
0.0
 11
130.0489560974656
 21
148.8659703068607
 31
0.0
  0
LINE
  5
3E4
330
E3
100
AcDbEntity
  8
0
  6
Continuous
100
AcDbLine
 10
130.0489560974656
 20
148.8659703068607
 30
0.0
 11
130.0224005828213
 21
148.8605011812758
 31
0.0
  0
LINE
  5
3E5
330
E3
100
AcDbEntity
  8
0
  6
Continuous
100
AcDbLine
 10
130.0224005828213
 20
148.8605011812758
 30
0.0
 11
129.9989669791875
 21
148.8550282014797
 31
0.0
  0
LINE
  5
3E6
330
E3
100
AcDbEntity
  8
0
  6
Continuous
100
AcDbLine
 10
129.9989669791875
 20
148.8550282014797
 30
0.0
 11
129.9788248718535
 21
148.8495552216836
 31
0.0
  0
LINE
  5
3E7
330
E3
100
AcDbEntity
  8
0
  6
Continuous
100
AcDbLine
 10
129.9788248718535
 20
148.8495552216836
 30
0.0
 11
129.9621322834755
 21
148.8440860960987
 31
0.0
  0
LINE
  5
3E8
330
E3
100
AcDbEntity
  8
0
  6
Continuous
100
AcDbLine
 10
129.9621322834755
 20
148.8440860960987
 30
0.0
 11
129.9490164030205
 21
148.8386131163026
 31
0.0
  0
LINE
  5
3E9
330
E3
100
AcDbEntity
  8
0
  6
Continuous
100
AcDbLine
 10
129.9490164030205
 20
148.8386131163026
 30
0.0
 11
129.9395735857667
 21
148.8331439907177
 31
0.0
  0
LINE
  5
3EA
330
E3
100
AcDbEntity
  8
0
  6
Continuous
100
AcDbLine
 10
129.9395735857667
 20
148.8331439907177
 30
0.0
 11
129.9338810716531
 21
148.8276714742793
 31
0.0
  0
LINE
  5
3EB
330
E3
100
AcDbEntity
  8
0
  6
Continuous
100
AcDbLine
 10
129.9338810716531
 20
148.8276714742793
 30
0.0
 11
129.931978420699
 21
148.8222000938079
 31
0.0
  0
LINE
  5
3EC
330
E3
100
AcDbEntity
  8
0
  6
Continuous
100
AcDbLine
 10
130.931978420699
 20
148.6252303968382
 30
0.0
 11
130.9300757697448
 21
148.6197590163668
 31
0.0
  0
LINE
  5
3ED
330
E3
100
AcDbEntity
  8
0
  6
Continuous
100
AcDbLine
 10
130.9300757697448
 20
148.6197590163668
 30
0.0
 11
130.9243822972051
 21
148.6142876358954
 31
0.0
  0
LINE
  5
3EE
330
E3
100
AcDbEntity
  8
0
  6
Continuous
100
AcDbLine
 10
130.9243822972051
 20
148.6142876358954
 30
0.0
 11
130.9149395238593
 21
148.6088173406681
 31
0.0
  0
LINE
  5
3EF
330
E3
100
AcDbEntity
  8
0
  6
Continuous
100
AcDbLine
 10
130.9149395238593
 20
148.6088173406681
 30
0.0
 11
130.9018236434043
 21
148.6033443608721
 31
0.0
  0
LINE
  5
3F0
330
E3
100
AcDbEntity
  8
0
  6
Continuous
100
AcDbLine
 10
130.9018236434043
 20
148.6033443608721
 30
0.0
 11
130.8851310550263
 21
148.5978752352871
 31
0.0
  0
LINE
  5
3F1
330
E3
100
AcDbEntity
  8
0
  6
Continuous
100
AcDbLine
 10
130.8851310550263
 20
148.5978752352871
 30
0.0
 11
130.8649928019035
 21
148.592402255491
 31
0.0
  0
LINE
  5
3F2
330
E3
100
AcDbEntity
  8
0
  6
Continuous
100
AcDbLine
 10
130.8649928019035
 20
148.592402255491
 30
0.0
 11
130.8415553440585
 21
148.586929275695
 31
0.0
  0
LINE
  5
3F3
330
E3
100
AcDbEntity
  8
0
  6
Continuous
100
AcDbLine
 10
130.8415553440585
 20
148.586929275695
 30
0.0
 11
130.8149998294142
 21
148.58146015011
 31
0.0
  0
LINE
  5
3F4
330
E3
100
AcDbEntity
  8
0
  6
Continuous
100
AcDbLine
 10
130.8149998294142
 20
148.58146015011
 30
0.0
 11
130.7855305311602
 21
148.575987170314
 31
0.0
  0
LINE
  5
3F5
330
E3
100
AcDbEntity
  8
0
  6
Continuous
100
AcDbLine
 10
130.7855305311602
 20
148.575987170314
 30
0.0
 11
130.7533709935416
 21
148.570518044729
 31
0.0
  0
LINE
  5
3F6
330
E3
100
AcDbEntity
  8
0
  6
Continuous
100
AcDbLine
 10
130.7533709935416
 20
148.570518044729
 30
0.0
 11
130.7187678860704
 21
148.5650450649329
 31
0.0
  0
LINE
  5
3F7
330
E3
100
AcDbEntity
  8
0
  6
Continuous
100
AcDbLine
 10
130.7187678860704
 20
148.5650450649329
 30
0.0
 11
130.681979440892
 21
148.5595720851369
 31
0.0
  0
LINE
  5
3F8
330
E3
100
AcDbEntity
  8
0
  6
Continuous
100
AcDbLine
 10
130.681979440892
 20
148.5595720851369
 30
0.0
 11
130.6432870154182
 21
148.554102959552
 31
0.0
  0
LINE
  5
3F9
330
E3
100
AcDbEntity
  8
0
  6
Continuous
100
AcDbLine
 10
130.6432870154182
 20
148.554102959552
 30
0.0
 11
130.6029873839058
 21
148.5486299797559
 31
0.0
  0
LINE
  5
3FA
330
E3
100
AcDbEntity
  8
0
  6
Continuous
100
AcDbLine
 10
130.6029873839058
 20
148.5486299797559
 30
0.0
 11
130.5613888832445
 21
148.543160854171
 31
0.0
  0
LINE
  5
3FB
330
E3
100
AcDbEntity
  8
0
  6
Continuous
100
AcDbLine
 10
130.5613888832445
 20
148.543160854171
 30
0.0
 11
130.5188037045356
 21
148.5376878743749
 31
0.0
  0
LINE
  5
3FC
330
E3
100
AcDbEntity
  8
0
  6
Continuous
100
AcDbLine
 10
130.5188037045356
 20
148.5376878743749
 30
0.0
 11
130.4755556015133
 21
148.5322187487899
 31
0.0
  0
LINE
  5
3FD
330
E3
100
AcDbEntity
  8
0
  6
Continuous
100
AcDbLine
 10
130.4755556015133
 20
148.5322187487899
 30
0.0
 11
130.4319798905454
 21
148.5267457689939
 31
0.0
  0
LINE
  5
3FE
330
E3
100
AcDbEntity
  8
0
  6
Continuous
100
AcDbLine
 10
130.4319798905454
 20
148.5267457689939
 30
0.0
 11
130.3884003253665
 21
148.5212727891978
 31
0.0
  0
LINE
  5
3FF
330
E3
100
AcDbEntity
  8
0
  6
Continuous
100
AcDbLine
 10
130.3884003253665
 20
148.5212727891978
 30
0.0
 11
130.3451560765553
 21
148.5158036636129
 31
0.0
  0
LINE
  5
400
330
E3
100
AcDbEntity
  8
0
  6
Continuous
100
AcDbLine
 10
130.3451560765553
 20
148.5158036636129
 30
0.0
 11
130.3025670436352
 21
148.5103306838168
 31
0.0
  0
LINE
  5
401
330
E3
100
AcDbEntity
  8
0
  6
Continuous
100
AcDbLine
 10
130.3025670436352
 20
148.5103306838168
 30
0.0
 11
130.260968542974
 21
148.5048615582319
 31
0.0
  0
LINE
  5
402
330
E3
100
AcDbEntity
  8
0
  6
Continuous
100
AcDbLine
 10
130.260968542974
 20
148.5048615582319
 30
0.0
 11
130.2206689114616
 21
148.4993885784358
 31
0.0
  0
LINE
  5
403
330
E3
100
AcDbEntity
  8
0
  6
Continuous
100
AcDbLine
 10
130.2206689114616
 20
148.4993885784358
 30
0.0
 11
130.181980340199
 21
148.4939155986397
 31
0.0
  0
LINE
  5
404
330
E3
100
AcDbEntity
  8
0
  6
Continuous
100
AcDbLine
 10
130.181980340199
 20
148.4939155986397
 30
0.0
 11
130.1451918950205
 21
148.4884464730548
 31
0.0
  0
LINE
  5
405
330
E3
100
AcDbEntity
  8
0
  6
Continuous
100
AcDbLine
 10
130.1451918950205
 20
148.4884464730548
 30
0.0
 11
130.1105849333382
 21
148.4829734932587
 31
0.0
  0
LINE
  5
406
330
E3
100
AcDbEntity
  8
0
  6
Continuous
100
AcDbLine
 10
130.1105849333382
 20
148.4829734932587
 30
0.0
 11
130.0784253957196
 21
148.4775043676738
 31
0.0
  0
LINE
  5
407
330
E3
100
AcDbEntity
  8
0
  6
Continuous
100
AcDbLine
 10
130.0784253957196
 20
148.4775043676738
 30
0.0
 11
130.0489560974656
 21
148.4720313878777
 31
0.0
  0
LINE
  5
408
330
E3
100
AcDbEntity
  8
0
  6
Continuous
100
AcDbLine
 10
130.0489560974656
 20
148.4720313878777
 30
0.0
 11
130.0224005828213
 21
148.4665622622928
 31
0.0
  0
LINE
  5
409
330
E3
100
AcDbEntity
  8
0
  6
Continuous
100
AcDbLine
 10
130.0224005828213
 20
148.4665622622928
 30
0.0
 11
129.9989669791875
 21
148.4610892824967
 31
0.0
  0
LINE
  5
40A
330
E3
100
AcDbEntity
  8
0
  6
Continuous
100
AcDbLine
 10
129.9989669791875
 20
148.4610892824967
 30
0.0
 11
129.9788248718535
 21
148.4556163027007
 31
0.0
  0
LINE
  5
40B
330
E3
100
AcDbEntity
  8
0
  6
Continuous
100
AcDbLine
 10
129.9788248718535
 20
148.4556163027007
 30
0.0
 11
129.9621322834755
 21
148.4501471771157
 31
0.0
  0
LINE
  5
40C
330
E3
100
AcDbEntity
  8
0
  6
Continuous
100
AcDbLine
 10
129.9621322834755
 20
148.4501471771157
 30
0.0
 11
129.9490164030205
 21
148.4446741973197
 31
0.0
  0
LINE
  5
40D
330
E3
100
AcDbEntity
  8
0
  6
Continuous
100
AcDbLine
 10
129.9490164030205
 20
148.4446741973197
 30
0.0
 11
129.9395735857667
 21
148.4392050717347
 31
0.0
  0
LINE
  5
40E
330
E3
100
AcDbEntity
  8
0
  6
Continuous
100
AcDbLine
 10
129.9395735857667
 20
148.4392050717347
 30
0.0
 11
129.9338810716531
 21
148.4337320803399
 31
0.0
  0
LINE
  5
40F
330
E3
100
AcDbEntity
  8
0
  6
Continuous
100
AcDbLine
 10
129.9338810716531
 20
148.4337320803399
 30
0.0
 11
129.931978420699
 21
148.4282606998685
 31
0.0
  0
LINE
  5
410
330
E3
100
AcDbEntity
  8
0
  6
Continuous
100
AcDbLine
 10
130.931978420699
 20
148.2312910028988
 30
0.0
 11
130.9300757697448
 21
148.2258196224274
 31
0.0
  0
LINE
  5
411
330
E3
100
AcDbEntity
  8
0
  6
Continuous
100
AcDbLine
 10
130.9300757697448
 20
148.2258196224274
 30
0.0
 11
130.9243822972051
 21
148.220348241956
 31
0.0
  0
LINE
  5
412
330
E3
100
AcDbEntity
  8
0
  6
Continuous
100
AcDbLine
 10
130.9243822972051
 20
148.220348241956
 30
0.0
 11
130.9149395238593
 21
148.2148784216851
 31
0.0
  0
LINE
  5
413
330
E3
100
AcDbEntity
  8
0
  6
Continuous
100
AcDbLine
 10
130.9149395238593
 20
148.2148784216851
 30
0.0
 11
130.9018236434043
 21
148.209405441889
 31
0.0
  0
LINE
  5
414
330
E3
100
AcDbEntity
  8
0
  6
Continuous
100
AcDbLine
 10
130.9018236434043
 20
148.209405441889
 30
0.0
 11
130.8851310550263
 21
148.203932462093
 31
0.0
  0
LINE
  5
415
330
E3
100
AcDbEntity
  8
0
  6
Continuous
100
AcDbLine
 10
130.8851310550263
 20
148.203932462093
 30
0.0
 11
130.8649928019035
 21
148.198463336508
 31
0.0
  0
LINE
  5
416
330
E3
100
AcDbEntity
  8
0
  6
Continuous
100
AcDbLine
 10
130.8649928019035
 20
148.198463336508
 30
0.0
 11
130.8415553440585
 21
148.192990356712
 31
0.0
  0
LINE
  5
417
330
E3
100
AcDbEntity
  8
0
  6
Continuous
100
AcDbLine
 10
130.8415553440585
 20
148.192990356712
 30
0.0
 11
130.8149998294142
 21
148.187521231127
 31
0.0
  0
LINE
  5
418
330
E3
100
AcDbEntity
  8
0
  6
Continuous
100
AcDbLine
 10
130.8149998294142
 20
148.187521231127
 30
0.0
 11
130.7855305311602
 21
148.182048251331
 31
0.0
  0
LINE
  5
419
330
E3
100
AcDbEntity
  8
0
  6
Continuous
100
AcDbLine
 10
130.7855305311602
 20
148.182048251331
 30
0.0
 11
130.7533709935416
 21
148.1765752715349
 31
0.0
  0
LINE
  5
41A
330
E3
100
AcDbEntity
  8
0
  6
Continuous
100
AcDbLine
 10
130.7533709935416
 20
148.1765752715349
 30
0.0
 11
130.7187678860704
 21
148.1711061459499
 31
0.0
  0
LINE
  5
41B
330
E3
100
AcDbEntity
  8
0
  6
Continuous
100
AcDbLine
 10
130.7187678860704
 20
148.1711061459499
 30
0.0
 11
130.681979440892
 21
148.1656331661539
 31
0.0
  0
LINE
  5
41C
330
E3
100
AcDbEntity
  8
0
  6
Continuous
100
AcDbLine
 10
130.681979440892
 20
148.1656331661539
 30
0.0
 11
130.6432870154182
 21
148.160164040569
 31
0.0
  0
LINE
  5
41D
330
E3
100
AcDbEntity
  8
0
  6
Continuous
100
AcDbLine
 10
130.6432870154182
 20
148.160164040569
 30
0.0
 11
130.6029873839058
 21
148.1546910607729
 31
0.0
  0
LINE
  5
41E
330
E3
100
AcDbEntity
  8
0
  6
Continuous
100
AcDbLine
 10
130.6029873839058
 20
148.1546910607729
 30
0.0
 11
130.5613888832445
 21
148.1492219351879
 31
0.0
  0
LINE
  5
41F
330
E3
100
AcDbEntity
  8
0
  6
Continuous
100
AcDbLine
 10
130.5613888832445
 20
148.1492219351879
 30
0.0
 11
130.5188037045356
 21
148.1437489553919
 31
0.0
  0
LINE
  5
420
330
E3
100
AcDbEntity
  8
0
  6
Continuous
100
AcDbLine
 10
130.5188037045356
 20
148.1437489553919
 30
0.0
 11
130.4755556015133
 21
148.1382759755958
 31
0.0
  0
LINE
  5
421
330
E3
100
AcDbEntity
  8
0
  6
Continuous
100
AcDbLine
 10
130.4755556015133
 20
148.1382759755958
 30
0.0
 11
130.4319798905454
 21
148.1328068500109
 31
0.0
  0
LINE
  5
422
330
E3
100
AcDbEntity
  8
0
  6
Continuous
100
AcDbLine
 10
130.4319798905454
 20
148.1328068500109
 30
0.0
 11
130.3884003253665
 21
148.1273338702148
 31
0.0
  0
LINE
  5
423
330
E3
100
AcDbEntity
  8
0
  6
Continuous
100
AcDbLine
 10
130.3884003253665
 20
148.1273338702148
 30
0.0
 11
130.3451560765553
 21
148.1218647446298
 31
0.0
  0
LINE
  5
424
330
E3
100
AcDbEntity
  8
0
  6
Continuous
100
AcDbLine
 10
130.3451560765553
 20
148.1218647446298
 30
0.0
 11
130.3025670436352
 21
148.1163917648338
 31
0.0
  0
LINE
  5
425
330
E3
100
AcDbEntity
  8
0
  6
Continuous
100
AcDbLine
 10
130.3025670436352
 20
148.1163917648338
 30
0.0
 11
130.260968542974
 21
148.1109187850377
 31
0.0
  0
LINE
  5
426
330
E3
100
AcDbEntity
  8
0
  6
Continuous
100
AcDbLine
 10
130.260968542974
 20
148.1109187850377
 30
0.0
 11
130.2206689114616
 21
148.1054496594528
 31
0.0
  0
LINE
  5
427
330
E3
100
AcDbEntity
  8
0
  6
Continuous
100
AcDbLine
 10
130.2206689114616
 20
148.1054496594528
 30
0.0
 11
130.181980340199
 21
148.0999766796567
 31
0.0
  0
LINE
  5
428
330
E3
100
AcDbEntity
  8
0
  6
Continuous
100
AcDbLine
 10
130.181980340199
 20
148.0999766796567
 30
0.0
 11
130.1451918950205
 21
148.0945075540718
 31
0.0
  0
LINE
  5
429
330
E3
100
AcDbEntity
  8
0
  6
Continuous
100
AcDbLine
 10
130.1451918950205
 20
148.0945075540718
 30
0.0
 11
130.1105849333382
 21
148.0890345742757
 31
0.0
  0
LINE
  5
42A
330
E3
100
AcDbEntity
  8
0
  6
Continuous
100
AcDbLine
 10
130.1105849333382
 20
148.0890345742757
 30
0.0
 11
130.0784253957196
 21
148.0835654486908
 31
0.0
  0
LINE
  5
42B
330
E3
100
AcDbEntity
  8
0
  6
Continuous
100
AcDbLine
 10
130.0784253957196
 20
148.0835654486908
 30
0.0
 11
130.0489560974656
 21
148.0780924688947
 31
0.0
  0
LINE
  5
42C
330
E3
100
AcDbEntity
  8
0
  6
Continuous
100
AcDbLine
 10
130.0489560974656
 20
148.0780924688947
 30
0.0
 11
130.0224005828213
 21
148.0726194890986
 31
0.0
  0
LINE
  5
42D
330
E3
100
AcDbEntity
  8
0
  6
Continuous
100
AcDbLine
 10
130.0224005828213
 20
148.0726194890986
 30
0.0
 11
129.9989669791875
 21
148.0671503635137
 31
0.0
  0
LINE
  5
42E
330
E3
100
AcDbEntity
  8
0
  6
Continuous
100
AcDbLine
 10
129.9989669791875
 20
148.0671503635137
 30
0.0
 11
129.9788248718535
 21
148.0616773837176
 31
0.0
  0
LINE
  5
42F
330
E3
100
AcDbEntity
  8
0
  6
Continuous
100
AcDbLine
 10
129.9788248718535
 20
148.0616773837176
 30
0.0
 11
129.9621322834755
 21
148.0562082581327
 31
0.0
  0
LINE
  5
430
330
E3
100
AcDbEntity
  8
0
  6
Continuous
100
AcDbLine
 10
129.9621322834755
 20
148.0562082581327
 30
0.0
 11
129.9490164030205
 21
148.0507352783366
 31
0.0
  0
LINE
  5
431
330
E3
100
AcDbEntity
  8
0
  6
Continuous
100
AcDbLine
 10
129.9490164030205
 20
148.0507352783366
 30
0.0
 11
129.9395735857667
 21
148.0452622985405
 31
0.0
  0
LINE
  5
432
330
E3
100
AcDbEntity
  8
0
  6
Continuous
100
AcDbLine
 10
129.9395735857667
 20
148.0452622985405
 30
0.0
 11
129.9338810716531
 21
148.0397926864005
 31
0.0
  0
LINE
  5
433
330
E3
100
AcDbEntity
  8
0
  6
Continuous
100
AcDbLine
 10
129.9338810716531
 20
148.0397926864005
 30
0.0
 11
129.9319784206989
 21
148.0343213059291
 31
0.0
  0
LINE
  5
434
330
E3
100
AcDbEntity
  8
0
  6
Continuous
100
AcDbLine
 10
130.9319784206989
 20
147.8373516089594
 30
0.0
 11
130.9300757697448
 21
147.831880228488
 31
0.0
  0
LINE
  5
435
330
E3
100
AcDbEntity
  8
0
  6
Continuous
100
AcDbLine
 10
130.9300757697448
 20
147.831880228488
 30
0.0
 11
130.9243822972051
 21
147.8264088480167
 31
0.0
  0
LINE
  5
436
330
E3
100
AcDbEntity
  8
0
  6
Continuous
100
AcDbLine
 10
130.9243822972051
 20
147.8264088480167
 30
0.0
 11
130.9149395238593
 21
147.820935648491
 31
0.0
  0
LINE
  5
437
330
E3
100
AcDbEntity
  8
0
  6
Continuous
100
AcDbLine
 10
130.9149395238593
 20
147.820935648491
 30
0.0
 11
130.9018236434043
 21
147.815466522906
 31
0.0
  0
LINE
  5
438
330
E3
100
AcDbEntity
  8
0
  6
Continuous
100
AcDbLine
 10
130.9018236434043
 20
147.815466522906
 30
0.0
 11
130.8851310550263
 21
147.80999354311
 31
0.0
  0
LINE
  5
439
330
E3
100
AcDbEntity
  8
0
  6
Continuous
100
AcDbLine
 10
130.8851310550263
 20
147.80999354311
 30
0.0
 11
130.8649928019035
 21
147.804524417525
 31
0.0
  0
LINE
  5
43A
330
E3
100
AcDbEntity
  8
0
  6
Continuous
100
AcDbLine
 10
130.8649928019035
 20
147.804524417525
 30
0.0
 11
130.8415553440585
 21
147.799051437729
 31
0.0
  0
LINE
  5
43B
330
E3
100
AcDbEntity
  8
0
  6
Continuous
100
AcDbLine
 10
130.8415553440585
 20
147.799051437729
 30
0.0
 11
130.8149998294142
 21
147.793582312144
 31
0.0
  0
LINE
  5
43C
330
E3
100
AcDbEntity
  8
0
  6
Continuous
100
AcDbLine
 10
130.8149998294142
 20
147.793582312144
 30
0.0
 11
130.7855305311602
 21
147.7881093323479
 31
0.0
  0
LINE
  5
43D
330
E3
100
AcDbEntity
  8
0
  6
Continuous
100
AcDbLine
 10
130.7855305311602
 20
147.7881093323479
 30
0.0
 11
130.7533709935416
 21
147.7826363525519
 31
0.0
  0
LINE
  5
43E
330
E3
100
AcDbEntity
  8
0
  6
Continuous
100
AcDbLine
 10
130.7533709935416
 20
147.7826363525519
 30
0.0
 11
130.7187678860704
 21
147.7771672269669
 31
0.0
  0
LINE
  5
43F
330
E3
100
AcDbEntity
  8
0
  6
Continuous
100
AcDbLine
 10
130.7187678860704
 20
147.7771672269669
 30
0.0
 11
130.681979440892
 21
147.7716942471709
 31
0.0
  0
LINE
  5
440
330
E3
100
AcDbEntity
  8
0
  6
Continuous
100
AcDbLine
 10
130.681979440892
 20
147.7716942471709
 30
0.0
 11
130.6432870154182
 21
147.7662251215859
 31
0.0
  0
LINE
  5
441
330
E3
100
AcDbEntity
  8
0
  6
Continuous
100
AcDbLine
 10
130.6432870154182
 20
147.7662251215859
 30
0.0
 11
130.6029873839058
 21
147.7607521417899
 31
0.0
  0
LINE
  5
442
330
E3
100
AcDbEntity
  8
0
  6
Continuous
100
AcDbLine
 10
130.6029873839058
 20
147.7607521417899
 30
0.0
 11
130.5613888832445
 21
147.7552791619938
 31
0.0
  0
LINE
  5
443
330
E3
100
AcDbEntity
  8
0
  6
Continuous
100
AcDbLine
 10
130.5613888832445
 20
147.7552791619938
 30
0.0
 11
130.5188037045356
 21
147.7498100364089
 31
0.0
  0
LINE
  5
444
330
E3
100
AcDbEntity
  8
0
  6
Continuous
100
AcDbLine
 10
130.5188037045356
 20
147.7498100364089
 30
0.0
 11
130.4755556015133
 21
147.7443370566128
 31
0.0
  0
LINE
  5
445
330
E3
100
AcDbEntity
  8
0
  6
Continuous
100
AcDbLine
 10
130.4755556015133
 20
147.7443370566128
 30
0.0
 11
130.4319798905454
 21
147.7388679310279
 31
0.0
  0
LINE
  5
446
330
E3
100
AcDbEntity
  8
0
  6
Continuous
100
AcDbLine
 10
130.4319798905454
 20
147.7388679310279
 30
0.0
 11
130.3884003253665
 21
147.7333949512318
 31
0.0
  0
LINE
  5
447
330
E3
100
AcDbEntity
  8
0
  6
Continuous
100
AcDbLine
 10
130.3884003253665
 20
147.7333949512318
 30
0.0
 11
130.3451560765553
 21
147.7279258256469
 31
0.0
  0
LINE
  5
448
330
E3
100
AcDbEntity
  8
0
  6
Continuous
100
AcDbLine
 10
130.3451560765553
 20
147.7279258256469
 30
0.0
 11
130.3025670436352
 21
147.7224528458508
 31
0.0
  0
LINE
  5
449
330
E3
100
AcDbEntity
  8
0
  6
Continuous
100
AcDbLine
 10
130.3025670436352
 20
147.7224528458508
 30
0.0
 11
130.260968542974
 21
147.7169798660547
 31
0.0
  0
LINE
  5
44A
330
E3
100
AcDbEntity
  8
0
  6
Continuous
100
AcDbLine
 10
130.260968542974
 20
147.7169798660547
 30
0.0
 11
130.2206689114616
 21
147.7115107404698
 31
0.0
  0
LINE
  5
44B
330
E3
100
AcDbEntity
  8
0
  6
Continuous
100
AcDbLine
 10
130.2206689114616
 20
147.7115107404698
 30
0.0
 11
130.181980340199
 21
147.7060377606737
 31
0.0
  0
LINE
  5
44C
330
E3
100
AcDbEntity
  8
0
  6
Continuous
100
AcDbLine
 10
130.181980340199
 20
147.7060377606737
 30
0.0
 11
130.1451918950205
 21
147.7005686350888
 31
0.0
  0
LINE
  5
44D
330
E3
100
AcDbEntity
  8
0
  6
Continuous
100
AcDbLine
 10
130.1451918950205
 20
147.7005686350888
 30
0.0
 11
130.1105849333382
 21
147.6950956552927
 31
0.0
  0
LINE
  5
44E
330
E3
100
AcDbEntity
  8
0
  6
Continuous
100
AcDbLine
 10
130.1105849333382
 20
147.6950956552927
 30
0.0
 11
130.0784253957196
 21
147.6896226754966
 31
0.0
  0
LINE
  5
44F
330
E3
100
AcDbEntity
  8
0
  6
Continuous
100
AcDbLine
 10
130.0784253957196
 20
147.6896226754966
 30
0.0
 11
130.0489560974656
 21
147.6841535499117
 31
0.0
  0
LINE
  5
450
330
E3
100
AcDbEntity
  8
0
  6
Continuous
100
AcDbLine
 10
130.0489560974656
 20
147.6841535499117
 30
0.0
 11
130.0224005828213
 21
147.6786805701156
 31
0.0
  0
LINE
  5
451
330
E3
100
AcDbEntity
  8
0
  6
Continuous
100
AcDbLine
 10
130.0224005828213
 20
147.6786805701156
 30
0.0
 11
129.9989669791875
 21
147.6732114445307
 31
0.0
  0
LINE
  5
452
330
E3
100
AcDbEntity
  8
0
  6
Continuous
100
AcDbLine
 10
129.9989669791875
 20
147.6732114445307
 30
0.0
 11
129.9788248718535
 21
147.6677384647346
 31
0.0
  0
LINE
  5
453
330
E3
100
AcDbEntity
  8
0
  6
Continuous
100
AcDbLine
 10
129.9788248718535
 20
147.6677384647346
 30
0.0
 11
129.9621322834755
 21
147.6622693391497
 31
0.0
  0
LINE
  5
454
330
E3
100
AcDbEntity
  8
0
  6
Continuous
100
AcDbLine
 10
129.9621322834755
 20
147.6622693391497
 30
0.0
 11
129.9490164030205
 21
147.6567963593536
 31
0.0
  0
LINE
  5
455
330
E3
100
AcDbEntity
  8
0
  6
Continuous
100
AcDbLine
 10
129.9490164030205
 20
147.6567963593536
 30
0.0
 11
129.9395735857667
 21
147.6513233795575
 31
0.0
  0
LINE
  5
456
330
E3
100
AcDbEntity
  8
0
  6
Continuous
100
AcDbLine
 10
129.9395735857667
 20
147.6513233795575
 30
0.0
 11
129.9338810716531
 21
147.6458532924611
 31
0.0
  0
LINE
  5
457
330
E3
100
AcDbEntity
  8
0
  6
Continuous
100
AcDbLine
 10
129.9338810716531
 20
147.6458532924611
 30
0.0
 11
129.9319784206989
 21
147.6403819119897
 31
0.0
  0
LINE
  5
458
330
E3
100
AcDbEntity
  8
0
  6
Continuous
100
AcDbLine
 10
130.9319784206989
 20
147.44341221502
 30
0.0
 11
130.9300757697448
 21
147.4379408345486
 31
0.0
  0
LINE
  5
459
330
E3
100
AcDbEntity
  8
0
  6
Continuous
100
AcDbLine
 10
130.9300757697448
 20
147.4379408345486
 30
0.0
 11
130.9243822972051
 21
147.4324694540772
 31
0.0
  0
LINE
  5
45A
330
E3
100
AcDbEntity
  8
0
  6
Continuous
100
AcDbLine
 10
130.9243822972051
 20
147.4324694540772
 30
0.0
 11
130.9149395238593
 21
147.4269967295079
 31
0.0
  0
LINE
  5
45B
330
E3
100
AcDbEntity
  8
0
  6
Continuous
100
AcDbLine
 10
130.9149395238593
 20
147.4269967295079
 30
0.0
 11
130.9018236434043
 21
147.421527603923
 31
0.0
  0
LINE
  5
45C
330
E3
100
AcDbEntity
  8
0
  6
Continuous
100
AcDbLine
 10
130.9018236434043
 20
147.421527603923
 30
0.0
 11
130.8851310550263
 21
147.416054624127
 31
0.0
  0
LINE
  5
45D
330
E3
100
AcDbEntity
  8
0
  6
Continuous
100
AcDbLine
 10
130.8851310550263
 20
147.416054624127
 30
0.0
 11
130.8649928019035
 21
147.410585498542
 31
0.0
  0
LINE
  5
45E
330
E3
100
AcDbEntity
  8
0
  6
Continuous
100
AcDbLine
 10
130.8649928019035
 20
147.410585498542
 30
0.0
 11
130.8415553440585
 21
147.4051125187459
 31
0.0
  0
LINE
  5
45F
330
E3
100
AcDbEntity
  8
0
  6
Continuous
100
AcDbLine
 10
130.8415553440585
 20
147.4051125187459
 30
0.0
 11
130.8149998294142
 21
147.3996395389499
 31
0.0
  0
LINE
  5
460
330
E3
100
AcDbEntity
  8
0
  6
Continuous
100
AcDbLine
 10
130.8149998294142
 20
147.3996395389499
 30
0.0
 11
130.7855305311602
 21
147.3941704133649
 31
0.0
  0
LINE
  5
461
330
E3
100
AcDbEntity
  8
0
  6
Continuous
100
AcDbLine
 10
130.7855305311602
 20
147.3941704133649
 30
0.0
 11
130.7533709935416
 21
147.3886974335689
 31
0.0
  0
LINE
  5
462
330
E3
100
AcDbEntity
  8
0
  6
Continuous
100
AcDbLine
 10
130.7533709935416
 20
147.3886974335689
 30
0.0
 11
130.7187678860704
 21
147.383228307984
 31
0.0
  0
LINE
  5
463
330
E3
100
AcDbEntity
  8
0
  6
Continuous
100
AcDbLine
 10
130.7187678860704
 20
147.383228307984
 30
0.0
 11
130.681979440892
 21
147.3777553281879
 31
0.0
  0
LINE
  5
464
330
E3
100
AcDbEntity
  8
0
  6
Continuous
100
AcDbLine
 10
130.681979440892
 20
147.3777553281879
 30
0.0
 11
130.6432870154182
 21
147.3722823483918
 31
0.0
  0
LINE
  5
465
330
E3
100
AcDbEntity
  8
0
  6
Continuous
100
AcDbLine
 10
130.6432870154182
 20
147.3722823483918
 30
0.0
 11
130.6029873839058
 21
147.3668132228069
 31
0.0
  0
LINE
  5
466
330
E3
100
AcDbEntity
  8
0
  6
Continuous
100
AcDbLine
 10
130.6029873839058
 20
147.3668132228069
 30
0.0
 11
130.5613888832445
 21
147.3613402430108
 31
0.0
  0
LINE
  5
467
330
E3
100
AcDbEntity
  8
0
  6
Continuous
100
AcDbLine
 10
130.5613888832445
 20
147.3613402430108
 30
0.0
 11
130.5188037045356
 21
147.3558711174259
 31
0.0
  0
LINE
  5
468
330
E3
100
AcDbEntity
  8
0
  6
Continuous
100
AcDbLine
 10
130.5188037045356
 20
147.3558711174259
 30
0.0
 11
130.4755556015133
 21
147.3503981376298
 31
0.0
  0
LINE
  5
469
330
E3
100
AcDbEntity
  8
0
  6
Continuous
100
AcDbLine
 10
130.4755556015133
 20
147.3503981376298
 30
0.0
 11
130.4319798905454
 21
147.3449290120448
 31
0.0
  0
LINE
  5
46A
330
E3
100
AcDbEntity
  8
0
  6
Continuous
100
AcDbLine
 10
130.4319798905454
 20
147.3449290120448
 30
0.0
 11
130.3884003253665
 21
147.3394560322488
 31
0.0
  0
LINE
  5
46B
330
E3
100
AcDbEntity
  8
0
  6
Continuous
100
AcDbLine
 10
130.3884003253665
 20
147.3394560322488
 30
0.0
 11
130.3451560765553
 21
147.3339830524527
 31
0.0
  0
LINE
  5
46C
330
E3
100
AcDbEntity
  8
0
  6
Continuous
100
AcDbLine
 10
130.3451560765553
 20
147.3339830524527
 30
0.0
 11
130.3025670436352
 21
147.3285139268678
 31
0.0
  0
LINE
  5
46D
330
E3
100
AcDbEntity
  8
0
  6
Continuous
100
AcDbLine
 10
130.3025670436352
 20
147.3285139268678
 30
0.0
 11
130.260968542974
 21
147.3230409470717
 31
0.0
  0
LINE
  5
46E
330
E3
100
AcDbEntity
  8
0
  6
Continuous
100
AcDbLine
 10
130.260968542974
 20
147.3230409470717
 30
0.0
 11
130.2206689114616
 21
147.3175718214868
 31
0.0
  0
LINE
  5
46F
330
E3
100
AcDbEntity
  8
0
  6
Continuous
100
AcDbLine
 10
130.2206689114616
 20
147.3175718214868
 30
0.0
 11
130.181980340199
 21
147.3120988416907
 31
0.0
  0
LINE
  5
470
330
E3
100
AcDbEntity
  8
0
  6
Continuous
100
AcDbLine
 10
130.181980340199
 20
147.3120988416907
 30
0.0
 11
130.1451918950205
 21
147.3066258618946
 31
0.0
  0
LINE
  5
471
330
E3
100
AcDbEntity
  8
0
  6
Continuous
100
AcDbLine
 10
130.1451918950205
 20
147.3066258618946
 30
0.0
 11
130.1105849333382
 21
147.3011567363097
 31
0.0
  0
LINE
  5
472
330
E3
100
AcDbEntity
  8
0
  6
Continuous
100
AcDbLine
 10
130.1105849333382
 20
147.3011567363097
 30
0.0
 11
130.0784253957196
 21
147.2956837565137
 31
0.0
  0
LINE
  5
473
330
E3
100
AcDbEntity
  8
0
  6
Continuous
100
AcDbLine
 10
130.0784253957196
 20
147.2956837565137
 30
0.0
 11
130.0489560974656
 21
147.2902146309287
 31
0.0
  0
LINE
  5
474
330
E3
100
AcDbEntity
  8
0
  6
Continuous
100
AcDbLine
 10
130.0489560974656
 20
147.2902146309287
 30
0.0
 11
130.0224005828213
 21
147.2847416511326
 31
0.0
  0
LINE
  5
475
330
E3
100
AcDbEntity
  8
0
  6
Continuous
100
AcDbLine
 10
130.0224005828213
 20
147.2847416511326
 30
0.0
 11
129.9989669791875
 21
147.2792725255477
 31
0.0
  0
LINE
  5
476
330
E3
100
AcDbEntity
  8
0
  6
Continuous
100
AcDbLine
 10
129.9989669791875
 20
147.2792725255477
 30
0.0
 11
129.9788248718535
 21
147.2737995457516
 31
0.0
  0
LINE
  5
477
330
E3
100
AcDbEntity
  8
0
  6
Continuous
100
AcDbLine
 10
129.9788248718535
 20
147.2737995457516
 30
0.0
 11
129.9621322834755
 21
147.2683265659556
 31
0.0
  0
LINE
  5
478
330
E3
100
AcDbEntity
  8
0
  6
Continuous
100
AcDbLine
 10
129.9621322834755
 20
147.2683265659556
 30
0.0
 11
129.9490164030205
 21
147.2628574403706
 31
0.0
  0
LINE
  5
479
330
E3
100
AcDbEntity
  8
0
  6
Continuous
100
AcDbLine
 10
129.9490164030205
 20
147.2628574403706
 30
0.0
 11
129.9395735857667
 21
147.2573844605745
 31
0.0
  0
LINE
  5
47A
330
E3
100
AcDbEntity
  8
0
  6
Continuous
100
AcDbLine
 10
129.9395735857667
 20
147.2573844605745
 30
0.0
 11
129.933881071653
 21
147.2519138985217
 31
0.0
  0
LINE
  5
47B
330
E3
100
AcDbEntity
  8
0
  6
Continuous
100
AcDbLine
 10
129.933881071653
 20
147.2519138985217
 30
0.0
 11
129.9319784206989
 21
147.2464425180503
 31
0.0
  0
LINE
  5
47C
330
E3
100
AcDbEntity
  8
0
  6
Continuous
100
AcDbLine
 10
130.9319784206989
 20
147.0494728210806
 30
0.0
 11
130.9300757697448
 21
147.0440014406093
 31
0.0
  0
LINE
  5
47D
330
E3
100
AcDbEntity
  8
0
  6
Continuous
100
AcDbLine
 10
130.9300757697448
 20
147.0440014406093
 30
0.0
 11
130.9243822972051
 21
147.0385300601378
 31
0.0
  0
LINE
  5
47E
330
E3
100
AcDbEntity
  8
0
  6
Continuous
100
AcDbLine
 10
130.9243822972051
 20
147.0385300601378
 30
0.0
 11
130.9149395238593
 21
147.033057810525
 31
0.0
  0
LINE
  5
47F
330
E3
100
AcDbEntity
  8
0
  6
Continuous
100
AcDbLine
 10
130.9149395238593
 20
147.033057810525
 30
0.0
 11
130.9018236434043
 21
147.02758868494
 31
0.0
  0
LINE
  5
480
330
E3
100
AcDbEntity
  8
0
  6
Continuous
100
AcDbLine
 10
130.9018236434043
 20
147.02758868494
 30
0.0
 11
130.8851310550263
 21
147.022115705144
 31
0.0
  0
LINE
  5
481
330
E3
100
AcDbEntity
  8
0
  6
Continuous
100
AcDbLine
 10
130.8851310550263
 20
147.022115705144
 30
0.0
 11
130.8649928019035
 21
147.0166427253479
 31
0.0
  0
LINE
  5
482
330
E3
100
AcDbEntity
  8
0
  6
Continuous
100
AcDbLine
 10
130.8649928019035
 20
147.0166427253479
 30
0.0
 11
130.8415553440585
 21
147.011173599763
 31
0.0
  0
LINE
  5
483
330
E3
100
AcDbEntity
  8
0
  6
Continuous
100
AcDbLine
 10
130.8415553440585
 20
147.011173599763
 30
0.0
 11
130.8149998294142
 21
147.0057006199669
 31
0.0
  0
LINE
  5
484
330
E3
100
AcDbEntity
  8
0
  6
Continuous
100
AcDbLine
 10
130.8149998294142
 20
147.0057006199669
 30
0.0
 11
130.7855305311602
 21
147.0002314943819
 31
0.0
  0
LINE
  5
485
330
E3
100
AcDbEntity
  8
0
  6
Continuous
100
AcDbLine
 10
130.7855305311602
 20
147.0002314943819
 30
0.0
 11
130.7533709935416
 21
146.9947585145859
 31
0.0
  0
LINE
  5
486
330
E3
100
AcDbEntity
  8
0
  6
Continuous
100
AcDbLine
 10
130.7533709935416
 20
146.9947585145859
 30
0.0
 11
130.7187678860704
 21
146.9892893890009
 31
0.0
  0
LINE
  5
487
330
E3
100
AcDbEntity
  8
0
  6
Continuous
100
AcDbLine
 10
130.7187678860704
 20
146.9892893890009
 30
0.0
 11
130.681979440892
 21
146.9838164092048
 31
0.0
  0
LINE
  5
488
330
E3
100
AcDbEntity
  8
0
  6
Continuous
100
AcDbLine
 10
130.681979440892
 20
146.9838164092048
 30
0.0
 11
130.6432870154182
 21
146.9783434294088
 31
0.0
  0
LINE
  5
489
330
E3
100
AcDbEntity
  8
0
  6
Continuous
100
AcDbLine
 10
130.6432870154182
 20
146.9783434294088
 30
0.0
 11
130.6029873839058
 21
146.9728743038238
 31
0.0
  0
LINE
  5
48A
330
E3
100
AcDbEntity
  8
0
  6
Continuous
100
AcDbLine
 10
130.6029873839058
 20
146.9728743038238
 30
0.0
 11
130.5613888832445
 21
146.9674013240278
 31
0.0
  0
LINE
  5
48B
330
E3
100
AcDbEntity
  8
0
  6
Continuous
100
AcDbLine
 10
130.5613888832445
 20
146.9674013240278
 30
0.0
 11
130.5188037045356
 21
146.9619321984428
 31
0.0
  0
LINE
  5
48C
330
E3
100
AcDbEntity
  8
0
  6
Continuous
100
AcDbLine
 10
130.5188037045356
 20
146.9619321984428
 30
0.0
 11
130.4755556015133
 21
146.9564592186468
 31
0.0
  0
LINE
  5
48D
330
E3
100
AcDbEntity
  8
0
  6
Continuous
100
AcDbLine
 10
130.4755556015133
 20
146.9564592186468
 30
0.0
 11
130.4319798905454
 21
146.9509862388507
 31
0.0
  0
LINE
  5
48E
330
E3
100
AcDbEntity
  8
0
  6
Continuous
100
AcDbLine
 10
130.4319798905454
 20
146.9509862388507
 30
0.0
 11
130.3884003253665
 21
146.9455171132658
 31
0.0
  0
LINE
  5
48F
330
E3
100
AcDbEntity
  8
0
  6
Continuous
100
AcDbLine
 10
130.3884003253665
 20
146.9455171132658
 30
0.0
 11
130.3451560765553
 21
146.9400441334697
 31
0.0
  0
LINE
  5
490
330
E3
100
AcDbEntity
  8
0
  6
Continuous
100
AcDbLine
 10
130.3451560765553
 20
146.9400441334697
 30
0.0
 11
130.3025670436352
 21
146.9345750078847
 31
0.0
  0
LINE
  5
491
330
E3
100
AcDbEntity
  8
0
  6
Continuous
100
AcDbLine
 10
130.3025670436352
 20
146.9345750078847
 30
0.0
 11
130.260968542974
 21
146.9291020280887
 31
0.0
  0
LINE
  5
492
330
E3
100
AcDbEntity
  8
0
  6
Continuous
100
AcDbLine
 10
130.260968542974
 20
146.9291020280887
 30
0.0
 11
130.2206689114616
 21
146.9236329025038
 31
0.0
  0
LINE
  5
493
330
E3
100
AcDbEntity
  8
0
  6
Continuous
100
AcDbLine
 10
130.2206689114616
 20
146.9236329025038
 30
0.0
 11
130.181980340199
 21
146.9181599227077
 31
0.0
  0
LINE
  5
494
330
E3
100
AcDbEntity
  8
0
  6
Continuous
100
AcDbLine
 10
130.181980340199
 20
146.9181599227077
 30
0.0
 11
130.1451918950205
 21
146.9126869429116
 31
0.0
  0
LINE
  5
495
330
E3
100
AcDbEntity
  8
0
  6
Continuous
100
AcDbLine
 10
130.1451918950205
 20
146.9126869429116
 30
0.0
 11
130.1105849333382
 21
146.9072178173267
 31
0.0
  0
LINE
  5
496
330
E3
100
AcDbEntity
  8
0
  6
Continuous
100
AcDbLine
 10
130.1105849333382
 20
146.9072178173267
 30
0.0
 11
130.0784253957196
 21
146.9017448375306
 31
0.0
  0
LINE
  5
497
330
E3
100
AcDbEntity
  8
0
  6
Continuous
100
AcDbLine
 10
130.0784253957196
 20
146.9017448375306
 30
0.0
 11
130.0489560974656
 21
146.8962757119457
 31
0.0
  0
LINE
  5
498
330
E3
100
AcDbEntity
  8
0
  6
Continuous
100
AcDbLine
 10
130.0489560974656
 20
146.8962757119457
 30
0.0
 11
130.0224005828213
 21
146.8908027321496
 31
0.0
  0
LINE
  5
499
330
E3
100
AcDbEntity
  8
0
  6
Continuous
100
AcDbLine
 10
130.0224005828213
 20
146.8908027321496
 30
0.0
 11
129.9989669791875
 21
146.8853297523536
 31
0.0
  0
LINE
  5
49A
330
E3
100
AcDbEntity
  8
0
  6
Continuous
100
AcDbLine
 10
129.9989669791875
 20
146.8853297523536
 30
0.0
 11
129.9788248718535
 21
146.8798606267686
 31
0.0
  0
LINE
  5
49B
330
E3
100
AcDbEntity
  8
0
  6
Continuous
100
AcDbLine
 10
129.9788248718535
 20
146.8798606267686
 30
0.0
 11
129.9621322834755
 21
146.8743876469725
 31
0.0
  0
LINE
  5
49C
330
E3
100
AcDbEntity
  8
0
  6
Continuous
100
AcDbLine
 10
129.9621322834755
 20
146.8743876469725
 30
0.0
 11
129.9490164030205
 21
146.8689185213876
 31
0.0
  0
LINE
  5
49D
330
E3
100
AcDbEntity
  8
0
  6
Continuous
100
AcDbLine
 10
129.9490164030205
 20
146.8689185213876
 30
0.0
 11
129.9395735857667
 21
146.8634455415915
 31
0.0
  0
LINE
  5
49E
330
E3
100
AcDbEntity
  8
0
  6
Continuous
100
AcDbLine
 10
129.9395735857667
 20
146.8634455415915
 30
0.0
 11
129.933881071653
 21
146.8579745045823
 31
0.0
  0
LINE
  5
49F
330
E3
100
AcDbEntity
  8
0
  6
Continuous
100
AcDbLine
 10
129.933881071653
 20
146.8579745045823
 30
0.0
 11
129.9319784206989
 21
146.8525031241109
 31
0.0
  0
LINE
  5
4A0
330
E3
100
AcDbEntity
  8
0
  6
Continuous
100
AcDbLine
 10
130.9319784206989
 20
146.6555334271412
 30
0.0
 11
130.9300757697448
 21
146.6500620466699
 31
0.0
  0
LINE
  5
4A1
330
E3
100
AcDbEntity
  8
0
  6
Continuous
100
AcDbLine
 10
130.9300757697448
 20
146.6500620466699
 30
0.0
 11
130.9243822972051
 21
146.6445906661984
 31
0.0
  0
LINE
  5
4A2
330
E3
100
AcDbEntity
  8
0
  6
Continuous
100
AcDbLine
 10
130.9243822972051
 20
146.6445906661984
 30
0.0
 11
130.9149395238593
 21
146.6391188915419
 31
0.0
  0
LINE
  5
4A3
330
E3
100
AcDbEntity
  8
0
  6
Continuous
100
AcDbLine
 10
130.9149395238593
 20
146.6391188915419
 30
0.0
 11
130.9018236434043
 21
146.633649765957
 31
0.0
  0
LINE
  5
4A4
330
E3
100
AcDbEntity
  8
0
  6
Continuous
100
AcDbLine
 10
130.9018236434043
 20
146.633649765957
 30
0.0
 11
130.8851310550263
 21
146.6281767861609
 31
0.0
  0
LINE
  5
4A5
330
E3
100
AcDbEntity
  8
0
  6
Continuous
100
AcDbLine
 10
130.8851310550263
 20
146.6281767861609
 30
0.0
 11
130.8649928019035
 21
146.6227038063649
 31
0.0
  0
LINE
  5
4A6
330
E3
100
AcDbEntity
  8
0
  6
Continuous
100
AcDbLine
 10
130.8649928019035
 20
146.6227038063649
 30
0.0
 11
130.8415553440585
 21
146.6172346807799
 31
0.0
  0
LINE
  5
4A7
330
E3
100
AcDbEntity
  8
0
  6
Continuous
100
AcDbLine
 10
130.8415553440585
 20
146.6172346807799
 30
0.0
 11
130.8149998294142
 21
146.6117617009839
 31
0.0
  0
LINE
  5
4A8
330
E3
100
AcDbEntity
  8
0
  6
Continuous
100
AcDbLine
 10
130.8149998294142
 20
146.6117617009839
 30
0.0
 11
130.7855305311602
 21
146.6062925753989
 31
0.0
  0
LINE
  5
4A9
330
E3
100
AcDbEntity
  8
0
  6
Continuous
100
AcDbLine
 10
130.7855305311602
 20
146.6062925753989
 30
0.0
 11
130.7533709935416
 21
146.6008195956028
 31
0.0
  0
LINE
  5
4AA
330
E3
100
AcDbEntity
  8
0
  6
Continuous
100
AcDbLine
 10
130.7533709935416
 20
146.6008195956028
 30
0.0
 11
130.7187678860704
 21
146.5953466158068
 31
0.0
  0
LINE
  5
4AB
330
E3
100
AcDbEntity
  8
0
  6
Continuous
100
AcDbLine
 10
130.7187678860704
 20
146.5953466158068
 30
0.0
 11
130.681979440892
 21
146.5898774902219
 31
0.0
  0
LINE
  5
4AC
330
E3
100
AcDbEntity
  8
0
  6
Continuous
100
AcDbLine
 10
130.681979440892
 20
146.5898774902219
 30
0.0
 11
130.6432870154182
 21
146.5844045104258
 31
0.0
  0
LINE
  5
4AD
330
E3
100
AcDbEntity
  8
0
  6
Continuous
100
AcDbLine
 10
130.6432870154182
 20
146.5844045104258
 30
0.0
 11
130.6029873839058
 21
146.5789353848409
 31
0.0
  0
LINE
  5
4AE
330
E3
100
AcDbEntity
  8
0
  6
Continuous
100
AcDbLine
 10
130.6029873839058
 20
146.5789353848409
 30
0.0
 11
130.5613888832445
 21
146.5734624050448
 31
0.0
  0
LINE
  5
4AF
330
E3
100
AcDbEntity
  8
0
  6
Continuous
100
AcDbLine
 10
130.5613888832445
 20
146.5734624050448
 30
0.0
 11
130.5188037045356
 21
146.5679894252487
 31
0.0
  0
LINE
  5
4B0
330
E3
100
AcDbEntity
  8
0
  6
Continuous
100
AcDbLine
 10
130.5188037045356
 20
146.5679894252487
 30
0.0
 11
130.4755556015133
 21
146.5625202996638
 31
0.0
  0
LINE
  5
4B1
330
E3
100
AcDbEntity
  8
0
  6
Continuous
100
AcDbLine
 10
130.4755556015133
 20
146.5625202996638
 30
0.0
 11
130.4319798905454
 21
146.5570473198677
 31
0.0
  0
LINE
  5
4B2
330
E3
100
AcDbEntity
  8
0
  6
Continuous
100
AcDbLine
 10
130.4319798905454
 20
146.5570473198677
 30
0.0
 11
130.3884003253665
 21
146.5515781942828
 31
0.0
  0
LINE
  5
4B3
330
E3
100
AcDbEntity
  8
0
  6
Continuous
100
AcDbLine
 10
130.3884003253665
 20
146.5515781942828
 30
0.0
 11
130.3451560765553
 21
146.5461052144867
 31
0.0
  0
LINE
  5
4B4
330
E3
100
AcDbEntity
  8
0
  6
Continuous
100
AcDbLine
 10
130.3451560765553
 20
146.5461052144867
 30
0.0
 11
130.3025670436352
 21
146.5406360889017
 31
0.0
  0
LINE
  5
4B5
330
E3
100
AcDbEntity
  8
0
  6
Continuous
100
AcDbLine
 10
130.3025670436352
 20
146.5406360889017
 30
0.0
 11
130.260968542974
 21
146.5351631091057
 31
0.0
  0
LINE
  5
4B6
330
E3
100
AcDbEntity
  8
0
  6
Continuous
100
AcDbLine
 10
130.260968542974
 20
146.5351631091057
 30
0.0
 11
130.2206689114616
 21
146.5296901293096
 31
0.0
  0
LINE
  5
4B7
330
E3
100
AcDbEntity
  8
0
  6
Continuous
100
AcDbLine
 10
130.2206689114616
 20
146.5296901293096
 30
0.0
 11
130.181980340199
 21
146.5242210037247
 31
0.0
  0
LINE
  5
4B8
330
E3
100
AcDbEntity
  8
0
  6
Continuous
100
AcDbLine
 10
130.181980340199
 20
146.5242210037247
 30
0.0
 11
130.1451918950205
 21
146.5187480239286
 31
0.0
  0
LINE
  5
4B9
330
E3
100
AcDbEntity
  8
0
  6
Continuous
100
AcDbLine
 10
130.1451918950205
 20
146.5187480239286
 30
0.0
 11
130.1105849333382
 21
146.5132788983437
 31
0.0
  0
LINE
  5
4BA
330
E3
100
AcDbEntity
  8
0
  6
Continuous
100
AcDbLine
 10
130.1105849333382
 20
146.5132788983437
 30
0.0
 11
130.0784253957196
 21
146.5078059185476
 31
0.0
  0
LINE
  5
4BB
330
E3
100
AcDbEntity
  8
0
  6
Continuous
100
AcDbLine
 10
130.0784253957196
 20
146.5078059185476
 30
0.0
 11
130.0489560974656
 21
146.5023329387515
 31
0.0
  0
LINE
  5
4BC
330
E3
100
AcDbEntity
  8
0
  6
Continuous
100
AcDbLine
 10
130.0489560974656
 20
146.5023329387515
 30
0.0
 11
130.0224005828213
 21
146.4968638131666
 31
0.0
  0
LINE
  5
4BD
330
E3
100
AcDbEntity
  8
0
  6
Continuous
100
AcDbLine
 10
130.0224005828213
 20
146.4968638131666
 30
0.0
 11
129.9989669791875
 21
146.4913908333705
 31
0.0
  0
LINE
  5
4BE
330
E3
100
AcDbEntity
  8
0
  6
Continuous
100
AcDbLine
 10
129.9989669791875
 20
146.4913908333705
 30
0.0
 11
129.9788248718535
 21
146.4859217077856
 31
0.0
  0
LINE
  5
4BF
330
E3
100
AcDbEntity
  8
0
  6
Continuous
100
AcDbLine
 10
129.9788248718535
 20
146.4859217077856
 30
0.0
 11
129.9621322834755
 21
146.4804487279895
 31
0.0
  0
LINE
  5
4C0
330
E3
100
AcDbEntity
  8
0
  6
Continuous
100
AcDbLine
 10
129.9621322834755
 20
146.4804487279895
 30
0.0
 11
129.9490164030205
 21
146.4749796024046
 31
0.0
  0
LINE
  5
4C1
330
E3
100
AcDbEntity
  8
0
  6
Continuous
100
AcDbLine
 10
129.9490164030205
 20
146.4749796024046
 30
0.0
 11
129.9395735857667
 21
146.4695066226085
 31
0.0
  0
LINE
  5
4C2
330
E3
100
AcDbEntity
  8
0
  6
Continuous
100
AcDbLine
 10
129.9395735857667
 20
146.4695066226085
 30
0.0
 11
129.933881071653
 21
146.4640351106429
 31
0.0
  0
LINE
  5
4C3
330
E3
100
AcDbEntity
  8
0
  6
Continuous
100
AcDbLine
 10
129.933881071653
 20
146.4640351106429
 30
0.0
 11
129.9319784206989
 21
146.4585637301715
 31
0.0
  0
LINE
  5
4C4
330
E3
100
AcDbEntity
  8
0
  6
Continuous
100
AcDbLine
 10
130.9319784206989
 20
146.2615940332018
 30
0.0
 11
130.9300757697448
 21
146.2561226527305
 31
0.0
  0
LINE
  5
4C5
330
E3
100
AcDbEntity
  8
0
  6
Continuous
100
AcDbLine
 10
130.9300757697448
 20
146.2561226527305
 30
0.0
 11
130.9243822972051
 21
146.2506512722591
 31
0.0
  0
LINE
  5
4C6
330
E3
100
AcDbEntity
  8
0
  6
Continuous
100
AcDbLine
 10
130.9243822972051
 20
146.2506512722591
 30
0.0
 11
130.9149395238593
 21
146.2451799725589
 31
0.0
  0
LINE
  5
4C7
330
E3
100
AcDbEntity
  8
0
  6
Continuous
100
AcDbLine
 10
130.9149395238593
 20
146.2451799725589
 30
0.0
 11
130.9018236434043
 21
146.2397069927629
 31
0.0
  0
LINE
  5
4C8
330
E3
100
AcDbEntity
  8
0
  6
Continuous
100
AcDbLine
 10
130.9018236434043
 20
146.2397069927629
 30
0.0
 11
130.8851310550263
 21
146.2342378671779
 31
0.0
  0
LINE
  5
4C9
330
E3
100
AcDbEntity
  8
0
  6
Continuous
100
AcDbLine
 10
130.8851310550263
 20
146.2342378671779
 30
0.0
 11
130.8649928019035
 21
146.2287648873819
 31
0.0
  0
LINE
  5
4CA
330
E3
100
AcDbEntity
  8
0
  6
Continuous
100
AcDbLine
 10
130.8649928019035
 20
146.2287648873819
 30
0.0
 11
130.8415553440585
 21
146.2232957617969
 31
0.0
  0
LINE
  5
4CB
330
E3
100
AcDbEntity
  8
0
  6
Continuous
100
AcDbLine
 10
130.8415553440585
 20
146.2232957617969
 30
0.0
 11
130.8149998294142
 21
146.2178227820008
 31
0.0
  0
LINE
  5
4CC
330
E3
100
AcDbEntity
  8
0
  6
Continuous
100
AcDbLine
 10
130.8149998294142
 20
146.2178227820008
 30
0.0
 11
130.7855305311602
 21
146.2123498022048
 31
0.0
  0
LINE
  5
4CD
330
E3
100
AcDbEntity
  8
0
  6
Continuous
100
AcDbLine
 10
130.7855305311602
 20
146.2123498022048
 30
0.0
 11
130.7533709935416
 21
146.2068806766198
 31
0.0
  0
LINE
  5
4CE
330
E3
100
AcDbEntity
  8
0
  6
Continuous
100
AcDbLine
 10
130.7533709935416
 20
146.2068806766198
 30
0.0
 11
130.7187678860704
 21
146.2014076968238
 31
0.0
  0
LINE
  5
4CF
330
E3
100
AcDbEntity
  8
0
  6
Continuous
100
AcDbLine
 10
130.7187678860704
 20
146.2014076968238
 30
0.0
 11
130.681979440892
 21
146.1959385712388
 31
0.0
  0
LINE
  5
4D0
330
E3
100
AcDbEntity
  8
0
  6
Continuous
100
AcDbLine
 10
130.681979440892
 20
146.1959385712388
 30
0.0
 11
130.6432870154182
 21
146.1904655914428
 31
0.0
  0
LINE
  5
4D1
330
E3
100
AcDbEntity
  8
0
  6
Continuous
100
AcDbLine
 10
130.6432870154182
 20
146.1904655914428
 30
0.0
 11
130.6029873839058
 21
146.1849964658578
 31
0.0
  0
LINE
  5
4D2
330
E3
100
AcDbEntity
  8
0
  6
Continuous
100
AcDbLine
 10
130.6029873839058
 20
146.1849964658578
 30
0.0
 11
130.5613888832445
 21
146.1795234860618
 31
0.0
  0
LINE
  5
4D3
330
E3
100
AcDbEntity
  8
0
  6
Continuous
100
AcDbLine
 10
130.5613888832445
 20
146.1795234860618
 30
0.0
 11
130.5188037045356
 21
146.1740505062657
 31
0.0
  0
LINE
  5
4D4
330
E3
100
AcDbEntity
  8
0
  6
Continuous
100
AcDbLine
 10
130.5188037045356
 20
146.1740505062657
 30
0.0
 11
130.4755556015133
 21
146.1685813806808
 31
0.0
  0
LINE
  5
4D5
330
E3
100
AcDbEntity
  8
0
  6
Continuous
100
AcDbLine
 10
130.4755556015133
 20
146.1685813806808
 30
0.0
 11
130.4319798905454
 21
146.1631084008847
 31
0.0
  0
LINE
  5
4D6
330
E3
100
AcDbEntity
  8
0
  6
Continuous
100
AcDbLine
 10
130.4319798905454
 20
146.1631084008847
 30
0.0
 11
130.3884003253665
 21
146.1576392752998
 31
0.0
  0
LINE
  5
4D7
330
E3
100
AcDbEntity
  8
0
  6
Continuous
100
AcDbLine
 10
130.3884003253665
 20
146.1576392752998
 30
0.0
 11
130.3451560765553
 21
146.1521662955037
 31
0.0
  0
LINE
  5
4D8
330
E3
100
AcDbEntity
  8
0
  6
Continuous
100
AcDbLine
 10
130.3451560765553
 20
146.1521662955037
 30
0.0
 11
130.3025670436352
 21
146.1466933157076
 31
0.0
  0
LINE
  5
4D9
330
E3
100
AcDbEntity
  8
0
  6
Continuous
100
AcDbLine
 10
130.3025670436352
 20
146.1466933157076
 30
0.0
 11
130.260968542974
 21
146.1412241901227
 31
0.0
  0
LINE
  5
4DA
330
E3
100
AcDbEntity
  8
0
  6
Continuous
100
AcDbLine
 10
130.260968542974
 20
146.1412241901227
 30
0.0
 11
130.2206689114616
 21
146.1357512103266
 31
0.0
  0
LINE
  5
4DB
330
E3
100
AcDbEntity
  8
0
  6
Continuous
100
AcDbLine
 10
130.2206689114616
 20
146.1357512103266
 30
0.0
 11
130.181980340199
 21
146.1302820847417
 31
0.0
  0
LINE
  5
4DC
330
E3
100
AcDbEntity
  8
0
  6
Continuous
100
AcDbLine
 10
130.181980340199
 20
146.1302820847417
 30
0.0
 11
130.1451918950205
 21
146.1248091049456
 31
0.0
  0
LINE
  5
4DD
330
E3
100
AcDbEntity
  8
0
  6
Continuous
100
AcDbLine
 10
130.1451918950205
 20
146.1248091049456
 30
0.0
 11
130.1105849333382
 21
146.1193399793607
 31
0.0
  0
LINE
  5
4DE
330
E3
100
AcDbEntity
  8
0
  6
Continuous
100
AcDbLine
 10
130.1105849333382
 20
146.1193399793607
 30
0.0
 11
130.0784253957196
 21
146.1138669995646
 31
0.0
  0
LINE
  5
4DF
330
E3
100
AcDbEntity
  8
0
  6
Continuous
100
AcDbLine
 10
130.0784253957196
 20
146.1138669995646
 30
0.0
 11
130.0489560974656
 21
146.1083940197686
 31
0.0
  0
LINE
  5
4E0
330
E3
100
AcDbEntity
  8
0
  6
Continuous
100
AcDbLine
 10
130.0489560974656
 20
146.1083940197686
 30
0.0
 11
130.0224005828213
 21
146.1029248941836
 31
0.0
  0
LINE
  5
4E1
330
E3
100
AcDbEntity
  8
0
  6
Continuous
100
AcDbLine
 10
130.0224005828213
 20
146.1029248941836
 30
0.0
 11
129.9989669791875
 21
146.0974519143875
 31
0.0
  0
LINE
  5
4E2
330
E3
100
AcDbEntity
  8
0
  6
Continuous
100
AcDbLine
 10
129.9989669791875
 20
146.0974519143875
 30
0.0
 11
129.9788248718535
 21
146.0919827888026
 31
0.0
  0
LINE
  5
4E3
330
E3
100
AcDbEntity
  8
0
  6
Continuous
100
AcDbLine
 10
129.9788248718535
 20
146.0919827888026
 30
0.0
 11
129.9621322834755
 21
146.0865098090065
 31
0.0
  0
LINE
  5
4E4
330
E3
100
AcDbEntity
  8
0
  6
Continuous
100
AcDbLine
 10
129.9621322834755
 20
146.0865098090065
 30
0.0
 11
129.9490164030205
 21
146.0810368292105
 31
0.0
  0
LINE
  5
4E5
330
E3
100
AcDbEntity
  8
0
  6
Continuous
100
AcDbLine
 10
129.9490164030205
 20
146.0810368292105
 30
0.0
 11
129.9395735857667
 21
146.0755677036255
 31
0.0
  0
LINE
  5
4E6
330
E3
100
AcDbEntity
  8
0
  6
Continuous
100
AcDbLine
 10
129.9395735857667
 20
146.0755677036255
 30
0.0
 11
129.933881071653
 21
146.0700957167035
 31
0.0
  0
LINE
  5
4E7
330
E3
100
AcDbEntity
  8
0
  6
Continuous
100
AcDbLine
 10
129.933881071653
 20
146.0700957167035
 30
0.0
 11
129.9319784206989
 21
146.0646243362321
 31
0.0
  0
LINE
  5
4E8
330
E3
100
AcDbEntity
  8
0
  6
Continuous
100
AcDbLine
 10
130.9319784206989
 20
145.8676546392624
 30
0.0
 11
130.9300757697448
 21
145.8621832587911
 31
0.0
  0
LINE
  5
4E9
330
E3
100
AcDbEntity
  8
0
  6
Continuous
100
AcDbLine
 10
130.9300757697448
 20
145.8621832587911
 30
0.0
 11
130.9243822972051
 21
145.8567118783197
 31
0.0
  0
LINE
  5
4EA
330
E3
100
AcDbEntity
  8
0
  6
Continuous
100
AcDbLine
 10
130.9243822972051
 20
145.8567118783197
 30
0.0
 11
130.9149395238593
 21
145.8512410535759
 31
0.0
  0
LINE
  5
4EB
330
E3
100
AcDbEntity
  8
0
  6
Continuous
100
AcDbLine
 10
130.9149395238593
 20
145.8512410535759
 30
0.0
 11
130.9018236434043
 21
145.8457680737799
 31
0.0
  0
LINE
  5
4EC
330
E3
100
AcDbEntity
  8
0
  6
Continuous
100
AcDbLine
 10
130.9018236434043
 20
145.8457680737799
 30
0.0
 11
130.8851310550263
 21
145.8402989481949
 31
0.0
  0
LINE
  5
4ED
330
E3
100
AcDbEntity
  8
0
  6
Continuous
100
AcDbLine
 10
130.8851310550263
 20
145.8402989481949
 30
0.0
 11
130.8649928019035
 21
145.8348259683989
 31
0.0
  0
LINE
  5
4EE
330
E3
100
AcDbEntity
  8
0
  6
Continuous
100
AcDbLine
 10
130.8649928019035
 20
145.8348259683989
 30
0.0
 11
130.8415553440585
 21
145.8293568428139
 31
0.0
  0
LINE
  5
4EF
330
E3
100
AcDbEntity
  8
0
  6
Continuous
100
AcDbLine
 10
130.8415553440585
 20
145.8293568428139
 30
0.0
 11
130.8149998294142
 21
145.8238838630179
 31
0.0
  0
LINE
  5
4F0
330
E3
100
AcDbEntity
  8
0
  6
Continuous
100
AcDbLine
 10
130.8149998294142
 20
145.8238838630179
 30
0.0
 11
130.7855305311602
 21
145.8184108832218
 31
0.0
  0
LINE
  5
4F1
330
E3
100
AcDbEntity
  8
0
  6
Continuous
100
AcDbLine
 10
130.7855305311602
 20
145.8184108832218
 30
0.0
 11
130.7533709935416
 21
145.8129417576368
 31
0.0
  0
LINE
  5
4F2
330
E3
100
AcDbEntity
  8
0
  6
Continuous
100
AcDbLine
 10
130.7533709935416
 20
145.8129417576368
 30
0.0
 11
130.7187678860704
 21
145.8074687778408
 31
0.0
  0
LINE
  5
4F3
330
E3
100
AcDbEntity
  8
0
  6
Continuous
100
AcDbLine
 10
130.7187678860704
 20
145.8074687778408
 30
0.0
 11
130.681979440892
 21
145.8019996522558
 31
0.0
  0
LINE
  5
4F4
330
E3
100
AcDbEntity
  8
0
  6
Continuous
100
AcDbLine
 10
130.681979440892
 20
145.8019996522558
 30
0.0
 11
130.6432870154182
 21
145.7965266724598
 31
0.0
  0
LINE
  5
4F5
330
E3
100
AcDbEntity
  8
0
  6
Continuous
100
AcDbLine
 10
130.6432870154182
 20
145.7965266724598
 30
0.0
 11
130.6029873839058
 21
145.7910536926637
 31
0.0
  0
LINE
  5
4F6
330
E3
100
AcDbEntity
  8
0
  6
Continuous
100
AcDbLine
 10
130.6029873839058
 20
145.7910536926637
 30
0.0
 11
130.5613888832445
 21
145.7855845670787
 31
0.0
  0
LINE
  5
4F7
330
E3
100
AcDbEntity
  8
0
  6
Continuous
100
AcDbLine
 10
130.5613888832445
 20
145.7855845670787
 30
0.0
 11
130.5188037045356
 21
145.7801115872827
 31
0.0
  0
LINE
  5
4F8
330
E3
100
AcDbEntity
  8
0
  6
Continuous
100
AcDbLine
 10
130.5188037045356
 20
145.7801115872827
 30
0.0
 11
130.4755556015133
 21
145.7746424616977
 31
0.0
  0
LINE
  5
4F9
330
E3
100
AcDbEntity
  8
0
  6
Continuous
100
AcDbLine
 10
130.4755556015133
 20
145.7746424616977
 30
0.0
 11
130.4319798905454
 21
145.7691694819017
 31
0.0
  0
LINE
  5
4FA
330
E3
100
AcDbEntity
  8
0
  6
Continuous
100
AcDbLine
 10
130.4319798905454
 20
145.7691694819017
 30
0.0
 11
130.3884003253665
 21
145.7636965021056
 31
0.0
  0
LINE
  5
4FB
330
E3
100
AcDbEntity
  8
0
  6
Continuous
100
AcDbLine
 10
130.3884003253665
 20
145.7636965021056
 30
0.0
 11
130.3451560765553
 21
145.7582273765207
 31
0.0
  0
LINE
  5
4FC
330
E3
100
AcDbEntity
  8
0
  6
Continuous
100
AcDbLine
 10
130.3451560765553
 20
145.7582273765207
 30
0.0
 11
130.3025670436352
 21
145.7527543967246
 31
0.0
  0
LINE
  5
4FD
330
E3
100
AcDbEntity
  8
0
  6
Continuous
100
AcDbLine
 10
130.3025670436352
 20
145.7527543967246
 30
0.0
 11
130.260968542974
 21
145.7472852711397
 31
0.0
  0
LINE
  5
4FE
330
E3
100
AcDbEntity
  8
0
  6
Continuous
100
AcDbLine
 10
130.260968542974
 20
145.7472852711397
 30
0.0
 11
130.2206689114616
 21
145.7418122913436
 31
0.0
  0
LINE
  5
4FF
330
E3
100
AcDbEntity
  8
0
  6
Continuous
100
AcDbLine
 10
130.2206689114616
 20
145.7418122913436
 30
0.0
 11
130.181980340199
 21
145.7363431657587
 31
0.0
  0
LINE
  5
500
330
E3
100
AcDbEntity
  8
0
  6
Continuous
100
AcDbLine
 10
130.181980340199
 20
145.7363431657587
 30
0.0
 11
130.1451918950205
 21
145.7308701859626
 31
0.0
  0
LINE
  5
501
330
E3
100
AcDbEntity
  8
0
  6
Continuous
100
AcDbLine
 10
130.1451918950205
 20
145.7308701859626
 30
0.0
 11
130.1105849333382
 21
145.7253972061665
 31
0.0
  0
LINE
  5
502
330
E3
100
AcDbEntity
  8
0
  6
Continuous
100
AcDbLine
 10
130.1105849333382
 20
145.7253972061665
 30
0.0
 11
130.0784253957196
 21
145.7199280805816
 31
0.0
  0
LINE
  5
503
330
E3
100
AcDbEntity
  8
0
  6
Continuous
100
AcDbLine
 10
130.0784253957196
 20
145.7199280805816
 30
0.0
 11
130.0489560974656
 21
145.7144551007855
 31
0.0
  0
LINE
  5
504
330
E3
100
AcDbEntity
  8
0
  6
Continuous
100
AcDbLine
 10
130.0489560974656
 20
145.7144551007855
 30
0.0
 11
130.0224005828213
 21
145.7089859752006
 31
0.0
  0
LINE
  5
505
330
E3
100
AcDbEntity
  8
0
  6
Continuous
100
AcDbLine
 10
130.0224005828213
 20
145.7089859752006
 30
0.0
 11
129.9989669791875
 21
145.7035129954045
 31
0.0
  0
LINE
  5
506
330
E3
100
AcDbEntity
  8
0
  6
Continuous
100
AcDbLine
 10
129.9989669791875
 20
145.7035129954045
 30
0.0
 11
129.9788248718535
 21
145.6980400156085
 31
0.0
  0
LINE
  5
507
330
E3
100
AcDbEntity
  8
0
  6
Continuous
100
AcDbLine
 10
129.9788248718535
 20
145.6980400156085
 30
0.0
 11
129.9621322834755
 21
145.6925708900235
 31
0.0
  0
LINE
  5
508
330
E3
100
AcDbEntity
  8
0
  6
Continuous
100
AcDbLine
 10
129.9621322834755
 20
145.6925708900235
 30
0.0
 11
129.9490164030205
 21
145.6870979102274
 31
0.0
  0
LINE
  5
509
330
E3
100
AcDbEntity
  8
0
  6
Continuous
100
AcDbLine
 10
129.9490164030205
 20
145.6870979102274
 30
0.0
 11
129.9395735857667
 21
145.6816287846425
 31
0.0
  0
LINE
  5
50A
330
E3
100
AcDbEntity
  8
0
  6
Continuous
100
AcDbLine
 10
129.9395735857667
 20
145.6816287846425
 30
0.0
 11
129.933881071653
 21
145.6761563227641
 31
0.0
  0
LINE
  5
50B
330
E3
100
AcDbEntity
  8
0
  6
Continuous
100
AcDbLine
 10
129.933881071653
 20
145.6761563227641
 30
0.0
 11
129.9319784206989
 21
145.6706849422928
 31
0.0
  0
LINE
  5
50C
330
E3
100
AcDbEntity
  8
0
  6
Continuous
100
AcDbLine
 10
130.9319784206989
 20
145.473715245323
 30
0.0
 11
130.9300757697448
 21
145.4682438648517
 31
0.0
  0
LINE
  5
50D
330
E3
100
AcDbEntity
  8
0
  6
Continuous
100
AcDbLine
 10
130.9300757697448
 20
145.4682438648517
 30
0.0
 11
130.9243822972051
 21
145.4627724843803
 31
0.0
  0
LINE
  5
50E
330
E3
100
AcDbEntity
  8
0
  6
Continuous
100
AcDbLine
 10
130.9243822972051
 20
145.4627724843803
 30
0.0
 11
130.9149395238593
 21
145.4573021345929
 31
0.0
  0
LINE
  5
50F
330
E3
100
AcDbEntity
  8
0
  6
Continuous
100
AcDbLine
 10
130.9149395238593
 20
145.4573021345929
 30
0.0
 11
130.9018236434043
 21
145.4518291547969
 31
0.0
  0
LINE
  5
510
330
E3
100
AcDbEntity
  8
0
  6
Continuous
100
AcDbLine
 10
130.9018236434043
 20
145.4518291547969
 30
0.0
 11
130.8851310550263
 21
145.4463600292119
 31
0.0
  0
LINE
  5
511
330
E3
100
AcDbEntity
  8
0
  6
Continuous
100
AcDbLine
 10
130.8851310550263
 20
145.4463600292119
 30
0.0
 11
130.8649928019035
 21
145.4408870494158
 31
0.0
  0
LINE
  5
512
330
E3
100
AcDbEntity
  8
0
  6
Continuous
100
AcDbLine
 10
130.8649928019035
 20
145.4408870494158
 30
0.0
 11
130.8415553440585
 21
145.4354140696198
 31
0.0
  0
LINE
  5
513
330
E3
100
AcDbEntity
  8
0
  6
Continuous
100
AcDbLine
 10
130.8415553440585
 20
145.4354140696198
 30
0.0
 11
130.8149998294142
 21
145.4299449440348
 31
0.0
  0
LINE
  5
514
330
E3
100
AcDbEntity
  8
0
  6
Continuous
100
AcDbLine
 10
130.8149998294142
 20
145.4299449440348
 30
0.0
 11
130.7855305311602
 21
145.4244719642387
 31
0.0
  0
LINE
  5
515
330
E3
100
AcDbEntity
  8
0
  6
Continuous
100
AcDbLine
 10
130.7855305311602
 20
145.4244719642387
 30
0.0
 11
130.7533709935416
 21
145.4190028386538
 31
0.0
  0
LINE
  5
516
330
E3
100
AcDbEntity
  8
0
  6
Continuous
100
AcDbLine
 10
130.7533709935416
 20
145.4190028386538
 30
0.0
 11
130.7187678860704
 21
145.4135298588577
 31
0.0
  0
LINE
  5
517
330
E3
100
AcDbEntity
  8
0
  6
Continuous
100
AcDbLine
 10
130.7187678860704
 20
145.4135298588577
 30
0.0
 11
130.681979440892
 21
145.4080568790617
 31
0.0
  0
LINE
  5
518
330
E3
100
AcDbEntity
  8
0
  6
Continuous
100
AcDbLine
 10
130.681979440892
 20
145.4080568790617
 30
0.0
 11
130.6432870154182
 21
145.4025877534768
 31
0.0
  0
LINE
  5
519
330
E3
100
AcDbEntity
  8
0
  6
Continuous
100
AcDbLine
 10
130.6432870154182
 20
145.4025877534768
 30
0.0
 11
130.6029873839058
 21
145.3971147736807
 31
0.0
  0
LINE
  5
51A
330
E3
100
AcDbEntity
  8
0
  6
Continuous
100
AcDbLine
 10
130.6029873839058
 20
145.3971147736807
 30
0.0
 11
130.5613888832445
 21
145.3916456480958
 31
0.0
  0
LINE
  5
51B
330
E3
100
AcDbEntity
  8
0
  6
Continuous
100
AcDbLine
 10
130.5613888832445
 20
145.3916456480958
 30
0.0
 11
130.5188037045356
 21
145.3861726682997
 31
0.0
  0
LINE
  5
51C
330
E3
100
AcDbEntity
  8
0
  6
Continuous
100
AcDbLine
 10
130.5188037045356
 20
145.3861726682997
 30
0.0
 11
130.4755556015133
 21
145.3807035427148
 31
0.0
  0
LINE
  5
51D
330
E3
100
AcDbEntity
  8
0
  6
Continuous
100
AcDbLine
 10
130.4755556015133
 20
145.3807035427148
 30
0.0
 11
130.4319798905454
 21
145.3752305629187
 31
0.0
  0
LINE
  5
51E
330
E3
100
AcDbEntity
  8
0
  6
Continuous
100
AcDbLine
 10
130.4319798905454
 20
145.3752305629187
 30
0.0
 11
130.3884003253665
 21
145.3697575831226
 31
0.0
  0
LINE
  5
51F
330
E3
100
AcDbEntity
  8
0
  6
Continuous
100
AcDbLine
 10
130.3884003253665
 20
145.3697575831226
 30
0.0
 11
130.3451560765553
 21
145.3642884575377
 31
0.0
  0
LINE
  5
520
330
E3
100
AcDbEntity
  8
0
  6
Continuous
100
AcDbLine
 10
130.3451560765553
 20
145.3642884575377
 30
0.0
 11
130.3025670436352
 21
145.3588154777416
 31
0.0
  0
LINE
  5
521
330
E3
100
AcDbEntity
  8
0
  6
Continuous
100
AcDbLine
 10
130.3025670436352
 20
145.3588154777416
 30
0.0
 11
130.260968542974
 21
145.3533463521566
 31
0.0
  0
LINE
  5
522
330
E3
100
AcDbEntity
  8
0
  6
Continuous
100
AcDbLine
 10
130.260968542974
 20
145.3533463521566
 30
0.0
 11
130.2206689114616
 21
145.3478733723606
 31
0.0
  0
LINE
  5
523
330
E3
100
AcDbEntity
  8
0
  6
Continuous
100
AcDbLine
 10
130.2206689114616
 20
145.3478733723606
 30
0.0
 11
130.181980340199
 21
145.3424003925645
 31
0.0
  0
LINE
  5
524
330
E3
100
AcDbEntity
  8
0
  6
Continuous
100
AcDbLine
 10
130.181980340199
 20
145.3424003925645
 30
0.0
 11
130.1451918950205
 21
145.3369312669796
 31
0.0
  0
LINE
  5
525
330
E3
100
AcDbEntity
  8
0
  6
Continuous
100
AcDbLine
 10
130.1451918950205
 20
145.3369312669796
 30
0.0
 11
130.1105849333382
 21
145.3314582871835
 31
0.0
  0
LINE
  5
526
330
E3
100
AcDbEntity
  8
0
  6
Continuous
100
AcDbLine
 10
130.1105849333382
 20
145.3314582871835
 30
0.0
 11
130.0784253957196
 21
145.3259891615986
 31
0.0
  0
LINE
  5
527
330
E3
100
AcDbEntity
  8
0
  6
Continuous
100
AcDbLine
 10
130.0784253957196
 20
145.3259891615986
 30
0.0
 11
130.0489560974656
 21
145.3205161818025
 31
0.0
  0
LINE
  5
528
330
E3
100
AcDbEntity
  8
0
  6
Continuous
100
AcDbLine
 10
130.0489560974656
 20
145.3205161818025
 30
0.0
 11
130.0224005828213
 21
145.3150470562176
 31
0.0
  0
LINE
  5
529
330
E3
100
AcDbEntity
  8
0
  6
Continuous
100
AcDbLine
 10
130.0224005828213
 20
145.3150470562176
 30
0.0
 11
129.9989669791875
 21
145.3095740764215
 31
0.0
  0
LINE
  5
52A
330
E3
100
AcDbEntity
  8
0
  6
Continuous
100
AcDbLine
 10
129.9989669791875
 20
145.3095740764215
 30
0.0
 11
129.9788248718535
 21
145.3041010966255
 31
0.0
  0
LINE
  5
52B
330
E3
100
AcDbEntity
  8
0
  6
Continuous
100
AcDbLine
 10
129.9788248718535
 20
145.3041010966255
 30
0.0
 11
129.9621322834755
 21
145.2986319710405
 31
0.0
  0
LINE
  5
52C
330
E3
100
AcDbEntity
  8
0
  6
Continuous
100
AcDbLine
 10
129.9621322834755
 20
145.2986319710405
 30
0.0
 11
129.9490164030205
 21
145.2931589912444
 31
0.0
  0
LINE
  5
52D
330
E3
100
AcDbEntity
  8
0
  6
Continuous
100
AcDbLine
 10
129.9490164030205
 20
145.2931589912444
 30
0.0
 11
129.9395735857667
 21
145.2876898656595
 31
0.0
  0
LINE
  5
52E
330
E3
100
AcDbEntity
  8
0
  6
Continuous
100
AcDbLine
 10
129.9395735857667
 20
145.2876898656595
 30
0.0
 11
129.933881071653
 21
145.2822169288248
 31
0.0
  0
LINE
  5
52F
330
E3
100
AcDbEntity
  8
0
  6
Continuous
100
AcDbLine
 10
129.933881071653
 20
145.2822169288248
 30
0.0
 11
129.9319784206989
 21
145.2767455483533
 31
0.0
  0
LINE
  5
530
330
E3
100
AcDbEntity
  8
0
  6
Continuous
100
AcDbLine
 10
130.9319784206989
 20
145.0797758513837
 30
0.0
 11
130.9300757697448
 21
145.0743044709123
 31
0.0
  0
LINE
  5
531
330
E3
100
AcDbEntity
  8
0
  6
Continuous
100
AcDbLine
 10
130.9300757697448
 20
145.0743044709123
 30
0.0
 11
130.924382297205
 21
145.0688330904409
 31
0.0
  0
LINE
  5
532
330
E3
100
AcDbEntity
  8
0
  6
Continuous
100
AcDbLine
 10
130.924382297205
 20
145.0688330904409
 30
0.0
 11
130.9149395238593
 21
145.0633632156099
 31
0.0
  0
LINE
  5
533
330
E3
100
AcDbEntity
  8
0
  6
Continuous
100
AcDbLine
 10
130.9149395238593
 20
145.0633632156099
 30
0.0
 11
130.9018236434043
 21
145.0578902358138
 31
0.0
  0
LINE
  5
534
330
E3
100
AcDbEntity
  8
0
  6
Continuous
100
AcDbLine
 10
130.9018236434043
 20
145.0578902358138
 30
0.0
 11
130.8851310550263
 21
145.0524172560178
 31
0.0
  0
LINE
  5
535
330
E3
100
AcDbEntity
  8
0
  6
Continuous
100
AcDbLine
 10
130.8851310550263
 20
145.0524172560178
 30
0.0
 11
130.8649928019035
 21
145.0469481304328
 31
0.0
  0
LINE
  5
536
330
E3
100
AcDbEntity
  8
0
  6
Continuous
100
AcDbLine
 10
130.8649928019035
 20
145.0469481304328
 30
0.0
 11
130.8415553440585
 21
145.0414751506368
 31
0.0
  0
LINE
  5
537
330
E3
100
AcDbEntity
  8
0
  6
Continuous
100
AcDbLine
 10
130.8415553440585
 20
145.0414751506368
 30
0.0
 11
130.8149998294142
 21
145.0360060250518
 31
0.0
  0
LINE
  5
538
330
E3
100
AcDbEntity
  8
0
  6
Continuous
100
AcDbLine
 10
130.8149998294142
 20
145.0360060250518
 30
0.0
 11
130.7855305311602
 21
145.0305330452558
 31
0.0
  0
LINE
  5
539
330
E3
100
AcDbEntity
  8
0
  6
Continuous
100
AcDbLine
 10
130.7855305311602
 20
145.0305330452558
 30
0.0
 11
130.7533709935416
 21
145.0250639196708
 31
0.0
  0
LINE
  5
53A
330
E3
100
AcDbEntity
  8
0
  6
Continuous
100
AcDbLine
 10
130.7533709935416
 20
145.0250639196708
 30
0.0
 11
130.7187678860704
 21
145.0195909398748
 31
0.0
  0
LINE
  5
53B
330
E3
100
AcDbEntity
  8
0
  6
Continuous
100
AcDbLine
 10
130.7187678860704
 20
145.0195909398748
 30
0.0
 11
130.681979440892
 21
145.0141179600787
 31
0.0
  0
LINE
  5
53C
330
E3
100
AcDbEntity
  8
0
  6
Continuous
100
AcDbLine
 10
130.681979440892
 20
145.0141179600787
 30
0.0
 11
130.6432870154182
 21
145.0086488344938
 31
0.0
  0
LINE
  5
53D
330
E3
100
AcDbEntity
  8
0
  6
Continuous
100
AcDbLine
 10
130.6432870154182
 20
145.0086488344938
 30
0.0
 11
130.6029873839058
 21
145.0031758546977
 31
0.0
  0
LINE
  5
53E
330
E3
100
AcDbEntity
  8
0
  6
Continuous
100
AcDbLine
 10
130.6029873839058
 20
145.0031758546977
 30
0.0
 11
130.5613888832445
 21
144.9977067291127
 31
0.0
  0
LINE
  5
53F
330
E3
100
AcDbEntity
  8
0
  6
Continuous
100
AcDbLine
 10
130.5613888832445
 20
144.9977067291127
 30
0.0
 11
130.5188037045356
 21
144.9922337493167
 31
0.0
  0
LINE
  5
540
330
E3
100
AcDbEntity
  8
0
  6
Continuous
100
AcDbLine
 10
130.5188037045356
 20
144.9922337493167
 30
0.0
 11
130.4755556015133
 21
144.9867607695206
 31
0.0
  0
LINE
  5
541
330
E3
100
AcDbEntity
  8
0
  6
Continuous
100
AcDbLine
 10
130.4755556015133
 20
144.9867607695206
 30
0.0
 11
130.4319798905454
 21
144.9812916439356
 31
0.0
  0
LINE
  5
542
330
E3
100
AcDbEntity
  8
0
  6
Continuous
100
AcDbLine
 10
130.4319798905454
 20
144.9812916439356
 30
0.0
 11
130.3884003253665
 21
144.9758186641396
 31
0.0
  0
LINE
  5
543
330
E3
100
AcDbEntity
  8
0
  6
Continuous
100
AcDbLine
 10
130.3884003253665
 20
144.9758186641396
 30
0.0
 11
130.3451560765553
 21
144.9703495385546
 31
0.0
  0
LINE
  5
544
330
E3
100
AcDbEntity
  8
0
  6
Continuous
100
AcDbLine
 10
130.3451560765553
 20
144.9703495385546
 30
0.0
 11
130.3025670436352
 21
144.9648765587586
 31
0.0
  0
LINE
  5
545
330
E3
100
AcDbEntity
  8
0
  6
Continuous
100
AcDbLine
 10
130.3025670436352
 20
144.9648765587586
 30
0.0
 11
130.260968542974
 21
144.9594035789625
 31
0.0
  0
LINE
  5
546
330
E3
100
AcDbEntity
  8
0
  6
Continuous
100
AcDbLine
 10
130.260968542974
 20
144.9594035789625
 30
0.0
 11
130.2206689114616
 21
144.9539344533776
 31
0.0
  0
LINE
  5
547
330
E3
100
AcDbEntity
  8
0
  6
Continuous
100
AcDbLine
 10
130.2206689114616
 20
144.9539344533776
 30
0.0
 11
130.181980340199
 21
144.9484614735815
 31
0.0
  0
LINE
  5
548
330
E3
100
AcDbEntity
  8
0
  6
Continuous
100
AcDbLine
 10
130.181980340199
 20
144.9484614735815
 30
0.0
 11
130.1451918950205
 21
144.9429923479966
 31
0.0
  0
LINE
  5
549
330
E3
100
AcDbEntity
  8
0
  6
Continuous
100
AcDbLine
 10
130.1451918950205
 20
144.9429923479966
 30
0.0
 11
130.1105849333382
 21
144.9375193682005
 31
0.0
  0
LINE
  5
54A
330
E3
100
AcDbEntity
  8
0
  6
Continuous
100
AcDbLine
 10
130.1105849333382
 20
144.9375193682005
 30
0.0
 11
130.0784253957196
 21
144.9320502426156
 31
0.0
  0
LINE
  5
54B
330
E3
100
AcDbEntity
  8
0
  6
Continuous
100
AcDbLine
 10
130.0784253957196
 20
144.9320502426156
 30
0.0
 11
130.0489560974656
 21
144.9265772628195
 31
0.0
  0
LINE
  5
54C
330
E3
100
AcDbEntity
  8
0
  6
Continuous
100
AcDbLine
 10
130.0489560974656
 20
144.9265772628195
 30
0.0
 11
130.0224005828213
 21
144.9211042830235
 31
0.0
  0
LINE
  5
54D
330
E3
100
AcDbEntity
  8
0
  6
Continuous
100
AcDbLine
 10
130.0224005828213
 20
144.9211042830235
 30
0.0
 11
129.9989669791875
 21
144.9156351574385
 31
0.0
  0
LINE
  5
54E
330
E3
100
AcDbEntity
  8
0
  6
Continuous
100
AcDbLine
 10
129.9989669791875
 20
144.9156351574385
 30
0.0
 11
129.9788248718535
 21
144.9101621776424
 31
0.0
  0
LINE
  5
54F
330
E3
100
AcDbEntity
  8
0
  6
Continuous
100
AcDbLine
 10
129.9788248718535
 20
144.9101621776424
 30
0.0
 11
129.9621322834755
 21
144.9046930520575
 31
0.0
  0
LINE
  5
550
330
E3
100
AcDbEntity
  8
0
  6
Continuous
100
AcDbLine
 10
129.9621322834755
 20
144.9046930520575
 30
0.0
 11
129.9490164030205
 21
144.8992200722614
 31
0.0
  0
LINE
  5
551
330
E3
100
AcDbEntity
  8
0
  6
Continuous
100
AcDbLine
 10
129.9490164030205
 20
144.8992200722614
 30
0.0
 11
129.9395735857667
 21
144.8937470924654
 31
0.0
  0
LINE
  5
552
330
E3
100
AcDbEntity
  8
0
  6
Continuous
100
AcDbLine
 10
129.9395735857667
 20
144.8937470924654
 30
0.0
 11
129.933881071653
 21
144.8882775348853
 31
0.0
  0
LINE
  5
553
330
E3
100
AcDbEntity
  8
0
  6
Continuous
100
AcDbLine
 10
129.933881071653
 20
144.8882775348853
 30
0.0
 11
129.9319784206989
 21
144.882806154414
 31
0.0
  0
LINE
  5
554
330
E3
100
AcDbEntity
  8
0
  6
Continuous
100
AcDbLine
 10
130.9319784206989
 20
144.6858364574443
 30
0.0
 11
130.9300757697448
 21
144.6803650769729
 31
0.0
  0
LINE
  5
555
330
E3
100
AcDbEntity
  8
0
  6
Continuous
100
AcDbLine
 10
130.9300757697448
 20
144.6803650769729
 30
0.0
 11
130.924382297205
 21
144.6748936965015
 31
0.0
  0
LINE
  5
556
330
E3
100
AcDbEntity
  8
0
  6
Continuous
100
AcDbLine
 10
130.924382297205
 20
144.6748936965015
 30
0.0
 11
130.9149395238593
 21
144.6694204424158
 31
0.0
  0
LINE
  5
557
330
E3
100
AcDbEntity
  8
0
  6
Continuous
100
AcDbLine
 10
130.9149395238593
 20
144.6694204424158
 30
0.0
 11
130.9018236434043
 21
144.6639513168308
 31
0.0
  0
LINE
  5
558
330
E3
100
AcDbEntity
  8
0
  6
Continuous
100
AcDbLine
 10
130.9018236434043
 20
144.6639513168308
 30
0.0
 11
130.8851310550263
 21
144.6584783370348
 31
0.0
  0
LINE
  5
559
330
E3
100
AcDbEntity
  8
0
  6
Continuous
100
AcDbLine
 10
130.8851310550263
 20
144.6584783370348
 30
0.0
 11
130.8649928019035
 21
144.6530092114498
 31
0.0
  0
LINE
  5
55A
330
E3
100
AcDbEntity
  8
0
  6
Continuous
100
AcDbLine
 10
130.8649928019035
 20
144.6530092114498
 30
0.0
 11
130.8415553440585
 21
144.6475362316538
 31
0.0
  0
LINE
  5
55B
330
E3
100
AcDbEntity
  8
0
  6
Continuous
100
AcDbLine
 10
130.8415553440585
 20
144.6475362316538
 30
0.0
 11
130.8149998294142
 21
144.6420671060688
 31
0.0
  0
LINE
  5
55C
330
E3
100
AcDbEntity
  8
0
  6
Continuous
100
AcDbLine
 10
130.8149998294142
 20
144.6420671060688
 30
0.0
 11
130.7855305311602
 21
144.6365941262727
 31
0.0
  0
LINE
  5
55D
330
E3
100
AcDbEntity
  8
0
  6
Continuous
100
AcDbLine
 10
130.7855305311602
 20
144.6365941262727
 30
0.0
 11
130.7533709935416
 21
144.6311211464767
 31
0.0
  0
LINE
  5
55E
330
E3
100
AcDbEntity
  8
0
  6
Continuous
100
AcDbLine
 10
130.7533709935416
 20
144.6311211464767
 30
0.0
 11
130.7187678860704
 21
144.6256520208917
 31
0.0
  0
LINE
  5
55F
330
E3
100
AcDbEntity
  8
0
  6
Continuous
100
AcDbLine
 10
130.7187678860704
 20
144.6256520208917
 30
0.0
 11
130.681979440892
 21
144.6201790410957
 31
0.0
  0
LINE
  5
560
330
E3
100
AcDbEntity
  8
0
  6
Continuous
100
AcDbLine
 10
130.681979440892
 20
144.6201790410957
 30
0.0
 11
130.6432870154182
 21
144.6147099155107
 31
0.0
  0
LINE
  5
561
330
E3
100
AcDbEntity
  8
0
  6
Continuous
100
AcDbLine
 10
130.6432870154182
 20
144.6147099155107
 30
0.0
 11
130.6029873839058
 21
144.6092369357147
 31
0.0
  0
LINE
  5
562
330
E3
100
AcDbEntity
  8
0
  6
Continuous
100
AcDbLine
 10
130.6029873839058
 20
144.6092369357147
 30
0.0
 11
130.5613888832445
 21
144.6037639559186
 31
0.0
  0
LINE
  5
563
330
E3
100
AcDbEntity
  8
0
  6
Continuous
100
AcDbLine
 10
130.5613888832445
 20
144.6037639559186
 30
0.0
 11
130.5188037045356
 21
144.5982948303337
 31
0.0
  0
LINE
  5
564
330
E3
100
AcDbEntity
  8
0
  6
Continuous
100
AcDbLine
 10
130.5188037045356
 20
144.5982948303337
 30
0.0
 11
130.4755556015133
 21
144.5928218505376
 31
0.0
  0
LINE
  5
565
330
E3
100
AcDbEntity
  8
0
  6
Continuous
100
AcDbLine
 10
130.4755556015133
 20
144.5928218505376
 30
0.0
 11
130.4319798905454
 21
144.5873527249527
 31
0.0
  0
LINE
  5
566
330
E3
100
AcDbEntity
  8
0
  6
Continuous
100
AcDbLine
 10
130.4319798905454
 20
144.5873527249527
 30
0.0
 11
130.3884003253665
 21
144.5818797451566
 31
0.0
  0
LINE
  5
567
330
E3
100
AcDbEntity
  8
0
  6
Continuous
100
AcDbLine
 10
130.3884003253665
 20
144.5818797451566
 30
0.0
 11
130.3451560765553
 21
144.5764106195716
 31
0.0
  0
LINE
  5
568
330
E3
100
AcDbEntity
  8
0
  6
Continuous
100
AcDbLine
 10
130.3451560765553
 20
144.5764106195716
 30
0.0
 11
130.3025670436352
 21
144.5709376397756
 31
0.0
  0
LINE
  5
569
330
E3
100
AcDbEntity
  8
0
  6
Continuous
100
AcDbLine
 10
130.3025670436352
 20
144.5709376397756
 30
0.0
 11
130.260968542974
 21
144.5654646599795
 31
0.0
  0
LINE
  5
56A
330
E3
100
AcDbEntity
  8
0
  6
Continuous
100
AcDbLine
 10
130.260968542974
 20
144.5654646599795
 30
0.0
 11
130.2206689114616
 21
144.5599955343946
 31
0.0
  0
LINE
  5
56B
330
E3
100
AcDbEntity
  8
0
  6
Continuous
100
AcDbLine
 10
130.2206689114616
 20
144.5599955343946
 30
0.0
 11
130.181980340199
 21
144.5545225545985
 31
0.0
  0
LINE
  5
56C
330
E3
100
AcDbEntity
  8
0
  6
Continuous
100
AcDbLine
 10
130.181980340199
 20
144.5545225545985
 30
0.0
 11
130.1451918950205
 21
144.5490534290136
 31
0.0
  0
LINE
  5
56D
330
E3
100
AcDbEntity
  8
0
  6
Continuous
100
AcDbLine
 10
130.1451918950205
 20
144.5490534290136
 30
0.0
 11
130.1105849333382
 21
144.5435804492175
 31
0.0
  0
LINE
  5
56E
330
E3
100
AcDbEntity
  8
0
  6
Continuous
100
AcDbLine
 10
130.1105849333382
 20
144.5435804492175
 30
0.0
 11
130.0784253957196
 21
144.5381074694214
 31
0.0
  0
LINE
  5
56F
330
E3
100
AcDbEntity
  8
0
  6
Continuous
100
AcDbLine
 10
130.0784253957196
 20
144.5381074694214
 30
0.0
 11
130.0489560974656
 21
144.5326383438365
 31
0.0
  0
LINE
  5
570
330
E3
100
AcDbEntity
  8
0
  6
Continuous
100
AcDbLine
 10
130.0489560974656
 20
144.5326383438365
 30
0.0
 11
130.0224005828213
 21
144.5271653640404
 31
0.0
  0
LINE
  5
571
330
E3
100
AcDbEntity
  8
0
  6
Continuous
100
AcDbLine
 10
130.0224005828213
 20
144.5271653640404
 30
0.0
 11
129.9989669791875
 21
144.5216962384555
 31
0.0
  0
LINE
  5
572
330
E3
100
AcDbEntity
  8
0
  6
Continuous
100
AcDbLine
 10
129.9989669791875
 20
144.5216962384555
 30
0.0
 11
129.9788248718535
 21
144.5162232586594
 31
0.0
  0
LINE
  5
573
330
E3
100
AcDbEntity
  8
0
  6
Continuous
100
AcDbLine
 10
129.9788248718535
 20
144.5162232586594
 30
0.0
 11
129.9621322834755
 21
144.5107541330745
 31
0.0
  0
LINE
  5
574
330
E3
100
AcDbEntity
  8
0
  6
Continuous
100
AcDbLine
 10
129.9621322834755
 20
144.5107541330745
 30
0.0
 11
129.9490164030205
 21
144.5052811532784
 31
0.0
  0
LINE
  5
575
330
E3
100
AcDbEntity
  8
0
  6
Continuous
100
AcDbLine
 10
129.9490164030205
 20
144.5052811532784
 30
0.0
 11
129.9395735857667
 21
144.4998081734823
 31
0.0
  0
LINE
  5
576
330
E3
100
AcDbEntity
  8
0
  6
Continuous
100
AcDbLine
 10
129.9395735857667
 20
144.4998081734823
 30
0.0
 11
129.933881071653
 21
144.494338140946
 31
0.0
  0
LINE
  5
577
330
E3
100
AcDbEntity
  8
0
  6
Continuous
100
AcDbLine
 10
129.933881071653
 20
144.494338140946
 30
0.0
 11
129.9319784206989
 21
144.4888667604746
 31
0.0
  0
LINE
  5
578
330
E3
100
AcDbEntity
  8
0
  6
Continuous
100
AcDbLine
 10
130.9319784206989
 20
144.2918970635049
 30
0.0
 11
130.9300757697448
 21
144.2864256830335
 31
0.0
  0
LINE
  5
579
330
E3
100
AcDbEntity
  8
0
  6
Continuous
100
AcDbLine
 10
130.9300757697448
 20
144.2864256830335
 30
0.0
 11
130.924382297205
 21
144.2809543025621
 31
0.0
  0
LINE
  5
57A
330
E3
100
AcDbEntity
  8
0
  6
Continuous
100
AcDbLine
 10
130.924382297205
 20
144.2809543025621
 30
0.0
 11
130.9149395238593
 21
144.2754815234328
 31
0.0
  0
LINE
  5
57B
330
E3
100
AcDbEntity
  8
0
  6
Continuous
100
AcDbLine
 10
130.9149395238593
 20
144.2754815234328
 30
0.0
 11
130.9018236434043
 21
144.2700123978478
 31
0.0
  0
LINE
  5
57C
330
E3
100
AcDbEntity
  8
0
  6
Continuous
100
AcDbLine
 10
130.9018236434043
 20
144.2700123978478
 30
0.0
 11
130.8851310550263
 21
144.2645394180518
 31
0.0
  0
LINE
  5
57D
330
E3
100
AcDbEntity
  8
0
  6
Continuous
100
AcDbLine
 10
130.8851310550263
 20
144.2645394180518
 30
0.0
 11
130.8649928019035
 21
144.2590702924668
 31
0.0
  0
LINE
  5
57E
330
E3
100
AcDbEntity
  8
0
  6
Continuous
100
AcDbLine
 10
130.8649928019035
 20
144.2590702924668
 30
0.0
 11
130.8415553440585
 21
144.2535973126707
 31
0.0
  0
LINE
  5
57F
330
E3
100
AcDbEntity
  8
0
  6
Continuous
100
AcDbLine
 10
130.8415553440585
 20
144.2535973126707
 30
0.0
 11
130.8149998294142
 21
144.2481243328747
 31
0.0
  0
LINE
  5
580
330
E3
100
AcDbEntity
  8
0
  6
Continuous
100
AcDbLine
 10
130.8149998294142
 20
144.2481243328747
 30
0.0
 11
130.7855305311602
 21
144.2426552072897
 31
0.0
  0
LINE
  5
581
330
E3
100
AcDbEntity
  8
0
  6
Continuous
100
AcDbLine
 10
130.7855305311602
 20
144.2426552072897
 30
0.0
 11
130.7533709935416
 21
144.2371822274937
 31
0.0
  0
LINE
  5
582
330
E3
100
AcDbEntity
  8
0
  6
Continuous
100
AcDbLine
 10
130.7533709935416
 20
144.2371822274937
 30
0.0
 11
130.7187678860704
 21
144.2317131019088
 31
0.0
  0
LINE
  5
583
330
E3
100
AcDbEntity
  8
0
  6
Continuous
100
AcDbLine
 10
130.7187678860704
 20
144.2317131019088
 30
0.0
 11
130.681979440892
 21
144.2262401221127
 31
0.0
  0
LINE
  5
584
330
E3
100
AcDbEntity
  8
0
  6
Continuous
100
AcDbLine
 10
130.681979440892
 20
144.2262401221127
 30
0.0
 11
130.6432870154182
 21
144.2207709965277
 31
0.0
  0
LINE
  5
585
330
E3
100
AcDbEntity
  8
0
  6
Continuous
100
AcDbLine
 10
130.6432870154182
 20
144.2207709965277
 30
0.0
 11
130.6029873839058
 21
144.2152980167317
 31
0.0
  0
LINE
  5
586
330
E3
100
AcDbEntity
  8
0
  6
Continuous
100
AcDbLine
 10
130.6029873839058
 20
144.2152980167317
 30
0.0
 11
130.5613888832445
 21
144.2098250369356
 31
0.0
  0
LINE
  5
587
330
E3
100
AcDbEntity
  8
0
  6
Continuous
100
AcDbLine
 10
130.5613888832445
 20
144.2098250369356
 30
0.0
 11
130.5188037045356
 21
144.2043559113507
 31
0.0
  0
LINE
  5
588
330
E3
100
AcDbEntity
  8
0
  6
Continuous
100
AcDbLine
 10
130.5188037045356
 20
144.2043559113507
 30
0.0
 11
130.4755556015133
 21
144.1988829315546
 31
0.0
  0
LINE
  5
589
330
E3
100
AcDbEntity
  8
0
  6
Continuous
100
AcDbLine
 10
130.4755556015133
 20
144.1988829315546
 30
0.0
 11
130.4319798905454
 21
144.1934138059696
 31
0.0
  0
LINE
  5
58A
330
E3
100
AcDbEntity
  8
0
  6
Continuous
100
AcDbLine
 10
130.4319798905454
 20
144.1934138059696
 30
0.0
 11
130.3884003253665
 21
144.1879408261736
 31
0.0
  0
LINE
  5
58B
330
E3
100
AcDbEntity
  8
0
  6
Continuous
100
AcDbLine
 10
130.3884003253665
 20
144.1879408261736
 30
0.0
 11
130.3451560765553
 21
144.1824678463775
 31
0.0
  0
LINE
  5
58C
330
E3
100
AcDbEntity
  8
0
  6
Continuous
100
AcDbLine
 10
130.3451560765553
 20
144.1824678463775
 30
0.0
 11
130.3025670436352
 21
144.1769987207926
 31
0.0
  0
LINE
  5
58D
330
E3
100
AcDbEntity
  8
0
  6
Continuous
100
AcDbLine
 10
130.3025670436352
 20
144.1769987207926
 30
0.0
 11
130.260968542974
 21
144.1715257409965
 31
0.0
  0
LINE
  5
58E
330
E3
100
AcDbEntity
  8
0
  6
Continuous
100
AcDbLine
 10
130.260968542974
 20
144.1715257409965
 30
0.0
 11
130.2206689114616
 21
144.1660566154116
 31
0.0
  0
LINE
  5
58F
330
E3
100
AcDbEntity
  8
0
  6
Continuous
100
AcDbLine
 10
130.2206689114616
 20
144.1660566154116
 30
0.0
 11
130.181980340199
 21
144.1605836356155
 31
0.0
  0
LINE
  5
590
330
E3
100
AcDbEntity
  8
0
  6
Continuous
100
AcDbLine
 10
130.181980340199
 20
144.1605836356155
 30
0.0
 11
130.1451918950205
 21
144.1551106558194
 31
0.0
  0
LINE
  5
591
330
E3
100
AcDbEntity
  8
0
  6
Continuous
100
AcDbLine
 10
130.1451918950205
 20
144.1551106558194
 30
0.0
 11
130.1105849333382
 21
144.1496415302345
 31
0.0
  0
LINE
  5
592
330
E3
100
AcDbEntity
  8
0
  6
Continuous
100
AcDbLine
 10
130.1105849333382
 20
144.1496415302345
 30
0.0
 11
130.0784253957196
 21
144.1441685504384
 31
0.0
  0
LINE
  5
593
330
E3
100
AcDbEntity
  8
0
  6
Continuous
100
AcDbLine
 10
130.0784253957196
 20
144.1441685504384
 30
0.0
 11
130.0489560974656
 21
144.1386994248535
 31
0.0
  0
LINE
  5
594
330
E3
100
AcDbEntity
  8
0
  6
Continuous
100
AcDbLine
 10
130.0489560974656
 20
144.1386994248535
 30
0.0
 11
130.0224005828213
 21
144.1332264450574
 31
0.0
  0
LINE
  5
595
330
E3
100
AcDbEntity
  8
0
  6
Continuous
100
AcDbLine
 10
130.0224005828213
 20
144.1332264450574
 30
0.0
 11
129.9989669791875
 21
144.1277573194725
 31
0.0
  0
LINE
  5
596
330
E3
100
AcDbEntity
  8
0
  6
Continuous
100
AcDbLine
 10
129.9989669791875
 20
144.1277573194725
 30
0.0
 11
129.9788248718535
 21
144.1222843396764
 31
0.0
  0
LINE
  5
597
330
E3
100
AcDbEntity
  8
0
  6
Continuous
100
AcDbLine
 10
129.9788248718535
 20
144.1222843396764
 30
0.0
 11
129.9621322834755
 21
144.1168113598804
 31
0.0
  0
LINE
  5
598
330
E3
100
AcDbEntity
  8
0
  6
Continuous
100
AcDbLine
 10
129.9621322834755
 20
144.1168113598804
 30
0.0
 11
129.9490164030205
 21
144.1113422342954
 31
0.0
  0
LINE
  5
599
330
E3
100
AcDbEntity
  8
0
  6
Continuous
100
AcDbLine
 10
129.9490164030205
 20
144.1113422342954
 30
0.0
 11
129.9395735857667
 21
144.1058692544993
 31
0.0
  0
LINE
  5
59A
330
E3
100
AcDbEntity
  8
0
  6
Continuous
100
AcDbLine
 10
129.9395735857667
 20
144.1058692544993
 30
0.0
 11
129.933881071653
 21
144.1003987470066
 31
0.0
  0
LINE
  5
59B
330
E3
100
AcDbEntity
  8
0
  6
Continuous
100
AcDbLine
 10
129.933881071653
 20
144.1003987470066
 30
0.0
 11
129.9319784206989
 21
144.0949273665352
 31
0.0
  0
LINE
  5
59C
330
E3
100
AcDbEntity
  8
0
  6
Continuous
100
AcDbLine
 10
130.9319784206989
 20
143.8979576695655
 30
0.0
 11
130.9300757697448
 21
143.8924862890941
 31
0.0
  0
LINE
  5
59D
330
E3
100
AcDbEntity
  8
0
  6
Continuous
100
AcDbLine
 10
130.9300757697448
 20
143.8924862890941
 30
0.0
 11
130.924382297205
 21
143.8870149086227
 31
0.0
  0
LINE
  5
59E
330
E3
100
AcDbEntity
  8
0
  6
Continuous
100
AcDbLine
 10
130.924382297205
 20
143.8870149086227
 30
0.0
 11
130.9149395238593
 21
143.8815426044497
 31
0.0
  0
LINE
  5
59F
330
E3
100
AcDbEntity
  8
0
  6
Continuous
100
AcDbLine
 10
130.9149395238593
 20
143.8815426044497
 30
0.0
 11
130.9018236434043
 21
143.8760734788648
 31
0.0
  0
LINE
  5
5A0
330
E3
100
AcDbEntity
  8
0
  6
Continuous
100
AcDbLine
 10
130.9018236434043
 20
143.8760734788648
 30
0.0
 11
130.8851310550263
 21
143.8706004990688
 31
0.0
  0
LINE
  5
5A1
330
E3
100
AcDbEntity
  8
0
  6
Continuous
100
AcDbLine
 10
130.8851310550263
 20
143.8706004990688
 30
0.0
 11
130.8649928019035
 21
143.8651275192727
 31
0.0
  0
LINE
  5
5A2
330
E3
100
AcDbEntity
  8
0
  6
Continuous
100
AcDbLine
 10
130.8649928019035
 20
143.8651275192727
 30
0.0
 11
130.8415553440585
 21
143.8596583936877
 31
0.0
  0
LINE
  5
5A3
330
E3
100
AcDbEntity
  8
0
  6
Continuous
100
AcDbLine
 10
130.8415553440585
 20
143.8596583936877
 30
0.0
 11
130.8149998294142
 21
143.8541854138917
 31
0.0
  0
LINE
  5
5A4
330
E3
100
AcDbEntity
  8
0
  6
Continuous
100
AcDbLine
 10
130.8149998294142
 20
143.8541854138917
 30
0.0
 11
130.7855305311602
 21
143.8487162883067
 31
0.0
  0
LINE
  5
5A5
330
E3
100
AcDbEntity
  8
0
  6
Continuous
100
AcDbLine
 10
130.7855305311602
 20
143.8487162883067
 30
0.0
 11
130.7533709935416
 21
143.8432433085107
 31
0.0
  0
LINE
  5
5A6
330
E3
100
AcDbEntity
  8
0
  6
Continuous
100
AcDbLine
 10
130.7533709935416
 20
143.8432433085107
 30
0.0
 11
130.7187678860704
 21
143.8377741829257
 31
0.0
  0
LINE
  5
5A7
330
E3
100
AcDbEntity
  8
0
  6
Continuous
100
AcDbLine
 10
130.7187678860704
 20
143.8377741829257
 30
0.0
 11
130.681979440892
 21
143.8323012031297
 31
0.0
  0
LINE
  5
5A8
330
E3
100
AcDbEntity
  8
0
  6
Continuous
100
AcDbLine
 10
130.681979440892
 20
143.8323012031297
 30
0.0
 11
130.6432870154182
 21
143.8268282233336
 31
0.0
  0
LINE
  5
5A9
330
E3
100
AcDbEntity
  8
0
  6
Continuous
100
AcDbLine
 10
130.6432870154182
 20
143.8268282233336
 30
0.0
 11
130.6029873839058
 21
143.8213590977487
 31
0.0
  0
LINE
  5
5AA
330
E3
100
AcDbEntity
  8
0
  6
Continuous
100
AcDbLine
 10
130.6029873839058
 20
143.8213590977487
 30
0.0
 11
130.5613888832445
 21
143.8158861179526
 31
0.0
  0
LINE
  5
5AB
330
E3
100
AcDbEntity
  8
0
  6
Continuous
100
AcDbLine
 10
130.5613888832445
 20
143.8158861179526
 30
0.0
 11
130.5188037045356
 21
143.8104169923676
 31
0.0
  0
LINE
  5
5AC
330
E3
100
AcDbEntity
  8
0
  6
Continuous
100
AcDbLine
 10
130.5188037045356
 20
143.8104169923676
 30
0.0
 11
130.4755556015133
 21
143.8049440125716
 31
0.0
  0
LINE
  5
5AD
330
E3
100
AcDbEntity
  8
0
  6
Continuous
100
AcDbLine
 10
130.4755556015133
 20
143.8049440125716
 30
0.0
 11
130.4319798905454
 21
143.7994710327755
 31
0.0
  0
LINE
  5
5AE
330
E3
100
AcDbEntity
  8
0
  6
Continuous
100
AcDbLine
 10
130.4319798905454
 20
143.7994710327755
 30
0.0
 11
130.3884003253665
 21
143.7940019071906
 31
0.0
  0
LINE
  5
5AF
330
E3
100
AcDbEntity
  8
0
  6
Continuous
100
AcDbLine
 10
130.3884003253665
 20
143.7940019071906
 30
0.0
 11
130.3451560765553
 21
143.7885289273945
 31
0.0
  0
LINE
  5
5B0
330
E3
100
AcDbEntity
  8
0
  6
Continuous
100
AcDbLine
 10
130.3451560765553
 20
143.7885289273945
 30
0.0
 11
130.3025670436352
 21
143.7830598018095
 31
0.0
  0
LINE
  5
5B1
330
E3
100
AcDbEntity
  8
0
  6
Continuous
100
AcDbLine
 10
130.3025670436352
 20
143.7830598018095
 30
0.0
 11
130.260968542974
 21
143.7775868220135
 31
0.0
  0
LINE
  5
5B2
330
E3
100
AcDbEntity
  8
0
  6
Continuous
100
AcDbLine
 10
130.260968542974
 20
143.7775868220135
 30
0.0
 11
130.2206689114616
 21
143.7721176964286
 31
0.0
  0
LINE
  5
5B3
330
E3
100
AcDbEntity
  8
0
  6
Continuous
100
AcDbLine
 10
130.2206689114616
 20
143.7721176964286
 30
0.0
 11
130.181980340199
 21
143.7666447166325
 31
0.0
  0
LINE
  5
5B4
330
E3
100
AcDbEntity
  8
0
  6
Continuous
100
AcDbLine
 10
130.181980340199
 20
143.7666447166325
 30
0.0
 11
130.1451918950205
 21
143.7611717368364
 31
0.0
  0
LINE
  5
5B5
330
E3
100
AcDbEntity
  8
0
  6
Continuous
100
AcDbLine
 10
130.1451918950205
 20
143.7611717368364
 30
0.0
 11
130.1105849333382
 21
143.7557026112515
 31
0.0
  0
LINE
  5
5B6
330
E3
100
AcDbEntity
  8
0
  6
Continuous
100
AcDbLine
 10
130.1105849333382
 20
143.7557026112515
 30
0.0
 11
130.0784253957196
 21
143.7502296314554
 31
0.0
  0
LINE
  5
5B7
330
E3
100
AcDbEntity
  8
0
  6
Continuous
100
AcDbLine
 10
130.0784253957196
 20
143.7502296314554
 30
0.0
 11
130.0489560974656
 21
143.7447605058705
 31
0.0
  0
LINE
  5
5B8
330
E3
100
AcDbEntity
  8
0
  6
Continuous
100
AcDbLine
 10
130.0489560974656
 20
143.7447605058705
 30
0.0
 11
130.0224005828213
 21
143.7392875260744
 31
0.0
  0
LINE
  5
5B9
330
E3
100
AcDbEntity
  8
0
  6
Continuous
100
AcDbLine
 10
130.0224005828213
 20
143.7392875260744
 30
0.0
 11
129.9989669791875
 21
143.7338145462784
 31
0.0
  0
LINE
  5
5BA
330
E3
100
AcDbEntity
  8
0
  6
Continuous
100
AcDbLine
 10
129.9989669791875
 20
143.7338145462784
 30
0.0
 11
129.9788248718535
 21
143.7283454206934
 31
0.0
  0
LINE
  5
5BB
330
E3
100
AcDbEntity
  8
0
  6
Continuous
100
AcDbLine
 10
129.9788248718535
 20
143.7283454206934
 30
0.0
 11
129.9621322834755
 21
143.7228724408973
 31
0.0
  0
LINE
  5
5BC
330
E3
100
AcDbEntity
  8
0
  6
Continuous
100
AcDbLine
 10
129.9621322834755
 20
143.7228724408973
 30
0.0
 11
129.9490164030205
 21
143.7174033153124
 31
0.0
  0
LINE
  5
5BD
330
E3
100
AcDbEntity
  8
0
  6
Continuous
100
AcDbLine
 10
129.9490164030205
 20
143.7174033153124
 30
0.0
 11
129.9395735857667
 21
143.7119303355163
 31
0.0
  0
LINE
  5
5BE
330
E3
100
AcDbEntity
  8
0
  6
Continuous
100
AcDbLine
 10
129.9395735857667
 20
143.7119303355163
 30
0.0
 11
129.933881071653
 21
143.7064593530671
 31
0.0
  0
LINE
  5
5BF
330
E3
100
AcDbEntity
  8
0
  6
Continuous
100
AcDbLine
 10
129.933881071653
 20
143.7064593530671
 30
0.0
 11
129.9319784206989
 21
143.7009879725958
 31
0.0
  0
LINE
  5
5C0
330
E3
100
AcDbEntity
  8
0
  6
Continuous
100
AcDbLine
 10
130.9319784206989
 20
143.5040182756261
 30
0.0
 11
130.9300757697448
 21
143.4985468951547
 31
0.0
  0
LINE
  5
5C1
330
E3
100
AcDbEntity
  8
0
  6
Continuous
100
AcDbLine
 10
130.9300757697448
 20
143.4985468951547
 30
0.0
 11
130.924382297205
 21
143.4930755146833
 31
0.0
  0
LINE
  5
5C2
330
E3
100
AcDbEntity
  8
0
  6
Continuous
100
AcDbLine
 10
130.924382297205
 20
143.4930755146833
 30
0.0
 11
130.9149395238593
 21
143.4876036854668
 31
0.0
  0
LINE
  5
5C3
330
E3
100
AcDbEntity
  8
0
  6
Continuous
100
AcDbLine
 10
130.9149395238593
 20
143.4876036854668
 30
0.0
 11
130.9018236434043
 21
143.4821345598818
 31
0.0
  0
LINE
  5
5C4
330
E3
100
AcDbEntity
  8
0
  6
Continuous
100
AcDbLine
 10
130.9018236434043
 20
143.4821345598818
 30
0.0
 11
130.8851310550263
 21
143.4766615800857
 31
0.0
  0
LINE
  5
5C5
330
E3
100
AcDbEntity
  8
0
  6
Continuous
100
AcDbLine
 10
130.8851310550263
 20
143.4766615800857
 30
0.0
 11
130.8649928019035
 21
143.4711886002897
 31
0.0
  0
LINE
  5
5C6
330
E3
100
AcDbEntity
  8
0
  6
Continuous
100
AcDbLine
 10
130.8649928019035
 20
143.4711886002897
 30
0.0
 11
130.8415553440585
 21
143.4657194747047
 31
0.0
  0
LINE
  5
5C7
330
E3
100
AcDbEntity
  8
0
  6
Continuous
100
AcDbLine
 10
130.8415553440585
 20
143.4657194747047
 30
0.0
 11
130.8149998294142
 21
143.4602464949087
 31
0.0
  0
LINE
  5
5C8
330
E3
100
AcDbEntity
  8
0
  6
Continuous
100
AcDbLine
 10
130.8149998294142
 20
143.4602464949087
 30
0.0
 11
130.7855305311602
 21
143.4547773693237
 31
0.0
  0
LINE
  5
5C9
330
E3
100
AcDbEntity
  8
0
  6
Continuous
100
AcDbLine
 10
130.7855305311602
 20
143.4547773693237
 30
0.0
 11
130.7533709935416
 21
143.4493043895276
 31
0.0
  0
LINE
  5
5CA
330
E3
100
AcDbEntity
  8
0
  6
Continuous
100
AcDbLine
 10
130.7533709935416
 20
143.4493043895276
 30
0.0
 11
130.7187678860704
 21
143.4438314097316
 31
0.0
  0
LINE
  5
5CB
330
E3
100
AcDbEntity
  8
0
  6
Continuous
100
AcDbLine
 10
130.7187678860704
 20
143.4438314097316
 30
0.0
 11
130.681979440892
 21
143.4383622841466
 31
0.0
  0
LINE
  5
5CC
330
E3
100
AcDbEntity
  8
0
  6
Continuous
100
AcDbLine
 10
130.681979440892
 20
143.4383622841466
 30
0.0
 11
130.6432870154182
 21
143.4328893043506
 31
0.0
  0
LINE
  5
5CD
330
E3
100
AcDbEntity
  8
0
  6
Continuous
100
AcDbLine
 10
130.6432870154182
 20
143.4328893043506
 30
0.0
 11
130.6029873839058
 21
143.4274201787656
 31
0.0
  0
LINE
  5
5CE
330
E3
100
AcDbEntity
  8
0
  6
Continuous
100
AcDbLine
 10
130.6029873839058
 20
143.4274201787656
 30
0.0
 11
130.5613888832445
 21
143.4219471989696
 31
0.0
  0
LINE
  5
5CF
330
E3
100
AcDbEntity
  8
0
  6
Continuous
100
AcDbLine
 10
130.5613888832445
 20
143.4219471989696
 30
0.0
 11
130.5188037045356
 21
143.4164780733846
 31
0.0
  0
LINE
  5
5D0
330
E3
100
AcDbEntity
  8
0
  6
Continuous
100
AcDbLine
 10
130.5188037045356
 20
143.4164780733846
 30
0.0
 11
130.4755556015133
 21
143.4110050935886
 31
0.0
  0
LINE
  5
5D1
330
E3
100
AcDbEntity
  8
0
  6
Continuous
100
AcDbLine
 10
130.4755556015133
 20
143.4110050935886
 30
0.0
 11
130.4319798905454
 21
143.4055321137925
 31
0.0
  0
LINE
  5
5D2
330
E3
100
AcDbEntity
  8
0
  6
Continuous
100
AcDbLine
 10
130.4319798905454
 20
143.4055321137925
 30
0.0
 11
130.3884003253665
 21
143.4000629882076
 31
0.0
  0
LINE
  5
5D3
330
E3
100
AcDbEntity
  8
0
  6
Continuous
100
AcDbLine
 10
130.3884003253665
 20
143.4000629882076
 30
0.0
 11
130.3451560765553
 21
143.3945900084115
 31
0.0
  0
LINE
  5
5D4
330
E3
100
AcDbEntity
  8
0
  6
Continuous
100
AcDbLine
 10
130.3451560765553
 20
143.3945900084115
 30
0.0
 11
130.3025670436352
 21
143.3891208828265
 31
0.0
  0
LINE
  5
5D5
330
E3
100
AcDbEntity
  8
0
  6
Continuous
100
AcDbLine
 10
130.3025670436352
 20
143.3891208828265
 30
0.0
 11
130.260968542974
 21
143.3836479030305
 31
0.0
  0
LINE
  5
5D6
330
E3
100
AcDbEntity
  8
0
  6
Continuous
100
AcDbLine
 10
130.260968542974
 20
143.3836479030305
 30
0.0
 11
130.2206689114616
 21
143.3781749232344
 31
0.0
  0
LINE
  5
5D7
330
E3
100
AcDbEntity
  8
0
  6
Continuous
100
AcDbLine
 10
130.2206689114616
 20
143.3781749232344
 30
0.0
 11
130.181980340199
 21
143.3727057976495
 31
0.0
  0
LINE
  5
5D8
330
E3
100
AcDbEntity
  8
0
  6
Continuous
100
AcDbLine
 10
130.181980340199
 20
143.3727057976495
 30
0.0
 11
130.1451918950205
 21
143.3672328178534
 31
0.0
  0
LINE
  5
5D9
330
E3
100
AcDbEntity
  8
0
  6
Continuous
100
AcDbLine
 10
130.1451918950205
 20
143.3672328178534
 30
0.0
 11
130.1105849333382
 21
143.3617636922685
 31
0.0
  0
LINE
  5
5DA
330
E3
100
AcDbEntity
  8
0
  6
Continuous
100
AcDbLine
 10
130.1105849333382
 20
143.3617636922685
 30
0.0
 11
130.0784253957196
 21
143.3562907124724
 31
0.0
  0
LINE
  5
5DB
330
E3
100
AcDbEntity
  8
0
  6
Continuous
100
AcDbLine
 10
130.0784253957196
 20
143.3562907124724
 30
0.0
 11
130.0489560974656
 21
143.3508177326763
 31
0.0
  0
LINE
  5
5DC
330
E3
100
AcDbEntity
  8
0
  6
Continuous
100
AcDbLine
 10
130.0489560974656
 20
143.3508177326763
 30
0.0
 11
130.0224005828213
 21
143.3453486070914
 31
0.0
  0
LINE
  5
5DD
330
E3
100
AcDbEntity
  8
0
  6
Continuous
100
AcDbLine
 10
130.0224005828213
 20
143.3453486070914
 30
0.0
 11
129.9989669791875
 21
143.3398756272953
 31
0.0
  0
LINE
  5
5DE
330
E3
100
AcDbEntity
  8
0
  6
Continuous
100
AcDbLine
 10
129.9989669791875
 20
143.3398756272953
 30
0.0
 11
129.9788248718535
 21
143.3344065017104
 31
0.0
  0
LINE
  5
5DF
330
E3
100
AcDbEntity
  8
0
  6
Continuous
100
AcDbLine
 10
129.9788248718535
 20
143.3344065017104
 30
0.0
 11
129.9621322834755
 21
143.3289335219143
 31
0.0
  0
LINE
  5
5E0
330
E3
100
AcDbEntity
  8
0
  6
Continuous
100
AcDbLine
 10
129.9621322834755
 20
143.3289335219143
 30
0.0
 11
129.9490164030205
 21
143.3234643963294
 31
0.0
  0
LINE
  5
5E1
330
E3
100
AcDbEntity
  8
0
  6
Continuous
100
AcDbLine
 10
129.9490164030205
 20
143.3234643963294
 30
0.0
 11
129.9395735857667
 21
143.3179914165333
 31
0.0
  0
LINE
  5
5E2
330
E3
100
AcDbEntity
  8
0
  6
Continuous
100
AcDbLine
 10
129.9395735857667
 20
143.3179914165333
 30
0.0
 11
129.933881071653
 21
143.3125199591277
 31
0.0
  0
LINE
  5
5E3
330
E3
100
AcDbEntity
  8
0
  6
Continuous
100
AcDbLine
 10
129.933881071653
 20
143.3125199591277
 30
0.0
 11
129.9319784206989
 21
143.3070485786564
 31
0.0
  0
LINE
  5
5E4
330
E3
100
AcDbEntity
  8
0
  6
Continuous
100
AcDbLine
 10
130.9319784206989
 20
143.1100788816867
 30
0.0
 11
130.9300757697448
 21
143.1046075012153
 31
0.0
  0
LINE
  5
5E5
330
E3
100
AcDbEntity
  8
0
  6
Continuous
100
AcDbLine
 10
130.9300757697448
 20
143.1046075012153
 30
0.0
 11
130.924382297205
 21
143.0991361207439
 31
0.0
  0
LINE
  5
5E6
330
E3
100
AcDbEntity
  8
0
  6
Continuous
100
AcDbLine
 10
130.924382297205
 20
143.0991361207439
 30
0.0
 11
130.9149395238593
 21
143.0936647664837
 31
0.0
  0
LINE
  5
5E7
330
E3
100
AcDbEntity
  8
0
  6
Continuous
100
AcDbLine
 10
130.9149395238593
 20
143.0936647664837
 30
0.0
 11
130.9018236434043
 21
143.0881917866877
 31
0.0
  0
LINE
  5
5E8
330
E3
100
AcDbEntity
  8
0
  6
Continuous
100
AcDbLine
 10
130.9018236434043
 20
143.0881917866877
 30
0.0
 11
130.8851310550263
 21
143.0827226611027
 31
0.0
  0
LINE
  5
5E9
330
E3
100
AcDbEntity
  8
0
  6
Continuous
100
AcDbLine
 10
130.8851310550263
 20
143.0827226611027
 30
0.0
 11
130.8649928019035
 21
143.0772496813067
 31
0.0
  0
LINE
  5
5EA
330
E3
100
AcDbEntity
  8
0
  6
Continuous
100
AcDbLine
 10
130.8649928019035
 20
143.0772496813067
 30
0.0
 11
130.8415553440585
 21
143.0717805557217
 31
0.0
  0
LINE
  5
5EB
330
E3
100
AcDbEntity
  8
0
  6
Continuous
100
AcDbLine
 10
130.8415553440585
 20
143.0717805557217
 30
0.0
 11
130.8149998294142
 21
143.0663075759256
 31
0.0
  0
LINE
  5
5EC
330
E3
100
AcDbEntity
  8
0
  6
Continuous
100
AcDbLine
 10
130.8149998294142
 20
143.0663075759256
 30
0.0
 11
130.7855305311602
 21
143.0608345961296
 31
0.0
  0
LINE
  5
5ED
330
E3
100
AcDbEntity
  8
0
  6
Continuous
100
AcDbLine
 10
130.7855305311602
 20
143.0608345961296
 30
0.0
 11
130.7533709935416
 21
143.0553654705446
 31
0.0
  0
LINE
  5
5EE
330
E3
100
AcDbEntity
  8
0
  6
Continuous
100
AcDbLine
 10
130.7533709935416
 20
143.0553654705446
 30
0.0
 11
130.7187678860704
 21
143.0498924907486
 31
0.0
  0
LINE
  5
5EF
330
E3
100
AcDbEntity
  8
0
  6
Continuous
100
AcDbLine
 10
130.7187678860704
 20
143.0498924907486
 30
0.0
 11
130.681979440892
 21
143.0444233651637
 31
0.0
  0
LINE
  5
5F0
330
E3
100
AcDbEntity
  8
0
  6
Continuous
100
AcDbLine
 10
130.681979440892
 20
143.0444233651637
 30
0.0
 11
130.6432870154182
 21
143.0389503853676
 31
0.0
  0
LINE
  5
5F1
330
E3
100
AcDbEntity
  8
0
  6
Continuous
100
AcDbLine
 10
130.6432870154182
 20
143.0389503853676
 30
0.0
 11
130.6029873839058
 21
143.0334812597826
 31
0.0
  0
LINE
  5
5F2
330
E3
100
AcDbEntity
  8
0
  6
Continuous
100
AcDbLine
 10
130.6029873839058
 20
143.0334812597826
 30
0.0
 11
130.5613888832445
 21
143.0280082799866
 31
0.0
  0
LINE
  5
5F3
330
E3
100
AcDbEntity
  8
0
  6
Continuous
100
AcDbLine
 10
130.5613888832445
 20
143.0280082799866
 30
0.0
 11
130.5188037045356
 21
143.0225353001905
 31
0.0
  0
LINE
  5
5F4
330
E3
100
AcDbEntity
  8
0
  6
Continuous
100
AcDbLine
 10
130.5188037045356
 20
143.0225353001905
 30
0.0
 11
130.4755556015133
 21
143.0170661746056
 31
0.0
  0
LINE
  5
5F5
330
E3
100
AcDbEntity
  8
0
  6
Continuous
100
AcDbLine
 10
130.4755556015133
 20
143.0170661746056
 30
0.0
 11
130.4319798905454
 21
143.0115931948095
 31
0.0
  0
LINE
  5
5F6
330
E3
100
AcDbEntity
  8
0
  6
Continuous
100
AcDbLine
 10
130.4319798905454
 20
143.0115931948095
 30
0.0
 11
130.3884003253665
 21
143.0061240692245
 31
0.0
  0
LINE
  5
5F7
330
E3
100
AcDbEntity
  8
0
  6
Continuous
100
AcDbLine
 10
130.3884003253665
 20
143.0061240692245
 30
0.0
 11
130.3451560765553
 21
143.0006510894285
 31
0.0
  0
LINE
  5
5F8
330
E3
100
AcDbEntity
  8
0
  6
Continuous
100
AcDbLine
 10
130.3451560765553
 20
143.0006510894285
 30
0.0
 11
130.3025670436352
 21
142.9951781096324
 31
0.0
  0
LINE
  5
5F9
330
E3
100
AcDbEntity
  8
0
  6
Continuous
100
AcDbLine
 10
130.3025670436352
 20
142.9951781096324
 30
0.0
 11
130.260968542974
 21
142.9897089840475
 31
0.0
  0
LINE
  5
5FA
330
E3
100
AcDbEntity
  8
0
  6
Continuous
100
AcDbLine
 10
130.260968542974
 20
142.9897089840475
 30
0.0
 11
130.2206689114616
 21
142.9842360042514
 31
0.0
  0
LINE
  5
5FB
330
E3
100
AcDbEntity
  8
0
  6
Continuous
100
AcDbLine
 10
130.2206689114616
 20
142.9842360042514
 30
0.0
 11
130.181980340199
 21
142.9787668786664
 31
0.0
  0
LINE
  5
5FC
330
E3
100
AcDbEntity
  8
0
  6
Continuous
100
AcDbLine
 10
130.181980340199
 20
142.9787668786664
 30
0.0
 11
130.1451918950205
 21
142.9732938988704
 31
0.0
  0
LINE
  5
5FD
330
E3
100
AcDbEntity
  8
0
  6
Continuous
100
AcDbLine
 10
130.1451918950205
 20
142.9732938988704
 30
0.0
 11
130.1105849333382
 21
142.9678247732855
 31
0.0
  0
LINE
  5
5FE
330
E3
100
AcDbEntity
  8
0
  6
Continuous
100
AcDbLine
 10
130.1105849333382
 20
142.9678247732855
 30
0.0
 11
130.0784253957196
 21
142.9623517934894
 31
0.0
  0
LINE
  5
5FF
330
E3
100
AcDbEntity
  8
0
  6
Continuous
100
AcDbLine
 10
130.0784253957196
 20
142.9623517934894
 30
0.0
 11
130.0489560974656
 21
142.9568788136934
 31
0.0
  0
LINE
  5
600
330
E3
100
AcDbEntity
  8
0
  6
Continuous
100
AcDbLine
 10
130.0489560974656
 20
142.9568788136934
 30
0.0
 11
130.0224005828213
 21
142.9514096881084
 31
0.0
  0
LINE
  5
601
330
E3
100
AcDbEntity
  8
0
  6
Continuous
100
AcDbLine
 10
130.0224005828213
 20
142.9514096881084
 30
0.0
 11
129.9989669791875
 21
142.9459367083123
 31
0.0
  0
LINE
  5
602
330
E3
100
AcDbEntity
  8
0
  6
Continuous
100
AcDbLine
 10
129.9989669791875
 20
142.9459367083123
 30
0.0
 11
129.9788248718535
 21
142.9404675827274
 31
0.0
  0
LINE
  5
603
330
E3
100
AcDbEntity
  8
0
  6
Continuous
100
AcDbLine
 10
129.9788248718535
 20
142.9404675827274
 30
0.0
 11
129.9621322834755
 21
142.9349946029313
 31
0.0
  0
LINE
  5
604
330
E3
100
AcDbEntity
  8
0
  6
Continuous
100
AcDbLine
 10
129.9621322834755
 20
142.9349946029313
 30
0.0
 11
129.9490164030205
 21
142.9295216231352
 31
0.0
  0
LINE
  5
605
330
E3
100
AcDbEntity
  8
0
  6
Continuous
100
AcDbLine
 10
129.9490164030205
 20
142.9295216231352
 30
0.0
 11
129.9395735857667
 21
142.9240524975503
 31
0.0
  0
LINE
  5
606
330
E3
100
AcDbEntity
  8
0
  6
Dashed
100
AcDbLine
 10
129.0936397656401
 20
156.5041765365837
 30
0.0
 11
131.8014504786993
 21
156.5041765365837
 31
0.0
  0
MTEXT
  5
607
330
E3
100
AcDbEntity
  8
Doc_ Floor
  6
Continuous
100
AcDbMText
 10
171.6519902620537
 20
138.8606637955689
 30
0.0
 40
2.5
 41
0.0
 71
     4
 72
     1
  1
{ROOF FIXING}
  7
GENERATED_STYLE_1
 73
     1
 44
1.0
  0
LINE
  5
608
330
E3
100
AcDbEntity
  8
Doc_ Floor
  6
Continuous
100
AcDbLine
 10
144.2346923304115
 20
143.2006268335967
 30
0.0
 11
148.0983925221887
 21
143.1961482402706
 31
0.0
  0
LINE
  5
609
330
E3
100
AcDbEntity
  8
Doc_ Floor
  6
Continuous
100
AcDbLine
 10
144.2346923304115
 20
143.2006268335967
 30
0.0
 11
147.5785134005182
 21
141.2648955471062
 31
0.0
  0
LINE
  5
60A
330
E3
100
AcDbEntity
  8
Doc_ Floor
  6
Continuous
100
AcDbLine
 10
148.0983925221887
 20
143.1961482402706
 30
0.0
 11
147.5785134005182
 21
141.2648955471062
 31
0.0
  0
LWPOLYLINE
  5
60B
330
E3
100
AcDbEntity
  8
Doc_ Floor
  6
Continuous
100
AcDbPolyline
 90
        6
 70
   128
 43
0.0
 10
147.8384525313014
 20
142.2305224262884
 10
154.4146087817108
 20
140.6563536625198
 10
160.1152886303067
 20
139.621146176486
 10
162.7749632742368
 20
139.28313879904
 10
165.3809348620881
 20
139.0528548047322
 10
170.6519902620537
 20
138.8794343838042
  0
ENDBLK
  5
E5
330
E3
100
AcDbEntity
  8
0
100
AcDbBlockEnd
  0
BLOCK
  5
611
330
610
100
AcDbEntity
  8
0
100
AcDbBlockBegin
  2
R-TRS7-07 BARGE DETAIL - SIDE_STORY_MARKER
 70
     0
 10
0.0
 20
0.0
 30
0.0
  3
R-TRS7-07 BARGE DETAIL - SIDE_STORY_MARKER
  1

  0
ENDBLK
  5
612
330
610
100
AcDbEntity
  8
0
100
AcDbBlockEnd
  0
ENDSEC
  0
SECTION
  2
ENTITIES
  0
HATCH
  5
3F
330
1F
100
AcDbEntity
  8
Doc_ Finishes
  6
Continuous
100
AcDbHatch
 10
0.0
 20
0.0
 30
0.0
210
0.0
220
0.0
230
1.0
  2
SOLID
 70
     1
 71
     0
 91
        1
 92
        3
 72
     0
 73
     1
 93
       54
 10
27.4117749414874
 20
16.87044408857867
 10
26.89356552397386
 20
16.5825499677378
 10
26.5480925789648
 20
16.29465584689693
 10
26.12584786839819
 20
16.02595466744544
 10
25.76118198199976
 20
15.60370995687884
 10
25.39651609560134
 20
15.33500877742737
 10
25.07023609198168
 20
14.89357112547136
 10
24.49444785029994
 20
14.45213347351537
 10
23.93785255000758
 20
14.02988876294876
 10
23.43883607388344
 20
13.81876640766546
 10
22.74789018386533
 20
13.39652169709885
 10
22.09533017662603
 20
12.99346992792163
 10
21.63469958328064
 20
12.55203227596564
 10
20.90536781048376
 20
12.12978756539902
 10
20.59828074825351
 20
11.7459287376112
 10
20.04168544796116
 20
11.28529814426581
 10
19.36993249933246
 20
10.8630534336992
 10
18.73656543348255
 20
10.42161578174319
 10
18.04561954346447
 20
10.15291460229172
 10
17.1051654153843
 20
9.692284008946325
 10
16.39502658397681
 20
9.020531060317637
 10
15.83843128368446
 20
8.598286349751023
 10
15.12829245227699
 20
8.137655756405634
 10
14.84039833143612
 20
7.98411222529051
 10
14.37976773809073
 20
7.81137575278599
 10
14.07268067586046
 20
7.523481631945121
 10
14.0151018516923
 20
7.216394569714853
 10
14.14945244141803
 20
6.890114566095209
 10
14.4373465622589
 20
6.563834562475543
 10
14.8787842142149
 20
6.659799269422514
 10
15.51215128006482
 20
7.06285103859973
 10
16.01116775618899
 20
7.389131042219374
 10
16.33744775980864
 20
7.696218104449641
 10
16.51018423231316
 20
7.907340459732938
 10
17.01303929671522
 20
8.421711288968723
 10
17.33548071205699
 20
8.652026585641417
 10
17.75004824606785
 20
8.99749953065046
 10
18.14158425041142
 20
9.204783297655894
 10
19.24709767444037
 20
9.75754000967037
 10
20.23745345013295
 20
10.47151742935572
 10
21.4120614631637
 20
11.1624633193738
 10
21.84966052684182
 20
11.64612544238645
 10
22.49454335752537
 20
12.06069297639732
 10
23.78430901889248
 20
12.9819541630881
 10
24.3600972605742
 20
13.25833251909534
 10
25.6498629219413
 20
14.24868829478776
 10
25.85714668894673
 20
14.64022429913134
 10
26.68628175696843
 20
15.23904407048036
 10
27.28510152831745
 20
15.72270619349301
 10
27.81482671066464
 20
16.1142421978366
 10
28.27545730401003
 20
16.52880973184745
 10
28.22939424467549
 20
16.7821565581874
 10
28.09120506667188
 20
16.89731420652375
 10
27.56147988432467
 20
16.89731420652375
 97
        0
 75
     0
 76
     1
 98
        0
  0
LINE
  5
41
330
1F
100
AcDbEntity
  8
Doc_ Finishes
  6
Continuous
100
AcDbLine
 10
27.41177566876475
 20
16.87044600708104
 30
0.0
 11
26.89356756490952
 21
16.58254868214004
 31
0.0
  0
LINE
  5
42
330
1F
100
AcDbEntity
  8
Doc_ Finishes
  6
Continuous
100
AcDbLine
 10
26.89356756490952
 20
16.58254868214004
 30
0.0
 11
26.54809254523997
 21
16.29465578284815
 31
0.0
  0
LINE
  5
43
330
1F
100
AcDbEntity
  8
Doc_ Finishes
  6
Continuous
100
AcDbLine
 10
26.54809254523997
 20
16.29465578284815
 30
0.0
 11
26.12584579071597
 21
16.02595249803305
 31
0.0
  0
LINE
  5
44
330
1F
100
AcDbEntity
  8
Doc_ Finishes
  6
Continuous
100
AcDbLine
 10
26.12584579071597
 20
16.02595249803305
 30
0.0
 11
25.76118115656963
 21
15.60371016915814
 31
0.0
  0
LINE
  5
45
330
1F
100
AcDbEntity
  8
Doc_ Finishes
  6
Continuous
100
AcDbLine
 10
25.76118115656963
 20
15.60371016915814
 30
0.0
 11
25.39651652242329
 21
15.33500688434304
 31
0.0
  0
LINE
  5
46
330
1F
100
AcDbEntity
  8
Doc_ Finishes
  6
Continuous
100
AcDbLine
 10
25.39651652242329
 20
15.33500688434304
 30
0.0
 11
25.07023554287962
 21
14.89357051534225
 31
0.0
  0
LINE
  5
47
330
1F
100
AcDbEntity
  8
Doc_ Finishes
  6
Continuous
100
AcDbLine
 10
25.07023554287962
 20
14.89357051534225
 30
0.0
 11
24.49444974429583
 21
14.45213414634146
 31
0.0
  0
LINE
  5
48
330
1F
100
AcDbEntity
  8
Doc_ Finishes
  6
Continuous
100
AcDbLine
 10
24.49444974429583
 20
14.45213414634146
 30
0.0
 11
23.93785356018882
 21
14.02988739181747
 31
0.0
  0
LINE
  5
49
330
1F
100
AcDbEntity
  8
Doc_ Finishes
  6
Continuous
100
AcDbLine
 10
23.93785356018882
 20
14.02988739181747
 30
0.0
 11
23.43883507081038
 21
13.81876622738001
 31
0.0
  0
LINE
  5
4A
330
1F
100
AcDbEntity
  8
Doc_ Finishes
  6
Continuous
100
AcDbLine
 10
23.43883507081038
 20
13.81876622738001
 30
0.0
 11
22.74788945712038
 21
13.39652389850511
 31
0.0
  0
LINE
  5
4B
330
1F
100
AcDbEntity
  8
Doc_ Finishes
  6
Continuous
100
AcDbLine
 10
22.74788945712038
 20
13.39652389850511
 30
0.0
 11
22.09533192368214
 21
12.993471184107
 31
0.0
  0
LINE
  5
4C
330
1F
100
AcDbEntity
  8
Doc_ Finishes
  6
Continuous
100
AcDbLine
 10
22.09533192368214
 20
12.993471184107
 30
0.0
 11
21.63470151455547
 21
12.55203038945712
 31
0.0
  0
LINE
  5
4D
330
1F
100
AcDbEntity
  8
Doc_ Finishes
  6
Continuous
100
AcDbLine
 10
21.63470151455547
 20
12.55203038945712
 30
0.0
 11
20.90536782061369
 21
12.12978806058222
 31
0.0
  0
LINE
  5
4E
330
1F
100
AcDbEntity
  8
Doc_ Finishes
  6
Continuous
100
AcDbLine
 10
20.90536782061369
 20
12.12978806058222
 30
0.0
 11
20.59828088119591
 21
11.74592938630999
 31
0.0
  0
LINE
  5
4F
330
1F
100
AcDbEntity
  8
Doc_ Finishes
  6
Continuous
100
AcDbLine
 10
20.59828088119591
 20
11.74592938630999
 30
0.0
 11
20.0416846970889
 21
11.28529897718332
 31
0.0
  0
LINE
  5
50
330
1F
100
AcDbEntity
  8
Doc_ Finishes
  6
Continuous
100
AcDbLine
 10
20.0416846970889
 20
11.28529897718332
 30
0.0
 11
19.36993312352478
 21
10.86305222265932
 31
0.0
  0
LINE
  5
51
330
1F
100
AcDbEntity
  8
Doc_ Finishes
  6
Continuous
100
AcDbLine
 10
19.36993312352478
 20
10.86305222265932
 30
0.0
 11
18.73656520456333
 21
10.42161585365854
 31
0.0
  0
LINE
  5
52
330
1F
100
AcDbEntity
  8
Doc_ Finishes
  6
Continuous
100
AcDbLine
 10
18.73656520456333
 20
10.42161585365854
 30
0.0
 11
18.04561959087333
 21
10.15291256884343
 31
0.0
  0
LINE
  5
53
330
1F
100
AcDbEntity
  8
Doc_ Finishes
  6
Continuous
100
AcDbLine
 10
18.04561959087333
 20
10.15291256884343
 30
0.0
 11
17.1051647324941
 21
9.692282159716758
 31
0.0
  0
LINE
  5
54
330
1F
100
AcDbEntity
  8
Doc_ Finishes
  6
Continuous
100
AcDbLine
 10
17.1051647324941
 20
9.692282159716758
 30
0.0
 11
16.3950250786782
 21
9.020530586152635
 31
0.0
  0
LINE
  5
55
330
1F
100
AcDbEntity
  8
Doc_ Finishes
  6
Continuous
100
AcDbLine
 10
16.3950250786782
 20
9.020530586152635
 30
0.0
 11
15.8384333202203
 21
8.598288257277733
 31
0.0
  0
LINE
  5
56
330
1F
100
AcDbEntity
  8
Doc_ Finishes
  6
Continuous
100
AcDbLine
 10
15.8384333202203
 20
8.598288257277733
 30
0.0
 11
15.1282936664044
 21
8.137657848151063
 31
0.0
  0
LINE
  5
57
330
1F
100
AcDbEntity
  8
Doc_ Finishes
  6
Continuous
100
AcDbLine
 10
15.1282936664044
 20
8.137657848151063
 30
0.0
 11
14.84039634146341
 21
7.984114378442171
 31
0.0
  0
LINE
  5
58
330
1F
100
AcDbEntity
  8
Doc_ Finishes
  6
Continuous
100
AcDbLine
 10
14.84039634146341
 20
7.984114378442171
 30
0.0
 11
14.37976593233674
 21
7.811376868607396
 31
0.0
  0
LINE
  5
59
330
1F
100
AcDbEntity
  8
Doc_ Finishes
  6
Continuous
100
AcDbLine
 10
14.37976593233674
 20
7.811376868607396
 30
0.0
 11
14.07267899291896
 21
7.523479543666405
 31
0.0
  0
LINE
  5
5A
330
1F
100
AcDbEntity
  8
Doc_ Finishes
  6
Continuous
100
AcDbLine
 10
14.07267899291896
 20
7.523479543666405
 30
0.0
 11
14.0151012981904
 21
7.216392604248622
 31
0.0
  0
LINE
  5
5B
330
1F
100
AcDbEntity
  8
Doc_ Finishes
  6
Continuous
100
AcDbLine
 10
14.0151012981904
 20
7.216392604248622
 30
0.0
 11
14.14945072777341
 21
6.890116050354051
 31
0.0
  0
LINE
  5
5C
330
1F
100
AcDbEntity
  8
Doc_ Finishes
  6
Continuous
100
AcDbLine
 10
14.14945072777341
 20
6.890116050354051
 30
0.0
 11
14.4373480527144
 21
6.563835070810386
 31
0.0
  0
LINE
  5
5D
330
1F
100
AcDbEntity
  8
Doc_ Finishes
  6
Continuous
100
AcDbLine
 10
14.4373480527144
 20
6.563835070810386
 30
0.0
 11
14.87878442171519
 21
6.659800845790715
 31
0.0
  0
LINE
  5
5E
330
1F
100
AcDbEntity
  8
Doc_ Finishes
  6
Continuous
100
AcDbLine
 10
14.87878442171519
 20
6.659800845790715
 30
0.0
 11
15.51215234067663
 21
7.062849134539732
 31
0.0
  0
LINE
  5
5F
330
1F
100
AcDbEntity
  8
Doc_ Finishes
  6
Continuous
100
AcDbLine
 10
15.51215234067663
 20
7.062849134539732
 30
0.0
 11
16.01116640440598
 21
7.389130114083398
 31
0.0
  0
LINE
  5
60
330
1F
100
AcDbEntity
  8
Doc_ Finishes
  6
Continuous
100
AcDbLine
 10
16.01116640440598
 20
7.389130114083398
 30
0.0
 11
16.33744738394964
 21
7.69621705350118
 31
0.0
  0
LINE
  5
61
330
1F
100
AcDbEntity
  8
Doc_ Finishes
  6
Continuous
100
AcDbLine
 10
16.33744738394964
 20
7.69621705350118
 30
0.0
 11
16.51018489378442
 21
7.907342643587726
 31
0.0
  0
LINE
  5
62
330
1F
100
AcDbEntity
  8
Doc_ Finishes
  6
Continuous
100
AcDbLine
 10
16.51018489378442
 20
7.907342643587726
 30
0.0
 11
17.0130404209284
 21
8.421709284028323
 31
0.0
  0
LINE
  5
63
330
1F
100
AcDbEntity
  8
Doc_ Finishes
  6
Continuous
100
AcDbLine
 10
17.0130404209284
 20
8.421709284028323
 30
0.0
 11
17.33547993705743
 21
8.65202448859166
 31
0.0
  0
LINE
  5
64
330
1F
100
AcDbEntity
  8
Doc_ Finishes
  6
Continuous
100
AcDbLine
 10
17.33547993705743
 20
8.65202448859166
 30
0.0
 11
17.75004819040126
 21
8.997499508261212
 31
0.0
  0
LINE
  5
65
330
1F
100
AcDbEntity
  8
Doc_ Finishes
  6
Continuous
100
AcDbLine
 10
17.75004819040126
 20
8.997499508261212
 30
0.0
 11
18.14158536585366
 21
9.204783634933122
 31
0.0
  0
LINE
  5
66
330
1F
100
AcDbEntity
  8
Doc_ Finishes
  6
Continuous
100
AcDbLine
 10
18.14158536585366
 20
9.204783634933122
 30
0.0
 11
19.24709923288749
 21
9.75753835562549
 31
0.0
  0
LINE
  5
67
330
1F
100
AcDbEntity
  8
Doc_ Finishes
  6
Continuous
100
AcDbLine
 10
19.24709923288749
 20
9.75753835562549
 30
0.0
 11
20.23745328481511
 21
10.47151947285602
 31
0.0
  0
LINE
  5
68
330
1F
100
AcDbEntity
  8
Doc_ Finishes
  6
Continuous
100
AcDbLine
 10
20.23745328481511
 20
10.47151947285602
 30
0.0
 11
21.41206038552321
 21
11.16246508654602
 31
0.0
  0
LINE
  5
69
330
1F
100
AcDbEntity
  8
Doc_ Finishes
  6
Continuous
100
AcDbLine
 10
21.41206038552321
 20
11.16246508654602
 30
0.0
 11
21.84965971675846
 21
11.64612657356412
 31
0.0
  0
LINE
  5
6A
330
1F
100
AcDbEntity
  8
Doc_ Finishes
  6
Continuous
100
AcDbLine
 10
21.84965971675846
 20
11.64612657356412
 30
0.0
 11
22.49454317466562
 21
12.06069482690795
 31
0.0
  0
LINE
  5
6B
330
1F
100
AcDbEntity
  8
Doc_ Finishes
  6
Continuous
100
AcDbLine
 10
22.49454317466562
 20
12.06069482690795
 30
0.0
 11
23.78431009047993
 21
12.98195564516129
 31
0.0
  0
LINE
  5
6C
330
1F
100
AcDbEntity
  8
Doc_ Finishes
  6
Continuous
100
AcDbLine
 10
23.78431009047993
 20
12.98195564516129
 30
0.0
 11
24.36009588906373
 21
13.25833300550747
 31
0.0
  0
LINE
  5
6D
330
1F
100
AcDbEntity
  8
Doc_ Finishes
  6
Continuous
100
AcDbLine
 10
24.36009588906373
 20
13.25833300550747
 30
0.0
 11
25.64986280487805
 21
14.24868705743509
 31
0.0
  0
LINE
  5
6E
330
1F
100
AcDbEntity
  8
Doc_ Finishes
  6
Continuous
100
AcDbLine
 10
25.64986280487805
 20
14.24868705743509
 30
0.0
 11
25.85714693154996
 21
14.64022423288749
 31
0.0
  0
LINE
  5
6F
330
1F
100
AcDbEntity
  8
Doc_ Finishes
  6
Continuous
100
AcDbLine
 10
25.85714693154996
 20
14.64022423288749
 30
0.0
 11
26.68628343823761
 21
15.2390455350118
 31
0.0
  0
LINE
  5
70
330
1F
100
AcDbEntity
  8
Doc_ Finishes
  6
Continuous
100
AcDbLine
 10
26.68628343823761
 20
15.2390455350118
 30
0.0
 11
27.28510031471282
 21
15.7227070220299
 31
0.0
  0
LINE
  5
71
330
1F
100
AcDbEntity
  8
Doc_ Finishes
  6
Continuous
100
AcDbLine
 10
27.28510031471282
 20
15.7227070220299
 30
0.0
 11
27.81482838316287
 21
16.1142441974823
 31
0.0
  0
LINE
  5
72
330
1F
100
AcDbEntity
  8
Doc_ Finishes
  6
Continuous
100
AcDbLine
 10
27.81482838316287
 20
16.1142441974823
 30
0.0
 11
28.27545879228953
 21
16.52880802517702
 31
0.0
  0
LINE
  5
73
330
1F
100
AcDbEntity
  8
Doc_ Finishes
  6
Continuous
100
AcDbLine
 10
28.27545879228953
 20
16.52880802517702
 30
0.0
 11
28.22939221085759
 21
16.78215873328088
 31
0.0
  0
LINE
  5
74
330
1F
100
AcDbEntity
  8
Doc_ Finishes
  6
Continuous
100
AcDbLine
 10
28.22939221085759
 20
16.78215873328088
 30
0.0
 11
28.09120574350905
 21
16.897314122738
 31
0.0
  0
LINE
  5
75
330
1F
100
AcDbEntity
  8
Doc_ Finishes
  6
Continuous
100
AcDbLine
 10
28.09120574350905
 20
16.897314122738
 30
0.0
 11
27.56147767505901
 21
16.897314122738
 31
0.0
  0
LINE
  5
76
330
1F
100
AcDbEntity
  8
Doc_ Finishes
  6
Continuous
100
AcDbLine
 10
27.56147767505901
 20
16.897314122738
 30
0.0
 11
27.41177566876475
 21
16.87044600708104
 31
0.0
  0
HATCH
  5
77
330
1F
100
AcDbEntity
  8
Doc_ Finishes
  6
Continuous
100
AcDbHatch
 10
0.0
 20
0.0
 30
0.0
210
0.0
220
0.0
230
1.0
  2
SOLID
 70
     1
 71
     0
 91
        1
 92
        3
 72
     0
 73
     1
 93
       39
 10
27.65360600299377
 20
13.12014334109181
 10
27.21600693931564
 20
12.77467039608275
 10
26.54809257896482
 20
12.24494521373555
 10
25.92624127794851
 20
11.85340920939199
 10
25.32742150659951
 20
11.32368402704478
 10
24.72860173525052
 20
11.04730567103754
 10
24.08371890456698
 20
10.56364354802488
 10
23.62308831122158
 20
10.33332825135219
 10
23.231552306878
 20
10.03391836567767
 10
22.81698477286715
 20
9.619350831666825
 10
22.40241723885631
 20
9.38903553499415
 10
21.91875511584363
 20
9.043562589985086
 10
21.66540828950367
 20
8.859310352646935
 10
21.25084075549282
 20
8.582931996639696
 10
20.09926427212933
 20
7.753796928618002
 10
19.75379132712029
 20
7.477418572610764
 10
19.2931607337749
 20
7.316197864939873
 10
19.22406614477309
 20
6.993756449598113
 10
19.3622553227767
 20
6.717378093590874
 10
19.63863367878394
 20
6.602220445254527
 10
20.00713815346026
 20
6.8325357419272
 10
20.26048497980021
 20
7.131945627601722
 10
20.55989486547472
 20
7.362260924274415
 10
21.31993534449462
 20
7.707733869283458
 10
21.84966052684182
 20
8.122301403294307
 10
22.88607936186895
 20
8.882341882314256
 10
23.20852077721072
 20
9.342972475659646
 10
24.01462431556515
 20
9.734508480003234
 10
24.5673810275796
 20
10.05694989534501
 10
25.46561068460312
 20
10.60970660735953
 10
25.88017821861399
 20
11.07033720070492
 10
26.31777728229212
 20
11.34671555671216
 10
26.70931328663569
 20
11.30065249737762
 10
27.21600693931562
 20
11.55399932371759
 10
28.0681735370046
 20
12.17585062473387
 10
28.41364648201364
 20
12.49829204007566
 10
28.39061495234636
 20
12.77467039608289
 10
28.22939424467547
 20
13.00498569275559
 10
28.04514200733732
 20
13.05104875209013
 97
        0
 75
     0
 76
     1
 98
        0
  0
LINE
  5
78
330
1F
100
AcDbEntity
  8
Doc_ Finishes
  6
Continuous
100
AcDbLine
 10
27.6536064122738
 20
13.12014211250983
 30
0.0
 11
27.21600708103855
 21
12.77467151848938
 31
0.0
  0
LINE
  5
79
330
1F
100
AcDbEntity
  8
Doc_ Finishes
  6
Continuous
100
AcDbLine
 10
27.21600708103855
 20
12.77467151848938
 30
0.0
 11
26.54809254523997
 21
12.24494345003934
 31
0.0
  0
LINE
  5
7A
330
1F
100
AcDbEntity
  8
Doc_ Finishes
  6
Continuous
100
AcDbLine
 10
26.54809254523997
 20
12.24494345003934
 30
0.0
 11
25.92624016522423
 21
11.85341070023603
 31
0.0
  0
LINE
  5
7B
330
1F
100
AcDbEntity
  8
Doc_ Finishes
  6
Continuous
100
AcDbLine
 10
25.92624016522423
 20
11.85341070023603
 30
0.0
 11
25.32742328874902
 21
11.32368263178599
 31
0.0
  0
LINE
  5
7C
330
1F
100
AcDbEntity
  8
Doc_ Finishes
  6
Continuous
100
AcDbLine
 10
25.32742328874902
 20
11.32368263178599
 30
0.0
 11
24.72860198662471
 21
11.04730527143981
 31
0.0
  0
LINE
  5
7D
330
1F
100
AcDbEntity
  8
Doc_ Finishes
  6
Continuous
100
AcDbLine
 10
24.72860198662471
 20
11.04730527143981
 30
0.0
 11
24.08371852871754
 21
10.56364378442171
 31
0.0
  0
LINE
  5
7E
330
1F
100
AcDbEntity
  8
Doc_ Finishes
  6
Continuous
100
AcDbLine
 10
24.08371852871754
 20
10.56364378442171
 30
0.0
 11
23.62308811959087
 21
10.33332857985838
 31
0.0
  0
LINE
  5
7F
330
1F
100
AcDbEntity
  8
Doc_ Finishes
  6
Continuous
100
AcDbLine
 10
23.62308811959087
 20
10.33332857985838
 30
0.0
 11
23.23155094413847
 21
10.03392014162077
 31
0.0
  0
LINE
  5
80
330
1F
100
AcDbEntity
  8
Doc_ Finishes
  6
Continuous
100
AcDbLine
 10
23.23155094413847
 20
10.03392014162077
 30
0.0
 11
22.81698269079465
 21
9.619351888276947
 31
0.0
  0
LINE
  5
81
330
1F
100
AcDbEntity
  8
Doc_ Finishes
  6
Continuous
100
AcDbLine
 10
22.81698269079465
 20
9.619351888276947
 30
0.0
 11
22.40241886309992
 21
9.389036683713611
 31
0.0
  0
LINE
  5
82
330
1F
100
AcDbEntity
  8
Doc_ Finishes
  6
Continuous
100
AcDbLine
 10
22.40241886309992
 20
9.389036683713611
 30
0.0
 11
21.91875295043273
 21
9.04356166404406
 31
0.0
  0
LINE
  5
83
330
1F
100
AcDbEntity
  8
Doc_ Finishes
  6
Continuous
100
AcDbLine
 10
21.91875295043273
 20
9.04356166404406
 30
0.0
 11
21.66540666797797
 21
8.859308615263572
 31
0.0
  0
LINE
  5
84
330
1F
100
AcDbEntity
  8
Doc_ Finishes
  6
Continuous
100
AcDbLine
 10
21.66540666797797
 20
8.859308615263572
 30
0.0
 11
21.25084284028324
 21
8.582931254917387
 31
0.0
  0
LINE
  5
85
330
1F
100
AcDbEntity
  8
Doc_ Finishes
  6
Continuous
100
AcDbLine
 10
21.25084284028324
 20
8.582931254917387
 30
0.0
 11
20.09926239181747
 21
7.75379474822974
 31
0.0
  0
LINE
  5
86
330
1F
100
AcDbEntity
  8
Doc_ Finishes
  6
Continuous
100
AcDbLine
 10
20.09926239181747
 20
7.75379474822974
 30
0.0
 11
19.75379179779701
 21
7.477417387883556
 31
0.0
  0
LINE
  5
87
330
1F
100
AcDbEntity
  8
Doc_ Finishes
  6
Continuous
100
AcDbLine
 10
19.75379179779701
 20
7.477417387883556
 30
0.0
 11
19.29316138867033
 21
7.316199842643588
 31
0.0
  0
LINE
  5
88
330
1F
100
AcDbEntity
  8
Doc_ Finishes
  6
Continuous
100
AcDbLine
 10
19.29316138867033
 20
7.316199842643588
 30
0.0
 11
19.22406815499606
 21
6.993755900865461
 31
0.0
  0
LINE
  5
89
330
1F
100
AcDbEntity
  8
Doc_ Finishes
  6
Continuous
100
AcDbLine
 10
19.22406815499606
 20
6.993755900865461
 30
0.0
 11
19.36225462234461
 21
6.717378540519276
 31
0.0
  0
LINE
  5
8A
330
1F
100
AcDbEntity
  8
Doc_ Finishes
  6
Continuous
100
AcDbLine
 10
19.36225462234461
 20
6.717378540519276
 30
0.0
 11
19.63863198269079
 21
6.602218725413059
 31
0.0
  0
LINE
  5
8B
330
1F
100
AcDbEntity
  8
Doc_ Finishes
  6
Continuous
100
AcDbLine
 10
19.63863198269079
 20
6.602218725413059
 30
0.0
 11
20.00713808025177
 21
6.832533929976396
 31
0.0
  0
LINE
  5
8C
330
1F
100
AcDbEntity
  8
Doc_ Finishes
  6
Continuous
100
AcDbLine
 10
20.00713808025177
 20
6.832533929976396
 30
0.0
 11
20.26048436270653
 21
7.1319467938631
 31
0.0
  0
LINE
  5
8D
330
1F
100
AcDbEntity
  8
Doc_ Finishes
  6
Continuous
100
AcDbLine
 10
20.26048436270653
 20
7.1319467938631
 30
0.0
 11
20.55989280094414
 21
7.362261998426435
 31
0.0
  0
LINE
  5
8E
330
1F
100
AcDbEntity
  8
Doc_ Finishes
  6
Continuous
100
AcDbLine
 10
20.55989280094414
 20
7.362261998426435
 30
0.0
 11
21.31993607395751
 21
7.707732592446892
 31
0.0
  0
LINE
  5
8F
330
1F
100
AcDbEntity
  8
Doc_ Finishes
  6
Continuous
100
AcDbLine
 10
21.31993607395751
 20
7.707732592446892
 30
0.0
 11
21.84965971675846
 21
8.122300845790717
 31
0.0
  0
LINE
  5
90
330
1F
100
AcDbEntity
  8
Doc_ Finishes
  6
Continuous
100
AcDbLine
 10
21.84965971675846
 20
8.122300845790717
 30
0.0
 11
22.88608035011802
 21
8.882339693154996
 31
0.0
  0
LINE
  5
91
330
1F
100
AcDbEntity
  8
Doc_ Finishes
  6
Continuous
100
AcDbLine
 10
22.88608035011802
 20
8.882339693154996
 30
0.0
 11
23.20851986624705
 21
9.342974527930762
 31
0.0
  0
LINE
  5
92
330
1F
100
AcDbEntity
  8
Doc_ Finishes
  6
Continuous
100
AcDbLine
 10
23.20851986624705
 20
9.342974527930762
 30
0.0
 11
24.01462529504327
 21
9.734507277734066
 31
0.0
  0
LINE
  5
93
330
1F
100
AcDbEntity
  8
Doc_ Finishes
  6
Continuous
100
AcDbLine
 10
24.01462529504327
 20
9.734507277734066
 30
0.0
 11
24.56738001573564
 21
10.05695121951219
 31
0.0
  0
LINE
  5
94
330
1F
100
AcDbEntity
  8
Doc_ Finishes
  6
Continuous
100
AcDbLine
 10
24.56738001573564
 20
10.05695121951219
 30
0.0
 11
25.46560975609756
 21
10.60970594020456
 31
0.0
  0
LINE
  5
95
330
1F
100
AcDbEntity
  8
Doc_ Finishes
  6
Continuous
100
AcDbLine
 10
25.46560975609756
 20
10.60970594020456
 30
0.0
 11
25.88017800944139
 21
11.07033634933124
 31
0.0
  0
LINE
  5
96
330
1F
100
AcDbEntity
  8
Doc_ Finishes
  6
Continuous
100
AcDbLine
 10
25.88017800944139
 20
11.07033634933124
 30
0.0
 11
26.31777734067663
 21
11.34671370967742
 31
0.0
  0
LINE
  5
97
330
1F
100
AcDbEntity
  8
Doc_ Finishes
  6
Continuous
100
AcDbLine
 10
26.31777734067663
 20
11.34671370967742
 30
0.0
 11
26.70931451612903
 21
11.30065155389457
 31
0.0
  0
LINE
  5
98
330
1F
100
AcDbEntity
  8
Doc_ Finishes
  6
Continuous
100
AcDbLine
 10
26.70931451612903
 20
11.30065155389457
 30
0.0
 11
27.21600708103855
 21
11.55399783634933
 31
0.0
  0
LINE
  5
99
330
1F
100
AcDbEntity
  8
Doc_ Finishes
  6
Continuous
100
AcDbLine
 10
27.21600708103855
 20
11.55399783634933
 30
0.0
 11
28.06817466561763
 21
12.17585021636507
 31
0.0
  0
LINE
  5
9A
330
1F
100
AcDbEntity
  8
Doc_ Finishes
  6
Continuous
100
AcDbLine
 10
28.06817466561763
 20
12.17585021636507
 30
0.0
 11
28.41364525963808
 21
12.49829415814319
 31
0.0
  0
LINE
  5
9B
330
1F
100
AcDbEntity
  8
Doc_ Finishes
  6
Continuous
100
AcDbLine
 10
28.41364525963808
 20
12.49829415814319
 30
0.0
 11
28.39061418174666
 21
12.77467151848938
 31
0.0
  0
LINE
  5
9C
330
1F
100
AcDbEntity
  8
Doc_ Finishes
  6
Continuous
100
AcDbLine
 10
28.39061418174666
 20
12.77467151848938
 30
0.0
 11
28.22939221085759
 21
13.00498672305271
 31
0.0
  0
LINE
  5
9D
330
1F
100
AcDbEntity
  8
Doc_ Finishes
  6
Continuous
100
AcDbLine
 10
28.22939221085759
 20
13.00498672305271
 30
0.0
 11
28.04514358772619
 21
13.05104887883556
 31
0.0
  0
LINE
  5
9E
330
1F
100
AcDbEntity
  8
Doc_ Finishes
  6
Continuous
100
AcDbLine
 10
28.04514358772619
 20
13.05104887883556
 30
0.0
 11
27.6536064122738
 21
13.12014211250983
 31
0.0
  0
HATCH
  5
9F
330
1F
100
AcDbEntity
  8
Doc_ Finishes
  6
Continuous
100
AcDbHatch
 10
0.0
 20
0.0
 30
0.0
210
0.0
220
0.0
230
1.0
  2
SOLID
 70
     1
 71
     0
 91
        1
 92
        3
 72
     0
 73
     1
 93
       47
 10
28.06817353700456
 20
15.74573772316067
 10
28.30309513961077
 20
15.62136746295728
 10
28.4412843176144
 20
15.4002647781515
 10
28.93876535842742
 20
15.17916209334572
 10
29.82317609765057
 20
14.40530269652538
 10
30.92868952167951
 20
13.74199464210799
 10
31.59199757609689
 20
13.3827027792986
 10
32.20002995931279
 20
13.07868658769064
 10
33.55428390374828
 20
12.08372450606458
 10
34.07940278016201
 20
11.69679480765445
 10
34.88090001258301
 20
11.08876242443854
 10
35.59948373820179
 20
10.50836787682334
 10
36.5668079842271
 20
9.817421986805197
 10
37.06428902504012
 20
9.458130123995785
 10
37.81051058625966
 20
8.933011247582023
 10
38.61200781868061
 20
8.407892371168286
 10
38.77783483228498
 20
8.186789686362482
 10
39.38586721550092
 20
7.744584316750918
 10
40.18736444792187
 20
6.915449248729224
 10
40.7953968311378
 20
6.44560604351692
 10
41.56925622795804
 20
6.169227687509681
 10
42.23256428237543
 20
6.086314180707507
 10
42.48130480278193
 20
6.30741686551329
 10
42.14965077557326
 20
6.611433057121246
 10
41.48634272115586
 20
6.998362755531397
 10
40.76775899553709
 20
7.357654618340788
 10
40.18736444792187
 20
8.048600508358874
 10
38.99893751709079
 20
8.822459905179112
 10
38.47381864067705
 20
9.319940945992132
 10
38.22507812027052
 20
9.734508480003
 10
37.17484036744301
 20
10.31490302761817
 10
36.73263499783144
 20
10.78474623283046
 10
36.2351539570184
 20
11.17167593124059
 10
35.48893239579888
 20
11.61388130085215
 10
34.85326217698223
 20
12.16663801286669
 10
34.35578113616919
 20
12.58120554687754
 10
33.69247308175183
 20
12.99577308088841
 10
33.22262987653953
 20
13.32742710809708
 10
32.7251488357265
 20
13.5761676285036
 10
31.93747052110588
 20
14.06443605744977
 10
31.43077686842594
 20
14.38687747279155
 10
30.92408321574601
 20
14.70931888813342
 10
30.62467333007151
 20
15.100854892477
 10
29.95675896972068
 20
15.67664313415887
 10
29.47309684670803
 20
15.9530214901661
 10
28.82821401602447
 20
16.36758902417695
 10
28.50577260068269
 20
16.22939984617334
 97
        0
 75
     0
 76
     1
 98
        0
  0
LINE
  5
A0
330
1F
100
AcDbEntity
  8
Doc_ Finishes
  6
Continuous
100
AcDbLine
 10
28.30309697088906
 20
15.62136850904799
 30
0.0
 11
28.06817466561763
 21
15.74573809992132
 31
0.0
  0
LINE
  5
A1
330
1F
100
AcDbEntity
  8
Doc_ Finishes
  6
Continuous
100
AcDbLine
 10
28.44128343823761
 20
15.40026308025177
 30
0.0
 11
28.30309697088906
 21
15.62136850904799
 31
0.0
  0
LINE
  5
A2
330
1F
100
AcDbEntity
  8
Doc_ Finishes
  6
Continuous
100
AcDbLine
 10
28.93876622738001
 20
15.17916207710464
 30
0.0
 11
28.44128343823761
 21
15.40026308025177
 31
0.0
  0
LINE
  5
A3
330
1F
100
AcDbEntity
  8
Doc_ Finishes
  6
Continuous
100
AcDbLine
 10
29.82317466561762
 20
14.40530192761605
 30
0.0
 11
28.93876622738001
 21
15.17916207710464
 31
0.0
  0
LINE
  5
A4
330
1F
100
AcDbEntity
  8
Doc_ Finishes
  6
Continuous
100
AcDbLine
 10
30.92868853265146
 20
13.74199449252557
 30
0.0
 11
29.82317466561762
 21
14.40530192761605
 31
0.0
  0
LINE
  5
A5
330
1F
100
AcDbEntity
  8
Doc_ Finishes
  6
Continuous
100
AcDbLine
 10
31.59199596774193
 20
13.3827025963808
 30
0.0
 11
30.92868853265146
 21
13.74199449252557
 31
0.0
  0
LINE
  5
A6
330
1F
100
AcDbEntity
  8
Doc_ Finishes
  6
Continuous
100
AcDbLine
 10
32.20003147128246
 20
13.07868705743509
 30
0.0
 11
31.59199596774193
 21
13.3827025963808
 31
0.0
  0
LINE
  5
A7
330
1F
100
AcDbEntity
  8
Doc_ Finishes
  6
Continuous
100
AcDbLine
 10
33.55428452006294
 20
12.08372590479937
 30
0.0
 11
32.20003147128246
 21
13.07868705743509
 31
0.0
  0
LINE
  5
A8
330
1F
100
AcDbEntity
  8
Doc_ Finishes
  6
Continuous
100
AcDbLine
 10
34.07940106215578
 20
11.69679583005508
 30
0.0
 11
33.55428452006294
 21
12.08372590479937
 31
0.0
  0
LINE
  5
A9
330
1F
100
AcDbEntity
  8
Doc_ Finishes
  6
Continuous
100
AcDbLine
 10
34.8808993902439
 20
11.08876032651456
 30
0.0
 11
34.07940106215578
 21
11.69679583005508
 31
0.0
  0
LINE
  5
AA
330
1F
100
AcDbEntity
  8
Doc_ Finishes
  6
Continuous
100
AcDbLine
 10
35.59948318253343
 20
10.50836742722266
 30
0.0
 11
34.8808993902439
 21
11.08876032651456
 31
0.0
  0
LINE
  5
AB
330
1F
100
AcDbEntity
  8
Doc_ Finishes
  6
Continuous
100
AcDbLine
 10
36.56680615656963
 20
9.817421813532652
 30
0.0
 11
35.59948318253343
 21
10.50836742722266
 31
0.0
  0
LINE
  5
AC
330
1F
100
AcDbEntity
  8
Doc_ Finishes
  6
Continuous
100
AcDbLine
 10
37.06428894571204
 20
9.458129917387884
 30
0.0
 11
36.56680615656963
 21
9.817421813532652
 31
0.0
  0
LINE
  5
AD
330
1F
100
AcDbEntity
  8
Doc_ Finishes
  6
Continuous
100
AcDbLine
 10
37.8105109166011
 20
8.933013375295044
 30
0.0
 11
37.06428894571204
 21
9.458129917387884
 31
0.0
  0
LINE
  5
AE
330
1F
100
AcDbEntity
  8
Doc_ Finishes
  6
Continuous
100
AcDbLine
 10
38.61200924468922
 20
8.407892407553108
 30
0.0
 11
37.8105109166011
 21
8.933013375295044
 31
0.0
  0
LINE
  5
AF
330
1F
100
AcDbEntity
  8
Doc_ Finishes
  6
Continuous
100
AcDbLine
 10
38.77783389063729
 20
8.18679140440598
 30
0.0
 11
38.61200924468922
 21
8.407892407553108
 31
0.0
  0
LINE
  5
B0
330
1F
100
AcDbEntity
  8
Doc_ Finishes
  6
Continuous
100
AcDbLine
 10
39.3858693941778
 20
7.744584972462627
 30
0.0
 11
38.77783389063729
 21
8.18679140440598
 31
0.0
  0
LINE
  5
B1
330
1F
100
AcDbEntity
  8
Doc_ Finishes
  6
Continuous
100
AcDbLine
 10
40.18736329661684
 20
6.915448465774981
 30
0.0
 11
39.3858693941778
 21
7.744584972462627
 31
0.0
  0
LINE
  5
B2
330
1F
100
AcDbEntity
  8
Doc_ Finishes
  6
Continuous
100
AcDbLine
 10
40.79539880015735
 20
6.4456038552321
 30
0.0
 11
40.18736329661684
 21
6.915448465774981
 31
0.0
  0
LINE
  5
B3
330
1F
100
AcDbEntity
  8
Doc_ Finishes
  6
Continuous
100
AcDbLine
 10
41.56925452399685
 20
6.169226494885916
 30
0.0
 11
40.79539880015735
 21
6.4456038552321
 31
0.0
  0
LINE
  5
B4
330
1F
100
AcDbEntity
  8
Doc_ Finishes
  6
Continuous
100
AcDbLine
 10
42.23256638473643
 20
6.086316384736428
 30
0.0
 11
41.56925452399685
 21
6.169226494885916
 31
0.0
  0
LINE
  5
B5
330
1F
100
AcDbEntity
  8
Doc_ Finishes
  6
Continuous
100
AcDbLine
 10
42.48130556648308
 20
6.307417387883556
 30
0.0
 11
42.23256638473643
 21
6.086316384736428
 31
0.0
  0
LINE
  5
B6
330
1F
100
AcDbEntity
  8
Doc_ Finishes
  6
Continuous
100
AcDbLine
 10
42.14965184893784
 20
6.611432926829268
 30
0.0
 11
42.48130556648308
 21
6.307417387883556
 31
0.0
  0
LINE
  5
B7
330
1F
100
AcDbEntity
  8
Doc_ Finishes
  6
Continuous
100
AcDbLine
 10
41.48634441384736
 20
6.998363001573564
 30
0.0
 11
42.14965184893784
 21
6.611432926829268
 31
0.0
  0
LINE
  5
B8
330
1F
100
AcDbEntity
  8
Doc_ Finishes
  6
Continuous
100
AcDbLine
 10
40.76776062155783
 20
7.357654897718332
 30
0.0
 11
41.48634441384736
 21
6.998363001573564
 31
0.0
  0
LINE
  5
B9
330
1F
100
AcDbEntity
  8
Doc_ Finishes
  6
Continuous
100
AcDbLine
 10
40.18736329661684
 20
8.048600511408338
 30
0.0
 11
40.76776062155783
 21
7.357654897718332
 31
0.0
  0
LINE
  5
BA
330
1F
100
AcDbEntity
  8
Doc_ Finishes
  6
Continuous
100
AcDbLine
 10
38.99893931943352
 20
8.822460660896931
 30
0.0
 11
40.18736329661684
 21
8.048600511408338
 31
0.0
  0
LINE
  5
BB
330
1F
100
AcDbEntity
  8
Doc_ Finishes
  6
Continuous
100
AcDbLine
 10
38.47381835169158
 20
9.319939024390242
 30
0.0
 11
38.99893931943352
 21
8.822460660896931
 31
0.0
  0
LINE
  5
BC
330
1F
100
AcDbEntity
  8
Doc_ Finishes
  6
Continuous
100
AcDbLine
 10
38.22507916994492
 20
9.734507277734066
 30
0.0
 11
38.47381835169158
 21
9.319939024390242
 31
0.0
  0
LINE
  5
BD
330
1F
100
AcDbEntity
  8
Doc_ Finishes
  6
Continuous
100
AcDbLine
 10
37.17484166011014
 20
10.31490460267506
 30
0.0
 11
38.22507916994492
 21
9.734507277734066
 31
0.0
  0
LINE
  5
BE
330
1F
100
AcDbEntity
  8
Doc_ Finishes
  6
Continuous
100
AcDbLine
 10
36.7326352281668
 20
10.78474478756884
 30
0.0
 11
37.17484166011014
 21
10.31490460267506
 31
0.0
  0
LINE
  5
BF
330
1F
100
AcDbEntity
  8
Doc_ Finishes
  6
Continuous
100
AcDbLine
 10
36.23515243902439
 20
11.17167486231314
 30
0.0
 11
36.7326352281668
 21
10.78474478756884
 31
0.0
  0
LINE
  5
C0
330
1F
100
AcDbEntity
  8
Doc_ Finishes
  6
Continuous
100
AcDbLine
 10
35.48893046813532
 20
11.61388129425649
 30
0.0
 11
36.23515243902439
 21
11.17167486231314
 31
0.0
  0
LINE
  5
C1
330
1F
100
AcDbEntity
  8
Doc_ Finishes
  6
Continuous
100
AcDbLine
 10
34.85326121164437
 20
12.16663601494886
 30
0.0
 11
35.48893046813532
 21
11.61388129425649
 31
0.0
  0
LINE
  5
C2
330
1F
100
AcDbEntity
  8
Doc_ Finishes
  6
Continuous
100
AcDbLine
 10
34.35578284815106
 20
12.58120426829268
 30
0.0
 11
34.85326121164437
 21
12.16663601494886
 31
0.0
  0
LINE
  5
C3
330
1F
100
AcDbEntity
  8
Doc_ Finishes
  6
Continuous
100
AcDbLine
 10
33.69247098741149
 20
12.99577252163651
 30
0.0
 11
34.35578284815106
 21
12.58120426829268
 31
0.0
  0
LINE
  5
C4
330
1F
100
AcDbEntity
  8
Doc_ Finishes
  6
Continuous
100
AcDbLine
 10
33.2226308025177
 20
13.32742623918175
 30
0.0
 11
33.69247098741149
 21
12.99577252163651
 31
0.0
  0
LINE
  5
C5
330
1F
100
AcDbEntity
  8
Doc_ Finishes
  6
Continuous
100
AcDbLine
 10
32.7251480133753
 20
13.5761654209284
 30
0.0
 11
33.2226308025177
 21
13.32742623918175
 31
0.0
  0
LINE
  5
C6
330
1F
100
AcDbEntity
  8
Doc_ Finishes
  6
Continuous
100
AcDbLine
 10
31.93747098741148
 20
14.0644340086546
 30
0.0
 11
32.7251480133753
 21
13.5761654209284
 31
0.0
  0
LINE
  5
C7
330
1F
100
AcDbEntity
  8
Doc_ Finishes
  6
Continuous
100
AcDbLine
 10
31.43077842250197
 20
14.38687795043273
 30
0.0
 11
31.93747098741148
 21
14.0644340086546
 31
0.0
  0
LINE
  5
C8
330
1F
100
AcDbEntity
  8
Doc_ Finishes
  6
Continuous
100
AcDbLine
 10
30.92408143194335
 20
14.70931746656176
 30
0.0
 11
31.43077842250197
 21
14.38687795043273
 31
0.0
  0
LINE
  5
C9
330
1F
100
AcDbEntity
  8
Doc_ Finishes
  6
Continuous
100
AcDbLine
 10
30.62467299370574
 20
15.10085464201416
 30
0.0
 11
30.92408143194335
 21
14.70931746656176
 31
0.0
  0
LINE
  5
CA
330
1F
100
AcDbEntity
  8
Doc_ Finishes
  6
Continuous
100
AcDbLine
 10
29.95675845790716
 20
15.67664486624705
 30
0.0
 11
30.62467299370574
 21
15.10085464201416
 31
0.0
  0
LINE
  5
CB
330
1F
100
AcDbEntity
  8
Doc_ Finishes
  6
Continuous
100
AcDbLine
 10
29.47309697088906
 20
15.95302222659323
 30
0.0
 11
29.95675845790716
 21
15.67664486624705
 31
0.0
  0
LINE
  5
CC
330
1F
100
AcDbEntity
  8
Doc_ Finishes
  6
Continuous
100
AcDbLine
 10
28.8282135129819
 20
16.36759047993706
 30
0.0
 11
29.47309697088906
 21
15.95302222659323
 31
0.0
  0
LINE
  5
CD
330
1F
100
AcDbEntity
  8
Doc_ Finishes
  6
Continuous
100
AcDbLine
 10
28.50577399685287
 20
16.22939958693942
 30
0.0
 11
28.8282135129819
 21
16.36759047993706
 31
0.0
  0
LINE
  5
CE
330
1F
100
AcDbEntity
  8
Doc_ Finishes
  6
Continuous
100
AcDbLine
 10
28.06817466561763
 20
15.74573809992132
 30
0.0
 11
28.50577399685287
 21
16.22939958693942
 31
0.0
  0
LINE
  5
CF
330
1F
100
AcDbEntity
  8
Doc_ Finishes
  6
Continuous
 62
   254
370
    18
100
AcDbLine
 10
97.43333792289535
 20
5.093360051140834
 30
0.0
 11
97.43333792289535
 21
20.69901750590086
 31
0.0
  0
LINE
  5
D0
330
1F
100
AcDbEntity
  8
Doc_ Finishes
  6
Continuous
 62
   254
370
    18
100
AcDbLine
 10
7.000000491738787
 20
20.69901750590086
 30
0.0
 11
290.2406840086546
 21
20.69901750590086
 31
0.0
  0
LINE
  5
D1
330
1F
100
AcDbEntity
  8
Doc_ Finishes
  6
Continuous
 62
   254
370
    18
100
AcDbLine
 10
290.2406840086546
 20
20.69901750590086
 30
0.0
 11
290.2406840086546
 21
5.000000983477577
 31
0.0
  0
LINE
  5
D2
330
1F
100
AcDbEntity
  8
Doc_ Finishes
  6
Continuous
 62
   254
370
    18
100
AcDbLine
 10
290.2406840086546
 20
5.000000983477577
 30
0.0
 11
7.000000491738787
 21
5.000000983477577
 31
0.0
  0
LINE
  5
D3
330
1F
100
AcDbEntity
  8
Doc_ Finishes
  6
Continuous
 62
   254
370
    18
100
AcDbLine
 10
7.000000491738787
 20
20.69901750590086
 30
0.0
 11
7.000000491738787
 21
5.000000983477577
 31
0.0
  0
LINE
  5
D4
330
1F
100
AcDbEntity
  8
Doc_ Finishes
  6
Continuous
 62
   254
370
    18
100
AcDbLine
 10
190.2919443351691
 20
5.093360051140834
 30
0.0
 11
190.2919443351691
 21
20.69901750590086
 31
0.0
  0
LINE
  5
D5
330
1F
100
AcDbEntity
  8
Doc_ Finishes
  6
Continuous
 62
   254
370
    18
100
AcDbLine
 10
190.2919443351691
 20
12.8961909913454
 30
0.0
 11
290.2406840086546
 21
12.8961909913454
 31
0.0
  0
MTEXT
  5
D7
330
1F
100
AcDbEntity
  8
0
  6
Continuous
100
AcDbMText
 10
210.3494767103412
 20
15.00227993155626
 30
0.0
 40
2.25
 41
0.0
 71
     7
 72
     1
  1
{R-TRS7-07}
  7
GENERATED_STYLE_1
 73
     1
 44
1.0
  0
MTEXT
  5
D8
330
1F
100
AcDbEntity
  8
0
  6
Continuous
100
AcDbMText
 10
210.3494767103412
 20
11.03300550383743
 30
0.0
 40
3.0
 41
0.0
 71
     1
 72
     1
  1
{BARGE DETAIL - SIDE}
  7
GENERATED_STYLE_1
 73
     1
 44
1.0
  0
MTEXT
  5
DA
330
1F
100
AcDbEntity
  8
Doc_ Floor
  6
Continuous
100
AcDbMText
 10
29.78353726544612
 20
13.33283672870609
 30
0.0
 40
5.603347280334726
 41
0.0
 71
     1
 72
     1
  1
{The Roofing Store}
  7
GENERATED_STYLE_2
 73
     1
 44
1.0
  0
MTEXT
  5
DC
102
{ACAD_XDICTIONARY
360
63E
102
}
330
1F
100
AcDbEntity
  8
0
  6
Continuous
100
AcDbMText
 10
102.7389238446655
 20
6.378784417288156
 30
0.0
 40
1.5
 41
0.0
 71
     7
 72
     1
  1
{P: HEAD OFFICE              09 277 2717\P    ALBANY             09 972 0060\P    KATIKAIT            07 549 5190\P    WELLINGTON              04 974 5792\P    CHRISTCHURCH          03 348 6528}
  7
GENERATED_STYLE_1
 73
     1
 44
1.062946161486498
  0
MTEXT
  5
DD
330
1F
100
AcDbEntity
  8
0
  6
Continuous
100
AcDbMText
 10
149.4184566143587
 20
9.199084231526156
 30
0.0
 40
1.5
 41
0.0
 71
     7
 72
     1
  1
{WEB: www.theroofingstore.co.nz}
  7
GENERATED_STYLE_1
 73
     1
 44
1.0
  0
MTEXT
  5
DE
330
1F
100
AcDbEntity
  8
0
  6
Continuous
100
AcDbMText
 10
149.4184566143587
 20
6.620946023411263
 30
0.0
 40
1.5
 41
0.0
 71
     7
 72
     1
  1
{Copyright \U+00A9 The Roofing Store 2013}
  7
GENERATED_STYLE_1
 73
     1
 44
1.0
  0
MTEXT
  5
DF
330
1F
100
AcDbEntity
  8
0
  6
Continuous
100
AcDbMText
 10
273.9546684065315
 20
15.01594826540159
 30
0.0
 40
2.25
 41
0.0
 71
     7
 72
     1
  1
{1:5}
  7
GENERATED_STYLE_1
 73
     1
 44
1.0
  0
MTEXT
  5
E0
330
1F
100
AcDbEntity
  8
0
  6
Continuous
100
AcDbMText
 10
264.8396605309016
 20
15.51746459162148
 30
0.0
 40
1.5
 41
0.0
 71
     7
 72
     1
  1
{SCALE:}
  7
GENERATED_STYLE_1
 73
     1
 44
1.0
  0
MTEXT
  5
E1
330
1F
100
AcDbEntity
  8
0
  6
Continuous
100
AcDbMText
 10
191.5066235617487
 20
15.48695559872207
 30
0.0
 40
1.5
 41
0.0
 71
     7
 72
     1
  1
{DETAIL NUMBER:}
  7
GENERATED_STYLE_1
 73
     1
 44
1.0
  0
MTEXT
  5
E2
330
1F
100
AcDbEntity
  8
0
  6
Continuous
100
AcDbMText
 10
191.5066235617487
 20
9.005462392315325
 30
0.0
 40
1.5
 41
0.0
 71
     7
 72
     1
  1
{TITLE:}
  7
GENERATED_STYLE_1
 73
     1
 44
1.0
  0
INSERT
  5
60C
102
{ACAD_XDICTIONARY
360
60D
102
}
330
1F
100
AcDbEntity
  8
0
  6
Continuous
100
AcDbBlockReference
  2
Drawing_1_2
 10
156.5565397722182
 20
110.7696525037415
 30
0.0
  0
ENDSEC
  0
SECTION
  2
OBJECTS
  0
DICTIONARY
  5
C
330
0
100
AcDbDictionary
281
     1
  3
ACAD_GROUP
350
D
  3
ACAD_LAYOUT
350
1A
  3
ACAD_MATERIAL
350
3B
  3
ACAD_MLEADERSTYLE
350
639
  3
ACAD_MLINESTYLE
350
17
  3
ACAD_PLOTSETTINGS
350
19
  3
ACAD_PLOTSTYLENAME
350
E
  3
ACAD_SCALELIST
350
613
  3
ACAD_VISUALSTYLE
350
2A
  3
AcDbVariableDictionary
350
637
  3
WATERMARKS
350
635
  0
DICTIONARY
  5
63E
330
DC
100
AcDbDictionary
280
     1
281
     1
  3
ACAD_MTEXT_RT
360
63F
  0
DICTIONARY
  5
60D
330
60C
100
AcDbDictionary
280
     1
281
     1
  3
ACAD_FILTER
360
60E
  0
DICTIONARY
  5
D
102
{ACAD_REACTORS
330
C
102
}
330
C
100
AcDbDictionary
281
     1
  0
DICTIONARY
  5
1A
102
{ACAD_REACTORS
330
C
102
}
330
C
100
AcDbDictionary
281
     1
  3
Layout1
350
1E
  3
Model
350
22
  0
DICTIONARY
  5
3B
102
{ACAD_REACTORS
330
C
102
}
330
C
100
AcDbDictionary
281
     1
  3
ByBlock
350
3D
  3
ByLayer
350
3C
  3
Global
350
3E
  0
DICTIONARY
  5
639
102
{ACAD_REACTORS
330
C
102
}
330
C
100
AcDbDictionary
281
     1
  0
DICTIONARY
  5
17
102
{ACAD_REACTORS
330
C
102
}
330
C
100
AcDbDictionary
281
     1
  3
Standard
350
18
  0
DICTIONARY
  5
19
102
{ACAD_REACTORS
330
C
102
}
330
C
100
AcDbDictionary
281
     1
  0
ACDBDICTIONARYWDFLT
  5
E
102
{ACAD_REACTORS
330
C
102
}
330
C
100
AcDbDictionary
281
     1
  3
Normal
350
F
100
AcDbDictionaryWithDefault
340
F
  0
DICTIONARY
  5
613
102
{ACAD_REACTORS
330
C
102
}
330
C
100
AcDbDictionary
281
     1
  3
A0
350
614
  3
A1
350
615
  3
A2
350
616
  3
A3
350
617
  3
A4
350
618
  3
A5
350
619
  3
A6
350
61A
  3
A7
350
61B
  3
A8
350
61C
  3
A9
350
61D
  3
B0
350
61E
  3
B1
350
61F
  3
B2
350
620
  3
B3
350
621
  3
B4
350
622
  3
B5
350
623
  3
B6
350
624
  3
B7
350
625
  3
B8
350
626
  3
B9
350
627
  3
C0
350
628
  3
C1
350
629
  3
C2
350
62A
  3
C3
350
62B
  3
C4
350
62C
  3
C5
350
62D
  3
C6
350
62E
  3
C7
350
62F
  3
C8
350
630
  3
C9
350
631
  3
D0
350
632
  3
D1
350
633
  3
D2
350
634
  0
DICTIONARY
  5
2A
102
{ACAD_REACTORS
330
C
102
}
330
C
100
AcDbDictionary
281
     1
  3
2dWireframe
350
2F
  3
3D Hidden
350
31
  3
3dWireframe
350
30
  3
Basic
350
32
  3
Brighten
350
36
  3
ColorChange
350
3A
  3
Conceptual
350
34
  3
Dim
350
35
  3
Facepattern
350
39
  3
Flat
350
2B
  3
FlatWithEdges
350
2C
  3
Gouraud
350
2D
  3
GouraudWithEdges
350
2E
  3
Linepattern
350
38
  3
Realistic
350
33
  3
Thicken
350
37
  0
DICTIONARY
  5
637
102
{ACAD_REACTORS
330
C
102
}
330
C
100
AcDbDictionary
281
     1
  3
CANNOSCALE
350
63B
  3
DIMASSOC
350
63C
  3
HIDETEXT
350
63D
  3
XCLIPFRAME
350
63A
  0
DICTIONARY
  5
635
102
{ACAD_REACTORS
330
C
102
}
330
C
100
AcDbDictionary
281
     1
  3
AC_WATERMARK
350
636
  0
XRECORD
  5
63F
102
{ACAD_REACTORS
330
63E
102
}
330
63E
100
AcDbXrecord
280
     1
 40
956118.0
  1
{P: HEAD OFFICE ^I^I09 277 2717\P    ALBANY ^I^I09 972 0060\P    KATIKAIT^I^I07 549 5190\P    WELLINGTON^I^I04 974 5792\P    CHRISTCHURCH^I^I03 348 6528}
  0
DICTIONARY
  5
60E
102
{ACAD_REACTORS
330
60D
102
}
330
60D
100
AcDbDictionary
280
     1
281
     1
  3
SPATIAL
360
60F
  0
LAYOUT
  5
1E
102
{ACAD_REACTORS
330
1A
102
}
330
1A
100
AcDbPlotSettings
  1

  2
none_device
  4

  6

 40
0.0
 41
0.0
 42
0.0
 43
0.0
 44
0.0
 45
0.0
 46
0.0
 47
0.0
 48
0.0
 49
0.0
140
0.0
141
0.0
142
1.0
143
1.0
 70
   688
 72
     0
 73
     0
 74
     5
  7

 75
    16
147
1.0
148
0.0
149
0.0
100
AcDbLayout
  1
Layout1
 70
     1
 71
     1
 10
0.0
 20
0.0
 11
12.0
 21
9.0
 12
0.0
 22
0.0
 32
0.0
 14
1.000000000000000E+20
 24
1.000000000000000E+20
 34
1.000000000000000E+20
 15
-1.000000000000000E+20
 25
-1.000000000000000E+20
 35
-1.000000000000000E+20
146
0.0
 13
0.0
 23
0.0
 33
0.0
 16
1.0
 26
0.0
 36
0.0
 17
0.0
 27
1.0
 37
0.0
 76
     0
330
1B
  0
LAYOUT
  5
22
102
{ACAD_REACTORS
330
1A
102
}
330
1A
100
AcDbPlotSettings
  1

  2
none_device
  4

  6

 40
0.0
 41
0.0
 42
0.0
 43
0.0
 44
0.0
 45
0.0
 46
0.0
 47
0.0
 48
0.0
 49
0.0
140
0.0
141
0.0
142
1.0
143
1.0
 70
  1712
 72
     0
 73
     0
 74
     0
  7

 75
     0
147
1.0
148
0.0
149
0.0
100
AcDbLayout
  1
Model
 70
     1
 71
     0
 10
0.0
 20
0.0
 11
12.0
 21
9.0
 12
0.0
 22
0.0
 32
0.0
 14
1.000000000000000E+20
 24
1.000000000000000E+20
 34
1.000000000000000E+20
 15
-1.000000000000000E+20
 25
-1.000000000000000E+20
 35
-1.000000000000000E+20
146
0.0
 13
0.0
 23
0.0
 33
0.0
 16
1.0
 26
0.0
 36
0.0
 17
0.0
 27
1.0
 37
0.0
 76
     0
330
1F
331
29
  0
MATERIAL
  5
3D
102
{ACAD_REACTORS
330
3B
102
}
102
{ACAD_XDICTIONARY
360
662
102
}
330
3B
100
AcDbMaterial
  1
ByBlock
  0
MATERIAL
  5
3C
102
{ACAD_REACTORS
330
3B
102
}
102
{ACAD_XDICTIONARY
360
660
102
}
330
3B
100
AcDbMaterial
  1
ByLayer
  0
MATERIAL
  5
3E
102
{ACAD_REACTORS
330
3B
102
}
102
{ACAD_XDICTIONARY
360
664
102
}
330
3B
100
AcDbMaterial
  1
Global
  0
MLINESTYLE
  5
18
102
{ACAD_REACTORS
330
17
102
}
330
17
100
AcDbMlineStyle
  2
Standard
 70
     0
  3

 62
   256
 51
90.0
 52
90.0
 71
     2
 49
0.5
 62
   256
  6
BYLAYER
 49
-0.5
 62
   256
  6
BYLAYER
  0
ACDBPLACEHOLDER
  5
F
102
{ACAD_REACTORS
330
E
102
}
330
E
  0
SCALE
  5
614
102
{ACAD_REACTORS
330
613
102
}
330
613
100
AcDbScale
 70
     0
300
1:1
140
1.0
141
1.0
290
     1
  0
SCALE
  5
615
102
{ACAD_REACTORS
330
613
102
}
330
613
100
AcDbScale
 70
     0
300
1:2
140
1.0
141
2.0
290
     0
  0
SCALE
  5
616
102
{ACAD_REACTORS
330
613
102
}
330
613
100
AcDbScale
 70
     0
300
1:4
140
1.0
141
4.0
290
     0
  0
SCALE
  5
617
102
{ACAD_REACTORS
330
613
102
}
330
613
100
AcDbScale
 70
     0
300
1:5
140
1.0
141
5.0
290
     0
  0
SCALE
  5
618
102
{ACAD_REACTORS
330
613
102
}
330
613
100
AcDbScale
 70
     0
300
1:8
140
1.0
141
8.0
290
     0
  0
SCALE
  5
619
102
{ACAD_REACTORS
330
613
102
}
330
613
100
AcDbScale
 70
     0
300
1:10
140
1.0
141
10.0
290
     0
  0
SCALE
  5
61A
102
{ACAD_REACTORS
330
613
102
}
330
613
100
AcDbScale
 70
     0
300
1:16
140
1.0
141
16.0
290
     0
  0
SCALE
  5
61B
102
{ACAD_REACTORS
330
613
102
}
330
613
100
AcDbScale
 70
     0
300
1:20
140
1.0
141
20.0
290
     0
  0
SCALE
  5
61C
102
{ACAD_REACTORS
330
613
102
}
330
613
100
AcDbScale
 70
     0
300
1:30
140
1.0
141
30.0
290
     0
  0
SCALE
  5
61D
102
{ACAD_REACTORS
330
613
102
}
330
613
100
AcDbScale
 70
     0
300
1:40
140
1.0
141
40.0
290
     0
  0
SCALE
  5
61E
102
{ACAD_REACTORS
330
613
102
}
330
613
100
AcDbScale
 70
     0
300
1:50
140
1.0
141
50.0
290
     0
  0
SCALE
  5
61F
102
{ACAD_REACTORS
330
613
102
}
330
613
100
AcDbScale
 70
     0
300
1:100
140
1.0
141
100.0
290
     0
  0
SCALE
  5
620
102
{ACAD_REACTORS
330
613
102
}
330
613
100
AcDbScale
 70
     0
300
2:1
140
2.0
141
1.0
290
     0
  0
SCALE
  5
621
102
{ACAD_REACTORS
330
613
102
}
330
613
100
AcDbScale
 70
     0
300
4:1
140
4.0
141
1.0
290
     0
  0
SCALE
  5
622
102
{ACAD_REACTORS
330
613
102
}
330
613
100
AcDbScale
 70
     0
300
8:1
140
8.0
141
1.0
290
     0
  0
SCALE
  5
623
102
{ACAD_REACTORS
330
613
102
}
330
613
100
AcDbScale
 70
     0
300
10:1
140
10.0
141
1.0
290
     0
  0
SCALE
  5
624
102
{ACAD_REACTORS
330
613
102
}
330
613
100
AcDbScale
 70
     0
300
100:1
140
100.0
141
1.0
290
     0
  0
SCALE
  5
625
102
{ACAD_REACTORS
330
613
102
}
330
613
100
AcDbScale
 70
     0
300
1/128" = 1'-0"
140
0.0078125
141
12.0
290
     0
  0
SCALE
  5
626
102
{ACAD_REACTORS
330
613
102
}
330
613
100
AcDbScale
 70
     0
300
1/64" = 1'-0"
140
0.015625
141
12.0
290
     0
  0
SCALE
  5
627
102
{ACAD_REACTORS
330
613
102
}
330
613
100
AcDbScale
 70
     0
300
1/32" = 1'-0"
140
0.03125
141
12.0
290
     0
  0
SCALE
  5
628
102
{ACAD_REACTORS
330
613
102
}
330
613
100
AcDbScale
 70
     0
300
1/16" = 1'-0"
140
0.0625
141
12.0
290
     0
  0
SCALE
  5
629
102
{ACAD_REACTORS
330
613
102
}
330
613
100
AcDbScale
 70
     0
300
3/32" = 1'-0"
140
0.09375
141
12.0
290
     0
  0
SCALE
  5
62A
102
{ACAD_REACTORS
330
613
102
}
330
613
100
AcDbScale
 70
     0
300
1/8" = 1'-0"
140
0.125
141
12.0
290
     0
  0
SCALE
  5
62B
102
{ACAD_REACTORS
330
613
102
}
330
613
100
AcDbScale
 70
     0
300
3/16" = 1'-0"
140
0.1875
141
12.0
290
     0
  0
SCALE
  5
62C
102
{ACAD_REACTORS
330
613
102
}
330
613
100
AcDbScale
 70
     0
300
1/4" = 1'-0"
140
0.25
141
12.0
290
     0
  0
SCALE
  5
62D
102
{ACAD_REACTORS
330
613
102
}
330
613
100
AcDbScale
 70
     0
300
3/8" = 1'-0"
140
0.375
141
12.0
290
     0
  0
SCALE
  5
62E
102
{ACAD_REACTORS
330
613
102
}
330
613
100
AcDbScale
 70
     0
300
1/2" = 1'-0"
140
0.5
141
12.0
290
     0
  0
SCALE
  5
62F
102
{ACAD_REACTORS
330
613
102
}
330
613
100
AcDbScale
 70
     0
300
3/4" = 1'-0"
140
0.75
141
12.0
290
     0
  0
SCALE
  5
630
102
{ACAD_REACTORS
330
613
102
}
330
613
100
AcDbScale
 70
     0
300
1" = 1'-0"
140
1.0
141
12.0
290
     0
  0
SCALE
  5
631
102
{ACAD_REACTORS
330
613
102
}
330
613
100
AcDbScale
 70
     0
300
1-1/2" = 1'-0"
140
1.5
141
12.0
290
     0
  0
SCALE
  5
632
102
{ACAD_REACTORS
330
613
102
}
330
613
100
AcDbScale
 70
     0
300
3" = 1'-0"
140
3.0
141
12.0
290
     0
  0
SCALE
  5
633
102
{ACAD_REACTORS
330
613
102
}
330
613
100
AcDbScale
 70
     0
300
6" = 1'-0"
140
6.0
141
12.0
290
     0
  0
SCALE
  5
634
102
{ACAD_REACTORS
330
613
102
}
330
613
100
AcDbScale
 70
     0
300
1'-0" = 1'-0"
140
12.0
141
12.0
290
     0
  0
VISUALSTYLE
  5
2F
102
{ACAD_REACTORS
330
2A
102
}
102
{ACAD_XDICTIONARY
360
648
102
}
330
2A
100
AcDbVisualStyle
  2
2dWireframe
 70
     4
 71
     0
 72
     2
 73
     0
 90
        0
 40
-0.6
 41
-30.0
 62
     5
 63
     7
 74
     1
 91
        4
 64
     7
 65
   257
 75
     1
175
     1
 42
1.0
 92
        0
 66
   257
 43
1.0
 76
     1
 77
     6
 78
     2
 67
     7
 79
     5
170
     0
171
     0
290
     0
174
     0
 93
        1
 44
0.0
173
     0
291
     0
 45
0.0
1001
ACAD
1000
AcDbSavedByObjectVersion
1070
     0
  0
VISUALSTYLE
  5
31
102
{ACAD_REACTORS
330
2A
102
}
102
{ACAD_XDICTIONARY
360
64C
102
}
330
2A
100
AcDbVisualStyle
  2
3D Hidden
 70
     6
 71
     1
 72
     2
 73
     2
 90
        0
 40
-0.6
 41
-30.0
 62
     5
 63
     7
 74
     2
 91
        2
 64
     7
 65
   257
 75
     2
175
     1
 42
40.0
 92
        0
 66
   257
 43
1.0
 76
     1
 77
     6
 78
     2
 67
     7
 79
     3
170
     0
171
     0
290
     0
174
     0
 93
        1
 44
0.0
173
     0
291
     0
 45
0.0
1001
ACAD
1000
AcDbSavedByObjectVersion
1070
     0
  0
VISUALSTYLE
  5
30
102
{ACAD_REACTORS
330
2A
102
}
102
{ACAD_XDICTIONARY
360
64A
102
}
330
2A
100
AcDbVisualStyle
  2
3dWireframe
 70
     5
 71
     0
 72
     2
 73
     0
 90
        0
 40
-0.6
 41
-30.0
 62
     5
 63
     7
 74
     1
 91
        4
 64
     7
 65
   257
 75
     1
175
     1
 42
1.0
 92
        0
 66
   257
 43
1.0
 76
     1
 77
     6
 78
     2
 67
     7
 79
     5
170
     0
171
     0
290
     0
174
     0
 93
        1
 44
0.0
173
     0
291
     0
 45
0.0
1001
ACAD
1000
AcDbSavedByObjectVersion
1070
     0
  0
VISUALSTYLE
  5
32
102
{ACAD_REACTORS
330
2A
102
}
102
{ACAD_XDICTIONARY
360
64E
102
}
330
2A
100
AcDbVisualStyle
  2
Basic
 70
     7
 71
     1
 72
     0
 73
     1
 90
        0
 40
-0.6
 41
-30.0
 62
     5
 63
     7
 74
     0
 91
        4
 64
     7
 65
   257
 75
     1
175
     1
 42
1.0
 92
        8
 66
     7
 43
1.0
 76
     1
 77
     6
 78
     2
 67
     7
 79
     5
170
     0
171
     0
290
     0
174
     0
 93
        1
 44
0.0
173
     0
291
     1
 45
0.0
1001
ACAD
1000
AcDbSavedByObjectVersion
1070
     0
  0
VISUALSTYLE
  5
36
102
{ACAD_REACTORS
330
2A
102
}
102
{ACAD_XDICTIONARY
360
656
102
}
330
2A
100
AcDbVisualStyle
  2
Brighten
 70
    12
 71
     2
 72
     2
 73
     0
 90
        0
 40
-0.6
 41
-30.0
 62
     5
 63
     7
 74
     1
 91
        4
 64
     7
 65
   257
 75
     1
175
     1
 42
1.0
 92
        8
 66
     7
 43
1.0
 76
     1
 77
     6
 78
     2
 67
     7
 79
     5
170
     0
171
     0
290
     0
174
     0
 93
        1
 44
50.0
173
     0
291
     1
 45
0.0
1001
ACAD
1000
AcDbSavedByObjectVersion
1070
     0
  0
VISUALSTYLE
  5
3A
102
{ACAD_REACTORS
330
2A
102
}
102
{ACAD_XDICTIONARY
360
65E
102
}
330
2A
100
AcDbVisualStyle
  2
ColorChange
 70
    16
 71
     2
 72
     2
 73
     3
 90
        0
 40
-0.6
 41
-30.0
 62
     5
 63
     8
 74
     1
 91
        4
 64
     7
 65
   257
 75
     1
175
     1
 42
1.0
 92
        8
 66
     8
 43
1.0
 76
     1
 77
     6
 78
     2
 67
     7
 79
     5
170
     0
171
     0
290
     0
174
     0
 93
        1
 44
0.0
173
     0
291
     1
 45
0.0
1001
ACAD
1000
AcDbSavedByObjectVersion
1070
     0
  0
VISUALSTYLE
  5
34
102
{ACAD_REACTORS
330
2A
102
}
102
{ACAD_XDICTIONARY
360
652
102
}
330
2A
100
AcDbVisualStyle
  2
Conceptual
 70
     9
 71
     3
 72
     2
 73
     0
 90
        0
 40
-0.6
 41
-30.0
 62
     5
 63
     7
 74
     2
 91
        2
 64
     7
 65
   257
 75
     1
175
     1
 42
40.0
 92
        8
 66
     7
 43
1.0
 76
     1
 77
     6
 78
     2
 67
     7
 79
     3
170
     0
171
     0
290
     0
174
     0
 93
        1
 44
0.0
173
     0
291
     0
 45
0.0
1001
ACAD
1000
AcDbSavedByObjectVersion
1070
     0
  0
VISUALSTYLE
  5
35
102
{ACAD_REACTORS
330
2A
102
}
102
{ACAD_XDICTIONARY
360
654
102
}
330
2A
100
AcDbVisualStyle
  2
Dim
 70
    11
 71
     2
 72
     2
 73
     0
 90
        0
 40
-0.6
 41
-30.0
 62
     5
 63
     7
 74
     1
 91
        4
 64
     7
 65
   257
 75
     1
175
     1
 42
1.0
 92
        8
 66
     7
 43
1.0
 76
     1
 77
     6
 78
     2
 67
     7
 79
     5
170
     0
171
     0
290
     0
174
     0
 93
        1
 44
-50.0
173
     0
291
     1
 45
0.0
1001
ACAD
1000
AcDbSavedByObjectVersion
1070
     0
  0
VISUALSTYLE
  5
39
102
{ACAD_REACTORS
330
2A
102
}
102
{ACAD_XDICTIONARY
360
65C
102
}
330
2A
100
AcDbVisualStyle
  2
Facepattern
 70
    15
 71
     2
 72
     2
 73
     0
 90
        0
 40
-0.6
 41
-30.0
 62
     5
 63
     7
 74
     1
 91
        4
 64
     7
 65
   257
 75
     1
175
     1
 42
1.0
 92
        8
 66
     7
 43
1.0
 76
     1
 77
     6
 78
     2
 67
     7
 79
     5
170
     0
171
     0
290
     0
174
     0
 93
        1
 44
0.0
173
     0
291
     1
 45
0.0
1001
ACAD
1000
AcDbSavedByObjectVersion
1070
     0
  0
VISUALSTYLE
  5
2B
102
{ACAD_REACTORS
330
2A
102
}
102
{ACAD_XDICTIONARY
360
640
102
}
330
2A
100
AcDbVisualStyle
  2
Flat
 70
     0
 71
     2
 72
     1
 73
     1
 90
        2
 40
-0.6
 41
30.0
 62
     5
 63
     7
 74
     0
 91
        4
 64
     7
 65
   257
 75
     1
175
     1
 42
1.0
 92
        8
 66
     7
 43
1.0
 76
     1
 77
     6
 78
     2
 67
     7
 79
     5
170
     0
171
     0
290
     0
174
     0
 93
       13
 44
0.0
173
     0
291
     1
 45
0.0
1001
ACAD
1000
AcDbSavedByObjectVersion
1070
     0
  0
VISUALSTYLE
  5
2C
102
{ACAD_REACTORS
330
2A
102
}
102
{ACAD_XDICTIONARY
360
642
102
}
330
2A
100
AcDbVisualStyle
  2
FlatWithEdges
 70
     1
 71
     2
 72
     1
 73
     1
 90
        2
 40
-0.6
 41
30.0
 62
     5
 63
     7
 74
     1
 91
        4
 64
     7
 65
   257
 75
     1
175
     1
 42
1.0
 92
        0
 66
   257
 43
1.0
 76
     1
 77
     6
 78
     2
 67
     7
 79
     5
170
     0
171
     0
290
     0
174
     0
 93
       13
 44
0.0
173
     0
291
     1
 45
0.0
1001
ACAD
1000
AcDbSavedByObjectVersion
1070
     0
  0
VISUALSTYLE
  5
2D
102
{ACAD_REACTORS
330
2A
102
}
102
{ACAD_XDICTIONARY
360
644
102
}
330
2A
100
AcDbVisualStyle
  2
Gouraud
 70
     2
 71
     2
 72
     2
 73
     1
 90
        2
 40
-0.6
 41
30.0
 62
     5
 63
     7
 74
     0
 91
        4
 64
     7
 65
   257
 75
     1
175
     1
 42
1.0
 92
        0
 66
     7
 43
1.0
 76
     1
 77
     6
 78
     2
 67
     7
 79
     5
170
     0
171
     0
290
     0
174
     0
 93
       13
 44
0.0
173
     0
291
     1
 45
0.0
1001
ACAD
1000
AcDbSavedByObjectVersion
1070
     0
  0
VISUALSTYLE
  5
2E
102
{ACAD_REACTORS
330
2A
102
}
102
{ACAD_XDICTIONARY
360
646
102
}
330
2A
100
AcDbVisualStyle
  2
GouraudWithEdges
 70
     3
 71
     2
 72
     2
 73
     1
 90
        2
 40
-0.6
 41
30.0
 62
     5
 63
     7
 74
     1
 91
        4
 64
     7
 65
   257
 75
     1
175
     1
 42
1.0
 92
        0
 66
   257
 43
1.0
 76
     1
 77
     6
 78
     2
 67
     7
 79
     5
170
     0
171
     0
290
     0
174
     0
 93
       13
 44
0.0
173
     0
291
     1
 45
0.0
1001
ACAD
1000
AcDbSavedByObjectVersion
1070
     0
  0
VISUALSTYLE
  5
38
102
{ACAD_REACTORS
330
2A
102
}
102
{ACAD_XDICTIONARY
360
65A
102
}
330
2A
100
AcDbVisualStyle
  2
Linepattern
 70
    14
 71
     2
 72
     2
 73
     0
 90
        0
 40
-0.6
 41
-30.0
 62
     5
 63
     7
 74
     1
 91
        4
 64
     7
 65
   257
 75
     7
175
     7
 42
1.0
 92
        8
 66
     7
 43
1.0
 76
     1
 77
     6
 78
     2
 67
     7
 79
     5
170
     0
171
     0
290
     0
174
     0
 93
        1
 44
0.0
173
     0
291
     1
 45
0.0
1001
ACAD
1000
AcDbSavedByObjectVersion
1070
     0
  0
VISUALSTYLE
  5
33
102
{ACAD_REACTORS
330
2A
102
}
102
{ACAD_XDICTIONARY
360
650
102
}
330
2A
100
AcDbVisualStyle
  2
Realistic
 70
     8
 71
     2
 72
     2
 73
     0
 90
        0
 40
-0.6
 41
-30.0
 62
     5
 63
     7
 74
     1
 91
        0
 64
     7
 65
   257
 75
     1
175
     1
 42
1.0
 92
        8
 66
     8
 43
1.0
 76
     1
 77
     6
 78
     2
 67
     7
 79
     5
170
     0
171
     0
290
     0
174
     0
 93
       13
 44
0.0
173
     0
291
     0
 45
0.0
1001
ACAD
1000
AcDbSavedByObjectVersion
1070
     0
  0
VISUALSTYLE
  5
37
102
{ACAD_REACTORS
330
2A
102
}
102
{ACAD_XDICTIONARY
360
658
102
}
330
2A
100
AcDbVisualStyle
  2
Thicken
 70
    13
 71
     2
 72
     2
 73
     0
 90
        0
 40
-0.6
 41
-30.0
 62
     5
 63
     7
 74
     1
 91
        4
 64
     7
 65
   257
 75
     1
175
     1
 42
1.0
 92
       12
 66
     7
 43
1.0
 76
     1
 77
     6
 78
     2
 67
     7
 79
     5
170
     0
171
     0
290
     0
174
     0
 93
        1
 44
0.0
173
     0
291
     1
 45
0.0
1001
ACAD
1000
AcDbSavedByObjectVersion
1070
     0
  0
DICTIONARYVAR
  5
63B
102
{ACAD_REACTORS
330
637
102
}
330
637
100
DictionaryVariables
280
     0
  1
1:1
  0
DICTIONARYVAR
  5
63C
102
{ACAD_REACTORS
330
637
102
}
330
637
100
DictionaryVariables
280
     0
  1
2
  0
DICTIONARYVAR
  5
63D
102
{ACAD_REACTORS
330
637
102
}
330
637
100
DictionaryVariables
280
     0
  1
1
  0
DICTIONARYVAR
  5
63A
102
{ACAD_REACTORS
330
637
102
}
330
637
100
DictionaryVariables
280
     0
  1
0
  0
XRECORD
  5
636
102
{ACAD_REACTORS
330
635
102
}
330
635
100
AcDbXrecord
280
     1
1000
This DWG file was created in ArchiCAD(TM)®
  0
SPATIAL_FILTER
  5
60F
102
{ACAD_REACTORS
330
60E
102
}
330
60E
100
AcDbFilter
100
AcDbSpatialFilter
 70
     4
 10
27.23079803341079
 20
41.99863584910897
 10
285.8822815110256
 20
41.99863584910897
 10
285.8822815110256
 20
179.5406691583741
 10
27.23079803341079
 20
179.5406691583741
210
0.0
220
0.0
230
1.0
 11
0.0
 21
0.0
 31
0.0
 71
     1
 72
     0
 73
     0
 40
1.0
 40
0.0
 40
0.0
 40
0.0
 40
0.0
 40
1.0
 40
0.0
 40
0.0
 40
0.0
 40
0.0
 40
1.0
 40
0.0
 40
1.0
 40
0.0
 40
0.0
 40
0.0
 40
0.0
 40
1.0
 40
0.0
 40
0.0
 40
0.0
 40
0.0
 40
1.0
 40
0.0
  0
DICTIONARY
  5
662
330
3D
100
AcDbDictionary
280
     1
281
     1
  3
ACAD_XREC_ROUNDTRIP
360
663
  0
DICTIONARY
  5
660
330
3C
100
AcDbDictionary
280
     1
281
     1
  3
ACAD_XREC_ROUNDTRIP
360
661
  0
DICTIONARY
  5
664
330
3E
100
AcDbDictionary
280
     1
281
     1
  3
ACAD_XREC_ROUNDTRIP
360
665
  0
DICTIONARY
  5
648
330
2F
100
AcDbDictionary
280
     1
281
     1
  3
ACAD_XREC_ROUNDTRIP
360
649
  0
DICTIONARY
  5
64C
330
31
100
AcDbDictionary
280
     1
281
     1
  3
ACAD_XREC_ROUNDTRIP
360
64D
  0
DICTIONARY
  5
64A
330
30
100
AcDbDictionary
280
     1
281
     1
  3
ACAD_XREC_ROUNDTRIP
360
64B
  0
DICTIONARY
  5
64E
330
32
100
AcDbDictionary
280
     1
281
     1
  3
ACAD_XREC_ROUNDTRIP
360
64F
  0
DICTIONARY
  5
656
330
36
100
AcDbDictionary
280
     1
281
     1
  3
ACAD_XREC_ROUNDTRIP
360
657
  0
DICTIONARY
  5
65E
330
3A
100
AcDbDictionary
280
     1
281
     1
  3
ACAD_XREC_ROUNDTRIP
360
65F
  0
DICTIONARY
  5
652
330
34
100
AcDbDictionary
280
     1
281
     1
  3
ACAD_XREC_ROUNDTRIP
360
653
  0
DICTIONARY
  5
654
330
35
100
AcDbDictionary
280
     1
281
     1
  3
ACAD_XREC_ROUNDTRIP
360
655
  0
DICTIONARY
  5
65C
330
39
100
AcDbDictionary
280
     1
281
     1
  3
ACAD_XREC_ROUNDTRIP
360
65D
  0
DICTIONARY
  5
640
330
2B
100
AcDbDictionary
280
     1
281
     1
  3
ACAD_XREC_ROUNDTRIP
360
641
  0
DICTIONARY
  5
642
330
2C
100
AcDbDictionary
280
     1
281
     1
  3
ACAD_XREC_ROUNDTRIP
360
643
  0
DICTIONARY
  5
644
330
2D
100
AcDbDictionary
280
     1
281
     1
  3
ACAD_XREC_ROUNDTRIP
360
645
  0
DICTIONARY
  5
646
330
2E
100
AcDbDictionary
280
     1
281
     1
  3
ACAD_XREC_ROUNDTRIP
360
647
  0
DICTIONARY
  5
65A
330
38
100
AcDbDictionary
280
     1
281
     1
  3
ACAD_XREC_ROUNDTRIP
360
65B
  0
DICTIONARY
  5
650
330
33
100
AcDbDictionary
280
     1
281
     1
  3
ACAD_XREC_ROUNDTRIP
360
651
  0
DICTIONARY
  5
658
330
37
100
AcDbDictionary
280
     1
281
     1
  3
ACAD_XREC_ROUNDTRIP
360
659
  0
XRECORD
  5
663
102
{ACAD_REACTORS
330
662
102
}
330
662
100
AcDbXrecord
280
     1
102
MATERIAL
148
0.0
149
0.0
149
0.0
 93
        0
 94
      127
282
     0
 72
     1
 77
     1
171
     1
175
     1
179
     1
273
     0
  0
XRECORD
  5
661
102
{ACAD_REACTORS
330
660
102
}
330
660
100
AcDbXrecord
280
     1
102
MATERIAL
148
0.0
149
0.0
149
0.0
 93
        0
 94
      127
282
     0
 72
     1
 77
     1
171
     1
175
     1
179
     1
273
     0
  0
XRECORD
  5
665
102
{ACAD_REACTORS
330
664
102
}
330
664
100
AcDbXrecord
280
     1
102
MATERIAL
148
0.0
149
0.0
149
0.0
 93
        0
 94
      127
282
     0
 72
     1
 77
     1
171
     1
175
     1
179
     1
273
     0
  0
XRECORD
  5
649
102
{ACAD_REACTORS
330
648
102
}
330
648
100
AcDbXrecord
280
     1
102
RTVSPropertyOp0
 70
     1
102
RTVSPropertyOp1
 70
     1
102
RTVSPropertyOp2
 70
     1
102
RTVSPropertyOp3
 70
     1
102
RTVSPropertyOp4
 70
     1
102
RTVSPropertyOp5
 70
     1
102
RTVSPropertyOp6
 70
     1
102
RTVSPropertyOp7
 70
     1
102
RTVSPropertyOp8
 70
     1
102
RTVSPropertyOp9
 70
     1
102
RTVSPropertyOp10
 70
     1
102
RTVSPropertyOp11
 70
     1
102
RTVSPropertyOp12
 70
     1
102
RTVSPropertyOp13
 70
     1
102
RTVSPropertyOp14
 70
     1
102
RTVSPropertyOp15
 70
     1
102
RTVSPropertyOp16
 70
     1
102
RTVSPropertyOp17
 70
     1
102
RTVSPropertyOp18
 70
     1
102
RTVSPropertyOp19
 70
     1
102
RTVSPropertyOp20
 70
     1
102
RTVSPropertyOp21
 70
     1
102
RTVSPropertyOp22
 70
     1
102
RTVSPropertyOp23
 70
     1
102
RTVSPropertyOp24
 70
     1
102
RTVSPropertyOp25
 70
     1
102
RTVSPropertyOp26
 70
     1
102
RTVSPropertyOp27
 70
     1
102
RTVSPropertyOp28
 70
     1
102
RTVSPropertyOp29
 70
     1
102
RTVSPropertyOp30
 70
     1
102
RTVSPropertyOp31
 70
     1
102
RTVSPropertyOp32
 70
     1
  0
XRECORD
  5
64D
102
{ACAD_REACTORS
330
64C
102
}
330
64C
100
AcDbXrecord
280
     1
102
RTVSPropertyOp0
 70
     1
102
RTVSPropertyOp1
 70
     1
102
RTVSPropertyOp2
 70
     1
102
RTVSPropertyOp3
 70
     1
102
RTVSPropertyOp4
 70
     1
102
RTVSPropertyOp5
 70
     1
102
RTVSPropertyOp6
 70
     1
102
RTVSPropertyOp7
 70
     1
102
RTVSPropertyOp8
 70
     1
102
RTVSPropertyOp9
 70
     1
102
RTVSPropertyOp10
 70
     1
102
RTVSPropertyOp11
 70
     1
102
RTVSPropertyOp12
 70
     1
102
RTVSPropertyOp13
 70
     1
102
RTVSPropertyOp14
 70
     1
102
RTVSPropertyOp15
 70
     1
102
RTVSPropertyOp16
 70
     1
102
RTVSPropertyOp17
 70
     1
102
RTVSPropertyOp18
 70
     1
102
RTVSPropertyOp19
 70
     1
102
RTVSPropertyOp20
 70
     1
102
RTVSPropertyOp21
 70
     1
102
RTVSPropertyOp22
 70
     1
102
RTVSPropertyOp23
 70
     1
102
RTVSPropertyOp24
 70
     1
102
RTVSPropertyOp25
 70
     1
102
RTVSPropertyOp26
 70
     1
102
RTVSPropertyOp27
 70
     1
102
RTVSPropertyOp28
 70
     1
102
RTVSPropertyOp29
 70
     1
102
RTVSPropertyOp30
 70
     1
102
RTVSPropertyOp31
 70
     1
102
RTVSPropertyOp32
 70
     1
  0
XRECORD
  5
64B
102
{ACAD_REACTORS
330
64A
102
}
330
64A
100
AcDbXrecord
280
     1
102
RTVSPropertyOp0
 70
     1
102
RTVSPropertyOp1
 70
     1
102
RTVSPropertyOp2
 70
     1
102
RTVSPropertyOp3
 70
     1
102
RTVSPropertyOp4
 70
     1
102
RTVSPropertyOp5
 70
     1
102
RTVSPropertyOp6
 70
     1
102
RTVSPropertyOp7
 70
     1
102
RTVSPropertyOp8
 70
     1
102
RTVSPropertyOp9
 70
     1
102
RTVSPropertyOp10
 70
     1
102
RTVSPropertyOp11
 70
     1
102
RTVSPropertyOp12
 70
     1
102
RTVSPropertyOp13
 70
     1
102
RTVSPropertyOp14
 70
     1
102
RTVSPropertyOp15
 70
     1
102
RTVSPropertyOp16
 70
     1
102
RTVSPropertyOp17
 70
     1
102
RTVSPropertyOp18
 70
     1
102
RTVSPropertyOp19
 70
     1
102
RTVSPropertyOp20
 70
     1
102
RTVSPropertyOp21
 70
     1
102
RTVSPropertyOp22
 70
     1
102
RTVSPropertyOp23
 70
     1
102
RTVSPropertyOp24
 70
     1
102
RTVSPropertyOp25
 70
     1
102
RTVSPropertyOp26
 70
     1
102
RTVSPropertyOp27
 70
     1
102
RTVSPropertyOp28
 70
     1
102
RTVSPropertyOp29
 70
     1
102
RTVSPropertyOp30
 70
     1
102
RTVSPropertyOp31
 70
     1
102
RTVSPropertyOp32
 70
     1
  0
XRECORD
  5
64F
102
{ACAD_REACTORS
330
64E
102
}
330
64E
100
AcDbXrecord
280
     1
102
RTVSPropertyOp0
 70
     1
102
RTVSPropertyOp1
 70
     1
102
RTVSPropertyOp2
 70
     1
102
RTVSPropertyOp3
 70
     1
102
RTVSPropertyOp4
 70
     1
102
RTVSPropertyOp5
 70
     1
102
RTVSPropertyOp6
 70
     1
102
RTVSPropertyOp7
 70
     1
102
RTVSPropertyOp8
 70
     1
102
RTVSPropertyOp9
 70
     1
102
RTVSPropertyOp10
 70
     1
102
RTVSPropertyOp11
 70
     1
102
RTVSPropertyOp12
 70
     1
102
RTVSPropertyOp13
 70
     1
102
RTVSPropertyOp14
 70
     1
102
RTVSPropertyOp15
 70
     1
102
RTVSPropertyOp16
 70
     1
102
RTVSPropertyOp17
 70
     1
102
RTVSPropertyOp18
 70
     1
102
RTVSPropertyOp19
 70
     1
102
RTVSPropertyOp20
 70
     1
102
RTVSPropertyOp21
 70
     1
102
RTVSPropertyOp22
 70
     1
102
RTVSPropertyOp23
 70
     1
102
RTVSPropertyOp24
 70
     1
102
RTVSPropertyOp25
 70
     1
102
RTVSPropertyOp26
 70
     1
102
RTVSPropertyOp27
 70
     1
102
RTVSPropertyOp28
 70
     1
102
RTVSPropertyOp29
 70
     1
102
RTVSPropertyOp30
 70
     1
102
RTVSPropertyOp31
 70
     1
102
RTVSPropertyOp32
 70
     1
  0
XRECORD
  5
657
102
{ACAD_REACTORS
330
656
102
}
330
656
100
AcDbXrecord
280
     1
102
RTVSPropertyOp0
 70
     1
102
RTVSPropertyOp1
 70
     1
102
RTVSPropertyOp2
 70
     1
102
RTVSPropertyOp3
 70
     1
102
RTVSPropertyOp4
 70
     1
102
RTVSPropertyOp5
 70
     1
102
RTVSPropertyOp6
 70
     1
102
RTVSPropertyOp7
 70
     1
102
RTVSPropertyOp8
 70
     1
102
RTVSPropertyOp9
 70
     1
102
RTVSPropertyOp10
 70
     1
102
RTVSPropertyOp11
 70
     1
102
RTVSPropertyOp12
 70
     1
102
RTVSPropertyOp13
 70
     1
102
RTVSPropertyOp14
 70
     1
102
RTVSPropertyOp15
 70
     1
102
RTVSPropertyOp16
 70
     1
102
RTVSPropertyOp17
 70
     1
102
RTVSPropertyOp18
 70
     1
102
RTVSPropertyOp19
 70
     1
102
RTVSPropertyOp20
 70
     1
102
RTVSPropertyOp21
 70
     1
102
RTVSPropertyOp22
 70
     1
102
RTVSPropertyOp23
 70
     1
102
RTVSPropertyOp24
 70
     1
102
RTVSPropertyOp25
 70
     1
102
RTVSPropertyOp26
 70
     1
102
RTVSPropertyOp27
 70
     1
102
RTVSPropertyOp28
 70
     1
102
RTVSPropertyOp29
 70
     1
102
RTVSPropertyOp30
 70
     1
102
RTVSPropertyOp31
 70
     1
102
RTVSPropertyOp32
 70
     1
  0
XRECORD
  5
65F
102
{ACAD_REACTORS
330
65E
102
}
330
65E
100
AcDbXrecord
280
     1
102
RTVSPropertyOp0
 70
     1
102
RTVSPropertyOp1
 70
     1
102
RTVSPropertyOp2
 70
     1
102
RTVSPropertyOp3
 70
     1
102
RTVSPropertyOp4
 70
     1
102
RTVSPropertyOp5
 70
     1
102
RTVSPropertyOp6
 70
     1
102
RTVSPropertyOp7
 70
     1
102
RTVSPropertyOp8
 70
     1
102
RTVSPropertyOp9
 70
     1
102
RTVSPropertyOp10
 70
     1
102
RTVSPropertyOp11
 70
     1
102
RTVSPropertyOp12
 70
     1
102
RTVSPropertyOp13
 70
     1
102
RTVSPropertyOp14
 70
     1
102
RTVSPropertyOp15
 70
     1
102
RTVSPropertyOp16
 70
     1
102
RTVSPropertyOp17
 70
     1
102
RTVSPropertyOp18
 70
     1
102
RTVSPropertyOp19
 70
     1
102
RTVSPropertyOp20
 70
     1
102
RTVSPropertyOp21
 70
     1
102
RTVSPropertyOp22
 70
     1
102
RTVSPropertyOp23
 70
     1
102
RTVSPropertyOp24
 70
     1
102
RTVSPropertyOp25
 70
     1
102
RTVSPropertyOp26
 70
     1
102
RTVSPropertyOp27
 70
     1
102
RTVSPropertyOp28
 70
     1
102
RTVSPropertyOp29
 70
     1
102
RTVSPropertyOp30
 70
     1
102
RTVSPropertyOp31
 70
     1
102
RTVSPropertyOp32
 70
     1
  0
XRECORD
  5
653
102
{ACAD_REACTORS
330
652
102
}
330
652
100
AcDbXrecord
280
     1
102
RTVSPropertyOp0
 70
     1
102
RTVSPropertyOp1
 70
     1
102
RTVSPropertyOp2
 70
     1
102
RTVSPropertyOp3
 70
     1
102
RTVSPropertyOp4
 70
     1
102
RTVSPropertyOp5
 70
     1
102
RTVSPropertyOp6
 70
     1
102
RTVSPropertyOp7
 70
     1
102
RTVSPropertyOp8
 70
     1
102
RTVSPropertyOp9
 70
     1
102
RTVSPropertyOp10
 70
     1
102
RTVSPropertyOp11
 70
     1
102
RTVSPropertyOp12
 70
     1
102
RTVSPropertyOp13
 70
     1
102
RTVSPropertyOp14
 70
     1
102
RTVSPropertyOp15
 70
     1
102
RTVSPropertyOp16
 70
     1
102
RTVSPropertyOp17
 70
     1
102
RTVSPropertyOp18
 70
     1
102
RTVSPropertyOp19
 70
     1
102
RTVSPropertyOp20
 70
     1
102
RTVSPropertyOp21
 70
     1
102
RTVSPropertyOp22
 70
     1
102
RTVSPropertyOp23
 70
     1
102
RTVSPropertyOp24
 70
     1
102
RTVSPropertyOp25
 70
     1
102
RTVSPropertyOp26
 70
     1
102
RTVSPropertyOp27
 70
     1
102
RTVSPropertyOp28
 70
     1
102
RTVSPropertyOp29
 70
     1
102
RTVSPropertyOp30
 70
     1
102
RTVSPropertyOp31
 70
     1
102
RTVSPropertyOp32
 70
     1
  0
XRECORD
  5
655
102
{ACAD_REACTORS
330
654
102
}
330
654
100
AcDbXrecord
280
     1
102
RTVSPropertyOp0
 70
     1
102
RTVSPropertyOp1
 70
     1
102
RTVSPropertyOp2
 70
     1
102
RTVSPropertyOp3
 70
     1
102
RTVSPropertyOp4
 70
     1
102
RTVSPropertyOp5
 70
     1
102
RTVSPropertyOp6
 70
     1
102
RTVSPropertyOp7
 70
     1
102
RTVSPropertyOp8
 70
     1
102
RTVSPropertyOp9
 70
     1
102
RTVSPropertyOp10
 70
     1
102
RTVSPropertyOp11
 70
     1
102
RTVSPropertyOp12
 70
     1
102
RTVSPropertyOp13
 70
     1
102
RTVSPropertyOp14
 70
     1
102
RTVSPropertyOp15
 70
     1
102
RTVSPropertyOp16
 70
     1
102
RTVSPropertyOp17
 70
     1
102
RTVSPropertyOp18
 70
     1
102
RTVSPropertyOp19
 70
     1
102
RTVSPropertyOp20
 70
     1
102
RTVSPropertyOp21
 70
     1
102
RTVSPropertyOp22
 70
     1
102
RTVSPropertyOp23
 70
     1
102
RTVSPropertyOp24
 70
     1
102
RTVSPropertyOp25
 70
     1
102
RTVSPropertyOp26
 70
     1
102
RTVSPropertyOp27
 70
     1
102
RTVSPropertyOp28
 70
     1
102
RTVSPropertyOp29
 70
     1
102
RTVSPropertyOp30
 70
     1
102
RTVSPropertyOp31
 70
     1
102
RTVSPropertyOp32
 70
     1
  0
XRECORD
  5
65D
102
{ACAD_REACTORS
330
65C
102
}
330
65C
100
AcDbXrecord
280
     1
102
RTVSPropertyOp0
 70
     1
102
RTVSPropertyOp1
 70
     1
102
RTVSPropertyOp2
 70
     1
102
RTVSPropertyOp3
 70
     1
102
RTVSPropertyOp4
 70
     1
102
RTVSPropertyOp5
 70
     1
102
RTVSPropertyOp6
 70
     1
102
RTVSPropertyOp7
 70
     1
102
RTVSPropertyOp8
 70
     1
102
RTVSPropertyOp9
 70
     1
102
RTVSPropertyOp10
 70
     1
102
RTVSPropertyOp11
 70
     1
102
RTVSPropertyOp12
 70
     1
102
RTVSPropertyOp13
 70
     1
102
RTVSPropertyOp14
 70
     1
102
RTVSPropertyOp15
 70
     1
102
RTVSPropertyOp16
 70
     1
102
RTVSPropertyOp17
 70
     1
102
RTVSPropertyOp18
 70
     1
102
RTVSPropertyOp19
 70
     1
102
RTVSPropertyOp20
 70
     1
102
RTVSPropertyOp21
 70
     1
102
RTVSPropertyOp22
 70
     1
102
RTVSPropertyOp23
 70
     1
102
RTVSPropertyOp24
 70
     1
102
RTVSPropertyOp25
 70
     1
102
RTVSPropertyOp26
 70
     1
102
RTVSPropertyOp27
 70
     1
102
RTVSPropertyOp28
 70
     1
102
RTVSPropertyOp29
 70
     1
102
RTVSPropertyOp30
 70
     1
102
RTVSPropertyOp31
 70
     1
102
RTVSPropertyOp32
 70
     1
  0
XRECORD
  5
641
102
{ACAD_REACTORS
330
640
102
}
330
640
100
AcDbXrecord
280
     1
102
RTVSPropertyOp0
 70
     1
102
RTVSPropertyOp1
 70
     1
102
RTVSPropertyOp2
 70
     1
102
RTVSPropertyOp3
 70
     1
102
RTVSPropertyOp4
 70
     1
102
RTVSPropertyOp5
 70
     1
102
RTVSPropertyOp6
 70
     1
102
RTVSPropertyOp7
 70
     1
102
RTVSPropertyOp8
 70
     1
102
RTVSPropertyOp9
 70
     1
102
RTVSPropertyOp10
 70
     1
102
RTVSPropertyOp11
 70
     1
102
RTVSPropertyOp12
 70
     1
102
RTVSPropertyOp13
 70
     1
102
RTVSPropertyOp14
 70
     1
102
RTVSPropertyOp15
 70
     1
102
RTVSPropertyOp16
 70
     1
102
RTVSPropertyOp17
 70
     1
102
RTVSPropertyOp18
 70
     1
102
RTVSPropertyOp19
 70
     1
102
RTVSPropertyOp20
 70
     1
102
RTVSPropertyOp21
 70
     1
102
RTVSPropertyOp22
 70
     1
102
RTVSPropertyOp23
 70
     1
102
RTVSPropertyOp24
 70
     1
102
RTVSPropertyOp25
 70
     1
102
RTVSPropertyOp26
 70
     1
102
RTVSPropertyOp27
 70
     1
102
RTVSPropertyOp28
 70
     1
102
RTVSPropertyOp29
 70
     1
102
RTVSPropertyOp30
 70
     1
102
RTVSPropertyOp31
 70
     1
102
RTVSPropertyOp32
 70
     1
  0
XRECORD
  5
643
102
{ACAD_REACTORS
330
642
102
}
330
642
100
AcDbXrecord
280
     1
102
RTVSPropertyOp0
 70
     1
102
RTVSPropertyOp1
 70
     1
102
RTVSPropertyOp2
 70
     1
102
RTVSPropertyOp3
 70
     1
102
RTVSPropertyOp4
 70
     1
102
RTVSPropertyOp5
 70
     1
102
RTVSPropertyOp6
 70
     1
102
RTVSPropertyOp7
 70
     1
102
RTVSPropertyOp8
 70
     1
102
RTVSPropertyOp9
 70
     1
102
RTVSPropertyOp10
 70
     1
102
RTVSPropertyOp11
 70
     1
102
RTVSPropertyOp12
 70
     1
102
RTVSPropertyOp13
 70
     1
102
RTVSPropertyOp14
 70
     1
102
RTVSPropertyOp15
 70
     1
102
RTVSPropertyOp16
 70
     1
102
RTVSPropertyOp17
 70
     1
102
RTVSPropertyOp18
 70
     1
102
RTVSPropertyOp19
 70
     1
102
RTVSPropertyOp20
 70
     1
102
RTVSPropertyOp21
 70
     1
102
RTVSPropertyOp22
 70
     1
102
RTVSPropertyOp23
 70
     1
102
RTVSPropertyOp24
 70
     1
102
RTVSPropertyOp25
 70
     1
102
RTVSPropertyOp26
 70
     1
102
RTVSPropertyOp27
 70
     1
102
RTVSPropertyOp28
 70
     1
102
RTVSPropertyOp29
 70
     1
102
RTVSPropertyOp30
 70
     1
102
RTVSPropertyOp31
 70
     1
102
RTVSPropertyOp32
 70
     1
  0
XRECORD
  5
645
102
{ACAD_REACTORS
330
644
102
}
330
644
100
AcDbXrecord
280
     1
102
RTVSPropertyOp0
 70
     1
102
RTVSPropertyOp1
 70
     1
102
RTVSPropertyOp2
 70
     1
102
RTVSPropertyOp3
 70
     1
102
RTVSPropertyOp4
 70
     1
102
RTVSPropertyOp5
 70
     1
102
RTVSPropertyOp6
 70
     1
102
RTVSPropertyOp7
 70
     1
102
RTVSPropertyOp8
 70
     1
102
RTVSPropertyOp9
 70
     1
102
RTVSPropertyOp10
 70
     1
102
RTVSPropertyOp11
 70
     1
102
RTVSPropertyOp12
 70
     1
102
RTVSPropertyOp13
 70
     1
102
RTVSPropertyOp14
 70
     1
102
RTVSPropertyOp15
 70
     1
102
RTVSPropertyOp16
 70
     1
102
RTVSPropertyOp17
 70
     1
102
RTVSPropertyOp18
 70
     1
102
RTVSPropertyOp19
 70
     1
102
RTVSPropertyOp20
 70
     1
102
RTVSPropertyOp21
 70
     1
102
RTVSPropertyOp22
 70
     1
102
RTVSPropertyOp23
 70
     1
102
RTVSPropertyOp24
 70
     1
102
RTVSPropertyOp25
 70
     1
102
RTVSPropertyOp26
 70
     1
102
RTVSPropertyOp27
 70
     1
102
RTVSPropertyOp28
 70
     1
102
RTVSPropertyOp29
 70
     1
102
RTVSPropertyOp30
 70
     1
102
RTVSPropertyOp31
 70
     1
102
RTVSPropertyOp32
 70
     1
  0
XRECORD
  5
647
102
{ACAD_REACTORS
330
646
102
}
330
646
100
AcDbXrecord
280
     1
102
RTVSPropertyOp0
 70
     1
102
RTVSPropertyOp1
 70
     1
102
RTVSPropertyOp2
 70
     1
102
RTVSPropertyOp3
 70
     1
102
RTVSPropertyOp4
 70
     1
102
RTVSPropertyOp5
 70
     1
102
RTVSPropertyOp6
 70
     1
102
RTVSPropertyOp7
 70
     1
102
RTVSPropertyOp8
 70
     1
102
RTVSPropertyOp9
 70
     1
102
RTVSPropertyOp10
 70
     1
102
RTVSPropertyOp11
 70
     1
102
RTVSPropertyOp12
 70
     1
102
RTVSPropertyOp13
 70
     1
102
RTVSPropertyOp14
 70
     1
102
RTVSPropertyOp15
 70
     1
102
RTVSPropertyOp16
 70
     1
102
RTVSPropertyOp17
 70
     1
102
RTVSPropertyOp18
 70
     1
102
RTVSPropertyOp19
 70
     1
102
RTVSPropertyOp20
 70
     1
102
RTVSPropertyOp21
 70
     1
102
RTVSPropertyOp22
 70
     1
102
RTVSPropertyOp23
 70
     1
102
RTVSPropertyOp24
 70
     1
102
RTVSPropertyOp25
 70
     1
102
RTVSPropertyOp26
 70
     1
102
RTVSPropertyOp27
 70
     1
102
RTVSPropertyOp28
 70
     1
102
RTVSPropertyOp29
 70
     1
102
RTVSPropertyOp30
 70
     1
102
RTVSPropertyOp31
 70
     1
102
RTVSPropertyOp32
 70
     1
  0
XRECORD
  5
65B
102
{ACAD_REACTORS
330
65A
102
}
330
65A
100
AcDbXrecord
280
     1
102
RTVSPropertyOp0
 70
     1
102
RTVSPropertyOp1
 70
     1
102
RTVSPropertyOp2
 70
     1
102
RTVSPropertyOp3
 70
     1
102
RTVSPropertyOp4
 70
     1
102
RTVSPropertyOp5
 70
     1
102
RTVSPropertyOp6
 70
     1
102
RTVSPropertyOp7
 70
     1
102
RTVSPropertyOp8
 70
     1
102
RTVSPropertyOp9
 70
     1
102
RTVSPropertyOp10
 70
     1
102
RTVSPropertyOp11
 70
     1
102
RTVSPropertyOp12
 70
     1
102
RTVSPropertyOp13
 70
     1
102
RTVSPropertyOp14
 70
     1
102
RTVSPropertyOp15
 70
     1
102
RTVSPropertyOp16
 70
     1
102
RTVSPropertyOp17
 70
     1
102
RTVSPropertyOp18
 70
     1
102
RTVSPropertyOp19
 70
     1
102
RTVSPropertyOp20
 70
     1
102
RTVSPropertyOp21
 70
     1
102
RTVSPropertyOp22
 70
     1
102
RTVSPropertyOp23
 70
     1
102
RTVSPropertyOp24
 70
     1
102
RTVSPropertyOp25
 70
     1
102
RTVSPropertyOp26
 70
     1
102
RTVSPropertyOp27
 70
     1
102
RTVSPropertyOp28
 70
     1
102
RTVSPropertyOp29
 70
     1
102
RTVSPropertyOp30
 70
     1
102
RTVSPropertyOp31
 70
     1
102
RTVSPropertyOp32
 70
     1
  0
XRECORD
  5
651
102
{ACAD_REACTORS
330
650
102
}
330
650
100
AcDbXrecord
280
     1
102
RTVSPropertyOp0
 70
     1
102
RTVSPropertyOp1
 70
     1
102
RTVSPropertyOp2
 70
     1
102
RTVSPropertyOp3
 70
     1
102
RTVSPropertyOp4
 70
     1
102
RTVSPropertyOp5
 70
     1
102
RTVSPropertyOp6
 70
     1
102
RTVSPropertyOp7
 70
     1
102
RTVSPropertyOp8
 70
     1
102
RTVSPropertyOp9
 70
     1
102
RTVSPropertyOp10
 70
     1
102
RTVSPropertyOp11
 70
     1
102
RTVSPropertyOp12
 70
     1
102
RTVSPropertyOp13
 70
     1
102
RTVSPropertyOp14
 70
     1
102
RTVSPropertyOp15
 70
     1
102
RTVSPropertyOp16
 70
     1
102
RTVSPropertyOp17
 70
     1
102
RTVSPropertyOp18
 70
     1
102
RTVSPropertyOp19
 70
     1
102
RTVSPropertyOp20
 70
     1
102
RTVSPropertyOp21
 70
     1
102
RTVSPropertyOp22
 70
     1
102
RTVSPropertyOp23
 70
     1
102
RTVSPropertyOp24
 70
     1
102
RTVSPropertyOp25
 70
     1
102
RTVSPropertyOp26
 70
     1
102
RTVSPropertyOp27
 70
     1
102
RTVSPropertyOp28
 70
     1
102
RTVSPropertyOp29
 70
     1
102
RTVSPropertyOp30
 70
     1
102
RTVSPropertyOp31
 70
     1
102
RTVSPropertyOp32
 70
     1
  0
XRECORD
  5
659
102
{ACAD_REACTORS
330
658
102
}
330
658
100
AcDbXrecord
280
     1
102
RTVSPropertyOp0
 70
     1
102
RTVSPropertyOp1
 70
     1
102
RTVSPropertyOp2
 70
     1
102
RTVSPropertyOp3
 70
     1
102
RTVSPropertyOp4
 70
     1
102
RTVSPropertyOp5
 70
     1
102
RTVSPropertyOp6
 70
     1
102
RTVSPropertyOp7
 70
     1
102
RTVSPropertyOp8
 70
     1
102
RTVSPropertyOp9
 70
     1
102
RTVSPropertyOp10
 70
     1
102
RTVSPropertyOp11
 70
     1
102
RTVSPropertyOp12
 70
     1
102
RTVSPropertyOp13
 70
     1
102
RTVSPropertyOp14
 70
     1
102
RTVSPropertyOp15
 70
     1
102
RTVSPropertyOp16
 70
     1
102
RTVSPropertyOp17
 70
     1
102
RTVSPropertyOp18
 70
     1
102
RTVSPropertyOp19
 70
     1
102
RTVSPropertyOp20
 70
     1
102
RTVSPropertyOp21
 70
     1
102
RTVSPropertyOp22
 70
     1
102
RTVSPropertyOp23
 70
     1
102
RTVSPropertyOp24
 70
     1
102
RTVSPropertyOp25
 70
     1
102
RTVSPropertyOp26
 70
     1
102
RTVSPropertyOp27
 70
     1
102
RTVSPropertyOp28
 70
     1
102
RTVSPropertyOp29
 70
     1
102
RTVSPropertyOp30
 70
     1
102
RTVSPropertyOp31
 70
     1
102
RTVSPropertyOp32
 70
     1
  0
ENDSEC
  0
EOF
