  0
SECTION
  2
HEADER
  9
$ACADVER
  1
AC1015
  9
$ACADMAINTVER
 70
     6
  9
$DWGCODEPAGE
  3
ANSI_949
  9
$INSBASE
 10
0.0
 20
0.0
 30
0.0
  9
$EXTMIN
 10
1.000000000000000E+20
 20
1.000000000000000E+20
 30
1.000000000000000E+20
  9
$EXTMAX
 10
-1.000000000000000E+20
 20
-1.000000000000000E+20
 30
-1.000000000000000E+20
  9
$LIMMIN
 10
0.0
 20
0.0
  9
$LIMMAX
 10
12.0
 20
9.0
  9
$ORTHOMODE
 70
     0
  9
$REGENMODE
 70
     1
  9
$FILLMODE
 70
     1
  9
$QTEXTMODE
 70
     0
  9
$MIRRTEXT
 70
     1
  9
$LTSCALE
 40
1.0
  9
$ATTMODE
 70
     1
  9
$TEXTSIZE
 40
0.2
  9
$TRACEWID
 40
0.05
  9
$TEXTSTYLE
  7
Standard
  9
$CLAYER
  8
0
  9
$CELTYPE
  6
ByLayer
  9
$CECOLOR
 62
   256
  9
$CELTSCALE
 40
1.0
  9
$DISPSILH
 70
     0
  9
$DIMSCALE
 40
1.0
  9
$DIMASZ
 40
0.18
  9
$DIMEXO
 40
0.0625
  9
$DIMDLI
 40
0.38
  9
$DIMRND
 40
0.0
  9
$DIMDLE
 40
0.0
  9
$DIMEXE
 40
0.18
  9
$DIMTP
 40
0.0
  9
$DIMTM
 40
0.0
  9
$DIMTXT
 40
0.18
  9
$DIMCEN
 40
0.09
  9
$DIMTSZ
 40
0.0
  9
$DIMTOL
 70
     0
  9
$DIMLIM
 70
     0
  9
$DIMTIH
 70
     1
  9
$DIMTOH
 70
     1
  9
$DIMSE1
 70
     0
  9
$DIMSE2
 70
     0
  9
$DIMTAD
 70
     0
  9
$DIMZIN
 70
     0
  9
$DIMBLK
  1

  9
$DIMASO
 70
     1
  9
$DIMSHO
 70
     1
  9
$DIMPOST
  1

  9
$DIMAPOST
  1

  9
$DIMALT
 70
     0
  9
$DIMALTD
 70
     2
  9
$DIMALTF
 40
25.4
  9
$DIMLFAC
 40
1.0
  9
$DIMTOFL
 70
     0
  9
$DIMTVP
 40
0.0
  9
$DIMTIX
 70
     0
  9
$DIMSOXD
 70
     0
  9
$DIMSAH
 70
     0
  9
$DIMBLK1
  1

  9
$DIMBLK2
  1

  9
$DIMSTYLE
  2
Standard
  9
$DIMCLRD
 70
     0
  9
$DIMCLRE
 70
     0
  9
$DIMCLRT
 70
     0
  9
$DIMTFAC
 40
1.0
  9
$DIMGAP
 40
0.09
  9
$DIMJUST
 70
     0
  9
$DIMSD1
 70
     0
  9
$DIMSD2
 70
     0
  9
$DIMTOLJ
 70
     1
  9
$DIMTZIN
 70
     0
  9
$DIMALTZ
 70
     0
  9
$DIMALTTZ
 70
     0
  9
$DIMUPT
 70
     0
  9
$DIMDEC
 70
     4
  9
$DIMTDEC
 70
     4
  9
$DIMALTU
 70
     2
  9
$DIMALTTD
 70
     2
  9
$DIMTXSTY
  7
Standard
  9
$DIMAUNIT
 70
     0
  9
$DIMADEC
 70
     0
  9
$DIMALTRND
 40
0.0
  9
$DIMAZIN
 70
     0
  9
$DIMDSEP
 70
    46
  9
$DIMATFIT
 70
     3
  9
$DIMFRAC
 70
     0
  9
$DIMLDRBLK
  1

  9
$DIMLUNIT
 70
     2
  9
$DIMLWD
 70
    -2
  9
$DIMLWE
 70
    -2
  9
$DIMTMOVE
 70
     0
  9
$LUNITS
 70
     2
  9
$LUPREC
 70
     4
  9
$SKETCHINC
 40
0.1
  9
$FILLETRAD
 40
0.5
  9
$AUNITS
 70
     0
  9
$AUPREC
 70
     0
  9
$MENU
  1
.
  9
$ELEVATION
 40
0.0
  9
$PELEVATION
 40
0.0
  9
$THICKNESS
 40
0.0
  9
$LIMCHECK
 70
     0
  9
$CHAMFERA
 40
0.5
  9
$CHAMFERB
 40
0.5
  9
$CHAMFERC
 40
1.0
  9
$CHAMFERD
 40
0.0
  9
$SKPOLY
 70
     0
  9
$TDCREATE
 40
2456522.583731551
  9
$TDUCREATE
 40
2456522.083731551
  9
$TDUPDATE
 40
2456522.583761863
  9
$TDUUPDATE
 40
2456522.083761863
  9
$TDINDWG
 40
0.0000000116
  9
$TDUSRTIMER
 40
0.0000000116
  9
$USRTIMER
 70
     1
  9
$ANGBASE
 50
0.0
  9
$ANGDIR
 70
     0
  9
$PDMODE
 70
     0
  9
$PDSIZE
 40
0.0
  9
$PLINEWID
 40
0.0
  9
$SPLFRAME
 70
     0
  9
$SPLINETYPE
 70
     6
  9
$SPLINESEGS
 70
     8
  9
$HANDSEED
  5
6A5
  9
$SURFTAB1
 70
     6
  9
$SURFTAB2
 70
     6
  9
$SURFTYPE
 70
     6
  9
$SURFU
 70
     6
  9
$SURFV
 70
     6
  9
$UCSBASE
  2

  9
$UCSNAME
  2

  9
$UCSORG
 10
0.0
 20
0.0
 30
0.0
  9
$UCSXDIR
 10
1.0
 20
0.0
 30
0.0
  9
$UCSYDIR
 10
0.0
 20
1.0
 30
0.0
  9
$UCSORTHOREF
  2

  9
$UCSORTHOVIEW
 70
     0
  9
$UCSORGTOP
 10
0.0
 20
0.0
 30
0.0
  9
$UCSORGBOTTOM
 10
0.0
 20
0.0
 30
0.0
  9
$UCSORGLEFT
 10
0.0
 20
0.0
 30
0.0
  9
$UCSORGRIGHT
 10
0.0
 20
0.0
 30
0.0
  9
$UCSORGFRONT
 10
0.0
 20
0.0
 30
0.0
  9
$UCSORGBACK
 10
0.0
 20
0.0
 30
0.0
  9
$PUCSBASE
  2

  9
$PUCSNAME
  2

  9
$PUCSORG
 10
0.0
 20
0.0
 30
0.0
  9
$PUCSXDIR
 10
1.0
 20
0.0
 30
0.0
  9
$PUCSYDIR
 10
0.0
 20
1.0
 30
0.0
  9
$PUCSORTHOREF
  2

  9
$PUCSORTHOVIEW
 70
     0
  9
$PUCSORGTOP
 10
0.0
 20
0.0
 30
0.0
  9
$PUCSORGBOTTOM
 10
0.0
 20
0.0
 30
0.0
  9
$PUCSORGLEFT
 10
0.0
 20
0.0
 30
0.0
  9
$PUCSORGRIGHT
 10
0.0
 20
0.0
 30
0.0
  9
$PUCSORGFRONT
 10
0.0
 20
0.0
 30
0.0
  9
$PUCSORGBACK
 10
0.0
 20
0.0
 30
0.0
  9
$USERI1
 70
     0
  9
$USERI2
 70
     0
  9
$USERI3
 70
     0
  9
$USERI4
 70
     0
  9
$USERI5
 70
     0
  9
$USERR1
 40
0.0
  9
$USERR2
 40
0.0
  9
$USERR3
 40
0.0
  9
$USERR4
 40
0.0
  9
$USERR5
 40
0.0
  9
$WORLDVIEW
 70
     1
  9
$SHADEDGE
 70
     3
  9
$SHADEDIF
 70
    70
  9
$TILEMODE
 70
     1
  9
$MAXACTVP
 70
    64
  9
$PINSBASE
 10
0.0
 20
0.0
 30
0.0
  9
$PLIMCHECK
 70
     0
  9
$PEXTMIN
 10
1.000000000000000E+20
 20
1.000000000000000E+20
 30
1.000000000000000E+20
  9
$PEXTMAX
 10
-1.000000000000000E+20
 20
-1.000000000000000E+20
 30
-1.000000000000000E+20
  9
$PLIMMIN
 10
0.0
 20
0.0
  9
$PLIMMAX
 10
12.0
 20
9.0
  9
$UNITMODE
 70
     0
  9
$VISRETAIN
 70
     1
  9
$PLINEGEN
 70
     0
  9
$PSLTSCALE
 70
     1
  9
$TREEDEPTH
 70
  3020
  9
$CMLSTYLE
  2
Standard
  9
$CMLJUST
 70
     0
  9
$CMLSCALE
 40
1.0
  9
$PROXYGRAPHICS
 70
     1
  9
$MEASUREMENT
 70
     0
  9
$CELWEIGHT
370
    -1
  9
$ENDCAPS
280
     0
  9
$JOINSTYLE
280
     0
  9
$LWDISPLAY
290
     1
  9
$INSUNITS
 70
     4
  9
$HYPERLINKBASE
  1

  9
$STYLESHEET
  1

  9
$XEDIT
290
     1
  9
$CEPSNTYPE
380
     0
  9
$PSTYLEMODE
290
     1
  9
$FINGERPRINTGUID
  2
{500E0155-9DD7-4AA6-9201-331A40F316DA}
  9
$VERSIONGUID
  2
{FAEB1C32-E019-11D5-929B-00C0DF256EC4}
  9
$EXTNAMES
290
     1
  9
$PSVPSCALE
 40
0.0
  9
$OLESTARTUP
290
     0
  0
ENDSEC
  0
SECTION
  2
CLASSES
  0
CLASS
  1
ACDBDICTIONARYWDFLT
  2
AcDbDictionaryWithDefault
  3
ObjectDBX Classes
 90
        0
280
     0
281
     0
  0
CLASS
  1
VISUALSTYLE
  2
AcDbVisualStyle
  3
ObjectDBX Classes
 90
     4095
280
     0
281
     0
  0
CLASS
  1
MATERIAL
  2
AcDbMaterial
  3
ObjectDBX Classes
 90
     1153
280
     0
281
     0
  0
CLASS
  1
SPATIAL_FILTER
  2
AcDbSpatialFilter
  3
ObjectDBX Classes
 90
        0
280
     0
281
     0
  0
CLASS
  1
SCALE
  2
AcDbScale
  3
ObjectDBX Classes
 90
     1153
280
     0
281
     0
  0
CLASS
  1
DICTIONARYVAR
  2
AcDbDictionaryVar
  3
ObjectDBX Classes
 90
        0
280
     0
281
     0
  0
CLASS
  1
ACDBPLACEHOLDER
  2
AcDbPlaceHolder
  3
ObjectDBX Classes
 90
        0
280
     0
281
     0
  0
CLASS
  1
LAYOUT
  2
AcDbLayout
  3
ObjectDBX Classes
 90
        0
280
     0
281
     0
  0
ENDSEC
  0
SECTION
  2
TABLES
  0
TABLE
  2
VPORT
  5
8
330
0
100
AcDbSymbolTable
 70
     1
  0
VPORT
  5
29
330
8
100
AcDbSymbolTableRecord
100
AcDbViewportTableRecord
  2
*Active
 70
     0
 10
0.0
 20
0.0
 11
1.0
 21
1.0
 12
148.6203422501967
 22
99.83536082289874
 13
0.0
 23
0.0
 14
0.5
 24
0.5
 15
0.5
 25
0.5
 16
0.0
 26
0.0
 36
1.0
 17
0.0
 27
0.0
 37
0.0
 40
199.5292239653249
 41
1.447935753198045
 42
50.0
 43
0.0
 44
0.0
 50
0.0
 51
0.0
 71
     0
 72
   100
 73
     1
 74
     3
 75
     0
 76
     0
 77
     0
 78
     0
281
     0
 65
     1
110
0.0
120
0.0
130
0.0
111
1.0
121
0.0
131
0.0
112
0.0
122
1.0
132
0.0
 79
     0
146
0.0
  0
ENDTAB
  0
TABLE
  2
LTYPE
  5
5
330
0
100
AcDbSymbolTable
 70
     2
  0
LTYPE
  5
14
330
5
100
AcDbSymbolTableRecord
100
AcDbLinetypeTableRecord
  2
ByBlock
 70
     0
  3

 72
    65
 73
     0
 40
0.0
  0
LTYPE
  5
15
330
5
100
AcDbSymbolTableRecord
100
AcDbLinetypeTableRecord
  2
ByLayer
 70
     0
  3

 72
    65
 73
     0
 40
0.0
  0
LTYPE
  5
16
330
5
100
AcDbSymbolTableRecord
100
AcDbLinetypeTableRecord
  2
Continuous
 70
     0
  3
Solid line
 72
    65
 73
     0
 40
0.0
  0
LTYPE
  5
132
330
5
100
AcDbSymbolTableRecord
100
AcDbLinetypeTableRecord
  2
Dashed
 70
     0
  3
- - - - - 
 72
    65
 73
     2
 40
5.644444465637207
 49
2.822222232818604
 74
     0
 49
-2.822222232818603
 74
     0
  0
ENDTAB
  0
TABLE
  2
LAYER
  5
2
330
0
100
AcDbSymbolTable
 70
     3
  0
LAYER
  5
10
330
2
100
AcDbSymbolTableRecord
100
AcDbLayerTableRecord
  2
0
 70
     0
 62
     7
  6
Continuous
370
    -3
390
F
  0
LAYER
  5
40
330
2
100
AcDbSymbolTableRecord
100
AcDbLayerTableRecord
  2
Doc_ Finishes
 70
     0
 62
     7
  6
Continuous
370
    -3
390
F
  0
LAYER
  5
DB
330
2
100
AcDbSymbolTableRecord
100
AcDbLayerTableRecord
  2
Doc_ Floor
 70
     0
 62
     7
  6
Continuous
370
    -3
390
F
  0
ENDTAB
  0
TABLE
  2
STYLE
  5
3
330
0
100
AcDbSymbolTable
 70
     4
  0
STYLE
  5
11
330
3
100
AcDbSymbolTableRecord
100
AcDbTextStyleTableRecord
  2
Standard
 70
     0
 40
0.0
 41
1.0
 50
0.0
 71
     0
 42
0.2
  3
txt
  4

  0
STYLE
  5
D6
330
3
100
AcDbSymbolTableRecord
100
AcDbTextStyleTableRecord
  2
GENERATED_STYLE_1
 70
     0
 40
0.0
 41
1.0
 50
0.0
 71
     0
 42
0.2
  3

  4

1001
ACAD
1000
Century Gothic
1071
       34
  0
STYLE
  5
D9
330
3
100
AcDbSymbolTableRecord
100
AcDbTextStyleTableRecord
  2
GENERATED_STYLE_2
 70
     0
 40
0.0
 41
1.0
 50
0.0
 71
     0
 42
0.2
  3

  4

1001
ACAD
1000
DilleniaUPC
1071
 33554450
  0
STYLE
  5
160
330
3
100
AcDbSymbolTableRecord
100
AcDbTextStyleTableRecord
  2
GENERATED_STYLE_3
 70
     0
 40
0.0
 41
1.0
 50
0.0
 71
     0
 42
0.2
  3

  4

1001
ACAD
1000
Arial
1071
       34
  0
ENDTAB
  0
TABLE
  2
VIEW
  5
6
330
0
100
AcDbSymbolTable
 70
     0
  0
ENDTAB
  0
TABLE
  2
UCS
  5
7
330
0
100
AcDbSymbolTable
 70
     0
  0
ENDTAB
  0
TABLE
  2
APPID
  5
9
330
0
100
AcDbSymbolTable
 70
     1
  0
APPID
  5
12
330
9
100
AcDbSymbolTableRecord
100
AcDbRegAppTableRecord
  2
ACAD
 70
     0
  0
ENDTAB
  0
TABLE
  2
DIMSTYLE
  5
A
330
0
100
AcDbSymbolTable
 70
     1
100
AcDbDimStyleTable
  0
DIMSTYLE
105
27
330
A
100
AcDbSymbolTableRecord
100
AcDbDimStyleTableRecord
  2
Standard
 70
     0
178
     0
340
11
  0
ENDTAB
  0
TABLE
  2
BLOCK_RECORD
  5
1
330
0
100
AcDbSymbolTable
 70
     3
  0
BLOCK_RECORD
  5
1F
330
1
100
AcDbSymbolTableRecord
100
AcDbBlockTableRecord
  2
*Model_Space
340
22
  0
BLOCK_RECORD
  5
1B
330
1
100
AcDbSymbolTableRecord
100
AcDbBlockTableRecord
  2
*Paper_Space
340
1E
  0
BLOCK_RECORD
  5
E3
330
1
100
AcDbSymbolTableRecord
100
AcDbBlockTableRecord
  2
Drawing_1_2
340
0
102
{BLKREFS
331
64B
102
}
  0
BLOCK_RECORD
  5
64F
330
1
100
AcDbSymbolTableRecord
100
AcDbBlockTableRecord
  2
R-TRS7-05 HIDDENGUTTER DETAIL_STORY_MARKER
340
0
  0
ENDTAB
  0
ENDSEC
  0
SECTION
  2
BLOCKS
  0
BLOCK
  5
20
330
1F
100
AcDbEntity
  8
0
100
AcDbBlockBegin
  2
*Model_Space
 70
     0
 10
0.0
 20
0.0
 30
0.0
  3
*Model_Space
  1

  0
ENDBLK
  5
21
330
1F
100
AcDbEntity
  8
0
100
AcDbBlockEnd
  0
BLOCK
  5
1C
330
1B
100
AcDbEntity
 67
     1
  8
0
100
AcDbBlockBegin
  2
*Paper_Space
 70
     0
 10
0.0
 20
0.0
 30
0.0
  3
*Paper_Space
  1

  0
ENDBLK
  5
1D
330
1B
100
AcDbEntity
 67
     1
  8
0
100
AcDbBlockEnd
  0
BLOCK
  5
E4
330
E3
100
AcDbEntity
  8
0
100
AcDbBlockBegin
  2
Drawing_1_2
 70
     0
 10
26.12171212374109
 20
79.28749807145608
 30
0.0
  3
Drawing_1_2
  1

  0
HATCH
  5
E6
330
E3
100
AcDbEntity
  8
0
  6
Continuous
 62
   255
370
     0
100
AcDbHatch
 10
0.0
 20
0.0
 30
0.0
210
0.0
220
0.0
230
1.0
  2
SOLID
 70
     1
 71
     0
 91
        1
 92
        3
 72
     0
 73
     1
 93
        4
 10
103.3111730868406
 20
125.6122907542079
 10
103.3111730868406
 20
111.6122907542079
 10
131.3111730868406
 20
111.6122907542079
 10
131.3111730868406
 20
125.6122907542079
 97
        0
 75
     0
 76
     1
 98
        0
  0
LINE
  5
E7
330
E3
100
AcDbEntity
  8
0
  6
Continuous
100
AcDbLine
 10
103.3111748845927
 20
125.6122912378308
 30
0.0
 11
131.3111717206079
 21
111.6122892102031
 31
0.0
  0
LINE
  5
E8
330
E3
100
AcDbEntity
  8
0
  6
Continuous
100
AcDbLine
 10
103.3111748845927
 20
125.6122912378308
 30
0.0
 11
103.3111748845927
 21
111.6122892102031
 31
0.0
  0
LINE
  5
E9
330
E3
100
AcDbEntity
  8
0
  6
Continuous
100
AcDbLine
 10
103.3111748845927
 20
111.6122892102031
 30
0.0
 11
131.3111717206079
 21
111.6122892102031
 31
0.0
  0
LINE
  5
EA
330
E3
100
AcDbEntity
  8
0
  6
Continuous
100
AcDbLine
 10
131.3111717206079
 20
111.6122892102031
 30
0.0
 11
131.3111717206079
 21
125.6122912378308
 31
0.0
  0
LINE
  5
EB
330
E3
100
AcDbEntity
  8
0
  6
Continuous
100
AcDbLine
 10
131.3111717206079
 20
125.6122912378308
 30
0.0
 11
103.3111748845927
 21
125.6122912378308
 31
0.0
  0
HATCH
  5
EC
330
E3
100
AcDbEntity
  8
0
  6
Continuous
 62
   255
370
     0
100
AcDbHatch
 10
0.0
 20
0.0
 30
0.0
210
0.0
220
0.0
230
1.0
  2
SOLID
 70
     1
 71
     0
 91
        1
 92
        3
 72
     0
 73
     1
 93
        4
 10
80.71174278380172
 20
83.61229075420786
 10
169.3895022910217
 20
83.61229075420785
 10
169.3895022910217
 20
111.6122907542078
 10
80.71174278380174
 20
111.6122907542079
 97
        0
 75
     0
 76
     1
 98
        0
  0
LINE
  5
ED
330
E3
100
AcDbEntity
  8
0
  6
Continuous
100
AcDbLine
 10
80.71174373621747
 20
83.6122923741879
 30
0.0
 11
169.3895023720015
 21
83.6122923741879
 31
0.0
  0
LINE
  5
EE
330
E3
100
AcDbEntity
  8
0
  6
Continuous
100
AcDbLine
 10
169.3895023720015
 20
83.6122923741879
 30
0.0
 11
169.3895023720015
 21
111.6122892102031
 31
0.0
  0
LINE
  5
EF
330
E3
100
AcDbEntity
  8
0
  6
Continuous
100
AcDbLine
 10
169.3895023720015
 20
111.6122892102031
 30
0.0
 11
80.71174373621747
 21
111.6122892102031
 31
0.0
  0
LINE
  5
F0
330
E3
100
AcDbEntity
  8
0
  6
Continuous
100
AcDbLine
 10
80.71174373621747
 20
111.6122892102031
 30
0.0
 11
80.71174373621747
 21
83.6122923741879
 31
0.0
  0
HATCH
  5
F1
330
E3
100
AcDbEntity
  8
0
  6
Continuous
 62
   255
370
     0
100
AcDbHatch
 10
0.0
 20
0.0
 30
0.0
210
0.0
220
0.0
230
1.0
  2
SOLID
 70
     1
 71
     0
 91
        1
 92
        3
 72
     0
 73
     1
 93
        4
 10
161.3078660438386
 20
197.6438028207592
 10
161.3078660438386
 20
143.8546365230233
 10
165.3078666231608
 20
143.8546365230233
 10
165.3078666231608
 20
197.6438028207592
 97
        0
 75
     0
 76
     1
 98
        0
  0
LINE
  5
F2
330
E3
100
AcDbEntity
  8
0
  6
Continuous
100
AcDbLine
 10
161.3078660438386
 20
197.6438028207592
 30
0.0
 11
161.3078660438386
 21
143.8546365230233
 31
0.0
  0
LINE
  5
F3
330
E3
100
AcDbEntity
  8
0
  6
Continuous
100
AcDbLine
 10
161.3078660438386
 20
143.8546365230233
 30
0.0
 11
165.3078666231608
 21
143.8546365230233
 31
0.0
  0
LINE
  5
F4
330
E3
100
AcDbEntity
  8
0
  6
Continuous
100
AcDbLine
 10
165.3078666231608
 20
143.8546365230233
 30
0.0
 11
165.3078666231608
 21
197.6438028207592
 31
0.0
  0
HATCH
  5
F5
330
E3
100
AcDbEntity
  8
0
  6
Continuous
 62
   255
370
     0
100
AcDbHatch
 10
0.0
 20
0.0
 30
0.0
210
0.0
220
0.0
230
1.0
  2
SOLID
 70
     1
 71
     0
 91
        1
 92
        3
 72
     0
 73
     1
 93
        4
 10
161.3078656812289
 20
143.1838313209458
 10
165.3078656812289
 20
143.1838313209458
 10
165.3078656812289
 20
152.1838313209458
 10
161.3078656812288
 20
152.1838313209458
 97
        0
 75
     0
 76
     1
 98
        0
  0
LINE
  5
F6
330
E3
100
AcDbEntity
  8
0
  6
Continuous
100
AcDbLine
 10
161.3078660438386
 20
143.1838319318939
 30
0.0
 11
165.3078666231608
 21
152.1838314305588
 31
0.0
  0
LINE
  5
F7
330
E3
100
AcDbEntity
  8
0
  6
Continuous
100
AcDbLine
 10
161.3078660438386
 20
143.1838319318939
 30
0.0
 11
165.3078666231608
 21
143.1838319318939
 31
0.0
  0
LINE
  5
F8
330
E3
100
AcDbEntity
  8
0
  6
Continuous
100
AcDbLine
 10
165.3078666231608
 20
143.1838319318939
 30
0.0
 11
165.3078666231608
 21
152.1838314305588
 31
0.0
  0
LINE
  5
F9
330
E3
100
AcDbEntity
  8
0
  6
Continuous
100
AcDbLine
 10
165.3078666231608
 20
152.1838314305588
 30
0.0
 11
161.3078660438386
 21
152.1838314305588
 31
0.0
  0
LINE
  5
FA
330
E3
100
AcDbEntity
  8
0
  6
Continuous
100
AcDbLine
 10
161.3078660438386
 20
152.1838314305588
 30
0.0
 11
161.3078660438386
 21
143.1838319318939
 31
0.0
  0
HATCH
  5
FB
330
E3
100
AcDbEntity
  8
0
  6
Continuous
 62
   255
370
     0
100
AcDbHatch
 10
0.0
 20
0.0
 30
0.0
210
0.0
220
0.0
230
1.0
  2
SOLID
 70
     1
 71
     0
 91
        1
 92
        3
 72
     0
 73
     1
 93
        4
 10
169.3895017656127
 20
197.6438053121825
 10
169.3895017656127
 20
26.01930819705006
 10
187.3894999625705
 20
26.01930819705006
 10
187.3894999625705
 20
197.6438053121825
 97
        0
 75
     0
 76
     1
 98
        0
  0
LINE
  5
FC
330
E3
100
AcDbEntity
  8
0
  6
Continuous
100
AcDbLine
 10
187.3894999625705
 20
26.01930819705006
 30
0.0
 11
187.3894999625705
 21
197.6438053121825
 31
0.0
  0
LINE
  5
FD
330
E3
100
AcDbEntity
  8
0
  6
Continuous
100
AcDbLine
 10
169.3895017656127
 20
197.6438053121825
 30
0.0
 11
169.3895017656127
 21
26.01930819705006
 31
0.0
  0
HATCH
  5
FE
330
E3
100
AcDbEntity
  8
0
  6
Continuous
 62
   255
370
     0
100
AcDbHatch
 10
0.0
 20
0.0
 30
0.0
210
0.0
220
0.0
230
1.0
  2
SOLID
 70
     1
 71
     0
 91
        1
 92
        3
 72
     0
 73
     1
 93
        4
 10
187.3894999625705
 20
197.6438053121825
 10
187.3894999625705
 20
26.01930819705006
 10
189.3894989790929
 20
26.01930819705006
 10
189.3894989790929
 20
197.6438053121825
 97
        0
 75
     0
 76
     1
 98
        0
  0
HATCH
  5
FF
330
E3
100
AcDbEntity
  8
0
  6
Continuous
 62
     9
370
    13
100
AcDbHatch
 10
0.0
 20
0.0
 30
0.0
210
0.0
220
0.0
230
1.0
  2
Gypsum_0002
 70
     0
 71
     0
 91
        1
 92
        3
 72
     0
 73
     1
 93
        4
 10
187.3894999625705
 20
197.6438053121825
 10
187.3894999625705
 20
26.01930819705006
 10
189.3894989790929
 20
26.01930819705006
 10
189.3894989790929
 20
197.6438053121825
 97
        0
 75
     0
 76
     2
 52
0.0
 41
1.0
 77
     0
 78
     1
 53
0.0
 43
26.12171212374109
 44
79.28749807145608
 45
0.0
 46
0.75
 79
     2
 49
0.0
 49
-0.75
 98
        0
  0
LINE
  5
100
330
E3
100
AcDbEntity
  8
0
  6
Continuous
100
AcDbLine
 10
189.3894989790929
 20
26.01930819705006
 30
0.0
 11
189.3894989790929
 21
197.6438053121825
 31
0.0
  0
LINE
  5
101
330
E3
100
AcDbEntity
  8
0
  6
Continuous
100
AcDbLine
 10
187.3894999625705
 20
197.6438053121825
 30
0.0
 11
187.3894999625705
 21
26.01930819705006
 31
0.0
  0
HATCH
  5
102
330
E3
100
AcDbEntity
  8
0
  6
Continuous
 62
   255
370
     0
100
AcDbHatch
 10
0.0
 20
0.0
 30
0.0
210
0.0
220
0.0
230
1.0
  2
SOLID
 70
     1
 71
     0
 91
        1
 92
        3
 72
     0
 73
     1
 93
        4
 10
169.3895023720015
 20
194.8452967979795
 10
187.3895013693313
 20
194.8452967979795
 10
187.3895013693313
 20
197.6438028207592
 10
169.3895023720015
 20
197.6438028207592
 97
        0
 75
     0
 76
     1
 98
        0
  0
LINE
  5
103
330
E3
100
AcDbEntity
  8
0
  6
Continuous
100
AcDbLine
 10
187.3895013693313
 20
194.8452967979795
 30
0.0
 11
187.3895013693313
 21
197.6438028207592
 31
0.0
  0
LINE
  5
104
330
E3
100
AcDbEntity
  8
0
  6
Continuous
100
AcDbLine
 10
169.3895023720015
 20
197.6438028207592
 30
0.0
 11
169.3895023720015
 21
194.8452967979795
 31
0.0
  0
LINE
  5
105
330
E3
100
AcDbEntity
  8
0
  6
Continuous
100
AcDbLine
 10
169.3895023720015
 20
194.8452967979795
 30
0.0
 11
187.3895013693313
 21
194.8452967979795
 31
0.0
  0
HATCH
  5
106
330
E3
100
AcDbEntity
  8
0
  6
Continuous
 62
   255
370
     0
100
AcDbHatch
 10
0.0
 20
0.0
 30
0.0
210
0.0
220
0.0
230
1.0
  2
SOLID
 70
     1
 71
     0
 91
        1
 92
        3
 72
     0
 73
     1
 93
        4
 10
187.3895022910217
 20
46.34529790331813
 10
187.3895022910217
 20
55.34529790331812
 10
169.3895022910217
 20
55.34529790331812
 10
169.3895022910217
 20
46.34529790331813
 97
        0
 75
     0
 76
     1
 98
        0
  0
LINE
  5
107
330
E3
100
AcDbEntity
  8
0
  6
Continuous
100
AcDbLine
 10
187.3895013693313
 20
46.34529965557851
 30
0.0
 11
187.3895013693313
 21
55.34529915424341
 31
0.0
  0
LINE
  5
108
330
E3
100
AcDbEntity
  8
0
  6
Continuous
100
AcDbLine
 10
187.3895013693313
 20
55.34529915424341
 30
0.0
 11
169.3895023720015
 21
55.34529915424341
 31
0.0
  0
LINE
  5
109
330
E3
100
AcDbEntity
  8
0
  6
Continuous
100
AcDbLine
 10
169.3895023720015
 20
55.34529915424341
 30
0.0
 11
169.3895023720015
 21
46.34529965557851
 31
0.0
  0
LINE
  5
10A
330
E3
100
AcDbEntity
  8
0
  6
Continuous
100
AcDbLine
 10
169.3895023720015
 20
46.34529965557851
 30
0.0
 11
187.3895013693313
 21
46.34529965557851
 31
0.0
  0
LINE
  5
10B
330
E3
100
AcDbEntity
  8
0
  6
Continuous
100
AcDbLine
 10
187.3895013693313
 20
194.8452967979795
 30
0.0
 11
181.7924893237719
 21
197.6438028207592
 31
0.0
  0
LINE
  5
10C
330
E3
100
AcDbEntity
  8
0
  6
Continuous
100
AcDbLine
 10
174.9865144175609
 20
197.6438028207592
 30
0.0
 11
169.3895023720015
 21
194.8452967979795
 31
0.0
  0
LINE
  5
10D
330
E3
100
AcDbEntity
  8
0
  6
Continuous
100
AcDbLine
 10
169.3895023720015
 20
46.34529965557851
 30
0.0
 11
187.3895013693313
 21
55.34529915424341
 31
0.0
  0
HATCH
  5
10E
330
E3
100
AcDbEntity
  8
0
  6
Continuous
 62
   255
370
     0
100
AcDbHatch
 10
0.0
 20
0.0
 30
0.0
210
0.0
220
0.0
230
1.0
  2
SOLID
 70
     1
 71
     0
 91
        1
 92
        3
 72
     0
 73
     1
 93
        4
 10
169.3895022910217
 20
111.6122907542079
 10
169.3895022910217
 20
113.4122907542079
 10
131.7111730868406
 20
113.4122907542079
 10
131.7111730868406
 20
111.6122907542079
 97
        0
 75
     0
 76
     1
 98
        0
  0
HATCH
  5
10F
330
E3
100
AcDbEntity
  8
0
  6
Continuous
100
AcDbHatch
 10
0.0
 20
0.0
 30
0.0
210
0.0
220
0.0
230
1.0
  2
Wood_0002
 70
     0
 71
     0
 91
        1
 92
        3
 72
     0
 73
     1
 93
        4
 10
169.3895022910217
 20
111.6122907542079
 10
169.3895022910217
 20
113.4122907542079
 10
131.7111730868406
 20
113.4122907542079
 10
131.7111730868406
 20
111.6122907542079
 97
        0
 75
     0
 76
     2
 52
0.0
 41
1.0
 77
     0
 78
     1
 53
9.999999999999996
 43
26.12171212374109
 44
79.28749807145608
 45
-0.1562833557601421
 46
0.8863269542313407
 79
     0
 98
        0
  0
LINE
  5
110
330
E3
100
AcDbEntity
  8
0
  6
Continuous
100
AcDbLine
 10
169.3895023720015
 20
113.4122912757081
 30
0.0
 11
169.3895023720015
 21
111.6122892102031
 31
0.0
  0
LINE
  5
111
330
E3
100
AcDbEntity
  8
0
  6
Continuous
100
AcDbLine
 10
131.7111717785401
 20
113.4122912757081
 30
0.0
 11
169.3895023720015
 21
113.4122912757081
 31
0.0
  0
LINE
  5
112
330
E3
100
AcDbEntity
  8
0
  6
Continuous
100
AcDbLine
 10
131.7111717785401
 20
111.6122892102031
 30
0.0
 11
131.7111717785401
 21
113.4122912757081
 31
0.0
  0
LINE
  5
113
330
E3
100
AcDbEntity
  8
0
  6
Continuous
100
AcDbLine
 10
169.3895023720015
 20
111.6122892102031
 30
0.0
 11
131.7111717785401
 21
111.6122892102031
 31
0.0
  0
HATCH
  5
114
330
E3
100
AcDbEntity
  8
0
  6
Continuous
 62
   255
370
     0
100
AcDbHatch
 10
0.0
 20
0.0
 30
0.0
210
0.0
220
0.0
230
1.0
  2
SOLID
 70
     1
 71
     0
 91
        1
 92
        3
 72
     0
 73
     1
 93
        4
 10
169.3895022910217
 20
111.6122907542078
 10
160.3895022910217
 20
111.6122907542078
 10
160.3895022910217
 20
83.61229075420785
 10
169.3895022910217
 20
83.61229075420785
 97
        0
 75
     0
 76
     1
 98
        0
  0
LINE
  5
115
330
E3
100
AcDbEntity
  8
0
  6
Continuous
100
AcDbLine
 10
160.3895028733366
 20
111.6122892102031
 30
0.0
 11
169.3895023720015
 21
83.6122923741879
 31
0.0
  0
LINE
  5
116
330
E3
100
AcDbEntity
  8
0
  6
Continuous
100
AcDbLine
 10
169.3895023720015
 20
111.6122892102031
 30
0.0
 11
160.3895028733366
 21
83.6122923741879
 31
0.0
  0
LINE
  5
117
330
E3
100
AcDbEntity
  8
0
  6
Continuous
100
AcDbLine
 10
169.3895023720015
 20
111.6122892102031
 30
0.0
 11
160.3895028733366
 21
111.6122892102031
 31
0.0
  0
LINE
  5
118
330
E3
100
AcDbEntity
  8
0
  6
Continuous
100
AcDbLine
 10
160.3895028733366
 20
111.6122892102031
 30
0.0
 11
160.3895028733366
 21
83.6122923741879
 31
0.0
  0
LINE
  5
119
330
E3
100
AcDbEntity
  8
0
  6
Continuous
100
AcDbLine
 10
160.3895028733366
 20
83.6122923741879
 30
0.0
 11
169.3895023720015
 21
83.6122923741879
 31
0.0
  0
LINE
  5
11A
330
E3
100
AcDbEntity
  8
0
  6
Continuous
100
AcDbLine
 10
169.3895023720015
 20
83.6122923741879
 30
0.0
 11
169.3895023720015
 21
111.6122892102031
 31
0.0
  0
HATCH
  5
11B
330
E3
100
AcDbEntity
  8
0
  6
Continuous
 62
   255
370
     0
100
AcDbHatch
 10
0.0
 20
0.0
 30
0.0
210
0.0
220
0.0
230
1.0
  2
SOLID
 70
     1
 71
     0
 91
        1
 92
        3
 72
     0
 73
     1
 93
        4
 10
158.507865638313
 20
197.6438028207592
 10
158.507865638313
 20
140.8546342837216
 10
160.307864094198
 20
140.8546342837216
 10
160.307864094198
 20
197.6438028207592
 97
        0
 75
     0
 76
     1
 98
        0
  0
HATCH
  5
11C
330
E3
100
AcDbEntity
  8
0
  6
Continuous
100
AcDbHatch
 10
0.0
 20
0.0
 30
0.0
210
0.0
220
0.0
230
1.0
  2
Plaster_0002
 70
     0
 71
     0
 91
        1
 92
        3
 72
     0
 73
     1
 93
        4
 10
158.507865638313
 20
197.6438028207592
 10
158.507865638313
 20
140.8546342837216
 10
160.307864094198
 20
140.8546342837216
 10
160.307864094198
 20
197.6438028207592
 97
        0
 75
     0
 76
     2
 52
0.0
 41
1.0
 77
     0
 78
     2
 53
0.0
 43
26.12171212374109
 44
79.28749807145608
 45
0.0
 46
1.732050807568877
 79
     2
 49
0.0
 49
-1.0
 53
0.0
 43
26.62171212374109
 44
80.1535234596969
 45
0.0
 46
1.732050807568877
 79
     2
 49
0.0
 49
-1.0
 98
        0
  0
LINE
  5
11D
330
E3
100
AcDbEntity
  8
0
  6
Continuous
100
AcDbLine
 10
158.507865638313
 20
197.6438028207592
 30
0.0
 11
158.507865638313
 21
140.8546342837216
 31
0.0
  0
LINE
  5
11E
330
E3
100
AcDbEntity
  8
0
  6
Continuous
100
AcDbLine
 10
158.507865638313
 20
140.8546342837216
 30
0.0
 11
160.307864094198
 21
140.8546342837216
 31
0.0
  0
LINE
  5
11F
330
E3
100
AcDbEntity
  8
0
  6
Continuous
100
AcDbLine
 10
160.307864094198
 20
140.8546342837216
 30
0.0
 11
160.307864094198
 21
197.6438028207592
 31
0.0
  0
HATCH
  5
120
330
E3
100
AcDbEntity
  8
0
  6
Continuous
 62
   255
370
     0
100
AcDbHatch
 10
0.0
 20
0.0
 30
0.0
210
0.0
220
0.0
230
1.0
  2
SOLID
 70
     1
 71
     0
 91
        1
 92
        3
 72
     0
 73
     1
 93
        4
 10
178.3895022910217
 20
155.0546356246901
 10
169.3895022910217
 20
155.0546356246901
 10
169.3895022910217
 20
137.0546356246902
 10
178.3895022910217
 20
137.0546356246902
 97
        0
 75
     0
 76
     1
 98
        0
  0
LINE
  5
121
330
E3
100
AcDbEntity
  8
0
  6
Continuous
100
AcDbLine
 10
178.3895018706664
 20
155.0546345355054
 30
0.0
 11
169.3895023720015
 21
137.0546355381756
 31
0.0
  0
LINE
  5
122
330
E3
100
AcDbEntity
  8
0
  6
Continuous
100
AcDbLine
 10
178.3895018706664
 20
155.0546345355054
 30
0.0
 11
169.3895023720015
 21
155.0546345355054
 31
0.0
  0
LINE
  5
123
330
E3
100
AcDbEntity
  8
0
  6
Continuous
100
AcDbLine
 10
169.3895023720015
 20
155.0546345355054
 30
0.0
 11
169.3895023720015
 21
137.0546355381756
 31
0.0
  0
LINE
  5
124
330
E3
100
AcDbEntity
  8
0
  6
Continuous
100
AcDbLine
 10
169.3895023720015
 20
137.0546355381756
 30
0.0
 11
178.3895018706664
 21
137.0546355381756
 31
0.0
  0
LINE
  5
125
330
E3
100
AcDbEntity
  8
0
  6
Continuous
100
AcDbLine
 10
178.3895018706664
 20
137.0546355381756
 30
0.0
 11
178.3895018706664
 21
155.0546345355054
 31
0.0
  0
HATCH
  5
126
330
E3
100
AcDbEntity
  8
0
  6
Continuous
 62
   255
370
     0
100
AcDbHatch
 10
0.0
 20
0.0
 30
0.0
210
0.0
220
0.0
230
1.0
  2
SOLID
 70
     1
 71
     0
 91
        1
 92
        3
 72
     0
 73
     1
 93
        8
 10
150.7258414836445
 20
63.66405625107252
 10
150.7258414836445
 20
26.01930573920253
 10
198.563414757173
 20
26.01930573920253
 10
198.563414757173
 20
72.09911191202694
 10
176.6142461304842
 20
68.22888179562564
 10
175.3011698999604
 20
73.99735322291279
 10
173.9880936694366
 20
61.76582226876609
 10
172.6750174389128
 20
67.53429369605324
 97
        0
 75
     0
 76
     1
 98
        0
  0
LINE
  5
127
330
E3
100
AcDbEntity
  8
0
  6
Continuous
100
AcDbLine
 10
150.7258422218372
 20
63.66405864989888
 30
0.0
 11
172.6750147370287
 21
67.53428977488076
 31
0.0
  0
LINE
  5
128
330
E3
100
AcDbEntity
  8
0
  6
Continuous
100
AcDbLine
 10
176.6142437513521
 20
68.22888176285876
 30
0.0
 11
198.5634162665436
 21
72.09911288784068
 31
0.0
  0
LINE
  5
129
330
E3
100
AcDbEntity
  8
0
  6
Continuous
100
AcDbLine
 10
176.6142437513521
 20
68.22888176285876
 30
0.0
 11
175.301168616451
 21
73.99735076597602
 31
0.0
  0
LINE
  5
12A
330
E3
100
AcDbEntity
  8
0
  6
Continuous
100
AcDbLine
 10
175.301168616451
 20
73.99735076597602
 30
0.0
 11
173.9880898719298
 21
61.76582077176352
 31
0.0
  0
LINE
  5
12B
330
E3
100
AcDbEntity
  8
0
  6
Continuous
100
AcDbLine
 10
173.9880898719298
 20
61.76582077176352
 30
0.0
 11
172.6750147370287
 21
67.53428977488076
 31
0.0
  0
HATCH
  5
12C
330
E3
100
AcDbEntity
  8
0
  6
Continuous
 62
   255
370
     0
100
AcDbHatch
 10
0.0
 20
0.0
 30
0.0
210
0.0
220
0.0
230
1.0
  2
SOLID
 70
     1
 71
     0
 91
        1
 92
        3
 72
     0
 73
     1
 93
        4
 10
178.3895022910217
 20
131.4122907542078
 10
169.3895022910217
 20
131.4122907542078
 10
169.3895022910217
 20
113.4122907542079
 10
178.3895022910217
 20
113.4122907542079
 97
        0
 75
     0
 76
     1
 98
        0
  0
LINE
  5
12D
330
E3
100
AcDbEntity
  8
0
  6
Continuous
100
AcDbLine
 10
178.3895018706664
 20
131.4122902730379
 30
0.0
 11
169.3895023720015
 21
113.4122912757081
 31
0.0
  0
LINE
  5
12E
330
E3
100
AcDbEntity
  8
0
  6
Continuous
100
AcDbLine
 10
178.3895018706664
 20
131.4122902730379
 30
0.0
 11
169.3895023720015
 21
131.4122902730379
 31
0.0
  0
LINE
  5
12F
330
E3
100
AcDbEntity
  8
0
  6
Continuous
100
AcDbLine
 10
169.3895023720015
 20
131.4122902730379
 30
0.0
 11
169.3895023720015
 21
113.4122912757081
 31
0.0
  0
LINE
  5
130
330
E3
100
AcDbEntity
  8
0
  6
Continuous
100
AcDbLine
 10
169.3895023720015
 20
113.4122912757081
 30
0.0
 11
178.3895018706664
 21
113.4122912757081
 31
0.0
  0
LINE
  5
131
330
E3
100
AcDbEntity
  8
0
  6
Continuous
100
AcDbLine
 10
178.3895018706664
 20
113.4122912757081
 30
0.0
 11
178.3895018706664
 21
131.4122902730379
 31
0.0
  0
LINE
  5
133
330
E3
100
AcDbEntity
  8
0
  6
Dashed
100
AcDbLine
 10
118.2061316959906
 20
134.6920813901129
 30
0.0
 11
120.9139424026524
 21
134.6920813901129
 31
0.0
  0
LINE
  5
134
330
E3
100
AcDbEntity
  8
0
  6
Dashed
100
AcDbLine
 10
166.5097690667813
 20
157.46963646448
 30
0.0
 11
166.5097690667813
 21
143.8004200282334
 31
0.0
  0
LINE
  5
135
330
E3
100
AcDbEntity
  8
0
  6
Dashed
100
AcDbLine
 10
83.07504868527326
 20
126.4945582067416
 30
0.0
 11
132.2364653618154
 21
126.4945582067416
 31
0.0
  0
LINE
  5
136
330
E3
100
AcDbEntity
  8
0
  6
Dashed
100
AcDbLine
 10
132.2364653618154
 20
126.4945582067416
 30
0.0
 11
141.5974052186707
 21
124.0054940913423
 31
0.0
  0
LINE
  5
137
330
E3
100
AcDbEntity
  8
0
  6
Dashed
100
AcDbLine
 10
131.8526183540952
 20
124.1802177551442
 30
0.0
 11
131.8526183540952
 21
114.1634568404399
 31
0.0
  0
LINE
  5
138
330
E3
100
AcDbEntity
  8
0
  6
Dashed
100
AcDbLine
 10
131.8526183540952
 20
114.1634568404399
 30
0.0
 11
168.5680719412524
 21
114.1634568404399
 31
0.0
  0
LINE
  5
139
330
E3
100
AcDbEntity
  8
0
  6
Dashed
100
AcDbLine
 10
168.5680719412524
 20
114.1634568404399
 30
0.0
 11
168.5680719412524
 21
159.7685602283778
 31
0.0
  0
LINE
  5
13A
330
E3
100
AcDbEntity
  8
0
  6
Dashed
100
AcDbLine
 10
166.5097690667813
 20
157.46963646448
 30
0.0
 11
167.2548054964829
 21
158.1122535317869
 31
0.0
  0
LINE
  5
13B
330
E3
100
AcDbEntity
  8
0
  6
Dashed
100
AcDbLine
 10
167.2548054964829
 20
158.1122535317869
 30
0.0
 11
167.2548054964829
 21
197.6438028207592
 31
0.0
  0
LINE
  5
13C
330
E3
100
AcDbEntity
  8
0
  6
Continuous
100
AcDbLine
 10
38.52770116952185
 20
56.90658260014564
 30
0.0
 11
138.9207852398038
 21
56.90658260014564
 31
0.0
  0
LINE
  5
13D
330
E3
100
AcDbEntity
  8
0
  6
Continuous
100
AcDbLine
 10
138.9207852398038
 20
64.99294753071702
 30
0.0
 11
138.9207852398038
 21
35.38539552797995
 31
0.0
  0
LINE
  5
13E
330
E3
100
AcDbEntity
  8
0
  6
Continuous
100
AcDbLine
 10
38.52770116952185
 20
35.38539552797995
 30
0.0
 11
38.52770116952185
 21
56.90658260014564
 31
0.0
  0
LINE
  5
13F
330
E3
100
AcDbEntity
  8
0
  6
Continuous
100
AcDbLine
 10
114.9507704881525
 20
64.99294753071702
 30
0.0
 11
114.9507704881525
 21
35.38539552797995
 31
0.0
  0
LINE
  5
140
330
E3
100
AcDbEntity
  8
0
  6
Continuous
100
AcDbLine
 10
38.52770116952185
 20
46.14598725925271
 30
0.0
 11
138.9207852398038
 21
46.14598725925271
 31
0.0
  0
LINE
  5
141
330
E3
100
AcDbEntity
  8
0
  6
Continuous
100
AcDbLine
 10
38.52770116952185
 20
35.38539552797995
 30
0.0
 11
138.9207852398038
 21
35.38539552797995
 31
0.0
  0
LINE
  5
142
330
E3
100
AcDbEntity
  8
0
  6
Continuous
100
AcDbLine
 10
114.9507704881525
 20
64.99294753071702
 30
0.0
 11
138.9207852398038
 21
64.99294753071702
 31
0.0
  0
LINE
  5
143
330
E3
100
AcDbEntity
  8
0
  6
Continuous
100
AcDbLine
 10
157.3008591917875
 20
51.55812538912271
 30
0.0
 11
229.6939464260544
 21
51.55812538912271
 31
0.0
  0
LINE
  5
144
330
E3
100
AcDbEntity
  8
0
  6
Continuous
100
AcDbLine
 10
229.6939464260544
 20
59.64449031969411
 30
0.0
 11
229.6939464260544
 21
35.38539552797995
 31
0.0
  0
LINE
  5
145
330
E3
100
AcDbEntity
  8
0
  6
Continuous
100
AcDbLine
 10
157.3008591917875
 20
35.38539552797995
 30
0.0
 11
157.3008591917875
 21
51.55812538912271
 31
0.0
  0
LINE
  5
146
330
E3
100
AcDbEntity
  8
0
  6
Continuous
100
AcDbLine
 10
205.7239280647829
 20
59.64449031969411
 30
0.0
 11
205.7239280647829
 21
35.38539552797995
 31
0.0
  0
LINE
  5
147
330
E3
100
AcDbEntity
  8
0
  6
Continuous
100
AcDbLine
 10
205.7239280647829
 20
59.64449031969411
 30
0.0
 11
229.6939464260544
 21
59.64449031969411
 31
0.0
  0
LINE
  5
148
330
E3
100
AcDbEntity
  8
0
  6
Continuous
100
AcDbLine
 10
157.3008591917875
 20
43.47176045855134
 30
0.0
 11
229.6939464260544
 21
43.47176045855134
 31
0.0
  0
LINE
  5
149
330
E3
100
AcDbEntity
  8
0
  6
Continuous
100
AcDbLine
 10
157.3008591917875
 20
35.38539552797995
 30
0.0
 11
229.6939464260544
 21
35.38539552797995
 31
0.0
  0
LWPOLYLINE
  5
14A
330
E3
100
AcDbEntity
  8
0
  6
Continuous
100
AcDbPolyline
 90
        8
 70
   128
 43
0.0
 10
135.8820605215612
 20
123.2471986718545
 10
132.6309671586692
 20
123.9903057262298
 10
132.6309671586692
 20
114.9903057262298
 10
167.6309671586692
 20
114.9903057262298
 10
167.6309671586693
 20
154.9903057262298
 10
167.3706952100851
 20
155.2309721332364
 10
167.0855373414768
 20
154.9198908220274
 10
167.0855373414768
 20
152.7941685287658
  0
LWPOLYLINE
  5
14B
330
E3
100
AcDbEntity
  8
0
  6
Continuous
100
AcDbPolyline
 90
        4
 70
   128
 43
0.0
 10
160.8281163850782
 20
144.5772724933456
 10
160.8281163850782
 20
142.6276582151072
 10
165.9020729582614
 20
142.6276582151072
 10
165.9020729582614
 20
154.5502993781801
  0
LWPOLYLINE
  5
14C
330
E3
100
AcDbEntity
  8
0
  6
Continuous
100
AcDbPolyline
 90
       24
 70
   128
 43
0.0
 10
20.48385250649915
 20
132.4718319186094
 10
21.84943771745483
 20
134.3626422107019
 10
25.44943771745497
 20
134.3626422107019
 10
30.64943771745493
 20
127.162642210702
 10
40.64943771745489
 20
127.162642210702
 10
45.84943771745485
 20
134.3626422107019
 10
49.449437717455
 20
134.3626422107019
 10
54.64943771745495
 20
127.162642210702
 10
64.64943771745492
 20
127.162642210702
 10
69.84943771745489
 20
134.3626422107019
 10
73.44943771745501
 20
134.3626422107019
 10
78.64943771745497
 20
127.162642210702
 10
88.64943771745494
 20
127.162642210702
 10
93.84943771745489
 20
134.3626422107019
 10
97.44943771745504
 20
134.3626422107019
 10
102.649437717455
 20
127.162642210702
 10
112.649437717455
 20
127.162642210702
 10
117.8494377174549
 20
134.3626422107019
 10
121.4494377174551
 20
134.3626422107019
 10
126.649437717455
 20
127.162642210702
 10
136.649437717455
 20
127.162642210702
 10
141.8494377174549
 20
134.3626422107019
 10
145.4494377174551
 20
134.3626422107019
 10
150.649437717455
 20
127.162642210702
  0
HATCH
  5
14D
330
E3
100
AcDbEntity
  8
0
  6
Continuous
 62
   255
370
     0
100
AcDbHatch
 10
0.0
 20
0.0
 30
0.0
210
0.0
220
0.0
230
1.0
  2
SOLID
 70
     1
 71
     0
 91
        1
 92
        3
 72
     0
 73
     1
 93
        8
 10
149.8140175101609
 20
169.2206376051742
 10
171.962361027335
 20
173.1259906879008
 10
173.2754419827045
 20
167.3575200459895
 10
174.5885178730936
 20
179.589052472219
 10
175.9015937634827
 20
173.8205818303076
 10
198.0499372806568
 20
177.7259298480539
 10
198.0499372806568
 20
197.6438029127367
 10
149.8140175101609
 20
197.6438029127367
 97
        0
 75
     0
 76
     1
 98
        0
  0
LINE
  5
14E
330
E3
100
AcDbEntity
  8
0
  6
Continuous
100
AcDbLine
 10
149.8140160734434
 20
169.2206357750105
 30
0.0
 11
171.9623638193947
 21
173.1259885041405
 31
0.0
  0
LINE
  5
14F
330
E3
100
AcDbEntity
  8
0
  6
Continuous
100
AcDbLine
 10
175.901592833718
 20
173.8205804921185
 30
0.0
 11
198.0499405796693
 21
177.7259332212486
 31
0.0
  0
LINE
  5
150
330
E3
100
AcDbEntity
  8
0
  6
Continuous
100
AcDbLine
 10
175.901592833718
 20
173.8205804921185
 30
0.0
 11
174.588517698817
 21
179.5890494952358
 31
0.0
  0
LINE
  5
151
330
E3
100
AcDbEntity
  8
0
  6
Continuous
100
AcDbLine
 10
174.588517698817
 20
179.5890494952358
 30
0.0
 11
173.2754389542957
 21
167.3575195010233
 31
0.0
  0
LINE
  5
152
330
E3
100
AcDbEntity
  8
0
  6
Continuous
100
AcDbLine
 10
173.2754389542957
 20
167.3575195010233
 30
0.0
 11
171.9623638193947
 21
173.1259885041405
 31
0.0
  0
HATCH
  5
153
330
E3
100
AcDbEntity
  8
0
  6
Continuous
 62
   255
370
     0
100
AcDbHatch
 10
0.0
 20
0.0
 30
0.0
210
0.0
220
0.0
230
1.0
  2
SOLID
 70
     1
 71
     0
 91
        1
 92
        3
 72
     0
 73
     1
 93
        8
 10
20.48385378188895
 20
136.9796744490597
 10
20.48385378188895
 20
78.6569834176662
 10
94.76321740422547
 20
78.6569834176662
 10
89.96858547774126
 20
105.8487161995042
 10
83.73705432229553
 20
107.1617927579594
 10
95.50552228003679
 20
108.4748693164147
 10
89.27399112459103
 20
109.7879458748699
 10
84.47935499045866
 20
136.9796744490597
 97
        0
 75
     0
 76
     1
 98
        0
  0
LINE
  5
154
330
E3
100
AcDbEntity
  8
0
  6
Continuous
100
AcDbLine
 10
84.47935696969594
 20
136.9796745563312
 30
0.0
 11
89.273990159706
 21
109.7879438663449
 31
0.0
  0
LINE
  5
155
330
E3
100
AcDbEntity
  8
0
  6
Continuous
100
AcDbLine
 10
89.96858214768397
 20
105.8487148520216
 30
0.0
 11
94.7632189473142
 21
78.65698416203522
 31
0.0
  0
LINE
  5
156
330
E3
100
AcDbEntity
  8
0
  6
Continuous
100
AcDbLine
 10
89.96858214768397
 20
105.8487148520216
 30
0.0
 11
83.73705302245476
 21
107.1617899869226
 31
0.0
  0
LINE
  5
157
330
E3
100
AcDbEntity
  8
0
  6
Continuous
100
AcDbLine
 10
83.73705302245476
 20
107.1617899869226
 30
0.0
 11
95.50552289455536
 21
108.4748687314438
 31
0.0
  0
LINE
  5
158
330
E3
100
AcDbEntity
  8
0
  6
Continuous
100
AcDbLine
 10
95.50552289455536
 20
108.4748687314438
 30
0.0
 11
89.273990159706
 21
109.7879438663449
 31
0.0
  0
LINE
  5
159
330
E3
100
AcDbEntity
  8
Doc_ Floor
  6
Continuous
100
AcDbLine
 10
146.9109393546542
 20
114.012303996277
 30
0.0
 11
146.9109393546542
 21
114.9903053110479
 31
0.0
  0
LINE
  5
15A
330
E3
100
AcDbEntity
  8
Doc_ Floor
  6
Continuous
100
AcDbLine
 10
146.9109393546542
 20
114.9903053110479
 30
0.0
 11
146.9109393546542
 21
123.9903048097128
 31
0.0
  0
LINE
  5
15B
330
E3
100
AcDbEntity
  8
Doc_ Floor
  6
Continuous
100
AcDbLine
 10
145.9109374050136
 20
115.5676568362578
 30
0.0
 11
147.9109376946747
 21
114.4129573954581
 31
0.0
  0
LINE
  5
15C
330
E3
100
AcDbEntity
  8
Doc_ Floor
  6
Continuous
100
AcDbLine
 10
147.9109376946747
 20
123.4129568941229
 30
0.0
 11
145.9109374050136
 21
124.5676563349227
 31
0.0
  0
LINE
  5
15D
330
E3
100
AcDbEntity
  8
Doc_ Floor
  6
Continuous
100
AcDbLine
 10
146.9109393546542
 20
123.9903048097128
 30
0.0
 11
146.9109393546542
 21
124.9683061244836
 31
0.0
  0
LINE
  5
15E
330
E3
100
AcDbEntity
  8
Doc_ Floor
  6
Continuous
100
AcDbLine
 10
148.410938669495
 20
114.9903053110479
 30
0.0
 11
145.4109364301933
 21
114.9903053110479
 31
0.0
  0
LINE
  5
15F
330
E3
100
AcDbEntity
  8
Doc_ Floor
  6
Continuous
100
AcDbLine
 10
148.410938669495
 20
123.9903048097128
 30
0.0
 11
145.4109364301933
 21
123.9903048097128
 31
0.0
  0
MTEXT
  5
161
330
E3
100
AcDbEntity
  8
Doc_ Floor
  6
Continuous
100
AcDbMText
 10
146.4109380481292
 20
118.3474481299516
 30
0.0
 40
2.5
 41
0.0
 71
     7
 72
     1
  1
{A}
  7
GENERATED_STYLE_3
 11
6.123233995736766E-17
 21
1.0
 31
0.0
 73
     1
 44
1.0
  0
LINE
  5
162
330
E3
100
AcDbEntity
  8
Doc_ Floor
  6
Continuous
100
AcDbLine
 10
146.8508247405243
 20
133.3846408722802
 30
0.0
 11
146.8508247405243
 21
134.3626421870511
 31
0.0
  0
LINE
  5
163
330
E3
100
AcDbEntity
  8
Doc_ Floor
  6
Continuous
100
AcDbLine
 10
146.8508247405243
 20
134.3626421870511
 30
0.0
 11
146.8508247405243
 21
140.8546342837216
 31
0.0
  0
LINE
  5
164
330
E3
100
AcDbEntity
  8
Doc_ Floor
  6
Continuous
100
AcDbLine
 10
145.8508264005038
 20
134.939993712261
 30
0.0
 11
147.850826690165
 21
133.7852906618411
 31
0.0
  0
LINE
  5
165
330
E3
100
AcDbEntity
  8
Doc_ Floor
  6
Continuous
100
AcDbLine
 10
147.850826690165
 20
140.2772863681318
 30
0.0
 11
145.8508264005038
 21
141.4319858089316
 31
0.0
  0
LINE
  5
166
330
E3
100
AcDbEntity
  8
Doc_ Floor
  6
Continuous
100
AcDbLine
 10
146.8508247405243
 20
140.8546342837216
 30
0.0
 11
146.8508247405243
 21
141.8326355984924
 31
0.0
  0
LINE
  5
167
330
E3
100
AcDbEntity
  8
Doc_ Floor
  6
Continuous
100
AcDbLine
 10
148.3508240553651
 20
134.3626421870511
 30
0.0
 11
145.3508254256835
 21
134.3626421870511
 31
0.0
  0
LINE
  5
168
330
E3
100
AcDbEntity
  8
Doc_ Floor
  6
Continuous
100
AcDbLine
 10
148.3508240553651
 20
140.8546342837216
 30
0.0
 11
145.3508254256835
 21
140.8546342837216
 31
0.0
  0
MTEXT
  5
169
330
E3
100
AcDbEntity
  8
Doc_ Floor
  6
Continuous
100
AcDbMText
 10
134.0655418571102
 20
136.6979691214419
 30
0.0
 40
2.5
 41
0.0
 71
     7
 72
     1
  1
{35 MIN.}
  7
GENERATED_STYLE_1
 73
     1
 44
1.0
  0
LINE
  5
16A
330
E3
100
AcDbEntity
  8
Doc_ Floor
  6
Continuous
100
AcDbLine
 10
146.8508247405243
 20
139.876636578571
 30
0.0
 11
146.8508247405243
 21
140.8546342837216
 31
0.0
  0
LINE
  5
16B
330
E3
100
AcDbEntity
  8
Doc_ Floor
  6
Continuous
100
AcDbLine
 10
146.8508247405243
 20
140.8546342837216
 30
0.0
 11
146.8508247405243
 21
154.9903074946498
 31
0.0
  0
LINE
  5
16C
330
E3
100
AcDbEntity
  8
Doc_ Floor
  6
Continuous
100
AcDbLine
 10
145.8508264005038
 20
141.4319858089316
 30
0.0
 11
147.850826690165
 21
140.2772863681318
 31
0.0
  0
LINE
  5
16D
330
E3
100
AcDbEntity
  8
Doc_ Floor
  6
Continuous
100
AcDbLine
 10
147.850826690165
 20
154.4129559694398
 30
0.0
 11
145.8508264005038
 21
155.5676554102396
 31
0.0
  0
LINE
  5
16E
330
E3
100
AcDbEntity
  8
Doc_ Floor
  6
Continuous
100
AcDbLine
 10
146.8508247405243
 20
154.9903074946498
 30
0.0
 11
146.8508247405243
 21
155.9683051998005
 31
0.0
  0
LINE
  5
16F
330
E3
100
AcDbEntity
  8
Doc_ Floor
  6
Continuous
100
AcDbLine
 10
148.3508240553651
 20
140.8546342837216
 30
0.0
 11
145.3508254256835
 21
140.8546342837216
 31
0.0
  0
LINE
  5
170
330
E3
100
AcDbEntity
  8
Doc_ Floor
  6
Continuous
100
AcDbLine
 10
148.3508240553651
 20
154.9903074946498
 30
0.0
 11
145.3508254256835
 21
154.9903074946498
 31
0.0
  0
MTEXT
  5
171
330
E3
100
AcDbEntity
  8
Doc_ Floor
  6
Continuous
100
AcDbMText
 10
142.764181466379
 20
146.5573874584481
 30
0.0
 40
2.5
 41
0.0
 71
     7
 72
     1
  1
{B}
  7
GENERATED_STYLE_1
 73
     1
 44
1.0
  0
LINE
  5
172
330
E3
100
AcDbEntity
  8
Doc_ Floor
  6
Continuous
100
AcDbLine
 10
131.6529666534744
 20
97.86747288934407
 30
0.0
 11
132.6309679682452
 21
97.86747288934407
 31
0.0
  0
LINE
  5
173
330
E3
100
AcDbEntity
  8
Doc_ Floor
  6
Continuous
100
AcDbLine
 10
132.6309679682452
 20
97.86747288934407
 30
0.0
 11
150.2103451476738
 21
97.86747288934407
 31
0.0
  0
LINE
  5
174
330
E3
100
AcDbEntity
  8
Doc_ Floor
  6
Continuous
100
AcDbLine
 10
133.2083158838351
 20
98.86747122936453
 30
0.0
 11
132.0536164430353
 21
96.86747093970342
 31
0.0
  0
LINE
  5
175
330
E3
100
AcDbEntity
  8
Doc_ Floor
  6
Continuous
100
AcDbLine
 10
132.6309679682452
 20
96.3674699648831
 30
0.0
 11
132.6309679682452
 21
99.36747220418485
 31
0.0
  0
LINE
  5
176
330
E3
100
AcDbEntity
  8
Doc_ Floor
  6
Continuous
100
AcDbLine
 10
150.2103451476738
 20
96.3674699648831
 30
0.0
 11
150.2103451476738
 21
99.36747220418485
 31
0.0
  0
LINE
  5
177
330
E3
100
AcDbEntity
  8
Doc_ Floor
  6
Continuous
100
AcDbLine
 10
150.2103451476738
 20
97.86747288934407
 30
0.0
 11
167.6309676228844
 21
97.86747288934407
 31
0.0
  0
LINE
  5
178
330
E3
100
AcDbEntity
  8
Doc_ Floor
  6
Continuous
100
AcDbLine
 10
150.7876966728838
 20
98.86747122936453
 30
0.0
 11
149.632997232084
 21
96.86747093970342
 31
0.0
  0
LINE
  5
179
330
E3
100
AcDbEntity
  8
Doc_ Floor
  6
Continuous
100
AcDbLine
 10
167.0536160976744
 20
96.86747093970342
 30
0.0
 11
168.2083155384742
 21
98.86747122936453
 31
0.0
  0
LINE
  5
17A
330
E3
100
AcDbEntity
  8
Doc_ Floor
  6
Continuous
100
AcDbLine
 10
167.6309676228844
 20
97.86747288934407
 30
0.0
 11
168.6089689376552
 21
97.86747288934407
 31
0.0
  0
LINE
  5
17B
330
E3
100
AcDbEntity
  8
Doc_ Floor
  6
Continuous
100
AcDbLine
 10
167.6309676228844
 20
96.3674699648831
 30
0.0
 11
167.6309676228844
 21
99.36747220418485
 31
0.0
  0
MTEXT
  5
17C
330
E3
100
AcDbEntity
  8
Doc_ Floor
  6
Continuous
100
AcDbMText
 10
135.1382939672175
 20
98.36747130082357
 30
0.0
 40
2.5
 41
0.0
 71
     7
 72
     1
  1
{80 MIN.}
  7
GENERATED_STYLE_1
 73
     1
 44
1.0
  0
MTEXT
  5
17D
330
E3
100
AcDbEntity
  8
Doc_ Floor
  6
Continuous
100
AcDbMText
 10
152.6382939672175
 20
98.36747130082357
 30
0.0
 40
2.5
 41
0.0
 71
     7
 72
     1
  1
{80 MIN.}
  7
GENERATED_STYLE_1
 73
     1
 44
1.0
  0
MTEXT
  5
17E
330
E3
100
AcDbEntity
  8
Doc_ Floor
  6
Continuous
100
AcDbMText
 10
73.20746058109886
 20
155.7198498865425
 30
0.0
 40
2.5
 41
56.68353220040039
 71
     6
 72
     1
  1
\A1;{\fCentury Gothic|b0|i0|c0|p34;TRS 7\PMIN. ROOF PITCH 3\fArial|b0|i0|c0|p34;\H1.029412x;\U+00B0}
  7
GENERATED_STYLE_1
 73
     1
 44
1.056356172275314
  0
LINE
  5
17F
330
E3
100
AcDbEntity
  8
Doc_ Floor
  6
Continuous
100
AcDbLine
 10
114.908768947981
 20
130.2909437225084
 30
0.0
 11
111.7319855613867
 21
132.4900903659679
 31
0.0
  0
LINE
  5
180
330
E3
100
AcDbEntity
  8
Doc_ Floor
  6
Continuous
100
AcDbLine
 10
114.908768947981
 20
130.2909437225084
 30
0.0
 11
113.2571655864575
 21
133.7838540330178
 31
0.0
  0
LINE
  5
181
330
E3
100
AcDbEntity
  8
Doc_ Floor
  6
Continuous
100
AcDbLine
 10
111.7319855613867
 20
132.4900903659679
 30
0.0
 11
113.2571655864575
 21
133.7838540330178
 31
0.0
  0
LWPOLYLINE
  5
182
330
E3
100
AcDbEntity
  8
Doc_ Floor
  6
Continuous
100
AcDbPolyline
 90
       16
 70
   128
 43
0.0
 10
112.4945747612814
 20
133.1369720012033
 10
107.2340018712769
 20
138.9538665773489
 10
104.7372591789212
 20
141.4900793350725
 10
102.3125846716878
 20
143.7887402736328
 10
99.94725761209492
 20
145.8578027938321
 10
97.62855726266095
 20
147.7052202964723
 10
95.34376288590424
 20
149.3389461823557
 10
93.08015374434315
 20
150.7669338522844
 10
90.82500910049605
 20
151.9971367070605
 10
88.56560821688124
 20
153.0375081474862
 10
86.28923035601711
 20
153.8960015743637
 10
83.98315478042201
 20
154.5805703884949
 10
81.63466075261428
 20
155.0991679906822
 10
79.23102753511228
 20
155.4597477817276
 10
76.75953439043434
 20
155.6702631624333
 10
74.20746058109886
 20
155.7386675336014
  0
MTEXT
  5
183
330
E3
100
AcDbEntity
  8
Doc_ Floor
  6
Continuous
100
AcDbMText
 10
84.61063592105417
 20
143.3735547292774
 30
0.0
 40
2.5
 41
0.0
 71
     6
 72
     1
  1
{UNDERLAY}
  7
GENERATED_STYLE_1
 73
     1
 44
1.0
  0
LINE
  5
184
330
E3
100
AcDbEntity
  8
Doc_ Floor
  6
Continuous
100
AcDbLine
 10
96.1912640939032
 20
126.4945582067416
 30
0.0
 11
94.50066600580072
 21
129.9687562463462
 31
0.0
  0
LINE
  5
185
330
E3
100
AcDbEntity
  8
Doc_ Floor
  6
Continuous
100
AcDbLine
 10
96.1912640939032
 20
126.4945582067416
 30
0.0
 11
96.46426327615715
 21
130.3486037949301
 31
0.0
  0
LINE
  5
186
330
E3
100
AcDbEntity
  8
Doc_ Floor
  6
Continuous
100
AcDbLine
 10
94.50066600580072
 20
129.9687562463462
 30
0.0
 11
96.46426327615715
 21
130.3486037949301
 31
0.0
  0
LWPOLYLINE
  5
187
330
E3
100
AcDbEntity
  8
Doc_ Floor
  6
Continuous
100
AcDbPolyline
 90
       12
 70
   128
 43
0.0
 10
95.48246556427382
 20
130.158680376093
 10
94.6625153387116
 20
133.5599382968309
 10
93.76899092298441
 20
136.3916191885203
 10
92.77953248648325
 20
138.6894998921392
 10
91.67178019859918
 20
140.4893572486652
 10
91.06655641332323
 20
141.213707434574
 10
90.42337422872319
 20
141.8269680990761
 10
89.73943866597294
 20
142.3336113472939
 10
89.01195474624635
 20
142.7381092843495
 10
88.23812749071729
 20
143.0449340153652
 10
87.41516192055965
 20
143.2585576454633
 10
85.61063592105417
 20
143.424090023395
  0
MTEXT
  5
188
330
E3
100
AcDbEntity
  8
Doc_ Floor
  6
Continuous
100
AcDbMText
 10
78.03072071894049
 20
166.7695038187583
 30
0.0
 40
2.5
 41
0.0
 71
     6
 72
     1
  1
{ROOF FIXING}
  7
GENERATED_STYLE_1
 73
     1
 44
1.0
  0
LINE
  5
189
330
E3
100
AcDbEntity
  8
Doc_ Floor
  6
Continuous
100
AcDbLine
 10
119.5600352445114
 20
134.6920813901129
 30
0.0
 11
116.6596837889423
 21
137.2447578415763
 31
0.0
  0
LINE
  5
18A
330
E3
100
AcDbEntity
  8
Doc_ Floor
  6
Continuous
100
AcDbLine
 10
119.5600352445114
 20
134.6920813901129
 30
0.0
 11
118.3245958199926
 21
138.3529401073856
 31
0.0
  0
LINE
  5
18B
330
E3
100
AcDbEntity
  8
Doc_ Floor
  6
Continuous
100
AcDbLine
 10
116.6596837889423
 20
137.2447578415763
 30
0.0
 11
118.3245958199926
 21
138.3529401073856
 31
0.0
  0
LWPOLYLINE
  5
18C
330
E3
100
AcDbEntity
  8
Doc_ Floor
  6
Continuous
100
AcDbPolyline
 90
       17
 70
   128
 43
0.0
 10
117.4921397081369
 20
137.7988496510144
 10
114.801518849397
 20
141.6940155374646
 10
112.2095923602636
 20
145.2635272830996
 10
109.7034052235898
 20
148.517644294117
 10
107.2700024222292
 20
151.4666259767143
 10
104.8964289390351
 20
154.1207317370888
 10
102.5697297568607
 20
156.4902209814381
 10
100.2769498585594
 20
158.5853531159598
 10
98.00513422698465
 20
160.4163875468512
 10
95.74132784498968
 20
161.9935836803099
 10
93.47257569542785
 20
163.3272009225334
 10
91.18592276115254
 20
164.4274986797191
 10
88.86841402501707
 20
165.3047363580646
 10
86.50709446987479
 20
165.9691733637672
 10
84.08900907857904
 20
166.4310691030247
 10
81.60120283398315
 20
166.7006829820343
 10
79.03072071894049
 20
166.7882744069936
  0
MTEXT
  5
18D
330
E3
100
AcDbEntity
  8
Doc_ Floor
  6
Continuous
100
AcDbMText
 10
199.5846598040943
 20
143.502746323124
 30
0.0
 40
2.5
 41
0.0
 71
     4
 72
     1
  1
{METAL HIDDEN GUTTER}
  7
GENERATED_STYLE_1
 73
     1
 44
1.0
  0
LINE
  5
18E
330
E3
100
AcDbEntity
  8
Doc_ Floor
  6
Continuous
100
AcDbLine
 10
158.6006906303248
 20
114.9903053110479
 30
0.0
 11
160.8681709930166
 21
118.1186800816883
 31
0.0
  0
LINE
  5
18F
330
E3
100
AcDbEntity
  8
Doc_ Floor
  6
Continuous
100
AcDbLine
 10
158.6006906303248
 20
114.9903053110479
 30
0.0
 11
162.1285745505558
 21
116.5658178796173
 31
0.0
  0
LINE
  5
190
330
E3
100
AcDbEntity
  8
Doc_ Floor
  6
Continuous
100
AcDbLine
 10
160.8681709930166
 20
118.1186800816883
 30
0.0
 11
162.1285745505558
 21
116.5658178796173
 31
0.0
  0
LWPOLYLINE
  5
191
330
E3
100
AcDbEntity
  8
Doc_ Floor
  6
Continuous
100
AcDbPolyline
 90
        9
 70
   128
 43
0.0
 10
161.4983716995332
 20
117.342249241487
 10
176.9887945973551
 20
129.6898624257524
 10
182.9182268235236
 20
134.226681705624
 10
187.7763750371021
 20
137.7715298416212
 10
191.6676658400196
 20
140.3989221319687
 10
194.6965258342049
 20
142.1833738748911
 10
196.9673816215868
 20
143.1994003686131
 10
197.8511912508293
 20
143.4425401777191
 10
198.5846598040943
 20
143.5215169113593
  0
MTEXT
  5
192
330
E3
100
AcDbEntity
  8
Doc_ Floor
  6
Continuous
100
AcDbMText
 10
220.8087086944494
 20
104.3041952799212
 30
0.0
 40
2.5
 41
0.0
 71
     6
 72
     1
  1
{UNDERLAY}
  7
GENERATED_STYLE_1
 73
     1
 44
1.0
  0
LINE
  5
193
330
E3
100
AcDbEntity
  8
Doc_ Floor
  6
Continuous
100
AcDbLine
 10
168.5680719412524
 20
114.1634568404399
 30
0.0
 11
172.4115088557932
 21
113.768250358079
 31
0.0
  0
LINE
  5
194
330
E3
100
AcDbEntity
  8
Doc_ Floor
  6
Continuous
100
AcDbLine
 10
168.5680719412524
 20
114.1634568404399
 30
0.0
 11
171.6989806652446
 21
111.8994778093025
 31
0.0
  0
LINE
  5
195
330
E3
100
AcDbEntity
  8
Doc_ Floor
  6
Continuous
100
AcDbLine
 10
172.4115088557932
 20
113.768250358079
 30
0.0
 11
171.6989806652446
 21
111.8994778093025
 31
0.0
  0
LWPOLYLINE
  5
196
330
E3
100
AcDbEntity
  8
Doc_ Floor
  6
Continuous
100
AcDbPolyline
 90
        6
 70
   128
 43
0.0
 10
172.0552446806111
 20
112.8338638930918
 10
182.7261589098906
 20
108.8404245833714
 10
190.1474602588489
 20
106.2222308081268
 10
194.8767003305841
 20
104.7900702456014
 10
196.4060322634612
 20
104.4596235685596
 10
197.4714307281941
 20
104.3547305740389
  0
MTEXT
  5
197
330
E3
100
AcDbEntity
  8
Doc_ Floor
  6
Continuous
100
AcDbMText
 10
198.8634527114357
 20
85.60938523449802
 30
0.0
 40
2.499999999999999
 41
0.0
 71
     4
 72
     1
  1
{SOLID SUPPORT FOR HIDDEN GUTTER}
  7
GENERATED_STYLE_1
 73
     1
 44
1.0
  0
LINE
  5
198
330
E3
100
AcDbEntity
  8
Doc_ Floor
  6
Continuous
100
AcDbLine
 10
153.5751356002556
 20
112.4920474931033
 30
0.0
 11
157.1224609346636
 21
110.9608105254055
 31
0.0
  0
LINE
  5
199
330
E3
100
AcDbEntity
  8
Doc_ Floor
  6
Continuous
100
AcDbLine
 10
153.5751356002556
 20
112.4920474931033
 30
0.0
 11
155.8815926414255
 21
109.3922934007044
 31
0.0
  0
LINE
  5
19A
330
E3
100
AcDbEntity
  8
Doc_ Floor
  6
Continuous
100
AcDbLine
 10
157.1224609346636
 20
110.9608105254055
 30
0.0
 11
155.8815926414255
 21
109.3922934007044
 31
0.0
  0
LWPOLYLINE
  5
19B
330
E3
100
AcDbEntity
  8
Doc_ Floor
  6
Continuous
100
AcDbPolyline
 90
       12
 70
   128
 43
0.0
 10
156.5020281391087
 20
110.1765529273228
 10
164.6593725617214
 20
103.8531811442045
 10
171.7331712593182
 20
98.59931149519609
 10
177.838459044254
 20
94.34516750539191
 10
183.0902707288836
 20
91.0209726998862
 10
187.6036411255617
 20
88.55695060377322
 10
189.6193592197799
 20
87.62569917333096
 10
191.4936050466433
 20
86.88332474214722
 10
193.2407579576962
 20
86.32110525085884
 10
194.875197304483
 20
85.9303186401025
 10
196.411302438548
 20
85.70224285051509
 10
197.8634527114357
 20
85.62815582273332
  0
MTEXT
  5
19C
330
E3
100
AcDbEntity
  8
Doc_ Floor
  6
Continuous
100
AcDbMText
 10
111.4764557867262
 20
180.8908537492673
 30
0.0
 40
2.5
 41
56.71228972547952
 71
     6
 72
     1
  1
{CLADDING ON CAVITY BATTENS WITH BUILDING WRAP OVER METAL HIDDEN GUTTER}
  7
GENERATED_STYLE_1
 73
     1
 44
1.065340909090909
  0
LINE
  5
19D
330
E3
100
AcDbEntity
  8
Doc_ Floor
  6
Continuous
100
AcDbLine
 10
158.307867414157
 20
160.9689394122912
 30
0.0
 11
154.7188834534926
 21
162.3998181107051
 31
0.0
  0
LINE
  5
19E
330
E3
100
AcDbEntity
  8
Doc_ Floor
  6
Continuous
100
AcDbLine
 10
158.307867414157
 20
160.9689394122912
 30
0.0
 11
155.9151548896649
 21
164.002608578817
 31
0.0
  0
LINE
  5
19F
330
E3
100
AcDbEntity
  8
Doc_ Floor
  6
Continuous
100
AcDbLine
 10
154.7188834534926
 20
162.3998181107051
 30
0.0
 11
155.9151548896649
 21
164.002608578817
 31
0.0
  0
LWPOLYLINE
  5
1A0
330
E3
100
AcDbEntity
  8
Doc_ Floor
  6
Continuous
100
AcDbPolyline
 90
       15
 70
   128
 43
0.0
 10
155.317019857806
 20
163.201213177669
 10
148.8843857445985
 20
167.7587274089904
 10
142.9887753179524
 20
171.5468381518251
 10
140.2065495541147
 20
173.1679452792594
 10
137.5156143923473
 20
174.6153952116112
 10
134.9016480594601
 20
175.8954191745605
 10
132.350328782263
 20
177.0142483937869
 10
129.847334787566
 20
177.9781140949703
 10
127.3783443021791
 20
178.7932475037904
 10
124.9290355529121
 20
179.465879845927
 10
122.4850867665752
 20
180.0022423470599
 10
120.0321761699781
 20
180.4085662328688
 10
117.555981989931
 20
180.6910827290336
 10
115.0421824532437
 20
180.856023061234
 10
112.4764557867262
 20
180.9096184551497
  0
MTEXT
  5
1A1
330
E3
100
AcDbEntity
  8
Doc_ Floor
  6
Continuous
100
AcDbMText
 10
199.5846598040943
 20
172.5307261741983
 30
0.0
 40
2.499999999999999
 41
0.0
 71
     4
 72
     1
  1
{HEM TO FLASHING EDGE}
  7
GENERATED_STYLE_1
 73
     1
 44
1.0
  0
LINE
  5
1A2
330
E3
100
AcDbEntity
  8
Doc_ Floor
  6
Continuous
100
AcDbLine
 10
167.6309676228844
 20
154.2895502754401
 30
0.0
 11
170.1183677033903
 21
157.2460746399253
 31
0.0
  0
LINE
  5
1A3
330
E3
100
AcDbEntity
  8
Doc_ Floor
  6
Continuous
100
AcDbLine
 10
167.6309676228844
 20
154.2895502754401
 30
0.0
 11
171.2633825333032
 21
155.606274736322
 31
0.0
  0
LINE
  5
1A4
330
E3
100
AcDbEntity
  8
Doc_ Floor
  6
Continuous
100
AcDbLine
 10
170.1183677033903
 20
157.2460746399253
 30
0.0
 11
171.2633825333032
 21
155.606274736322
 31
0.0
  0
LWPOLYLINE
  5
1A5
330
E3
100
AcDbEntity
  8
Doc_ Floor
  6
Continuous
100
AcDbPolyline
 90
        8
 70
   128
 43
0.0
 10
170.6908741439322
 20
156.4261747257979
 10
181.8617258673601
 20
164.0237247978082
 10
186.2058237096749
 20
166.8175706345626
 10
189.8247571082848
 20
169.0018633030366
 10
192.7953167401108
 20
170.6219025266456
 10
195.1942932820737
 20
171.7229880288046
 10
197.0984774110946
 20
172.3504195329289
 10
198.5846598040943
 20
172.5494967624336
  0
MTEXT
  5
1A6
330
E3
100
AcDbEntity
  8
0
  6
Continuous
100
AcDbMText
 10
42.0836279444616
 20
48.06293888957747
 30
0.0
 40
2.499999999999999
 41
69.01187578516154
 71
     7
 72
     1
  1
\A1;{\fCentury Gothic|b0|i0|c0|p34;LOW, MEDIUM OR HIGH WIND ZONE.\P ROOF PITCH \fArial|b0|i0|c0|p34;\H1.029412x;\U+2265\fCentury Gothic|b0|i0|c0|p34;\H0.971429x; 10\fArial|b0|i0|c0|p34;\H1.029412x;\U+00B0}
  7
GENERATED_STYLE_1
 73
     1
 44
1.056355725756043
  0
MTEXT
  5
1A7
330
E3
100
AcDbEntity
  8
0
  6
Continuous
100
AcDbMText
 10
42.0836279444616
 20
37.6400865034502
 30
0.0
 40
2.5
 41
69.01187578516154
 71
     7
 72
     1
  1
\A1;{\fCentury Gothic|b0|i0|c0|p34;VERY HIGH OR EXTRA WIND ZONE.\P ROOF PITCH \fArial|b0|i0|c0|p34;\H1.029412x;<\fCentury Gothic|b0|i0|c0|p34;\H0.971429x; 10\fArial|b0|i0|c0|p34;\H1.029412x;\U+00B0}
  7
GENERATED_STYLE_1
 73
     1
 44
1.056355725756044
  0
MTEXT
  5
1A8
330
E3
100
AcDbEntity
  8
0
  6
Continuous
100
AcDbMText
 10
126.5829620010497
 20
50.10276662102289
 30
0.0
 40
2.499999999999999
 41
0.0
 71
     8
 72
     1
  1
{75MM}
  7
GENERATED_STYLE_1
 73
     1
 44
1.0
  0
MTEXT
  5
1A9
330
E3
100
AcDbEntity
  8
0
  6
Continuous
100
AcDbMText
 10
126.5829620010497
 20
38.86398709956514
 30
0.0
 40
2.499999999999999
 41
0.0
 71
     8
 72
     1
  1
{100MM}
  7
GENERATED_STYLE_1
 73
     1
 44
1.0
  0
MTEXT
  5
1AA
330
E3
100
AcDbEntity
  8
0
  6
Continuous
100
AcDbMText
 10
126.5829620010497
 20
59.98482870428885
 30
0.0
 40
2.499999999999999
 41
0.0
 71
     8
 72
     1
  1
{B}
  7
GENERATED_STYLE_1
 73
     1
 44
1.0
  0
MTEXT
  5
1AB
330
E3
100
AcDbEntity
  8
0
  6
Continuous
100
AcDbMText
 10
160.8567875075116
 20
46.51192937361961
 30
0.0
 40
2.499999999999999
 41
0.0
 71
     7
 72
     1
  1
\A1;{\fCentury Gothic|b0|i0|c0|p34;ROOF PITCH \fArial|b0|i0|c0|p34;\H1.029412x;\U+2265\fCentury Gothic|b0|i0|c0|p34;\H0.971429x; 12\fArial|b0|i0|c0|p34;\H1.029412x;\U+00B0}
  7
GENERATED_STYLE_1
 73
     1
 44
1.0
  0
MTEXT
  5
1AC
330
E3
100
AcDbEntity
  8
0
  6
Continuous
100
AcDbMText
 10
160.8567875075116
 20
38.35693337624465
 30
0.0
 40
2.5
 41
0.0
 71
     7
 72
     1
  1
\A1;{\fCentury Gothic|b0|i0|c0|p34;ROOF PITCH \fArial|b0|i0|c0|p34;\H1.029412x;<\fCentury Gothic|b0|i0|c0|p34;\H0.971429x; 12\fArial|b0|i0|c0|p34;\H1.029412x;\U+00B0}
  7
GENERATED_STYLE_1
 73
     1
 44
1.0
  0
MTEXT
  5
1AD
330
E3
100
AcDbEntity
  8
0
  6
Continuous
100
AcDbMText
 10
217.3561215640997
 20
46.51192937361961
 30
0.0
 40
2.499999999999999
 41
0.0
 71
     8
 72
     1
  1
{20MM}
  7
GENERATED_STYLE_1
 73
     1
 44
1.0
  0
MTEXT
  5
1AE
330
E3
100
AcDbEntity
  8
0
  6
Continuous
100
AcDbMText
 10
217.3561215640997
 20
38.43900243752393
 30
0.0
 40
2.499999999999999
 41
0.0
 71
     8
 72
     1
  1
{45MM}
  7
GENERATED_STYLE_1
 73
     1
 44
1.0
  0
MTEXT
  5
1AF
330
E3
100
AcDbEntity
  8
0
  6
Continuous
100
AcDbMText
 10
217.3561215640997
 20
54.63637360465058
 30
0.0
 40
2.499999999999999
 41
0.0
 71
     8
 72
     1
  1
{A}
  7
GENERATED_STYLE_1
 73
     1
 44
1.0
  0
HATCH
  5
1B0
330
E3
100
AcDbEntity
  8
0
  6
Continuous
 62
   255
370
     0
100
AcDbHatch
 10
0.0
 20
0.0
 30
0.0
210
0.0
220
0.0
230
1.0
  2
SOLID
 70
     1
 71
     0
 91
        1
 92
        3
 72
     0
 73
     1
 93
        4
 10
120.3286170220551
 20
135.4782010255296
 10
118.8286170220551
 20
135.4782010255296
 10
118.8286170220551
 20
134.9782010255296
 10
120.3286170220551
 20
134.9782010255296
 97
        0
 75
     0
 76
     1
 98
        0
  0
HATCH
  5
1B1
330
E3
100
AcDbEntity
  8
0
  6
Continuous
 62
   255
370
     0
100
AcDbHatch
 10
0.0
 20
0.0
 30
0.0
210
0.0
220
0.0
230
1.0
  2
SOLID
 70
     1
 71
     0
 91
        1
 92
        3
 72
     1
 73
     1
 93
        4
 10
120.0786170220551
 20
135.3948676921963
 42
0.1666666666666667
 10
119.0786170220551
 20
135.3948676921963
 42
0.0
 10
119.0786170220551
 20
135.0615343588629
 42
0.1666666666666667
 10
120.0786170220551
 20
135.0615343588629
 42
0.0
 97
        0
 75
     0
 76
     1
 98
        0
  0
ARC
  5
1B2
330
E3
100
AcDbEntity
  8
0
  6
Continuous
100
AcDbCircle
 10
119.5786170220551
 20
133.9365343588629
 30
0.0
 40
1.541666666666673
100
AcDbArc
 50
71.07535558394882
 51
108.9246444160512
  0
LINE
  5
1B3
330
E3
100
AcDbEntity
  8
0
  6
Continuous
100
AcDbLine
 10
119.0786165942702
 20
135.3948672158521
 30
0.0
 11
119.0786165942702
 21
135.0615332326385
 31
0.0
  0
ARC
  5
1B4
330
E3
100
AcDbEntity
  8
0
  6
Continuous
100
AcDbCircle
 10
119.5786170220551
 20
136.5198676921963
 30
0.0
 40
1.541666666666673
100
AcDbArc
 50
251.0753555839488
 51
288.9246444160512
  0
LINE
  5
1B5
330
E3
100
AcDbEntity
  8
0
  6
Continuous
100
AcDbLine
 10
120.0786185439108
 20
135.0615332326385
 30
0.0
 11
120.0786185439108
 21
135.3948672158521
 31
0.0
  0
HATCH
  5
1B6
330
E3
100
AcDbEntity
  8
0
  6
Continuous
 62
   255
370
     0
100
AcDbHatch
 10
0.0
 20
0.0
 30
0.0
210
0.0
220
0.0
230
1.0
  2
SOLID
 70
     1
 71
     0
 91
        1
 92
        3
 72
     1
 73
     1
 93
        4
 10
120.5786170220551
 20
135.3948676921963
 42
0.3333333333333333
 10
120.0786170220551
 20
135.3948676921963
 42
0.0
 10
120.0786170220551
 20
135.0615343588629
 42
0.3333333333333333
 10
120.5786170220551
 20
135.0615343588629
 42
0.0
 97
        0
 75
     0
 76
     1
 98
        0
  0
ARC
  5
1B7
330
E3
100
AcDbEntity
  8
0
  6
Continuous
100
AcDbCircle
 10
120.3286170220551
 20
135.061534358863
 30
0.0
 40
0.4166666666666596
100
AcDbArc
 50
53.13010235415521
 51
126.8698976458448
  0
LINE
  5
1B8
330
E3
100
AcDbEntity
  8
0
  6
Continuous
100
AcDbLine
 10
120.0786185439108
 20
135.3948672158521
 30
0.0
 11
120.0786185439108
 21
135.0615332326385
 31
0.0
  0
ARC
  5
1B9
330
E3
100
AcDbEntity
  8
0
  6
Continuous
100
AcDbCircle
 10
120.3286170220551
 20
135.3948676921962
 30
0.0
 40
0.4166666666666596
100
AcDbArc
 50
233.1301023541552
 51
306.8698976458448
  0
LINE
  5
1BA
330
E3
100
AcDbEntity
  8
0
  6
Continuous
100
AcDbLine
 10
120.578615909111
 20
135.0615332326385
 30
0.0
 11
120.578615909111
 21
135.3948672158521
 31
0.0
  0
HATCH
  5
1BB
330
E3
100
AcDbEntity
  8
0
  6
Continuous
 62
   255
370
     0
100
AcDbHatch
 10
0.0
 20
0.0
 30
0.0
210
0.0
220
0.0
230
1.0
  2
SOLID
 70
     1
 71
     0
 91
        1
 92
        3
 72
     1
 73
     1
 93
        4
 10
118.5786170220551
 20
135.3948676921963
 42
0.0
 10
118.5786170220551
 20
135.0615343588629
 42
0.3333333333333333
 10
119.0786170220551
 20
135.0615343588629
 42
0.0
 10
119.0786170220551
 20
135.3948676921963
 42
0.3333333333333333
 97
        0
 75
     0
 76
     1
 98
        0
  0
LINE
  5
1BC
330
E3
100
AcDbEntity
  8
0
  6
Continuous
100
AcDbLine
 10
118.5786156194499
 20
135.0615332326385
 30
0.0
 11
118.5786156194499
 21
135.3948672158521
 31
0.0
  0
ARC
  5
1BD
330
E3
100
AcDbEntity
  8
0
  6
Continuous
100
AcDbCircle
 10
118.8286170220551
 20
135.3948676921962
 30
0.0
 40
0.4166666666666596
100
AcDbArc
 50
233.1301023541552
 51
306.8698976458448
  0
LINE
  5
1BE
330
E3
100
AcDbEntity
  8
0
  6
Continuous
100
AcDbLine
 10
119.0786165942702
 20
135.3948672158521
 30
0.0
 11
119.0786165942702
 21
135.0615332326385
 31
0.0
  0
ARC
  5
1BF
330
E3
100
AcDbEntity
  8
0
  6
Continuous
100
AcDbCircle
 10
118.8286170220551
 20
135.061534358863
 30
0.0
 40
0.4166666666666596
100
AcDbArc
 50
53.13010235415521
 51
126.8698976458448
  0
HATCH
  5
1C0
330
E3
100
AcDbEntity
  8
0
  6
Continuous
 62
   255
370
     0
100
AcDbHatch
 10
0.0
 20
0.0
 30
0.0
210
0.0
220
0.0
230
1.0
  2
SOLID
 70
     1
 71
     0
 91
        1
 92
        3
 72
     0
 73
     1
 93
        4
 10
119.245284022055
 20
134.9782010255296
 10
119.245284022055
 20
133.3782010255296
 10
119.9119500220551
 20
133.3782010255296
 10
119.9119500220551
 20
134.9782010255296
 97
        0
 75
     0
 76
     1
 98
        0
  0
LINE
  5
1C1
330
E3
100
AcDbEntity
  8
0
  6
Continuous
100
AcDbLine
 10
119.245283585877
 20
134.9782015416453
 30
0.0
 11
119.245283585877
 21
133.3782013099163
 31
0.0
  0
LINE
  5
1C2
330
E3
100
AcDbEntity
  8
0
  6
Continuous
100
AcDbLine
 10
119.245283585877
 20
133.3782013099163
 30
0.0
 11
119.9119515523041
 21
133.3782013099163
 31
0.0
  0
LINE
  5
1C3
330
E3
100
AcDbEntity
  8
0
  6
Continuous
100
AcDbLine
 10
119.9119515523041
 20
133.3782013099163
 30
0.0
 11
119.9119515523041
 21
134.9782015416453
 31
0.0
  0
LINE
  5
1C4
330
E3
100
AcDbEntity
  8
0
  6
Continuous
100
AcDbLine
 10
119.9119515523041
 20
134.9782015416453
 30
0.0
 11
119.245283585877
 21
134.9782015416453
 31
0.0
  0
HATCH
  5
1C5
330
E3
100
AcDbEntity
  8
0
  6
Continuous
 62
   255
370
     0
100
AcDbHatch
 10
0.0
 20
0.0
 30
0.0
210
0.0
220
0.0
230
1.0
  2
SOLID
 70
     1
 71
     0
 91
        1
 92
        3
 72
     0
 73
     1
 93
        5
 10
119.2786170220551
 20
133.3782010255296
 10
119.2786170220551
 20
120.9782010255296
 10
119.5786170220551
 20
120.3782010255296
 10
119.8786170220551
 20
120.9782010255296
 10
119.878617022055
 20
133.3782010255296
 97
        0
 75
     0
 76
     1
 98
        0
  0
LINE
  5
1C6
330
E3
100
AcDbEntity
  8
0
  6
Continuous
100
AcDbLine
 10
119.2786184280464
 20
133.3782013099163
 30
0.0
 11
119.2786184280464
 21
120.9781995140175
 31
0.0
  0
LINE
  5
1C7
330
E3
100
AcDbEntity
  8
0
  6
Continuous
100
AcDbLine
 10
119.2786184280464
 20
120.9781995140175
 30
0.0
 11
119.5786175690905
 21
120.3782012319293
 31
0.0
  0
LINE
  5
1C8
330
E3
100
AcDbEntity
  8
0
  6
Continuous
100
AcDbLine
 10
119.5786175690905
 20
120.3782012319293
 30
0.0
 11
119.8786167101347
 21
120.9781995140175
 31
0.0
  0
LINE
  5
1C9
330
E3
100
AcDbEntity
  8
0
  6
Continuous
100
AcDbLine
 10
119.8786167101347
 20
120.9781995140175
 30
0.0
 11
119.8786167101347
 21
133.3782013099163
 31
0.0
  0
LINE
  5
1CA
330
E3
100
AcDbEntity
  8
0
  6
Continuous
100
AcDbLine
 10
119.8786167101347
 20
133.3782013099163
 30
0.0
 11
119.2786184280464
 21
133.3782013099163
 31
0.0
  0
LINE
  5
1CB
330
E3
100
AcDbEntity
  8
0
  6
Continuous
100
AcDbLine
 10
120.3286172265109
 20
135.4782025164656
 30
0.0
 11
118.8286179116701
 21
135.4782025164656
 31
0.0
  0
LINE
  5
1CC
330
E3
100
AcDbEntity
  8
0
  6
Continuous
100
AcDbLine
 10
118.8286179116701
 20
134.9782015416453
 30
0.0
 11
120.3286172265109
 21
134.9782015416453
 31
0.0
  0
LINE
  5
1CD
330
E3
100
AcDbEntity
  8
0
  6
Continuous
100
AcDbLine
 10
120.0786170220551
 20
133.3782010255296
 30
0.0
 11
120.0767143711009
 21
133.3727296450582
 31
0.0
  0
LINE
  5
1CE
330
E3
100
AcDbEntity
  8
0
  6
Continuous
100
AcDbLine
 10
120.0767143711009
 20
133.3727296450582
 30
0.0
 11
120.0710208985612
 21
133.3672582645868
 31
0.0
  0
LINE
  5
1CF
330
E3
100
AcDbEntity
  8
0
  6
Continuous
100
AcDbLine
 10
120.0710208985612
 20
133.3672582645868
 30
0.0
 11
120.0615811367598
 21
133.3617883670529
 31
0.0
  0
LINE
  5
1D0
330
E3
100
AcDbEntity
  8
0
  6
Continuous
100
AcDbLine
 10
120.0615811367598
 20
133.3617883670529
 30
0.0
 11
120.0484637771016
 21
133.3563161828916
 31
0.0
  0
LINE
  5
1D1
330
E3
100
AcDbEntity
  8
0
  6
Continuous
100
AcDbLine
 10
120.0484637771016
 20
133.3563161828916
 30
0.0
 11
120.0317692838657
 21
133.3508439987304
 31
0.0
  0
LINE
  5
1D2
330
E3
100
AcDbEntity
  8
0
  6
Continuous
100
AcDbLine
 10
120.0317692838657
 20
133.3508439987304
 30
0.0
 11
120.011631212998
 21
133.3453718145692
 31
0.0
  0
LINE
  5
1D3
330
E3
100
AcDbEntity
  8
0
  6
Continuous
100
AcDbLine
 10
120.011631212998
 20
133.3453718145692
 30
0.0
 11
119.9881939493049
 21
133.339899630408
 31
0.0
  0
LINE
  5
1D4
330
E3
100
AcDbEntity
  8
0
  6
Continuous
100
AcDbLine
 10
119.9881939493049
 20
133.339899630408
 30
0.0
 11
119.9616379737943
 21
133.334431055867
 31
0.0
  0
LINE
  5
1D5
330
E3
100
AcDbEntity
  8
0
  6
Continuous
100
AcDbLine
 10
119.9616379737943
 20
133.334431055867
 30
0.0
 11
119.9321690348153
 21
133.3289588717057
 31
0.0
  0
LINE
  5
1D6
330
E3
100
AcDbEntity
  8
0
  6
Continuous
100
AcDbLine
 10
119.9321690348153
 20
133.3289588717057
 30
0.0
 11
119.9000109288177
 21
133.3234866875445
 31
0.0
  0
LINE
  5
1D7
330
E3
100
AcDbEntity
  8
0
  6
Continuous
100
AcDbLine
 10
119.9000109288177
 20
133.3234866875445
 30
0.0
 11
119.8654055003523
 21
133.3180145033833
 31
0.0
  0
LINE
  5
1D8
330
E3
100
AcDbEntity
  8
0
  6
Continuous
100
AcDbLine
 10
119.8654055003523
 20
133.3180145033833
 30
0.0
 11
119.8286162516906
 21
133.3125459288422
 31
0.0
  0
LINE
  5
1D9
330
E3
100
AcDbEntity
  8
0
  6
Continuous
100
AcDbLine
 10
119.8286162516906
 20
133.3125459288422
 30
0.0
 11
119.7899247332051
 21
133.307073744681
 31
0.0
  0
LINE
  5
1DA
330
E3
100
AcDbEntity
  8
0
  6
Continuous
100
AcDbLine
 10
119.7899247332051
 20
133.307073744681
 30
0.0
 11
119.7496269337487
 21
133.3016015605198
 31
0.0
  0
LINE
  5
1DB
330
E3
100
AcDbEntity
  8
0
  6
Continuous
100
AcDbLine
 10
119.7496269337487
 20
133.3016015605198
 30
0.0
 11
119.7080260614149
 21
133.2961293763586
 31
0.0
  0
LINE
  5
1DC
330
E3
100
AcDbEntity
  8
0
  6
Continuous
100
AcDbLine
 10
119.7080260614149
 20
133.2961293763586
 30
0.0
 11
119.6654397627777
 21
133.2906571921974
 31
0.0
  0
LINE
  5
1DD
330
E3
100
AcDbEntity
  8
0
  6
Continuous
100
AcDbLine
 10
119.6654397627777
 20
133.2906571921974
 30
0.0
 11
119.6221965132715
 21
133.2851886176563
 31
0.0
  0
LINE
  5
1DE
330
E3
100
AcDbEntity
  8
0
  6
Continuous
100
AcDbLine
 10
119.6221965132715
 20
133.2851886176563
 30
0.0
 11
119.5786175690905
 21
133.2797164334951
 31
0.0
  0
LINE
  5
1DF
330
E3
100
AcDbEntity
  8
0
  6
Continuous
100
AcDbLine
 10
119.5786175690905
 20
133.2797164334951
 30
0.0
 11
119.5350386249095
 21
133.2742442493339
 31
0.0
  0
LINE
  5
1E0
330
E3
100
AcDbEntity
  8
0
  6
Continuous
100
AcDbLine
 10
119.5350386249095
 20
133.2742442493339
 30
0.0
 11
119.4917917657832
 21
133.2687720651727
 31
0.0
  0
LINE
  5
1E1
330
E3
100
AcDbEntity
  8
0
  6
Continuous
100
AcDbLine
 10
119.4917917657832
 20
133.2687720651727
 30
0.0
 11
119.4492090767661
 21
133.2633034906316
 31
0.0
  0
LINE
  5
1E2
330
E3
100
AcDbEntity
  8
0
  6
Continuous
100
AcDbLine
 10
119.4492090767661
 20
133.2633034906316
 30
0.0
 11
119.4076082044323
 21
133.2578313064704
 31
0.0
  0
LINE
  5
1E3
330
E3
100
AcDbEntity
  8
0
  6
Continuous
100
AcDbLine
 10
119.4076082044323
 20
133.2578313064704
 30
0.0
 11
119.3673067953558
 21
133.2523591223092
 31
0.0
  0
LINE
  5
1E4
330
E3
100
AcDbEntity
  8
0
  6
Continuous
100
AcDbLine
 10
119.3673067953558
 20
133.2523591223092
 30
0.0
 11
119.3286152768703
 21
133.246886938148
 31
0.0
  0
LINE
  5
1E5
330
E3
100
AcDbEntity
  8
0
  6
Continuous
100
AcDbLine
 10
119.3286152768703
 20
133.246886938148
 30
0.0
 11
119.2918296378288
 21
133.2414147539867
 31
0.0
  0
LINE
  5
1E6
330
E3
100
AcDbEntity
  8
0
  6
Continuous
100
AcDbLine
 10
119.2918296378288
 20
133.2414147539867
 30
0.0
 11
119.2572242093633
 21
133.2359461794457
 31
0.0
  0
LINE
  5
1E7
330
E3
100
AcDbEntity
  8
0
  6
Continuous
100
AcDbLine
 10
119.2572242093633
 20
133.2359461794457
 30
0.0
 11
119.2250624937456
 21
133.2304739952845
 31
0.0
  0
LINE
  5
1E8
330
E3
100
AcDbEntity
  8
0
  6
Continuous
100
AcDbLine
 10
119.2250624937456
 20
133.2304739952845
 30
0.0
 11
119.1955935547666
 21
133.2250018111232
 31
0.0
  0
LINE
  5
1E9
330
E3
100
AcDbEntity
  8
0
  6
Continuous
100
AcDbLine
 10
119.1955935547666
 20
133.2250018111232
 30
0.0
 11
119.1690411888762
 21
133.219529626962
 31
0.0
  0
LINE
  5
1EA
330
E3
100
AcDbEntity
  8
0
  6
Continuous
100
AcDbLine
 10
119.1690411888762
 20
133.219529626962
 30
0.0
 11
119.145603925183
 21
133.214061052421
 31
0.0
  0
LINE
  5
1EB
330
E3
100
AcDbEntity
  8
0
  6
Continuous
100
AcDbLine
 10
119.145603925183
 20
133.214061052421
 30
0.0
 11
119.1254622446952
 21
133.2085888682598
 31
0.0
  0
LINE
  5
1EC
330
E3
100
AcDbEntity
  8
0
  6
Continuous
100
AcDbLine
 10
119.1254622446952
 20
133.2085888682598
 30
0.0
 11
119.1087713610794
 21
133.2031166840985
 31
0.0
  0
LINE
  5
1ED
330
E3
100
AcDbEntity
  8
0
  6
Continuous
100
AcDbLine
 10
119.1087713610794
 20
133.2031166840985
 30
0.0
 11
119.0956540014212
 21
133.1976444999373
 31
0.0
  0
LINE
  5
1EE
330
E3
100
AcDbEntity
  8
0
  6
Continuous
100
AcDbLine
 10
119.0956540014212
 20
133.1976444999373
 30
0.0
 11
119.0862148447051
 21
133.1921723157761
 31
0.0
  0
LINE
  5
1EF
330
E3
100
AcDbEntity
  8
0
  6
Continuous
100
AcDbLine
 10
119.0862148447051
 20
133.1921723157761
 30
0.0
 11
119.0805196730092
 21
133.1867027090313
 31
0.0
  0
LINE
  5
1F0
330
E3
100
AcDbEntity
  8
0
  6
Continuous
100
AcDbLine
 10
119.0805196730092
 20
133.1867027090313
 30
0.0
 11
119.0786170220551
 21
133.1812313285599
 31
0.0
  0
LINE
  5
1F1
330
E3
100
AcDbEntity
  8
0
  6
Continuous
100
AcDbLine
 10
120.0786170220551
 20
132.9842616315902
 30
0.0
 11
120.0767143711009
 21
132.9787902511188
 31
0.0
  0
LINE
  5
1F2
330
E3
100
AcDbEntity
  8
0
  6
Continuous
100
AcDbLine
 10
120.0767143711009
 20
132.9787902511188
 30
0.0
 11
120.0710208985612
 21
132.9733188706475
 31
0.0
  0
LINE
  5
1F3
330
E3
100
AcDbEntity
  8
0
  6
Continuous
100
AcDbLine
 10
120.0710208985612
 20
132.9733188706475
 30
0.0
 11
120.0615811367598
 21
132.9678488613678
 31
0.0
  0
LINE
  5
1F4
330
E3
100
AcDbEntity
  8
0
  6
Continuous
100
AcDbLine
 10
120.0615811367598
 20
132.9678488613678
 30
0.0
 11
120.0484637771016
 21
132.9623766772065
 31
0.0
  0
LINE
  5
1F5
330
E3
100
AcDbEntity
  8
0
  6
Continuous
100
AcDbLine
 10
120.0484637771016
 20
132.9623766772065
 30
0.0
 11
120.0317692838657
 21
132.9569044930454
 31
0.0
  0
LINE
  5
1F6
330
E3
100
AcDbEntity
  8
0
  6
Continuous
100
AcDbLine
 10
120.0317692838657
 20
132.9569044930454
 30
0.0
 11
120.011631212998
 21
132.9514323088841
 31
0.0
  0
LINE
  5
1F7
330
E3
100
AcDbEntity
  8
0
  6
Continuous
100
AcDbLine
 10
120.011631212998
 20
132.9514323088841
 30
0.0
 11
119.9881939493049
 21
132.9459637343431
 31
0.0
  0
LINE
  5
1F8
330
E3
100
AcDbEntity
  8
0
  6
Continuous
100
AcDbLine
 10
119.9881939493049
 20
132.9459637343431
 30
0.0
 11
119.9616379737943
 21
132.9404915501819
 31
0.0
  0
LINE
  5
1F9
330
E3
100
AcDbEntity
  8
0
  6
Continuous
100
AcDbLine
 10
119.9616379737943
 20
132.9404915501819
 30
0.0
 11
119.9321690348153
 21
132.9350193660206
 31
0.0
  0
LINE
  5
1FA
330
E3
100
AcDbEntity
  8
0
  6
Continuous
100
AcDbLine
 10
119.9321690348153
 20
132.9350193660206
 30
0.0
 11
119.9000109288177
 21
132.9295471818594
 31
0.0
  0
LINE
  5
1FB
330
E3
100
AcDbEntity
  8
0
  6
Continuous
100
AcDbLine
 10
119.9000109288177
 20
132.9295471818594
 30
0.0
 11
119.8654055003523
 21
132.9240749976982
 31
0.0
  0
LINE
  5
1FC
330
E3
100
AcDbEntity
  8
0
  6
Continuous
100
AcDbLine
 10
119.8654055003523
 20
132.9240749976982
 30
0.0
 11
119.8286162516906
 21
132.9186064231572
 31
0.0
  0
LINE
  5
1FD
330
E3
100
AcDbEntity
  8
0
  6
Continuous
100
AcDbLine
 10
119.8286162516906
 20
132.9186064231572
 30
0.0
 11
119.7899247332051
 21
132.913134238996
 31
0.0
  0
LINE
  5
1FE
330
E3
100
AcDbEntity
  8
0
  6
Continuous
100
AcDbLine
 10
119.7899247332051
 20
132.913134238996
 30
0.0
 11
119.7496269337487
 21
132.9076620548347
 31
0.0
  0
LINE
  5
1FF
330
E3
100
AcDbEntity
  8
0
  6
Continuous
100
AcDbLine
 10
119.7496269337487
 20
132.9076620548347
 30
0.0
 11
119.7080260614149
 21
132.9021898706735
 31
0.0
  0
LINE
  5
200
330
E3
100
AcDbEntity
  8
0
  6
Continuous
100
AcDbLine
 10
119.7080260614149
 20
132.9021898706735
 30
0.0
 11
119.6654397627777
 21
132.8967212961325
 31
0.0
  0
LINE
  5
201
330
E3
100
AcDbEntity
  8
0
  6
Continuous
100
AcDbLine
 10
119.6654397627777
 20
132.8967212961325
 30
0.0
 11
119.6221965132715
 21
132.8912491119713
 31
0.0
  0
LINE
  5
202
330
E3
100
AcDbEntity
  8
0
  6
Continuous
100
AcDbLine
 10
119.6221965132715
 20
132.8912491119713
 30
0.0
 11
119.5786175690905
 21
132.88577692781
 31
0.0
  0
LINE
  5
203
330
E3
100
AcDbEntity
  8
0
  6
Continuous
100
AcDbLine
 10
119.5786175690905
 20
132.88577692781
 30
0.0
 11
119.5350386249095
 21
132.8803047436488
 31
0.0
  0
LINE
  5
204
330
E3
100
AcDbEntity
  8
0
  6
Continuous
100
AcDbLine
 10
119.5350386249095
 20
132.8803047436488
 30
0.0
 11
119.4917917657832
 21
132.8748325594876
 31
0.0
  0
LINE
  5
205
330
E3
100
AcDbEntity
  8
0
  6
Continuous
100
AcDbLine
 10
119.4917917657832
 20
132.8748325594876
 30
0.0
 11
119.4492090767661
 21
132.8693639849465
 31
0.0
  0
LINE
  5
206
330
E3
100
AcDbEntity
  8
0
  6
Continuous
100
AcDbLine
 10
119.4492090767661
 20
132.8693639849465
 30
0.0
 11
119.4076082044323
 21
132.8638918007853
 31
0.0
  0
LINE
  5
207
330
E3
100
AcDbEntity
  8
0
  6
Continuous
100
AcDbLine
 10
119.4076082044323
 20
132.8638918007853
 30
0.0
 11
119.3673067953558
 21
132.8584196166241
 31
0.0
  0
LINE
  5
208
330
E3
100
AcDbEntity
  8
0
  6
Continuous
100
AcDbLine
 10
119.3673067953558
 20
132.8584196166241
 30
0.0
 11
119.3286152768703
 21
132.8529474324629
 31
0.0
  0
LINE
  5
209
330
E3
100
AcDbEntity
  8
0
  6
Continuous
100
AcDbLine
 10
119.3286152768703
 20
132.8529474324629
 30
0.0
 11
119.2918296378288
 21
132.8474788579218
 31
0.0
  0
LINE
  5
20A
330
E3
100
AcDbEntity
  8
0
  6
Continuous
100
AcDbLine
 10
119.2918296378288
 20
132.8474788579218
 30
0.0
 11
119.2572242093633
 21
132.8420066737606
 31
0.0
  0
LINE
  5
20B
330
E3
100
AcDbEntity
  8
0
  6
Continuous
100
AcDbLine
 10
119.2572242093633
 20
132.8420066737606
 30
0.0
 11
119.2250624937456
 21
132.8365344895994
 31
0.0
  0
LINE
  5
20C
330
E3
100
AcDbEntity
  8
0
  6
Continuous
100
AcDbLine
 10
119.2250624937456
 20
132.8365344895994
 30
0.0
 11
119.1955935547666
 21
132.8310623054382
 31
0.0
  0
LINE
  5
20D
330
E3
100
AcDbEntity
  8
0
  6
Continuous
100
AcDbLine
 10
119.1955935547666
 20
132.8310623054382
 30
0.0
 11
119.1690411888762
 21
132.8255901212769
 31
0.0
  0
LINE
  5
20E
330
E3
100
AcDbEntity
  8
0
  6
Continuous
100
AcDbLine
 10
119.1690411888762
 20
132.8255901212769
 30
0.0
 11
119.145603925183
 21
132.8201215467359
 31
0.0
  0
LINE
  5
20F
330
E3
100
AcDbEntity
  8
0
  6
Continuous
100
AcDbLine
 10
119.145603925183
 20
132.8201215467359
 30
0.0
 11
119.1254622446952
 21
132.8146493625747
 31
0.0
  0
LINE
  5
210
330
E3
100
AcDbEntity
  8
0
  6
Continuous
100
AcDbLine
 10
119.1254622446952
 20
132.8146493625747
 30
0.0
 11
119.1087713610794
 21
132.8091771784134
 31
0.0
  0
LINE
  5
211
330
E3
100
AcDbEntity
  8
0
  6
Continuous
100
AcDbLine
 10
119.1087713610794
 20
132.8091771784134
 30
0.0
 11
119.0956540014212
 21
132.8037049942523
 31
0.0
  0
LINE
  5
212
330
E3
100
AcDbEntity
  8
0
  6
Continuous
100
AcDbLine
 10
119.0956540014212
 20
132.8037049942523
 30
0.0
 11
119.0862148447051
 21
132.7982364197112
 31
0.0
  0
LINE
  5
213
330
E3
100
AcDbEntity
  8
0
  6
Continuous
100
AcDbLine
 10
119.0862148447051
 20
132.7982364197112
 30
0.0
 11
119.0805196730092
 21
132.7927633150919
 31
0.0
  0
LINE
  5
214
330
E3
100
AcDbEntity
  8
0
  6
Continuous
100
AcDbLine
 10
119.0805196730092
 20
132.7927633150919
 30
0.0
 11
119.0786170220551
 21
132.7872919346205
 31
0.0
  0
LINE
  5
215
330
E3
100
AcDbEntity
  8
0
  6
Continuous
100
AcDbLine
 10
120.0786170220551
 20
132.5903222376508
 30
0.0
 11
120.0767143711009
 21
132.5848508571794
 31
0.0
  0
LINE
  5
216
330
E3
100
AcDbEntity
  8
0
  6
Continuous
100
AcDbLine
 10
120.0767143711009
 20
132.5848508571794
 30
0.0
 11
120.0710208985612
 21
132.5793794767081
 31
0.0
  0
LINE
  5
217
330
E3
100
AcDbEntity
  8
0
  6
Continuous
100
AcDbLine
 10
120.0710208985612
 20
132.5793794767081
 30
0.0
 11
120.0615811367598
 21
132.5739093556828
 31
0.0
  0
LINE
  5
218
330
E3
100
AcDbEntity
  8
0
  6
Continuous
100
AcDbLine
 10
120.0615811367598
 20
132.5739093556828
 30
0.0
 11
120.0484637771016
 21
132.5684371715215
 31
0.0
  0
LINE
  5
219
330
E3
100
AcDbEntity
  8
0
  6
Continuous
100
AcDbLine
 10
120.0484637771016
 20
132.5684371715215
 30
0.0
 11
120.0317692838657
 21
132.5629649873603
 31
0.0
  0
LINE
  5
21A
330
E3
100
AcDbEntity
  8
0
  6
Continuous
100
AcDbLine
 10
120.0317692838657
 20
132.5629649873603
 30
0.0
 11
120.011631212998
 21
132.5574928031991
 31
0.0
  0
LINE
  5
21B
330
E3
100
AcDbEntity
  8
0
  6
Continuous
100
AcDbLine
 10
120.011631212998
 20
132.5574928031991
 30
0.0
 11
119.9881939493049
 21
132.552024228658
 31
0.0
  0
LINE
  5
21C
330
E3
100
AcDbEntity
  8
0
  6
Continuous
100
AcDbLine
 10
119.9881939493049
 20
132.552024228658
 30
0.0
 11
119.9616379737943
 21
132.5465520444968
 31
0.0
  0
LINE
  5
21D
330
E3
100
AcDbEntity
  8
0
  6
Continuous
100
AcDbLine
 10
119.9616379737943
 20
132.5465520444968
 30
0.0
 11
119.9321690348153
 21
132.5410798603356
 31
0.0
  0
LINE
  5
21E
330
E3
100
AcDbEntity
  8
0
  6
Continuous
100
AcDbLine
 10
119.9321690348153
 20
132.5410798603356
 30
0.0
 11
119.9000109288177
 21
132.5356076761744
 31
0.0
  0
LINE
  5
21F
330
E3
100
AcDbEntity
  8
0
  6
Continuous
100
AcDbLine
 10
119.9000109288177
 20
132.5356076761744
 30
0.0
 11
119.8654055003523
 21
132.5301354920132
 31
0.0
  0
LINE
  5
220
330
E3
100
AcDbEntity
  8
0
  6
Continuous
100
AcDbLine
 10
119.8654055003523
 20
132.5301354920132
 30
0.0
 11
119.8286162516906
 21
132.5246669174721
 31
0.0
  0
LINE
  5
221
330
E3
100
AcDbEntity
  8
0
  6
Continuous
100
AcDbLine
 10
119.8286162516906
 20
132.5246669174721
 30
0.0
 11
119.7899247332051
 21
132.5191947333109
 31
0.0
  0
LINE
  5
222
330
E3
100
AcDbEntity
  8
0
  6
Continuous
100
AcDbLine
 10
119.7899247332051
 20
132.5191947333109
 30
0.0
 11
119.7496269337487
 21
132.5137225491497
 31
0.0
  0
LINE
  5
223
330
E3
100
AcDbEntity
  8
0
  6
Continuous
100
AcDbLine
 10
119.7496269337487
 20
132.5137225491497
 30
0.0
 11
119.7080260614149
 21
132.5082503649884
 31
0.0
  0
LINE
  5
224
330
E3
100
AcDbEntity
  8
0
  6
Continuous
100
AcDbLine
 10
119.7080260614149
 20
132.5082503649884
 30
0.0
 11
119.6654397627777
 21
132.5027817904474
 31
0.0
  0
LINE
  5
225
330
E3
100
AcDbEntity
  8
0
  6
Continuous
100
AcDbLine
 10
119.6654397627777
 20
132.5027817904474
 30
0.0
 11
119.6221965132715
 21
132.4973096062862
 31
0.0
  0
LINE
  5
226
330
E3
100
AcDbEntity
  8
0
  6
Continuous
100
AcDbLine
 10
119.6221965132715
 20
132.4973096062862
 30
0.0
 11
119.5786175690905
 21
132.4918374221249
 31
0.0
  0
LINE
  5
227
330
E3
100
AcDbEntity
  8
0
  6
Continuous
100
AcDbLine
 10
119.5786175690905
 20
132.4918374221249
 30
0.0
 11
119.5350386249095
 21
132.4863652379638
 31
0.0
  0
LINE
  5
228
330
E3
100
AcDbEntity
  8
0
  6
Continuous
100
AcDbLine
 10
119.5350386249095
 20
132.4863652379638
 30
0.0
 11
119.4917917657832
 21
132.4808930538025
 31
0.0
  0
LINE
  5
229
330
E3
100
AcDbEntity
  8
0
  6
Continuous
100
AcDbLine
 10
119.4917917657832
 20
132.4808930538025
 30
0.0
 11
119.4492090767661
 21
132.4754244792615
 31
0.0
  0
LINE
  5
22A
330
E3
100
AcDbEntity
  8
0
  6
Continuous
100
AcDbLine
 10
119.4492090767661
 20
132.4754244792615
 30
0.0
 11
119.4076082044323
 21
132.4699522951003
 31
0.0
  0
LINE
  5
22B
330
E3
100
AcDbEntity
  8
0
  6
Continuous
100
AcDbLine
 10
119.4076082044323
 20
132.4699522951003
 30
0.0
 11
119.3673067953558
 21
132.464480110939
 31
0.0
  0
LINE
  5
22C
330
E3
100
AcDbEntity
  8
0
  6
Continuous
100
AcDbLine
 10
119.3673067953558
 20
132.464480110939
 30
0.0
 11
119.3286152768703
 21
132.4590079267778
 31
0.0
  0
LINE
  5
22D
330
E3
100
AcDbEntity
  8
0
  6
Continuous
100
AcDbLine
 10
119.3286152768703
 20
132.4590079267778
 30
0.0
 11
119.2918296378288
 21
132.4535393522368
 31
0.0
  0
LINE
  5
22E
330
E3
100
AcDbEntity
  8
0
  6
Continuous
100
AcDbLine
 10
119.2918296378288
 20
132.4535393522368
 30
0.0
 11
119.2572242093633
 21
132.4480671680755
 31
0.0
  0
LINE
  5
22F
330
E3
100
AcDbEntity
  8
0
  6
Continuous
100
AcDbLine
 10
119.2572242093633
 20
132.4480671680755
 30
0.0
 11
119.2250624937456
 21
132.4425949839143
 31
0.0
  0
LINE
  5
230
330
E3
100
AcDbEntity
  8
0
  6
Continuous
100
AcDbLine
 10
119.2250624937456
 20
132.4425949839143
 30
0.0
 11
119.1955935547666
 21
132.4371227997531
 31
0.0
  0
LINE
  5
231
330
E3
100
AcDbEntity
  8
0
  6
Continuous
100
AcDbLine
 10
119.1955935547666
 20
132.4371227997531
 30
0.0
 11
119.1690411888762
 21
132.4316506155919
 31
0.0
  0
LINE
  5
232
330
E3
100
AcDbEntity
  8
0
  6
Continuous
100
AcDbLine
 10
119.1690411888762
 20
132.4316506155919
 30
0.0
 11
119.145603925183
 21
132.4261820410508
 31
0.0
  0
LINE
  5
233
330
E3
100
AcDbEntity
  8
0
  6
Continuous
100
AcDbLine
 10
119.145603925183
 20
132.4261820410508
 30
0.0
 11
119.1254622446952
 21
132.4207098568896
 31
0.0
  0
LINE
  5
234
330
E3
100
AcDbEntity
  8
0
  6
Continuous
100
AcDbLine
 10
119.1254622446952
 20
132.4207098568896
 30
0.0
 11
119.1087713610794
 21
132.4152376727284
 31
0.0
  0
LINE
  5
235
330
E3
100
AcDbEntity
  8
0
  6
Continuous
100
AcDbLine
 10
119.1087713610794
 20
132.4152376727284
 30
0.0
 11
119.0956540014212
 21
132.4097654885672
 31
0.0
  0
LINE
  5
236
330
E3
100
AcDbEntity
  8
0
  6
Continuous
100
AcDbLine
 10
119.0956540014212
 20
132.4097654885672
 30
0.0
 11
119.0862148447051
 21
132.4042969140261
 31
0.0
  0
LINE
  5
237
330
E3
100
AcDbEntity
  8
0
  6
Continuous
100
AcDbLine
 10
119.0862148447051
 20
132.4042969140261
 30
0.0
 11
119.0805196730092
 21
132.3988239211525
 31
0.0
  0
LINE
  5
238
330
E3
100
AcDbEntity
  8
0
  6
Continuous
100
AcDbLine
 10
119.0805196730092
 20
132.3988239211525
 30
0.0
 11
119.0786170220551
 21
132.3933525406811
 31
0.0
  0
LINE
  5
239
330
E3
100
AcDbEntity
  8
0
  6
Continuous
100
AcDbLine
 10
120.0786170220551
 20
132.1963828437114
 30
0.0
 11
120.0767143711009
 21
132.19091146324
 31
0.0
  0
LINE
  5
23A
330
E3
100
AcDbEntity
  8
0
  6
Continuous
100
AcDbLine
 10
120.0767143711009
 20
132.19091146324
 30
0.0
 11
120.0710208985612
 21
132.1854400827687
 31
0.0
  0
LINE
  5
23B
330
E3
100
AcDbEntity
  8
0
  6
Continuous
100
AcDbLine
 10
120.0710208985612
 20
132.1854400827687
 30
0.0
 11
120.0615811367598
 21
132.1799698499977
 31
0.0
  0
LINE
  5
23C
330
E3
100
AcDbEntity
  8
0
  6
Continuous
100
AcDbLine
 10
120.0615811367598
 20
132.1799698499977
 30
0.0
 11
120.0484637771016
 21
132.1744976658364
 31
0.0
  0
LINE
  5
23D
330
E3
100
AcDbEntity
  8
0
  6
Continuous
100
AcDbLine
 10
120.0484637771016
 20
132.1744976658364
 30
0.0
 11
120.0317692838657
 21
132.1690254816752
 31
0.0
  0
LINE
  5
23E
330
E3
100
AcDbEntity
  8
0
  6
Continuous
100
AcDbLine
 10
120.0317692838657
 20
132.1690254816752
 30
0.0
 11
120.011631212998
 21
132.163553297514
 31
0.0
  0
LINE
  5
23F
330
E3
100
AcDbEntity
  8
0
  6
Continuous
100
AcDbLine
 10
120.011631212998
 20
132.163553297514
 30
0.0
 11
119.9881939493049
 21
132.158084722973
 31
0.0
  0
LINE
  5
240
330
E3
100
AcDbEntity
  8
0
  6
Continuous
100
AcDbLine
 10
119.9881939493049
 20
132.158084722973
 30
0.0
 11
119.9616379737943
 21
132.1526125388117
 31
0.0
  0
LINE
  5
241
330
E3
100
AcDbEntity
  8
0
  6
Continuous
100
AcDbLine
 10
119.9616379737943
 20
132.1526125388117
 30
0.0
 11
119.9321690348153
 21
132.1471403546505
 31
0.0
  0
LINE
  5
242
330
E3
100
AcDbEntity
  8
0
  6
Continuous
100
AcDbLine
 10
119.9321690348153
 20
132.1471403546505
 30
0.0
 11
119.9000109288177
 21
132.1416681704893
 31
0.0
  0
LINE
  5
243
330
E3
100
AcDbEntity
  8
0
  6
Continuous
100
AcDbLine
 10
119.9000109288177
 20
132.1416681704893
 30
0.0
 11
119.8654055003523
 21
132.1361959863281
 31
0.0
  0
LINE
  5
244
330
E3
100
AcDbEntity
  8
0
  6
Continuous
100
AcDbLine
 10
119.8654055003523
 20
132.1361959863281
 30
0.0
 11
119.8286162516906
 21
132.130727411787
 31
0.0
  0
LINE
  5
245
330
E3
100
AcDbEntity
  8
0
  6
Continuous
100
AcDbLine
 10
119.8286162516906
 20
132.130727411787
 30
0.0
 11
119.7899247332051
 21
132.1252552276258
 31
0.0
  0
LINE
  5
246
330
E3
100
AcDbEntity
  8
0
  6
Continuous
100
AcDbLine
 10
119.7899247332051
 20
132.1252552276258
 30
0.0
 11
119.7496269337487
 21
132.1197830434646
 31
0.0
  0
LINE
  5
247
330
E3
100
AcDbEntity
  8
0
  6
Continuous
100
AcDbLine
 10
119.7496269337487
 20
132.1197830434646
 30
0.0
 11
119.7080260614149
 21
132.1143108593034
 31
0.0
  0
LINE
  5
248
330
E3
100
AcDbEntity
  8
0
  6
Continuous
100
AcDbLine
 10
119.7080260614149
 20
132.1143108593034
 30
0.0
 11
119.6654397627777
 21
132.1088422847623
 31
0.0
  0
LINE
  5
249
330
E3
100
AcDbEntity
  8
0
  6
Continuous
100
AcDbLine
 10
119.6654397627777
 20
132.1088422847623
 30
0.0
 11
119.6221965132715
 21
132.1033701006011
 31
0.0
  0
LINE
  5
24A
330
E3
100
AcDbEntity
  8
0
  6
Continuous
100
AcDbLine
 10
119.6221965132715
 20
132.1033701006011
 30
0.0
 11
119.5786175690905
 21
132.0978979164399
 31
0.0
  0
LINE
  5
24B
330
E3
100
AcDbEntity
  8
0
  6
Continuous
100
AcDbLine
 10
119.5786175690905
 20
132.0978979164399
 30
0.0
 11
119.5350386249095
 21
132.0924257322787
 31
0.0
  0
LINE
  5
24C
330
E3
100
AcDbEntity
  8
0
  6
Continuous
100
AcDbLine
 10
119.5350386249095
 20
132.0924257322787
 30
0.0
 11
119.4917917657832
 21
132.0869535481174
 31
0.0
  0
LINE
  5
24D
330
E3
100
AcDbEntity
  8
0
  6
Continuous
100
AcDbLine
 10
119.4917917657832
 20
132.0869535481174
 30
0.0
 11
119.4492090767661
 21
132.0814849735764
 31
0.0
  0
LINE
  5
24E
330
E3
100
AcDbEntity
  8
0
  6
Continuous
100
AcDbLine
 10
119.4492090767661
 20
132.0814849735764
 30
0.0
 11
119.4076082044323
 21
132.0760127894152
 31
0.0
  0
LINE
  5
24F
330
E3
100
AcDbEntity
  8
0
  6
Continuous
100
AcDbLine
 10
119.4076082044323
 20
132.0760127894152
 30
0.0
 11
119.3673067953558
 21
132.070540605254
 31
0.0
  0
LINE
  5
250
330
E3
100
AcDbEntity
  8
0
  6
Continuous
100
AcDbLine
 10
119.3673067953558
 20
132.070540605254
 30
0.0
 11
119.3286152768703
 21
132.0650684210927
 31
0.0
  0
LINE
  5
251
330
E3
100
AcDbEntity
  8
0
  6
Continuous
100
AcDbLine
 10
119.3286152768703
 20
132.0650684210927
 30
0.0
 11
119.2918296378288
 21
132.0595998465517
 31
0.0
  0
LINE
  5
252
330
E3
100
AcDbEntity
  8
0
  6
Continuous
100
AcDbLine
 10
119.2918296378288
 20
132.0595998465517
 30
0.0
 11
119.2572242093633
 21
132.0541276623905
 31
0.0
  0
LINE
  5
253
330
E3
100
AcDbEntity
  8
0
  6
Continuous
100
AcDbLine
 10
119.2572242093633
 20
132.0541276623905
 30
0.0
 11
119.2250624937456
 21
132.0486554782293
 31
0.0
  0
LINE
  5
254
330
E3
100
AcDbEntity
  8
0
  6
Continuous
100
AcDbLine
 10
119.2250624937456
 20
132.0486554782293
 30
0.0
 11
119.1955935547666
 21
132.0431832940681
 31
0.0
  0
LINE
  5
255
330
E3
100
AcDbEntity
  8
0
  6
Continuous
100
AcDbLine
 10
119.1955935547666
 20
132.0431832940681
 30
0.0
 11
119.1690411888762
 21
132.0377111099068
 31
0.0
  0
LINE
  5
256
330
E3
100
AcDbEntity
  8
0
  6
Continuous
100
AcDbLine
 10
119.1690411888762
 20
132.0377111099068
 30
0.0
 11
119.145603925183
 21
132.0322425353658
 31
0.0
  0
LINE
  5
257
330
E3
100
AcDbEntity
  8
0
  6
Continuous
100
AcDbLine
 10
119.145603925183
 20
132.0322425353658
 30
0.0
 11
119.1254622446952
 21
132.0267703512046
 31
0.0
  0
LINE
  5
258
330
E3
100
AcDbEntity
  8
0
  6
Continuous
100
AcDbLine
 10
119.1254622446952
 20
132.0267703512046
 30
0.0
 11
119.1087713610794
 21
132.0212981670433
 31
0.0
  0
LINE
  5
259
330
E3
100
AcDbEntity
  8
0
  6
Continuous
100
AcDbLine
 10
119.1087713610794
 20
132.0212981670433
 30
0.0
 11
119.0956540014212
 21
132.0158259828821
 31
0.0
  0
LINE
  5
25A
330
E3
100
AcDbEntity
  8
0
  6
Continuous
100
AcDbLine
 10
119.0956540014212
 20
132.0158259828821
 30
0.0
 11
119.0862148447051
 21
132.010357408341
 31
0.0
  0
LINE
  5
25B
330
E3
100
AcDbEntity
  8
0
  6
Continuous
100
AcDbLine
 10
119.0862148447051
 20
132.010357408341
 30
0.0
 11
119.0805196730092
 21
132.0048845272131
 31
0.0
  0
LINE
  5
25C
330
E3
100
AcDbEntity
  8
0
  6
Continuous
100
AcDbLine
 10
119.0805196730092
 20
132.0048845272131
 30
0.0
 11
119.0786170220551
 21
131.9994131467417
 31
0.0
  0
LINE
  5
25D
330
E3
100
AcDbEntity
  8
0
  6
Continuous
100
AcDbLine
 10
120.0786170220551
 20
131.8024434497721
 30
0.0
 11
120.0767143711009
 21
131.7969720693006
 31
0.0
  0
LINE
  5
25E
330
E3
100
AcDbEntity
  8
0
  6
Continuous
100
AcDbLine
 10
120.0767143711009
 20
131.7969720693006
 30
0.0
 11
120.0710208985612
 21
131.7915006888293
 31
0.0
  0
LINE
  5
25F
330
E3
100
AcDbEntity
  8
0
  6
Continuous
100
AcDbLine
 10
120.0710208985612
 20
131.7915006888293
 30
0.0
 11
120.0615811367598
 21
131.7860303443126
 31
0.0
  0
LINE
  5
260
330
E3
100
AcDbEntity
  8
0
  6
Continuous
100
AcDbLine
 10
120.0615811367598
 20
131.7860303443126
 30
0.0
 11
120.0484637771016
 21
131.7805581601514
 31
0.0
  0
LINE
  5
261
330
E3
100
AcDbEntity
  8
0
  6
Continuous
100
AcDbLine
 10
120.0484637771016
 20
131.7805581601514
 30
0.0
 11
120.0317692838657
 21
131.7750859759902
 31
0.0
  0
LINE
  5
262
330
E3
100
AcDbEntity
  8
0
  6
Continuous
100
AcDbLine
 10
120.0317692838657
 20
131.7750859759902
 30
0.0
 11
120.011631212998
 21
131.7696137918289
 31
0.0
  0
LINE
  5
263
330
E3
100
AcDbEntity
  8
0
  6
Continuous
100
AcDbLine
 10
120.011631212998
 20
131.7696137918289
 30
0.0
 11
119.9881939493049
 21
131.7641452172879
 31
0.0
  0
LINE
  5
264
330
E3
100
AcDbEntity
  8
0
  6
Continuous
100
AcDbLine
 10
119.9881939493049
 20
131.7641452172879
 30
0.0
 11
119.9616379737943
 21
131.7586730331267
 31
0.0
  0
LINE
  5
265
330
E3
100
AcDbEntity
  8
0
  6
Continuous
100
AcDbLine
 10
119.9616379737943
 20
131.7586730331267
 30
0.0
 11
119.9321690348153
 21
131.7532008489655
 31
0.0
  0
LINE
  5
266
330
E3
100
AcDbEntity
  8
0
  6
Continuous
100
AcDbLine
 10
119.9321690348153
 20
131.7532008489655
 30
0.0
 11
119.9000109288177
 21
131.7477286648042
 31
0.0
  0
LINE
  5
267
330
E3
100
AcDbEntity
  8
0
  6
Continuous
100
AcDbLine
 10
119.9000109288177
 20
131.7477286648042
 30
0.0
 11
119.8654055003523
 21
131.742256480643
 31
0.0
  0
LINE
  5
268
330
E3
100
AcDbEntity
  8
0
  6
Continuous
100
AcDbLine
 10
119.8654055003523
 20
131.742256480643
 30
0.0
 11
119.8286162516906
 21
131.7367879061019
 31
0.0
  0
LINE
  5
269
330
E3
100
AcDbEntity
  8
0
  6
Continuous
100
AcDbLine
 10
119.8286162516906
 20
131.7367879061019
 30
0.0
 11
119.7899247332051
 21
131.7313157219407
 31
0.0
  0
LINE
  5
26A
330
E3
100
AcDbEntity
  8
0
  6
Continuous
100
AcDbLine
 10
119.7899247332051
 20
131.7313157219407
 30
0.0
 11
119.7496269337487
 21
131.7258435377796
 31
0.0
  0
LINE
  5
26B
330
E3
100
AcDbEntity
  8
0
  6
Continuous
100
AcDbLine
 10
119.7496269337487
 20
131.7258435377796
 30
0.0
 11
119.7080260614149
 21
131.7203713536183
 31
0.0
  0
LINE
  5
26C
330
E3
100
AcDbEntity
  8
0
  6
Continuous
100
AcDbLine
 10
119.7080260614149
 20
131.7203713536183
 30
0.0
 11
119.6654397627777
 21
131.7149027790773
 31
0.0
  0
LINE
  5
26D
330
E3
100
AcDbEntity
  8
0
  6
Continuous
100
AcDbLine
 10
119.6654397627777
 20
131.7149027790773
 30
0.0
 11
119.6221965132715
 21
131.709430594916
 31
0.0
  0
LINE
  5
26E
330
E3
100
AcDbEntity
  8
0
  6
Continuous
100
AcDbLine
 10
119.6221965132715
 20
131.709430594916
 30
0.0
 11
119.5786175690905
 21
131.7039584107548
 31
0.0
  0
LINE
  5
26F
330
E3
100
AcDbEntity
  8
0
  6
Continuous
100
AcDbLine
 10
119.5786175690905
 20
131.7039584107548
 30
0.0
 11
119.5350386249095
 21
131.6984862265936
 31
0.0
  0
LINE
  5
270
330
E3
100
AcDbEntity
  8
0
  6
Continuous
100
AcDbLine
 10
119.5350386249095
 20
131.6984862265936
 30
0.0
 11
119.4917917657832
 21
131.6930140424324
 31
0.0
  0
LINE
  5
271
330
E3
100
AcDbEntity
  8
0
  6
Continuous
100
AcDbLine
 10
119.4917917657832
 20
131.6930140424324
 30
0.0
 11
119.4492090767661
 21
131.6875454678913
 31
0.0
  0
LINE
  5
272
330
E3
100
AcDbEntity
  8
0
  6
Continuous
100
AcDbLine
 10
119.4492090767661
 20
131.6875454678913
 30
0.0
 11
119.4076082044323
 21
131.6820732837301
 31
0.0
  0
LINE
  5
273
330
E3
100
AcDbEntity
  8
0
  6
Continuous
100
AcDbLine
 10
119.4076082044323
 20
131.6820732837301
 30
0.0
 11
119.3673067953558
 21
131.6766010995689
 31
0.0
  0
LINE
  5
274
330
E3
100
AcDbEntity
  8
0
  6
Continuous
100
AcDbLine
 10
119.3673067953558
 20
131.6766010995689
 30
0.0
 11
119.3286152768703
 21
131.6711289154077
 31
0.0
  0
LINE
  5
275
330
E3
100
AcDbEntity
  8
0
  6
Continuous
100
AcDbLine
 10
119.3286152768703
 20
131.6711289154077
 30
0.0
 11
119.2918296378288
 21
131.6656603408666
 31
0.0
  0
LINE
  5
276
330
E3
100
AcDbEntity
  8
0
  6
Continuous
100
AcDbLine
 10
119.2918296378288
 20
131.6656603408666
 30
0.0
 11
119.2572242093633
 21
131.6601881567054
 31
0.0
  0
LINE
  5
277
330
E3
100
AcDbEntity
  8
0
  6
Continuous
100
AcDbLine
 10
119.2572242093633
 20
131.6601881567054
 30
0.0
 11
119.2250624937456
 21
131.6547159725442
 31
0.0
  0
LINE
  5
278
330
E3
100
AcDbEntity
  8
0
  6
Continuous
100
AcDbLine
 10
119.2250624937456
 20
131.6547159725442
 30
0.0
 11
119.1955935547666
 21
131.649243788383
 31
0.0
  0
LINE
  5
279
330
E3
100
AcDbEntity
  8
0
  6
Continuous
100
AcDbLine
 10
119.1955935547666
 20
131.649243788383
 30
0.0
 11
119.1690411888762
 21
131.6437752138419
 31
0.0
  0
LINE
  5
27A
330
E3
100
AcDbEntity
  8
0
  6
Continuous
100
AcDbLine
 10
119.1690411888762
 20
131.6437752138419
 30
0.0
 11
119.145603925183
 21
131.6383030296807
 31
0.0
  0
LINE
  5
27B
330
E3
100
AcDbEntity
  8
0
  6
Continuous
100
AcDbLine
 10
119.145603925183
 20
131.6383030296807
 30
0.0
 11
119.1254622446952
 21
131.6328308455195
 31
0.0
  0
LINE
  5
27C
330
E3
100
AcDbEntity
  8
0
  6
Continuous
100
AcDbLine
 10
119.1254622446952
 20
131.6328308455195
 30
0.0
 11
119.1087713610794
 21
131.6273586613583
 31
0.0
  0
LINE
  5
27D
330
E3
100
AcDbEntity
  8
0
  6
Continuous
100
AcDbLine
 10
119.1087713610794
 20
131.6273586613583
 30
0.0
 11
119.0956540014212
 21
131.6218864771971
 31
0.0
  0
LINE
  5
27E
330
E3
100
AcDbEntity
  8
0
  6
Continuous
100
AcDbLine
 10
119.0956540014212
 20
131.6218864771971
 30
0.0
 11
119.0862148447051
 21
131.616417902656
 31
0.0
  0
LINE
  5
27F
330
E3
100
AcDbEntity
  8
0
  6
Continuous
100
AcDbLine
 10
119.0862148447051
 20
131.616417902656
 30
0.0
 11
119.0805196730092
 21
131.6109451332737
 31
0.0
  0
LINE
  5
280
330
E3
100
AcDbEntity
  8
0
  6
Continuous
100
AcDbLine
 10
119.0805196730092
 20
131.6109451332737
 30
0.0
 11
119.0786170220551
 21
131.6054737528023
 31
0.0
  0
LINE
  5
281
330
E3
100
AcDbEntity
  8
0
  6
Continuous
100
AcDbLine
 10
120.0786170220551
 20
131.4085040558327
 30
0.0
 11
120.0767143711009
 21
131.4030326753612
 31
0.0
  0
LINE
  5
282
330
E3
100
AcDbEntity
  8
0
  6
Continuous
100
AcDbLine
 10
120.0767143711009
 20
131.4030326753612
 30
0.0
 11
120.0710208985612
 21
131.3975612948899
 31
0.0
  0
LINE
  5
283
330
E3
100
AcDbEntity
  8
0
  6
Continuous
100
AcDbLine
 10
120.0710208985612
 20
131.3975612948899
 30
0.0
 11
120.0615811367598
 21
131.3920908386275
 31
0.0
  0
LINE
  5
284
330
E3
100
AcDbEntity
  8
0
  6
Continuous
100
AcDbLine
 10
120.0615811367598
 20
131.3920908386275
 30
0.0
 11
120.0484637771016
 21
131.3866186544663
 31
0.0
  0
LINE
  5
285
330
E3
100
AcDbEntity
  8
0
  6
Continuous
100
AcDbLine
 10
120.0484637771016
 20
131.3866186544663
 30
0.0
 11
120.0317692838657
 21
131.3811464703051
 31
0.0
  0
LINE
  5
286
330
E3
100
AcDbEntity
  8
0
  6
Continuous
100
AcDbLine
 10
120.0317692838657
 20
131.3811464703051
 30
0.0
 11
120.011631212998
 21
131.3756742861439
 31
0.0
  0
LINE
  5
287
330
E3
100
AcDbEntity
  8
0
  6
Continuous
100
AcDbLine
 10
120.011631212998
 20
131.3756742861439
 30
0.0
 11
119.9881939493049
 21
131.3702057116028
 31
0.0
  0
LINE
  5
288
330
E3
100
AcDbEntity
  8
0
  6
Continuous
100
AcDbLine
 10
119.9881939493049
 20
131.3702057116028
 30
0.0
 11
119.9616379737943
 21
131.3647335274416
 31
0.0
  0
LINE
  5
289
330
E3
100
AcDbEntity
  8
0
  6
Continuous
100
AcDbLine
 10
119.9616379737943
 20
131.3647335274416
 30
0.0
 11
119.9321690348153
 21
131.3592613432804
 31
0.0
  0
LINE
  5
28A
330
E3
100
AcDbEntity
  8
0
  6
Continuous
100
AcDbLine
 10
119.9321690348153
 20
131.3592613432804
 30
0.0
 11
119.9000109288177
 21
131.3537891591192
 31
0.0
  0
LINE
  5
28B
330
E3
100
AcDbEntity
  8
0
  6
Continuous
100
AcDbLine
 10
119.9000109288177
 20
131.3537891591192
 30
0.0
 11
119.8654055003523
 21
131.3483205845781
 31
0.0
  0
LINE
  5
28C
330
E3
100
AcDbEntity
  8
0
  6
Continuous
100
AcDbLine
 10
119.8654055003523
 20
131.3483205845781
 30
0.0
 11
119.8286162516906
 21
131.3428484004169
 31
0.0
  0
LINE
  5
28D
330
E3
100
AcDbEntity
  8
0
  6
Continuous
100
AcDbLine
 10
119.8286162516906
 20
131.3428484004169
 30
0.0
 11
119.7899247332051
 21
131.3373762162557
 31
0.0
  0
LINE
  5
28E
330
E3
100
AcDbEntity
  8
0
  6
Continuous
100
AcDbLine
 10
119.7899247332051
 20
131.3373762162557
 30
0.0
 11
119.7496269337487
 21
131.3319040320945
 31
0.0
  0
LINE
  5
28F
330
E3
100
AcDbEntity
  8
0
  6
Continuous
100
AcDbLine
 10
119.7496269337487
 20
131.3319040320945
 30
0.0
 11
119.7080260614149
 21
131.3264318479332
 31
0.0
  0
LINE
  5
290
330
E3
100
AcDbEntity
  8
0
  6
Continuous
100
AcDbLine
 10
119.7080260614149
 20
131.3264318479332
 30
0.0
 11
119.6654397627777
 21
131.3209632733922
 31
0.0
  0
LINE
  5
291
330
E3
100
AcDbEntity
  8
0
  6
Continuous
100
AcDbLine
 10
119.6654397627777
 20
131.3209632733922
 30
0.0
 11
119.6221965132715
 21
131.315491089231
 31
0.0
  0
LINE
  5
292
330
E3
100
AcDbEntity
  8
0
  6
Continuous
100
AcDbLine
 10
119.6221965132715
 20
131.315491089231
 30
0.0
 11
119.5786175690905
 21
131.3100189050697
 31
0.0
  0
LINE
  5
293
330
E3
100
AcDbEntity
  8
0
  6
Continuous
100
AcDbLine
 10
119.5786175690905
 20
131.3100189050697
 30
0.0
 11
119.5350386249095
 21
131.3045467209085
 31
0.0
  0
LINE
  5
294
330
E3
100
AcDbEntity
  8
0
  6
Continuous
100
AcDbLine
 10
119.5350386249095
 20
131.3045467209085
 30
0.0
 11
119.4917917657832
 21
131.2990781463675
 31
0.0
  0
LINE
  5
295
330
E3
100
AcDbEntity
  8
0
  6
Continuous
100
AcDbLine
 10
119.4917917657832
 20
131.2990781463675
 30
0.0
 11
119.4492090767661
 21
131.2936059622062
 31
0.0
  0
LINE
  5
296
330
E3
100
AcDbEntity
  8
0
  6
Continuous
100
AcDbLine
 10
119.4492090767661
 20
131.2936059622062
 30
0.0
 11
119.4076082044323
 21
131.2881337780451
 31
0.0
  0
LINE
  5
297
330
E3
100
AcDbEntity
  8
0
  6
Continuous
100
AcDbLine
 10
119.4076082044323
 20
131.2881337780451
 30
0.0
 11
119.3673067953558
 21
131.2826615938838
 31
0.0
  0
LINE
  5
298
330
E3
100
AcDbEntity
  8
0
  6
Continuous
100
AcDbLine
 10
119.3673067953558
 20
131.2826615938838
 30
0.0
 11
119.3286152768703
 21
131.2771894097226
 31
0.0
  0
LINE
  5
299
330
E3
100
AcDbEntity
  8
0
  6
Continuous
100
AcDbLine
 10
119.3286152768703
 20
131.2771894097226
 30
0.0
 11
119.2918296378288
 21
131.2717208351816
 31
0.0
  0
LINE
  5
29A
330
E3
100
AcDbEntity
  8
0
  6
Continuous
100
AcDbLine
 10
119.2918296378288
 20
131.2717208351816
 30
0.0
 11
119.2572242093633
 21
131.2662486510203
 31
0.0
  0
LINE
  5
29B
330
E3
100
AcDbEntity
  8
0
  6
Continuous
100
AcDbLine
 10
119.2572242093633
 20
131.2662486510203
 30
0.0
 11
119.2250624937456
 21
131.2607764668591
 31
0.0
  0
LINE
  5
29C
330
E3
100
AcDbEntity
  8
0
  6
Continuous
100
AcDbLine
 10
119.2250624937456
 20
131.2607764668591
 30
0.0
 11
119.1955935547666
 21
131.2553042826979
 31
0.0
  0
LINE
  5
29D
330
E3
100
AcDbEntity
  8
0
  6
Continuous
100
AcDbLine
 10
119.1955935547666
 20
131.2553042826979
 30
0.0
 11
119.1690411888762
 21
131.2498357081568
 31
0.0
  0
LINE
  5
29E
330
E3
100
AcDbEntity
  8
0
  6
Continuous
100
AcDbLine
 10
119.1690411888762
 20
131.2498357081568
 30
0.0
 11
119.145603925183
 21
131.2443635239956
 31
0.0
  0
LINE
  5
29F
330
E3
100
AcDbEntity
  8
0
  6
Continuous
100
AcDbLine
 10
119.145603925183
 20
131.2443635239956
 30
0.0
 11
119.1254622446952
 21
131.2388913398344
 31
0.0
  0
LINE
  5
2A0
330
E3
100
AcDbEntity
  8
0
  6
Continuous
100
AcDbLine
 10
119.1254622446952
 20
131.2388913398344
 30
0.0
 11
119.1087713610794
 21
131.2334191556732
 31
0.0
  0
LINE
  5
2A1
330
E3
100
AcDbEntity
  8
0
  6
Continuous
100
AcDbLine
 10
119.1087713610794
 20
131.2334191556732
 30
0.0
 11
119.0956540014212
 21
131.227946971512
 31
0.0
  0
LINE
  5
2A2
330
E3
100
AcDbEntity
  8
0
  6
Continuous
100
AcDbLine
 10
119.0956540014212
 20
131.227946971512
 30
0.0
 11
119.0862148447051
 21
131.2224783969709
 31
0.0
  0
LINE
  5
2A3
330
E3
100
AcDbEntity
  8
0
  6
Continuous
100
AcDbLine
 10
119.0862148447051
 20
131.2224783969709
 30
0.0
 11
119.0805196730092
 21
131.2170057393343
 31
0.0
  0
LINE
  5
2A4
330
E3
100
AcDbEntity
  8
0
  6
Continuous
100
AcDbLine
 10
119.0805196730092
 20
131.2170057393343
 30
0.0
 11
119.0786170220551
 21
131.2115343588629
 31
0.0
  0
LINE
  5
2A5
330
E3
100
AcDbEntity
  8
0
  6
Continuous
100
AcDbLine
 10
120.0786170220551
 20
131.0145646618932
 30
0.0
 11
120.0767143711009
 21
131.0090932814219
 31
0.0
  0
LINE
  5
2A6
330
E3
100
AcDbEntity
  8
0
  6
Continuous
100
AcDbLine
 10
120.0767143711009
 20
131.0090932814219
 30
0.0
 11
120.0710208985612
 21
131.0036219009505
 31
0.0
  0
LINE
  5
2A7
330
E3
100
AcDbEntity
  8
0
  6
Continuous
100
AcDbLine
 10
120.0710208985612
 20
131.0036219009505
 30
0.0
 11
120.0615811367598
 21
130.9981513329425
 31
0.0
  0
LINE
  5
2A8
330
E3
100
AcDbEntity
  8
0
  6
Continuous
100
AcDbLine
 10
120.0615811367598
 20
130.9981513329425
 30
0.0
 11
120.0484637771016
 21
130.9926791487812
 31
0.0
  0
LINE
  5
2A9
330
E3
100
AcDbEntity
  8
0
  6
Continuous
100
AcDbLine
 10
120.0484637771016
 20
130.9926791487812
 30
0.0
 11
120.0317692838657
 21
130.98720696462
 31
0.0
  0
LINE
  5
2AA
330
E3
100
AcDbEntity
  8
0
  6
Continuous
100
AcDbLine
 10
120.0317692838657
 20
130.98720696462
 30
0.0
 11
120.011631212998
 21
130.9817347804588
 31
0.0
  0
LINE
  5
2AB
330
E3
100
AcDbEntity
  8
0
  6
Continuous
100
AcDbLine
 10
120.011631212998
 20
130.9817347804588
 30
0.0
 11
119.9881939493049
 21
130.9762662059177
 31
0.0
  0
LINE
  5
2AC
330
E3
100
AcDbEntity
  8
0
  6
Continuous
100
AcDbLine
 10
119.9881939493049
 20
130.9762662059177
 30
0.0
 11
119.9616379737943
 21
130.9707940217565
 31
0.0
  0
LINE
  5
2AD
330
E3
100
AcDbEntity
  8
0
  6
Continuous
100
AcDbLine
 10
119.9616379737943
 20
130.9707940217565
 30
0.0
 11
119.9321690348153
 21
130.9653218375953
 31
0.0
  0
LINE
  5
2AE
330
E3
100
AcDbEntity
  8
0
  6
Continuous
100
AcDbLine
 10
119.9321690348153
 20
130.9653218375953
 30
0.0
 11
119.9000109288177
 21
130.9598496534341
 31
0.0
  0
LINE
  5
2AF
330
E3
100
AcDbEntity
  8
0
  6
Continuous
100
AcDbLine
 10
119.9000109288177
 20
130.9598496534341
 30
0.0
 11
119.8654055003523
 21
130.9543810788931
 31
0.0
  0
LINE
  5
2B0
330
E3
100
AcDbEntity
  8
0
  6
Continuous
100
AcDbLine
 10
119.8654055003523
 20
130.9543810788931
 30
0.0
 11
119.8286162516906
 21
130.9489088947318
 31
0.0
  0
LINE
  5
2B1
330
E3
100
AcDbEntity
  8
0
  6
Continuous
100
AcDbLine
 10
119.8286162516906
 20
130.9489088947318
 30
0.0
 11
119.7899247332051
 21
130.9434367105706
 31
0.0
  0
LINE
  5
2B2
330
E3
100
AcDbEntity
  8
0
  6
Continuous
100
AcDbLine
 10
119.7899247332051
 20
130.9434367105706
 30
0.0
 11
119.7496269337487
 21
130.9379645264094
 31
0.0
  0
LINE
  5
2B3
330
E3
100
AcDbEntity
  8
0
  6
Continuous
100
AcDbLine
 10
119.7496269337487
 20
130.9379645264094
 30
0.0
 11
119.7080260614149
 21
130.9324923422482
 31
0.0
  0
LINE
  5
2B4
330
E3
100
AcDbEntity
  8
0
  6
Continuous
100
AcDbLine
 10
119.7080260614149
 20
130.9324923422482
 30
0.0
 11
119.6654397627777
 21
130.9270237677071
 31
0.0
  0
LINE
  5
2B5
330
E3
100
AcDbEntity
  8
0
  6
Continuous
100
AcDbLine
 10
119.6654397627777
 20
130.9270237677071
 30
0.0
 11
119.6221965132715
 21
130.9215515835459
 31
0.0
  0
LINE
  5
2B6
330
E3
100
AcDbEntity
  8
0
  6
Continuous
100
AcDbLine
 10
119.6221965132715
 20
130.9215515835459
 30
0.0
 11
119.5786175690905
 21
130.9160793993847
 31
0.0
  0
LINE
  5
2B7
330
E3
100
AcDbEntity
  8
0
  6
Continuous
100
AcDbLine
 10
119.5786175690905
 20
130.9160793993847
 30
0.0
 11
119.5350386249095
 21
130.9106072152235
 31
0.0
  0
LINE
  5
2B8
330
E3
100
AcDbEntity
  8
0
  6
Continuous
100
AcDbLine
 10
119.5350386249095
 20
130.9106072152235
 30
0.0
 11
119.4917917657832
 21
130.9051386406824
 31
0.0
  0
LINE
  5
2B9
330
E3
100
AcDbEntity
  8
0
  6
Continuous
100
AcDbLine
 10
119.4917917657832
 20
130.9051386406824
 30
0.0
 11
119.4492090767661
 21
130.8996664565212
 31
0.0
  0
LINE
  5
2BA
330
E3
100
AcDbEntity
  8
0
  6
Continuous
100
AcDbLine
 10
119.4492090767661
 20
130.8996664565212
 30
0.0
 11
119.4076082044323
 21
130.89419427236
 31
0.0
  0
LINE
  5
2BB
330
E3
100
AcDbEntity
  8
0
  6
Continuous
100
AcDbLine
 10
119.4076082044323
 20
130.89419427236
 30
0.0
 11
119.3673067953558
 21
130.8887220881987
 31
0.0
  0
LINE
  5
2BC
330
E3
100
AcDbEntity
  8
0
  6
Continuous
100
AcDbLine
 10
119.3673067953558
 20
130.8887220881987
 30
0.0
 11
119.3286152768703
 21
130.8832499040375
 31
0.0
  0
LINE
  5
2BD
330
E3
100
AcDbEntity
  8
0
  6
Continuous
100
AcDbLine
 10
119.3286152768703
 20
130.8832499040375
 30
0.0
 11
119.2918296378288
 21
130.8777813294965
 31
0.0
  0
LINE
  5
2BE
330
E3
100
AcDbEntity
  8
0
  6
Continuous
100
AcDbLine
 10
119.2918296378288
 20
130.8777813294965
 30
0.0
 11
119.2572242093633
 21
130.8723091453353
 31
0.0
  0
LINE
  5
2BF
330
E3
100
AcDbEntity
  8
0
  6
Continuous
100
AcDbLine
 10
119.2572242093633
 20
130.8723091453353
 30
0.0
 11
119.2250624937456
 21
130.866836961174
 31
0.0
  0
LINE
  5
2C0
330
E3
100
AcDbEntity
  8
0
  6
Continuous
100
AcDbLine
 10
119.2250624937456
 20
130.866836961174
 30
0.0
 11
119.1955935547666
 21
130.8613647770128
 31
0.0
  0
LINE
  5
2C1
330
E3
100
AcDbEntity
  8
0
  6
Continuous
100
AcDbLine
 10
119.1955935547666
 20
130.8613647770128
 30
0.0
 11
119.1690411888762
 21
130.8558962024718
 31
0.0
  0
LINE
  5
2C2
330
E3
100
AcDbEntity
  8
0
  6
Continuous
100
AcDbLine
 10
119.1690411888762
 20
130.8558962024718
 30
0.0
 11
119.145603925183
 21
130.8504240183105
 31
0.0
  0
LINE
  5
2C3
330
E3
100
AcDbEntity
  8
0
  6
Continuous
100
AcDbLine
 10
119.145603925183
 20
130.8504240183105
 30
0.0
 11
119.1254622446952
 21
130.8449518341494
 31
0.0
  0
LINE
  5
2C4
330
E3
100
AcDbEntity
  8
0
  6
Continuous
100
AcDbLine
 10
119.1254622446952
 20
130.8449518341494
 30
0.0
 11
119.1087713610794
 21
130.8394796499881
 31
0.0
  0
LINE
  5
2C5
330
E3
100
AcDbEntity
  8
0
  6
Continuous
100
AcDbLine
 10
119.1087713610794
 20
130.8394796499881
 30
0.0
 11
119.0956540014212
 21
130.8340074658269
 31
0.0
  0
LINE
  5
2C6
330
E3
100
AcDbEntity
  8
0
  6
Continuous
100
AcDbLine
 10
119.0956540014212
 20
130.8340074658269
 30
0.0
 11
119.0862148447051
 21
130.8285388912858
 31
0.0
  0
LINE
  5
2C7
330
E3
100
AcDbEntity
  8
0
  6
Continuous
100
AcDbLine
 10
119.0862148447051
 20
130.8285388912858
 30
0.0
 11
119.0805196730092
 21
130.8230663453949
 31
0.0
  0
LINE
  5
2C8
330
E3
100
AcDbEntity
  8
0
  6
Continuous
100
AcDbLine
 10
119.0805196730092
 20
130.8230663453949
 30
0.0
 11
119.0786170220551
 21
130.8175949649235
 31
0.0
  0
LINE
  5
2C9
330
E3
100
AcDbEntity
  8
0
  6
Continuous
100
AcDbLine
 10
120.0786170220551
 20
130.6206252679538
 30
0.0
 11
120.0767143711009
 21
130.6151538874824
 31
0.0
  0
LINE
  5
2CA
330
E3
100
AcDbEntity
  8
0
  6
Continuous
100
AcDbLine
 10
120.0767143711009
 20
130.6151538874824
 30
0.0
 11
120.0710208985612
 21
130.6096825070111
 31
0.0
  0
LINE
  5
2CB
330
E3
100
AcDbEntity
  8
0
  6
Continuous
100
AcDbLine
 10
120.0710208985612
 20
130.6096825070111
 30
0.0
 11
120.0615811367598
 21
130.6042118272574
 31
0.0
  0
LINE
  5
2CC
330
E3
100
AcDbEntity
  8
0
  6
Continuous
100
AcDbLine
 10
120.0615811367598
 20
130.6042118272574
 30
0.0
 11
120.0484637771016
 21
130.5987396430961
 31
0.0
  0
LINE
  5
2CD
330
E3
100
AcDbEntity
  8
0
  6
Continuous
100
AcDbLine
 10
120.0484637771016
 20
130.5987396430961
 30
0.0
 11
120.0317692838657
 21
130.5932674589349
 31
0.0
  0
LINE
  5
2CE
330
E3
100
AcDbEntity
  8
0
  6
Continuous
100
AcDbLine
 10
120.0317692838657
 20
130.5932674589349
 30
0.0
 11
120.011631212998
 21
130.5877952747737
 31
0.0
  0
LINE
  5
2CF
330
E3
100
AcDbEntity
  8
0
  6
Continuous
100
AcDbLine
 10
120.011631212998
 20
130.5877952747737
 30
0.0
 11
119.9881939493049
 21
130.5823267002327
 31
0.0
  0
LINE
  5
2D0
330
E3
100
AcDbEntity
  8
0
  6
Continuous
100
AcDbLine
 10
119.9881939493049
 20
130.5823267002327
 30
0.0
 11
119.9616379737943
 21
130.5768545160715
 31
0.0
  0
LINE
  5
2D1
330
E3
100
AcDbEntity
  8
0
  6
Continuous
100
AcDbLine
 10
119.9616379737943
 20
130.5768545160715
 30
0.0
 11
119.9321690348153
 21
130.5713823319102
 31
0.0
  0
LINE
  5
2D2
330
E3
100
AcDbEntity
  8
0
  6
Continuous
100
AcDbLine
 10
119.9321690348153
 20
130.5713823319102
 30
0.0
 11
119.9000109288177
 21
130.565910147749
 31
0.0
  0
LINE
  5
2D3
330
E3
100
AcDbEntity
  8
0
  6
Continuous
100
AcDbLine
 10
119.9000109288177
 20
130.565910147749
 30
0.0
 11
119.8654055003523
 21
130.560441573208
 31
0.0
  0
LINE
  5
2D4
330
E3
100
AcDbEntity
  8
0
  6
Continuous
100
AcDbLine
 10
119.8654055003523
 20
130.560441573208
 30
0.0
 11
119.8286162516906
 21
130.5549693890468
 31
0.0
  0
LINE
  5
2D5
330
E3
100
AcDbEntity
  8
0
  6
Continuous
100
AcDbLine
 10
119.8286162516906
 20
130.5549693890468
 30
0.0
 11
119.7899247332051
 21
130.5494972048855
 31
0.0
  0
LINE
  5
2D6
330
E3
100
AcDbEntity
  8
0
  6
Continuous
100
AcDbLine
 10
119.7899247332051
 20
130.5494972048855
 30
0.0
 11
119.7496269337487
 21
130.5440250207243
 31
0.0
  0
LINE
  5
2D7
330
E3
100
AcDbEntity
  8
0
  6
Continuous
100
AcDbLine
 10
119.7496269337487
 20
130.5440250207243
 30
0.0
 11
119.7080260614149
 21
130.5385528365631
 31
0.0
  0
LINE
  5
2D8
330
E3
100
AcDbEntity
  8
0
  6
Continuous
100
AcDbLine
 10
119.7080260614149
 20
130.5385528365631
 30
0.0
 11
119.6654397627777
 21
130.533084262022
 31
0.0
  0
LINE
  5
2D9
330
E3
100
AcDbEntity
  8
0
  6
Continuous
100
AcDbLine
 10
119.6654397627777
 20
130.533084262022
 30
0.0
 11
119.6221965132715
 21
130.5276120778609
 31
0.0
  0
LINE
  5
2DA
330
E3
100
AcDbEntity
  8
0
  6
Continuous
100
AcDbLine
 10
119.6221965132715
 20
130.5276120778609
 30
0.0
 11
119.5786175690905
 21
130.5221398936996
 31
0.0
  0
LINE
  5
2DB
330
E3
100
AcDbEntity
  8
0
  6
Continuous
100
AcDbLine
 10
119.5786175690905
 20
130.5221398936996
 30
0.0
 11
119.5350386249095
 21
130.5166677095384
 31
0.0
  0
LINE
  5
2DC
330
E3
100
AcDbEntity
  8
0
  6
Continuous
100
AcDbLine
 10
119.5350386249095
 20
130.5166677095384
 30
0.0
 11
119.4917917657832
 21
130.5111991349973
 31
0.0
  0
LINE
  5
2DD
330
E3
100
AcDbEntity
  8
0
  6
Continuous
100
AcDbLine
 10
119.4917917657832
 20
130.5111991349973
 30
0.0
 11
119.4492090767661
 21
130.5057269508361
 31
0.0
  0
LINE
  5
2DE
330
E3
100
AcDbEntity
  8
0
  6
Continuous
100
AcDbLine
 10
119.4492090767661
 20
130.5057269508361
 30
0.0
 11
119.4076082044323
 21
130.5002547666749
 31
0.0
  0
LINE
  5
2DF
330
E3
100
AcDbEntity
  8
0
  6
Continuous
100
AcDbLine
 10
119.4076082044323
 20
130.5002547666749
 30
0.0
 11
119.3673067953558
 21
130.4947825825137
 31
0.0
  0
LINE
  5
2E0
330
E3
100
AcDbEntity
  8
0
  6
Continuous
100
AcDbLine
 10
119.3673067953558
 20
130.4947825825137
 30
0.0
 11
119.3286152768703
 21
130.4893103983525
 31
0.0
  0
LINE
  5
2E1
330
E3
100
AcDbEntity
  8
0
  6
Continuous
100
AcDbLine
 10
119.3286152768703
 20
130.4893103983525
 30
0.0
 11
119.2918296378288
 21
130.4838418238114
 31
0.0
  0
LINE
  5
2E2
330
E3
100
AcDbEntity
  8
0
  6
Continuous
100
AcDbLine
 10
119.2918296378288
 20
130.4838418238114
 30
0.0
 11
119.2572242093633
 21
130.4783696396502
 31
0.0
  0
LINE
  5
2E3
330
E3
100
AcDbEntity
  8
0
  6
Continuous
100
AcDbLine
 10
119.2572242093633
 20
130.4783696396502
 30
0.0
 11
119.2250624937456
 21
130.472897455489
 31
0.0
  0
LINE
  5
2E4
330
E3
100
AcDbEntity
  8
0
  6
Continuous
100
AcDbLine
 10
119.2250624937456
 20
130.472897455489
 30
0.0
 11
119.1955935547666
 21
130.4674252713278
 31
0.0
  0
LINE
  5
2E5
330
E3
100
AcDbEntity
  8
0
  6
Continuous
100
AcDbLine
 10
119.1955935547666
 20
130.4674252713278
 30
0.0
 11
119.1690411888762
 21
130.4619566967867
 31
0.0
  0
LINE
  5
2E6
330
E3
100
AcDbEntity
  8
0
  6
Continuous
100
AcDbLine
 10
119.1690411888762
 20
130.4619566967867
 30
0.0
 11
119.145603925183
 21
130.4564845126255
 31
0.0
  0
LINE
  5
2E7
330
E3
100
AcDbEntity
  8
0
  6
Continuous
100
AcDbLine
 10
119.145603925183
 20
130.4564845126255
 30
0.0
 11
119.1254622446952
 21
130.4510123284643
 31
0.0
  0
LINE
  5
2E8
330
E3
100
AcDbEntity
  8
0
  6
Continuous
100
AcDbLine
 10
119.1254622446952
 20
130.4510123284643
 30
0.0
 11
119.1087713610794
 21
130.445540144303
 31
0.0
  0
LINE
  5
2E9
330
E3
100
AcDbEntity
  8
0
  6
Continuous
100
AcDbLine
 10
119.1087713610794
 20
130.445540144303
 30
0.0
 11
119.0956540014212
 21
130.4400679601418
 31
0.0
  0
LINE
  5
2EA
330
E3
100
AcDbEntity
  8
0
  6
Continuous
100
AcDbLine
 10
119.0956540014212
 20
130.4400679601418
 30
0.0
 11
119.0862148447051
 21
130.4345993856008
 31
0.0
  0
LINE
  5
2EB
330
E3
100
AcDbEntity
  8
0
  6
Continuous
100
AcDbLine
 10
119.0862148447051
 20
130.4345993856008
 30
0.0
 11
119.0805196730092
 21
130.4291269514555
 31
0.0
  0
LINE
  5
2EC
330
E3
100
AcDbEntity
  8
0
  6
Continuous
100
AcDbLine
 10
119.0805196730092
 20
130.4291269514555
 30
0.0
 11
119.0786170220551
 21
130.4236555709842
 31
0.0
  0
LINE
  5
2ED
330
E3
100
AcDbEntity
  8
0
  6
Continuous
100
AcDbLine
 10
120.0786170220551
 20
130.2266858740145
 30
0.0
 11
120.0767143711009
 21
130.2212144935431
 31
0.0
  0
LINE
  5
2EE
330
E3
100
AcDbEntity
  8
0
  6
Continuous
100
AcDbLine
 10
120.0767143711009
 20
130.2212144935431
 30
0.0
 11
120.0710208985612
 21
130.2157431130717
 31
0.0
  0
LINE
  5
2EF
330
E3
100
AcDbEntity
  8
0
  6
Continuous
100
AcDbLine
 10
120.0710208985612
 20
130.2157431130717
 30
0.0
 11
120.0615811367598
 21
130.2102723215723
 31
0.0
  0
LINE
  5
2F0
330
E3
100
AcDbEntity
  8
0
  6
Continuous
100
AcDbLine
 10
120.0615811367598
 20
130.2102723215723
 30
0.0
 11
120.0484637771016
 21
130.2048001374111
 31
0.0
  0
LINE
  5
2F1
330
E3
100
AcDbEntity
  8
0
  6
Continuous
100
AcDbLine
 10
120.0484637771016
 20
130.2048001374111
 30
0.0
 11
120.0317692838657
 21
130.1993279532499
 31
0.0
  0
LINE
  5
2F2
330
E3
100
AcDbEntity
  8
0
  6
Continuous
100
AcDbLine
 10
120.0317692838657
 20
130.1993279532499
 30
0.0
 11
120.011631212998
 21
130.1938593787088
 31
0.0
  0
LINE
  5
2F3
330
E3
100
AcDbEntity
  8
0
  6
Continuous
100
AcDbLine
 10
120.011631212998
 20
130.1938593787088
 30
0.0
 11
119.9881939493049
 21
130.1883871945476
 31
0.0
  0
LINE
  5
2F4
330
E3
100
AcDbEntity
  8
0
  6
Continuous
100
AcDbLine
 10
119.9881939493049
 20
130.1883871945476
 30
0.0
 11
119.9616379737943
 21
130.1829150103864
 31
0.0
  0
LINE
  5
2F5
330
E3
100
AcDbEntity
  8
0
  6
Continuous
100
AcDbLine
 10
119.9616379737943
 20
130.1829150103864
 30
0.0
 11
119.9321690348153
 21
130.1774428262252
 31
0.0
  0
LINE
  5
2F6
330
E3
100
AcDbEntity
  8
0
  6
Continuous
100
AcDbLine
 10
119.9321690348153
 20
130.1774428262252
 30
0.0
 11
119.9000109288177
 21
130.171970642064
 31
0.0
  0
LINE
  5
2F7
330
E3
100
AcDbEntity
  8
0
  6
Continuous
100
AcDbLine
 10
119.9000109288177
 20
130.171970642064
 30
0.0
 11
119.8654055003523
 21
130.1665020675229
 31
0.0
  0
LINE
  5
2F8
330
E3
100
AcDbEntity
  8
0
  6
Continuous
100
AcDbLine
 10
119.8654055003523
 20
130.1665020675229
 30
0.0
 11
119.8286162516906
 21
130.1610298833617
 31
0.0
  0
LINE
  5
2F9
330
E3
100
AcDbEntity
  8
0
  6
Continuous
100
AcDbLine
 10
119.8286162516906
 20
130.1610298833617
 30
0.0
 11
119.7899247332051
 21
130.1555576992004
 31
0.0
  0
LINE
  5
2FA
330
E3
100
AcDbEntity
  8
0
  6
Continuous
100
AcDbLine
 10
119.7899247332051
 20
130.1555576992004
 30
0.0
 11
119.7496269337487
 21
130.1500855150393
 31
0.0
  0
LINE
  5
2FB
330
E3
100
AcDbEntity
  8
0
  6
Continuous
100
AcDbLine
 10
119.7496269337487
 20
130.1500855150393
 30
0.0
 11
119.7080260614149
 21
130.1446169404982
 31
0.0
  0
LINE
  5
2FC
330
E3
100
AcDbEntity
  8
0
  6
Continuous
100
AcDbLine
 10
119.7080260614149
 20
130.1446169404982
 30
0.0
 11
119.6654397627777
 21
130.139144756337
 31
0.0
  0
LINE
  5
2FD
330
E3
100
AcDbEntity
  8
0
  6
Continuous
100
AcDbLine
 10
119.6654397627777
 20
130.139144756337
 30
0.0
 11
119.6221965132715
 21
130.1336725721758
 31
0.0
  0
LINE
  5
2FE
330
E3
100
AcDbEntity
  8
0
  6
Continuous
100
AcDbLine
 10
119.6221965132715
 20
130.1336725721758
 30
0.0
 11
119.5786175690905
 21
130.1282003880145
 31
0.0
  0
LINE
  5
2FF
330
E3
100
AcDbEntity
  8
0
  6
Continuous
100
AcDbLine
 10
119.5786175690905
 20
130.1282003880145
 30
0.0
 11
119.5350386249095
 21
130.1227282038533
 31
0.0
  0
LINE
  5
300
330
E3
100
AcDbEntity
  8
0
  6
Continuous
100
AcDbLine
 10
119.5350386249095
 20
130.1227282038533
 30
0.0
 11
119.4917917657832
 21
130.1172596293123
 31
0.0
  0
LINE
  5
301
330
E3
100
AcDbEntity
  8
0
  6
Continuous
100
AcDbLine
 10
119.4917917657832
 20
130.1172596293123
 30
0.0
 11
119.4492090767661
 21
130.1117874451511
 31
0.0
  0
LINE
  5
302
330
E3
100
AcDbEntity
  8
0
  6
Continuous
100
AcDbLine
 10
119.4492090767661
 20
130.1117874451511
 30
0.0
 11
119.4076082044323
 21
130.1063152609898
 31
0.0
  0
LINE
  5
303
330
E3
100
AcDbEntity
  8
0
  6
Continuous
100
AcDbLine
 10
119.4076082044323
 20
130.1063152609898
 30
0.0
 11
119.3673067953558
 21
130.1008430768286
 31
0.0
  0
LINE
  5
304
330
E3
100
AcDbEntity
  8
0
  6
Continuous
100
AcDbLine
 10
119.3673067953558
 20
130.1008430768286
 30
0.0
 11
119.3286152768703
 21
130.0953745022876
 31
0.0
  0
LINE
  5
305
330
E3
100
AcDbEntity
  8
0
  6
Continuous
100
AcDbLine
 10
119.3286152768703
 20
130.0953745022876
 30
0.0
 11
119.2918296378288
 21
130.0899023181263
 31
0.0
  0
LINE
  5
306
330
E3
100
AcDbEntity
  8
0
  6
Continuous
100
AcDbLine
 10
119.2918296378288
 20
130.0899023181263
 30
0.0
 11
119.2572242093633
 21
130.0844301339652
 31
0.0
  0
LINE
  5
307
330
E3
100
AcDbEntity
  8
0
  6
Continuous
100
AcDbLine
 10
119.2572242093633
 20
130.0844301339652
 30
0.0
 11
119.2250624937456
 21
130.0789579498039
 31
0.0
  0
LINE
  5
308
330
E3
100
AcDbEntity
  8
0
  6
Continuous
100
AcDbLine
 10
119.2250624937456
 20
130.0789579498039
 30
0.0
 11
119.1955935547666
 21
130.0734857656427
 31
0.0
  0
LINE
  5
309
330
E3
100
AcDbEntity
  8
0
  6
Continuous
100
AcDbLine
 10
119.1955935547666
 20
130.0734857656427
 30
0.0
 11
119.1690411888762
 21
130.0680171911016
 31
0.0
  0
LINE
  5
30A
330
E3
100
AcDbEntity
  8
0
  6
Continuous
100
AcDbLine
 10
119.1690411888762
 20
130.0680171911016
 30
0.0
 11
119.145603925183
 21
130.0625450069404
 31
0.0
  0
LINE
  5
30B
330
E3
100
AcDbEntity
  8
0
  6
Continuous
100
AcDbLine
 10
119.145603925183
 20
130.0625450069404
 30
0.0
 11
119.1254622446952
 21
130.0570728227792
 31
0.0
  0
LINE
  5
30C
330
E3
100
AcDbEntity
  8
0
  6
Continuous
100
AcDbLine
 10
119.1254622446952
 20
130.0570728227792
 30
0.0
 11
119.1087713610794
 21
130.051600638618
 31
0.0
  0
LINE
  5
30D
330
E3
100
AcDbEntity
  8
0
  6
Continuous
100
AcDbLine
 10
119.1087713610794
 20
130.051600638618
 30
0.0
 11
119.0956540014212
 21
130.0461320640769
 31
0.0
  0
LINE
  5
30E
330
E3
100
AcDbEntity
  8
0
  6
Continuous
100
AcDbLine
 10
119.0956540014212
 20
130.0461320640769
 30
0.0
 11
119.0862148447051
 21
130.0406598799157
 31
0.0
  0
LINE
  5
30F
330
E3
100
AcDbEntity
  8
0
  6
Continuous
100
AcDbLine
 10
119.0862148447051
 20
130.0406598799157
 30
0.0
 11
119.0805196730092
 21
130.0351875575161
 31
0.0
  0
LINE
  5
310
330
E3
100
AcDbEntity
  8
0
  6
Continuous
100
AcDbLine
 10
119.0805196730092
 20
130.0351875575161
 30
0.0
 11
119.0786170220551
 21
130.0297161770447
 31
0.0
  0
LINE
  5
311
330
E3
100
AcDbEntity
  8
0
  6
Continuous
100
AcDbLine
 10
120.0786170220551
 20
129.8327464800751
 30
0.0
 11
120.0767143711009
 21
129.8272750996037
 31
0.0
  0
LINE
  5
312
330
E3
100
AcDbEntity
  8
0
  6
Continuous
100
AcDbLine
 10
120.0767143711009
 20
129.8272750996037
 30
0.0
 11
120.0710208985612
 21
129.8218037191323
 31
0.0
  0
LINE
  5
313
330
E3
100
AcDbEntity
  8
0
  6
Continuous
100
AcDbLine
 10
120.0710208985612
 20
129.8218037191323
 30
0.0
 11
120.0615811367598
 21
129.8163328158873
 31
0.0
  0
LINE
  5
314
330
E3
100
AcDbEntity
  8
0
  6
Continuous
100
AcDbLine
 10
120.0615811367598
 20
129.8163328158873
 30
0.0
 11
120.0484637771016
 21
129.810860631726
 31
0.0
  0
LINE
  5
315
330
E3
100
AcDbEntity
  8
0
  6
Continuous
100
AcDbLine
 10
120.0484637771016
 20
129.810860631726
 30
0.0
 11
120.0317692838657
 21
129.8053884475648
 31
0.0
  0
LINE
  5
316
330
E3
100
AcDbEntity
  8
0
  6
Continuous
100
AcDbLine
 10
120.0317692838657
 20
129.8053884475648
 30
0.0
 11
120.011631212998
 21
129.7999198730238
 31
0.0
  0
LINE
  5
317
330
E3
100
AcDbEntity
  8
0
  6
Continuous
100
AcDbLine
 10
120.011631212998
 20
129.7999198730238
 30
0.0
 11
119.9881939493049
 21
129.7944476888626
 31
0.0
  0
LINE
  5
318
330
E3
100
AcDbEntity
  8
0
  6
Continuous
100
AcDbLine
 10
119.9881939493049
 20
129.7944476888626
 30
0.0
 11
119.9616379737943
 21
129.7889755047013
 31
0.0
  0
LINE
  5
319
330
E3
100
AcDbEntity
  8
0
  6
Continuous
100
AcDbLine
 10
119.9616379737943
 20
129.7889755047013
 30
0.0
 11
119.9321690348153
 21
129.7835033205401
 31
0.0
  0
LINE
  5
31A
330
E3
100
AcDbEntity
  8
0
  6
Continuous
100
AcDbLine
 10
119.9321690348153
 20
129.7835033205401
 30
0.0
 11
119.9000109288177
 21
129.7780311363789
 31
0.0
  0
LINE
  5
31B
330
E3
100
AcDbEntity
  8
0
  6
Continuous
100
AcDbLine
 10
119.9000109288177
 20
129.7780311363789
 30
0.0
 11
119.8654055003523
 21
129.7725625618378
 31
0.0
  0
LINE
  5
31C
330
E3
100
AcDbEntity
  8
0
  6
Continuous
100
AcDbLine
 10
119.8654055003523
 20
129.7725625618378
 30
0.0
 11
119.8286162516906
 21
129.7670903776766
 31
0.0
  0
LINE
  5
31D
330
E3
100
AcDbEntity
  8
0
  6
Continuous
100
AcDbLine
 10
119.8286162516906
 20
129.7670903776766
 30
0.0
 11
119.7899247332051
 21
129.7616181935154
 31
0.0
  0
LINE
  5
31E
330
E3
100
AcDbEntity
  8
0
  6
Continuous
100
AcDbLine
 10
119.7899247332051
 20
129.7616181935154
 30
0.0
 11
119.7496269337487
 21
129.7561460093542
 31
0.0
  0
LINE
  5
31F
330
E3
100
AcDbEntity
  8
0
  6
Continuous
100
AcDbLine
 10
119.7496269337487
 20
129.7561460093542
 30
0.0
 11
119.7080260614149
 21
129.7506774348131
 31
0.0
  0
LINE
  5
320
330
E3
100
AcDbEntity
  8
0
  6
Continuous
100
AcDbLine
 10
119.7080260614149
 20
129.7506774348131
 30
0.0
 11
119.6654397627777
 21
129.7452052506519
 31
0.0
  0
LINE
  5
321
330
E3
100
AcDbEntity
  8
0
  6
Continuous
100
AcDbLine
 10
119.6654397627777
 20
129.7452052506519
 30
0.0
 11
119.6221965132715
 21
129.7397330664907
 31
0.0
  0
LINE
  5
322
330
E3
100
AcDbEntity
  8
0
  6
Continuous
100
AcDbLine
 10
119.6221965132715
 20
129.7397330664907
 30
0.0
 11
119.5786175690905
 21
129.7342608823295
 31
0.0
  0
LINE
  5
323
330
E3
100
AcDbEntity
  8
0
  6
Continuous
100
AcDbLine
 10
119.5786175690905
 20
129.7342608823295
 30
0.0
 11
119.5350386249095
 21
129.7287886981683
 31
0.0
  0
LINE
  5
324
330
E3
100
AcDbEntity
  8
0
  6
Continuous
100
AcDbLine
 10
119.5350386249095
 20
129.7287886981683
 30
0.0
 11
119.4917917657832
 21
129.7233201236272
 31
0.0
  0
LINE
  5
325
330
E3
100
AcDbEntity
  8
0
  6
Continuous
100
AcDbLine
 10
119.4917917657832
 20
129.7233201236272
 30
0.0
 11
119.4492090767661
 21
129.717847939466
 31
0.0
  0
LINE
  5
326
330
E3
100
AcDbEntity
  8
0
  6
Continuous
100
AcDbLine
 10
119.4492090767661
 20
129.717847939466
 30
0.0
 11
119.4076082044323
 21
129.7123757553047
 31
0.0
  0
LINE
  5
327
330
E3
100
AcDbEntity
  8
0
  6
Continuous
100
AcDbLine
 10
119.4076082044323
 20
129.7123757553047
 30
0.0
 11
119.3673067953558
 21
129.7069035711436
 31
0.0
  0
LINE
  5
328
330
E3
100
AcDbEntity
  8
0
  6
Continuous
100
AcDbLine
 10
119.3673067953558
 20
129.7069035711436
 30
0.0
 11
119.3286152768703
 21
129.7014349966025
 31
0.0
  0
LINE
  5
329
330
E3
100
AcDbEntity
  8
0
  6
Continuous
100
AcDbLine
 10
119.3286152768703
 20
129.7014349966025
 30
0.0
 11
119.2918296378288
 21
129.6959628124413
 31
0.0
  0
LINE
  5
32A
330
E3
100
AcDbEntity
  8
0
  6
Continuous
100
AcDbLine
 10
119.2918296378288
 20
129.6959628124413
 30
0.0
 11
119.2572242093633
 21
129.6904906282801
 31
0.0
  0
LINE
  5
32B
330
E3
100
AcDbEntity
  8
0
  6
Continuous
100
AcDbLine
 10
119.2572242093633
 20
129.6904906282801
 30
0.0
 11
119.2250624937456
 21
129.6850184441188
 31
0.0
  0
LINE
  5
32C
330
E3
100
AcDbEntity
  8
0
  6
Continuous
100
AcDbLine
 10
119.2250624937456
 20
129.6850184441188
 30
0.0
 11
119.1955935547666
 21
129.6795462599576
 31
0.0
  0
LINE
  5
32D
330
E3
100
AcDbEntity
  8
0
  6
Continuous
100
AcDbLine
 10
119.1955935547666
 20
129.6795462599576
 30
0.0
 11
119.1690411888762
 21
129.6740776854166
 31
0.0
  0
LINE
  5
32E
330
E3
100
AcDbEntity
  8
0
  6
Continuous
100
AcDbLine
 10
119.1690411888762
 20
129.6740776854166
 30
0.0
 11
119.145603925183
 21
129.6686055012554
 31
0.0
  0
LINE
  5
32F
330
E3
100
AcDbEntity
  8
0
  6
Continuous
100
AcDbLine
 10
119.145603925183
 20
129.6686055012554
 30
0.0
 11
119.1254622446952
 21
129.6631333170941
 31
0.0
  0
LINE
  5
330
330
E3
100
AcDbEntity
  8
0
  6
Continuous
100
AcDbLine
 10
119.1254622446952
 20
129.6631333170941
 30
0.0
 11
119.1087713610794
 21
129.6576611329329
 31
0.0
  0
LINE
  5
331
330
E3
100
AcDbEntity
  8
0
  6
Continuous
100
AcDbLine
 10
119.1087713610794
 20
129.6576611329329
 30
0.0
 11
119.0956540014212
 21
129.6521925583918
 31
0.0
  0
LINE
  5
332
330
E3
100
AcDbEntity
  8
0
  6
Continuous
100
AcDbLine
 10
119.0956540014212
 20
129.6521925583918
 30
0.0
 11
119.0862148447051
 21
129.6467203742307
 31
0.0
  0
LINE
  5
333
330
E3
100
AcDbEntity
  8
0
  6
Continuous
100
AcDbLine
 10
119.0862148447051
 20
129.6467203742307
 30
0.0
 11
119.0805196730092
 21
129.6412481635768
 31
0.0
  0
LINE
  5
334
330
E3
100
AcDbEntity
  8
0
  6
Continuous
100
AcDbLine
 10
119.0805196730092
 20
129.6412481635768
 30
0.0
 11
119.0786170220551
 21
129.6357767831053
 31
0.0
  0
LINE
  5
335
330
E3
100
AcDbEntity
  8
0
  6
Continuous
100
AcDbLine
 10
120.0786170220551
 20
129.4388070861357
 30
0.0
 11
120.0767143711009
 21
129.4333357056643
 31
0.0
  0
LINE
  5
336
330
E3
100
AcDbEntity
  8
0
  6
Continuous
100
AcDbLine
 10
120.0767143711009
 20
129.4333357056643
 30
0.0
 11
120.0710208985612
 21
129.4278643251929
 31
0.0
  0
LINE
  5
337
330
E3
100
AcDbEntity
  8
0
  6
Continuous
100
AcDbLine
 10
120.0710208985612
 20
129.4278643251929
 30
0.0
 11
120.0615811367598
 21
129.4223933102022
 31
0.0
  0
LINE
  5
338
330
E3
100
AcDbEntity
  8
0
  6
Continuous
100
AcDbLine
 10
120.0615811367598
 20
129.4223933102022
 30
0.0
 11
120.0484637771016
 21
129.416921126041
 31
0.0
  0
LINE
  5
339
330
E3
100
AcDbEntity
  8
0
  6
Continuous
100
AcDbLine
 10
120.0484637771016
 20
129.416921126041
 30
0.0
 11
120.0317692838657
 21
129.4114489418797
 31
0.0
  0
LINE
  5
33A
330
E3
100
AcDbEntity
  8
0
  6
Continuous
100
AcDbLine
 10
120.0317692838657
 20
129.4114489418797
 30
0.0
 11
120.011631212998
 21
129.4059803673387
 31
0.0
  0
LINE
  5
33B
330
E3
100
AcDbEntity
  8
0
  6
Continuous
100
AcDbLine
 10
120.011631212998
 20
129.4059803673387
 30
0.0
 11
119.9881939493049
 21
129.4005081831775
 31
0.0
  0
LINE
  5
33C
330
E3
100
AcDbEntity
  8
0
  6
Continuous
100
AcDbLine
 10
119.9881939493049
 20
129.4005081831775
 30
0.0
 11
119.9616379737943
 21
129.3950359990162
 31
0.0
  0
LINE
  5
33D
330
E3
100
AcDbEntity
  8
0
  6
Continuous
100
AcDbLine
 10
119.9616379737943
 20
129.3950359990162
 30
0.0
 11
119.9321690348153
 21
129.3895638148551
 31
0.0
  0
LINE
  5
33E
330
E3
100
AcDbEntity
  8
0
  6
Continuous
100
AcDbLine
 10
119.9321690348153
 20
129.3895638148551
 30
0.0
 11
119.9000109288177
 21
129.3840916306938
 31
0.0
  0
LINE
  5
33F
330
E3
100
AcDbEntity
  8
0
  6
Continuous
100
AcDbLine
 10
119.9000109288177
 20
129.3840916306938
 30
0.0
 11
119.8654055003523
 21
129.3786230561528
 31
0.0
  0
LINE
  5
340
330
E3
100
AcDbEntity
  8
0
  6
Continuous
100
AcDbLine
 10
119.8654055003523
 20
129.3786230561528
 30
0.0
 11
119.8286162516906
 21
129.3731508719915
 31
0.0
  0
LINE
  5
341
330
E3
100
AcDbEntity
  8
0
  6
Continuous
100
AcDbLine
 10
119.8286162516906
 20
129.3731508719915
 30
0.0
 11
119.7899247332051
 21
129.3676786878303
 31
0.0
  0
LINE
  5
342
330
E3
100
AcDbEntity
  8
0
  6
Continuous
100
AcDbLine
 10
119.7899247332051
 20
129.3676786878303
 30
0.0
 11
119.7496269337487
 21
129.3622065036691
 31
0.0
  0
LINE
  5
343
330
E3
100
AcDbEntity
  8
0
  6
Continuous
100
AcDbLine
 10
119.7496269337487
 20
129.3622065036691
 30
0.0
 11
119.7080260614149
 21
129.3567379291281
 31
0.0
  0
LINE
  5
344
330
E3
100
AcDbEntity
  8
0
  6
Continuous
100
AcDbLine
 10
119.7080260614149
 20
129.3567379291281
 30
0.0
 11
119.6654397627777
 21
129.3512657449669
 31
0.0
  0
LINE
  5
345
330
E3
100
AcDbEntity
  8
0
  6
Continuous
100
AcDbLine
 10
119.6654397627777
 20
129.3512657449669
 30
0.0
 11
119.6221965132715
 21
129.3457935608056
 31
0.0
  0
LINE
  5
346
330
E3
100
AcDbEntity
  8
0
  6
Continuous
100
AcDbLine
 10
119.6221965132715
 20
129.3457935608056
 30
0.0
 11
119.5786175690905
 21
129.3403213766444
 31
0.0
  0
LINE
  5
347
330
E3
100
AcDbEntity
  8
0
  6
Continuous
100
AcDbLine
 10
119.5786175690905
 20
129.3403213766444
 30
0.0
 11
119.5350386249095
 21
129.3348491924832
 31
0.0
  0
LINE
  5
348
330
E3
100
AcDbEntity
  8
0
  6
Continuous
100
AcDbLine
 10
119.5350386249095
 20
129.3348491924832
 30
0.0
 11
119.4917917657832
 21
129.3293806179421
 31
0.0
  0
LINE
  5
349
330
E3
100
AcDbEntity
  8
0
  6
Continuous
100
AcDbLine
 10
119.4917917657832
 20
129.3293806179421
 30
0.0
 11
119.4492090767661
 21
129.3239084337809
 31
0.0
  0
LINE
  5
34A
330
E3
100
AcDbEntity
  8
0
  6
Continuous
100
AcDbLine
 10
119.4492090767661
 20
129.3239084337809
 30
0.0
 11
119.4076082044323
 21
129.3184362496197
 31
0.0
  0
LINE
  5
34B
330
E3
100
AcDbEntity
  8
0
  6
Continuous
100
AcDbLine
 10
119.4076082044323
 20
129.3184362496197
 30
0.0
 11
119.3673067953558
 21
129.3129640654585
 31
0.0
  0
LINE
  5
34C
330
E3
100
AcDbEntity
  8
0
  6
Continuous
100
AcDbLine
 10
119.3673067953558
 20
129.3129640654585
 30
0.0
 11
119.3286152768703
 21
129.3074954909174
 31
0.0
  0
LINE
  5
34D
330
E3
100
AcDbEntity
  8
0
  6
Continuous
100
AcDbLine
 10
119.3286152768703
 20
129.3074954909174
 30
0.0
 11
119.2918296378288
 21
129.3020233067562
 31
0.0
  0
LINE
  5
34E
330
E3
100
AcDbEntity
  8
0
  6
Continuous
100
AcDbLine
 10
119.2918296378288
 20
129.3020233067562
 30
0.0
 11
119.2572242093633
 21
129.296551122595
 31
0.0
  0
LINE
  5
34F
330
E3
100
AcDbEntity
  8
0
  6
Continuous
100
AcDbLine
 10
119.2572242093633
 20
129.296551122595
 30
0.0
 11
119.2250624937456
 21
129.2910789384338
 31
0.0
  0
LINE
  5
350
330
E3
100
AcDbEntity
  8
0
  6
Continuous
100
AcDbLine
 10
119.2250624937456
 20
129.2910789384338
 30
0.0
 11
119.1955935547666
 21
129.2856067542725
 31
0.0
  0
LINE
  5
351
330
E3
100
AcDbEntity
  8
0
  6
Continuous
100
AcDbLine
 10
119.1955935547666
 20
129.2856067542725
 30
0.0
 11
119.1690411888762
 21
129.2801381797315
 31
0.0
  0
LINE
  5
352
330
E3
100
AcDbEntity
  8
0
  6
Continuous
100
AcDbLine
 10
119.1690411888762
 20
129.2801381797315
 30
0.0
 11
119.145603925183
 21
129.2746659955703
 31
0.0
  0
LINE
  5
353
330
E3
100
AcDbEntity
  8
0
  6
Continuous
100
AcDbLine
 10
119.145603925183
 20
129.2746659955703
 30
0.0
 11
119.1254622446952
 21
129.2691938114091
 31
0.0
  0
LINE
  5
354
330
E3
100
AcDbEntity
  8
0
  6
Continuous
100
AcDbLine
 10
119.1254622446952
 20
129.2691938114091
 30
0.0
 11
119.1087713610794
 21
129.2637216272479
 31
0.0
  0
LINE
  5
355
330
E3
100
AcDbEntity
  8
0
  6
Continuous
100
AcDbLine
 10
119.1087713610794
 20
129.2637216272479
 30
0.0
 11
119.0956540014212
 21
129.2582530527068
 31
0.0
  0
LINE
  5
356
330
E3
100
AcDbEntity
  8
0
  6
Continuous
100
AcDbLine
 10
119.0956540014212
 20
129.2582530527068
 30
0.0
 11
119.0862148447051
 21
129.2527808685456
 31
0.0
  0
LINE
  5
357
330
E3
100
AcDbEntity
  8
0
  6
Continuous
100
AcDbLine
 10
119.0862148447051
 20
129.2527808685456
 30
0.0
 11
119.0805196730092
 21
129.2473087696374
 31
0.0
  0
LINE
  5
358
330
E3
100
AcDbEntity
  8
0
  6
Continuous
100
AcDbLine
 10
119.0805196730092
 20
129.2473087696374
 30
0.0
 11
119.0786170220551
 21
129.2418373891659
 31
0.0
  0
LINE
  5
359
330
E3
100
AcDbEntity
  8
0
  6
Continuous
100
AcDbLine
 10
120.0786170220551
 20
129.0448676921962
 30
0.0
 11
120.0767143711009
 21
129.0393963117249
 31
0.0
  0
LINE
  5
35A
330
E3
100
AcDbEntity
  8
0
  6
Continuous
100
AcDbLine
 10
120.0767143711009
 20
129.0393963117249
 30
0.0
 11
120.0710208985612
 21
129.0339249312535
 31
0.0
  0
LINE
  5
35B
330
E3
100
AcDbEntity
  8
0
  6
Continuous
100
AcDbLine
 10
120.0710208985612
 20
129.0339249312535
 30
0.0
 11
120.0615811367598
 21
129.0284538045171
 31
0.0
  0
LINE
  5
35C
330
E3
100
AcDbEntity
  8
0
  6
Continuous
100
AcDbLine
 10
120.0615811367598
 20
129.0284538045171
 30
0.0
 11
120.0484637771016
 21
129.0229816203559
 31
0.0
  0
LINE
  5
35D
330
E3
100
AcDbEntity
  8
0
  6
Continuous
100
AcDbLine
 10
120.0484637771016
 20
129.0229816203559
 30
0.0
 11
120.0317692838657
 21
129.0175094361947
 31
0.0
  0
LINE
  5
35E
330
E3
100
AcDbEntity
  8
0
  6
Continuous
100
AcDbLine
 10
120.0317692838657
 20
129.0175094361947
 30
0.0
 11
120.011631212998
 21
129.0120408616536
 31
0.0
  0
LINE
  5
35F
330
E3
100
AcDbEntity
  8
0
  6
Continuous
100
AcDbLine
 10
120.011631212998
 20
129.0120408616536
 30
0.0
 11
119.9881939493049
 21
129.0065686774924
 31
0.0
  0
LINE
  5
360
330
E3
100
AcDbEntity
  8
0
  6
Continuous
100
AcDbLine
 10
119.9881939493049
 20
129.0065686774924
 30
0.0
 11
119.9616379737943
 21
129.0010964933312
 31
0.0
  0
LINE
  5
361
330
E3
100
AcDbEntity
  8
0
  6
Continuous
100
AcDbLine
 10
119.9616379737943
 20
129.0010964933312
 30
0.0
 11
119.9321690348153
 21
128.99562430917
 31
0.0
  0
LINE
  5
362
330
E3
100
AcDbEntity
  8
0
  6
Continuous
100
AcDbLine
 10
119.9321690348153
 20
128.99562430917
 30
0.0
 11
119.9000109288177
 21
128.9901521250088
 31
0.0
  0
LINE
  5
363
330
E3
100
AcDbEntity
  8
0
  6
Continuous
100
AcDbLine
 10
119.9000109288177
 20
128.9901521250088
 30
0.0
 11
119.8654055003523
 21
128.9846835504677
 31
0.0
  0
LINE
  5
364
330
E3
100
AcDbEntity
  8
0
  6
Continuous
100
AcDbLine
 10
119.8654055003523
 20
128.9846835504677
 30
0.0
 11
119.8286162516906
 21
128.9792113663065
 31
0.0
  0
LINE
  5
365
330
E3
100
AcDbEntity
  8
0
  6
Continuous
100
AcDbLine
 10
119.8286162516906
 20
128.9792113663065
 30
0.0
 11
119.7899247332051
 21
128.9737391821453
 31
0.0
  0
LINE
  5
366
330
E3
100
AcDbEntity
  8
0
  6
Continuous
100
AcDbLine
 10
119.7899247332051
 20
128.9737391821453
 30
0.0
 11
119.7496269337487
 21
128.968266997984
 31
0.0
  0
LINE
  5
367
330
E3
100
AcDbEntity
  8
0
  6
Continuous
100
AcDbLine
 10
119.7496269337487
 20
128.968266997984
 30
0.0
 11
119.7080260614149
 21
128.962798423443
 31
0.0
  0
LINE
  5
368
330
E3
100
AcDbEntity
  8
0
  6
Continuous
100
AcDbLine
 10
119.7080260614149
 20
128.962798423443
 30
0.0
 11
119.6654397627777
 21
128.9573262392818
 31
0.0
  0
LINE
  5
369
330
E3
100
AcDbEntity
  8
0
  6
Continuous
100
AcDbLine
 10
119.6654397627777
 20
128.9573262392818
 30
0.0
 11
119.6221965132715
 21
128.9518540551205
 31
0.0
  0
LINE
  5
36A
330
E3
100
AcDbEntity
  8
0
  6
Continuous
100
AcDbLine
 10
119.6221965132715
 20
128.9518540551205
 30
0.0
 11
119.5786175690905
 21
128.9463818709594
 31
0.0
  0
LINE
  5
36B
330
E3
100
AcDbEntity
  8
0
  6
Continuous
100
AcDbLine
 10
119.5786175690905
 20
128.9463818709594
 30
0.0
 11
119.5350386249095
 21
128.9409096867981
 31
0.0
  0
LINE
  5
36C
330
E3
100
AcDbEntity
  8
0
  6
Continuous
100
AcDbLine
 10
119.5350386249095
 20
128.9409096867981
 30
0.0
 11
119.4917917657832
 21
128.9354411122571
 31
0.0
  0
LINE
  5
36D
330
E3
100
AcDbEntity
  8
0
  6
Continuous
100
AcDbLine
 10
119.4917917657832
 20
128.9354411122571
 30
0.0
 11
119.4492090767661
 21
128.9299689280958
 31
0.0
  0
LINE
  5
36E
330
E3
100
AcDbEntity
  8
0
  6
Continuous
100
AcDbLine
 10
119.4492090767661
 20
128.9299689280958
 30
0.0
 11
119.4076082044323
 21
128.9244967439346
 31
0.0
  0
LINE
  5
36F
330
E3
100
AcDbEntity
  8
0
  6
Continuous
100
AcDbLine
 10
119.4076082044323
 20
128.9244967439346
 30
0.0
 11
119.3673067953558
 21
128.9190245597734
 31
0.0
  0
LINE
  5
370
330
E3
100
AcDbEntity
  8
0
  6
Continuous
100
AcDbLine
 10
119.3673067953558
 20
128.9190245597734
 30
0.0
 11
119.3286152768703
 21
128.9135559852324
 31
0.0
  0
LINE
  5
371
330
E3
100
AcDbEntity
  8
0
  6
Continuous
100
AcDbLine
 10
119.3286152768703
 20
128.9135559852324
 30
0.0
 11
119.2918296378288
 21
128.9080838010712
 31
0.0
  0
LINE
  5
372
330
E3
100
AcDbEntity
  8
0
  6
Continuous
100
AcDbLine
 10
119.2918296378288
 20
128.9080838010712
 30
0.0
 11
119.2572242093633
 21
128.9026116169099
 31
0.0
  0
LINE
  5
373
330
E3
100
AcDbEntity
  8
0
  6
Continuous
100
AcDbLine
 10
119.2572242093633
 20
128.9026116169099
 30
0.0
 11
119.2250624937456
 21
128.8971394327487
 31
0.0
  0
LINE
  5
374
330
E3
100
AcDbEntity
  8
0
  6
Continuous
100
AcDbLine
 10
119.2250624937456
 20
128.8971394327487
 30
0.0
 11
119.1955935547666
 21
128.8916672485875
 31
0.0
  0
LINE
  5
375
330
E3
100
AcDbEntity
  8
0
  6
Continuous
100
AcDbLine
 10
119.1955935547666
 20
128.8916672485875
 30
0.0
 11
119.1690411888762
 21
128.8861986740464
 31
0.0
  0
LINE
  5
376
330
E3
100
AcDbEntity
  8
0
  6
Continuous
100
AcDbLine
 10
119.1690411888762
 20
128.8861986740464
 30
0.0
 11
119.145603925183
 21
128.8807264898852
 31
0.0
  0
LINE
  5
377
330
E3
100
AcDbEntity
  8
0
  6
Continuous
100
AcDbLine
 10
119.145603925183
 20
128.8807264898852
 30
0.0
 11
119.1254622446952
 21
128.875254305724
 31
0.0
  0
LINE
  5
378
330
E3
100
AcDbEntity
  8
0
  6
Continuous
100
AcDbLine
 10
119.1254622446952
 20
128.875254305724
 30
0.0
 11
119.1087713610794
 21
128.8697821215628
 31
0.0
  0
LINE
  5
379
330
E3
100
AcDbEntity
  8
0
  6
Continuous
100
AcDbLine
 10
119.1087713610794
 20
128.8697821215628
 30
0.0
 11
119.0956540014212
 21
128.8643135470217
 31
0.0
  0
LINE
  5
37A
330
E3
100
AcDbEntity
  8
0
  6
Continuous
100
AcDbLine
 10
119.0956540014212
 20
128.8643135470217
 30
0.0
 11
119.0862148447051
 21
128.8588413628605
 31
0.0
  0
LINE
  5
37B
330
E3
100
AcDbEntity
  8
0
  6
Continuous
100
AcDbLine
 10
119.0862148447051
 20
128.8588413628605
 30
0.0
 11
119.0805196730092
 21
128.853369375698
 31
0.0
  0
LINE
  5
37C
330
E3
100
AcDbEntity
  8
0
  6
Continuous
100
AcDbLine
 10
119.0805196730092
 20
128.853369375698
 30
0.0
 11
119.0786170220551
 21
128.8478979952266
 31
0.0
  0
LINE
  5
37D
330
E3
100
AcDbEntity
  8
0
  6
Continuous
100
AcDbLine
 10
120.0786170220551
 20
128.6509282982569
 30
0.0
 11
120.0767143711009
 21
128.6454569177855
 31
0.0
  0
LINE
  5
37E
330
E3
100
AcDbEntity
  8
0
  6
Continuous
100
AcDbLine
 10
120.0767143711009
 20
128.6454569177855
 30
0.0
 11
120.0710208985612
 21
128.6399855373141
 31
0.0
  0
LINE
  5
37F
330
E3
100
AcDbEntity
  8
0
  6
Continuous
100
AcDbLine
 10
120.0710208985612
 20
128.6399855373141
 30
0.0
 11
120.0615811367598
 21
128.634514298832
 31
0.0
  0
LINE
  5
380
330
E3
100
AcDbEntity
  8
0
  6
Continuous
100
AcDbLine
 10
120.0615811367598
 20
128.634514298832
 30
0.0
 11
120.0484637771016
 21
128.6290421146708
 31
0.0
  0
LINE
  5
381
330
E3
100
AcDbEntity
  8
0
  6
Continuous
100
AcDbLine
 10
120.0484637771016
 20
128.6290421146708
 30
0.0
 11
120.0317692838657
 21
128.6235699305096
 31
0.0
  0
LINE
  5
382
330
E3
100
AcDbEntity
  8
0
  6
Continuous
100
AcDbLine
 10
120.0317692838657
 20
128.6235699305096
 30
0.0
 11
120.011631212998
 21
128.6181013559685
 31
0.0
  0
LINE
  5
383
330
E3
100
AcDbEntity
  8
0
  6
Continuous
100
AcDbLine
 10
120.011631212998
 20
128.6181013559685
 30
0.0
 11
119.9881939493049
 21
128.6126291718073
 31
0.0
  0
LINE
  5
384
330
E3
100
AcDbEntity
  8
0
  6
Continuous
100
AcDbLine
 10
119.9881939493049
 20
128.6126291718073
 30
0.0
 11
119.9616379737943
 21
128.6071569876461
 31
0.0
  0
LINE
  5
385
330
E3
100
AcDbEntity
  8
0
  6
Continuous
100
AcDbLine
 10
119.9616379737943
 20
128.6071569876461
 30
0.0
 11
119.9321690348153
 21
128.6016848034849
 31
0.0
  0
LINE
  5
386
330
E3
100
AcDbEntity
  8
0
  6
Continuous
100
AcDbLine
 10
119.9321690348153
 20
128.6016848034849
 30
0.0
 11
119.9000109288177
 21
128.5962162289439
 31
0.0
  0
LINE
  5
387
330
E3
100
AcDbEntity
  8
0
  6
Continuous
100
AcDbLine
 10
119.9000109288177
 20
128.5962162289439
 30
0.0
 11
119.8654055003523
 21
128.5907440447827
 31
0.0
  0
LINE
  5
388
330
E3
100
AcDbEntity
  8
0
  6
Continuous
100
AcDbLine
 10
119.8654055003523
 20
128.5907440447827
 30
0.0
 11
119.8286162516906
 21
128.5852718606214
 31
0.0
  0
LINE
  5
389
330
E3
100
AcDbEntity
  8
0
  6
Continuous
100
AcDbLine
 10
119.8286162516906
 20
128.5852718606214
 30
0.0
 11
119.7899247332051
 21
128.5797996764602
 31
0.0
  0
LINE
  5
38A
330
E3
100
AcDbEntity
  8
0
  6
Continuous
100
AcDbLine
 10
119.7899247332051
 20
128.5797996764602
 30
0.0
 11
119.7496269337487
 21
128.574327492299
 31
0.0
  0
LINE
  5
38B
330
E3
100
AcDbEntity
  8
0
  6
Continuous
100
AcDbLine
 10
119.7496269337487
 20
128.574327492299
 30
0.0
 11
119.7080260614149
 21
128.5688589177579
 31
0.0
  0
LINE
  5
38C
330
E3
100
AcDbEntity
  8
0
  6
Continuous
100
AcDbLine
 10
119.7080260614149
 20
128.5688589177579
 30
0.0
 11
119.6654397627777
 21
128.5633867335967
 31
0.0
  0
LINE
  5
38D
330
E3
100
AcDbEntity
  8
0
  6
Continuous
100
AcDbLine
 10
119.6654397627777
 20
128.5633867335967
 30
0.0
 11
119.6221965132715
 21
128.5579145494355
 31
0.0
  0
LINE
  5
38E
330
E3
100
AcDbEntity
  8
0
  6
Continuous
100
AcDbLine
 10
119.6221965132715
 20
128.5579145494355
 30
0.0
 11
119.5786175690905
 21
128.5524423652743
 31
0.0
  0
LINE
  5
38F
330
E3
100
AcDbEntity
  8
0
  6
Continuous
100
AcDbLine
 10
119.5786175690905
 20
128.5524423652743
 30
0.0
 11
119.5350386249095
 21
128.5469737907332
 31
0.0
  0
LINE
  5
390
330
E3
100
AcDbEntity
  8
0
  6
Continuous
100
AcDbLine
 10
119.5350386249095
 20
128.5469737907332
 30
0.0
 11
119.4917917657832
 21
128.541501606572
 31
0.0
  0
LINE
  5
391
330
E3
100
AcDbEntity
  8
0
  6
Continuous
100
AcDbLine
 10
119.4917917657832
 20
128.541501606572
 30
0.0
 11
119.4492090767661
 21
128.5360294224108
 31
0.0
  0
LINE
  5
392
330
E3
100
AcDbEntity
  8
0
  6
Continuous
100
AcDbLine
 10
119.4492090767661
 20
128.5360294224108
 30
0.0
 11
119.4076082044323
 21
128.5305572382496
 31
0.0
  0
LINE
  5
393
330
E3
100
AcDbEntity
  8
0
  6
Continuous
100
AcDbLine
 10
119.4076082044323
 20
128.5305572382496
 30
0.0
 11
119.3673067953558
 21
128.5250850540883
 31
0.0
  0
LINE
  5
394
330
E3
100
AcDbEntity
  8
0
  6
Continuous
100
AcDbLine
 10
119.3673067953558
 20
128.5250850540883
 30
0.0
 11
119.3286152768703
 21
128.5196164795473
 31
0.0
  0
LINE
  5
395
330
E3
100
AcDbEntity
  8
0
  6
Continuous
100
AcDbLine
 10
119.3286152768703
 20
128.5196164795473
 30
0.0
 11
119.2918296378288
 21
128.514144295386
 31
0.0
  0
LINE
  5
396
330
E3
100
AcDbEntity
  8
0
  6
Continuous
100
AcDbLine
 10
119.2918296378288
 20
128.514144295386
 30
0.0
 11
119.2572242093633
 21
128.5086721112249
 31
0.0
  0
LINE
  5
397
330
E3
100
AcDbEntity
  8
0
  6
Continuous
100
AcDbLine
 10
119.2572242093633
 20
128.5086721112249
 30
0.0
 11
119.2250624937456
 21
128.5031999270637
 31
0.0
  0
LINE
  5
398
330
E3
100
AcDbEntity
  8
0
  6
Continuous
100
AcDbLine
 10
119.2250624937456
 20
128.5031999270637
 30
0.0
 11
119.1955935547666
 21
128.4977313525226
 31
0.0
  0
LINE
  5
399
330
E3
100
AcDbEntity
  8
0
  6
Continuous
100
AcDbLine
 10
119.1955935547666
 20
128.4977313525226
 30
0.0
 11
119.1690411888762
 21
128.4922591683614
 31
0.0
  0
LINE
  5
39A
330
E3
100
AcDbEntity
  8
0
  6
Continuous
100
AcDbLine
 10
119.1690411888762
 20
128.4922591683614
 30
0.0
 11
119.145603925183
 21
128.4867869842002
 31
0.0
  0
LINE
  5
39B
330
E3
100
AcDbEntity
  8
0
  6
Continuous
100
AcDbLine
 10
119.145603925183
 20
128.4867869842002
 30
0.0
 11
119.1254622446952
 21
128.4813148000389
 31
0.0
  0
LINE
  5
39C
330
E3
100
AcDbEntity
  8
0
  6
Continuous
100
AcDbLine
 10
119.1254622446952
 20
128.4813148000389
 30
0.0
 11
119.1087713610794
 21
128.4758426158777
 31
0.0
  0
LINE
  5
39D
330
E3
100
AcDbEntity
  8
0
  6
Continuous
100
AcDbLine
 10
119.1087713610794
 20
128.4758426158777
 30
0.0
 11
119.0956540014212
 21
128.4703740413366
 31
0.0
  0
LINE
  5
39E
330
E3
100
AcDbEntity
  8
0
  6
Continuous
100
AcDbLine
 10
119.0956540014212
 20
128.4703740413366
 30
0.0
 11
119.0862148447051
 21
128.4649018571754
 31
0.0
  0
LINE
  5
39F
330
E3
100
AcDbEntity
  8
0
  6
Continuous
100
AcDbLine
 10
119.0862148447051
 20
128.4649018571754
 30
0.0
 11
119.0805196730092
 21
128.4594299817586
 31
0.0
  0
LINE
  5
3A0
330
E3
100
AcDbEntity
  8
0
  6
Continuous
100
AcDbLine
 10
119.0805196730092
 20
128.4594299817586
 30
0.0
 11
119.0786170220551
 21
128.4539586012872
 31
0.0
  0
LINE
  5
3A1
330
E3
100
AcDbEntity
  8
0
  6
Continuous
100
AcDbLine
 10
120.0786170220551
 20
128.2569889043175
 30
0.0
 11
120.0767143711009
 21
128.2515175238461
 31
0.0
  0
LINE
  5
3A2
330
E3
100
AcDbEntity
  8
0
  6
Continuous
100
AcDbLine
 10
120.0767143711009
 20
128.2515175238461
 30
0.0
 11
120.0710208985612
 21
128.2460461433747
 31
0.0
  0
LINE
  5
3A3
330
E3
100
AcDbEntity
  8
0
  6
Continuous
100
AcDbLine
 10
120.0710208985612
 20
128.2460461433747
 30
0.0
 11
120.0615811367598
 21
128.240574793147
 31
0.0
  0
LINE
  5
3A4
330
E3
100
AcDbEntity
  8
0
  6
Continuous
100
AcDbLine
 10
120.0615811367598
 20
128.240574793147
 30
0.0
 11
120.0484637771016
 21
128.2351026089857
 31
0.0
  0
LINE
  5
3A5
330
E3
100
AcDbEntity
  8
0
  6
Continuous
100
AcDbLine
 10
120.0484637771016
 20
128.2351026089857
 30
0.0
 11
120.0317692838657
 21
128.2296304248245
 31
0.0
  0
LINE
  5
3A6
330
E3
100
AcDbEntity
  8
0
  6
Continuous
100
AcDbLine
 10
120.0317692838657
 20
128.2296304248245
 30
0.0
 11
120.011631212998
 21
128.2241618502835
 31
0.0
  0
LINE
  5
3A7
330
E3
100
AcDbEntity
  8
0
  6
Continuous
100
AcDbLine
 10
120.011631212998
 20
128.2241618502835
 30
0.0
 11
119.9881939493049
 21
128.2186896661223
 31
0.0
  0
LINE
  5
3A8
330
E3
100
AcDbEntity
  8
0
  6
Continuous
100
AcDbLine
 10
119.9881939493049
 20
128.2186896661223
 30
0.0
 11
119.9616379737943
 21
128.2132174819611
 31
0.0
  0
LINE
  5
3A9
330
E3
100
AcDbEntity
  8
0
  6
Continuous
100
AcDbLine
 10
119.9616379737943
 20
128.2132174819611
 30
0.0
 11
119.9321690348153
 21
128.2077452977998
 31
0.0
  0
LINE
  5
3AA
330
E3
100
AcDbEntity
  8
0
  6
Continuous
100
AcDbLine
 10
119.9321690348153
 20
128.2077452977998
 30
0.0
 11
119.9000109288177
 21
128.2022767232588
 31
0.0
  0
LINE
  5
3AB
330
E3
100
AcDbEntity
  8
0
  6
Continuous
100
AcDbLine
 10
119.9000109288177
 20
128.2022767232588
 30
0.0
 11
119.8654055003523
 21
128.1968045390976
 31
0.0
  0
LINE
  5
3AC
330
E3
100
AcDbEntity
  8
0
  6
Continuous
100
AcDbLine
 10
119.8654055003523
 20
128.1968045390976
 30
0.0
 11
119.8286162516906
 21
128.1913323549363
 31
0.0
  0
LINE
  5
3AD
330
E3
100
AcDbEntity
  8
0
  6
Continuous
100
AcDbLine
 10
119.8286162516906
 20
128.1913323549363
 30
0.0
 11
119.7899247332051
 21
128.1858601707751
 31
0.0
  0
LINE
  5
3AE
330
E3
100
AcDbEntity
  8
0
  6
Continuous
100
AcDbLine
 10
119.7899247332051
 20
128.1858601707751
 30
0.0
 11
119.7496269337487
 21
128.1803879866139
 31
0.0
  0
LINE
  5
3AF
330
E3
100
AcDbEntity
  8
0
  6
Continuous
100
AcDbLine
 10
119.7496269337487
 20
128.1803879866139
 30
0.0
 11
119.7080260614149
 21
128.1749194120729
 31
0.0
  0
LINE
  5
3B0
330
E3
100
AcDbEntity
  8
0
  6
Continuous
100
AcDbLine
 10
119.7080260614149
 20
128.1749194120729
 30
0.0
 11
119.6654397627777
 21
128.1694472279116
 31
0.0
  0
LINE
  5
3B1
330
E3
100
AcDbEntity
  8
0
  6
Continuous
100
AcDbLine
 10
119.6654397627777
 20
128.1694472279116
 30
0.0
 11
119.6221965132715
 21
128.1639750437504
 31
0.0
  0
LINE
  5
3B2
330
E3
100
AcDbEntity
  8
0
  6
Continuous
100
AcDbLine
 10
119.6221965132715
 20
128.1639750437504
 30
0.0
 11
119.5786175690905
 21
128.1585028595892
 31
0.0
  0
LINE
  5
3B3
330
E3
100
AcDbEntity
  8
0
  6
Continuous
100
AcDbLine
 10
119.5786175690905
 20
128.1585028595892
 30
0.0
 11
119.5350386249095
 21
128.1530342850482
 31
0.0
  0
LINE
  5
3B4
330
E3
100
AcDbEntity
  8
0
  6
Continuous
100
AcDbLine
 10
119.5350386249095
 20
128.1530342850482
 30
0.0
 11
119.4917917657832
 21
128.1475621008869
 31
0.0
  0
LINE
  5
3B5
330
E3
100
AcDbEntity
  8
0
  6
Continuous
100
AcDbLine
 10
119.4917917657832
 20
128.1475621008869
 30
0.0
 11
119.4492090767661
 21
128.1420899167257
 31
0.0
  0
LINE
  5
3B6
330
E3
100
AcDbEntity
  8
0
  6
Continuous
100
AcDbLine
 10
119.4492090767661
 20
128.1420899167257
 30
0.0
 11
119.4076082044323
 21
128.1366177325645
 31
0.0
  0
LINE
  5
3B7
330
E3
100
AcDbEntity
  8
0
  6
Continuous
100
AcDbLine
 10
119.4076082044323
 20
128.1366177325645
 30
0.0
 11
119.3673067953558
 21
128.1311455484033
 31
0.0
  0
LINE
  5
3B8
330
E3
100
AcDbEntity
  8
0
  6
Continuous
100
AcDbLine
 10
119.3673067953558
 20
128.1311455484033
 30
0.0
 11
119.3286152768703
 21
128.1256769738622
 31
0.0
  0
LINE
  5
3B9
330
E3
100
AcDbEntity
  8
0
  6
Continuous
100
AcDbLine
 10
119.3286152768703
 20
128.1256769738622
 30
0.0
 11
119.2918296378288
 21
128.120204789701
 31
0.0
  0
LINE
  5
3BA
330
E3
100
AcDbEntity
  8
0
  6
Continuous
100
AcDbLine
 10
119.2918296378288
 20
128.120204789701
 30
0.0
 11
119.2572242093633
 21
128.1147326055398
 31
0.0
  0
LINE
  5
3BB
330
E3
100
AcDbEntity
  8
0
  6
Continuous
100
AcDbLine
 10
119.2572242093633
 20
128.1147326055398
 30
0.0
 11
119.2250624937456
 21
128.1092604213786
 31
0.0
  0
LINE
  5
3BC
330
E3
100
AcDbEntity
  8
0
  6
Continuous
100
AcDbLine
 10
119.2250624937456
 20
128.1092604213786
 30
0.0
 11
119.1955935547666
 21
128.1037918468375
 31
0.0
  0
LINE
  5
3BD
330
E3
100
AcDbEntity
  8
0
  6
Continuous
100
AcDbLine
 10
119.1955935547666
 20
128.1037918468375
 30
0.0
 11
119.1690411888762
 21
128.0983196626763
 31
0.0
  0
LINE
  5
3BE
330
E3
100
AcDbEntity
  8
0
  6
Continuous
100
AcDbLine
 10
119.1690411888762
 20
128.0983196626763
 30
0.0
 11
119.145603925183
 21
128.0928474785151
 31
0.0
  0
LINE
  5
3BF
330
E3
100
AcDbEntity
  8
0
  6
Continuous
100
AcDbLine
 10
119.145603925183
 20
128.0928474785151
 30
0.0
 11
119.1254622446952
 21
128.0873752943538
 31
0.0
  0
LINE
  5
3C0
330
E3
100
AcDbEntity
  8
0
  6
Continuous
100
AcDbLine
 10
119.1254622446952
 20
128.0873752943538
 30
0.0
 11
119.1087713610794
 21
128.0819031101926
 31
0.0
  0
LINE
  5
3C1
330
E3
100
AcDbEntity
  8
0
  6
Continuous
100
AcDbLine
 10
119.1087713610794
 20
128.0819031101926
 30
0.0
 11
119.0956540014212
 21
128.0764345356516
 31
0.0
  0
LINE
  5
3C2
330
E3
100
AcDbEntity
  8
0
  6
Continuous
100
AcDbLine
 10
119.0956540014212
 20
128.0764345356516
 30
0.0
 11
119.0862148447051
 21
128.0709623514904
 31
0.0
  0
LINE
  5
3C3
330
E3
100
AcDbEntity
  8
0
  6
Continuous
100
AcDbLine
 10
119.0862148447051
 20
128.0709623514904
 30
0.0
 11
119.0805196730092
 21
128.0654905878192
 31
0.0
  0
LINE
  5
3C4
330
E3
100
AcDbEntity
  8
0
  6
Continuous
100
AcDbLine
 10
119.0805196730092
 20
128.0654905878192
 30
0.0
 11
119.0786170220551
 21
128.0600192073478
 31
0.0
  0
LINE
  5
3C5
330
E3
100
AcDbEntity
  8
0
  6
Continuous
100
AcDbLine
 10
120.0786170220551
 20
127.8630495103781
 30
0.0
 11
120.0767143711009
 21
127.8575781299067
 31
0.0
  0
LINE
  5
3C6
330
E3
100
AcDbEntity
  8
0
  6
Continuous
100
AcDbLine
 10
120.0767143711009
 20
127.8575781299067
 30
0.0
 11
120.0710208985612
 21
127.8521067494353
 31
0.0
  0
LINE
  5
3C7
330
E3
100
AcDbEntity
  8
0
  6
Continuous
100
AcDbLine
 10
120.0710208985612
 20
127.8521067494353
 30
0.0
 11
120.0615811367598
 21
127.8466352874619
 31
0.0
  0
LINE
  5
3C8
330
E3
100
AcDbEntity
  8
0
  6
Continuous
100
AcDbLine
 10
120.0615811367598
 20
127.8466352874619
 30
0.0
 11
120.0484637771016
 21
127.8411631033007
 31
0.0
  0
LINE
  5
3C9
330
E3
100
AcDbEntity
  8
0
  6
Continuous
100
AcDbLine
 10
120.0484637771016
 20
127.8411631033007
 30
0.0
 11
120.0317692838657
 21
127.8356909191395
 31
0.0
  0
LINE
  5
3CA
330
E3
100
AcDbEntity
  8
0
  6
Continuous
100
AcDbLine
 10
120.0317692838657
 20
127.8356909191395
 30
0.0
 11
120.011631212998
 21
127.8302223445984
 31
0.0
  0
LINE
  5
3CB
330
E3
100
AcDbEntity
  8
0
  6
Continuous
100
AcDbLine
 10
120.011631212998
 20
127.8302223445984
 30
0.0
 11
119.9881939493049
 21
127.8247501604372
 31
0.0
  0
LINE
  5
3CC
330
E3
100
AcDbEntity
  8
0
  6
Continuous
100
AcDbLine
 10
119.9881939493049
 20
127.8247501604372
 30
0.0
 11
119.9616379737943
 21
127.819277976276
 31
0.0
  0
LINE
  5
3CD
330
E3
100
AcDbEntity
  8
0
  6
Continuous
100
AcDbLine
 10
119.9616379737943
 20
127.819277976276
 30
0.0
 11
119.9321690348153
 21
127.8138057921148
 31
0.0
  0
LINE
  5
3CE
330
E3
100
AcDbEntity
  8
0
  6
Continuous
100
AcDbLine
 10
119.9321690348153
 20
127.8138057921148
 30
0.0
 11
119.9000109288177
 21
127.8083372175737
 31
0.0
  0
LINE
  5
3CF
330
E3
100
AcDbEntity
  8
0
  6
Continuous
100
AcDbLine
 10
119.9000109288177
 20
127.8083372175737
 30
0.0
 11
119.8654055003523
 21
127.8028650334125
 31
0.0
  0
LINE
  5
3D0
330
E3
100
AcDbEntity
  8
0
  6
Continuous
100
AcDbLine
 10
119.8654055003523
 20
127.8028650334125
 30
0.0
 11
119.8286162516906
 21
127.7973928492513
 31
0.0
  0
LINE
  5
3D1
330
E3
100
AcDbEntity
  8
0
  6
Continuous
100
AcDbLine
 10
119.8286162516906
 20
127.7973928492513
 30
0.0
 11
119.7899247332051
 21
127.7919206650901
 31
0.0
  0
LINE
  5
3D2
330
E3
100
AcDbEntity
  8
0
  6
Continuous
100
AcDbLine
 10
119.7899247332051
 20
127.7919206650901
 30
0.0
 11
119.7496269337487
 21
127.7864484809289
 31
0.0
  0
LINE
  5
3D3
330
E3
100
AcDbEntity
  8
0
  6
Continuous
100
AcDbLine
 10
119.7496269337487
 20
127.7864484809289
 30
0.0
 11
119.7080260614149
 21
127.7809799063878
 31
0.0
  0
LINE
  5
3D4
330
E3
100
AcDbEntity
  8
0
  6
Continuous
100
AcDbLine
 10
119.7080260614149
 20
127.7809799063878
 30
0.0
 11
119.6654397627777
 21
127.7755077222266
 31
0.0
  0
LINE
  5
3D5
330
E3
100
AcDbEntity
  8
0
  6
Continuous
100
AcDbLine
 10
119.6654397627777
 20
127.7755077222266
 30
0.0
 11
119.6221965132715
 21
127.7700355380653
 31
0.0
  0
LINE
  5
3D6
330
E3
100
AcDbEntity
  8
0
  6
Continuous
100
AcDbLine
 10
119.6221965132715
 20
127.7700355380653
 30
0.0
 11
119.5786175690905
 21
127.7645633539041
 31
0.0
  0
LINE
  5
3D7
330
E3
100
AcDbEntity
  8
0
  6
Continuous
100
AcDbLine
 10
119.5786175690905
 20
127.7645633539041
 30
0.0
 11
119.5350386249095
 21
127.7590947793631
 31
0.0
  0
LINE
  5
3D8
330
E3
100
AcDbEntity
  8
0
  6
Continuous
100
AcDbLine
 10
119.5350386249095
 20
127.7590947793631
 30
0.0
 11
119.4917917657832
 21
127.7536225952018
 31
0.0
  0
LINE
  5
3D9
330
E3
100
AcDbEntity
  8
0
  6
Continuous
100
AcDbLine
 10
119.4917917657832
 20
127.7536225952018
 30
0.0
 11
119.4492090767661
 21
127.7481504110407
 31
0.0
  0
LINE
  5
3DA
330
E3
100
AcDbEntity
  8
0
  6
Continuous
100
AcDbLine
 10
119.4492090767661
 20
127.7481504110407
 30
0.0
 11
119.4076082044323
 21
127.7426782268794
 31
0.0
  0
LINE
  5
3DB
330
E3
100
AcDbEntity
  8
0
  6
Continuous
100
AcDbLine
 10
119.4076082044323
 20
127.7426782268794
 30
0.0
 11
119.3673067953558
 21
127.7372060427182
 31
0.0
  0
LINE
  5
3DC
330
E3
100
AcDbEntity
  8
0
  6
Continuous
100
AcDbLine
 10
119.3673067953558
 20
127.7372060427182
 30
0.0
 11
119.3286152768703
 21
127.7317374681771
 31
0.0
  0
LINE
  5
3DD
330
E3
100
AcDbEntity
  8
0
  6
Continuous
100
AcDbLine
 10
119.3286152768703
 20
127.7317374681771
 30
0.0
 11
119.2918296378288
 21
127.7262652840159
 31
0.0
  0
LINE
  5
3DE
330
E3
100
AcDbEntity
  8
0
  6
Continuous
100
AcDbLine
 10
119.2918296378288
 20
127.7262652840159
 30
0.0
 11
119.2572242093633
 21
127.7207930998547
 31
0.0
  0
LINE
  5
3DF
330
E3
100
AcDbEntity
  8
0
  6
Continuous
100
AcDbLine
 10
119.2572242093633
 20
127.7207930998547
 30
0.0
 11
119.2250624937456
 21
127.7153209156935
 31
0.0
  0
LINE
  5
3E0
330
E3
100
AcDbEntity
  8
0
  6
Continuous
100
AcDbLine
 10
119.2250624937456
 20
127.7153209156935
 30
0.0
 11
119.1955935547666
 21
127.7098523411525
 31
0.0
  0
LINE
  5
3E1
330
E3
100
AcDbEntity
  8
0
  6
Continuous
100
AcDbLine
 10
119.1955935547666
 20
127.7098523411525
 30
0.0
 11
119.1690411888762
 21
127.7043801569912
 31
0.0
  0
LINE
  5
3E2
330
E3
100
AcDbEntity
  8
0
  6
Continuous
100
AcDbLine
 10
119.1690411888762
 20
127.7043801569912
 30
0.0
 11
119.145603925183
 21
127.69890797283
 31
0.0
  0
LINE
  5
3E3
330
E3
100
AcDbEntity
  8
0
  6
Continuous
100
AcDbLine
 10
119.145603925183
 20
127.69890797283
 30
0.0
 11
119.1254622446952
 21
127.6934357886688
 31
0.0
  0
LINE
  5
3E4
330
E3
100
AcDbEntity
  8
0
  6
Continuous
100
AcDbLine
 10
119.1254622446952
 20
127.6934357886688
 30
0.0
 11
119.1087713610794
 21
127.6879636045076
 31
0.0
  0
LINE
  5
3E5
330
E3
100
AcDbEntity
  8
0
  6
Continuous
100
AcDbLine
 10
119.1087713610794
 20
127.6879636045076
 30
0.0
 11
119.0956540014212
 21
127.6824950299665
 31
0.0
  0
LINE
  5
3E6
330
E3
100
AcDbEntity
  8
0
  6
Continuous
100
AcDbLine
 10
119.0956540014212
 20
127.6824950299665
 30
0.0
 11
119.0862148447051
 21
127.6770228458053
 31
0.0
  0
LINE
  5
3E7
330
E3
100
AcDbEntity
  8
0
  6
Continuous
100
AcDbLine
 10
119.0862148447051
 20
127.6770228458053
 30
0.0
 11
119.0805196730092
 21
127.6715511938798
 31
0.0
  0
LINE
  5
3E8
330
E3
100
AcDbEntity
  8
0
  6
Continuous
100
AcDbLine
 10
119.0805196730092
 20
127.6715511938798
 30
0.0
 11
119.0786170220551
 21
127.6660798134084
 31
0.0
  0
LINE
  5
3E9
330
E3
100
AcDbEntity
  8
0
  6
Continuous
100
AcDbLine
 10
120.0786170220551
 20
127.4691101164387
 30
0.0
 11
120.0767143711009
 21
127.4636387359673
 31
0.0
  0
LINE
  5
3EA
330
E3
100
AcDbEntity
  8
0
  6
Continuous
100
AcDbLine
 10
120.0767143711009
 20
127.4636387359673
 30
0.0
 11
120.0710208985612
 21
127.4581673554959
 31
0.0
  0
LINE
  5
3EB
330
E3
100
AcDbEntity
  8
0
  6
Continuous
100
AcDbLine
 10
120.0710208985612
 20
127.4581673554959
 30
0.0
 11
120.0615811367598
 21
127.4526957817768
 31
0.0
  0
LINE
  5
3EC
330
E3
100
AcDbEntity
  8
0
  6
Continuous
100
AcDbLine
 10
120.0615811367598
 20
127.4526957817768
 30
0.0
 11
120.0484637771016
 21
127.4472235976156
 31
0.0
  0
LINE
  5
3ED
330
E3
100
AcDbEntity
  8
0
  6
Continuous
100
AcDbLine
 10
120.0484637771016
 20
127.4472235976156
 30
0.0
 11
120.0317692838657
 21
127.4417514134544
 31
0.0
  0
LINE
  5
3EE
330
E3
100
AcDbEntity
  8
0
  6
Continuous
100
AcDbLine
 10
120.0317692838657
 20
127.4417514134544
 30
0.0
 11
120.011631212998
 21
127.4362828389133
 31
0.0
  0
LINE
  5
3EF
330
E3
100
AcDbEntity
  8
0
  6
Continuous
100
AcDbLine
 10
120.011631212998
 20
127.4362828389133
 30
0.0
 11
119.9881939493049
 21
127.4308106547522
 31
0.0
  0
LINE
  5
3F0
330
E3
100
AcDbEntity
  8
0
  6
Continuous
100
AcDbLine
 10
119.9881939493049
 20
127.4308106547522
 30
0.0
 11
119.9616379737943
 21
127.4253384705909
 31
0.0
  0
LINE
  5
3F1
330
E3
100
AcDbEntity
  8
0
  6
Continuous
100
AcDbLine
 10
119.9616379737943
 20
127.4253384705909
 30
0.0
 11
119.9321690348153
 21
127.4198662864297
 31
0.0
  0
LINE
  5
3F2
330
E3
100
AcDbEntity
  8
0
  6
Continuous
100
AcDbLine
 10
119.9321690348153
 20
127.4198662864297
 30
0.0
 11
119.9000109288177
 21
127.4143977118886
 31
0.0
  0
LINE
  5
3F3
330
E3
100
AcDbEntity
  8
0
  6
Continuous
100
AcDbLine
 10
119.9000109288177
 20
127.4143977118886
 30
0.0
 11
119.8654055003523
 21
127.4089255277274
 31
0.0
  0
LINE
  5
3F4
330
E3
100
AcDbEntity
  8
0
  6
Continuous
100
AcDbLine
 10
119.8654055003523
 20
127.4089255277274
 30
0.0
 11
119.8286162516906
 21
127.4034533435662
 31
0.0
  0
LINE
  5
3F5
330
E3
100
AcDbEntity
  8
0
  6
Continuous
100
AcDbLine
 10
119.8286162516906
 20
127.4034533435662
 30
0.0
 11
119.7899247332051
 21
127.397981159405
 31
0.0
  0
LINE
  5
3F6
330
E3
100
AcDbEntity
  8
0
  6
Continuous
100
AcDbLine
 10
119.7899247332051
 20
127.397981159405
 30
0.0
 11
119.7496269337487
 21
127.3925125848639
 31
0.0
  0
LINE
  5
3F7
330
E3
100
AcDbEntity
  8
0
  6
Continuous
100
AcDbLine
 10
119.7496269337487
 20
127.3925125848639
 30
0.0
 11
119.7080260614149
 21
127.3870404007027
 31
0.0
  0
LINE
  5
3F8
330
E3
100
AcDbEntity
  8
0
  6
Continuous
100
AcDbLine
 10
119.7080260614149
 20
127.3870404007027
 30
0.0
 11
119.6654397627777
 21
127.3815682165415
 31
0.0
  0
LINE
  5
3F9
330
E3
100
AcDbEntity
  8
0
  6
Continuous
100
AcDbLine
 10
119.6654397627777
 20
127.3815682165415
 30
0.0
 11
119.6221965132715
 21
127.3760960323803
 31
0.0
  0
LINE
  5
3FA
330
E3
100
AcDbEntity
  8
0
  6
Continuous
100
AcDbLine
 10
119.6221965132715
 20
127.3760960323803
 30
0.0
 11
119.5786175690905
 21
127.3706238482191
 31
0.0
  0
LINE
  5
3FB
330
E3
100
AcDbEntity
  8
0
  6
Continuous
100
AcDbLine
 10
119.5786175690905
 20
127.3706238482191
 30
0.0
 11
119.5350386249095
 21
127.365155273678
 31
0.0
  0
LINE
  5
3FC
330
E3
100
AcDbEntity
  8
0
  6
Continuous
100
AcDbLine
 10
119.5350386249095
 20
127.365155273678
 30
0.0
 11
119.4917917657832
 21
127.3596830895168
 31
0.0
  0
LINE
  5
3FD
330
E3
100
AcDbEntity
  8
0
  6
Continuous
100
AcDbLine
 10
119.4917917657832
 20
127.3596830895168
 30
0.0
 11
119.4492090767661
 21
127.3542109053556
 31
0.0
  0
LINE
  5
3FE
330
E3
100
AcDbEntity
  8
0
  6
Continuous
100
AcDbLine
 10
119.4492090767661
 20
127.3542109053556
 30
0.0
 11
119.4076082044323
 21
127.3487387211943
 31
0.0
  0
LINE
  5
3FF
330
E3
100
AcDbEntity
  8
0
  6
Continuous
100
AcDbLine
 10
119.4076082044323
 20
127.3487387211943
 30
0.0
 11
119.3673067953558
 21
127.3432701466533
 31
0.0
  0
LINE
  5
400
330
E3
100
AcDbEntity
  8
0
  6
Continuous
100
AcDbLine
 10
119.3673067953558
 20
127.3432701466533
 30
0.0
 11
119.3286152768703
 21
127.3377979624921
 31
0.0
  0
LINE
  5
401
330
E3
100
AcDbEntity
  8
0
  6
Continuous
100
AcDbLine
 10
119.3286152768703
 20
127.3377979624921
 30
0.0
 11
119.2918296378288
 21
127.3323257783309
 31
0.0
  0
LINE
  5
402
330
E3
100
AcDbEntity
  8
0
  6
Continuous
100
AcDbLine
 10
119.2918296378288
 20
127.3323257783309
 30
0.0
 11
119.2572242093633
 21
127.3268535941696
 31
0.0
  0
LINE
  5
403
330
E3
100
AcDbEntity
  8
0
  6
Continuous
100
AcDbLine
 10
119.2572242093633
 20
127.3268535941696
 30
0.0
 11
119.2250624937456
 21
127.3213814100084
 31
0.0
  0
LINE
  5
404
330
E3
100
AcDbEntity
  8
0
  6
Continuous
100
AcDbLine
 10
119.2250624937456
 20
127.3213814100084
 30
0.0
 11
119.1955935547666
 21
127.3159128354674
 31
0.0
  0
LINE
  5
405
330
E3
100
AcDbEntity
  8
0
  6
Continuous
100
AcDbLine
 10
119.1955935547666
 20
127.3159128354674
 30
0.0
 11
119.1690411888762
 21
127.3104406513062
 31
0.0
  0
LINE
  5
406
330
E3
100
AcDbEntity
  8
0
  6
Continuous
100
AcDbLine
 10
119.1690411888762
 20
127.3104406513062
 30
0.0
 11
119.145603925183
 21
127.3049684671449
 31
0.0
  0
LINE
  5
407
330
E3
100
AcDbEntity
  8
0
  6
Continuous
100
AcDbLine
 10
119.145603925183
 20
127.3049684671449
 30
0.0
 11
119.1254622446952
 21
127.2994962829837
 31
0.0
  0
LINE
  5
408
330
E3
100
AcDbEntity
  8
0
  6
Continuous
100
AcDbLine
 10
119.1254622446952
 20
127.2994962829837
 30
0.0
 11
119.1087713610794
 21
127.2940277084427
 31
0.0
  0
LINE
  5
409
330
E3
100
AcDbEntity
  8
0
  6
Continuous
100
AcDbLine
 10
119.1087713610794
 20
127.2940277084427
 30
0.0
 11
119.0956540014212
 21
127.2885555242814
 31
0.0
  0
LINE
  5
40A
330
E3
100
AcDbEntity
  8
0
  6
Continuous
100
AcDbLine
 10
119.0956540014212
 20
127.2885555242814
 30
0.0
 11
119.0862148447051
 21
127.2830833401202
 31
0.0
  0
LINE
  5
40B
330
E3
100
AcDbEntity
  8
0
  6
Continuous
100
AcDbLine
 10
119.0862148447051
 20
127.2830833401202
 30
0.0
 11
119.0805196730092
 21
127.2776117999404
 31
0.0
  0
LINE
  5
40C
330
E3
100
AcDbEntity
  8
0
  6
Continuous
100
AcDbLine
 10
119.0805196730092
 20
127.2776117999404
 30
0.0
 11
119.0786170220551
 21
127.272140419469
 31
0.0
  0
LINE
  5
40D
330
E3
100
AcDbEntity
  8
0
  6
Continuous
100
AcDbLine
 10
120.0786170220551
 20
127.0751707224993
 30
0.0
 11
120.0767143711009
 21
127.0696993420279
 31
0.0
  0
LINE
  5
40E
330
E3
100
AcDbEntity
  8
0
  6
Continuous
100
AcDbLine
 10
120.0767143711009
 20
127.0696993420279
 30
0.0
 11
120.0710208985612
 21
127.0642279615565
 31
0.0
  0
LINE
  5
40F
330
E3
100
AcDbEntity
  8
0
  6
Continuous
100
AcDbLine
 10
120.0710208985612
 20
127.0642279615565
 30
0.0
 11
120.0615811367598
 21
127.0587562760918
 31
0.0
  0
LINE
  5
410
330
E3
100
AcDbEntity
  8
0
  6
Continuous
100
AcDbLine
 10
120.0615811367598
 20
127.0587562760918
 30
0.0
 11
120.0484637771016
 21
127.0532840919306
 31
0.0
  0
LINE
  5
411
330
E3
100
AcDbEntity
  8
0
  6
Continuous
100
AcDbLine
 10
120.0484637771016
 20
127.0532840919306
 30
0.0
 11
120.0317692838657
 21
127.0478155173895
 31
0.0
  0
LINE
  5
412
330
E3
100
AcDbEntity
  8
0
  6
Continuous
100
AcDbLine
 10
120.0317692838657
 20
127.0478155173895
 30
0.0
 11
120.011631212998
 21
127.0423433332283
 31
0.0
  0
LINE
  5
413
330
E3
100
AcDbEntity
  8
0
  6
Continuous
100
AcDbLine
 10
120.011631212998
 20
127.0423433332283
 30
0.0
 11
119.9881939493049
 21
127.0368711490671
 31
0.0
  0
LINE
  5
414
330
E3
100
AcDbEntity
  8
0
  6
Continuous
100
AcDbLine
 10
119.9881939493049
 20
127.0368711490671
 30
0.0
 11
119.9616379737943
 21
127.0313989649058
 31
0.0
  0
LINE
  5
415
330
E3
100
AcDbEntity
  8
0
  6
Continuous
100
AcDbLine
 10
119.9616379737943
 20
127.0313989649058
 30
0.0
 11
119.9321690348153
 21
127.0259267807446
 31
0.0
  0
LINE
  5
416
330
E3
100
AcDbEntity
  8
0
  6
Continuous
100
AcDbLine
 10
119.9321690348153
 20
127.0259267807446
 30
0.0
 11
119.9000109288177
 21
127.0204582062036
 31
0.0
  0
LINE
  5
417
330
E3
100
AcDbEntity
  8
0
  6
Continuous
100
AcDbLine
 10
119.9000109288177
 20
127.0204582062036
 30
0.0
 11
119.8654055003523
 21
127.0149860220424
 31
0.0
  0
LINE
  5
418
330
E3
100
AcDbEntity
  8
0
  6
Continuous
100
AcDbLine
 10
119.8654055003523
 20
127.0149860220424
 30
0.0
 11
119.8286162516906
 21
127.0095138378811
 31
0.0
  0
LINE
  5
419
330
E3
100
AcDbEntity
  8
0
  6
Continuous
100
AcDbLine
 10
119.8286162516906
 20
127.0095138378811
 30
0.0
 11
119.7899247332051
 21
127.0040416537199
 31
0.0
  0
LINE
  5
41A
330
E3
100
AcDbEntity
  8
0
  6
Continuous
100
AcDbLine
 10
119.7899247332051
 20
127.0040416537199
 30
0.0
 11
119.7496269337487
 21
126.9985730791789
 31
0.0
  0
LINE
  5
41B
330
E3
100
AcDbEntity
  8
0
  6
Continuous
100
AcDbLine
 10
119.7496269337487
 20
126.9985730791789
 30
0.0
 11
119.7080260614149
 21
126.9931008950176
 31
0.0
  0
LINE
  5
41C
330
E3
100
AcDbEntity
  8
0
  6
Continuous
100
AcDbLine
 10
119.7080260614149
 20
126.9931008950176
 30
0.0
 11
119.6654397627777
 21
126.9876287108565
 31
0.0
  0
LINE
  5
41D
330
E3
100
AcDbEntity
  8
0
  6
Continuous
100
AcDbLine
 10
119.6654397627777
 20
126.9876287108565
 30
0.0
 11
119.6221965132715
 21
126.9821565266952
 31
0.0
  0
LINE
  5
41E
330
E3
100
AcDbEntity
  8
0
  6
Continuous
100
AcDbLine
 10
119.6221965132715
 20
126.9821565266952
 30
0.0
 11
119.5786175690905
 21
126.976684342534
 31
0.0
  0
LINE
  5
41F
330
E3
100
AcDbEntity
  8
0
  6
Continuous
100
AcDbLine
 10
119.5786175690905
 20
126.976684342534
 30
0.0
 11
119.5350386249095
 21
126.9712157679929
 31
0.0
  0
LINE
  5
420
330
E3
100
AcDbEntity
  8
0
  6
Continuous
100
AcDbLine
 10
119.5350386249095
 20
126.9712157679929
 30
0.0
 11
119.4917917657832
 21
126.9657435838317
 31
0.0
  0
LINE
  5
421
330
E3
100
AcDbEntity
  8
0
  6
Continuous
100
AcDbLine
 10
119.4917917657832
 20
126.9657435838317
 30
0.0
 11
119.4492090767661
 21
126.9602713996705
 31
0.0
  0
LINE
  5
422
330
E3
100
AcDbEntity
  8
0
  6
Continuous
100
AcDbLine
 10
119.4492090767661
 20
126.9602713996705
 30
0.0
 11
119.4076082044323
 21
126.9547992155093
 31
0.0
  0
LINE
  5
423
330
E3
100
AcDbEntity
  8
0
  6
Continuous
100
AcDbLine
 10
119.4076082044323
 20
126.9547992155093
 30
0.0
 11
119.3673067953558
 21
126.9493306409683
 31
0.0
  0
LINE
  5
424
330
E3
100
AcDbEntity
  8
0
  6
Continuous
100
AcDbLine
 10
119.3673067953558
 20
126.9493306409683
 30
0.0
 11
119.3286152768703
 21
126.943858456807
 31
0.0
  0
LINE
  5
425
330
E3
100
AcDbEntity
  8
0
  6
Continuous
100
AcDbLine
 10
119.3286152768703
 20
126.943858456807
 30
0.0
 11
119.2918296378288
 21
126.9383862726458
 31
0.0
  0
LINE
  5
426
330
E3
100
AcDbEntity
  8
0
  6
Continuous
100
AcDbLine
 10
119.2918296378288
 20
126.9383862726458
 30
0.0
 11
119.2572242093633
 21
126.9329140884846
 31
0.0
  0
LINE
  5
427
330
E3
100
AcDbEntity
  8
0
  6
Continuous
100
AcDbLine
 10
119.2572242093633
 20
126.9329140884846
 30
0.0
 11
119.2250624937456
 21
126.9274419043234
 31
0.0
  0
LINE
  5
428
330
E3
100
AcDbEntity
  8
0
  6
Continuous
100
AcDbLine
 10
119.2250624937456
 20
126.9274419043234
 30
0.0
 11
119.1955935547666
 21
126.9219733297823
 31
0.0
  0
LINE
  5
429
330
E3
100
AcDbEntity
  8
0
  6
Continuous
100
AcDbLine
 10
119.1955935547666
 20
126.9219733297823
 30
0.0
 11
119.1690411888762
 21
126.9165011456211
 31
0.0
  0
LINE
  5
42A
330
E3
100
AcDbEntity
  8
0
  6
Continuous
100
AcDbLine
 10
119.1690411888762
 20
126.9165011456211
 30
0.0
 11
119.145603925183
 21
126.9110289614599
 31
0.0
  0
LINE
  5
42B
330
E3
100
AcDbEntity
  8
0
  6
Continuous
100
AcDbLine
 10
119.145603925183
 20
126.9110289614599
 30
0.0
 11
119.1254622446952
 21
126.9055567772986
 31
0.0
  0
LINE
  5
42C
330
E3
100
AcDbEntity
  8
0
  6
Continuous
100
AcDbLine
 10
119.1254622446952
 20
126.9055567772986
 30
0.0
 11
119.1087713610794
 21
126.9000882027576
 31
0.0
  0
LINE
  5
42D
330
E3
100
AcDbEntity
  8
0
  6
Continuous
100
AcDbLine
 10
119.1087713610794
 20
126.9000882027576
 30
0.0
 11
119.0956540014212
 21
126.8946160185964
 31
0.0
  0
LINE
  5
42E
330
E3
100
AcDbEntity
  8
0
  6
Continuous
100
AcDbLine
 10
119.0956540014212
 20
126.8946160185964
 30
0.0
 11
119.0862148447051
 21
126.8891438344352
 31
0.0
  0
LINE
  5
42F
330
E3
100
AcDbEntity
  8
0
  6
Continuous
100
AcDbLine
 10
119.0862148447051
 20
126.8891438344352
 30
0.0
 11
119.0805196730092
 21
126.883672406001
 31
0.0
  0
LINE
  5
430
330
E3
100
AcDbEntity
  8
0
  6
Continuous
100
AcDbLine
 10
119.0805196730092
 20
126.883672406001
 30
0.0
 11
119.0786170220551
 21
126.8782010255296
 31
0.0
  0
LINE
  5
431
330
E3
100
AcDbEntity
  8
0
  6
Continuous
100
AcDbLine
 10
120.0786170220551
 20
126.6812313285599
 30
0.0
 11
120.0767143711009
 21
126.6757599480885
 31
0.0
  0
LINE
  5
432
330
E3
100
AcDbEntity
  8
0
  6
Continuous
100
AcDbLine
 10
120.0767143711009
 20
126.6757599480885
 30
0.0
 11
120.0710208985612
 21
126.6702885676171
 31
0.0
  0
LINE
  5
433
330
E3
100
AcDbEntity
  8
0
  6
Continuous
100
AcDbLine
 10
120.0710208985612
 20
126.6702885676171
 30
0.0
 11
120.0615811367598
 21
126.6648167704067
 31
0.0
  0
LINE
  5
434
330
E3
100
AcDbEntity
  8
0
  6
Continuous
100
AcDbLine
 10
120.0615811367598
 20
126.6648167704067
 30
0.0
 11
120.0484637771016
 21
126.6593445862455
 31
0.0
  0
LINE
  5
435
330
E3
100
AcDbEntity
  8
0
  6
Continuous
100
AcDbLine
 10
120.0484637771016
 20
126.6593445862455
 30
0.0
 11
120.0317692838657
 21
126.6538760117044
 31
0.0
  0
LINE
  5
436
330
E3
100
AcDbEntity
  8
0
  6
Continuous
100
AcDbLine
 10
120.0317692838657
 20
126.6538760117044
 30
0.0
 11
120.011631212998
 21
126.6484038275432
 31
0.0
  0
LINE
  5
437
330
E3
100
AcDbEntity
  8
0
  6
Continuous
100
AcDbLine
 10
120.011631212998
 20
126.6484038275432
 30
0.0
 11
119.9881939493049
 21
126.642931643382
 31
0.0
  0
LINE
  5
438
330
E3
100
AcDbEntity
  8
0
  6
Continuous
100
AcDbLine
 10
119.9881939493049
 20
126.642931643382
 30
0.0
 11
119.9616379737943
 21
126.6374594592208
 31
0.0
  0
LINE
  5
439
330
E3
100
AcDbEntity
  8
0
  6
Continuous
100
AcDbLine
 10
119.9616379737943
 20
126.6374594592208
 30
0.0
 11
119.9321690348153
 21
126.6319872750596
 31
0.0
  0
LINE
  5
43A
330
E3
100
AcDbEntity
  8
0
  6
Continuous
100
AcDbLine
 10
119.9321690348153
 20
126.6319872750596
 30
0.0
 11
119.9000109288177
 21
126.6265187005185
 31
0.0
  0
LINE
  5
43B
330
E3
100
AcDbEntity
  8
0
  6
Continuous
100
AcDbLine
 10
119.9000109288177
 20
126.6265187005185
 30
0.0
 11
119.8654055003523
 21
126.6210465163573
 31
0.0
  0
LINE
  5
43C
330
E3
100
AcDbEntity
  8
0
  6
Continuous
100
AcDbLine
 10
119.8654055003523
 20
126.6210465163573
 30
0.0
 11
119.8286162516906
 21
126.6155743321961
 31
0.0
  0
LINE
  5
43D
330
E3
100
AcDbEntity
  8
0
  6
Continuous
100
AcDbLine
 10
119.8286162516906
 20
126.6155743321961
 30
0.0
 11
119.7899247332051
 21
126.6101021480349
 31
0.0
  0
LINE
  5
43E
330
E3
100
AcDbEntity
  8
0
  6
Continuous
100
AcDbLine
 10
119.7899247332051
 20
126.6101021480349
 30
0.0
 11
119.7496269337487
 21
126.6046335734938
 31
0.0
  0
LINE
  5
43F
330
E3
100
AcDbEntity
  8
0
  6
Continuous
100
AcDbLine
 10
119.7496269337487
 20
126.6046335734938
 30
0.0
 11
119.7080260614149
 21
126.5991613893326
 31
0.0
  0
LINE
  5
440
330
E3
100
AcDbEntity
  8
0
  6
Continuous
100
AcDbLine
 10
119.7080260614149
 20
126.5991613893326
 30
0.0
 11
119.6654397627777
 21
126.5936892051714
 31
0.0
  0
LINE
  5
441
330
E3
100
AcDbEntity
  8
0
  6
Continuous
100
AcDbLine
 10
119.6654397627777
 20
126.5936892051714
 30
0.0
 11
119.6221965132715
 21
126.5882170210101
 31
0.0
  0
LINE
  5
442
330
E3
100
AcDbEntity
  8
0
  6
Continuous
100
AcDbLine
 10
119.6221965132715
 20
126.5882170210101
 30
0.0
 11
119.5786175690905
 21
126.5827448368489
 31
0.0
  0
LINE
  5
443
330
E3
100
AcDbEntity
  8
0
  6
Continuous
100
AcDbLine
 10
119.5786175690905
 20
126.5827448368489
 30
0.0
 11
119.5350386249095
 21
126.5772762623079
 31
0.0
  0
LINE
  5
444
330
E3
100
AcDbEntity
  8
0
  6
Continuous
100
AcDbLine
 10
119.5350386249095
 20
126.5772762623079
 30
0.0
 11
119.4917917657832
 21
126.5718040781467
 31
0.0
  0
LINE
  5
445
330
E3
100
AcDbEntity
  8
0
  6
Continuous
100
AcDbLine
 10
119.4917917657832
 20
126.5718040781467
 30
0.0
 11
119.4492090767661
 21
126.5663318939854
 31
0.0
  0
LINE
  5
446
330
E3
100
AcDbEntity
  8
0
  6
Continuous
100
AcDbLine
 10
119.4492090767661
 20
126.5663318939854
 30
0.0
 11
119.4076082044323
 21
126.5608597098242
 31
0.0
  0
LINE
  5
447
330
E3
100
AcDbEntity
  8
0
  6
Continuous
100
AcDbLine
 10
119.4076082044323
 20
126.5608597098242
 30
0.0
 11
119.3673067953558
 21
126.5553911352832
 31
0.0
  0
LINE
  5
448
330
E3
100
AcDbEntity
  8
0
  6
Continuous
100
AcDbLine
 10
119.3673067953558
 20
126.5553911352832
 30
0.0
 11
119.3286152768703
 21
126.5499189511219
 31
0.0
  0
LINE
  5
449
330
E3
100
AcDbEntity
  8
0
  6
Continuous
100
AcDbLine
 10
119.3286152768703
 20
126.5499189511219
 30
0.0
 11
119.2918296378288
 21
126.5444467669607
 31
0.0
  0
LINE
  5
44A
330
E3
100
AcDbEntity
  8
0
  6
Continuous
100
AcDbLine
 10
119.2918296378288
 20
126.5444467669607
 30
0.0
 11
119.2572242093633
 21
126.5389745827995
 31
0.0
  0
LINE
  5
44B
330
E3
100
AcDbEntity
  8
0
  6
Continuous
100
AcDbLine
 10
119.2572242093633
 20
126.5389745827995
 30
0.0
 11
119.2250624937456
 21
126.5335023986383
 31
0.0
  0
LINE
  5
44C
330
E3
100
AcDbEntity
  8
0
  6
Continuous
100
AcDbLine
 10
119.2250624937456
 20
126.5335023986383
 30
0.0
 11
119.1955935547666
 21
126.5280338240972
 31
0.0
  0
LINE
  5
44D
330
E3
100
AcDbEntity
  8
0
  6
Continuous
100
AcDbLine
 10
119.1955935547666
 20
126.5280338240972
 30
0.0
 11
119.1690411888762
 21
126.522561639936
 31
0.0
  0
LINE
  5
44E
330
E3
100
AcDbEntity
  8
0
  6
Continuous
100
AcDbLine
 10
119.1690411888762
 20
126.522561639936
 30
0.0
 11
119.145603925183
 21
126.5170894557748
 31
0.0
  0
LINE
  5
44F
330
E3
100
AcDbEntity
  8
0
  6
Continuous
100
AcDbLine
 10
119.145603925183
 20
126.5170894557748
 30
0.0
 11
119.1254622446952
 21
126.5116172716136
 31
0.0
  0
LINE
  5
450
330
E3
100
AcDbEntity
  8
0
  6
Continuous
100
AcDbLine
 10
119.1254622446952
 20
126.5116172716136
 30
0.0
 11
119.1087713610794
 21
126.5061486970725
 31
0.0
  0
LINE
  5
451
330
E3
100
AcDbEntity
  8
0
  6
Continuous
100
AcDbLine
 10
119.1087713610794
 20
126.5061486970725
 30
0.0
 11
119.0956540014212
 21
126.5006765129113
 31
0.0
  0
LINE
  5
452
330
E3
100
AcDbEntity
  8
0
  6
Continuous
100
AcDbLine
 10
119.0956540014212
 20
126.5006765129113
 30
0.0
 11
119.0862148447051
 21
126.4952043287501
 31
0.0
  0
LINE
  5
453
330
E3
100
AcDbEntity
  8
0
  6
Continuous
100
AcDbLine
 10
119.0862148447051
 20
126.4952043287501
 30
0.0
 11
119.0805196730092
 21
126.4897330120616
 31
0.0
  0
LINE
  5
454
330
E3
100
AcDbEntity
  8
0
  6
Continuous
100
AcDbLine
 10
119.0805196730092
 20
126.4897330120616
 30
0.0
 11
119.0786170220551
 21
126.4842616315902
 31
0.0
  0
LINE
  5
455
330
E3
100
AcDbEntity
  8
0
  6
Continuous
100
AcDbLine
 10
120.0786170220551
 20
126.2872919346205
 30
0.0
 11
120.0767143711009
 21
126.2818205541491
 31
0.0
  0
LINE
  5
456
330
E3
100
AcDbEntity
  8
0
  6
Continuous
100
AcDbLine
 10
120.0767143711009
 20
126.2818205541491
 30
0.0
 11
120.0710208985612
 21
126.2763491736777
 31
0.0
  0
LINE
  5
457
330
E3
100
AcDbEntity
  8
0
  6
Continuous
100
AcDbLine
 10
120.0710208985612
 20
126.2763491736777
 30
0.0
 11
120.0615811367598
 21
126.2708772647216
 31
0.0
  0
LINE
  5
458
330
E3
100
AcDbEntity
  8
0
  6
Continuous
100
AcDbLine
 10
120.0615811367598
 20
126.2708772647216
 30
0.0
 11
120.0484637771016
 21
126.2654050805604
 31
0.0
  0
LINE
  5
459
330
E3
100
AcDbEntity
  8
0
  6
Continuous
100
AcDbLine
 10
120.0484637771016
 20
126.2654050805604
 30
0.0
 11
120.0317692838657
 21
126.2599365060194
 31
0.0
  0
LINE
  5
45A
330
E3
100
AcDbEntity
  8
0
  6
Continuous
100
AcDbLine
 10
120.0317692838657
 20
126.2599365060194
 30
0.0
 11
120.011631212998
 21
126.2544643218582
 31
0.0
  0
LINE
  5
45B
330
E3
100
AcDbEntity
  8
0
  6
Continuous
100
AcDbLine
 10
120.011631212998
 20
126.2544643218582
 30
0.0
 11
119.9881939493049
 21
126.2489921376969
 31
0.0
  0
LINE
  5
45C
330
E3
100
AcDbEntity
  8
0
  6
Continuous
100
AcDbLine
 10
119.9881939493049
 20
126.2489921376969
 30
0.0
 11
119.9616379737943
 21
126.2435199535357
 31
0.0
  0
LINE
  5
45D
330
E3
100
AcDbEntity
  8
0
  6
Continuous
100
AcDbLine
 10
119.9616379737943
 20
126.2435199535357
 30
0.0
 11
119.9321690348153
 21
126.2380477693745
 31
0.0
  0
LINE
  5
45E
330
E3
100
AcDbEntity
  8
0
  6
Continuous
100
AcDbLine
 10
119.9321690348153
 20
126.2380477693745
 30
0.0
 11
119.9000109288177
 21
126.2325791948334
 31
0.0
  0
LINE
  5
45F
330
E3
100
AcDbEntity
  8
0
  6
Continuous
100
AcDbLine
 10
119.9000109288177
 20
126.2325791948334
 30
0.0
 11
119.8654055003523
 21
126.2271070106722
 31
0.0
  0
LINE
  5
460
330
E3
100
AcDbEntity
  8
0
  6
Continuous
100
AcDbLine
 10
119.8654055003523
 20
126.2271070106722
 30
0.0
 11
119.8286162516906
 21
126.221634826511
 31
0.0
  0
LINE
  5
461
330
E3
100
AcDbEntity
  8
0
  6
Continuous
100
AcDbLine
 10
119.8286162516906
 20
126.221634826511
 30
0.0
 11
119.7899247332051
 21
126.2161626423498
 31
0.0
  0
LINE
  5
462
330
E3
100
AcDbEntity
  8
0
  6
Continuous
100
AcDbLine
 10
119.7899247332051
 20
126.2161626423498
 30
0.0
 11
119.7496269337487
 21
126.2106940678087
 31
0.0
  0
LINE
  5
463
330
E3
100
AcDbEntity
  8
0
  6
Continuous
100
AcDbLine
 10
119.7496269337487
 20
126.2106940678087
 30
0.0
 11
119.7080260614149
 21
126.2052218836475
 31
0.0
  0
LINE
  5
464
330
E3
100
AcDbEntity
  8
0
  6
Continuous
100
AcDbLine
 10
119.7080260614149
 20
126.2052218836475
 30
0.0
 11
119.6654397627777
 21
126.1997496994863
 31
0.0
  0
LINE
  5
465
330
E3
100
AcDbEntity
  8
0
  6
Continuous
100
AcDbLine
 10
119.6654397627777
 20
126.1997496994863
 30
0.0
 11
119.6221965132715
 21
126.1942775153251
 31
0.0
  0
LINE
  5
466
330
E3
100
AcDbEntity
  8
0
  6
Continuous
100
AcDbLine
 10
119.6221965132715
 20
126.1942775153251
 30
0.0
 11
119.5786175690905
 21
126.1888053311639
 31
0.0
  0
LINE
  5
467
330
E3
100
AcDbEntity
  8
0
  6
Continuous
100
AcDbLine
 10
119.5786175690905
 20
126.1888053311639
 30
0.0
 11
119.5350386249095
 21
126.1833367566228
 31
0.0
  0
LINE
  5
468
330
E3
100
AcDbEntity
  8
0
  6
Continuous
100
AcDbLine
 10
119.5350386249095
 20
126.1833367566228
 30
0.0
 11
119.4917917657832
 21
126.1778645724616
 31
0.0
  0
LINE
  5
469
330
E3
100
AcDbEntity
  8
0
  6
Continuous
100
AcDbLine
 10
119.4917917657832
 20
126.1778645724616
 30
0.0
 11
119.4492090767661
 21
126.1723923883004
 31
0.0
  0
LINE
  5
46A
330
E3
100
AcDbEntity
  8
0
  6
Continuous
100
AcDbLine
 10
119.4492090767661
 20
126.1723923883004
 30
0.0
 11
119.4076082044323
 21
126.1669202041392
 31
0.0
  0
LINE
  5
46B
330
E3
100
AcDbEntity
  8
0
  6
Continuous
100
AcDbLine
 10
119.4076082044323
 20
126.1669202041392
 30
0.0
 11
119.3673067953558
 21
126.1614516295981
 31
0.0
  0
LINE
  5
46C
330
E3
100
AcDbEntity
  8
0
  6
Continuous
100
AcDbLine
 10
119.3673067953558
 20
126.1614516295981
 30
0.0
 11
119.3286152768703
 21
126.1559794454369
 31
0.0
  0
LINE
  5
46D
330
E3
100
AcDbEntity
  8
0
  6
Continuous
100
AcDbLine
 10
119.3286152768703
 20
126.1559794454369
 30
0.0
 11
119.2918296378288
 21
126.1505072612756
 31
0.0
  0
LINE
  5
46E
330
E3
100
AcDbEntity
  8
0
  6
Continuous
100
AcDbLine
 10
119.2918296378288
 20
126.1505072612756
 30
0.0
 11
119.2572242093633
 21
126.1450350771144
 31
0.0
  0
LINE
  5
46F
330
E3
100
AcDbEntity
  8
0
  6
Continuous
100
AcDbLine
 10
119.2572242093633
 20
126.1450350771144
 30
0.0
 11
119.2250624937456
 21
126.1395628929533
 31
0.0
  0
LINE
  5
470
330
E3
100
AcDbEntity
  8
0
  6
Continuous
100
AcDbLine
 10
119.2250624937456
 20
126.1395628929533
 30
0.0
 11
119.1955935547666
 21
126.1340943184122
 31
0.0
  0
LINE
  5
471
330
E3
100
AcDbEntity
  8
0
  6
Continuous
100
AcDbLine
 10
119.1955935547666
 20
126.1340943184122
 30
0.0
 11
119.1690411888762
 21
126.128622134251
 31
0.0
  0
LINE
  5
472
330
E3
100
AcDbEntity
  8
0
  6
Continuous
100
AcDbLine
 10
119.1690411888762
 20
126.128622134251
 30
0.0
 11
119.145603925183
 21
126.1231499500897
 31
0.0
  0
LINE
  5
473
330
E3
100
AcDbEntity
  8
0
  6
Continuous
100
AcDbLine
 10
119.145603925183
 20
126.1231499500897
 30
0.0
 11
119.1254622446952
 21
126.1176777659285
 31
0.0
  0
LINE
  5
474
330
E3
100
AcDbEntity
  8
0
  6
Continuous
100
AcDbLine
 10
119.1254622446952
 20
126.1176777659285
 30
0.0
 11
119.1087713610794
 21
126.1122091913875
 31
0.0
  0
LINE
  5
475
330
E3
100
AcDbEntity
  8
0
  6
Continuous
100
AcDbLine
 10
119.1087713610794
 20
126.1122091913875
 30
0.0
 11
119.0956540014212
 21
126.1067370072262
 31
0.0
  0
LINE
  5
476
330
E3
100
AcDbEntity
  8
0
  6
Continuous
100
AcDbLine
 10
119.0956540014212
 20
126.1067370072262
 30
0.0
 11
119.0862148447051
 21
126.101264823065
 31
0.0
  0
LINE
  5
477
330
E3
100
AcDbEntity
  8
0
  6
Continuous
100
AcDbLine
 10
119.0862148447051
 20
126.101264823065
 30
0.0
 11
119.0805196730092
 21
126.0957936181222
 31
0.0
  0
LINE
  5
478
330
E3
100
AcDbEntity
  8
0
  6
Continuous
100
AcDbLine
 10
119.0805196730092
 20
126.0957936181222
 30
0.0
 11
119.0786170220551
 21
126.0903222376508
 31
0.0
  0
LINE
  5
479
330
E3
100
AcDbEntity
  8
0
  6
Continuous
100
AcDbLine
 10
120.0786170220551
 20
125.8933525406811
 30
0.0
 11
120.0767143711009
 21
125.8878811602097
 31
0.0
  0
LINE
  5
47A
330
E3
100
AcDbEntity
  8
0
  6
Continuous
100
AcDbLine
 10
120.0767143711009
 20
125.8878811602097
 30
0.0
 11
120.0710208985612
 21
125.8824097797384
 31
0.0
  0
LINE
  5
47B
330
E3
100
AcDbEntity
  8
0
  6
Continuous
100
AcDbLine
 10
120.0710208985612
 20
125.8824097797384
 30
0.0
 11
120.0615811367598
 21
125.8769377590366
 31
0.0
  0
LINE
  5
47C
330
E3
100
AcDbEntity
  8
0
  6
Continuous
100
AcDbLine
 10
120.0615811367598
 20
125.8769377590366
 30
0.0
 11
120.0484637771016
 21
125.8714655748754
 31
0.0
  0
LINE
  5
47D
330
E3
100
AcDbEntity
  8
0
  6
Continuous
100
AcDbLine
 10
120.0484637771016
 20
125.8714655748754
 30
0.0
 11
120.0317692838657
 21
125.8659970003343
 31
0.0
  0
LINE
  5
47E
330
E3
100
AcDbEntity
  8
0
  6
Continuous
100
AcDbLine
 10
120.0317692838657
 20
125.8659970003343
 30
0.0
 11
120.011631212998
 21
125.8605248161731
 31
0.0
  0
LINE
  5
47F
330
E3
100
AcDbEntity
  8
0
  6
Continuous
100
AcDbLine
 10
120.011631212998
 20
125.8605248161731
 30
0.0
 11
119.9881939493049
 21
125.8550526320118
 31
0.0
  0
LINE
  5
480
330
E3
100
AcDbEntity
  8
0
  6
Continuous
100
AcDbLine
 10
119.9881939493049
 20
125.8550526320118
 30
0.0
 11
119.9616379737943
 21
125.8495804478506
 31
0.0
  0
LINE
  5
481
330
E3
100
AcDbEntity
  8
0
  6
Continuous
100
AcDbLine
 10
119.9616379737943
 20
125.8495804478506
 30
0.0
 11
119.9321690348153
 21
125.8441118733096
 31
0.0
  0
LINE
  5
482
330
E3
100
AcDbEntity
  8
0
  6
Continuous
100
AcDbLine
 10
119.9321690348153
 20
125.8441118733096
 30
0.0
 11
119.9000109288177
 21
125.8386396891484
 31
0.0
  0
LINE
  5
483
330
E3
100
AcDbEntity
  8
0
  6
Continuous
100
AcDbLine
 10
119.9000109288177
 20
125.8386396891484
 30
0.0
 11
119.8654055003523
 21
125.8331675049871
 31
0.0
  0
LINE
  5
484
330
E3
100
AcDbEntity
  8
0
  6
Continuous
100
AcDbLine
 10
119.8654055003523
 20
125.8331675049871
 30
0.0
 11
119.8286162516906
 21
125.8276953208259
 31
0.0
  0
LINE
  5
485
330
E3
100
AcDbEntity
  8
0
  6
Continuous
100
AcDbLine
 10
119.8286162516906
 20
125.8276953208259
 30
0.0
 11
119.7899247332051
 21
125.8222231366647
 31
0.0
  0
LINE
  5
486
330
E3
100
AcDbEntity
  8
0
  6
Continuous
100
AcDbLine
 10
119.7899247332051
 20
125.8222231366647
 30
0.0
 11
119.7496269337487
 21
125.8167545621237
 31
0.0
  0
LINE
  5
487
330
E3
100
AcDbEntity
  8
0
  6
Continuous
100
AcDbLine
 10
119.7496269337487
 20
125.8167545621237
 30
0.0
 11
119.7080260614149
 21
125.8112823779625
 31
0.0
  0
LINE
  5
488
330
E3
100
AcDbEntity
  8
0
  6
Continuous
100
AcDbLine
 10
119.7080260614149
 20
125.8112823779625
 30
0.0
 11
119.6654397627777
 21
125.8058101938012
 31
0.0
  0
LINE
  5
489
330
E3
100
AcDbEntity
  8
0
  6
Continuous
100
AcDbLine
 10
119.6654397627777
 20
125.8058101938012
 30
0.0
 11
119.6221965132715
 21
125.80033800964
 31
0.0
  0
LINE
  5
48A
330
E3
100
AcDbEntity
  8
0
  6
Continuous
100
AcDbLine
 10
119.6221965132715
 20
125.80033800964
 30
0.0
 11
119.5786175690905
 21
125.7948694350989
 31
0.0
  0
LINE
  5
48B
330
E3
100
AcDbEntity
  8
0
  6
Continuous
100
AcDbLine
 10
119.5786175690905
 20
125.7948694350989
 30
0.0
 11
119.5350386249095
 21
125.7893972509377
 31
0.0
  0
LINE
  5
48C
330
E3
100
AcDbEntity
  8
0
  6
Continuous
100
AcDbLine
 10
119.5350386249095
 20
125.7893972509377
 30
0.0
 11
119.4917917657832
 21
125.7839250667765
 31
0.0
  0
LINE
  5
48D
330
E3
100
AcDbEntity
  8
0
  6
Continuous
100
AcDbLine
 10
119.4917917657832
 20
125.7839250667765
 30
0.0
 11
119.4492090767661
 21
125.7784528826153
 31
0.0
  0
LINE
  5
48E
330
E3
100
AcDbEntity
  8
0
  6
Continuous
100
AcDbLine
 10
119.4492090767661
 20
125.7784528826153
 30
0.0
 11
119.4076082044323
 21
125.7729806984541
 31
0.0
  0
LINE
  5
48F
330
E3
100
AcDbEntity
  8
0
  6
Continuous
100
AcDbLine
 10
119.4076082044323
 20
125.7729806984541
 30
0.0
 11
119.3673067953558
 21
125.767512123913
 31
0.0
  0
LINE
  5
490
330
E3
100
AcDbEntity
  8
0
  6
Continuous
100
AcDbLine
 10
119.3673067953558
 20
125.767512123913
 30
0.0
 11
119.3286152768703
 21
125.7620399397518
 31
0.0
  0
LINE
  5
491
330
E3
100
AcDbEntity
  8
0
  6
Continuous
100
AcDbLine
 10
119.3286152768703
 20
125.7620399397518
 30
0.0
 11
119.2918296378288
 21
125.7565677555906
 31
0.0
  0
LINE
  5
492
330
E3
100
AcDbEntity
  8
0
  6
Continuous
100
AcDbLine
 10
119.2918296378288
 20
125.7565677555906
 30
0.0
 11
119.2572242093633
 21
125.7510955714294
 31
0.0
  0
LINE
  5
493
330
E3
100
AcDbEntity
  8
0
  6
Continuous
100
AcDbLine
 10
119.2572242093633
 20
125.7510955714294
 30
0.0
 11
119.2250624937456
 21
125.7456269968883
 31
0.0
  0
LINE
  5
494
330
E3
100
AcDbEntity
  8
0
  6
Continuous
100
AcDbLine
 10
119.2250624937456
 20
125.7456269968883
 30
0.0
 11
119.1955935547666
 21
125.7401548127271
 31
0.0
  0
LINE
  5
495
330
E3
100
AcDbEntity
  8
0
  6
Continuous
100
AcDbLine
 10
119.1955935547666
 20
125.7401548127271
 30
0.0
 11
119.1690411888762
 21
125.7346826285659
 31
0.0
  0
LINE
  5
496
330
E3
100
AcDbEntity
  8
0
  6
Continuous
100
AcDbLine
 10
119.1690411888762
 20
125.7346826285659
 30
0.0
 11
119.145603925183
 21
125.7292104444047
 31
0.0
  0
LINE
  5
497
330
E3
100
AcDbEntity
  8
0
  6
Continuous
100
AcDbLine
 10
119.145603925183
 20
125.7292104444047
 30
0.0
 11
119.1254622446952
 21
125.7237382602435
 31
0.0
  0
LINE
  5
498
330
E3
100
AcDbEntity
  8
0
  6
Continuous
100
AcDbLine
 10
119.1254622446952
 20
125.7237382602435
 30
0.0
 11
119.1087713610794
 21
125.7182696857024
 31
0.0
  0
LINE
  5
499
330
E3
100
AcDbEntity
  8
0
  6
Continuous
100
AcDbLine
 10
119.1087713610794
 20
125.7182696857024
 30
0.0
 11
119.0956540014212
 21
125.7127975015412
 31
0.0
  0
LINE
  5
49A
330
E3
100
AcDbEntity
  8
0
  6
Continuous
100
AcDbLine
 10
119.0956540014212
 20
125.7127975015412
 30
0.0
 11
119.0862148447051
 21
125.70732531738
 31
0.0
  0
LINE
  5
49B
330
E3
100
AcDbEntity
  8
0
  6
Continuous
100
AcDbLine
 10
119.0862148447051
 20
125.70732531738
 30
0.0
 11
119.0805196730092
 21
125.7018542241828
 31
0.0
  0
LINE
  5
49C
330
E3
100
AcDbEntity
  8
0
  6
Continuous
100
AcDbLine
 10
119.0805196730092
 20
125.7018542241828
 30
0.0
 11
119.0786170220551
 21
125.6963828437114
 31
0.0
  0
LINE
  5
49D
330
E3
100
AcDbEntity
  8
0
  6
Continuous
100
AcDbLine
 10
120.0786170220551
 20
125.4994131467417
 30
0.0
 11
120.0767143711009
 21
125.4939417662704
 31
0.0
  0
LINE
  5
49E
330
E3
100
AcDbEntity
  8
0
  6
Continuous
100
AcDbLine
 10
120.0767143711009
 20
125.4939417662704
 30
0.0
 11
120.0710208985612
 21
125.488470385799
 31
0.0
  0
LINE
  5
49F
330
E3
100
AcDbEntity
  8
0
  6
Continuous
100
AcDbLine
 10
120.0710208985612
 20
125.488470385799
 30
0.0
 11
120.0615811367598
 21
125.4829982533515
 31
0.0
  0
LINE
  5
4A0
330
E3
100
AcDbEntity
  8
0
  6
Continuous
100
AcDbLine
 10
120.0615811367598
 20
125.4829982533515
 30
0.0
 11
120.0484637771016
 21
125.4775260691903
 31
0.0
  0
LINE
  5
4A1
330
E3
100
AcDbEntity
  8
0
  6
Continuous
100
AcDbLine
 10
120.0484637771016
 20
125.4775260691903
 30
0.0
 11
120.0317692838657
 21
125.4720574946492
 31
0.0
  0
LINE
  5
4A2
330
E3
100
AcDbEntity
  8
0
  6
Continuous
100
AcDbLine
 10
120.0317692838657
 20
125.4720574946492
 30
0.0
 11
120.011631212998
 21
125.466585310488
 31
0.0
  0
LINE
  5
4A3
330
E3
100
AcDbEntity
  8
0
  6
Continuous
100
AcDbLine
 10
120.011631212998
 20
125.466585310488
 30
0.0
 11
119.9881939493049
 21
125.4611131263268
 31
0.0
  0
LINE
  5
4A4
330
E3
100
AcDbEntity
  8
0
  6
Continuous
100
AcDbLine
 10
119.9881939493049
 20
125.4611131263268
 30
0.0
 11
119.9616379737943
 21
125.4556409421655
 31
0.0
  0
LINE
  5
4A5
330
E3
100
AcDbEntity
  8
0
  6
Continuous
100
AcDbLine
 10
119.9616379737943
 20
125.4556409421655
 30
0.0
 11
119.9321690348153
 21
125.4501723676245
 31
0.0
  0
LINE
  5
4A6
330
E3
100
AcDbEntity
  8
0
  6
Continuous
100
AcDbLine
 10
119.9321690348153
 20
125.4501723676245
 30
0.0
 11
119.9000109288177
 21
125.4447001834633
 31
0.0
  0
LINE
  5
4A7
330
E3
100
AcDbEntity
  8
0
  6
Continuous
100
AcDbLine
 10
119.9000109288177
 20
125.4447001834633
 30
0.0
 11
119.8654055003523
 21
125.4392279993021
 31
0.0
  0
LINE
  5
4A8
330
E3
100
AcDbEntity
  8
0
  6
Continuous
100
AcDbLine
 10
119.8654055003523
 20
125.4392279993021
 30
0.0
 11
119.8286162516906
 21
125.4337558151409
 31
0.0
  0
LINE
  5
4A9
330
E3
100
AcDbEntity
  8
0
  6
Continuous
100
AcDbLine
 10
119.8286162516906
 20
125.4337558151409
 30
0.0
 11
119.7899247332051
 21
125.4282836309797
 31
0.0
  0
LINE
  5
4AA
330
E3
100
AcDbEntity
  8
0
  6
Continuous
100
AcDbLine
 10
119.7899247332051
 20
125.4282836309797
 30
0.0
 11
119.7496269337487
 21
125.4228150564386
 31
0.0
  0
LINE
  5
4AB
330
E3
100
AcDbEntity
  8
0
  6
Continuous
100
AcDbLine
 10
119.7496269337487
 20
125.4228150564386
 30
0.0
 11
119.7080260614149
 21
125.4173428722774
 31
0.0
  0
LINE
  5
4AC
330
E3
100
AcDbEntity
  8
0
  6
Continuous
100
AcDbLine
 10
119.7080260614149
 20
125.4173428722774
 30
0.0
 11
119.6654397627777
 21
125.4118706881162
 31
0.0
  0
LINE
  5
4AD
330
E3
100
AcDbEntity
  8
0
  6
Continuous
100
AcDbLine
 10
119.6654397627777
 20
125.4118706881162
 30
0.0
 11
119.6221965132715
 21
125.4063985039549
 31
0.0
  0
LINE
  5
4AE
330
E3
100
AcDbEntity
  8
0
  6
Continuous
100
AcDbLine
 10
119.6221965132715
 20
125.4063985039549
 30
0.0
 11
119.5786175690905
 21
125.4009299294139
 31
0.0
  0
LINE
  5
4AF
330
E3
100
AcDbEntity
  8
0
  6
Continuous
100
AcDbLine
 10
119.5786175690905
 20
125.4009299294139
 30
0.0
 11
119.5350386249095
 21
125.3954577452527
 31
0.0
  0
LINE
  5
4B0
330
E3
100
AcDbEntity
  8
0
  6
Continuous
100
AcDbLine
 10
119.5350386249095
 20
125.3954577452527
 30
0.0
 11
119.4917917657832
 21
125.3899855610914
 31
0.0
  0
LINE
  5
4B1
330
E3
100
AcDbEntity
  8
0
  6
Continuous
100
AcDbLine
 10
119.4917917657832
 20
125.3899855610914
 30
0.0
 11
119.4492090767661
 21
125.3845133769302
 31
0.0
  0
LINE
  5
4B2
330
E3
100
AcDbEntity
  8
0
  6
Continuous
100
AcDbLine
 10
119.4492090767661
 20
125.3845133769302
 30
0.0
 11
119.4076082044323
 21
125.379041192769
 31
0.0
  0
LINE
  5
4B3
330
E3
100
AcDbEntity
  8
0
  6
Continuous
100
AcDbLine
 10
119.4076082044323
 20
125.379041192769
 30
0.0
 11
119.3673067953558
 21
125.373572618228
 31
0.0
  0
LINE
  5
4B4
330
E3
100
AcDbEntity
  8
0
  6
Continuous
100
AcDbLine
 10
119.3673067953558
 20
125.373572618228
 30
0.0
 11
119.3286152768703
 21
125.3681004340668
 31
0.0
  0
LINE
  5
4B5
330
E3
100
AcDbEntity
  8
0
  6
Continuous
100
AcDbLine
 10
119.3286152768703
 20
125.3681004340668
 30
0.0
 11
119.2918296378288
 21
125.3626282499055
 31
0.0
  0
LINE
  5
4B6
330
E3
100
AcDbEntity
  8
0
  6
Continuous
100
AcDbLine
 10
119.2918296378288
 20
125.3626282499055
 30
0.0
 11
119.2572242093633
 21
125.3571560657443
 31
0.0
  0
LINE
  5
4B7
330
E3
100
AcDbEntity
  8
0
  6
Continuous
100
AcDbLine
 10
119.2572242093633
 20
125.3571560657443
 30
0.0
 11
119.2250624937456
 21
125.3516874912032
 31
0.0
  0
LINE
  5
4B8
330
E3
100
AcDbEntity
  8
0
  6
Continuous
100
AcDbLine
 10
119.2250624937456
 20
125.3516874912032
 30
0.0
 11
119.1955935547666
 21
125.346215307042
 31
0.0
  0
LINE
  5
4B9
330
E3
100
AcDbEntity
  8
0
  6
Continuous
100
AcDbLine
 10
119.1955935547666
 20
125.346215307042
 30
0.0
 11
119.1690411888762
 21
125.3407431228808
 31
0.0
  0
LINE
  5
4BA
330
E3
100
AcDbEntity
  8
0
  6
Continuous
100
AcDbLine
 10
119.1690411888762
 20
125.3407431228808
 30
0.0
 11
119.145603925183
 21
125.3352709387196
 31
0.0
  0
LINE
  5
4BB
330
E3
100
AcDbEntity
  8
0
  6
Continuous
100
AcDbLine
 10
119.145603925183
 20
125.3352709387196
 30
0.0
 11
119.1254622446952
 21
125.3297987545584
 31
0.0
  0
LINE
  5
4BC
330
E3
100
AcDbEntity
  8
0
  6
Continuous
100
AcDbLine
 10
119.1254622446952
 20
125.3297987545584
 30
0.0
 11
119.1087713610794
 21
125.3243301800173
 31
0.0
  0
LINE
  5
4BD
330
E3
100
AcDbEntity
  8
0
  6
Continuous
100
AcDbLine
 10
119.1087713610794
 20
125.3243301800173
 30
0.0
 11
119.0956540014212
 21
125.3188579958561
 31
0.0
  0
LINE
  5
4BE
330
E3
100
AcDbEntity
  8
0
  6
Continuous
100
AcDbLine
 10
119.0956540014212
 20
125.3188579958561
 30
0.0
 11
119.0862148447051
 21
125.3133858116949
 31
0.0
  0
LINE
  5
4BF
330
E3
100
AcDbEntity
  8
0
  6
Continuous
100
AcDbLine
 10
119.0862148447051
 20
125.3133858116949
 30
0.0
 11
119.0805196730092
 21
125.3079148302434
 31
0.0
  0
LINE
  5
4C0
330
E3
100
AcDbEntity
  8
0
  6
Continuous
100
AcDbLine
 10
119.0805196730092
 20
125.3079148302434
 30
0.0
 11
119.0786170220551
 21
125.302443449772
 31
0.0
  0
LINE
  5
4C1
330
E3
100
AcDbEntity
  8
0
  6
Continuous
100
AcDbLine
 10
120.0786170220551
 20
125.1054737528023
 30
0.0
 11
120.0767143711009
 21
125.1000023723309
 31
0.0
  0
LINE
  5
4C2
330
E3
100
AcDbEntity
  8
0
  6
Continuous
100
AcDbLine
 10
120.0767143711009
 20
125.1000023723309
 30
0.0
 11
120.0710208985612
 21
125.0945309918596
 31
0.0
  0
LINE
  5
4C3
330
E3
100
AcDbEntity
  8
0
  6
Continuous
100
AcDbLine
 10
120.0710208985612
 20
125.0945309918596
 30
0.0
 11
120.0615811367598
 21
125.0890587476664
 31
0.0
  0
LINE
  5
4C4
330
E3
100
AcDbEntity
  8
0
  6
Continuous
100
AcDbLine
 10
120.0615811367598
 20
125.0890587476664
 30
0.0
 11
120.0484637771016
 21
125.0835865635052
 31
0.0
  0
LINE
  5
4C5
330
E3
100
AcDbEntity
  8
0
  6
Continuous
100
AcDbLine
 10
120.0484637771016
 20
125.0835865635052
 30
0.0
 11
120.0317692838657
 21
125.0781179889642
 31
0.0
  0
LINE
  5
4C6
330
E3
100
AcDbEntity
  8
0
  6
Continuous
100
AcDbLine
 10
120.0317692838657
 20
125.0781179889642
 30
0.0
 11
120.011631212998
 21
125.0726458048029
 31
0.0
  0
LINE
  5
4C7
330
E3
100
AcDbEntity
  8
0
  6
Continuous
100
AcDbLine
 10
120.011631212998
 20
125.0726458048029
 30
0.0
 11
119.9881939493049
 21
125.0671736206417
 31
0.0
  0
LINE
  5
4C8
330
E3
100
AcDbEntity
  8
0
  6
Continuous
100
AcDbLine
 10
119.9881939493049
 20
125.0671736206417
 30
0.0
 11
119.9616379737943
 21
125.0617014364805
 31
0.0
  0
LINE
  5
4C9
330
E3
100
AcDbEntity
  8
0
  6
Continuous
100
AcDbLine
 10
119.9616379737943
 20
125.0617014364805
 30
0.0
 11
119.9321690348153
 21
125.0562328619394
 31
0.0
  0
LINE
  5
4CA
330
E3
100
AcDbEntity
  8
0
  6
Continuous
100
AcDbLine
 10
119.9321690348153
 20
125.0562328619394
 30
0.0
 11
119.9000109288177
 21
125.0507606777782
 31
0.0
  0
LINE
  5
4CB
330
E3
100
AcDbEntity
  8
0
  6
Continuous
100
AcDbLine
 10
119.9000109288177
 20
125.0507606777782
 30
0.0
 11
119.8654055003523
 21
125.045288493617
 31
0.0
  0
LINE
  5
4CC
330
E3
100
AcDbEntity
  8
0
  6
Continuous
100
AcDbLine
 10
119.8654055003523
 20
125.045288493617
 30
0.0
 11
119.8286162516906
 21
125.0398163094558
 31
0.0
  0
LINE
  5
4CD
330
E3
100
AcDbEntity
  8
0
  6
Continuous
100
AcDbLine
 10
119.8286162516906
 20
125.0398163094558
 30
0.0
 11
119.7899247332051
 21
125.0343441252946
 31
0.0
  0
LINE
  5
4CE
330
E3
100
AcDbEntity
  8
0
  6
Continuous
100
AcDbLine
 10
119.7899247332051
 20
125.0343441252946
 30
0.0
 11
119.7496269337487
 21
125.0288755507535
 31
0.0
  0
LINE
  5
4CF
330
E3
100
AcDbEntity
  8
0
  6
Continuous
100
AcDbLine
 10
119.7496269337487
 20
125.0288755507535
 30
0.0
 11
119.7080260614149
 21
125.0234033665923
 31
0.0
  0
LINE
  5
4D0
330
E3
100
AcDbEntity
  8
0
  6
Continuous
100
AcDbLine
 10
119.7080260614149
 20
125.0234033665923
 30
0.0
 11
119.6654397627777
 21
125.0179311824311
 31
0.0
  0
LINE
  5
4D1
330
E3
100
AcDbEntity
  8
0
  6
Continuous
100
AcDbLine
 10
119.6654397627777
 20
125.0179311824311
 30
0.0
 11
119.6221965132715
 21
125.0124589982699
 31
0.0
  0
LINE
  5
4D2
330
E3
100
AcDbEntity
  8
0
  6
Continuous
100
AcDbLine
 10
119.6221965132715
 20
125.0124589982699
 30
0.0
 11
119.5786175690905
 21
125.0069904237288
 31
0.0
  0
LINE
  5
4D3
330
E3
100
AcDbEntity
  8
0
  6
Continuous
100
AcDbLine
 10
119.5786175690905
 20
125.0069904237288
 30
0.0
 11
119.5350386249095
 21
125.0015182395676
 31
0.0
  0
LINE
  5
4D4
330
E3
100
AcDbEntity
  8
0
  6
Continuous
100
AcDbLine
 10
119.5350386249095
 20
125.0015182395676
 30
0.0
 11
119.4917917657832
 21
124.9960460554064
 31
0.0
  0
LINE
  5
4D5
330
E3
100
AcDbEntity
  8
0
  6
Continuous
100
AcDbLine
 10
119.4917917657832
 20
124.9960460554064
 30
0.0
 11
119.4492090767661
 21
124.9905738712452
 31
0.0
  0
LINE
  5
4D6
330
E3
100
AcDbEntity
  8
0
  6
Continuous
100
AcDbLine
 10
119.4492090767661
 20
124.9905738712452
 30
0.0
 11
119.4076082044323
 21
124.9851016870839
 31
0.0
  0
LINE
  5
4D7
330
E3
100
AcDbEntity
  8
0
  6
Continuous
100
AcDbLine
 10
119.4076082044323
 20
124.9851016870839
 30
0.0
 11
119.3673067953558
 21
124.9796331125429
 31
0.0
  0
LINE
  5
4D8
330
E3
100
AcDbEntity
  8
0
  6
Continuous
100
AcDbLine
 10
119.3673067953558
 20
124.9796331125429
 30
0.0
 11
119.3286152768703
 21
124.9741609283817
 31
0.0
  0
LINE
  5
4D9
330
E3
100
AcDbEntity
  8
0
  6
Continuous
100
AcDbLine
 10
119.3286152768703
 20
124.9741609283817
 30
0.0
 11
119.2918296378288
 21
124.9686887442205
 31
0.0
  0
LINE
  5
4DA
330
E3
100
AcDbEntity
  8
0
  6
Continuous
100
AcDbLine
 10
119.2918296378288
 20
124.9686887442205
 30
0.0
 11
119.2572242093633
 21
124.9632165600592
 31
0.0
  0
LINE
  5
4DB
330
E3
100
AcDbEntity
  8
0
  6
Continuous
100
AcDbLine
 10
119.2572242093633
 20
124.9632165600592
 30
0.0
 11
119.2250624937456
 21
124.9577479855182
 31
0.0
  0
LINE
  5
4DC
330
E3
100
AcDbEntity
  8
0
  6
Continuous
100
AcDbLine
 10
119.2250624937456
 20
124.9577479855182
 30
0.0
 11
119.1955935547666
 21
124.952275801357
 31
0.0
  0
LINE
  5
4DD
330
E3
100
AcDbEntity
  8
0
  6
Continuous
100
AcDbLine
 10
119.1955935547666
 20
124.952275801357
 30
0.0
 11
119.1690411888762
 21
124.9468036171958
 31
0.0
  0
LINE
  5
4DE
330
E3
100
AcDbEntity
  8
0
  6
Continuous
100
AcDbLine
 10
119.1690411888762
 20
124.9468036171958
 30
0.0
 11
119.145603925183
 21
124.9413314330345
 31
0.0
  0
LINE
  5
4DF
330
E3
100
AcDbEntity
  8
0
  6
Continuous
100
AcDbLine
 10
119.145603925183
 20
124.9413314330345
 30
0.0
 11
119.1254622446952
 21
124.9358592488733
 31
0.0
  0
LINE
  5
4E0
330
E3
100
AcDbEntity
  8
0
  6
Continuous
100
AcDbLine
 10
119.1254622446952
 20
124.9358592488733
 30
0.0
 11
119.1087713610794
 21
124.9303906743323
 31
0.0
  0
LINE
  5
4E1
330
E3
100
AcDbEntity
  8
0
  6
Continuous
100
AcDbLine
 10
119.1087713610794
 20
124.9303906743323
 30
0.0
 11
119.0956540014212
 21
124.924918490171
 31
0.0
  0
LINE
  5
4E2
330
E3
100
AcDbEntity
  8
0
  6
Continuous
100
AcDbLine
 10
119.0956540014212
 20
124.924918490171
 30
0.0
 11
119.0862148447051
 21
124.9194463060098
 31
0.0
  0
LINE
  5
4E3
330
E3
100
AcDbEntity
  8
0
  6
Continuous
100
AcDbLine
 10
119.0862148447051
 20
124.9194463060098
 30
0.0
 11
119.0805196730092
 21
124.913975436304
 31
0.0
  0
LINE
  5
4E4
330
E3
100
AcDbEntity
  8
0
  6
Continuous
100
AcDbLine
 10
119.0805196730092
 20
124.913975436304
 30
0.0
 11
119.0786170220551
 21
124.9085040558326
 31
0.0
  0
LINE
  5
4E5
330
E3
100
AcDbEntity
  8
0
  6
Continuous
100
AcDbLine
 10
120.0786170220551
 20
124.7115343588629
 30
0.0
 11
120.0767143711009
 21
124.7060629783916
 31
0.0
  0
LINE
  5
4E6
330
E3
100
AcDbEntity
  8
0
  6
Continuous
100
AcDbLine
 10
120.0767143711009
 20
124.7060629783916
 30
0.0
 11
120.0710208985612
 21
124.7005915979202
 31
0.0
  0
LINE
  5
4E7
330
E3
100
AcDbEntity
  8
0
  6
Continuous
100
AcDbLine
 10
120.0710208985612
 20
124.7005915979202
 30
0.0
 11
120.0615811367598
 21
124.6951192419814
 31
0.0
  0
LINE
  5
4E8
330
E3
100
AcDbEntity
  8
0
  6
Continuous
100
AcDbLine
 10
120.0615811367598
 20
124.6951192419814
 30
0.0
 11
120.0484637771016
 21
124.6896470578202
 31
0.0
  0
LINE
  5
4E9
330
E3
100
AcDbEntity
  8
0
  6
Continuous
100
AcDbLine
 10
120.0484637771016
 20
124.6896470578202
 30
0.0
 11
120.0317692838657
 21
124.6841784832791
 31
0.0
  0
LINE
  5
4EA
330
E3
100
AcDbEntity
  8
0
  6
Continuous
100
AcDbLine
 10
120.0317692838657
 20
124.6841784832791
 30
0.0
 11
120.011631212998
 21
124.6787062991179
 31
0.0
  0
LINE
  5
4EB
330
E3
100
AcDbEntity
  8
0
  6
Continuous
100
AcDbLine
 10
120.011631212998
 20
124.6787062991179
 30
0.0
 11
119.9881939493049
 21
124.6732341149567
 31
0.0
  0
LINE
  5
4EC
330
E3
100
AcDbEntity
  8
0
  6
Continuous
100
AcDbLine
 10
119.9881939493049
 20
124.6732341149567
 30
0.0
 11
119.9616379737943
 21
124.6677619307954
 31
0.0
  0
LINE
  5
4ED
330
E3
100
AcDbEntity
  8
0
  6
Continuous
100
AcDbLine
 10
119.9616379737943
 20
124.6677619307954
 30
0.0
 11
119.9321690348153
 21
124.6622933562544
 31
0.0
  0
LINE
  5
4EE
330
E3
100
AcDbEntity
  8
0
  6
Continuous
100
AcDbLine
 10
119.9321690348153
 20
124.6622933562544
 30
0.0
 11
119.9000109288177
 21
124.6568211720932
 31
0.0
  0
LINE
  5
4EF
330
E3
100
AcDbEntity
  8
0
  6
Continuous
100
AcDbLine
 10
119.9000109288177
 20
124.6568211720932
 30
0.0
 11
119.8654055003523
 21
124.6513489879319
 31
0.0
  0
LINE
  5
4F0
330
E3
100
AcDbEntity
  8
0
  6
Continuous
100
AcDbLine
 10
119.8654055003523
 20
124.6513489879319
 30
0.0
 11
119.8286162516906
 21
124.6458768037707
 31
0.0
  0
LINE
  5
4F1
330
E3
100
AcDbEntity
  8
0
  6
Continuous
100
AcDbLine
 10
119.8286162516906
 20
124.6458768037707
 30
0.0
 11
119.7899247332051
 21
124.6404046196095
 31
0.0
  0
LINE
  5
4F2
330
E3
100
AcDbEntity
  8
0
  6
Continuous
100
AcDbLine
 10
119.7899247332051
 20
124.6404046196095
 30
0.0
 11
119.7496269337487
 21
124.6349360450685
 31
0.0
  0
LINE
  5
4F3
330
E3
100
AcDbEntity
  8
0
  6
Continuous
100
AcDbLine
 10
119.7496269337487
 20
124.6349360450685
 30
0.0
 11
119.7080260614149
 21
124.6294638609073
 31
0.0
  0
LINE
  5
4F4
330
E3
100
AcDbEntity
  8
0
  6
Continuous
100
AcDbLine
 10
119.7080260614149
 20
124.6294638609073
 30
0.0
 11
119.6654397627777
 21
124.623991676746
 31
0.0
  0
LINE
  5
4F5
330
E3
100
AcDbEntity
  8
0
  6
Continuous
100
AcDbLine
 10
119.6654397627777
 20
124.623991676746
 30
0.0
 11
119.6221965132715
 21
124.6185194925848
 31
0.0
  0
LINE
  5
4F6
330
E3
100
AcDbEntity
  8
0
  6
Continuous
100
AcDbLine
 10
119.6221965132715
 20
124.6185194925848
 30
0.0
 11
119.5786175690905
 21
124.6130509180438
 31
0.0
  0
LINE
  5
4F7
330
E3
100
AcDbEntity
  8
0
  6
Continuous
100
AcDbLine
 10
119.5786175690905
 20
124.6130509180438
 30
0.0
 11
119.5350386249095
 21
124.6075787338825
 31
0.0
  0
LINE
  5
4F8
330
E3
100
AcDbEntity
  8
0
  6
Continuous
100
AcDbLine
 10
119.5350386249095
 20
124.6075787338825
 30
0.0
 11
119.4917917657832
 21
124.6021065497213
 31
0.0
  0
LINE
  5
4F9
330
E3
100
AcDbEntity
  8
0
  6
Continuous
100
AcDbLine
 10
119.4917917657832
 20
124.6021065497213
 30
0.0
 11
119.4492090767661
 21
124.5966343655601
 31
0.0
  0
LINE
  5
4FA
330
E3
100
AcDbEntity
  8
0
  6
Continuous
100
AcDbLine
 10
119.4492090767661
 20
124.5966343655601
 30
0.0
 11
119.4076082044323
 21
124.591165791019
 31
0.0
  0
LINE
  5
4FB
330
E3
100
AcDbEntity
  8
0
  6
Continuous
100
AcDbLine
 10
119.4076082044323
 20
124.591165791019
 30
0.0
 11
119.3673067953558
 21
124.5856936068578
 31
0.0
  0
LINE
  5
4FC
330
E3
100
AcDbEntity
  8
0
  6
Continuous
100
AcDbLine
 10
119.3673067953558
 20
124.5856936068578
 30
0.0
 11
119.3286152768703
 21
124.5802214226966
 31
0.0
  0
LINE
  5
4FD
330
E3
100
AcDbEntity
  8
0
  6
Continuous
100
AcDbLine
 10
119.3286152768703
 20
124.5802214226966
 30
0.0
 11
119.2918296378288
 21
124.5747492385354
 31
0.0
  0
LINE
  5
4FE
330
E3
100
AcDbEntity
  8
0
  6
Continuous
100
AcDbLine
 10
119.2918296378288
 20
124.5747492385354
 30
0.0
 11
119.2572242093633
 21
124.5692770543742
 31
0.0
  0
LINE
  5
4FF
330
E3
100
AcDbEntity
  8
0
  6
Continuous
100
AcDbLine
 10
119.2572242093633
 20
124.5692770543742
 30
0.0
 11
119.2250624937456
 21
124.5638084798331
 31
0.0
  0
LINE
  5
500
330
E3
100
AcDbEntity
  8
0
  6
Continuous
100
AcDbLine
 10
119.2250624937456
 20
124.5638084798331
 30
0.0
 11
119.1955935547666
 21
124.5583362956719
 31
0.0
  0
LINE
  5
501
330
E3
100
AcDbEntity
  8
0
  6
Continuous
100
AcDbLine
 10
119.1955935547666
 20
124.5583362956719
 30
0.0
 11
119.1690411888762
 21
124.5528641115107
 31
0.0
  0
LINE
  5
502
330
E3
100
AcDbEntity
  8
0
  6
Continuous
100
AcDbLine
 10
119.1690411888762
 20
124.5528641115107
 30
0.0
 11
119.145603925183
 21
124.5473919273495
 31
0.0
  0
LINE
  5
503
330
E3
100
AcDbEntity
  8
0
  6
Continuous
100
AcDbLine
 10
119.145603925183
 20
124.5473919273495
 30
0.0
 11
119.1254622446952
 21
124.5419233528084
 31
0.0
  0
LINE
  5
504
330
E3
100
AcDbEntity
  8
0
  6
Continuous
100
AcDbLine
 10
119.1254622446952
 20
124.5419233528084
 30
0.0
 11
119.1087713610794
 21
124.5364511686472
 31
0.0
  0
LINE
  5
505
330
E3
100
AcDbEntity
  8
0
  6
Continuous
100
AcDbLine
 10
119.1087713610794
 20
124.5364511686472
 30
0.0
 11
119.0956540014212
 21
124.530978984486
 31
0.0
  0
LINE
  5
506
330
E3
100
AcDbEntity
  8
0
  6
Continuous
100
AcDbLine
 10
119.0956540014212
 20
124.530978984486
 30
0.0
 11
119.0862148447051
 21
124.5255068003248
 31
0.0
  0
LINE
  5
507
330
E3
100
AcDbEntity
  8
0
  6
Continuous
100
AcDbLine
 10
119.0862148447051
 20
124.5255068003248
 30
0.0
 11
119.0805196730092
 21
124.5200360423646
 31
0.0
  0
LINE
  5
508
330
E3
100
AcDbEntity
  8
0
  6
Continuous
100
AcDbLine
 10
119.0805196730092
 20
124.5200360423646
 30
0.0
 11
119.0786170220551
 21
124.5145646618932
 31
0.0
  0
LINE
  5
509
330
E3
100
AcDbEntity
  8
0
  6
Continuous
100
AcDbLine
 10
120.0786170220551
 20
124.3175949649235
 30
0.0
 11
120.0767143711009
 21
124.3121235844522
 31
0.0
  0
LINE
  5
50A
330
E3
100
AcDbEntity
  8
0
  6
Continuous
100
AcDbLine
 10
120.0767143711009
 20
124.3121235844522
 30
0.0
 11
120.0710208985612
 21
124.3066522039808
 31
0.0
  0
LINE
  5
50B
330
E3
100
AcDbEntity
  8
0
  6
Continuous
100
AcDbLine
 10
120.0710208985612
 20
124.3066522039808
 30
0.0
 11
120.0615811367598
 21
124.3011797362963
 31
0.0
  0
LINE
  5
50C
330
E3
100
AcDbEntity
  8
0
  6
Continuous
100
AcDbLine
 10
120.0615811367598
 20
124.3011797362963
 30
0.0
 11
120.0484637771016
 21
124.2957111617552
 31
0.0
  0
LINE
  5
50D
330
E3
100
AcDbEntity
  8
0
  6
Continuous
100
AcDbLine
 10
120.0484637771016
 20
124.2957111617552
 30
0.0
 11
120.0317692838657
 21
124.290238977594
 31
0.0
  0
LINE
  5
50E
330
E3
100
AcDbEntity
  8
0
  6
Continuous
100
AcDbLine
 10
120.0317692838657
 20
124.290238977594
 30
0.0
 11
120.011631212998
 21
124.2847667934328
 31
0.0
  0
LINE
  5
50F
330
E3
100
AcDbEntity
  8
0
  6
Continuous
100
AcDbLine
 10
120.011631212998
 20
124.2847667934328
 30
0.0
 11
119.9881939493049
 21
124.2792946092716
 31
0.0
  0
LINE
  5
510
330
E3
100
AcDbEntity
  8
0
  6
Continuous
100
AcDbLine
 10
119.9881939493049
 20
124.2792946092716
 30
0.0
 11
119.9616379737943
 21
124.2738224251104
 31
0.0
  0
LINE
  5
511
330
E3
100
AcDbEntity
  8
0
  6
Continuous
100
AcDbLine
 10
119.9616379737943
 20
124.2738224251104
 30
0.0
 11
119.9321690348153
 21
124.2683538505693
 31
0.0
  0
LINE
  5
512
330
E3
100
AcDbEntity
  8
0
  6
Continuous
100
AcDbLine
 10
119.9321690348153
 20
124.2683538505693
 30
0.0
 11
119.9000109288177
 21
124.2628816664081
 31
0.0
  0
LINE
  5
513
330
E3
100
AcDbEntity
  8
0
  6
Continuous
100
AcDbLine
 10
119.9000109288177
 20
124.2628816664081
 30
0.0
 11
119.8654055003523
 21
124.2574094822469
 31
0.0
  0
LINE
  5
514
330
E3
100
AcDbEntity
  8
0
  6
Continuous
100
AcDbLine
 10
119.8654055003523
 20
124.2574094822469
 30
0.0
 11
119.8286162516906
 21
124.2519372980857
 31
0.0
  0
LINE
  5
515
330
E3
100
AcDbEntity
  8
0
  6
Continuous
100
AcDbLine
 10
119.8286162516906
 20
124.2519372980857
 30
0.0
 11
119.7899247332051
 21
124.2464687235446
 31
0.0
  0
LINE
  5
516
330
E3
100
AcDbEntity
  8
0
  6
Continuous
100
AcDbLine
 10
119.7899247332051
 20
124.2464687235446
 30
0.0
 11
119.7496269337487
 21
124.2409965393834
 31
0.0
  0
LINE
  5
517
330
E3
100
AcDbEntity
  8
0
  6
Continuous
100
AcDbLine
 10
119.7496269337487
 20
124.2409965393834
 30
0.0
 11
119.7080260614149
 21
124.2355243552222
 31
0.0
  0
LINE
  5
518
330
E3
100
AcDbEntity
  8
0
  6
Continuous
100
AcDbLine
 10
119.7080260614149
 20
124.2355243552222
 30
0.0
 11
119.6654397627777
 21
124.2300521710609
 31
0.0
  0
LINE
  5
519
330
E3
100
AcDbEntity
  8
0
  6
Continuous
100
AcDbLine
 10
119.6654397627777
 20
124.2300521710609
 30
0.0
 11
119.6221965132715
 21
124.2245799868997
 31
0.0
  0
LINE
  5
51A
330
E3
100
AcDbEntity
  8
0
  6
Continuous
100
AcDbLine
 10
119.6221965132715
 20
124.2245799868997
 30
0.0
 11
119.5786175690905
 21
124.2191114123587
 31
0.0
  0
LINE
  5
51B
330
E3
100
AcDbEntity
  8
0
  6
Continuous
100
AcDbLine
 10
119.5786175690905
 20
124.2191114123587
 30
0.0
 11
119.5350386249095
 21
124.2136392281975
 31
0.0
  0
LINE
  5
51C
330
E3
100
AcDbEntity
  8
0
  6
Continuous
100
AcDbLine
 10
119.5350386249095
 20
124.2136392281975
 30
0.0
 11
119.4917917657832
 21
124.2081670440362
 31
0.0
  0
LINE
  5
51D
330
E3
100
AcDbEntity
  8
0
  6
Continuous
100
AcDbLine
 10
119.4917917657832
 20
124.2081670440362
 30
0.0
 11
119.4492090767661
 21
124.202694859875
 31
0.0
  0
LINE
  5
51E
330
E3
100
AcDbEntity
  8
0
  6
Continuous
100
AcDbLine
 10
119.4492090767661
 20
124.202694859875
 30
0.0
 11
119.4076082044323
 21
124.197226285334
 31
0.0
  0
LINE
  5
51F
330
E3
100
AcDbEntity
  8
0
  6
Continuous
100
AcDbLine
 10
119.4076082044323
 20
124.197226285334
 30
0.0
 11
119.3673067953558
 21
124.1917541011727
 31
0.0
  0
LINE
  5
520
330
E3
100
AcDbEntity
  8
0
  6
Continuous
100
AcDbLine
 10
119.3673067953558
 20
124.1917541011727
 30
0.0
 11
119.3286152768703
 21
124.1862819170115
 31
0.0
  0
LINE
  5
521
330
E3
100
AcDbEntity
  8
0
  6
Continuous
100
AcDbLine
 10
119.3286152768703
 20
124.1862819170115
 30
0.0
 11
119.2918296378288
 21
124.1808097328503
 31
0.0
  0
LINE
  5
522
330
E3
100
AcDbEntity
  8
0
  6
Continuous
100
AcDbLine
 10
119.2918296378288
 20
124.1808097328503
 30
0.0
 11
119.2572242093633
 21
124.1753375486891
 31
0.0
  0
LINE
  5
523
330
E3
100
AcDbEntity
  8
0
  6
Continuous
100
AcDbLine
 10
119.2572242093633
 20
124.1753375486891
 30
0.0
 11
119.2250624937456
 21
124.169868974148
 31
0.0
  0
LINE
  5
524
330
E3
100
AcDbEntity
  8
0
  6
Continuous
100
AcDbLine
 10
119.2250624937456
 20
124.169868974148
 30
0.0
 11
119.1955935547666
 21
124.1643967899868
 31
0.0
  0
LINE
  5
525
330
E3
100
AcDbEntity
  8
0
  6
Continuous
100
AcDbLine
 10
119.1955935547666
 20
124.1643967899868
 30
0.0
 11
119.1690411888762
 21
124.1589246058256
 31
0.0
  0
LINE
  5
526
330
E3
100
AcDbEntity
  8
0
  6
Continuous
100
AcDbLine
 10
119.1690411888762
 20
124.1589246058256
 30
0.0
 11
119.145603925183
 21
124.1534524216644
 31
0.0
  0
LINE
  5
527
330
E3
100
AcDbEntity
  8
0
  6
Continuous
100
AcDbLine
 10
119.145603925183
 20
124.1534524216644
 30
0.0
 11
119.1254622446952
 21
124.1479838471233
 31
0.0
  0
LINE
  5
528
330
E3
100
AcDbEntity
  8
0
  6
Continuous
100
AcDbLine
 10
119.1254622446952
 20
124.1479838471233
 30
0.0
 11
119.1087713610794
 21
124.1425116629621
 31
0.0
  0
LINE
  5
529
330
E3
100
AcDbEntity
  8
0
  6
Continuous
100
AcDbLine
 10
119.1087713610794
 20
124.1425116629621
 30
0.0
 11
119.0956540014212
 21
124.1370394788009
 31
0.0
  0
LINE
  5
52A
330
E3
100
AcDbEntity
  8
0
  6
Continuous
100
AcDbLine
 10
119.0956540014212
 20
124.1370394788009
 30
0.0
 11
119.0862148447051
 21
124.1315672946397
 31
0.0
  0
LINE
  5
52B
330
E3
100
AcDbEntity
  8
0
  6
Continuous
100
AcDbLine
 10
119.0862148447051
 20
124.1315672946397
 30
0.0
 11
119.0805196730092
 21
124.1260966484252
 31
0.0
  0
LINE
  5
52C
330
E3
100
AcDbEntity
  8
0
  6
Continuous
100
AcDbLine
 10
119.0805196730092
 20
124.1260966484252
 30
0.0
 11
119.0786170220551
 21
124.1206252679538
 31
0.0
  0
LINE
  5
52D
330
E3
100
AcDbEntity
  8
0
  6
Continuous
100
AcDbLine
 10
120.0786170220551
 20
123.9236555709841
 30
0.0
 11
120.0767143711009
 21
123.9181841905128
 31
0.0
  0
LINE
  5
52E
330
E3
100
AcDbEntity
  8
0
  6
Continuous
100
AcDbLine
 10
120.0767143711009
 20
123.9181841905128
 30
0.0
 11
120.0710208985612
 21
123.9127128100414
 31
0.0
  0
LINE
  5
52F
330
E3
100
AcDbEntity
  8
0
  6
Continuous
100
AcDbLine
 10
120.0710208985612
 20
123.9127128100414
 30
0.0
 11
120.0615811367598
 21
123.9072402306112
 31
0.0
  0
LINE
  5
530
330
E3
100
AcDbEntity
  8
0
  6
Continuous
100
AcDbLine
 10
120.0615811367598
 20
123.9072402306112
 30
0.0
 11
120.0484637771016
 21
123.9017716560702
 31
0.0
  0
LINE
  5
531
330
E3
100
AcDbEntity
  8
0
  6
Continuous
100
AcDbLine
 10
120.0484637771016
 20
123.9017716560702
 30
0.0
 11
120.0317692838657
 21
123.8962994719089
 31
0.0
  0
LINE
  5
532
330
E3
100
AcDbEntity
  8
0
  6
Continuous
100
AcDbLine
 10
120.0317692838657
 20
123.8962994719089
 30
0.0
 11
120.011631212998
 21
123.8908272877477
 31
0.0
  0
LINE
  5
533
330
E3
100
AcDbEntity
  8
0
  6
Continuous
100
AcDbLine
 10
120.011631212998
 20
123.8908272877477
 30
0.0
 11
119.9881939493049
 21
123.8853551035865
 31
0.0
  0
LINE
  5
534
330
E3
100
AcDbEntity
  8
0
  6
Continuous
100
AcDbLine
 10
119.9881939493049
 20
123.8853551035865
 30
0.0
 11
119.9616379737943
 21
123.8798829194253
 31
0.0
  0
LINE
  5
535
330
E3
100
AcDbEntity
  8
0
  6
Continuous
100
AcDbLine
 10
119.9616379737943
 20
123.8798829194253
 30
0.0
 11
119.9321690348153
 21
123.8744143448842
 31
0.0
  0
LINE
  5
536
330
E3
100
AcDbEntity
  8
0
  6
Continuous
100
AcDbLine
 10
119.9321690348153
 20
123.8744143448842
 30
0.0
 11
119.9000109288177
 21
123.868942160723
 31
0.0
  0
LINE
  5
537
330
E3
100
AcDbEntity
  8
0
  6
Continuous
100
AcDbLine
 10
119.9000109288177
 20
123.868942160723
 30
0.0
 11
119.8654055003523
 21
123.8634699765618
 31
0.0
  0
LINE
  5
538
330
E3
100
AcDbEntity
  8
0
  6
Continuous
100
AcDbLine
 10
119.8654055003523
 20
123.8634699765618
 30
0.0
 11
119.8286162516906
 21
123.8579977924006
 31
0.0
  0
LINE
  5
539
330
E3
100
AcDbEntity
  8
0
  6
Continuous
100
AcDbLine
 10
119.8286162516906
 20
123.8579977924006
 30
0.0
 11
119.7899247332051
 21
123.8525292178595
 31
0.0
  0
LINE
  5
53A
330
E3
100
AcDbEntity
  8
0
  6
Continuous
100
AcDbLine
 10
119.7899247332051
 20
123.8525292178595
 30
0.0
 11
119.7496269337487
 21
123.8470570336983
 31
0.0
  0
LINE
  5
53B
330
E3
100
AcDbEntity
  8
0
  6
Continuous
100
AcDbLine
 10
119.7496269337487
 20
123.8470570336983
 30
0.0
 11
119.7080260614149
 21
123.8415848495371
 31
0.0
  0
LINE
  5
53C
330
E3
100
AcDbEntity
  8
0
  6
Continuous
100
AcDbLine
 10
119.7080260614149
 20
123.8415848495371
 30
0.0
 11
119.6654397627777
 21
123.8361126653759
 31
0.0
  0
LINE
  5
53D
330
E3
100
AcDbEntity
  8
0
  6
Continuous
100
AcDbLine
 10
119.6654397627777
 20
123.8361126653759
 30
0.0
 11
119.6221965132715
 21
123.8306404812147
 31
0.0
  0
LINE
  5
53E
330
E3
100
AcDbEntity
  8
0
  6
Continuous
100
AcDbLine
 10
119.6221965132715
 20
123.8306404812147
 30
0.0
 11
119.5786175690905
 21
123.8251719066736
 31
0.0
  0
LINE
  5
53F
330
E3
100
AcDbEntity
  8
0
  6
Continuous
100
AcDbLine
 10
119.5786175690905
 20
123.8251719066736
 30
0.0
 11
119.5350386249095
 21
123.8196997225124
 31
0.0
  0
LINE
  5
540
330
E3
100
AcDbEntity
  8
0
  6
Continuous
100
AcDbLine
 10
119.5350386249095
 20
123.8196997225124
 30
0.0
 11
119.4917917657832
 21
123.8142275383512
 31
0.0
  0
LINE
  5
541
330
E3
100
AcDbEntity
  8
0
  6
Continuous
100
AcDbLine
 10
119.4917917657832
 20
123.8142275383512
 30
0.0
 11
119.4492090767661
 21
123.80875535419
 31
0.0
  0
LINE
  5
542
330
E3
100
AcDbEntity
  8
0
  6
Continuous
100
AcDbLine
 10
119.4492090767661
 20
123.80875535419
 30
0.0
 11
119.4076082044323
 21
123.8032867796489
 31
0.0
  0
LINE
  5
543
330
E3
100
AcDbEntity
  8
0
  6
Continuous
100
AcDbLine
 10
119.4076082044323
 20
123.8032867796489
 30
0.0
 11
119.3673067953558
 21
123.7978145954877
 31
0.0
  0
LINE
  5
544
330
E3
100
AcDbEntity
  8
0
  6
Continuous
100
AcDbLine
 10
119.3673067953558
 20
123.7978145954877
 30
0.0
 11
119.3286152768703
 21
123.7923424113265
 31
0.0
  0
LINE
  5
545
330
E3
100
AcDbEntity
  8
0
  6
Continuous
100
AcDbLine
 10
119.3286152768703
 20
123.7923424113265
 30
0.0
 11
119.2918296378288
 21
123.7868702271653
 31
0.0
  0
LINE
  5
546
330
E3
100
AcDbEntity
  8
0
  6
Continuous
100
AcDbLine
 10
119.2918296378288
 20
123.7868702271653
 30
0.0
 11
119.2572242093633
 21
123.781398043004
 31
0.0
  0
LINE
  5
547
330
E3
100
AcDbEntity
  8
0
  6
Continuous
100
AcDbLine
 10
119.2572242093633
 20
123.781398043004
 30
0.0
 11
119.2250624937456
 21
123.775929468463
 31
0.0
  0
LINE
  5
548
330
E3
100
AcDbEntity
  8
0
  6
Continuous
100
AcDbLine
 10
119.2250624937456
 20
123.775929468463
 30
0.0
 11
119.1955935547666
 21
123.7704572843018
 31
0.0
  0
LINE
  5
549
330
E3
100
AcDbEntity
  8
0
  6
Continuous
100
AcDbLine
 10
119.1955935547666
 20
123.7704572843018
 30
0.0
 11
119.1690411888762
 21
123.7649851001405
 31
0.0
  0
LINE
  5
54A
330
E3
100
AcDbEntity
  8
0
  6
Continuous
100
AcDbLine
 10
119.1690411888762
 20
123.7649851001405
 30
0.0
 11
119.145603925183
 21
123.7595129159793
 31
0.0
  0
LINE
  5
54B
330
E3
100
AcDbEntity
  8
0
  6
Continuous
100
AcDbLine
 10
119.145603925183
 20
123.7595129159793
 30
0.0
 11
119.1254622446952
 21
123.7540443414383
 31
0.0
  0
LINE
  5
54C
330
E3
100
AcDbEntity
  8
0
  6
Continuous
100
AcDbLine
 10
119.1254622446952
 20
123.7540443414383
 30
0.0
 11
119.1087713610794
 21
123.7485721572771
 31
0.0
  0
LINE
  5
54D
330
E3
100
AcDbEntity
  8
0
  6
Continuous
100
AcDbLine
 10
119.1087713610794
 20
123.7485721572771
 30
0.0
 11
119.0956540014212
 21
123.7430999731158
 31
0.0
  0
LINE
  5
54E
330
E3
100
AcDbEntity
  8
0
  6
Continuous
100
AcDbLine
 10
119.0956540014212
 20
123.7430999731158
 30
0.0
 11
119.0862148447051
 21
123.7376277889546
 31
0.0
  0
LINE
  5
54F
330
E3
100
AcDbEntity
  8
0
  6
Continuous
100
AcDbLine
 10
119.0862148447051
 20
123.7376277889546
 30
0.0
 11
119.0805196730092
 21
123.7321572544858
 31
0.0
  0
LINE
  5
550
330
E3
100
AcDbEntity
  8
0
  6
Continuous
100
AcDbLine
 10
119.0805196730092
 20
123.7321572544858
 30
0.0
 11
119.0786170220551
 21
123.7266858740144
 31
0.0
  0
LINE
  5
551
330
E3
100
AcDbEntity
  8
0
  6
Continuous
100
AcDbLine
 10
120.0786170220551
 20
123.5297161770447
 30
0.0
 11
120.0767143711009
 21
123.5242447965734
 31
0.0
  0
LINE
  5
552
330
E3
100
AcDbEntity
  8
0
  6
Continuous
100
AcDbLine
 10
120.0767143711009
 20
123.5242447965734
 30
0.0
 11
120.0710208985612
 21
123.518773416102
 31
0.0
  0
LINE
  5
553
330
E3
100
AcDbEntity
  8
0
  6
Continuous
100
AcDbLine
 10
120.0710208985612
 20
123.518773416102
 30
0.0
 11
120.0615811367598
 21
123.5133007249262
 31
0.0
  0
LINE
  5
554
330
E3
100
AcDbEntity
  8
0
  6
Continuous
100
AcDbLine
 10
120.0615811367598
 20
123.5133007249262
 30
0.0
 11
120.0484637771016
 21
123.5078321503851
 31
0.0
  0
LINE
  5
555
330
E3
100
AcDbEntity
  8
0
  6
Continuous
100
AcDbLine
 10
120.0484637771016
 20
123.5078321503851
 30
0.0
 11
120.0317692838657
 21
123.5023599662239
 31
0.0
  0
LINE
  5
556
330
E3
100
AcDbEntity
  8
0
  6
Continuous
100
AcDbLine
 10
120.0317692838657
 20
123.5023599662239
 30
0.0
 11
120.011631212998
 21
123.4968877820627
 31
0.0
  0
LINE
  5
557
330
E3
100
AcDbEntity
  8
0
  6
Continuous
100
AcDbLine
 10
120.011631212998
 20
123.4968877820627
 30
0.0
 11
119.9881939493049
 21
123.4914155979015
 31
0.0
  0
LINE
  5
558
330
E3
100
AcDbEntity
  8
0
  6
Continuous
100
AcDbLine
 10
119.9881939493049
 20
123.4914155979015
 30
0.0
 11
119.9616379737943
 21
123.4859434137402
 31
0.0
  0
LINE
  5
559
330
E3
100
AcDbEntity
  8
0
  6
Continuous
100
AcDbLine
 10
119.9616379737943
 20
123.4859434137402
 30
0.0
 11
119.9321690348153
 21
123.4804748391992
 31
0.0
  0
LINE
  5
55A
330
E3
100
AcDbEntity
  8
0
  6
Continuous
100
AcDbLine
 10
119.9321690348153
 20
123.4804748391992
 30
0.0
 11
119.9000109288177
 21
123.475002655038
 31
0.0
  0
LINE
  5
55B
330
E3
100
AcDbEntity
  8
0
  6
Continuous
100
AcDbLine
 10
119.9000109288177
 20
123.475002655038
 30
0.0
 11
119.8654055003523
 21
123.4695304708767
 31
0.0
  0
LINE
  5
55C
330
E3
100
AcDbEntity
  8
0
  6
Continuous
100
AcDbLine
 10
119.8654055003523
 20
123.4695304708767
 30
0.0
 11
119.8286162516906
 21
123.4640582867155
 31
0.0
  0
LINE
  5
55D
330
E3
100
AcDbEntity
  8
0
  6
Continuous
100
AcDbLine
 10
119.8286162516906
 20
123.4640582867155
 30
0.0
 11
119.7899247332051
 21
123.4585897121745
 31
0.0
  0
LINE
  5
55E
330
E3
100
AcDbEntity
  8
0
  6
Continuous
100
AcDbLine
 10
119.7899247332051
 20
123.4585897121745
 30
0.0
 11
119.7496269337487
 21
123.4531175280133
 31
0.0
  0
LINE
  5
55F
330
E3
100
AcDbEntity
  8
0
  6
Continuous
100
AcDbLine
 10
119.7496269337487
 20
123.4531175280133
 30
0.0
 11
119.7080260614149
 21
123.447645343852
 31
0.0
  0
LINE
  5
560
330
E3
100
AcDbEntity
  8
0
  6
Continuous
100
AcDbLine
 10
119.7080260614149
 20
123.447645343852
 30
0.0
 11
119.6654397627777
 21
123.4421731596908
 31
0.0
  0
LINE
  5
561
330
E3
100
AcDbEntity
  8
0
  6
Continuous
100
AcDbLine
 10
119.6654397627777
 20
123.4421731596908
 30
0.0
 11
119.6221965132715
 21
123.4367009755296
 31
0.0
  0
LINE
  5
562
330
E3
100
AcDbEntity
  8
0
  6
Continuous
100
AcDbLine
 10
119.6221965132715
 20
123.4367009755296
 30
0.0
 11
119.5786175690905
 21
123.4312324009885
 31
0.0
  0
LINE
  5
563
330
E3
100
AcDbEntity
  8
0
  6
Continuous
100
AcDbLine
 10
119.5786175690905
 20
123.4312324009885
 30
0.0
 11
119.5350386249095
 21
123.4257602168273
 31
0.0
  0
LINE
  5
564
330
E3
100
AcDbEntity
  8
0
  6
Continuous
100
AcDbLine
 10
119.5350386249095
 20
123.4257602168273
 30
0.0
 11
119.4917917657832
 21
123.4202880326661
 31
0.0
  0
LINE
  5
565
330
E3
100
AcDbEntity
  8
0
  6
Continuous
100
AcDbLine
 10
119.4917917657832
 20
123.4202880326661
 30
0.0
 11
119.4492090767661
 21
123.4148158485049
 31
0.0
  0
LINE
  5
566
330
E3
100
AcDbEntity
  8
0
  6
Continuous
100
AcDbLine
 10
119.4492090767661
 20
123.4148158485049
 30
0.0
 11
119.4076082044323
 21
123.4093472739638
 31
0.0
  0
LINE
  5
567
330
E3
100
AcDbEntity
  8
0
  6
Continuous
100
AcDbLine
 10
119.4076082044323
 20
123.4093472739638
 30
0.0
 11
119.3673067953558
 21
123.4038750898026
 31
0.0
  0
LINE
  5
568
330
E3
100
AcDbEntity
  8
0
  6
Continuous
100
AcDbLine
 10
119.3673067953558
 20
123.4038750898026
 30
0.0
 11
119.3286152768703
 21
123.3984029056414
 31
0.0
  0
LINE
  5
569
330
E3
100
AcDbEntity
  8
0
  6
Continuous
100
AcDbLine
 10
119.3286152768703
 20
123.3984029056414
 30
0.0
 11
119.2918296378288
 21
123.3929307214802
 31
0.0
  0
LINE
  5
56A
330
E3
100
AcDbEntity
  8
0
  6
Continuous
100
AcDbLine
 10
119.2918296378288
 20
123.3929307214802
 30
0.0
 11
119.2572242093633
 21
123.387458537319
 31
0.0
  0
LINE
  5
56B
330
E3
100
AcDbEntity
  8
0
  6
Continuous
100
AcDbLine
 10
119.2572242093633
 20
123.387458537319
 30
0.0
 11
119.2250624937456
 21
123.3819899627779
 31
0.0
  0
LINE
  5
56C
330
E3
100
AcDbEntity
  8
0
  6
Continuous
100
AcDbLine
 10
119.2250624937456
 20
123.3819899627779
 30
0.0
 11
119.1955935547666
 21
123.3765177786167
 31
0.0
  0
LINE
  5
56D
330
E3
100
AcDbEntity
  8
0
  6
Continuous
100
AcDbLine
 10
119.1955935547666
 20
123.3765177786167
 30
0.0
 11
119.1690411888762
 21
123.3710455944555
 31
0.0
  0
LINE
  5
56E
330
E3
100
AcDbEntity
  8
0
  6
Continuous
100
AcDbLine
 10
119.1690411888762
 20
123.3710455944555
 30
0.0
 11
119.145603925183
 21
123.3655734102942
 31
0.0
  0
LINE
  5
56F
330
E3
100
AcDbEntity
  8
0
  6
Continuous
100
AcDbLine
 10
119.145603925183
 20
123.3655734102942
 30
0.0
 11
119.1254622446952
 21
123.3601048357532
 31
0.0
  0
LINE
  5
570
330
E3
100
AcDbEntity
  8
0
  6
Continuous
100
AcDbLine
 10
119.1254622446952
 20
123.3601048357532
 30
0.0
 11
119.1087713610794
 21
123.354632651592
 31
0.0
  0
LINE
  5
571
330
E3
100
AcDbEntity
  8
0
  6
Continuous
100
AcDbLine
 10
119.1087713610794
 20
123.354632651592
 30
0.0
 11
119.0956540014212
 21
123.3491604674308
 31
0.0
  0
LINE
  5
572
330
E3
100
AcDbEntity
  8
0
  6
Continuous
100
AcDbLine
 10
119.0956540014212
 20
123.3491604674308
 30
0.0
 11
119.0862148447051
 21
123.3436882832696
 31
0.0
  0
LINE
  5
573
330
E3
100
AcDbEntity
  8
0
  6
Continuous
100
AcDbLine
 10
119.0862148447051
 20
123.3436882832696
 30
0.0
 11
119.0805196730092
 21
123.3382178605464
 31
0.0
  0
LINE
  5
574
330
E3
100
AcDbEntity
  8
0
  6
Continuous
100
AcDbLine
 10
119.0805196730092
 20
123.3382178605464
 30
0.0
 11
119.0786170220551
 21
123.3327464800751
 31
0.0
  0
LINE
  5
575
330
E3
100
AcDbEntity
  8
0
  6
Continuous
100
AcDbLine
 10
120.0786170220551
 20
123.1357767831054
 30
0.0
 11
120.0767143711009
 21
123.130305402634
 31
0.0
  0
LINE
  5
576
330
E3
100
AcDbEntity
  8
0
  6
Continuous
100
AcDbLine
 10
120.0767143711009
 20
123.130305402634
 30
0.0
 11
120.0710208985612
 21
123.1248340221626
 31
0.0
  0
LINE
  5
577
330
E3
100
AcDbEntity
  8
0
  6
Continuous
100
AcDbLine
 10
120.0710208985612
 20
123.1248340221626
 30
0.0
 11
120.0615811367598
 21
123.1193612192411
 31
0.0
  0
LINE
  5
578
330
E3
100
AcDbEntity
  8
0
  6
Continuous
100
AcDbLine
 10
120.0615811367598
 20
123.1193612192411
 30
0.0
 11
120.0484637771016
 21
123.1138926447
 31
0.0
  0
LINE
  5
579
330
E3
100
AcDbEntity
  8
0
  6
Continuous
100
AcDbLine
 10
120.0484637771016
 20
123.1138926447
 30
0.0
 11
120.0317692838657
 21
123.1084204605388
 31
0.0
  0
LINE
  5
57A
330
E3
100
AcDbEntity
  8
0
  6
Continuous
100
AcDbLine
 10
120.0317692838657
 20
123.1084204605388
 30
0.0
 11
120.011631212998
 21
123.1029482763776
 31
0.0
  0
LINE
  5
57B
330
E3
100
AcDbEntity
  8
0
  6
Continuous
100
AcDbLine
 10
120.011631212998
 20
123.1029482763776
 30
0.0
 11
119.9881939493049
 21
123.0974760922164
 31
0.0
  0
LINE
  5
57C
330
E3
100
AcDbEntity
  8
0
  6
Continuous
100
AcDbLine
 10
119.9881939493049
 20
123.0974760922164
 30
0.0
 11
119.9616379737943
 21
123.0920075176753
 31
0.0
  0
LINE
  5
57D
330
E3
100
AcDbEntity
  8
0
  6
Continuous
100
AcDbLine
 10
119.9616379737943
 20
123.0920075176753
 30
0.0
 11
119.9321690348153
 21
123.0865353335141
 31
0.0
  0
LINE
  5
57E
330
E3
100
AcDbEntity
  8
0
  6
Continuous
100
AcDbLine
 10
119.9321690348153
 20
123.0865353335141
 30
0.0
 11
119.9000109288177
 21
123.0810631493529
 31
0.0
  0
LINE
  5
57F
330
E3
100
AcDbEntity
  8
0
  6
Continuous
100
AcDbLine
 10
119.9000109288177
 20
123.0810631493529
 30
0.0
 11
119.8654055003523
 21
123.0755909651917
 31
0.0
  0
LINE
  5
580
330
E3
100
AcDbEntity
  8
0
  6
Continuous
100
AcDbLine
 10
119.8654055003523
 20
123.0755909651917
 30
0.0
 11
119.8286162516906
 21
123.0701187810305
 31
0.0
  0
LINE
  5
581
330
E3
100
AcDbEntity
  8
0
  6
Continuous
100
AcDbLine
 10
119.8286162516906
 20
123.0701187810305
 30
0.0
 11
119.7899247332051
 21
123.0646502064894
 31
0.0
  0
LINE
  5
582
330
E3
100
AcDbEntity
  8
0
  6
Continuous
100
AcDbLine
 10
119.7899247332051
 20
123.0646502064894
 30
0.0
 11
119.7496269337487
 21
123.0591780223282
 31
0.0
  0
LINE
  5
583
330
E3
100
AcDbEntity
  8
0
  6
Continuous
100
AcDbLine
 10
119.7496269337487
 20
123.0591780223282
 30
0.0
 11
119.7080260614149
 21
123.053705838167
 31
0.0
  0
LINE
  5
584
330
E3
100
AcDbEntity
  8
0
  6
Continuous
100
AcDbLine
 10
119.7080260614149
 20
123.053705838167
 30
0.0
 11
119.6654397627777
 21
123.0482336540057
 31
0.0
  0
LINE
  5
585
330
E3
100
AcDbEntity
  8
0
  6
Continuous
100
AcDbLine
 10
119.6654397627777
 20
123.0482336540057
 30
0.0
 11
119.6221965132715
 21
123.0427650794647
 31
0.0
  0
LINE
  5
586
330
E3
100
AcDbEntity
  8
0
  6
Continuous
100
AcDbLine
 10
119.6221965132715
 20
123.0427650794647
 30
0.0
 11
119.5786175690905
 21
123.0372928953035
 31
0.0
  0
LINE
  5
587
330
E3
100
AcDbEntity
  8
0
  6
Continuous
100
AcDbLine
 10
119.5786175690905
 20
123.0372928953035
 30
0.0
 11
119.5350386249095
 21
123.0318207111423
 31
0.0
  0
LINE
  5
588
330
E3
100
AcDbEntity
  8
0
  6
Continuous
100
AcDbLine
 10
119.5350386249095
 20
123.0318207111423
 30
0.0
 11
119.4917917657832
 21
123.026348526981
 31
0.0
  0
LINE
  5
589
330
E3
100
AcDbEntity
  8
0
  6
Continuous
100
AcDbLine
 10
119.4917917657832
 20
123.026348526981
 30
0.0
 11
119.4492090767661
 21
123.0208763428198
 31
0.0
  0
LINE
  5
58A
330
E3
100
AcDbEntity
  8
0
  6
Continuous
100
AcDbLine
 10
119.4492090767661
 20
123.0208763428198
 30
0.0
 11
119.4076082044323
 21
123.0154077682787
 31
0.0
  0
LINE
  5
58B
330
E3
100
AcDbEntity
  8
0
  6
Continuous
100
AcDbLine
 10
119.4076082044323
 20
123.0154077682787
 30
0.0
 11
119.3673067953558
 21
123.0099355841175
 31
0.0
  0
LINE
  5
58C
330
E3
100
AcDbEntity
  8
0
  6
Continuous
100
AcDbLine
 10
119.3673067953558
 20
123.0099355841175
 30
0.0
 11
119.3286152768703
 21
123.0044633999563
 31
0.0
  0
LINE
  5
58D
330
E3
100
AcDbEntity
  8
0
  6
Continuous
100
AcDbLine
 10
119.3286152768703
 20
123.0044633999563
 30
0.0
 11
119.2918296378288
 21
122.9989912157951
 31
0.0
  0
LINE
  5
58E
330
E3
100
AcDbEntity
  8
0
  6
Continuous
100
AcDbLine
 10
119.2918296378288
 20
122.9989912157951
 30
0.0
 11
119.2572242093633
 21
122.9935226412541
 31
0.0
  0
LINE
  5
58F
330
E3
100
AcDbEntity
  8
0
  6
Continuous
100
AcDbLine
 10
119.2572242093633
 20
122.9935226412541
 30
0.0
 11
119.2250624937456
 21
122.9880504570928
 31
0.0
  0
LINE
  5
590
330
E3
100
AcDbEntity
  8
0
  6
Continuous
100
AcDbLine
 10
119.2250624937456
 20
122.9880504570928
 30
0.0
 11
119.1955935547666
 21
122.9825782729316
 31
0.0
  0
LINE
  5
591
330
E3
100
AcDbEntity
  8
0
  6
Continuous
100
AcDbLine
 10
119.1955935547666
 20
122.9825782729316
 30
0.0
 11
119.1690411888762
 21
122.9771060887704
 31
0.0
  0
LINE
  5
592
330
E3
100
AcDbEntity
  8
0
  6
Continuous
100
AcDbLine
 10
119.1690411888762
 20
122.9771060887704
 30
0.0
 11
119.145603925183
 21
122.9716339046092
 31
0.0
  0
LINE
  5
593
330
E3
100
AcDbEntity
  8
0
  6
Continuous
100
AcDbLine
 10
119.145603925183
 20
122.9716339046092
 30
0.0
 11
119.1254622446952
 21
122.9661653300681
 31
0.0
  0
LINE
  5
594
330
E3
100
AcDbEntity
  8
0
  6
Continuous
100
AcDbLine
 10
119.1254622446952
 20
122.9661653300681
 30
0.0
 11
119.1087713610794
 21
122.9606931459069
 31
0.0
  0
LINE
  5
595
330
E3
100
AcDbEntity
  8
0
  6
Continuous
100
AcDbLine
 10
119.1087713610794
 20
122.9606931459069
 30
0.0
 11
119.0956540014212
 21
122.9552209617457
 31
0.0
  0
LINE
  5
596
330
E3
100
AcDbEntity
  8
0
  6
Continuous
100
AcDbLine
 10
119.0956540014212
 20
122.9552209617457
 30
0.0
 11
119.0862148447051
 21
122.9497487775845
 31
0.0
  0
LINE
  5
597
330
E3
100
AcDbEntity
  8
0
  6
Continuous
100
AcDbLine
 10
119.0862148447051
 20
122.9497487775845
 30
0.0
 11
119.0805196730092
 21
122.944278466607
 31
0.0
  0
LINE
  5
598
330
E3
100
AcDbEntity
  8
0
  6
Continuous
100
AcDbLine
 10
119.0805196730092
 20
122.944278466607
 30
0.0
 11
119.0786170220551
 21
122.9388070861357
 31
0.0
  0
LINE
  5
599
330
E3
100
AcDbEntity
  8
0
  6
Continuous
100
AcDbLine
 10
120.0786170220551
 20
122.741837389166
 30
0.0
 11
120.0767143711009
 21
122.7363660086946
 31
0.0
  0
LINE
  5
59A
330
E3
100
AcDbEntity
  8
0
  6
Continuous
100
AcDbLine
 10
120.0767143711009
 20
122.7363660086946
 30
0.0
 11
120.0710208985612
 21
122.7308946282232
 31
0.0
  0
LINE
  5
59B
330
E3
100
AcDbEntity
  8
0
  6
Continuous
100
AcDbLine
 10
120.0710208985612
 20
122.7308946282232
 30
0.0
 11
120.0615811367598
 21
122.725421713556
 31
0.0
  0
LINE
  5
59C
330
E3
100
AcDbEntity
  8
0
  6
Continuous
100
AcDbLine
 10
120.0615811367598
 20
122.725421713556
 30
0.0
 11
120.0484637771016
 21
122.719953139015
 31
0.0
  0
LINE
  5
59D
330
E3
100
AcDbEntity
  8
0
  6
Continuous
100
AcDbLine
 10
120.0484637771016
 20
122.719953139015
 30
0.0
 11
120.0317692838657
 21
122.7144809548537
 31
0.0
  0
LINE
  5
59E
330
E3
100
AcDbEntity
  8
0
  6
Continuous
100
AcDbLine
 10
120.0317692838657
 20
122.7144809548537
 30
0.0
 11
120.011631212998
 21
122.7090087706925
 31
0.0
  0
LINE
  5
59F
330
E3
100
AcDbEntity
  8
0
  6
Continuous
100
AcDbLine
 10
120.011631212998
 20
122.7090087706925
 30
0.0
 11
119.9881939493049
 21
122.7035365865313
 31
0.0
  0
LINE
  5
5A0
330
E3
100
AcDbEntity
  8
0
  6
Continuous
100
AcDbLine
 10
119.9881939493049
 20
122.7035365865313
 30
0.0
 11
119.9616379737943
 21
122.6980680119902
 31
0.0
  0
LINE
  5
5A1
330
E3
100
AcDbEntity
  8
0
  6
Continuous
100
AcDbLine
 10
119.9616379737943
 20
122.6980680119902
 30
0.0
 11
119.9321690348153
 21
122.692595827829
 31
0.0
  0
LINE
  5
5A2
330
E3
100
AcDbEntity
  8
0
  6
Continuous
100
AcDbLine
 10
119.9321690348153
 20
122.692595827829
 30
0.0
 11
119.9000109288177
 21
122.6871236436678
 31
0.0
  0
LINE
  5
5A3
330
E3
100
AcDbEntity
  8
0
  6
Continuous
100
AcDbLine
 10
119.9000109288177
 20
122.6871236436678
 30
0.0
 11
119.8654055003523
 21
122.6816514595066
 31
0.0
  0
LINE
  5
5A4
330
E3
100
AcDbEntity
  8
0
  6
Continuous
100
AcDbLine
 10
119.8654055003523
 20
122.6816514595066
 30
0.0
 11
119.8286162516906
 21
122.6761792753454
 31
0.0
  0
LINE
  5
5A5
330
E3
100
AcDbEntity
  8
0
  6
Continuous
100
AcDbLine
 10
119.8286162516906
 20
122.6761792753454
 30
0.0
 11
119.7899247332051
 21
122.6707107008043
 31
0.0
  0
LINE
  5
5A6
330
E3
100
AcDbEntity
  8
0
  6
Continuous
100
AcDbLine
 10
119.7899247332051
 20
122.6707107008043
 30
0.0
 11
119.7496269337487
 21
122.6652385166431
 31
0.0
  0
LINE
  5
5A7
330
E3
100
AcDbEntity
  8
0
  6
Continuous
100
AcDbLine
 10
119.7496269337487
 20
122.6652385166431
 30
0.0
 11
119.7080260614149
 21
122.6597663324819
 31
0.0
  0
LINE
  5
5A8
330
E3
100
AcDbEntity
  8
0
  6
Continuous
100
AcDbLine
 10
119.7080260614149
 20
122.6597663324819
 30
0.0
 11
119.6654397627777
 21
122.6542941483207
 31
0.0
  0
LINE
  5
5A9
330
E3
100
AcDbEntity
  8
0
  6
Continuous
100
AcDbLine
 10
119.6654397627777
 20
122.6542941483207
 30
0.0
 11
119.6221965132715
 21
122.6488255737796
 31
0.0
  0
LINE
  5
5AA
330
E3
100
AcDbEntity
  8
0
  6
Continuous
100
AcDbLine
 10
119.6221965132715
 20
122.6488255737796
 30
0.0
 11
119.5786175690905
 21
122.6433533896184
 31
0.0
  0
LINE
  5
5AB
330
E3
100
AcDbEntity
  8
0
  6
Continuous
100
AcDbLine
 10
119.5786175690905
 20
122.6433533896184
 30
0.0
 11
119.5350386249095
 21
122.6378812054572
 31
0.0
  0
LINE
  5
5AC
330
E3
100
AcDbEntity
  8
0
  6
Continuous
100
AcDbLine
 10
119.5350386249095
 20
122.6378812054572
 30
0.0
 11
119.4917917657832
 21
122.632409021296
 31
0.0
  0
LINE
  5
5AD
330
E3
100
AcDbEntity
  8
0
  6
Continuous
100
AcDbLine
 10
119.4917917657832
 20
122.632409021296
 30
0.0
 11
119.4492090767661
 21
122.6269368371347
 31
0.0
  0
LINE
  5
5AE
330
E3
100
AcDbEntity
  8
0
  6
Continuous
100
AcDbLine
 10
119.4492090767661
 20
122.6269368371347
 30
0.0
 11
119.4076082044323
 21
122.6214682625937
 31
0.0
  0
LINE
  5
5AF
330
E3
100
AcDbEntity
  8
0
  6
Continuous
100
AcDbLine
 10
119.4076082044323
 20
122.6214682625937
 30
0.0
 11
119.3673067953558
 21
122.6159960784325
 31
0.0
  0
LINE
  5
5B0
330
E3
100
AcDbEntity
  8
0
  6
Continuous
100
AcDbLine
 10
119.3673067953558
 20
122.6159960784325
 30
0.0
 11
119.3286152768703
 21
122.6105238942713
 31
0.0
  0
LINE
  5
5B1
330
E3
100
AcDbEntity
  8
0
  6
Continuous
100
AcDbLine
 10
119.3286152768703
 20
122.6105238942713
 30
0.0
 11
119.2918296378288
 21
122.60505171011
 31
0.0
  0
LINE
  5
5B2
330
E3
100
AcDbEntity
  8
0
  6
Continuous
100
AcDbLine
 10
119.2918296378288
 20
122.60505171011
 30
0.0
 11
119.2572242093633
 21
122.599583135569
 31
0.0
  0
LINE
  5
5B3
330
E3
100
AcDbEntity
  8
0
  6
Continuous
100
AcDbLine
 10
119.2572242093633
 20
122.599583135569
 30
0.0
 11
119.2250624937456
 21
122.5941109514078
 31
0.0
  0
LINE
  5
5B4
330
E3
100
AcDbEntity
  8
0
  6
Continuous
100
AcDbLine
 10
119.2250624937456
 20
122.5941109514078
 30
0.0
 11
119.1955935547666
 21
122.5886387672466
 31
0.0
  0
LINE
  5
5B5
330
E3
100
AcDbEntity
  8
0
  6
Continuous
100
AcDbLine
 10
119.1955935547666
 20
122.5886387672466
 30
0.0
 11
119.1690411888762
 21
122.5831665830853
 31
0.0
  0
LINE
  5
5B6
330
E3
100
AcDbEntity
  8
0
  6
Continuous
100
AcDbLine
 10
119.1690411888762
 20
122.5831665830853
 30
0.0
 11
119.145603925183
 21
122.5776943989241
 31
0.0
  0
LINE
  5
5B7
330
E3
100
AcDbEntity
  8
0
  6
Continuous
100
AcDbLine
 10
119.145603925183
 20
122.5776943989241
 30
0.0
 11
119.1254622446952
 21
122.5722258243831
 31
0.0
  0
LINE
  5
5B8
330
E3
100
AcDbEntity
  8
0
  6
Continuous
100
AcDbLine
 10
119.1254622446952
 20
122.5722258243831
 30
0.0
 11
119.1087713610794
 21
122.5667536402218
 31
0.0
  0
LINE
  5
5B9
330
E3
100
AcDbEntity
  8
0
  6
Continuous
100
AcDbLine
 10
119.1087713610794
 20
122.5667536402218
 30
0.0
 11
119.0956540014212
 21
122.5612814560606
 31
0.0
  0
LINE
  5
5BA
330
E3
100
AcDbEntity
  8
0
  6
Continuous
100
AcDbLine
 10
119.0956540014212
 20
122.5612814560606
 30
0.0
 11
119.0862148447051
 21
122.5558092718994
 31
0.0
  0
LINE
  5
5BB
330
E3
100
AcDbEntity
  8
0
  6
Continuous
100
AcDbLine
 10
119.0862148447051
 20
122.5558092718994
 30
0.0
 11
119.0805196730092
 21
122.5503390726676
 31
0.0
  0
LINE
  5
5BC
330
E3
100
AcDbEntity
  8
0
  6
Continuous
100
AcDbLine
 10
119.0805196730092
 20
122.5503390726676
 30
0.0
 11
119.0786170220551
 21
122.5448676921963
 31
0.0
  0
LINE
  5
5BD
330
E3
100
AcDbEntity
  8
0
  6
Continuous
100
AcDbLine
 10
120.0786170220551
 20
122.3478979952266
 30
0.0
 11
120.0767143711009
 21
122.3424266147552
 31
0.0
  0
LINE
  5
5BE
330
E3
100
AcDbEntity
  8
0
  6
Continuous
100
AcDbLine
 10
120.0767143711009
 20
122.3424266147552
 30
0.0
 11
120.0710208985612
 21
122.3369552342838
 31
0.0
  0
LINE
  5
5BF
330
E3
100
AcDbEntity
  8
0
  6
Continuous
100
AcDbLine
 10
120.0710208985612
 20
122.3369552342838
 30
0.0
 11
120.0615811367598
 21
122.3314822078709
 31
0.0
  0
LINE
  5
5C0
330
E3
100
AcDbEntity
  8
0
  6
Continuous
100
AcDbLine
 10
120.0615811367598
 20
122.3314822078709
 30
0.0
 11
120.0484637771016
 21
122.3260136333299
 31
0.0
  0
LINE
  5
5C1
330
E3
100
AcDbEntity
  8
0
  6
Continuous
100
AcDbLine
 10
120.0484637771016
 20
122.3260136333299
 30
0.0
 11
120.0317692838657
 21
122.3205414491687
 31
0.0
  0
LINE
  5
5C2
330
E3
100
AcDbEntity
  8
0
  6
Continuous
100
AcDbLine
 10
120.0317692838657
 20
122.3205414491687
 30
0.0
 11
120.011631212998
 21
122.3150692650075
 31
0.0
  0
LINE
  5
5C3
330
E3
100
AcDbEntity
  8
0
  6
Continuous
100
AcDbLine
 10
120.011631212998
 20
122.3150692650075
 30
0.0
 11
119.9881939493049
 21
122.3095970808462
 31
0.0
  0
LINE
  5
5C4
330
E3
100
AcDbEntity
  8
0
  6
Continuous
100
AcDbLine
 10
119.9881939493049
 20
122.3095970808462
 30
0.0
 11
119.9616379737943
 21
122.3041285063052
 31
0.0
  0
LINE
  5
5C5
330
E3
100
AcDbEntity
  8
0
  6
Continuous
100
AcDbLine
 10
119.9616379737943
 20
122.3041285063052
 30
0.0
 11
119.9321690348153
 21
122.298656322144
 31
0.0
  0
LINE
  5
5C6
330
E3
100
AcDbEntity
  8
0
  6
Continuous
100
AcDbLine
 10
119.9321690348153
 20
122.298656322144
 30
0.0
 11
119.9000109288177
 21
122.2931841379827
 31
0.0
  0
LINE
  5
5C7
330
E3
100
AcDbEntity
  8
0
  6
Continuous
100
AcDbLine
 10
119.9000109288177
 20
122.2931841379827
 30
0.0
 11
119.8654055003523
 21
122.2877119538215
 31
0.0
  0
LINE
  5
5C8
330
E3
100
AcDbEntity
  8
0
  6
Continuous
100
AcDbLine
 10
119.8654055003523
 20
122.2877119538215
 30
0.0
 11
119.8286162516906
 21
122.2822397696603
 31
0.0
  0
LINE
  5
5C9
330
E3
100
AcDbEntity
  8
0
  6
Continuous
100
AcDbLine
 10
119.8286162516906
 20
122.2822397696603
 30
0.0
 11
119.7899247332051
 21
122.2767711951193
 31
0.0
  0
LINE
  5
5CA
330
E3
100
AcDbEntity
  8
0
  6
Continuous
100
AcDbLine
 10
119.7899247332051
 20
122.2767711951193
 30
0.0
 11
119.7496269337487
 21
122.271299010958
 31
0.0
  0
LINE
  5
5CB
330
E3
100
AcDbEntity
  8
0
  6
Continuous
100
AcDbLine
 10
119.7496269337487
 20
122.271299010958
 30
0.0
 11
119.7080260614149
 21
122.2658268267968
 31
0.0
  0
LINE
  5
5CC
330
E3
100
AcDbEntity
  8
0
  6
Continuous
100
AcDbLine
 10
119.7080260614149
 20
122.2658268267968
 30
0.0
 11
119.6654397627777
 21
122.2603546426356
 31
0.0
  0
LINE
  5
5CD
330
E3
100
AcDbEntity
  8
0
  6
Continuous
100
AcDbLine
 10
119.6654397627777
 20
122.2603546426356
 30
0.0
 11
119.6221965132715
 21
122.2548860680945
 31
0.0
  0
LINE
  5
5CE
330
E3
100
AcDbEntity
  8
0
  6
Continuous
100
AcDbLine
 10
119.6221965132715
 20
122.2548860680945
 30
0.0
 11
119.5786175690905
 21
122.2494138839333
 31
0.0
  0
LINE
  5
5CF
330
E3
100
AcDbEntity
  8
0
  6
Continuous
100
AcDbLine
 10
119.5786175690905
 20
122.2494138839333
 30
0.0
 11
119.5350386249095
 21
122.2439416997721
 31
0.0
  0
LINE
  5
5D0
330
E3
100
AcDbEntity
  8
0
  6
Continuous
100
AcDbLine
 10
119.5350386249095
 20
122.2439416997721
 30
0.0
 11
119.4917917657832
 21
122.2384695156109
 31
0.0
  0
LINE
  5
5D1
330
E3
100
AcDbEntity
  8
0
  6
Continuous
100
AcDbLine
 10
119.4917917657832
 20
122.2384695156109
 30
0.0
 11
119.4492090767661
 21
122.2329973314497
 31
0.0
  0
LINE
  5
5D2
330
E3
100
AcDbEntity
  8
0
  6
Continuous
100
AcDbLine
 10
119.4492090767661
 20
122.2329973314497
 30
0.0
 11
119.4076082044323
 21
122.2275287569086
 31
0.0
  0
LINE
  5
5D3
330
E3
100
AcDbEntity
  8
0
  6
Continuous
100
AcDbLine
 10
119.4076082044323
 20
122.2275287569086
 30
0.0
 11
119.3673067953558
 21
122.2220565727474
 31
0.0
  0
LINE
  5
5D4
330
E3
100
AcDbEntity
  8
0
  6
Continuous
100
AcDbLine
 10
119.3673067953558
 20
122.2220565727474
 30
0.0
 11
119.3286152768703
 21
122.2165843885862
 31
0.0
  0
LINE
  5
5D5
330
E3
100
AcDbEntity
  8
0
  6
Continuous
100
AcDbLine
 10
119.3286152768703
 20
122.2165843885862
 30
0.0
 11
119.2918296378288
 21
122.211112204425
 31
0.0
  0
LINE
  5
5D6
330
E3
100
AcDbEntity
  8
0
  6
Continuous
100
AcDbLine
 10
119.2918296378288
 20
122.211112204425
 30
0.0
 11
119.2572242093633
 21
122.2056436298839
 31
0.0
  0
LINE
  5
5D7
330
E3
100
AcDbEntity
  8
0
  6
Continuous
100
AcDbLine
 10
119.2572242093633
 20
122.2056436298839
 30
0.0
 11
119.2250624937456
 21
122.2001714457227
 31
0.0
  0
LINE
  5
5D8
330
E3
100
AcDbEntity
  8
0
  6
Continuous
100
AcDbLine
 10
119.2250624937456
 20
122.2001714457227
 30
0.0
 11
119.1955935547666
 21
122.1946992615615
 31
0.0
  0
LINE
  5
5D9
330
E3
100
AcDbEntity
  8
0
  6
Continuous
100
AcDbLine
 10
119.1955935547666
 20
122.1946992615615
 30
0.0
 11
119.1690411888762
 21
122.1892270774003
 31
0.0
  0
LINE
  5
5DA
330
E3
100
AcDbEntity
  8
0
  6
Continuous
100
AcDbLine
 10
119.1690411888762
 20
122.1892270774003
 30
0.0
 11
119.145603925183
 21
122.183754893239
 31
0.0
  0
LINE
  5
5DB
330
E3
100
AcDbEntity
  8
0
  6
Continuous
100
AcDbLine
 10
119.145603925183
 20
122.183754893239
 30
0.0
 11
119.1254622446952
 21
122.178286318698
 31
0.0
  0
LINE
  5
5DC
330
E3
100
AcDbEntity
  8
0
  6
Continuous
100
AcDbLine
 10
119.1254622446952
 20
122.178286318698
 30
0.0
 11
119.1087713610794
 21
122.1728141345368
 31
0.0
  0
LINE
  5
5DD
330
E3
100
AcDbEntity
  8
0
  6
Continuous
100
AcDbLine
 10
119.1087713610794
 20
122.1728141345368
 30
0.0
 11
119.0956540014212
 21
122.1673419503756
 31
0.0
  0
LINE
  5
5DE
330
E3
100
AcDbEntity
  8
0
  6
Continuous
100
AcDbLine
 10
119.0956540014212
 20
122.1673419503756
 30
0.0
 11
119.0862148447051
 21
122.1618697662144
 31
0.0
  0
LINE
  5
5DF
330
E3
100
AcDbEntity
  8
0
  6
Continuous
100
AcDbLine
 10
119.0862148447051
 20
122.1618697662144
 30
0.0
 11
119.0805196730092
 21
122.1563996787282
 31
0.0
  0
LINE
  5
5E0
330
E3
100
AcDbEntity
  8
0
  6
Continuous
100
AcDbLine
 10
119.0805196730092
 20
122.1563996787282
 30
0.0
 11
119.0786170220551
 21
122.1509282982569
 31
0.0
  0
LINE
  5
5E1
330
E3
100
AcDbEntity
  8
0
  6
Continuous
100
AcDbLine
 10
120.0786170220551
 20
121.9539586012872
 30
0.0
 11
120.0767143711009
 21
121.9484872208158
 31
0.0
  0
LINE
  5
5E2
330
E3
100
AcDbEntity
  8
0
  6
Continuous
100
AcDbLine
 10
120.0767143711009
 20
121.9484872208158
 30
0.0
 11
120.0710208985612
 21
121.9430158403444
 31
0.0
  0
LINE
  5
5E3
330
E3
100
AcDbEntity
  8
0
  6
Continuous
100
AcDbLine
 10
120.0710208985612
 20
121.9430158403444
 30
0.0
 11
120.0615811367598
 21
121.9375427021859
 31
0.0
  0
LINE
  5
5E4
330
E3
100
AcDbEntity
  8
0
  6
Continuous
100
AcDbLine
 10
120.0615811367598
 20
121.9375427021859
 30
0.0
 11
120.0484637771016
 21
121.9320741276448
 31
0.0
  0
LINE
  5
5E5
330
E3
100
AcDbEntity
  8
0
  6
Continuous
100
AcDbLine
 10
120.0484637771016
 20
121.9320741276448
 30
0.0
 11
120.0317692838657
 21
121.9266019434836
 31
0.0
  0
LINE
  5
5E6
330
E3
100
AcDbEntity
  8
0
  6
Continuous
100
AcDbLine
 10
120.0317692838657
 20
121.9266019434836
 30
0.0
 11
120.011631212998
 21
121.9211297593224
 31
0.0
  0
LINE
  5
5E7
330
E3
100
AcDbEntity
  8
0
  6
Continuous
100
AcDbLine
 10
120.011631212998
 20
121.9211297593224
 30
0.0
 11
119.9881939493049
 21
121.9156575751612
 31
0.0
  0
LINE
  5
5E8
330
E3
100
AcDbEntity
  8
0
  6
Continuous
100
AcDbLine
 10
119.9881939493049
 20
121.9156575751612
 30
0.0
 11
119.9616379737943
 21
121.9101890006201
 31
0.0
  0
LINE
  5
5E9
330
E3
100
AcDbEntity
  8
0
  6
Continuous
100
AcDbLine
 10
119.9616379737943
 20
121.9101890006201
 30
0.0
 11
119.9321690348153
 21
121.9047168164589
 31
0.0
  0
LINE
  5
5EA
330
E3
100
AcDbEntity
  8
0
  6
Continuous
100
AcDbLine
 10
119.9321690348153
 20
121.9047168164589
 30
0.0
 11
119.9000109288177
 21
121.8992446322977
 31
0.0
  0
LINE
  5
5EB
330
E3
100
AcDbEntity
  8
0
  6
Continuous
100
AcDbLine
 10
119.9000109288177
 20
121.8992446322977
 30
0.0
 11
119.8654055003523
 21
121.8937724481365
 31
0.0
  0
LINE
  5
5EC
330
E3
100
AcDbEntity
  8
0
  6
Continuous
100
AcDbLine
 10
119.8654055003523
 20
121.8937724481365
 30
0.0
 11
119.8286162516906
 21
121.8883002639753
 31
0.0
  0
LINE
  5
5ED
330
E3
100
AcDbEntity
  8
0
  6
Continuous
100
AcDbLine
 10
119.8286162516906
 20
121.8883002639753
 30
0.0
 11
119.7899247332051
 21
121.8828316894342
 31
0.0
  0
LINE
  5
5EE
330
E3
100
AcDbEntity
  8
0
  6
Continuous
100
AcDbLine
 10
119.7899247332051
 20
121.8828316894342
 30
0.0
 11
119.7496269337487
 21
121.877359505273
 31
0.0
  0
LINE
  5
5EF
330
E3
100
AcDbEntity
  8
0
  6
Continuous
100
AcDbLine
 10
119.7496269337487
 20
121.877359505273
 30
0.0
 11
119.7080260614149
 21
121.8718873211118
 31
0.0
  0
LINE
  5
5F0
330
E3
100
AcDbEntity
  8
0
  6
Continuous
100
AcDbLine
 10
119.7080260614149
 20
121.8718873211118
 30
0.0
 11
119.6654397627777
 21
121.8664151369505
 31
0.0
  0
LINE
  5
5F1
330
E3
100
AcDbEntity
  8
0
  6
Continuous
100
AcDbLine
 10
119.6654397627777
 20
121.8664151369505
 30
0.0
 11
119.6221965132715
 21
121.8609465624095
 31
0.0
  0
LINE
  5
5F2
330
E3
100
AcDbEntity
  8
0
  6
Continuous
100
AcDbLine
 10
119.6221965132715
 20
121.8609465624095
 30
0.0
 11
119.5786175690905
 21
121.8554743782483
 31
0.0
  0
LINE
  5
5F3
330
E3
100
AcDbEntity
  8
0
  6
Continuous
100
AcDbLine
 10
119.5786175690905
 20
121.8554743782483
 30
0.0
 11
119.5350386249095
 21
121.8500021940871
 31
0.0
  0
LINE
  5
5F4
330
E3
100
AcDbEntity
  8
0
  6
Continuous
100
AcDbLine
 10
119.5350386249095
 20
121.8500021940871
 30
0.0
 11
119.4917917657832
 21
121.8445300099258
 31
0.0
  0
LINE
  5
5F5
330
E3
100
AcDbEntity
  8
0
  6
Continuous
100
AcDbLine
 10
119.4917917657832
 20
121.8445300099258
 30
0.0
 11
119.4492090767661
 21
121.8390578257646
 31
0.0
  0
LINE
  5
5F6
330
E3
100
AcDbEntity
  8
0
  6
Continuous
100
AcDbLine
 10
119.4492090767661
 20
121.8390578257646
 30
0.0
 11
119.4076082044323
 21
121.8335892512236
 31
0.0
  0
LINE
  5
5F7
330
E3
100
AcDbEntity
  8
0
  6
Continuous
100
AcDbLine
 10
119.4076082044323
 20
121.8335892512236
 30
0.0
 11
119.3673067953558
 21
121.8281170670623
 31
0.0
  0
LINE
  5
5F8
330
E3
100
AcDbEntity
  8
0
  6
Continuous
100
AcDbLine
 10
119.3673067953558
 20
121.8281170670623
 30
0.0
 11
119.3286152768703
 21
121.8226448829011
 31
0.0
  0
LINE
  5
5F9
330
E3
100
AcDbEntity
  8
0
  6
Continuous
100
AcDbLine
 10
119.3286152768703
 20
121.8226448829011
 30
0.0
 11
119.2918296378288
 21
121.8171726987399
 31
0.0
  0
LINE
  5
5FA
330
E3
100
AcDbEntity
  8
0
  6
Continuous
100
AcDbLine
 10
119.2918296378288
 20
121.8171726987399
 30
0.0
 11
119.2572242093633
 21
121.8117041241989
 31
0.0
  0
LINE
  5
5FB
330
E3
100
AcDbEntity
  8
0
  6
Continuous
100
AcDbLine
 10
119.2572242093633
 20
121.8117041241989
 30
0.0
 11
119.2250624937456
 21
121.8062319400376
 31
0.0
  0
LINE
  5
5FC
330
E3
100
AcDbEntity
  8
0
  6
Continuous
100
AcDbLine
 10
119.2250624937456
 20
121.8062319400376
 30
0.0
 11
119.1955935547666
 21
121.8007597558764
 31
0.0
  0
LINE
  5
5FD
330
E3
100
AcDbEntity
  8
0
  6
Continuous
100
AcDbLine
 10
119.1955935547666
 20
121.8007597558764
 30
0.0
 11
119.1690411888762
 21
121.7952875717152
 31
0.0
  0
LINE
  5
5FE
330
E3
100
AcDbEntity
  8
0
  6
Continuous
100
AcDbLine
 10
119.1690411888762
 20
121.7952875717152
 30
0.0
 11
119.145603925183
 21
121.789815387554
 31
0.0
  0
LINE
  5
5FF
330
E3
100
AcDbEntity
  8
0
  6
Continuous
100
AcDbLine
 10
119.145603925183
 20
121.789815387554
 30
0.0
 11
119.1254622446952
 21
121.7843468130129
 31
0.0
  0
LINE
  5
600
330
E3
100
AcDbEntity
  8
0
  6
Continuous
100
AcDbLine
 10
119.1254622446952
 20
121.7843468130129
 30
0.0
 11
119.1087713610794
 21
121.7788746288517
 31
0.0
  0
LINE
  5
601
330
E3
100
AcDbEntity
  8
0
  6
Continuous
100
AcDbLine
 10
119.1087713610794
 20
121.7788746288517
 30
0.0
 11
119.0956540014212
 21
121.7734024446905
 31
0.0
  0
LINE
  5
602
330
E3
100
AcDbEntity
  8
0
  6
Continuous
100
AcDbLine
 10
119.0956540014212
 20
121.7734024446905
 30
0.0
 11
119.0862148447051
 21
121.7679302605293
 31
0.0
  0
LINE
  5
603
330
E3
100
AcDbEntity
  8
0
  6
Continuous
100
AcDbLine
 10
119.0862148447051
 20
121.7679302605293
 30
0.0
 11
119.0805196730092
 21
121.7624602847889
 31
0.0
  0
LINE
  5
604
330
E3
100
AcDbEntity
  8
0
  6
Continuous
100
AcDbLine
 10
119.0805196730092
 20
121.7624602847889
 30
0.0
 11
119.0786170220551
 21
121.7569889043175
 31
0.0
  0
LINE
  5
605
330
E3
100
AcDbEntity
  8
0
  6
Continuous
100
AcDbLine
 10
120.0786170220551
 20
121.5600192073478
 30
0.0
 11
120.0767143711009
 21
121.5545478268764
 31
0.0
  0
LINE
  5
606
330
E3
100
AcDbEntity
  8
0
  6
Continuous
100
AcDbLine
 10
120.0767143711009
 20
121.5545478268764
 30
0.0
 11
120.0710208985612
 21
121.549076446405
 31
0.0
  0
LINE
  5
607
330
E3
100
AcDbEntity
  8
0
  6
Continuous
100
AcDbLine
 10
120.0710208985612
 20
121.549076446405
 30
0.0
 11
120.0615811367598
 21
121.543606806121
 31
0.0
  0
LINE
  5
608
330
E3
100
AcDbEntity
  8
0
  6
Continuous
100
AcDbLine
 10
120.0615811367598
 20
121.543606806121
 30
0.0
 11
120.0484637771016
 21
121.5381346219598
 31
0.0
  0
LINE
  5
609
330
E3
100
AcDbEntity
  8
0
  6
Continuous
100
AcDbLine
 10
120.0484637771016
 20
121.5381346219598
 30
0.0
 11
120.0317692838657
 21
121.5326624377985
 31
0.0
  0
LINE
  5
60A
330
E3
100
AcDbEntity
  8
0
  6
Continuous
100
AcDbLine
 10
120.0317692838657
 20
121.5326624377985
 30
0.0
 11
120.011631212998
 21
121.5271902536373
 31
0.0
  0
LINE
  5
60B
330
E3
100
AcDbEntity
  8
0
  6
Continuous
100
AcDbLine
 10
120.011631212998
 20
121.5271902536373
 30
0.0
 11
119.9881939493049
 21
121.5217180694761
 31
0.0
  0
LINE
  5
60C
330
E3
100
AcDbEntity
  8
0
  6
Continuous
100
AcDbLine
 10
119.9881939493049
 20
121.5217180694761
 30
0.0
 11
119.9616379737943
 21
121.516249494935
 31
0.0
  0
LINE
  5
60D
330
E3
100
AcDbEntity
  8
0
  6
Continuous
100
AcDbLine
 10
119.9616379737943
 20
121.516249494935
 30
0.0
 11
119.9321690348153
 21
121.5107773107738
 31
0.0
  0
LINE
  5
60E
330
E3
100
AcDbEntity
  8
0
  6
Continuous
100
AcDbLine
 10
119.9321690348153
 20
121.5107773107738
 30
0.0
 11
119.9000109288177
 21
121.5053051266126
 31
0.0
  0
LINE
  5
60F
330
E3
100
AcDbEntity
  8
0
  6
Continuous
100
AcDbLine
 10
119.9000109288177
 20
121.5053051266126
 30
0.0
 11
119.8654055003523
 21
121.4998329424514
 31
0.0
  0
LINE
  5
610
330
E3
100
AcDbEntity
  8
0
  6
Continuous
100
AcDbLine
 10
119.8654055003523
 20
121.4998329424514
 30
0.0
 11
119.8286162516906
 21
121.4943643679104
 31
0.0
  0
LINE
  5
611
330
E3
100
AcDbEntity
  8
0
  6
Continuous
100
AcDbLine
 10
119.8286162516906
 20
121.4943643679104
 30
0.0
 11
119.7899247332051
 21
121.4888921837491
 31
0.0
  0
LINE
  5
612
330
E3
100
AcDbEntity
  8
0
  6
Continuous
100
AcDbLine
 10
119.7899247332051
 20
121.4888921837491
 30
0.0
 11
119.7496269337487
 21
121.4834199995879
 31
0.0
  0
LINE
  5
613
330
E3
100
AcDbEntity
  8
0
  6
Continuous
100
AcDbLine
 10
119.7496269337487
 20
121.4834199995879
 30
0.0
 11
119.7080260614149
 21
121.4779478154267
 31
0.0
  0
LINE
  5
614
330
E3
100
AcDbEntity
  8
0
  6
Continuous
100
AcDbLine
 10
119.7080260614149
 20
121.4779478154267
 30
0.0
 11
119.6654397627777
 21
121.4724756312655
 31
0.0
  0
LINE
  5
615
330
E3
100
AcDbEntity
  8
0
  6
Continuous
100
AcDbLine
 10
119.6654397627777
 20
121.4724756312655
 30
0.0
 11
119.6221965132715
 21
121.4670070567244
 31
0.0
  0
LINE
  5
616
330
E3
100
AcDbEntity
  8
0
  6
Continuous
100
AcDbLine
 10
119.6221965132715
 20
121.4670070567244
 30
0.0
 11
119.5786175690905
 21
121.4615348725632
 31
0.0
  0
LINE
  5
617
330
E3
100
AcDbEntity
  8
0
  6
Continuous
100
AcDbLine
 10
119.5786175690905
 20
121.4615348725632
 30
0.0
 11
119.5350386249095
 21
121.456062688402
 31
0.0
  0
LINE
  5
618
330
E3
100
AcDbEntity
  8
0
  6
Continuous
100
AcDbLine
 10
119.5350386249095
 20
121.456062688402
 30
0.0
 11
119.4917917657832
 21
121.4505905042408
 31
0.0
  0
LINE
  5
619
330
E3
100
AcDbEntity
  8
0
  6
Continuous
100
AcDbLine
 10
119.4917917657832
 20
121.4505905042408
 30
0.0
 11
119.4492090767661
 21
121.4451219296997
 31
0.0
  0
LINE
  5
61A
330
E3
100
AcDbEntity
  8
0
  6
Continuous
100
AcDbLine
 10
119.4492090767661
 20
121.4451219296997
 30
0.0
 11
119.4076082044323
 21
121.4396497455385
 31
0.0
  0
LINE
  5
61B
330
E3
100
AcDbEntity
  8
0
  6
Continuous
100
AcDbLine
 10
119.4076082044323
 20
121.4396497455385
 30
0.0
 11
119.3673067953558
 21
121.4341775613773
 31
0.0
  0
LINE
  5
61C
330
E3
100
AcDbEntity
  8
0
  6
Continuous
100
AcDbLine
 10
119.3673067953558
 20
121.4341775613773
 30
0.0
 11
119.3286152768703
 21
121.428705377216
 31
0.0
  0
LINE
  5
61D
330
E3
100
AcDbEntity
  8
0
  6
Continuous
100
AcDbLine
 10
119.3286152768703
 20
121.428705377216
 30
0.0
 11
119.2918296378288
 21
121.4232331930548
 31
0.0
  0
LINE
  5
61E
330
E3
100
AcDbEntity
  8
0
  6
Continuous
100
AcDbLine
 10
119.2918296378288
 20
121.4232331930548
 30
0.0
 11
119.2572242093633
 21
121.4177646185138
 31
0.0
  0
LINE
  5
61F
330
E3
100
AcDbEntity
  8
0
  6
Continuous
100
AcDbLine
 10
119.2572242093633
 20
121.4177646185138
 30
0.0
 11
119.2250624937456
 21
121.4122924343526
 31
0.0
  0
LINE
  5
620
330
E3
100
AcDbEntity
  8
0
  6
Continuous
100
AcDbLine
 10
119.2250624937456
 20
121.4122924343526
 30
0.0
 11
119.1955935547666
 21
121.4068202501914
 31
0.0
  0
LINE
  5
621
330
E3
100
AcDbEntity
  8
0
  6
Continuous
100
AcDbLine
 10
119.1955935547666
 20
121.4068202501914
 30
0.0
 11
119.1690411888762
 21
121.4013480660301
 31
0.0
  0
LINE
  5
622
330
E3
100
AcDbEntity
  8
0
  6
Continuous
100
AcDbLine
 10
119.1690411888762
 20
121.4013480660301
 30
0.0
 11
119.145603925183
 21
121.3958794914891
 31
0.0
  0
LINE
  5
623
330
E3
100
AcDbEntity
  8
0
  6
Continuous
100
AcDbLine
 10
119.145603925183
 20
121.3958794914891
 30
0.0
 11
119.1254622446952
 21
121.3904073073279
 31
0.0
  0
LINE
  5
624
330
E3
100
AcDbEntity
  8
0
  6
Continuous
100
AcDbLine
 10
119.1254622446952
 20
121.3904073073279
 30
0.0
 11
119.1087713610794
 21
121.3849351231666
 31
0.0
  0
LINE
  5
625
330
E3
100
AcDbEntity
  8
0
  6
Continuous
100
AcDbLine
 10
119.1087713610794
 20
121.3849351231666
 30
0.0
 11
119.0956540014212
 21
121.3794629390054
 31
0.0
  0
LINE
  5
626
330
E3
100
AcDbEntity
  8
0
  6
Continuous
100
AcDbLine
 10
119.0956540014212
 20
121.3794629390054
 30
0.0
 11
119.0862148447051
 21
121.3739907548442
 31
0.0
  0
LINE
  5
627
330
E3
100
AcDbEntity
  8
0
  6
Continuous
100
AcDbLine
 10
119.0862148447051
 20
121.3739907548442
 30
0.0
 11
119.0805196730092
 21
121.3685208908495
 31
0.0
  0
LINE
  5
628
330
E3
100
AcDbEntity
  8
0
  6
Continuous
100
AcDbLine
 10
119.0805196730092
 20
121.3685208908495
 30
0.0
 11
119.0786170220551
 21
121.3630495103781
 31
0.0
  0
LINE
  5
629
330
E3
100
AcDbEntity
  8
0
  6
Continuous
100
AcDbLine
 10
120.0786170220551
 20
121.1660798134084
 30
0.0
 11
120.0767143711009
 21
121.160608432937
 31
0.0
  0
LINE
  5
62A
330
E3
100
AcDbEntity
  8
0
  6
Continuous
100
AcDbLine
 10
120.0767143711009
 20
121.160608432937
 30
0.0
 11
120.0710208985612
 21
121.1551370524656
 31
0.0
  0
LINE
  5
62B
330
E3
100
AcDbEntity
  8
0
  6
Continuous
100
AcDbLine
 10
120.0710208985612
 20
121.1551370524656
 30
0.0
 11
120.0615811367598
 21
121.1496673004359
 31
0.0
  0
LINE
  5
62C
330
E3
100
AcDbEntity
  8
0
  6
Continuous
100
AcDbLine
 10
120.0615811367598
 20
121.1496673004359
 30
0.0
 11
120.0484637771016
 21
121.1441951162747
 31
0.0
  0
LINE
  5
62D
330
E3
100
AcDbEntity
  8
0
  6
Continuous
100
AcDbLine
 10
120.0484637771016
 20
121.1441951162747
 30
0.0
 11
120.0317692838657
 21
121.1387229321135
 31
0.0
  0
LINE
  5
62E
330
E3
100
AcDbEntity
  8
0
  6
Continuous
100
AcDbLine
 10
120.0317692838657
 20
121.1387229321135
 30
0.0
 11
120.011631212998
 21
121.1332507479523
 31
0.0
  0
LINE
  5
62F
330
E3
100
AcDbEntity
  8
0
  6
Continuous
100
AcDbLine
 10
120.011631212998
 20
121.1332507479523
 30
0.0
 11
119.9881939493049
 21
121.127778563791
 31
0.0
  0
LINE
  5
630
330
E3
100
AcDbEntity
  8
0
  6
Continuous
100
AcDbLine
 10
119.9881939493049
 20
121.127778563791
 30
0.0
 11
119.9616379737943
 21
121.12230998925
 31
0.0
  0
LINE
  5
631
330
E3
100
AcDbEntity
  8
0
  6
Continuous
100
AcDbLine
 10
119.9616379737943
 20
121.12230998925
 30
0.0
 11
119.9321690348153
 21
121.1168378050888
 31
0.0
  0
LINE
  5
632
330
E3
100
AcDbEntity
  8
0
  6
Continuous
100
AcDbLine
 10
119.9321690348153
 20
121.1168378050888
 30
0.0
 11
119.9000109288177
 21
121.1113656209275
 31
0.0
  0
LINE
  5
633
330
E3
100
AcDbEntity
  8
0
  6
Continuous
100
AcDbLine
 10
119.9000109288177
 20
121.1113656209275
 30
0.0
 11
119.8654055003523
 21
121.1058934367663
 31
0.0
  0
LINE
  5
634
330
E3
100
AcDbEntity
  8
0
  6
Continuous
100
AcDbLine
 10
119.8654055003523
 20
121.1058934367663
 30
0.0
 11
119.8286162516906
 21
121.1004248622253
 31
0.0
  0
LINE
  5
635
330
E3
100
AcDbEntity
  8
0
  6
Continuous
100
AcDbLine
 10
119.8286162516906
 20
121.1004248622253
 30
0.0
 11
119.7899247332051
 21
121.0949526780641
 31
0.0
  0
LINE
  5
636
330
E3
100
AcDbEntity
  8
0
  6
Continuous
100
AcDbLine
 10
119.7899247332051
 20
121.0949526780641
 30
0.0
 11
119.7496269337487
 21
121.0894804939028
 31
0.0
  0
LINE
  5
637
330
E3
100
AcDbEntity
  8
0
  6
Continuous
100
AcDbLine
 10
119.7496269337487
 20
121.0894804939028
 30
0.0
 11
119.7080260614149
 21
121.0840083097416
 31
0.0
  0
LINE
  5
638
330
E3
100
AcDbEntity
  8
0
  6
Continuous
100
AcDbLine
 10
119.7080260614149
 20
121.0840083097416
 30
0.0
 11
119.6654397627777
 21
121.0785361255804
 31
0.0
  0
LINE
  5
639
330
E3
100
AcDbEntity
  8
0
  6
Continuous
100
AcDbLine
 10
119.6654397627777
 20
121.0785361255804
 30
0.0
 11
119.6221965132715
 21
121.0730675510393
 31
0.0
  0
LINE
  5
63A
330
E3
100
AcDbEntity
  8
0
  6
Continuous
100
AcDbLine
 10
119.6221965132715
 20
121.0730675510393
 30
0.0
 11
119.5786175690905
 21
121.0675953668781
 31
0.0
  0
LINE
  5
63B
330
E3
100
AcDbEntity
  8
0
  6
Continuous
100
AcDbLine
 10
119.5786175690905
 20
121.0675953668781
 30
0.0
 11
119.5350386249095
 21
121.0621231827169
 31
0.0
  0
LINE
  5
63C
330
E3
100
AcDbEntity
  8
0
  6
Continuous
100
AcDbLine
 10
119.5350386249095
 20
121.0621231827169
 30
0.0
 11
119.4917917657832
 21
121.0566509985557
 31
0.0
  0
LINE
  5
63D
330
E3
100
AcDbEntity
  8
0
  6
Continuous
100
AcDbLine
 10
119.4917917657832
 20
121.0566509985557
 30
0.0
 11
119.4492090767661
 21
121.0511824240146
 31
0.0
  0
LINE
  5
63E
330
E3
100
AcDbEntity
  8
0
  6
Continuous
100
AcDbLine
 10
119.4492090767661
 20
121.0511824240146
 30
0.0
 11
119.4076082044323
 21
121.0457102398534
 31
0.0
  0
LINE
  5
63F
330
E3
100
AcDbEntity
  8
0
  6
Continuous
100
AcDbLine
 10
119.4076082044323
 20
121.0457102398534
 30
0.0
 11
119.3673067953558
 21
121.0402380556922
 31
0.0
  0
LINE
  5
640
330
E3
100
AcDbEntity
  8
0
  6
Continuous
100
AcDbLine
 10
119.3673067953558
 20
121.0402380556922
 30
0.0
 11
119.3286152768703
 21
121.034765871531
 31
0.0
  0
LINE
  5
641
330
E3
100
AcDbEntity
  8
0
  6
Continuous
100
AcDbLine
 10
119.3286152768703
 20
121.034765871531
 30
0.0
 11
119.2918296378288
 21
121.0292936873698
 31
0.0
  0
LINE
  5
642
330
E3
100
AcDbEntity
  8
0
  6
Continuous
100
AcDbLine
 10
119.2918296378288
 20
121.0292936873698
 30
0.0
 11
119.2572242093633
 21
121.0238251128287
 31
0.0
  0
LINE
  5
643
330
E3
100
AcDbEntity
  8
0
  6
Continuous
100
AcDbLine
 10
119.2572242093633
 20
121.0238251128287
 30
0.0
 11
119.2250624937456
 21
121.0183529286675
 31
0.0
  0
LINE
  5
644
330
E3
100
AcDbEntity
  8
0
  6
Continuous
100
AcDbLine
 10
119.2250624937456
 20
121.0183529286675
 30
0.0
 11
119.1955935547666
 21
121.0128807445063
 31
0.0
  0
LINE
  5
645
330
E3
100
AcDbEntity
  8
0
  6
Continuous
100
AcDbLine
 10
119.1955935547666
 20
121.0128807445063
 30
0.0
 11
119.1690411888762
 21
121.0074085603451
 31
0.0
  0
LINE
  5
646
330
E3
100
AcDbEntity
  8
0
  6
Continuous
100
AcDbLine
 10
119.1690411888762
 20
121.0074085603451
 30
0.0
 11
119.145603925183
 21
121.001939985804
 31
0.0
  0
LINE
  5
647
330
E3
100
AcDbEntity
  8
0
  6
Continuous
100
AcDbLine
 10
119.145603925183
 20
121.001939985804
 30
0.0
 11
119.1254622446952
 21
120.9964678016428
 31
0.0
  0
LINE
  5
648
330
E3
100
AcDbEntity
  8
0
  6
Continuous
100
AcDbLine
 10
119.1254622446952
 20
120.9964678016428
 30
0.0
 11
119.1087713610794
 21
120.9909956174816
 31
0.0
  0
LINE
  5
649
330
E3
100
AcDbEntity
  8
0
  6
Continuous
100
AcDbLine
 10
119.1087713610794
 20
120.9909956174816
 30
0.0
 11
119.0956540014212
 21
120.9855234333204
 31
0.0
  0
LINE
  5
64A
330
E3
100
AcDbEntity
  8
0
  6
Continuous
100
AcDbLine
 10
119.0956540014212
 20
120.9855234333204
 30
0.0
 11
119.0862148447051
 21
120.9800512491591
 31
0.0
  0
ENDBLK
  5
E5
330
E3
100
AcDbEntity
  8
0
100
AcDbBlockEnd
  0
BLOCK
  5
650
330
64F
100
AcDbEntity
  8
0
100
AcDbBlockBegin
  2
R-TRS7-05 HIDDENGUTTER DETAIL_STORY_MARKER
 70
     0
 10
0.0
 20
0.0
 30
0.0
  3
R-TRS7-05 HIDDENGUTTER DETAIL_STORY_MARKER
  1

  0
ENDBLK
  5
651
330
64F
100
AcDbEntity
  8
0
100
AcDbBlockEnd
  0
ENDSEC
  0
SECTION
  2
ENTITIES
  0
HATCH
  5
3F
330
1F
100
AcDbEntity
  8
Doc_ Finishes
  6
Continuous
100
AcDbHatch
 10
0.0
 20
0.0
 30
0.0
210
0.0
220
0.0
230
1.0
  2
SOLID
 70
     1
 71
     0
 91
        1
 92
        3
 72
     0
 73
     1
 93
       54
 10
27.4117749414874
 20
16.87044408857867
 10
26.89356552397386
 20
16.5825499677378
 10
26.5480925789648
 20
16.29465584689693
 10
26.12584786839819
 20
16.02595466744544
 10
25.76118198199976
 20
15.60370995687884
 10
25.39651609560134
 20
15.33500877742737
 10
25.07023609198168
 20
14.89357112547136
 10
24.49444785029994
 20
14.45213347351537
 10
23.93785255000758
 20
14.02988876294876
 10
23.43883607388344
 20
13.81876640766546
 10
22.74789018386533
 20
13.39652169709885
 10
22.09533017662603
 20
12.99346992792163
 10
21.63469958328064
 20
12.55203227596564
 10
20.90536781048376
 20
12.12978756539902
 10
20.59828074825351
 20
11.7459287376112
 10
20.04168544796116
 20
11.28529814426581
 10
19.36993249933246
 20
10.8630534336992
 10
18.73656543348255
 20
10.42161578174319
 10
18.04561954346447
 20
10.15291460229172
 10
17.1051654153843
 20
9.692284008946325
 10
16.39502658397681
 20
9.020531060317637
 10
15.83843128368446
 20
8.598286349751023
 10
15.12829245227699
 20
8.137655756405634
 10
14.84039833143612
 20
7.98411222529051
 10
14.37976773809073
 20
7.81137575278599
 10
14.07268067586046
 20
7.523481631945121
 10
14.0151018516923
 20
7.216394569714853
 10
14.14945244141803
 20
6.890114566095209
 10
14.4373465622589
 20
6.563834562475543
 10
14.8787842142149
 20
6.659799269422514
 10
15.51215128006482
 20
7.06285103859973
 10
16.01116775618899
 20
7.389131042219374
 10
16.33744775980864
 20
7.696218104449641
 10
16.51018423231316
 20
7.907340459732938
 10
17.01303929671522
 20
8.421711288968723
 10
17.33548071205699
 20
8.652026585641417
 10
17.75004824606785
 20
8.99749953065046
 10
18.14158425041142
 20
9.204783297655894
 10
19.24709767444037
 20
9.75754000967037
 10
20.23745345013295
 20
10.47151742935572
 10
21.4120614631637
 20
11.1624633193738
 10
21.84966052684182
 20
11.64612544238645
 10
22.49454335752537
 20
12.06069297639732
 10
23.78430901889248
 20
12.9819541630881
 10
24.3600972605742
 20
13.25833251909534
 10
25.6498629219413
 20
14.24868829478776
 10
25.85714668894673
 20
14.64022429913134
 10
26.68628175696843
 20
15.23904407048036
 10
27.28510152831745
 20
15.72270619349301
 10
27.81482671066464
 20
16.1142421978366
 10
28.27545730401003
 20
16.52880973184745
 10
28.22939424467549
 20
16.7821565581874
 10
28.09120506667188
 20
16.89731420652375
 10
27.56147988432467
 20
16.89731420652375
 97
        0
 75
     0
 76
     1
 98
        0
  0
LINE
  5
41
330
1F
100
AcDbEntity
  8
Doc_ Finishes
  6
Continuous
100
AcDbLine
 10
27.41177566876475
 20
16.87044600708104
 30
0.0
 11
26.89356756490952
 21
16.58254868214004
 31
0.0
  0
LINE
  5
42
330
1F
100
AcDbEntity
  8
Doc_ Finishes
  6
Continuous
100
AcDbLine
 10
26.89356756490952
 20
16.58254868214004
 30
0.0
 11
26.54809254523997
 21
16.29465578284815
 31
0.0
  0
LINE
  5
43
330
1F
100
AcDbEntity
  8
Doc_ Finishes
  6
Continuous
100
AcDbLine
 10
26.54809254523997
 20
16.29465578284815
 30
0.0
 11
26.12584579071597
 21
16.02595249803305
 31
0.0
  0
LINE
  5
44
330
1F
100
AcDbEntity
  8
Doc_ Finishes
  6
Continuous
100
AcDbLine
 10
26.12584579071597
 20
16.02595249803305
 30
0.0
 11
25.76118115656963
 21
15.60371016915814
 31
0.0
  0
LINE
  5
45
330
1F
100
AcDbEntity
  8
Doc_ Finishes
  6
Continuous
100
AcDbLine
 10
25.76118115656963
 20
15.60371016915814
 30
0.0
 11
25.39651652242329
 21
15.33500688434304
 31
0.0
  0
LINE
  5
46
330
1F
100
AcDbEntity
  8
Doc_ Finishes
  6
Continuous
100
AcDbLine
 10
25.39651652242329
 20
15.33500688434304
 30
0.0
 11
25.07023554287962
 21
14.89357051534225
 31
0.0
  0
LINE
  5
47
330
1F
100
AcDbEntity
  8
Doc_ Finishes
  6
Continuous
100
AcDbLine
 10
25.07023554287962
 20
14.89357051534225
 30
0.0
 11
24.49444974429583
 21
14.45213414634146
 31
0.0
  0
LINE
  5
48
330
1F
100
AcDbEntity
  8
Doc_ Finishes
  6
Continuous
100
AcDbLine
 10
24.49444974429583
 20
14.45213414634146
 30
0.0
 11
23.93785356018882
 21
14.02988739181747
 31
0.0
  0
LINE
  5
49
330
1F
100
AcDbEntity
  8
Doc_ Finishes
  6
Continuous
100
AcDbLine
 10
23.93785356018882
 20
14.02988739181747
 30
0.0
 11
23.43883507081038
 21
13.81876622738001
 31
0.0
  0
LINE
  5
4A
330
1F
100
AcDbEntity
  8
Doc_ Finishes
  6
Continuous
100
AcDbLine
 10
23.43883507081038
 20
13.81876622738001
 30
0.0
 11
22.74788945712038
 21
13.39652389850511
 31
0.0
  0
LINE
  5
4B
330
1F
100
AcDbEntity
  8
Doc_ Finishes
  6
Continuous
100
AcDbLine
 10
22.74788945712038
 20
13.39652389850511
 30
0.0
 11
22.09533192368214
 21
12.993471184107
 31
0.0
  0
LINE
  5
4C
330
1F
100
AcDbEntity
  8
Doc_ Finishes
  6
Continuous
100
AcDbLine
 10
22.09533192368214
 20
12.993471184107
 30
0.0
 11
21.63470151455547
 21
12.55203038945712
 31
0.0
  0
LINE
  5
4D
330
1F
100
AcDbEntity
  8
Doc_ Finishes
  6
Continuous
100
AcDbLine
 10
21.63470151455547
 20
12.55203038945712
 30
0.0
 11
20.90536782061369
 21
12.12978806058222
 31
0.0
  0
LINE
  5
4E
330
1F
100
AcDbEntity
  8
Doc_ Finishes
  6
Continuous
100
AcDbLine
 10
20.90536782061369
 20
12.12978806058222
 30
0.0
 11
20.59828088119591
 21
11.74592938630999
 31
0.0
  0
LINE
  5
4F
330
1F
100
AcDbEntity
  8
Doc_ Finishes
  6
Continuous
100
AcDbLine
 10
20.59828088119591
 20
11.74592938630999
 30
0.0
 11
20.0416846970889
 21
11.28529897718332
 31
0.0
  0
LINE
  5
50
330
1F
100
AcDbEntity
  8
Doc_ Finishes
  6
Continuous
100
AcDbLine
 10
20.0416846970889
 20
11.28529897718332
 30
0.0
 11
19.36993312352478
 21
10.86305222265932
 31
0.0
  0
LINE
  5
51
330
1F
100
AcDbEntity
  8
Doc_ Finishes
  6
Continuous
100
AcDbLine
 10
19.36993312352478
 20
10.86305222265932
 30
0.0
 11
18.73656520456333
 21
10.42161585365854
 31
0.0
  0
LINE
  5
52
330
1F
100
AcDbEntity
  8
Doc_ Finishes
  6
Continuous
100
AcDbLine
 10
18.73656520456333
 20
10.42161585365854
 30
0.0
 11
18.04561959087333
 21
10.15291256884343
 31
0.0
  0
LINE
  5
53
330
1F
100
AcDbEntity
  8
Doc_ Finishes
  6
Continuous
100
AcDbLine
 10
18.04561959087333
 20
10.15291256884343
 30
0.0
 11
17.1051647324941
 21
9.692282159716758
 31
0.0
  0
LINE
  5
54
330
1F
100
AcDbEntity
  8
Doc_ Finishes
  6
Continuous
100
AcDbLine
 10
17.1051647324941
 20
9.692282159716758
 30
0.0
 11
16.3950250786782
 21
9.020530586152635
 31
0.0
  0
LINE
  5
55
330
1F
100
AcDbEntity
  8
Doc_ Finishes
  6
Continuous
100
AcDbLine
 10
16.3950250786782
 20
9.020530586152635
 30
0.0
 11
15.8384333202203
 21
8.598288257277733
 31
0.0
  0
LINE
  5
56
330
1F
100
AcDbEntity
  8
Doc_ Finishes
  6
Continuous
100
AcDbLine
 10
15.8384333202203
 20
8.598288257277733
 30
0.0
 11
15.1282936664044
 21
8.137657848151063
 31
0.0
  0
LINE
  5
57
330
1F
100
AcDbEntity
  8
Doc_ Finishes
  6
Continuous
100
AcDbLine
 10
15.1282936664044
 20
8.137657848151063
 30
0.0
 11
14.84039634146341
 21
7.984114378442171
 31
0.0
  0
LINE
  5
58
330
1F
100
AcDbEntity
  8
Doc_ Finishes
  6
Continuous
100
AcDbLine
 10
14.84039634146341
 20
7.984114378442171
 30
0.0
 11
14.37976593233674
 21
7.811376868607396
 31
0.0
  0
LINE
  5
59
330
1F
100
AcDbEntity
  8
Doc_ Finishes
  6
Continuous
100
AcDbLine
 10
14.37976593233674
 20
7.811376868607396
 30
0.0
 11
14.07267899291896
 21
7.523479543666405
 31
0.0
  0
LINE
  5
5A
330
1F
100
AcDbEntity
  8
Doc_ Finishes
  6
Continuous
100
AcDbLine
 10
14.07267899291896
 20
7.523479543666405
 30
0.0
 11
14.0151012981904
 21
7.216392604248622
 31
0.0
  0
LINE
  5
5B
330
1F
100
AcDbEntity
  8
Doc_ Finishes
  6
Continuous
100
AcDbLine
 10
14.0151012981904
 20
7.216392604248622
 30
0.0
 11
14.14945072777341
 21
6.890116050354051
 31
0.0
  0
LINE
  5
5C
330
1F
100
AcDbEntity
  8
Doc_ Finishes
  6
Continuous
100
AcDbLine
 10
14.14945072777341
 20
6.890116050354051
 30
0.0
 11
14.4373480527144
 21
6.563835070810386
 31
0.0
  0
LINE
  5
5D
330
1F
100
AcDbEntity
  8
Doc_ Finishes
  6
Continuous
100
AcDbLine
 10
14.4373480527144
 20
6.563835070810386
 30
0.0
 11
14.87878442171519
 21
6.659800845790715
 31
0.0
  0
LINE
  5
5E
330
1F
100
AcDbEntity
  8
Doc_ Finishes
  6
Continuous
100
AcDbLine
 10
14.87878442171519
 20
6.659800845790715
 30
0.0
 11
15.51215234067663
 21
7.062849134539732
 31
0.0
  0
LINE
  5
5F
330
1F
100
AcDbEntity
  8
Doc_ Finishes
  6
Continuous
100
AcDbLine
 10
15.51215234067663
 20
7.062849134539732
 30
0.0
 11
16.01116640440598
 21
7.389130114083398
 31
0.0
  0
LINE
  5
60
330
1F
100
AcDbEntity
  8
Doc_ Finishes
  6
Continuous
100
AcDbLine
 10
16.01116640440598
 20
7.389130114083398
 30
0.0
 11
16.33744738394964
 21
7.69621705350118
 31
0.0
  0
LINE
  5
61
330
1F
100
AcDbEntity
  8
Doc_ Finishes
  6
Continuous
100
AcDbLine
 10
16.33744738394964
 20
7.69621705350118
 30
0.0
 11
16.51018489378442
 21
7.907342643587726
 31
0.0
  0
LINE
  5
62
330
1F
100
AcDbEntity
  8
Doc_ Finishes
  6
Continuous
100
AcDbLine
 10
16.51018489378442
 20
7.907342643587726
 30
0.0
 11
17.0130404209284
 21
8.421709284028323
 31
0.0
  0
LINE
  5
63
330
1F
100
AcDbEntity
  8
Doc_ Finishes
  6
Continuous
100
AcDbLine
 10
17.0130404209284
 20
8.421709284028323
 30
0.0
 11
17.33547993705743
 21
8.65202448859166
 31
0.0
  0
LINE
  5
64
330
1F
100
AcDbEntity
  8
Doc_ Finishes
  6
Continuous
100
AcDbLine
 10
17.33547993705743
 20
8.65202448859166
 30
0.0
 11
17.75004819040126
 21
8.997499508261212
 31
0.0
  0
LINE
  5
65
330
1F
100
AcDbEntity
  8
Doc_ Finishes
  6
Continuous
100
AcDbLine
 10
17.75004819040126
 20
8.997499508261212
 30
0.0
 11
18.14158536585366
 21
9.204783634933122
 31
0.0
  0
LINE
  5
66
330
1F
100
AcDbEntity
  8
Doc_ Finishes
  6
Continuous
100
AcDbLine
 10
18.14158536585366
 20
9.204783634933122
 30
0.0
 11
19.24709923288749
 21
9.75753835562549
 31
0.0
  0
LINE
  5
67
330
1F
100
AcDbEntity
  8
Doc_ Finishes
  6
Continuous
100
AcDbLine
 10
19.24709923288749
 20
9.75753835562549
 30
0.0
 11
20.23745328481511
 21
10.47151947285602
 31
0.0
  0
LINE
  5
68
330
1F
100
AcDbEntity
  8
Doc_ Finishes
  6
Continuous
100
AcDbLine
 10
20.23745328481511
 20
10.47151947285602
 30
0.0
 11
21.41206038552321
 21
11.16246508654602
 31
0.0
  0
LINE
  5
69
330
1F
100
AcDbEntity
  8
Doc_ Finishes
  6
Continuous
100
AcDbLine
 10
21.41206038552321
 20
11.16246508654602
 30
0.0
 11
21.84965971675846
 21
11.64612657356412
 31
0.0
  0
LINE
  5
6A
330
1F
100
AcDbEntity
  8
Doc_ Finishes
  6
Continuous
100
AcDbLine
 10
21.84965971675846
 20
11.64612657356412
 30
0.0
 11
22.49454317466562
 21
12.06069482690795
 31
0.0
  0
LINE
  5
6B
330
1F
100
AcDbEntity
  8
Doc_ Finishes
  6
Continuous
100
AcDbLine
 10
22.49454317466562
 20
12.06069482690795
 30
0.0
 11
23.78431009047993
 21
12.98195564516129
 31
0.0
  0
LINE
  5
6C
330
1F
100
AcDbEntity
  8
Doc_ Finishes
  6
Continuous
100
AcDbLine
 10
23.78431009047993
 20
12.98195564516129
 30
0.0
 11
24.36009588906373
 21
13.25833300550747
 31
0.0
  0
LINE
  5
6D
330
1F
100
AcDbEntity
  8
Doc_ Finishes
  6
Continuous
100
AcDbLine
 10
24.36009588906373
 20
13.25833300550747
 30
0.0
 11
25.64986280487805
 21
14.24868705743509
 31
0.0
  0
LINE
  5
6E
330
1F
100
AcDbEntity
  8
Doc_ Finishes
  6
Continuous
100
AcDbLine
 10
25.64986280487805
 20
14.24868705743509
 30
0.0
 11
25.85714693154996
 21
14.64022423288749
 31
0.0
  0
LINE
  5
6F
330
1F
100
AcDbEntity
  8
Doc_ Finishes
  6
Continuous
100
AcDbLine
 10
25.85714693154996
 20
14.64022423288749
 30
0.0
 11
26.68628343823761
 21
15.2390455350118
 31
0.0
  0
LINE
  5
70
330
1F
100
AcDbEntity
  8
Doc_ Finishes
  6
Continuous
100
AcDbLine
 10
26.68628343823761
 20
15.2390455350118
 30
0.0
 11
27.28510031471282
 21
15.7227070220299
 31
0.0
  0
LINE
  5
71
330
1F
100
AcDbEntity
  8
Doc_ Finishes
  6
Continuous
100
AcDbLine
 10
27.28510031471282
 20
15.7227070220299
 30
0.0
 11
27.81482838316287
 21
16.1142441974823
 31
0.0
  0
LINE
  5
72
330
1F
100
AcDbEntity
  8
Doc_ Finishes
  6
Continuous
100
AcDbLine
 10
27.81482838316287
 20
16.1142441974823
 30
0.0
 11
28.27545879228953
 21
16.52880802517702
 31
0.0
  0
LINE
  5
73
330
1F
100
AcDbEntity
  8
Doc_ Finishes
  6
Continuous
100
AcDbLine
 10
28.27545879228953
 20
16.52880802517702
 30
0.0
 11
28.22939221085759
 21
16.78215873328088
 31
0.0
  0
LINE
  5
74
330
1F
100
AcDbEntity
  8
Doc_ Finishes
  6
Continuous
100
AcDbLine
 10
28.22939221085759
 20
16.78215873328088
 30
0.0
 11
28.09120574350905
 21
16.897314122738
 31
0.0
  0
LINE
  5
75
330
1F
100
AcDbEntity
  8
Doc_ Finishes
  6
Continuous
100
AcDbLine
 10
28.09120574350905
 20
16.897314122738
 30
0.0
 11
27.56147767505901
 21
16.897314122738
 31
0.0
  0
LINE
  5
76
330
1F
100
AcDbEntity
  8
Doc_ Finishes
  6
Continuous
100
AcDbLine
 10
27.56147767505901
 20
16.897314122738
 30
0.0
 11
27.41177566876475
 21
16.87044600708104
 31
0.0
  0
HATCH
  5
77
330
1F
100
AcDbEntity
  8
Doc_ Finishes
  6
Continuous
100
AcDbHatch
 10
0.0
 20
0.0
 30
0.0
210
0.0
220
0.0
230
1.0
  2
SOLID
 70
     1
 71
     0
 91
        1
 92
        3
 72
     0
 73
     1
 93
       39
 10
27.65360600299377
 20
13.12014334109181
 10
27.21600693931564
 20
12.77467039608275
 10
26.54809257896482
 20
12.24494521373555
 10
25.92624127794851
 20
11.85340920939199
 10
25.32742150659951
 20
11.32368402704478
 10
24.72860173525052
 20
11.04730567103754
 10
24.08371890456698
 20
10.56364354802488
 10
23.62308831122158
 20
10.33332825135219
 10
23.231552306878
 20
10.03391836567767
 10
22.81698477286715
 20
9.619350831666825
 10
22.40241723885631
 20
9.38903553499415
 10
21.91875511584363
 20
9.043562589985086
 10
21.66540828950367
 20
8.859310352646935
 10
21.25084075549282
 20
8.582931996639696
 10
20.09926427212933
 20
7.753796928618002
 10
19.75379132712029
 20
7.477418572610764
 10
19.2931607337749
 20
7.316197864939873
 10
19.22406614477309
 20
6.993756449598113
 10
19.3622553227767
 20
6.717378093590874
 10
19.63863367878394
 20
6.602220445254527
 10
20.00713815346026
 20
6.8325357419272
 10
20.26048497980021
 20
7.131945627601722
 10
20.55989486547472
 20
7.362260924274415
 10
21.31993534449462
 20
7.707733869283458
 10
21.84966052684182
 20
8.122301403294307
 10
22.88607936186895
 20
8.882341882314256
 10
23.20852077721072
 20
9.342972475659646
 10
24.01462431556515
 20
9.734508480003234
 10
24.5673810275796
 20
10.05694989534501
 10
25.46561068460312
 20
10.60970660735953
 10
25.88017821861399
 20
11.07033720070492
 10
26.31777728229212
 20
11.34671555671216
 10
26.70931328663569
 20
11.30065249737762
 10
27.21600693931562
 20
11.55399932371759
 10
28.0681735370046
 20
12.17585062473387
 10
28.41364648201364
 20
12.49829204007566
 10
28.39061495234636
 20
12.77467039608289
 10
28.22939424467547
 20
13.00498569275559
 10
28.04514200733732
 20
13.05104875209013
 97
        0
 75
     0
 76
     1
 98
        0
  0
LINE
  5
78
330
1F
100
AcDbEntity
  8
Doc_ Finishes
  6
Continuous
100
AcDbLine
 10
27.6536064122738
 20
13.12014211250983
 30
0.0
 11
27.21600708103855
 21
12.77467151848938
 31
0.0
  0
LINE
  5
79
330
1F
100
AcDbEntity
  8
Doc_ Finishes
  6
Continuous
100
AcDbLine
 10
27.21600708103855
 20
12.77467151848938
 30
0.0
 11
26.54809254523997
 21
12.24494345003934
 31
0.0
  0
LINE
  5
7A
330
1F
100
AcDbEntity
  8
Doc_ Finishes
  6
Continuous
100
AcDbLine
 10
26.54809254523997
 20
12.24494345003934
 30
0.0
 11
25.92624016522423
 21
11.85341070023603
 31
0.0
  0
LINE
  5
7B
330
1F
100
AcDbEntity
  8
Doc_ Finishes
  6
Continuous
100
AcDbLine
 10
25.92624016522423
 20
11.85341070023603
 30
0.0
 11
25.32742328874902
 21
11.32368263178599
 31
0.0
  0
LINE
  5
7C
330
1F
100
AcDbEntity
  8
Doc_ Finishes
  6
Continuous
100
AcDbLine
 10
25.32742328874902
 20
11.32368263178599
 30
0.0
 11
24.72860198662471
 21
11.04730527143981
 31
0.0
  0
LINE
  5
7D
330
1F
100
AcDbEntity
  8
Doc_ Finishes
  6
Continuous
100
AcDbLine
 10
24.72860198662471
 20
11.04730527143981
 30
0.0
 11
24.08371852871754
 21
10.56364378442171
 31
0.0
  0
LINE
  5
7E
330
1F
100
AcDbEntity
  8
Doc_ Finishes
  6
Continuous
100
AcDbLine
 10
24.08371852871754
 20
10.56364378442171
 30
0.0
 11
23.62308811959087
 21
10.33332857985838
 31
0.0
  0
LINE
  5
7F
330
1F
100
AcDbEntity
  8
Doc_ Finishes
  6
Continuous
100
AcDbLine
 10
23.62308811959087
 20
10.33332857985838
 30
0.0
 11
23.23155094413847
 21
10.03392014162077
 31
0.0
  0
LINE
  5
80
330
1F
100
AcDbEntity
  8
Doc_ Finishes
  6
Continuous
100
AcDbLine
 10
23.23155094413847
 20
10.03392014162077
 30
0.0
 11
22.81698269079465
 21
9.619351888276947
 31
0.0
  0
LINE
  5
81
330
1F
100
AcDbEntity
  8
Doc_ Finishes
  6
Continuous
100
AcDbLine
 10
22.81698269079465
 20
9.619351888276947
 30
0.0
 11
22.40241886309992
 21
9.389036683713611
 31
0.0
  0
LINE
  5
82
330
1F
100
AcDbEntity
  8
Doc_ Finishes
  6
Continuous
100
AcDbLine
 10
22.40241886309992
 20
9.389036683713611
 30
0.0
 11
21.91875295043273
 21
9.04356166404406
 31
0.0
  0
LINE
  5
83
330
1F
100
AcDbEntity
  8
Doc_ Finishes
  6
Continuous
100
AcDbLine
 10
21.91875295043273
 20
9.04356166404406
 30
0.0
 11
21.66540666797797
 21
8.859308615263572
 31
0.0
  0
LINE
  5
84
330
1F
100
AcDbEntity
  8
Doc_ Finishes
  6
Continuous
100
AcDbLine
 10
21.66540666797797
 20
8.859308615263572
 30
0.0
 11
21.25084284028324
 21
8.582931254917387
 31
0.0
  0
LINE
  5
85
330
1F
100
AcDbEntity
  8
Doc_ Finishes
  6
Continuous
100
AcDbLine
 10
21.25084284028324
 20
8.582931254917387
 30
0.0
 11
20.09926239181747
 21
7.75379474822974
 31
0.0
  0
LINE
  5
86
330
1F
100
AcDbEntity
  8
Doc_ Finishes
  6
Continuous
100
AcDbLine
 10
20.09926239181747
 20
7.75379474822974
 30
0.0
 11
19.75379179779701
 21
7.477417387883556
 31
0.0
  0
LINE
  5
87
330
1F
100
AcDbEntity
  8
Doc_ Finishes
  6
Continuous
100
AcDbLine
 10
19.75379179779701
 20
7.477417387883556
 30
0.0
 11
19.29316138867033
 21
7.316199842643588
 31
0.0
  0
LINE
  5
88
330
1F
100
AcDbEntity
  8
Doc_ Finishes
  6
Continuous
100
AcDbLine
 10
19.29316138867033
 20
7.316199842643588
 30
0.0
 11
19.22406815499606
 21
6.993755900865461
 31
0.0
  0
LINE
  5
89
330
1F
100
AcDbEntity
  8
Doc_ Finishes
  6
Continuous
100
AcDbLine
 10
19.22406815499606
 20
6.993755900865461
 30
0.0
 11
19.36225462234461
 21
6.717378540519276
 31
0.0
  0
LINE
  5
8A
330
1F
100
AcDbEntity
  8
Doc_ Finishes
  6
Continuous
100
AcDbLine
 10
19.36225462234461
 20
6.717378540519276
 30
0.0
 11
19.63863198269079
 21
6.602218725413059
 31
0.0
  0
LINE
  5
8B
330
1F
100
AcDbEntity
  8
Doc_ Finishes
  6
Continuous
100
AcDbLine
 10
19.63863198269079
 20
6.602218725413059
 30
0.0
 11
20.00713808025177
 21
6.832533929976396
 31
0.0
  0
LINE
  5
8C
330
1F
100
AcDbEntity
  8
Doc_ Finishes
  6
Continuous
100
AcDbLine
 10
20.00713808025177
 20
6.832533929976396
 30
0.0
 11
20.26048436270653
 21
7.1319467938631
 31
0.0
  0
LINE
  5
8D
330
1F
100
AcDbEntity
  8
Doc_ Finishes
  6
Continuous
100
AcDbLine
 10
20.26048436270653
 20
7.1319467938631
 30
0.0
 11
20.55989280094414
 21
7.362261998426435
 31
0.0
  0
LINE
  5
8E
330
1F
100
AcDbEntity
  8
Doc_ Finishes
  6
Continuous
100
AcDbLine
 10
20.55989280094414
 20
7.362261998426435
 30
0.0
 11
21.31993607395751
 21
7.707732592446892
 31
0.0
  0
LINE
  5
8F
330
1F
100
AcDbEntity
  8
Doc_ Finishes
  6
Continuous
100
AcDbLine
 10
21.31993607395751
 20
7.707732592446892
 30
0.0
 11
21.84965971675846
 21
8.122300845790717
 31
0.0
  0
LINE
  5
90
330
1F
100
AcDbEntity
  8
Doc_ Finishes
  6
Continuous
100
AcDbLine
 10
21.84965971675846
 20
8.122300845790717
 30
0.0
 11
22.88608035011802
 21
8.882339693154996
 31
0.0
  0
LINE
  5
91
330
1F
100
AcDbEntity
  8
Doc_ Finishes
  6
Continuous
100
AcDbLine
 10
22.88608035011802
 20
8.882339693154996
 30
0.0
 11
23.20851986624705
 21
9.342974527930762
 31
0.0
  0
LINE
  5
92
330
1F
100
AcDbEntity
  8
Doc_ Finishes
  6
Continuous
100
AcDbLine
 10
23.20851986624705
 20
9.342974527930762
 30
0.0
 11
24.01462529504327
 21
9.734507277734066
 31
0.0
  0
LINE
  5
93
330
1F
100
AcDbEntity
  8
Doc_ Finishes
  6
Continuous
100
AcDbLine
 10
24.01462529504327
 20
9.734507277734066
 30
0.0
 11
24.56738001573564
 21
10.05695121951219
 31
0.0
  0
LINE
  5
94
330
1F
100
AcDbEntity
  8
Doc_ Finishes
  6
Continuous
100
AcDbLine
 10
24.56738001573564
 20
10.05695121951219
 30
0.0
 11
25.46560975609756
 21
10.60970594020456
 31
0.0
  0
LINE
  5
95
330
1F
100
AcDbEntity
  8
Doc_ Finishes
  6
Continuous
100
AcDbLine
 10
25.46560975609756
 20
10.60970594020456
 30
0.0
 11
25.88017800944139
 21
11.07033634933124
 31
0.0
  0
LINE
  5
96
330
1F
100
AcDbEntity
  8
Doc_ Finishes
  6
Continuous
100
AcDbLine
 10
25.88017800944139
 20
11.07033634933124
 30
0.0
 11
26.31777734067663
 21
11.34671370967742
 31
0.0
  0
LINE
  5
97
330
1F
100
AcDbEntity
  8
Doc_ Finishes
  6
Continuous
100
AcDbLine
 10
26.31777734067663
 20
11.34671370967742
 30
0.0
 11
26.70931451612903
 21
11.30065155389457
 31
0.0
  0
LINE
  5
98
330
1F
100
AcDbEntity
  8
Doc_ Finishes
  6
Continuous
100
AcDbLine
 10
26.70931451612903
 20
11.30065155389457
 30
0.0
 11
27.21600708103855
 21
11.55399783634933
 31
0.0
  0
LINE
  5
99
330
1F
100
AcDbEntity
  8
Doc_ Finishes
  6
Continuous
100
AcDbLine
 10
27.21600708103855
 20
11.55399783634933
 30
0.0
 11
28.06817466561763
 21
12.17585021636507
 31
0.0
  0
LINE
  5
9A
330
1F
100
AcDbEntity
  8
Doc_ Finishes
  6
Continuous
100
AcDbLine
 10
28.06817466561763
 20
12.17585021636507
 30
0.0
 11
28.41364525963808
 21
12.49829415814319
 31
0.0
  0
LINE
  5
9B
330
1F
100
AcDbEntity
  8
Doc_ Finishes
  6
Continuous
100
AcDbLine
 10
28.41364525963808
 20
12.49829415814319
 30
0.0
 11
28.39061418174666
 21
12.77467151848938
 31
0.0
  0
LINE
  5
9C
330
1F
100
AcDbEntity
  8
Doc_ Finishes
  6
Continuous
100
AcDbLine
 10
28.39061418174666
 20
12.77467151848938
 30
0.0
 11
28.22939221085759
 21
13.00498672305271
 31
0.0
  0
LINE
  5
9D
330
1F
100
AcDbEntity
  8
Doc_ Finishes
  6
Continuous
100
AcDbLine
 10
28.22939221085759
 20
13.00498672305271
 30
0.0
 11
28.04514358772619
 21
13.05104887883556
 31
0.0
  0
LINE
  5
9E
330
1F
100
AcDbEntity
  8
Doc_ Finishes
  6
Continuous
100
AcDbLine
 10
28.04514358772619
 20
13.05104887883556
 30
0.0
 11
27.6536064122738
 21
13.12014211250983
 31
0.0
  0
HATCH
  5
9F
330
1F
100
AcDbEntity
  8
Doc_ Finishes
  6
Continuous
100
AcDbHatch
 10
0.0
 20
0.0
 30
0.0
210
0.0
220
0.0
230
1.0
  2
SOLID
 70
     1
 71
     0
 91
        1
 92
        3
 72
     0
 73
     1
 93
       47
 10
28.06817353700456
 20
15.74573772316067
 10
28.30309513961077
 20
15.62136746295728
 10
28.4412843176144
 20
15.4002647781515
 10
28.93876535842742
 20
15.17916209334572
 10
29.82317609765057
 20
14.40530269652538
 10
30.92868952167951
 20
13.74199464210799
 10
31.59199757609689
 20
13.3827027792986
 10
32.20002995931279
 20
13.07868658769064
 10
33.55428390374828
 20
12.08372450606458
 10
34.07940278016201
 20
11.69679480765445
 10
34.88090001258301
 20
11.08876242443854
 10
35.59948373820179
 20
10.50836787682334
 10
36.5668079842271
 20
9.817421986805197
 10
37.06428902504012
 20
9.458130123995785
 10
37.81051058625966
 20
8.933011247582023
 10
38.61200781868061
 20
8.407892371168286
 10
38.77783483228498
 20
8.186789686362482
 10
39.38586721550092
 20
7.744584316750918
 10
40.18736444792187
 20
6.915449248729224
 10
40.7953968311378
 20
6.44560604351692
 10
41.56925622795804
 20
6.169227687509681
 10
42.23256428237543
 20
6.086314180707507
 10
42.48130480278193
 20
6.30741686551329
 10
42.14965077557326
 20
6.611433057121246
 10
41.48634272115586
 20
6.998362755531397
 10
40.76775899553709
 20
7.357654618340788
 10
40.18736444792187
 20
8.048600508358874
 10
38.99893751709079
 20
8.822459905179112
 10
38.47381864067705
 20
9.319940945992132
 10
38.22507812027052
 20
9.734508480003
 10
37.17484036744301
 20
10.31490302761817
 10
36.73263499783144
 20
10.78474623283046
 10
36.2351539570184
 20
11.17167593124059
 10
35.48893239579888
 20
11.61388130085215
 10
34.85326217698223
 20
12.16663801286669
 10
34.35578113616919
 20
12.58120554687754
 10
33.69247308175183
 20
12.99577308088841
 10
33.22262987653953
 20
13.32742710809708
 10
32.7251488357265
 20
13.5761676285036
 10
31.93747052110588
 20
14.06443605744977
 10
31.43077686842594
 20
14.38687747279155
 10
30.92408321574601
 20
14.70931888813342
 10
30.62467333007151
 20
15.100854892477
 10
29.95675896972068
 20
15.67664313415887
 10
29.47309684670803
 20
15.9530214901661
 10
28.82821401602447
 20
16.36758902417695
 10
28.50577260068269
 20
16.22939984617334
 97
        0
 75
     0
 76
     1
 98
        0
  0
LINE
  5
A0
330
1F
100
AcDbEntity
  8
Doc_ Finishes
  6
Continuous
100
AcDbLine
 10
28.30309697088906
 20
15.62136850904799
 30
0.0
 11
28.06817466561763
 21
15.74573809992132
 31
0.0
  0
LINE
  5
A1
330
1F
100
AcDbEntity
  8
Doc_ Finishes
  6
Continuous
100
AcDbLine
 10
28.44128343823761
 20
15.40026308025177
 30
0.0
 11
28.30309697088906
 21
15.62136850904799
 31
0.0
  0
LINE
  5
A2
330
1F
100
AcDbEntity
  8
Doc_ Finishes
  6
Continuous
100
AcDbLine
 10
28.93876622738001
 20
15.17916207710464
 30
0.0
 11
28.44128343823761
 21
15.40026308025177
 31
0.0
  0
LINE
  5
A3
330
1F
100
AcDbEntity
  8
Doc_ Finishes
  6
Continuous
100
AcDbLine
 10
29.82317466561762
 20
14.40530192761605
 30
0.0
 11
28.93876622738001
 21
15.17916207710464
 31
0.0
  0
LINE
  5
A4
330
1F
100
AcDbEntity
  8
Doc_ Finishes
  6
Continuous
100
AcDbLine
 10
30.92868853265146
 20
13.74199449252557
 30
0.0
 11
29.82317466561762
 21
14.40530192761605
 31
0.0
  0
LINE
  5
A5
330
1F
100
AcDbEntity
  8
Doc_ Finishes
  6
Continuous
100
AcDbLine
 10
31.59199596774193
 20
13.3827025963808
 30
0.0
 11
30.92868853265146
 21
13.74199449252557
 31
0.0
  0
LINE
  5
A6
330
1F
100
AcDbEntity
  8
Doc_ Finishes
  6
Continuous
100
AcDbLine
 10
32.20003147128246
 20
13.07868705743509
 30
0.0
 11
31.59199596774193
 21
13.3827025963808
 31
0.0
  0
LINE
  5
A7
330
1F
100
AcDbEntity
  8
Doc_ Finishes
  6
Continuous
100
AcDbLine
 10
33.55428452006294
 20
12.08372590479937
 30
0.0
 11
32.20003147128246
 21
13.07868705743509
 31
0.0
  0
LINE
  5
A8
330
1F
100
AcDbEntity
  8
Doc_ Finishes
  6
Continuous
100
AcDbLine
 10
34.07940106215578
 20
11.69679583005508
 30
0.0
 11
33.55428452006294
 21
12.08372590479937
 31
0.0
  0
LINE
  5
A9
330
1F
100
AcDbEntity
  8
Doc_ Finishes
  6
Continuous
100
AcDbLine
 10
34.8808993902439
 20
11.08876032651456
 30
0.0
 11
34.07940106215578
 21
11.69679583005508
 31
0.0
  0
LINE
  5
AA
330
1F
100
AcDbEntity
  8
Doc_ Finishes
  6
Continuous
100
AcDbLine
 10
35.59948318253343
 20
10.50836742722266
 30
0.0
 11
34.8808993902439
 21
11.08876032651456
 31
0.0
  0
LINE
  5
AB
330
1F
100
AcDbEntity
  8
Doc_ Finishes
  6
Continuous
100
AcDbLine
 10
36.56680615656963
 20
9.817421813532652
 30
0.0
 11
35.59948318253343
 21
10.50836742722266
 31
0.0
  0
LINE
  5
AC
330
1F
100
AcDbEntity
  8
Doc_ Finishes
  6
Continuous
100
AcDbLine
 10
37.06428894571204
 20
9.458129917387884
 30
0.0
 11
36.56680615656963
 21
9.817421813532652
 31
0.0
  0
LINE
  5
AD
330
1F
100
AcDbEntity
  8
Doc_ Finishes
  6
Continuous
100
AcDbLine
 10
37.8105109166011
 20
8.933013375295044
 30
0.0
 11
37.06428894571204
 21
9.458129917387884
 31
0.0
  0
LINE
  5
AE
330
1F
100
AcDbEntity
  8
Doc_ Finishes
  6
Continuous
100
AcDbLine
 10
38.61200924468922
 20
8.407892407553108
 30
0.0
 11
37.8105109166011
 21
8.933013375295044
 31
0.0
  0
LINE
  5
AF
330
1F
100
AcDbEntity
  8
Doc_ Finishes
  6
Continuous
100
AcDbLine
 10
38.77783389063729
 20
8.18679140440598
 30
0.0
 11
38.61200924468922
 21
8.407892407553108
 31
0.0
  0
LINE
  5
B0
330
1F
100
AcDbEntity
  8
Doc_ Finishes
  6
Continuous
100
AcDbLine
 10
39.3858693941778
 20
7.744584972462627
 30
0.0
 11
38.77783389063729
 21
8.18679140440598
 31
0.0
  0
LINE
  5
B1
330
1F
100
AcDbEntity
  8
Doc_ Finishes
  6
Continuous
100
AcDbLine
 10
40.18736329661684
 20
6.915448465774981
 30
0.0
 11
39.3858693941778
 21
7.744584972462627
 31
0.0
  0
LINE
  5
B2
330
1F
100
AcDbEntity
  8
Doc_ Finishes
  6
Continuous
100
AcDbLine
 10
40.79539880015735
 20
6.4456038552321
 30
0.0
 11
40.18736329661684
 21
6.915448465774981
 31
0.0
  0
LINE
  5
B3
330
1F
100
AcDbEntity
  8
Doc_ Finishes
  6
Continuous
100
AcDbLine
 10
41.56925452399685
 20
6.169226494885916
 30
0.0
 11
40.79539880015735
 21
6.4456038552321
 31
0.0
  0
LINE
  5
B4
330
1F
100
AcDbEntity
  8
Doc_ Finishes
  6
Continuous
100
AcDbLine
 10
42.23256638473643
 20
6.086316384736428
 30
0.0
 11
41.56925452399685
 21
6.169226494885916
 31
0.0
  0
LINE
  5
B5
330
1F
100
AcDbEntity
  8
Doc_ Finishes
  6
Continuous
100
AcDbLine
 10
42.48130556648308
 20
6.307417387883556
 30
0.0
 11
42.23256638473643
 21
6.086316384736428
 31
0.0
  0
LINE
  5
B6
330
1F
100
AcDbEntity
  8
Doc_ Finishes
  6
Continuous
100
AcDbLine
 10
42.14965184893784
 20
6.611432926829268
 30
0.0
 11
42.48130556648308
 21
6.307417387883556
 31
0.0
  0
LINE
  5
B7
330
1F
100
AcDbEntity
  8
Doc_ Finishes
  6
Continuous
100
AcDbLine
 10
41.48634441384736
 20
6.998363001573564
 30
0.0
 11
42.14965184893784
 21
6.611432926829268
 31
0.0
  0
LINE
  5
B8
330
1F
100
AcDbEntity
  8
Doc_ Finishes
  6
Continuous
100
AcDbLine
 10
40.76776062155783
 20
7.357654897718332
 30
0.0
 11
41.48634441384736
 21
6.998363001573564
 31
0.0
  0
LINE
  5
B9
330
1F
100
AcDbEntity
  8
Doc_ Finishes
  6
Continuous
100
AcDbLine
 10
40.18736329661684
 20
8.048600511408338
 30
0.0
 11
40.76776062155783
 21
7.357654897718332
 31
0.0
  0
LINE
  5
BA
330
1F
100
AcDbEntity
  8
Doc_ Finishes
  6
Continuous
100
AcDbLine
 10
38.99893931943352
 20
8.822460660896931
 30
0.0
 11
40.18736329661684
 21
8.048600511408338
 31
0.0
  0
LINE
  5
BB
330
1F
100
AcDbEntity
  8
Doc_ Finishes
  6
Continuous
100
AcDbLine
 10
38.47381835169158
 20
9.319939024390242
 30
0.0
 11
38.99893931943352
 21
8.822460660896931
 31
0.0
  0
LINE
  5
BC
330
1F
100
AcDbEntity
  8
Doc_ Finishes
  6
Continuous
100
AcDbLine
 10
38.22507916994492
 20
9.734507277734066
 30
0.0
 11
38.47381835169158
 21
9.319939024390242
 31
0.0
  0
LINE
  5
BD
330
1F
100
AcDbEntity
  8
Doc_ Finishes
  6
Continuous
100
AcDbLine
 10
37.17484166011014
 20
10.31490460267506
 30
0.0
 11
38.22507916994492
 21
9.734507277734066
 31
0.0
  0
LINE
  5
BE
330
1F
100
AcDbEntity
  8
Doc_ Finishes
  6
Continuous
100
AcDbLine
 10
36.7326352281668
 20
10.78474478756884
 30
0.0
 11
37.17484166011014
 21
10.31490460267506
 31
0.0
  0
LINE
  5
BF
330
1F
100
AcDbEntity
  8
Doc_ Finishes
  6
Continuous
100
AcDbLine
 10
36.23515243902439
 20
11.17167486231314
 30
0.0
 11
36.7326352281668
 21
10.78474478756884
 31
0.0
  0
LINE
  5
C0
330
1F
100
AcDbEntity
  8
Doc_ Finishes
  6
Continuous
100
AcDbLine
 10
35.48893046813532
 20
11.61388129425649
 30
0.0
 11
36.23515243902439
 21
11.17167486231314
 31
0.0
  0
LINE
  5
C1
330
1F
100
AcDbEntity
  8
Doc_ Finishes
  6
Continuous
100
AcDbLine
 10
34.85326121164437
 20
12.16663601494886
 30
0.0
 11
35.48893046813532
 21
11.61388129425649
 31
0.0
  0
LINE
  5
C2
330
1F
100
AcDbEntity
  8
Doc_ Finishes
  6
Continuous
100
AcDbLine
 10
34.35578284815106
 20
12.58120426829268
 30
0.0
 11
34.85326121164437
 21
12.16663601494886
 31
0.0
  0
LINE
  5
C3
330
1F
100
AcDbEntity
  8
Doc_ Finishes
  6
Continuous
100
AcDbLine
 10
33.69247098741149
 20
12.99577252163651
 30
0.0
 11
34.35578284815106
 21
12.58120426829268
 31
0.0
  0
LINE
  5
C4
330
1F
100
AcDbEntity
  8
Doc_ Finishes
  6
Continuous
100
AcDbLine
 10
33.2226308025177
 20
13.32742623918175
 30
0.0
 11
33.69247098741149
 21
12.99577252163651
 31
0.0
  0
LINE
  5
C5
330
1F
100
AcDbEntity
  8
Doc_ Finishes
  6
Continuous
100
AcDbLine
 10
32.7251480133753
 20
13.5761654209284
 30
0.0
 11
33.2226308025177
 21
13.32742623918175
 31
0.0
  0
LINE
  5
C6
330
1F
100
AcDbEntity
  8
Doc_ Finishes
  6
Continuous
100
AcDbLine
 10
31.93747098741148
 20
14.0644340086546
 30
0.0
 11
32.7251480133753
 21
13.5761654209284
 31
0.0
  0
LINE
  5
C7
330
1F
100
AcDbEntity
  8
Doc_ Finishes
  6
Continuous
100
AcDbLine
 10
31.43077842250197
 20
14.38687795043273
 30
0.0
 11
31.93747098741148
 21
14.0644340086546
 31
0.0
  0
LINE
  5
C8
330
1F
100
AcDbEntity
  8
Doc_ Finishes
  6
Continuous
100
AcDbLine
 10
30.92408143194335
 20
14.70931746656176
 30
0.0
 11
31.43077842250197
 21
14.38687795043273
 31
0.0
  0
LINE
  5
C9
330
1F
100
AcDbEntity
  8
Doc_ Finishes
  6
Continuous
100
AcDbLine
 10
30.62467299370574
 20
15.10085464201416
 30
0.0
 11
30.92408143194335
 21
14.70931746656176
 31
0.0
  0
LINE
  5
CA
330
1F
100
AcDbEntity
  8
Doc_ Finishes
  6
Continuous
100
AcDbLine
 10
29.95675845790716
 20
15.67664486624705
 30
0.0
 11
30.62467299370574
 21
15.10085464201416
 31
0.0
  0
LINE
  5
CB
330
1F
100
AcDbEntity
  8
Doc_ Finishes
  6
Continuous
100
AcDbLine
 10
29.47309697088906
 20
15.95302222659323
 30
0.0
 11
29.95675845790716
 21
15.67664486624705
 31
0.0
  0
LINE
  5
CC
330
1F
100
AcDbEntity
  8
Doc_ Finishes
  6
Continuous
100
AcDbLine
 10
28.8282135129819
 20
16.36759047993706
 30
0.0
 11
29.47309697088906
 21
15.95302222659323
 31
0.0
  0
LINE
  5
CD
330
1F
100
AcDbEntity
  8
Doc_ Finishes
  6
Continuous
100
AcDbLine
 10
28.50577399685287
 20
16.22939958693942
 30
0.0
 11
28.8282135129819
 21
16.36759047993706
 31
0.0
  0
LINE
  5
CE
330
1F
100
AcDbEntity
  8
Doc_ Finishes
  6
Continuous
100
AcDbLine
 10
28.06817466561763
 20
15.74573809992132
 30
0.0
 11
28.50577399685287
 21
16.22939958693942
 31
0.0
  0
LINE
  5
CF
330
1F
100
AcDbEntity
  8
Doc_ Finishes
  6
Continuous
 62
   254
370
    18
100
AcDbLine
 10
97.43333792289535
 20
5.093360051140834
 30
0.0
 11
97.43333792289535
 21
20.69901750590086
 31
0.0
  0
LINE
  5
D0
330
1F
100
AcDbEntity
  8
Doc_ Finishes
  6
Continuous
 62
   254
370
    18
100
AcDbLine
 10
7.000000491738787
 20
20.69901750590086
 30
0.0
 11
290.2406840086546
 21
20.69901750590086
 31
0.0
  0
LINE
  5
D1
330
1F
100
AcDbEntity
  8
Doc_ Finishes
  6
Continuous
 62
   254
370
    18
100
AcDbLine
 10
290.2406840086546
 20
20.69901750590086
 30
0.0
 11
290.2406840086546
 21
5.000000983477577
 31
0.0
  0
LINE
  5
D2
330
1F
100
AcDbEntity
  8
Doc_ Finishes
  6
Continuous
 62
   254
370
    18
100
AcDbLine
 10
290.2406840086546
 20
5.000000983477577
 30
0.0
 11
7.000000491738787
 21
5.000000983477577
 31
0.0
  0
LINE
  5
D3
330
1F
100
AcDbEntity
  8
Doc_ Finishes
  6
Continuous
 62
   254
370
    18
100
AcDbLine
 10
7.000000491738787
 20
20.69901750590086
 30
0.0
 11
7.000000491738787
 21
5.000000983477577
 31
0.0
  0
LINE
  5
D4
330
1F
100
AcDbEntity
  8
Doc_ Finishes
  6
Continuous
 62
   254
370
    18
100
AcDbLine
 10
190.2919443351691
 20
5.093360051140834
 30
0.0
 11
190.2919443351691
 21
20.69901750590086
 31
0.0
  0
LINE
  5
D5
330
1F
100
AcDbEntity
  8
Doc_ Finishes
  6
Continuous
 62
   254
370
    18
100
AcDbLine
 10
190.2919443351691
 20
12.8961909913454
 30
0.0
 11
290.2406840086546
 21
12.8961909913454
 31
0.0
  0
MTEXT
  5
D7
330
1F
100
AcDbEntity
  8
0
  6
Continuous
100
AcDbMText
 10
210.3494767103412
 20
15.00227993155626
 30
0.0
 40
2.25
 41
0.0
 71
     7
 72
     1
  1
{R-TRS7-05}
  7
GENERATED_STYLE_1
 73
     1
 44
1.0
  0
MTEXT
  5
D8
330
1F
100
AcDbEntity
  8
0
  6
Continuous
100
AcDbMText
 10
210.3494767103412
 20
11.03300550383743
 30
0.0
 40
3.0
 41
0.0
 71
     1
 72
     1
  1
{HIDDENGUTTER DETAIL}
  7
GENERATED_STYLE_1
 73
     1
 44
1.0
  0
MTEXT
  5
DA
330
1F
100
AcDbEntity
  8
Doc_ Floor
  6
Continuous
100
AcDbMText
 10
29.78353726544612
 20
13.33283672870609
 30
0.0
 40
5.603347280334726
 41
0.0
 71
     1
 72
     1
  1
{The Roofing Store}
  7
GENERATED_STYLE_2
 73
     1
 44
1.0
  0
MTEXT
  5
DC
102
{ACAD_XDICTIONARY
360
67D
102
}
330
1F
100
AcDbEntity
  8
0
  6
Continuous
100
AcDbMText
 10
102.7389238446655
 20
6.378784417288156
 30
0.0
 40
1.5
 41
0.0
 71
     7
 72
     1
  1
{P: HEAD OFFICE              09 277 2717\P    ALBANY             09 972 0060\P    KATIKAIT            07 549 5190\P    WELLINGTON              04 974 5792\P    CHRISTCHURCH          03 348 6528}
  7
GENERATED_STYLE_1
 73
     1
 44
1.062946161486498
  0
MTEXT
  5
DD
330
1F
100
AcDbEntity
  8
0
  6
Continuous
100
AcDbMText
 10
149.4184566143587
 20
9.199084231526156
 30
0.0
 40
1.5
 41
0.0
 71
     7
 72
     1
  1
{WEB: www.theroofingstore.co.nz}
  7
GENERATED_STYLE_1
 73
     1
 44
1.0
  0
MTEXT
  5
DE
330
1F
100
AcDbEntity
  8
0
  6
Continuous
100
AcDbMText
 10
149.4184566143587
 20
6.620946023411263
 30
0.0
 40
1.5
 41
0.0
 71
     7
 72
     1
  1
{Copyright \U+00A9 The Roofing Store 2013}
  7
GENERATED_STYLE_1
 73
     1
 44
1.0
  0
MTEXT
  5
DF
330
1F
100
AcDbEntity
  8
0
  6
Continuous
100
AcDbMText
 10
273.9546684065315
 20
15.01594826540159
 30
0.0
 40
2.25
 41
0.0
 71
     7
 72
     1
  1
{1:5}
  7
GENERATED_STYLE_1
 73
     1
 44
1.0
  0
MTEXT
  5
E0
330
1F
100
AcDbEntity
  8
0
  6
Continuous
100
AcDbMText
 10
264.8396605309016
 20
15.51746459162148
 30
0.0
 40
1.5
 41
0.0
 71
     7
 72
     1
  1
{SCALE:}
  7
GENERATED_STYLE_1
 73
     1
 44
1.0
  0
MTEXT
  5
E1
330
1F
100
AcDbEntity
  8
0
  6
Continuous
100
AcDbMText
 10
191.5066235617487
 20
15.48695559872207
 30
0.0
 40
1.5
 41
0.0
 71
     7
 72
     1
  1
{DETAIL NUMBER:}
  7
GENERATED_STYLE_1
 73
     1
 44
1.0
  0
MTEXT
  5
E2
330
1F
100
AcDbEntity
  8
0
  6
Continuous
100
AcDbMText
 10
191.5066235617487
 20
9.005462392315325
 30
0.0
 40
1.5
 41
0.0
 71
     7
 72
     1
  1
{TITLE:}
  7
GENERATED_STYLE_1
 73
     1
 44
1.0
  0
INSERT
  5
64B
102
{ACAD_XDICTIONARY
360
64C
102
}
330
1F
100
AcDbEntity
  8
0
  6
Continuous
100
AcDbBlockReference
  2
Drawing_1_2
 10
26.12171212374109
 20
79.28749807145608
 30
0.0
  0
ENDSEC
  0
SECTION
  2
OBJECTS
  0
DICTIONARY
  5
C
330
0
100
AcDbDictionary
281
     1
  3
ACAD_GROUP
350
D
  3
ACAD_LAYOUT
350
1A
  3
ACAD_MATERIAL
350
3B
  3
ACAD_MLEADERSTYLE
350
678
  3
ACAD_MLINESTYLE
350
17
  3
ACAD_PLOTSETTINGS
350
19
  3
ACAD_PLOTSTYLENAME
350
E
  3
ACAD_SCALELIST
350
652
  3
ACAD_VISUALSTYLE
350
2A
  3
AcDbVariableDictionary
350
676
  3
WATERMARKS
350
674
  0
DICTIONARY
  5
67D
330
DC
100
AcDbDictionary
280
     1
281
     1
  3
ACAD_MTEXT_RT
360
67E
  0
DICTIONARY
  5
64C
330
64B
100
AcDbDictionary
280
     1
281
     1
  3
ACAD_FILTER
360
64D
  0
DICTIONARY
  5
D
102
{ACAD_REACTORS
330
C
102
}
330
C
100
AcDbDictionary
281
     1
  0
DICTIONARY
  5
1A
102
{ACAD_REACTORS
330
C
102
}
330
C
100
AcDbDictionary
281
     1
  3
Layout1
350
1E
  3
Model
350
22
  0
DICTIONARY
  5
3B
102
{ACAD_REACTORS
330
C
102
}
330
C
100
AcDbDictionary
281
     1
  3
ByBlock
350
3D
  3
ByLayer
350
3C
  3
Global
350
3E
  0
DICTIONARY
  5
678
102
{ACAD_REACTORS
330
C
102
}
330
C
100
AcDbDictionary
281
     1
  0
DICTIONARY
  5
17
102
{ACAD_REACTORS
330
C
102
}
330
C
100
AcDbDictionary
281
     1
  3
Standard
350
18
  0
DICTIONARY
  5
19
102
{ACAD_REACTORS
330
C
102
}
330
C
100
AcDbDictionary
281
     1
  0
ACDBDICTIONARYWDFLT
  5
E
102
{ACAD_REACTORS
330
C
102
}
330
C
100
AcDbDictionary
281
     1
  3
Normal
350
F
100
AcDbDictionaryWithDefault
340
F
  0
DICTIONARY
  5
652
102
{ACAD_REACTORS
330
C
102
}
330
C
100
AcDbDictionary
281
     1
  3
A0
350
653
  3
A1
350
654
  3
A2
350
655
  3
A3
350
656
  3
A4
350
657
  3
A5
350
658
  3
A6
350
659
  3
A7
350
65A
  3
A8
350
65B
  3
A9
350
65C
  3
B0
350
65D
  3
B1
350
65E
  3
B2
350
65F
  3
B3
350
660
  3
B4
350
661
  3
B5
350
662
  3
B6
350
663
  3
B7
350
664
  3
B8
350
665
  3
B9
350
666
  3
C0
350
667
  3
C1
350
668
  3
C2
350
669
  3
C3
350
66A
  3
C4
350
66B
  3
C5
350
66C
  3
C6
350
66D
  3
C7
350
66E
  3
C8
350
66F
  3
C9
350
670
  3
D0
350
671
  3
D1
350
672
  3
D2
350
673
  0
DICTIONARY
  5
2A
102
{ACAD_REACTORS
330
C
102
}
330
C
100
AcDbDictionary
281
     1
  3
2dWireframe
350
2F
  3
3D Hidden
350
31
  3
3dWireframe
350
30
  3
Basic
350
32
  3
Brighten
350
36
  3
ColorChange
350
3A
  3
Conceptual
350
34
  3
Dim
350
35
  3
Facepattern
350
39
  3
Flat
350
2B
  3
FlatWithEdges
350
2C
  3
Gouraud
350
2D
  3
GouraudWithEdges
350
2E
  3
Linepattern
350
38
  3
Realistic
350
33
  3
Thicken
350
37
  0
DICTIONARY
  5
676
102
{ACAD_REACTORS
330
C
102
}
330
C
100
AcDbDictionary
281
     1
  3
CANNOSCALE
350
67A
  3
DIMASSOC
350
67B
  3
HIDETEXT
350
67C
  3
XCLIPFRAME
350
679
  0
DICTIONARY
  5
674
102
{ACAD_REACTORS
330
C
102
}
330
C
100
AcDbDictionary
281
     1
  3
AC_WATERMARK
350
675
  0
XRECORD
  5
67E
102
{ACAD_REACTORS
330
67D
102
}
330
67D
100
AcDbXrecord
280
     1
 40
956118.0
  1
{P: HEAD OFFICE ^I^I09 277 2717\P    ALBANY ^I^I09 972 0060\P    KATIKAIT^I^I07 549 5190\P    WELLINGTON^I^I04 974 5792\P    CHRISTCHURCH^I^I03 348 6528}
  0
DICTIONARY
  5
64D
102
{ACAD_REACTORS
330
64C
102
}
330
64C
100
AcDbDictionary
280
     1
281
     1
  3
SPATIAL
360
64E
  0
LAYOUT
  5
1E
102
{ACAD_REACTORS
330
1A
102
}
330
1A
100
AcDbPlotSettings
  1

  2
none_device
  4

  6

 40
0.0
 41
0.0
 42
0.0
 43
0.0
 44
0.0
 45
0.0
 46
0.0
 47
0.0
 48
0.0
 49
0.0
140
0.0
141
0.0
142
1.0
143
1.0
 70
   688
 72
     0
 73
     0
 74
     5
  7

 75
    16
147
1.0
148
0.0
149
0.0
100
AcDbLayout
  1
Layout1
 70
     1
 71
     1
 10
0.0
 20
0.0
 11
12.0
 21
9.0
 12
0.0
 22
0.0
 32
0.0
 14
1.000000000000000E+20
 24
1.000000000000000E+20
 34
1.000000000000000E+20
 15
-1.000000000000000E+20
 25
-1.000000000000000E+20
 35
-1.000000000000000E+20
146
0.0
 13
0.0
 23
0.0
 33
0.0
 16
1.0
 26
0.0
 36
0.0
 17
0.0
 27
1.0
 37
0.0
 76
     0
330
1B
  0
LAYOUT
  5
22
102
{ACAD_REACTORS
330
1A
102
}
330
1A
100
AcDbPlotSettings
  1

  2
none_device
  4

  6

 40
0.0
 41
0.0
 42
0.0
 43
0.0
 44
0.0
 45
0.0
 46
0.0
 47
0.0
 48
0.0
 49
0.0
140
0.0
141
0.0
142
1.0
143
1.0
 70
  1712
 72
     0
 73
     0
 74
     0
  7

 75
     0
147
1.0
148
0.0
149
0.0
100
AcDbLayout
  1
Model
 70
     1
 71
     0
 10
0.0
 20
0.0
 11
12.0
 21
9.0
 12
0.0
 22
0.0
 32
0.0
 14
1.000000000000000E+20
 24
1.000000000000000E+20
 34
1.000000000000000E+20
 15
-1.000000000000000E+20
 25
-1.000000000000000E+20
 35
-1.000000000000000E+20
146
0.0
 13
0.0
 23
0.0
 33
0.0
 16
1.0
 26
0.0
 36
0.0
 17
0.0
 27
1.0
 37
0.0
 76
     0
330
1F
331
29
  0
MATERIAL
  5
3D
102
{ACAD_REACTORS
330
3B
102
}
102
{ACAD_XDICTIONARY
360
6A1
102
}
330
3B
100
AcDbMaterial
  1
ByBlock
  0
MATERIAL
  5
3C
102
{ACAD_REACTORS
330
3B
102
}
102
{ACAD_XDICTIONARY
360
69F
102
}
330
3B
100
AcDbMaterial
  1
ByLayer
  0
MATERIAL
  5
3E
102
{ACAD_REACTORS
330
3B
102
}
102
{ACAD_XDICTIONARY
360
6A3
102
}
330
3B
100
AcDbMaterial
  1
Global
  0
MLINESTYLE
  5
18
102
{ACAD_REACTORS
330
17
102
}
330
17
100
AcDbMlineStyle
  2
Standard
 70
     0
  3

 62
   256
 51
90.0
 52
90.0
 71
     2
 49
0.5
 62
   256
  6
BYLAYER
 49
-0.5
 62
   256
  6
BYLAYER
  0
ACDBPLACEHOLDER
  5
F
102
{ACAD_REACTORS
330
E
102
}
330
E
  0
SCALE
  5
653
102
{ACAD_REACTORS
330
652
102
}
330
652
100
AcDbScale
 70
     0
300
1:1
140
1.0
141
1.0
290
     1
  0
SCALE
  5
654
102
{ACAD_REACTORS
330
652
102
}
330
652
100
AcDbScale
 70
     0
300
1:2
140
1.0
141
2.0
290
     0
  0
SCALE
  5
655
102
{ACAD_REACTORS
330
652
102
}
330
652
100
AcDbScale
 70
     0
300
1:4
140
1.0
141
4.0
290
     0
  0
SCALE
  5
656
102
{ACAD_REACTORS
330
652
102
}
330
652
100
AcDbScale
 70
     0
300
1:5
140
1.0
141
5.0
290
     0
  0
SCALE
  5
657
102
{ACAD_REACTORS
330
652
102
}
330
652
100
AcDbScale
 70
     0
300
1:8
140
1.0
141
8.0
290
     0
  0
SCALE
  5
658
102
{ACAD_REACTORS
330
652
102
}
330
652
100
AcDbScale
 70
     0
300
1:10
140
1.0
141
10.0
290
     0
  0
SCALE
  5
659
102
{ACAD_REACTORS
330
652
102
}
330
652
100
AcDbScale
 70
     0
300
1:16
140
1.0
141
16.0
290
     0
  0
SCALE
  5
65A
102
{ACAD_REACTORS
330
652
102
}
330
652
100
AcDbScale
 70
     0
300
1:20
140
1.0
141
20.0
290
     0
  0
SCALE
  5
65B
102
{ACAD_REACTORS
330
652
102
}
330
652
100
AcDbScale
 70
     0
300
1:30
140
1.0
141
30.0
290
     0
  0
SCALE
  5
65C
102
{ACAD_REACTORS
330
652
102
}
330
652
100
AcDbScale
 70
     0
300
1:40
140
1.0
141
40.0
290
     0
  0
SCALE
  5
65D
102
{ACAD_REACTORS
330
652
102
}
330
652
100
AcDbScale
 70
     0
300
1:50
140
1.0
141
50.0
290
     0
  0
SCALE
  5
65E
102
{ACAD_REACTORS
330
652
102
}
330
652
100
AcDbScale
 70
     0
300
1:100
140
1.0
141
100.0
290
     0
  0
SCALE
  5
65F
102
{ACAD_REACTORS
330
652
102
}
330
652
100
AcDbScale
 70
     0
300
2:1
140
2.0
141
1.0
290
     0
  0
SCALE
  5
660
102
{ACAD_REACTORS
330
652
102
}
330
652
100
AcDbScale
 70
     0
300
4:1
140
4.0
141
1.0
290
     0
  0
SCALE
  5
661
102
{ACAD_REACTORS
330
652
102
}
330
652
100
AcDbScale
 70
     0
300
8:1
140
8.0
141
1.0
290
     0
  0
SCALE
  5
662
102
{ACAD_REACTORS
330
652
102
}
330
652
100
AcDbScale
 70
     0
300
10:1
140
10.0
141
1.0
290
     0
  0
SCALE
  5
663
102
{ACAD_REACTORS
330
652
102
}
330
652
100
AcDbScale
 70
     0
300
100:1
140
100.0
141
1.0
290
     0
  0
SCALE
  5
664
102
{ACAD_REACTORS
330
652
102
}
330
652
100
AcDbScale
 70
     0
300
1/128" = 1'-0"
140
0.0078125
141
12.0
290
     0
  0
SCALE
  5
665
102
{ACAD_REACTORS
330
652
102
}
330
652
100
AcDbScale
 70
     0
300
1/64" = 1'-0"
140
0.015625
141
12.0
290
     0
  0
SCALE
  5
666
102
{ACAD_REACTORS
330
652
102
}
330
652
100
AcDbScale
 70
     0
300
1/32" = 1'-0"
140
0.03125
141
12.0
290
     0
  0
SCALE
  5
667
102
{ACAD_REACTORS
330
652
102
}
330
652
100
AcDbScale
 70
     0
300
1/16" = 1'-0"
140
0.0625
141
12.0
290
     0
  0
SCALE
  5
668
102
{ACAD_REACTORS
330
652
102
}
330
652
100
AcDbScale
 70
     0
300
3/32" = 1'-0"
140
0.09375
141
12.0
290
     0
  0
SCALE
  5
669
102
{ACAD_REACTORS
330
652
102
}
330
652
100
AcDbScale
 70
     0
300
1/8" = 1'-0"
140
0.125
141
12.0
290
     0
  0
SCALE
  5
66A
102
{ACAD_REACTORS
330
652
102
}
330
652
100
AcDbScale
 70
     0
300
3/16" = 1'-0"
140
0.1875
141
12.0
290
     0
  0
SCALE
  5
66B
102
{ACAD_REACTORS
330
652
102
}
330
652
100
AcDbScale
 70
     0
300
1/4" = 1'-0"
140
0.25
141
12.0
290
     0
  0
SCALE
  5
66C
102
{ACAD_REACTORS
330
652
102
}
330
652
100
AcDbScale
 70
     0
300
3/8" = 1'-0"
140
0.375
141
12.0
290
     0
  0
SCALE
  5
66D
102
{ACAD_REACTORS
330
652
102
}
330
652
100
AcDbScale
 70
     0
300
1/2" = 1'-0"
140
0.5
141
12.0
290
     0
  0
SCALE
  5
66E
102
{ACAD_REACTORS
330
652
102
}
330
652
100
AcDbScale
 70
     0
300
3/4" = 1'-0"
140
0.75
141
12.0
290
     0
  0
SCALE
  5
66F
102
{ACAD_REACTORS
330
652
102
}
330
652
100
AcDbScale
 70
     0
300
1" = 1'-0"
140
1.0
141
12.0
290
     0
  0
SCALE
  5
670
102
{ACAD_REACTORS
330
652
102
}
330
652
100
AcDbScale
 70
     0
300
1-1/2" = 1'-0"
140
1.5
141
12.0
290
     0
  0
SCALE
  5
671
102
{ACAD_REACTORS
330
652
102
}
330
652
100
AcDbScale
 70
     0
300
3" = 1'-0"
140
3.0
141
12.0
290
     0
  0
SCALE
  5
672
102
{ACAD_REACTORS
330
652
102
}
330
652
100
AcDbScale
 70
     0
300
6" = 1'-0"
140
6.0
141
12.0
290
     0
  0
SCALE
  5
673
102
{ACAD_REACTORS
330
652
102
}
330
652
100
AcDbScale
 70
     0
300
1'-0" = 1'-0"
140
12.0
141
12.0
290
     0
  0
VISUALSTYLE
  5
2F
102
{ACAD_REACTORS
330
2A
102
}
102
{ACAD_XDICTIONARY
360
687
102
}
330
2A
100
AcDbVisualStyle
  2
2dWireframe
 70
     4
 71
     0
 72
     2
 73
     0
 90
        0
 40
-0.6
 41
-30.0
 62
     5
 63
     7
 74
     1
 91
        4
 64
     7
 65
   257
 75
     1
175
     1
 42
1.0
 92
        0
 66
   257
 43
1.0
 76
     1
 77
     6
 78
     2
 67
     7
 79
     5
170
     0
171
     0
290
     0
174
     0
 93
        1
 44
0.0
173
     0
291
     0
 45
0.0
1001
ACAD
1000
AcDbSavedByObjectVersion
1070
     0
  0
VISUALSTYLE
  5
31
102
{ACAD_REACTORS
330
2A
102
}
102
{ACAD_XDICTIONARY
360
68B
102
}
330
2A
100
AcDbVisualStyle
  2
3D Hidden
 70
     6
 71
     1
 72
     2
 73
     2
 90
        0
 40
-0.6
 41
-30.0
 62
     5
 63
     7
 74
     2
 91
        2
 64
     7
 65
   257
 75
     2
175
     1
 42
40.0
 92
        0
 66
   257
 43
1.0
 76
     1
 77
     6
 78
     2
 67
     7
 79
     3
170
     0
171
     0
290
     0
174
     0
 93
        1
 44
0.0
173
     0
291
     0
 45
0.0
1001
ACAD
1000
AcDbSavedByObjectVersion
1070
     0
  0
VISUALSTYLE
  5
30
102
{ACAD_REACTORS
330
2A
102
}
102
{ACAD_XDICTIONARY
360
689
102
}
330
2A
100
AcDbVisualStyle
  2
3dWireframe
 70
     5
 71
     0
 72
     2
 73
     0
 90
        0
 40
-0.6
 41
-30.0
 62
     5
 63
     7
 74
     1
 91
        4
 64
     7
 65
   257
 75
     1
175
     1
 42
1.0
 92
        0
 66
   257
 43
1.0
 76
     1
 77
     6
 78
     2
 67
     7
 79
     5
170
     0
171
     0
290
     0
174
     0
 93
        1
 44
0.0
173
     0
291
     0
 45
0.0
1001
ACAD
1000
AcDbSavedByObjectVersion
1070
     0
  0
VISUALSTYLE
  5
32
102
{ACAD_REACTORS
330
2A
102
}
102
{ACAD_XDICTIONARY
360
68D
102
}
330
2A
100
AcDbVisualStyle
  2
Basic
 70
     7
 71
     1
 72
     0
 73
     1
 90
        0
 40
-0.6
 41
-30.0
 62
     5
 63
     7
 74
     0
 91
        4
 64
     7
 65
   257
 75
     1
175
     1
 42
1.0
 92
        8
 66
     7
 43
1.0
 76
     1
 77
     6
 78
     2
 67
     7
 79
     5
170
     0
171
     0
290
     0
174
     0
 93
        1
 44
0.0
173
     0
291
     1
 45
0.0
1001
ACAD
1000
AcDbSavedByObjectVersion
1070
     0
  0
VISUALSTYLE
  5
36
102
{ACAD_REACTORS
330
2A
102
}
102
{ACAD_XDICTIONARY
360
695
102
}
330
2A
100
AcDbVisualStyle
  2
Brighten
 70
    12
 71
     2
 72
     2
 73
     0
 90
        0
 40
-0.6
 41
-30.0
 62
     5
 63
     7
 74
     1
 91
        4
 64
     7
 65
   257
 75
     1
175
     1
 42
1.0
 92
        8
 66
     7
 43
1.0
 76
     1
 77
     6
 78
     2
 67
     7
 79
     5
170
     0
171
     0
290
     0
174
     0
 93
        1
 44
50.0
173
     0
291
     1
 45
0.0
1001
ACAD
1000
AcDbSavedByObjectVersion
1070
     0
  0
VISUALSTYLE
  5
3A
102
{ACAD_REACTORS
330
2A
102
}
102
{ACAD_XDICTIONARY
360
69D
102
}
330
2A
100
AcDbVisualStyle
  2
ColorChange
 70
    16
 71
     2
 72
     2
 73
     3
 90
        0
 40
-0.6
 41
-30.0
 62
     5
 63
     8
 74
     1
 91
        4
 64
     7
 65
   257
 75
     1
175
     1
 42
1.0
 92
        8
 66
     8
 43
1.0
 76
     1
 77
     6
 78
     2
 67
     7
 79
     5
170
     0
171
     0
290
     0
174
     0
 93
        1
 44
0.0
173
     0
291
     1
 45
0.0
1001
ACAD
1000
AcDbSavedByObjectVersion
1070
     0
  0
VISUALSTYLE
  5
34
102
{ACAD_REACTORS
330
2A
102
}
102
{ACAD_XDICTIONARY
360
691
102
}
330
2A
100
AcDbVisualStyle
  2
Conceptual
 70
     9
 71
     3
 72
     2
 73
     0
 90
        0
 40
-0.6
 41
-30.0
 62
     5
 63
     7
 74
     2
 91
        2
 64
     7
 65
   257
 75
     1
175
     1
 42
40.0
 92
        8
 66
     7
 43
1.0
 76
     1
 77
     6
 78
     2
 67
     7
 79
     3
170
     0
171
     0
290
     0
174
     0
 93
        1
 44
0.0
173
     0
291
     0
 45
0.0
1001
ACAD
1000
AcDbSavedByObjectVersion
1070
     0
  0
VISUALSTYLE
  5
35
102
{ACAD_REACTORS
330
2A
102
}
102
{ACAD_XDICTIONARY
360
693
102
}
330
2A
100
AcDbVisualStyle
  2
Dim
 70
    11
 71
     2
 72
     2
 73
     0
 90
        0
 40
-0.6
 41
-30.0
 62
     5
 63
     7
 74
     1
 91
        4
 64
     7
 65
   257
 75
     1
175
     1
 42
1.0
 92
        8
 66
     7
 43
1.0
 76
     1
 77
     6
 78
     2
 67
     7
 79
     5
170
     0
171
     0
290
     0
174
     0
 93
        1
 44
-50.0
173
     0
291
     1
 45
0.0
1001
ACAD
1000
AcDbSavedByObjectVersion
1070
     0
  0
VISUALSTYLE
  5
39
102
{ACAD_REACTORS
330
2A
102
}
102
{ACAD_XDICTIONARY
360
69B
102
}
330
2A
100
AcDbVisualStyle
  2
Facepattern
 70
    15
 71
     2
 72
     2
 73
     0
 90
        0
 40
-0.6
 41
-30.0
 62
     5
 63
     7
 74
     1
 91
        4
 64
     7
 65
   257
 75
     1
175
     1
 42
1.0
 92
        8
 66
     7
 43
1.0
 76
     1
 77
     6
 78
     2
 67
     7
 79
     5
170
     0
171
     0
290
     0
174
     0
 93
        1
 44
0.0
173
     0
291
     1
 45
0.0
1001
ACAD
1000
AcDbSavedByObjectVersion
1070
     0
  0
VISUALSTYLE
  5
2B
102
{ACAD_REACTORS
330
2A
102
}
102
{ACAD_XDICTIONARY
360
67F
102
}
330
2A
100
AcDbVisualStyle
  2
Flat
 70
     0
 71
     2
 72
     1
 73
     1
 90
        2
 40
-0.6
 41
30.0
 62
     5
 63
     7
 74
     0
 91
        4
 64
     7
 65
   257
 75
     1
175
     1
 42
1.0
 92
        8
 66
     7
 43
1.0
 76
     1
 77
     6
 78
     2
 67
     7
 79
     5
170
     0
171
     0
290
     0
174
     0
 93
       13
 44
0.0
173
     0
291
     1
 45
0.0
1001
ACAD
1000
AcDbSavedByObjectVersion
1070
     0
  0
VISUALSTYLE
  5
2C
102
{ACAD_REACTORS
330
2A
102
}
102
{ACAD_XDICTIONARY
360
681
102
}
330
2A
100
AcDbVisualStyle
  2
FlatWithEdges
 70
     1
 71
     2
 72
     1
 73
     1
 90
        2
 40
-0.6
 41
30.0
 62
     5
 63
     7
 74
     1
 91
        4
 64
     7
 65
   257
 75
     1
175
     1
 42
1.0
 92
        0
 66
   257
 43
1.0
 76
     1
 77
     6
 78
     2
 67
     7
 79
     5
170
     0
171
     0
290
     0
174
     0
 93
       13
 44
0.0
173
     0
291
     1
 45
0.0
1001
ACAD
1000
AcDbSavedByObjectVersion
1070
     0
  0
VISUALSTYLE
  5
2D
102
{ACAD_REACTORS
330
2A
102
}
102
{ACAD_XDICTIONARY
360
683
102
}
330
2A
100
AcDbVisualStyle
  2
Gouraud
 70
     2
 71
     2
 72
     2
 73
     1
 90
        2
 40
-0.6
 41
30.0
 62
     5
 63
     7
 74
     0
 91
        4
 64
     7
 65
   257
 75
     1
175
     1
 42
1.0
 92
        0
 66
     7
 43
1.0
 76
     1
 77
     6
 78
     2
 67
     7
 79
     5
170
     0
171
     0
290
     0
174
     0
 93
       13
 44
0.0
173
     0
291
     1
 45
0.0
1001
ACAD
1000
AcDbSavedByObjectVersion
1070
     0
  0
VISUALSTYLE
  5
2E
102
{ACAD_REACTORS
330
2A
102
}
102
{ACAD_XDICTIONARY
360
685
102
}
330
2A
100
AcDbVisualStyle
  2
GouraudWithEdges
 70
     3
 71
     2
 72
     2
 73
     1
 90
        2
 40
-0.6
 41
30.0
 62
     5
 63
     7
 74
     1
 91
        4
 64
     7
 65
   257
 75
     1
175
     1
 42
1.0
 92
        0
 66
   257
 43
1.0
 76
     1
 77
     6
 78
     2
 67
     7
 79
     5
170
     0
171
     0
290
     0
174
     0
 93
       13
 44
0.0
173
     0
291
     1
 45
0.0
1001
ACAD
1000
AcDbSavedByObjectVersion
1070
     0
  0
VISUALSTYLE
  5
38
102
{ACAD_REACTORS
330
2A
102
}
102
{ACAD_XDICTIONARY
360
699
102
}
330
2A
100
AcDbVisualStyle
  2
Linepattern
 70
    14
 71
     2
 72
     2
 73
     0
 90
        0
 40
-0.6
 41
-30.0
 62
     5
 63
     7
 74
     1
 91
        4
 64
     7
 65
   257
 75
     7
175
     7
 42
1.0
 92
        8
 66
     7
 43
1.0
 76
     1
 77
     6
 78
     2
 67
     7
 79
     5
170
     0
171
     0
290
     0
174
     0
 93
        1
 44
0.0
173
     0
291
     1
 45
0.0
1001
ACAD
1000
AcDbSavedByObjectVersion
1070
     0
  0
VISUALSTYLE
  5
33
102
{ACAD_REACTORS
330
2A
102
}
102
{ACAD_XDICTIONARY
360
68F
102
}
330
2A
100
AcDbVisualStyle
  2
Realistic
 70
     8
 71
     2
 72
     2
 73
     0
 90
        0
 40
-0.6
 41
-30.0
 62
     5
 63
     7
 74
     1
 91
        0
 64
     7
 65
   257
 75
     1
175
     1
 42
1.0
 92
        8
 66
     8
 43
1.0
 76
     1
 77
     6
 78
     2
 67
     7
 79
     5
170
     0
171
     0
290
     0
174
     0
 93
       13
 44
0.0
173
     0
291
     0
 45
0.0
1001
ACAD
1000
AcDbSavedByObjectVersion
1070
     0
  0
VISUALSTYLE
  5
37
102
{ACAD_REACTORS
330
2A
102
}
102
{ACAD_XDICTIONARY
360
697
102
}
330
2A
100
AcDbVisualStyle
  2
Thicken
 70
    13
 71
     2
 72
     2
 73
     0
 90
        0
 40
-0.6
 41
-30.0
 62
     5
 63
     7
 74
     1
 91
        4
 64
     7
 65
   257
 75
     1
175
     1
 42
1.0
 92
       12
 66
     7
 43
1.0
 76
     1
 77
     6
 78
     2
 67
     7
 79
     5
170
     0
171
     0
290
     0
174
     0
 93
        1
 44
0.0
173
     0
291
     1
 45
0.0
1001
ACAD
1000
AcDbSavedByObjectVersion
1070
     0
  0
DICTIONARYVAR
  5
67A
102
{ACAD_REACTORS
330
676
102
}
330
676
100
DictionaryVariables
280
     0
  1
1:1
  0
DICTIONARYVAR
  5
67B
102
{ACAD_REACTORS
330
676
102
}
330
676
100
DictionaryVariables
280
     0
  1
2
  0
DICTIONARYVAR
  5
67C
102
{ACAD_REACTORS
330
676
102
}
330
676
100
DictionaryVariables
280
     0
  1
1
  0
DICTIONARYVAR
  5
679
102
{ACAD_REACTORS
330
676
102
}
330
676
100
DictionaryVariables
280
     0
  1
0
  0
XRECORD
  5
675
102
{ACAD_REACTORS
330
674
102
}
330
674
100
AcDbXrecord
280
     1
1000
This DWG file was created in ArchiCAD(TM)®
  0
SPATIAL_FILTER
  5
64E
102
{ACAD_REACTORS
330
64D
102
}
330
64D
100
AcDbFilter
100
AcDbSpatialFilter
 70
     4
 10
20.48385250649914
 20
26.01930474315756
 10
262.7211298404507
 20
26.01930474315756
 10
262.7211298404507
 20
197.643803943156
 10
20.48385250649914
 20
197.643803943156
210
0.0
220
0.0
230
1.0
 11
0.0
 21
0.0
 31
0.0
 71
     1
 72
     0
 73
     0
 40
1.0
 40
0.0
 40
0.0
 40
0.0
 40
0.0
 40
1.0
 40
0.0
 40
0.0
 40
0.0
 40
0.0
 40
1.0
 40
0.0
 40
1.0
 40
0.0
 40
0.0
 40
0.0
 40
0.0
 40
1.0
 40
0.0
 40
0.0
 40
0.0
 40
0.0
 40
1.0
 40
0.0
  0
DICTIONARY
  5
6A1
330
3D
100
AcDbDictionary
280
     1
281
     1
  3
ACAD_XREC_ROUNDTRIP
360
6A2
  0
DICTIONARY
  5
69F
330
3C
100
AcDbDictionary
280
     1
281
     1
  3
ACAD_XREC_ROUNDTRIP
360
6A0
  0
DICTIONARY
  5
6A3
330
3E
100
AcDbDictionary
280
     1
281
     1
  3
ACAD_XREC_ROUNDTRIP
360
6A4
  0
DICTIONARY
  5
687
330
2F
100
AcDbDictionary
280
     1
281
     1
  3
ACAD_XREC_ROUNDTRIP
360
688
  0
DICTIONARY
  5
68B
330
31
100
AcDbDictionary
280
     1
281
     1
  3
ACAD_XREC_ROUNDTRIP
360
68C
  0
DICTIONARY
  5
689
330
30
100
AcDbDictionary
280
     1
281
     1
  3
ACAD_XREC_ROUNDTRIP
360
68A
  0
DICTIONARY
  5
68D
330
32
100
AcDbDictionary
280
     1
281
     1
  3
ACAD_XREC_ROUNDTRIP
360
68E
  0
DICTIONARY
  5
695
330
36
100
AcDbDictionary
280
     1
281
     1
  3
ACAD_XREC_ROUNDTRIP
360
696
  0
DICTIONARY
  5
69D
330
3A
100
AcDbDictionary
280
     1
281
     1
  3
ACAD_XREC_ROUNDTRIP
360
69E
  0
DICTIONARY
  5
691
330
34
100
AcDbDictionary
280
     1
281
     1
  3
ACAD_XREC_ROUNDTRIP
360
692
  0
DICTIONARY
  5
693
330
35
100
AcDbDictionary
280
     1
281
     1
  3
ACAD_XREC_ROUNDTRIP
360
694
  0
DICTIONARY
  5
69B
330
39
100
AcDbDictionary
280
     1
281
     1
  3
ACAD_XREC_ROUNDTRIP
360
69C
  0
DICTIONARY
  5
67F
330
2B
100
AcDbDictionary
280
     1
281
     1
  3
ACAD_XREC_ROUNDTRIP
360
680
  0
DICTIONARY
  5
681
330
2C
100
AcDbDictionary
280
     1
281
     1
  3
ACAD_XREC_ROUNDTRIP
360
682
  0
DICTIONARY
  5
683
330
2D
100
AcDbDictionary
280
     1
281
     1
  3
ACAD_XREC_ROUNDTRIP
360
684
  0
DICTIONARY
  5
685
330
2E
100
AcDbDictionary
280
     1
281
     1
  3
ACAD_XREC_ROUNDTRIP
360
686
  0
DICTIONARY
  5
699
330
38
100
AcDbDictionary
280
     1
281
     1
  3
ACAD_XREC_ROUNDTRIP
360
69A
  0
DICTIONARY
  5
68F
330
33
100
AcDbDictionary
280
     1
281
     1
  3
ACAD_XREC_ROUNDTRIP
360
690
  0
DICTIONARY
  5
697
330
37
100
AcDbDictionary
280
     1
281
     1
  3
ACAD_XREC_ROUNDTRIP
360
698
  0
XRECORD
  5
6A2
102
{ACAD_REACTORS
330
6A1
102
}
330
6A1
100
AcDbXrecord
280
     1
102
MATERIAL
148
0.0
149
0.0
149
0.0
 93
        0
 94
      127
282
     0
 72
     1
 77
     1
171
     1
175
     1
179
     1
273
     0
  0
XRECORD
  5
6A0
102
{ACAD_REACTORS
330
69F
102
}
330
69F
100
AcDbXrecord
280
     1
102
MATERIAL
148
0.0
149
0.0
149
0.0
 93
        0
 94
      127
282
     0
 72
     1
 77
     1
171
     1
175
     1
179
     1
273
     0
  0
XRECORD
  5
6A4
102
{ACAD_REACTORS
330
6A3
102
}
330
6A3
100
AcDbXrecord
280
     1
102
MATERIAL
148
0.0
149
0.0
149
0.0
 93
        0
 94
      127
282
     0
 72
     1
 77
     1
171
     1
175
     1
179
     1
273
     0
  0
XRECORD
  5
688
102
{ACAD_REACTORS
330
687
102
}
330
687
100
AcDbXrecord
280
     1
102
RTVSPropertyOp0
 70
     1
102
RTVSPropertyOp1
 70
     1
102
RTVSPropertyOp2
 70
     1
102
RTVSPropertyOp3
 70
     1
102
RTVSPropertyOp4
 70
     1
102
RTVSPropertyOp5
 70
     1
102
RTVSPropertyOp6
 70
     1
102
RTVSPropertyOp7
 70
     1
102
RTVSPropertyOp8
 70
     1
102
RTVSPropertyOp9
 70
     1
102
RTVSPropertyOp10
 70
     1
102
RTVSPropertyOp11
 70
     1
102
RTVSPropertyOp12
 70
     1
102
RTVSPropertyOp13
 70
     1
102
RTVSPropertyOp14
 70
     1
102
RTVSPropertyOp15
 70
     1
102
RTVSPropertyOp16
 70
     1
102
RTVSPropertyOp17
 70
     1
102
RTVSPropertyOp18
 70
     1
102
RTVSPropertyOp19
 70
     1
102
RTVSPropertyOp20
 70
     1
102
RTVSPropertyOp21
 70
     1
102
RTVSPropertyOp22
 70
     1
102
RTVSPropertyOp23
 70
     1
102
RTVSPropertyOp24
 70
     1
102
RTVSPropertyOp25
 70
     1
102
RTVSPropertyOp26
 70
     1
102
RTVSPropertyOp27
 70
     1
102
RTVSPropertyOp28
 70
     1
102
RTVSPropertyOp29
 70
     1
102
RTVSPropertyOp30
 70
     1
102
RTVSPropertyOp31
 70
     1
102
RTVSPropertyOp32
 70
     1
  0
XRECORD
  5
68C
102
{ACAD_REACTORS
330
68B
102
}
330
68B
100
AcDbXrecord
280
     1
102
RTVSPropertyOp0
 70
     1
102
RTVSPropertyOp1
 70
     1
102
RTVSPropertyOp2
 70
     1
102
RTVSPropertyOp3
 70
     1
102
RTVSPropertyOp4
 70
     1
102
RTVSPropertyOp5
 70
     1
102
RTVSPropertyOp6
 70
     1
102
RTVSPropertyOp7
 70
     1
102
RTVSPropertyOp8
 70
     1
102
RTVSPropertyOp9
 70
     1
102
RTVSPropertyOp10
 70
     1
102
RTVSPropertyOp11
 70
     1
102
RTVSPropertyOp12
 70
     1
102
RTVSPropertyOp13
 70
     1
102
RTVSPropertyOp14
 70
     1
102
RTVSPropertyOp15
 70
     1
102
RTVSPropertyOp16
 70
     1
102
RTVSPropertyOp17
 70
     1
102
RTVSPropertyOp18
 70
     1
102
RTVSPropertyOp19
 70
     1
102
RTVSPropertyOp20
 70
     1
102
RTVSPropertyOp21
 70
     1
102
RTVSPropertyOp22
 70
     1
102
RTVSPropertyOp23
 70
     1
102
RTVSPropertyOp24
 70
     1
102
RTVSPropertyOp25
 70
     1
102
RTVSPropertyOp26
 70
     1
102
RTVSPropertyOp27
 70
     1
102
RTVSPropertyOp28
 70
     1
102
RTVSPropertyOp29
 70
     1
102
RTVSPropertyOp30
 70
     1
102
RTVSPropertyOp31
 70
     1
102
RTVSPropertyOp32
 70
     1
  0
XRECORD
  5
68A
102
{ACAD_REACTORS
330
689
102
}
330
689
100
AcDbXrecord
280
     1
102
RTVSPropertyOp0
 70
     1
102
RTVSPropertyOp1
 70
     1
102
RTVSPropertyOp2
 70
     1
102
RTVSPropertyOp3
 70
     1
102
RTVSPropertyOp4
 70
     1
102
RTVSPropertyOp5
 70
     1
102
RTVSPropertyOp6
 70
     1
102
RTVSPropertyOp7
 70
     1
102
RTVSPropertyOp8
 70
     1
102
RTVSPropertyOp9
 70
     1
102
RTVSPropertyOp10
 70
     1
102
RTVSPropertyOp11
 70
     1
102
RTVSPropertyOp12
 70
     1
102
RTVSPropertyOp13
 70
     1
102
RTVSPropertyOp14
 70
     1
102
RTVSPropertyOp15
 70
     1
102
RTVSPropertyOp16
 70
     1
102
RTVSPropertyOp17
 70
     1
102
RTVSPropertyOp18
 70
     1
102
RTVSPropertyOp19
 70
     1
102
RTVSPropertyOp20
 70
     1
102
RTVSPropertyOp21
 70
     1
102
RTVSPropertyOp22
 70
     1
102
RTVSPropertyOp23
 70
     1
102
RTVSPropertyOp24
 70
     1
102
RTVSPropertyOp25
 70
     1
102
RTVSPropertyOp26
 70
     1
102
RTVSPropertyOp27
 70
     1
102
RTVSPropertyOp28
 70
     1
102
RTVSPropertyOp29
 70
     1
102
RTVSPropertyOp30
 70
     1
102
RTVSPropertyOp31
 70
     1
102
RTVSPropertyOp32
 70
     1
  0
XRECORD
  5
68E
102
{ACAD_REACTORS
330
68D
102
}
330
68D
100
AcDbXrecord
280
     1
102
RTVSPropertyOp0
 70
     1
102
RTVSPropertyOp1
 70
     1
102
RTVSPropertyOp2
 70
     1
102
RTVSPropertyOp3
 70
     1
102
RTVSPropertyOp4
 70
     1
102
RTVSPropertyOp5
 70
     1
102
RTVSPropertyOp6
 70
     1
102
RTVSPropertyOp7
 70
     1
102
RTVSPropertyOp8
 70
     1
102
RTVSPropertyOp9
 70
     1
102
RTVSPropertyOp10
 70
     1
102
RTVSPropertyOp11
 70
     1
102
RTVSPropertyOp12
 70
     1
102
RTVSPropertyOp13
 70
     1
102
RTVSPropertyOp14
 70
     1
102
RTVSPropertyOp15
 70
     1
102
RTVSPropertyOp16
 70
     1
102
RTVSPropertyOp17
 70
     1
102
RTVSPropertyOp18
 70
     1
102
RTVSPropertyOp19
 70
     1
102
RTVSPropertyOp20
 70
     1
102
RTVSPropertyOp21
 70
     1
102
RTVSPropertyOp22
 70
     1
102
RTVSPropertyOp23
 70
     1
102
RTVSPropertyOp24
 70
     1
102
RTVSPropertyOp25
 70
     1
102
RTVSPropertyOp26
 70
     1
102
RTVSPropertyOp27
 70
     1
102
RTVSPropertyOp28
 70
     1
102
RTVSPropertyOp29
 70
     1
102
RTVSPropertyOp30
 70
     1
102
RTVSPropertyOp31
 70
     1
102
RTVSPropertyOp32
 70
     1
  0
XRECORD
  5
696
102
{ACAD_REACTORS
330
695
102
}
330
695
100
AcDbXrecord
280
     1
102
RTVSPropertyOp0
 70
     1
102
RTVSPropertyOp1
 70
     1
102
RTVSPropertyOp2
 70
     1
102
RTVSPropertyOp3
 70
     1
102
RTVSPropertyOp4
 70
     1
102
RTVSPropertyOp5
 70
     1
102
RTVSPropertyOp6
 70
     1
102
RTVSPropertyOp7
 70
     1
102
RTVSPropertyOp8
 70
     1
102
RTVSPropertyOp9
 70
     1
102
RTVSPropertyOp10
 70
     1
102
RTVSPropertyOp11
 70
     1
102
RTVSPropertyOp12
 70
     1
102
RTVSPropertyOp13
 70
     1
102
RTVSPropertyOp14
 70
     1
102
RTVSPropertyOp15
 70
     1
102
RTVSPropertyOp16
 70
     1
102
RTVSPropertyOp17
 70
     1
102
RTVSPropertyOp18
 70
     1
102
RTVSPropertyOp19
 70
     1
102
RTVSPropertyOp20
 70
     1
102
RTVSPropertyOp21
 70
     1
102
RTVSPropertyOp22
 70
     1
102
RTVSPropertyOp23
 70
     1
102
RTVSPropertyOp24
 70
     1
102
RTVSPropertyOp25
 70
     1
102
RTVSPropertyOp26
 70
     1
102
RTVSPropertyOp27
 70
     1
102
RTVSPropertyOp28
 70
     1
102
RTVSPropertyOp29
 70
     1
102
RTVSPropertyOp30
 70
     1
102
RTVSPropertyOp31
 70
     1
102
RTVSPropertyOp32
 70
     1
  0
XRECORD
  5
69E
102
{ACAD_REACTORS
330
69D
102
}
330
69D
100
AcDbXrecord
280
     1
102
RTVSPropertyOp0
 70
     1
102
RTVSPropertyOp1
 70
     1
102
RTVSPropertyOp2
 70
     1
102
RTVSPropertyOp3
 70
     1
102
RTVSPropertyOp4
 70
     1
102
RTVSPropertyOp5
 70
     1
102
RTVSPropertyOp6
 70
     1
102
RTVSPropertyOp7
 70
     1
102
RTVSPropertyOp8
 70
     1
102
RTVSPropertyOp9
 70
     1
102
RTVSPropertyOp10
 70
     1
102
RTVSPropertyOp11
 70
     1
102
RTVSPropertyOp12
 70
     1
102
RTVSPropertyOp13
 70
     1
102
RTVSPropertyOp14
 70
     1
102
RTVSPropertyOp15
 70
     1
102
RTVSPropertyOp16
 70
     1
102
RTVSPropertyOp17
 70
     1
102
RTVSPropertyOp18
 70
     1
102
RTVSPropertyOp19
 70
     1
102
RTVSPropertyOp20
 70
     1
102
RTVSPropertyOp21
 70
     1
102
RTVSPropertyOp22
 70
     1
102
RTVSPropertyOp23
 70
     1
102
RTVSPropertyOp24
 70
     1
102
RTVSPropertyOp25
 70
     1
102
RTVSPropertyOp26
 70
     1
102
RTVSPropertyOp27
 70
     1
102
RTVSPropertyOp28
 70
     1
102
RTVSPropertyOp29
 70
     1
102
RTVSPropertyOp30
 70
     1
102
RTVSPropertyOp31
 70
     1
102
RTVSPropertyOp32
 70
     1
  0
XRECORD
  5
692
102
{ACAD_REACTORS
330
691
102
}
330
691
100
AcDbXrecord
280
     1
102
RTVSPropertyOp0
 70
     1
102
RTVSPropertyOp1
 70
     1
102
RTVSPropertyOp2
 70
     1
102
RTVSPropertyOp3
 70
     1
102
RTVSPropertyOp4
 70
     1
102
RTVSPropertyOp5
 70
     1
102
RTVSPropertyOp6
 70
     1
102
RTVSPropertyOp7
 70
     1
102
RTVSPropertyOp8
 70
     1
102
RTVSPropertyOp9
 70
     1
102
RTVSPropertyOp10
 70
     1
102
RTVSPropertyOp11
 70
     1
102
RTVSPropertyOp12
 70
     1
102
RTVSPropertyOp13
 70
     1
102
RTVSPropertyOp14
 70
     1
102
RTVSPropertyOp15
 70
     1
102
RTVSPropertyOp16
 70
     1
102
RTVSPropertyOp17
 70
     1
102
RTVSPropertyOp18
 70
     1
102
RTVSPropertyOp19
 70
     1
102
RTVSPropertyOp20
 70
     1
102
RTVSPropertyOp21
 70
     1
102
RTVSPropertyOp22
 70
     1
102
RTVSPropertyOp23
 70
     1
102
RTVSPropertyOp24
 70
     1
102
RTVSPropertyOp25
 70
     1
102
RTVSPropertyOp26
 70
     1
102
RTVSPropertyOp27
 70
     1
102
RTVSPropertyOp28
 70
     1
102
RTVSPropertyOp29
 70
     1
102
RTVSPropertyOp30
 70
     1
102
RTVSPropertyOp31
 70
     1
102
RTVSPropertyOp32
 70
     1
  0
XRECORD
  5
694
102
{ACAD_REACTORS
330
693
102
}
330
693
100
AcDbXrecord
280
     1
102
RTVSPropertyOp0
 70
     1
102
RTVSPropertyOp1
 70
     1
102
RTVSPropertyOp2
 70
     1
102
RTVSPropertyOp3
 70
     1
102
RTVSPropertyOp4
 70
     1
102
RTVSPropertyOp5
 70
     1
102
RTVSPropertyOp6
 70
     1
102
RTVSPropertyOp7
 70
     1
102
RTVSPropertyOp8
 70
     1
102
RTVSPropertyOp9
 70
     1
102
RTVSPropertyOp10
 70
     1
102
RTVSPropertyOp11
 70
     1
102
RTVSPropertyOp12
 70
     1
102
RTVSPropertyOp13
 70
     1
102
RTVSPropertyOp14
 70
     1
102
RTVSPropertyOp15
 70
     1
102
RTVSPropertyOp16
 70
     1
102
RTVSPropertyOp17
 70
     1
102
RTVSPropertyOp18
 70
     1
102
RTVSPropertyOp19
 70
     1
102
RTVSPropertyOp20
 70
     1
102
RTVSPropertyOp21
 70
     1
102
RTVSPropertyOp22
 70
     1
102
RTVSPropertyOp23
 70
     1
102
RTVSPropertyOp24
 70
     1
102
RTVSPropertyOp25
 70
     1
102
RTVSPropertyOp26
 70
     1
102
RTVSPropertyOp27
 70
     1
102
RTVSPropertyOp28
 70
     1
102
RTVSPropertyOp29
 70
     1
102
RTVSPropertyOp30
 70
     1
102
RTVSPropertyOp31
 70
     1
102
RTVSPropertyOp32
 70
     1
  0
XRECORD
  5
69C
102
{ACAD_REACTORS
330
69B
102
}
330
69B
100
AcDbXrecord
280
     1
102
RTVSPropertyOp0
 70
     1
102
RTVSPropertyOp1
 70
     1
102
RTVSPropertyOp2
 70
     1
102
RTVSPropertyOp3
 70
     1
102
RTVSPropertyOp4
 70
     1
102
RTVSPropertyOp5
 70
     1
102
RTVSPropertyOp6
 70
     1
102
RTVSPropertyOp7
 70
     1
102
RTVSPropertyOp8
 70
     1
102
RTVSPropertyOp9
 70
     1
102
RTVSPropertyOp10
 70
     1
102
RTVSPropertyOp11
 70
     1
102
RTVSPropertyOp12
 70
     1
102
RTVSPropertyOp13
 70
     1
102
RTVSPropertyOp14
 70
     1
102
RTVSPropertyOp15
 70
     1
102
RTVSPropertyOp16
 70
     1
102
RTVSPropertyOp17
 70
     1
102
RTVSPropertyOp18
 70
     1
102
RTVSPropertyOp19
 70
     1
102
RTVSPropertyOp20
 70
     1
102
RTVSPropertyOp21
 70
     1
102
RTVSPropertyOp22
 70
     1
102
RTVSPropertyOp23
 70
     1
102
RTVSPropertyOp24
 70
     1
102
RTVSPropertyOp25
 70
     1
102
RTVSPropertyOp26
 70
     1
102
RTVSPropertyOp27
 70
     1
102
RTVSPropertyOp28
 70
     1
102
RTVSPropertyOp29
 70
     1
102
RTVSPropertyOp30
 70
     1
102
RTVSPropertyOp31
 70
     1
102
RTVSPropertyOp32
 70
     1
  0
XRECORD
  5
680
102
{ACAD_REACTORS
330
67F
102
}
330
67F
100
AcDbXrecord
280
     1
102
RTVSPropertyOp0
 70
     1
102
RTVSPropertyOp1
 70
     1
102
RTVSPropertyOp2
 70
     1
102
RTVSPropertyOp3
 70
     1
102
RTVSPropertyOp4
 70
     1
102
RTVSPropertyOp5
 70
     1
102
RTVSPropertyOp6
 70
     1
102
RTVSPropertyOp7
 70
     1
102
RTVSPropertyOp8
 70
     1
102
RTVSPropertyOp9
 70
     1
102
RTVSPropertyOp10
 70
     1
102
RTVSPropertyOp11
 70
     1
102
RTVSPropertyOp12
 70
     1
102
RTVSPropertyOp13
 70
     1
102
RTVSPropertyOp14
 70
     1
102
RTVSPropertyOp15
 70
     1
102
RTVSPropertyOp16
 70
     1
102
RTVSPropertyOp17
 70
     1
102
RTVSPropertyOp18
 70
     1
102
RTVSPropertyOp19
 70
     1
102
RTVSPropertyOp20
 70
     1
102
RTVSPropertyOp21
 70
     1
102
RTVSPropertyOp22
 70
     1
102
RTVSPropertyOp23
 70
     1
102
RTVSPropertyOp24
 70
     1
102
RTVSPropertyOp25
 70
     1
102
RTVSPropertyOp26
 70
     1
102
RTVSPropertyOp27
 70
     1
102
RTVSPropertyOp28
 70
     1
102
RTVSPropertyOp29
 70
     1
102
RTVSPropertyOp30
 70
     1
102
RTVSPropertyOp31
 70
     1
102
RTVSPropertyOp32
 70
     1
  0
XRECORD
  5
682
102
{ACAD_REACTORS
330
681
102
}
330
681
100
AcDbXrecord
280
     1
102
RTVSPropertyOp0
 70
     1
102
RTVSPropertyOp1
 70
     1
102
RTVSPropertyOp2
 70
     1
102
RTVSPropertyOp3
 70
     1
102
RTVSPropertyOp4
 70
     1
102
RTVSPropertyOp5
 70
     1
102
RTVSPropertyOp6
 70
     1
102
RTVSPropertyOp7
 70
     1
102
RTVSPropertyOp8
 70
     1
102
RTVSPropertyOp9
 70
     1
102
RTVSPropertyOp10
 70
     1
102
RTVSPropertyOp11
 70
     1
102
RTVSPropertyOp12
 70
     1
102
RTVSPropertyOp13
 70
     1
102
RTVSPropertyOp14
 70
     1
102
RTVSPropertyOp15
 70
     1
102
RTVSPropertyOp16
 70
     1
102
RTVSPropertyOp17
 70
     1
102
RTVSPropertyOp18
 70
     1
102
RTVSPropertyOp19
 70
     1
102
RTVSPropertyOp20
 70
     1
102
RTVSPropertyOp21
 70
     1
102
RTVSPropertyOp22
 70
     1
102
RTVSPropertyOp23
 70
     1
102
RTVSPropertyOp24
 70
     1
102
RTVSPropertyOp25
 70
     1
102
RTVSPropertyOp26
 70
     1
102
RTVSPropertyOp27
 70
     1
102
RTVSPropertyOp28
 70
     1
102
RTVSPropertyOp29
 70
     1
102
RTVSPropertyOp30
 70
     1
102
RTVSPropertyOp31
 70
     1
102
RTVSPropertyOp32
 70
     1
  0
XRECORD
  5
684
102
{ACAD_REACTORS
330
683
102
}
330
683
100
AcDbXrecord
280
     1
102
RTVSPropertyOp0
 70
     1
102
RTVSPropertyOp1
 70
     1
102
RTVSPropertyOp2
 70
     1
102
RTVSPropertyOp3
 70
     1
102
RTVSPropertyOp4
 70
     1
102
RTVSPropertyOp5
 70
     1
102
RTVSPropertyOp6
 70
     1
102
RTVSPropertyOp7
 70
     1
102
RTVSPropertyOp8
 70
     1
102
RTVSPropertyOp9
 70
     1
102
RTVSPropertyOp10
 70
     1
102
RTVSPropertyOp11
 70
     1
102
RTVSPropertyOp12
 70
     1
102
RTVSPropertyOp13
 70
     1
102
RTVSPropertyOp14
 70
     1
102
RTVSPropertyOp15
 70
     1
102
RTVSPropertyOp16
 70
     1
102
RTVSPropertyOp17
 70
     1
102
RTVSPropertyOp18
 70
     1
102
RTVSPropertyOp19
 70
     1
102
RTVSPropertyOp20
 70
     1
102
RTVSPropertyOp21
 70
     1
102
RTVSPropertyOp22
 70
     1
102
RTVSPropertyOp23
 70
     1
102
RTVSPropertyOp24
 70
     1
102
RTVSPropertyOp25
 70
     1
102
RTVSPropertyOp26
 70
     1
102
RTVSPropertyOp27
 70
     1
102
RTVSPropertyOp28
 70
     1
102
RTVSPropertyOp29
 70
     1
102
RTVSPropertyOp30
 70
     1
102
RTVSPropertyOp31
 70
     1
102
RTVSPropertyOp32
 70
     1
  0
XRECORD
  5
686
102
{ACAD_REACTORS
330
685
102
}
330
685
100
AcDbXrecord
280
     1
102
RTVSPropertyOp0
 70
     1
102
RTVSPropertyOp1
 70
     1
102
RTVSPropertyOp2
 70
     1
102
RTVSPropertyOp3
 70
     1
102
RTVSPropertyOp4
 70
     1
102
RTVSPropertyOp5
 70
     1
102
RTVSPropertyOp6
 70
     1
102
RTVSPropertyOp7
 70
     1
102
RTVSPropertyOp8
 70
     1
102
RTVSPropertyOp9
 70
     1
102
RTVSPropertyOp10
 70
     1
102
RTVSPropertyOp11
 70
     1
102
RTVSPropertyOp12
 70
     1
102
RTVSPropertyOp13
 70
     1
102
RTVSPropertyOp14
 70
     1
102
RTVSPropertyOp15
 70
     1
102
RTVSPropertyOp16
 70
     1
102
RTVSPropertyOp17
 70
     1
102
RTVSPropertyOp18
 70
     1
102
RTVSPropertyOp19
 70
     1
102
RTVSPropertyOp20
 70
     1
102
RTVSPropertyOp21
 70
     1
102
RTVSPropertyOp22
 70
     1
102
RTVSPropertyOp23
 70
     1
102
RTVSPropertyOp24
 70
     1
102
RTVSPropertyOp25
 70
     1
102
RTVSPropertyOp26
 70
     1
102
RTVSPropertyOp27
 70
     1
102
RTVSPropertyOp28
 70
     1
102
RTVSPropertyOp29
 70
     1
102
RTVSPropertyOp30
 70
     1
102
RTVSPropertyOp31
 70
     1
102
RTVSPropertyOp32
 70
     1
  0
XRECORD
  5
69A
102
{ACAD_REACTORS
330
699
102
}
330
699
100
AcDbXrecord
280
     1
102
RTVSPropertyOp0
 70
     1
102
RTVSPropertyOp1
 70
     1
102
RTVSPropertyOp2
 70
     1
102
RTVSPropertyOp3
 70
     1
102
RTVSPropertyOp4
 70
     1
102
RTVSPropertyOp5
 70
     1
102
RTVSPropertyOp6
 70
     1
102
RTVSPropertyOp7
 70
     1
102
RTVSPropertyOp8
 70
     1
102
RTVSPropertyOp9
 70
     1
102
RTVSPropertyOp10
 70
     1
102
RTVSPropertyOp11
 70
     1
102
RTVSPropertyOp12
 70
     1
102
RTVSPropertyOp13
 70
     1
102
RTVSPropertyOp14
 70
     1
102
RTVSPropertyOp15
 70
     1
102
RTVSPropertyOp16
 70
     1
102
RTVSPropertyOp17
 70
     1
102
RTVSPropertyOp18
 70
     1
102
RTVSPropertyOp19
 70
     1
102
RTVSPropertyOp20
 70
     1
102
RTVSPropertyOp21
 70
     1
102
RTVSPropertyOp22
 70
     1
102
RTVSPropertyOp23
 70
     1
102
RTVSPropertyOp24
 70
     1
102
RTVSPropertyOp25
 70
     1
102
RTVSPropertyOp26
 70
     1
102
RTVSPropertyOp27
 70
     1
102
RTVSPropertyOp28
 70
     1
102
RTVSPropertyOp29
 70
     1
102
RTVSPropertyOp30
 70
     1
102
RTVSPropertyOp31
 70
     1
102
RTVSPropertyOp32
 70
     1
  0
XRECORD
  5
690
102
{ACAD_REACTORS
330
68F
102
}
330
68F
100
AcDbXrecord
280
     1
102
RTVSPropertyOp0
 70
     1
102
RTVSPropertyOp1
 70
     1
102
RTVSPropertyOp2
 70
     1
102
RTVSPropertyOp3
 70
     1
102
RTVSPropertyOp4
 70
     1
102
RTVSPropertyOp5
 70
     1
102
RTVSPropertyOp6
 70
     1
102
RTVSPropertyOp7
 70
     1
102
RTVSPropertyOp8
 70
     1
102
RTVSPropertyOp9
 70
     1
102
RTVSPropertyOp10
 70
     1
102
RTVSPropertyOp11
 70
     1
102
RTVSPropertyOp12
 70
     1
102
RTVSPropertyOp13
 70
     1
102
RTVSPropertyOp14
 70
     1
102
RTVSPropertyOp15
 70
     1
102
RTVSPropertyOp16
 70
     1
102
RTVSPropertyOp17
 70
     1
102
RTVSPropertyOp18
 70
     1
102
RTVSPropertyOp19
 70
     1
102
RTVSPropertyOp20
 70
     1
102
RTVSPropertyOp21
 70
     1
102
RTVSPropertyOp22
 70
     1
102
RTVSPropertyOp23
 70
     1
102
RTVSPropertyOp24
 70
     1
102
RTVSPropertyOp25
 70
     1
102
RTVSPropertyOp26
 70
     1
102
RTVSPropertyOp27
 70
     1
102
RTVSPropertyOp28
 70
     1
102
RTVSPropertyOp29
 70
     1
102
RTVSPropertyOp30
 70
     1
102
RTVSPropertyOp31
 70
     1
102
RTVSPropertyOp32
 70
     1
  0
XRECORD
  5
698
102
{ACAD_REACTORS
330
697
102
}
330
697
100
AcDbXrecord
280
     1
102
RTVSPropertyOp0
 70
     1
102
RTVSPropertyOp1
 70
     1
102
RTVSPropertyOp2
 70
     1
102
RTVSPropertyOp3
 70
     1
102
RTVSPropertyOp4
 70
     1
102
RTVSPropertyOp5
 70
     1
102
RTVSPropertyOp6
 70
     1
102
RTVSPropertyOp7
 70
     1
102
RTVSPropertyOp8
 70
     1
102
RTVSPropertyOp9
 70
     1
102
RTVSPropertyOp10
 70
     1
102
RTVSPropertyOp11
 70
     1
102
RTVSPropertyOp12
 70
     1
102
RTVSPropertyOp13
 70
     1
102
RTVSPropertyOp14
 70
     1
102
RTVSPropertyOp15
 70
     1
102
RTVSPropertyOp16
 70
     1
102
RTVSPropertyOp17
 70
     1
102
RTVSPropertyOp18
 70
     1
102
RTVSPropertyOp19
 70
     1
102
RTVSPropertyOp20
 70
     1
102
RTVSPropertyOp21
 70
     1
102
RTVSPropertyOp22
 70
     1
102
RTVSPropertyOp23
 70
     1
102
RTVSPropertyOp24
 70
     1
102
RTVSPropertyOp25
 70
     1
102
RTVSPropertyOp26
 70
     1
102
RTVSPropertyOp27
 70
     1
102
RTVSPropertyOp28
 70
     1
102
RTVSPropertyOp29
 70
     1
102
RTVSPropertyOp30
 70
     1
102
RTVSPropertyOp31
 70
     1
102
RTVSPropertyOp32
 70
     1
  0
ENDSEC
  0
EOF
