  0
SECTION
  2
HEADER
  9
$ACADVER
  1
AC1015
  9
$ACADMAINTVER
 70
     6
  9
$DWGCODEPAGE
  3
ANSI_949
  9
$INSBASE
 10
0.0
 20
0.0
 30
0.0
  9
$EXTMIN
 10
1.000000000000000E+20
 20
1.000000000000000E+20
 30
1.000000000000000E+20
  9
$EXTMAX
 10
-1.000000000000000E+20
 20
-1.000000000000000E+20
 30
-1.000000000000000E+20
  9
$LIMMIN
 10
0.0
 20
0.0
  9
$LIMMAX
 10
12.0
 20
9.0
  9
$ORTHOMODE
 70
     0
  9
$REGENMODE
 70
     1
  9
$FILLMODE
 70
     1
  9
$QTEXTMODE
 70
     0
  9
$MIRRTEXT
 70
     1
  9
$LTSCALE
 40
1.0
  9
$ATTMODE
 70
     1
  9
$TEXTSIZE
 40
0.2
  9
$TRACEWID
 40
0.05
  9
$TEXTSTYLE
  7
Standard
  9
$CLAYER
  8
0
  9
$CELTYPE
  6
ByLayer
  9
$CECOLOR
 62
   256
  9
$CELTSCALE
 40
1.0
  9
$DISPSILH
 70
     0
  9
$DIMSCALE
 40
1.0
  9
$DIMASZ
 40
0.18
  9
$DIMEXO
 40
0.0625
  9
$DIMDLI
 40
0.38
  9
$DIMRND
 40
0.0
  9
$DIMDLE
 40
0.0
  9
$DIMEXE
 40
0.18
  9
$DIMTP
 40
0.0
  9
$DIMTM
 40
0.0
  9
$DIMTXT
 40
0.18
  9
$DIMCEN
 40
0.09
  9
$DIMTSZ
 40
0.0
  9
$DIMTOL
 70
     0
  9
$DIMLIM
 70
     0
  9
$DIMTIH
 70
     1
  9
$DIMTOH
 70
     1
  9
$DIMSE1
 70
     0
  9
$DIMSE2
 70
     0
  9
$DIMTAD
 70
     0
  9
$DIMZIN
 70
     0
  9
$DIMBLK
  1

  9
$DIMASO
 70
     1
  9
$DIMSHO
 70
     1
  9
$DIMPOST
  1

  9
$DIMAPOST
  1

  9
$DIMALT
 70
     0
  9
$DIMALTD
 70
     2
  9
$DIMALTF
 40
25.4
  9
$DIMLFAC
 40
1.0
  9
$DIMTOFL
 70
     0
  9
$DIMTVP
 40
0.0
  9
$DIMTIX
 70
     0
  9
$DIMSOXD
 70
     0
  9
$DIMSAH
 70
     0
  9
$DIMBLK1
  1

  9
$DIMBLK2
  1

  9
$DIMSTYLE
  2
Standard
  9
$DIMCLRD
 70
     0
  9
$DIMCLRE
 70
     0
  9
$DIMCLRT
 70
     0
  9
$DIMTFAC
 40
1.0
  9
$DIMGAP
 40
0.09
  9
$DIMJUST
 70
     0
  9
$DIMSD1
 70
     0
  9
$DIMSD2
 70
     0
  9
$DIMTOLJ
 70
     1
  9
$DIMTZIN
 70
     0
  9
$DIMALTZ
 70
     0
  9
$DIMALTTZ
 70
     0
  9
$DIMUPT
 70
     0
  9
$DIMDEC
 70
     4
  9
$DIMTDEC
 70
     4
  9
$DIMALTU
 70
     2
  9
$DIMALTTD
 70
     2
  9
$DIMTXSTY
  7
Standard
  9
$DIMAUNIT
 70
     0
  9
$DIMADEC
 70
     0
  9
$DIMALTRND
 40
0.0
  9
$DIMAZIN
 70
     0
  9
$DIMDSEP
 70
    46
  9
$DIMATFIT
 70
     3
  9
$DIMFRAC
 70
     0
  9
$DIMLDRBLK
  1

  9
$DIMLUNIT
 70
     2
  9
$DIMLWD
 70
    -2
  9
$DIMLWE
 70
    -2
  9
$DIMTMOVE
 70
     0
  9
$LUNITS
 70
     2
  9
$LUPREC
 70
     4
  9
$SKETCHINC
 40
0.1
  9
$FILLETRAD
 40
0.5
  9
$AUNITS
 70
     0
  9
$AUPREC
 70
     0
  9
$MENU
  1
.
  9
$ELEVATION
 40
0.0
  9
$PELEVATION
 40
0.0
  9
$THICKNESS
 40
0.0
  9
$LIMCHECK
 70
     0
  9
$CHAMFERA
 40
0.5
  9
$CHAMFERB
 40
0.5
  9
$CHAMFERC
 40
1.0
  9
$CHAMFERD
 40
0.0
  9
$SKPOLY
 70
     0
  9
$TDCREATE
 40
2456522.588384144
  9
$TDUCREATE
 40
2456522.088384144
  9
$TDUPDATE
 40
2456522.588413935
  9
$TDUUPDATE
 40
2456522.088413935
  9
$TDINDWG
 40
0.0000000116
  9
$TDUSRTIMER
 40
0.0000000116
  9
$USRTIMER
 70
     1
  9
$ANGBASE
 50
0.0
  9
$ANGDIR
 70
     0
  9
$PDMODE
 70
     0
  9
$PDSIZE
 40
0.0
  9
$PLINEWID
 40
0.0
  9
$SPLFRAME
 70
     0
  9
$SPLINETYPE
 70
     6
  9
$SPLINESEGS
 70
     8
  9
$HANDSEED
  5
68D
  9
$SURFTAB1
 70
     6
  9
$SURFTAB2
 70
     6
  9
$SURFTYPE
 70
     6
  9
$SURFU
 70
     6
  9
$SURFV
 70
     6
  9
$UCSBASE
  2

  9
$UCSNAME
  2

  9
$UCSORG
 10
0.0
 20
0.0
 30
0.0
  9
$UCSXDIR
 10
1.0
 20
0.0
 30
0.0
  9
$UCSYDIR
 10
0.0
 20
1.0
 30
0.0
  9
$UCSORTHOREF
  2

  9
$UCSORTHOVIEW
 70
     0
  9
$UCSORGTOP
 10
0.0
 20
0.0
 30
0.0
  9
$UCSORGBOTTOM
 10
0.0
 20
0.0
 30
0.0
  9
$UCSORGLEFT
 10
0.0
 20
0.0
 30
0.0
  9
$UCSORGRIGHT
 10
0.0
 20
0.0
 30
0.0
  9
$UCSORGFRONT
 10
0.0
 20
0.0
 30
0.0
  9
$UCSORGBACK
 10
0.0
 20
0.0
 30
0.0
  9
$PUCSBASE
  2

  9
$PUCSNAME
  2

  9
$PUCSORG
 10
0.0
 20
0.0
 30
0.0
  9
$PUCSXDIR
 10
1.0
 20
0.0
 30
0.0
  9
$PUCSYDIR
 10
0.0
 20
1.0
 30
0.0
  9
$PUCSORTHOREF
  2

  9
$PUCSORTHOVIEW
 70
     0
  9
$PUCSORGTOP
 10
0.0
 20
0.0
 30
0.0
  9
$PUCSORGBOTTOM
 10
0.0
 20
0.0
 30
0.0
  9
$PUCSORGLEFT
 10
0.0
 20
0.0
 30
0.0
  9
$PUCSORGRIGHT
 10
0.0
 20
0.0
 30
0.0
  9
$PUCSORGFRONT
 10
0.0
 20
0.0
 30
0.0
  9
$PUCSORGBACK
 10
0.0
 20
0.0
 30
0.0
  9
$USERI1
 70
     0
  9
$USERI2
 70
     0
  9
$USERI3
 70
     0
  9
$USERI4
 70
     0
  9
$USERI5
 70
     0
  9
$USERR1
 40
0.0
  9
$USERR2
 40
0.0
  9
$USERR3
 40
0.0
  9
$USERR4
 40
0.0
  9
$USERR5
 40
0.0
  9
$WORLDVIEW
 70
     1
  9
$SHADEDGE
 70
     3
  9
$SHADEDIF
 70
    70
  9
$TILEMODE
 70
     1
  9
$MAXACTVP
 70
    64
  9
$PINSBASE
 10
0.0
 20
0.0
 30
0.0
  9
$PLIMCHECK
 70
     0
  9
$PEXTMIN
 10
1.000000000000000E+20
 20
1.000000000000000E+20
 30
1.000000000000000E+20
  9
$PEXTMAX
 10
-1.000000000000000E+20
 20
-1.000000000000000E+20
 30
-1.000000000000000E+20
  9
$PLIMMIN
 10
0.0
 20
0.0
  9
$PLIMMAX
 10
12.0
 20
9.0
  9
$UNITMODE
 70
     0
  9
$VISRETAIN
 70
     1
  9
$PLINEGEN
 70
     0
  9
$PSLTSCALE
 70
     1
  9
$TREEDEPTH
 70
  3020
  9
$CMLSTYLE
  2
Standard
  9
$CMLJUST
 70
     0
  9
$CMLSCALE
 40
1.0
  9
$PROXYGRAPHICS
 70
     1
  9
$MEASUREMENT
 70
     0
  9
$CELWEIGHT
370
    -1
  9
$ENDCAPS
280
     0
  9
$JOINSTYLE
280
     0
  9
$LWDISPLAY
290
     1
  9
$INSUNITS
 70
     4
  9
$HYPERLINKBASE
  1

  9
$STYLESHEET
  1

  9
$XEDIT
290
     1
  9
$CEPSNTYPE
380
     0
  9
$PSTYLEMODE
290
     1
  9
$FINGERPRINTGUID
  2
{3D4BE8CE-30D8-4A54-9937-FB518269F5B8}
  9
$VERSIONGUID
  2
{FAEB1C32-E019-11D5-929B-00C0DF256EC4}
  9
$EXTNAMES
290
     1
  9
$PSVPSCALE
 40
0.0
  9
$OLESTARTUP
290
     0
  0
ENDSEC
  0
SECTION
  2
CLASSES
  0
CLASS
  1
ACDBDICTIONARYWDFLT
  2
AcDbDictionaryWithDefault
  3
ObjectDBX Classes
 90
        0
280
     0
281
     0
  0
CLASS
  1
VISUALSTYLE
  2
AcDbVisualStyle
  3
ObjectDBX Classes
 90
     4095
280
     0
281
     0
  0
CLASS
  1
MATERIAL
  2
AcDbMaterial
  3
ObjectDBX Classes
 90
     1153
280
     0
281
     0
  0
CLASS
  1
SPATIAL_FILTER
  2
AcDbSpatialFilter
  3
ObjectDBX Classes
 90
        0
280
     0
281
     0
  0
CLASS
  1
SCALE
  2
AcDbScale
  3
ObjectDBX Classes
 90
     1153
280
     0
281
     0
  0
CLASS
  1
DICTIONARYVAR
  2
AcDbDictionaryVar
  3
ObjectDBX Classes
 90
        0
280
     0
281
     0
  0
CLASS
  1
ACDBPLACEHOLDER
  2
AcDbPlaceHolder
  3
ObjectDBX Classes
 90
        0
280
     0
281
     0
  0
CLASS
  1
LAYOUT
  2
AcDbLayout
  3
ObjectDBX Classes
 90
        0
280
     0
281
     0
  0
ENDSEC
  0
SECTION
  2
TABLES
  0
TABLE
  2
VPORT
  5
8
330
0
100
AcDbSymbolTable
 70
     1
  0
VPORT
  5
29
330
8
100
AcDbSymbolTableRecord
100
AcDbViewportTableRecord
  2
*Active
 70
     0
 10
0.0
 20
0.0
 11
1.0
 21
1.0
 12
148.6203422501967
 22
97.27060520811655
 13
0.0
 23
0.0
 14
0.5
 24
0.5
 15
0.5
 25
0.5
 16
0.0
 26
0.0
 36
1.0
 17
0.0
 27
0.0
 37
0.0
 40
194.2971225111692
 41
1.486926277925945
 42
50.0
 43
0.0
 44
0.0
 50
0.0
 51
0.0
 71
     0
 72
   100
 73
     1
 74
     3
 75
     0
 76
     0
 77
     0
 78
     0
281
     0
 65
     1
110
0.0
120
0.0
130
0.0
111
1.0
121
0.0
131
0.0
112
0.0
122
1.0
132
0.0
 79
     0
146
0.0
  0
ENDTAB
  0
TABLE
  2
LTYPE
  5
5
330
0
100
AcDbSymbolTable
 70
     2
  0
LTYPE
  5
14
330
5
100
AcDbSymbolTableRecord
100
AcDbLinetypeTableRecord
  2
ByBlock
 70
     0
  3

 72
    65
 73
     0
 40
0.0
  0
LTYPE
  5
15
330
5
100
AcDbSymbolTableRecord
100
AcDbLinetypeTableRecord
  2
ByLayer
 70
     0
  3

 72
    65
 73
     0
 40
0.0
  0
LTYPE
  5
16
330
5
100
AcDbSymbolTableRecord
100
AcDbLinetypeTableRecord
  2
Continuous
 70
     0
  3
Solid line
 72
    65
 73
     0
 40
0.0
  0
LTYPE
  5
131
330
5
100
AcDbSymbolTableRecord
100
AcDbLinetypeTableRecord
  2
Dashed
 70
     0
  3
- - - - - 
 72
    65
 73
     2
 40
5.644444465637207
 49
2.822222232818604
 74
     0
 49
-2.822222232818603
 74
     0
  0
ENDTAB
  0
TABLE
  2
LAYER
  5
2
330
0
100
AcDbSymbolTable
 70
     3
  0
LAYER
  5
10
330
2
100
AcDbSymbolTableRecord
100
AcDbLayerTableRecord
  2
0
 70
     0
 62
     7
  6
Continuous
370
    -3
390
F
  0
LAYER
  5
40
330
2
100
AcDbSymbolTableRecord
100
AcDbLayerTableRecord
  2
Doc_ Finishes
 70
     0
 62
     7
  6
Continuous
370
    -3
390
F
  0
LAYER
  5
DB
330
2
100
AcDbSymbolTableRecord
100
AcDbLayerTableRecord
  2
Doc_ Floor
 70
     0
 62
     7
  6
Continuous
370
    -3
390
F
  0
ENDTAB
  0
TABLE
  2
STYLE
  5
3
330
0
100
AcDbSymbolTable
 70
     4
  0
STYLE
  5
11
330
3
100
AcDbSymbolTableRecord
100
AcDbTextStyleTableRecord
  2
Standard
 70
     0
 40
0.0
 41
1.0
 50
0.0
 71
     0
 42
0.2
  3
txt
  4

  0
STYLE
  5
D6
330
3
100
AcDbSymbolTableRecord
100
AcDbTextStyleTableRecord
  2
GENERATED_STYLE_1
 70
     0
 40
0.0
 41
1.0
 50
0.0
 71
     0
 42
0.2
  3

  4

1001
ACAD
1000
Century Gothic
1071
       34
  0
STYLE
  5
D9
330
3
100
AcDbSymbolTableRecord
100
AcDbTextStyleTableRecord
  2
GENERATED_STYLE_2
 70
     0
 40
0.0
 41
1.0
 50
0.0
 71
     0
 42
0.2
  3

  4

1001
ACAD
1000
DilleniaUPC
1071
 33554450
  0
STYLE
  5
167
330
3
100
AcDbSymbolTableRecord
100
AcDbTextStyleTableRecord
  2
GENERATED_STYLE_3
 70
     0
 40
0.0
 41
1.0
 50
0.0
 71
     0
 42
0.2
  3

  4

1001
ACAD
1000
Arial
1071
       34
  0
ENDTAB
  0
TABLE
  2
VIEW
  5
6
330
0
100
AcDbSymbolTable
 70
     0
  0
ENDTAB
  0
TABLE
  2
UCS
  5
7
330
0
100
AcDbSymbolTable
 70
     0
  0
ENDTAB
  0
TABLE
  2
APPID
  5
9
330
0
100
AcDbSymbolTable
 70
     1
  0
APPID
  5
12
330
9
100
AcDbSymbolTableRecord
100
AcDbRegAppTableRecord
  2
ACAD
 70
     0
  0
ENDTAB
  0
TABLE
  2
DIMSTYLE
  5
A
330
0
100
AcDbSymbolTable
 70
     1
100
AcDbDimStyleTable
  0
DIMSTYLE
105
27
330
A
100
AcDbSymbolTableRecord
100
AcDbDimStyleTableRecord
  2
Standard
 70
     0
178
     0
340
11
  0
ENDTAB
  0
TABLE
  2
BLOCK_RECORD
  5
1
330
0
100
AcDbSymbolTable
 70
     3
  0
BLOCK_RECORD
  5
1F
330
1
100
AcDbSymbolTableRecord
100
AcDbBlockTableRecord
  2
*Model_Space
340
22
  0
BLOCK_RECORD
  5
1B
330
1
100
AcDbSymbolTableRecord
100
AcDbBlockTableRecord
  2
*Paper_Space
340
1E
  0
BLOCK_RECORD
  5
E3
330
1
100
AcDbSymbolTableRecord
100
AcDbBlockTableRecord
  2
Drawing_1_2
340
0
102
{BLKREFS
331
633
102
}
  0
BLOCK_RECORD
  5
637
330
1
100
AcDbSymbolTableRecord
100
AcDbBlockTableRecord
  2
R-TRS9-08 APRON DETAIL - HEAD_STORY_MARKER
340
0
  0
ENDTAB
  0
ENDSEC
  0
SECTION
  2
BLOCKS
  0
BLOCK
  5
20
330
1F
100
AcDbEntity
  8
0
100
AcDbBlockBegin
  2
*Model_Space
 70
     0
 10
0.0
 20
0.0
 30
0.0
  3
*Model_Space
  1

  0
ENDBLK
  5
21
330
1F
100
AcDbEntity
  8
0
100
AcDbBlockEnd
  0
BLOCK
  5
1C
330
1B
100
AcDbEntity
 67
     1
  8
0
100
AcDbBlockBegin
  2
*Paper_Space
 70
     0
 10
0.0
 20
0.0
 30
0.0
  3
*Paper_Space
  1

  0
ENDBLK
  5
1D
330
1B
100
AcDbEntity
 67
     1
  8
0
100
AcDbBlockEnd
  0
BLOCK
  5
E4
330
E3
100
AcDbEntity
  8
0
100
AcDbBlockBegin
  2
Drawing_1_2
 70
     0
 10
28.8753134188689
 20
84.42632391951834
 30
0.0
  3
Drawing_1_2
  1

  0
HATCH
  5
E6
330
E3
100
AcDbEntity
  8
0
  6
Continuous
 62
   255
370
     0
100
AcDbHatch
 10
0.0
 20
0.0
 30
0.0
210
0.0
220
0.0
230
1.0
  2
SOLID
 70
     1
 71
     0
 91
        1
 92
        3
 72
     0
 73
     1
 93
        4
 10
164.0614679563564
 20
192.5142914063299
 10
164.0614679563564
 20
145.9934618480937
 10
168.0614672234631
 20
145.9934618480937
 10
168.0614672234631
 20
192.5142914063299
 97
        0
 75
     0
 76
     1
 98
        0
  0
LINE
  5
E7
330
E3
100
AcDbEntity
  8
0
  6
Continuous
100
AcDbLine
 10
164.0614679563564
 20
192.5142914063299
 30
0.0
 11
164.0614679563564
 21
145.9934618480937
 31
0.0
  0
LINE
  5
E8
330
E3
100
AcDbEntity
  8
0
  6
Continuous
100
AcDbLine
 10
164.0614679563564
 20
145.9934618480937
 30
0.0
 11
168.0614672234631
 21
145.9934618480937
 31
0.0
  0
LINE
  5
E9
330
E3
100
AcDbEntity
  8
0
  6
Continuous
100
AcDbLine
 10
168.0614672234631
 20
145.9934618480937
 30
0.0
 11
168.0614672234631
 21
192.5142914063299
 31
0.0
  0
HATCH
  5
EA
330
E3
100
AcDbEntity
  8
0
  6
Continuous
 62
   255
370
     0
100
AcDbHatch
 10
0.0
 20
0.0
 30
0.0
210
0.0
220
0.0
230
1.0
  2
SOLID
 70
     1
 71
     0
 91
        1
 92
        3
 72
     0
 73
     1
 93
        4
 10
164.0614669763566
 20
143.9934614727524
 10
168.0614669763566
 20
143.9934614727524
 10
168.0614669763566
 20
152.9934614727524
 10
164.0614669763566
 20
152.9934614727524
 97
        0
 75
     0
 76
     1
 98
        0
  0
LINE
  5
EB
330
E3
100
AcDbEntity
  8
0
  6
Continuous
100
AcDbLine
 10
164.0614679563564
 20
143.993460519871
 30
0.0
 11
168.0614672234631
 21
152.9934631075344
 31
0.0
  0
LINE
  5
EC
330
E3
100
AcDbEntity
  8
0
  6
Continuous
100
AcDbLine
 10
164.0614679563564
 20
143.993460519871
 30
0.0
 11
168.0614672234631
 21
143.993460519871
 31
0.0
  0
LINE
  5
ED
330
E3
100
AcDbEntity
  8
0
  6
Continuous
100
AcDbLine
 10
168.0614672234631
 20
143.993460519871
 30
0.0
 11
168.0614672234631
 21
152.9934631075344
 31
0.0
  0
LINE
  5
EE
330
E3
100
AcDbEntity
  8
0
  6
Continuous
100
AcDbLine
 10
168.0614672234631
 20
152.9934631075344
 30
0.0
 11
164.0614679563564
 21
152.9934631075344
 31
0.0
  0
LINE
  5
EF
330
E3
100
AcDbEntity
  8
0
  6
Continuous
100
AcDbLine
 10
164.0614679563564
 20
152.9934631075344
 30
0.0
 11
164.0614679563564
 21
143.993460519871
 31
0.0
  0
HATCH
  5
F0
330
E3
100
AcDbEntity
  8
0
  6
Continuous
 62
   255
370
     0
100
AcDbHatch
 10
0.0
 20
0.0
 30
0.0
210
0.0
220
0.0
230
1.0
  2
SOLID
 70
     1
 71
     0
 91
        1
 92
        3
 72
     0
 73
     1
 93
        4
 10
172.1431044428645
 20
192.5142948764787
 10
172.1431044428645
 20
28.70874527642625
 10
190.1431026398223
 20
28.70874527642625
 10
190.1431026398223
 20
192.5142948764787
 97
        0
 75
     0
 76
     1
 98
        0
  0
LINE
  5
F1
330
E3
100
AcDbEntity
  8
0
  6
Continuous
100
AcDbLine
 10
190.1431026398223
 20
28.70874527642625
 30
0.0
 11
190.1431026398223
 21
192.5142948764787
 31
0.0
  0
LINE
  5
F2
330
E3
100
AcDbEntity
  8
0
  6
Continuous
100
AcDbLine
 10
172.1431044428645
 20
192.5142948764787
 30
0.0
 11
172.1431044428645
 21
28.70874527642625
 31
0.0
  0
HATCH
  5
F3
330
E3
100
AcDbEntity
  8
0
  6
Continuous
 62
   255
370
     0
100
AcDbHatch
 10
0.0
 20
0.0
 30
0.0
210
0.0
220
0.0
230
1.0
  2
SOLID
 70
     1
 71
     0
 91
        1
 92
        3
 72
     0
 73
     1
 93
        4
 10
190.1431035861495
 20
51.48412375138037
 10
190.1431035861495
 20
60.48412375138036
 10
172.1431035861495
 20
60.48412375138036
 10
172.1431035861495
 20
51.48412375138037
 97
        0
 75
     0
 76
     1
 98
        0
  0
LINE
  5
F4
330
E3
100
AcDbEntity
  8
0
  6
Continuous
100
AcDbLine
 10
190.1431038889798
 20
51.48412416416243
 30
0.0
 11
190.1431038889798
 21
60.48412336248715
 31
0.0
  0
LINE
  5
F5
330
E3
100
AcDbEntity
  8
0
  6
Continuous
100
AcDbLine
 10
190.1431038889798
 20
60.48412336248715
 30
0.0
 11
172.1431021029916
 21
60.48412336248715
 31
0.0
  0
LINE
  5
F6
330
E3
100
AcDbEntity
  8
0
  6
Continuous
100
AcDbLine
 10
172.1431021029916
 20
60.48412336248715
 30
0.0
 11
172.1431021029916
 21
51.48412416416243
 31
0.0
  0
LINE
  5
F7
330
E3
100
AcDbEntity
  8
0
  6
Continuous
100
AcDbLine
 10
172.1431021029916
 20
51.48412416416243
 30
0.0
 11
190.1431038889798
 21
51.48412416416243
 31
0.0
  0
LINE
  5
F8
330
E3
100
AcDbEntity
  8
0
  6
Continuous
100
AcDbLine
 10
172.1431021029916
 20
51.48412416416243
 30
0.0
 11
190.1431038889798
 21
60.48412336248715
 31
0.0
  0
HATCH
  5
F9
330
E3
100
AcDbEntity
  8
0
  6
Continuous
 62
   255
370
     0
100
AcDbHatch
 10
0.0
 20
0.0
 30
0.0
210
0.0
220
0.0
230
1.0
  2
SOLID
 70
     1
 71
     0
 91
        1
 92
        3
 72
     0
 73
     1
 93
        4
 10
161.2614674525801
 20
192.5142914063299
 10
161.2614674525801
 20
142.9934598557597
 10
163.0614672922451
 20
142.9934598557597
 10
163.0614672922451
 20
192.5142914063299
 97
        0
 75
     0
 76
     1
 98
        0
  0
HATCH
  5
FA
330
E3
100
AcDbEntity
  8
0
  6
Continuous
100
AcDbHatch
 10
0.0
 20
0.0
 30
0.0
210
0.0
220
0.0
230
1.0
  2
Plaster_0002
 70
     0
 71
     0
 91
        1
 92
        3
 72
     0
 73
     1
 93
        4
 10
161.2614674525801
 20
192.5142914063299
 10
161.2614674525801
 20
142.9934598557597
 10
163.0614672922451
 20
142.9934598557597
 10
163.0614672922451
 20
192.5142914063299
 97
        0
 75
     0
 76
     2
 52
0.0
 41
1.0
 77
     0
 78
     2
 53
0.0
 43
28.8753134188689
 44
84.42632391951834
 45
0.0
 46
1.732050807568877
 79
     2
 49
0.0
 49
-1.0
 53
0.0
 43
29.3753134188689
 44
85.29234930775915
 45
0.0
 46
1.732050807568877
 79
     2
 49
0.0
 49
-1.0
 98
        0
  0
LINE
  5
FB
330
E3
100
AcDbEntity
  8
0
  6
Continuous
100
AcDbLine
 10
161.2614674525801
 20
192.5142914063299
 30
0.0
 11
161.2614674525801
 21
142.9934598557597
 31
0.0
  0
LINE
  5
FC
330
E3
100
AcDbEntity
  8
0
  6
Continuous
100
AcDbLine
 10
161.2614674525801
 20
142.9934598557597
 30
0.0
 11
163.0614672922451
 21
142.9934598557597
 31
0.0
  0
LINE
  5
FD
330
E3
100
AcDbEntity
  8
0
  6
Continuous
100
AcDbLine
 10
163.0614672922451
 20
142.9934598557597
 30
0.0
 11
163.0614672922451
 21
192.5142914063299
 31
0.0
  0
HATCH
  5
FE
330
E3
100
AcDbEntity
  8
0
  6
Continuous
 62
   255
370
     0
100
AcDbHatch
 10
0.0
 20
0.0
 30
0.0
210
0.0
220
0.0
230
1.0
  2
SOLID
 70
     1
 71
     0
 91
        1
 92
        3
 72
     0
 73
     1
 93
        4
 10
181.1431035861495
 20
157.1934614727524
 10
172.1431035861495
 20
157.1934614727524
 10
172.1431035861495
 20
139.1934614727524
 10
181.1431035861495
 20
139.1934614727524
 97
        0
 75
     0
 76
     1
 98
        0
  0
LINE
  5
FF
330
E3
100
AcDbEntity
  8
0
  6
Continuous
100
AcDbLine
 10
181.1431046906551
 20
157.1934604738602
 30
0.0
 11
172.1431021029916
 21
139.1934620772107
 31
0.0
  0
LINE
  5
100
330
E3
100
AcDbEntity
  8
0
  6
Continuous
100
AcDbLine
 10
181.1431046906551
 20
157.1934604738602
 30
0.0
 11
172.1431021029916
 21
157.1934604738602
 31
0.0
  0
LINE
  5
101
330
E3
100
AcDbEntity
  8
0
  6
Continuous
100
AcDbLine
 10
172.1431021029916
 20
157.1934604738602
 30
0.0
 11
172.1431021029916
 21
139.1934620772107
 31
0.0
  0
LINE
  5
102
330
E3
100
AcDbEntity
  8
0
  6
Continuous
100
AcDbLine
 10
172.1431021029916
 20
139.1934620772107
 30
0.0
 11
181.1431046906551
 21
139.1934620772107
 31
0.0
  0
LINE
  5
103
330
E3
100
AcDbEntity
  8
0
  6
Continuous
100
AcDbLine
 10
181.1431046906551
 20
139.1934620772107
 30
0.0
 11
181.1431046906551
 21
157.1934604738602
 31
0.0
  0
HATCH
  5
104
330
E3
100
AcDbEntity
  8
0
  6
Continuous
 62
   255
370
     0
100
AcDbHatch
 10
0.0
 20
0.0
 30
0.0
210
0.0
220
0.0
230
1.0
  2
SOLID
 70
     1
 71
     0
 91
        1
 92
        3
 72
     0
 73
     1
 93
        4
 10
181.1431035861495
 20
136.5511166022701
 10
172.1431035861495
 20
136.5511166022701
 10
172.1431035861495
 20
118.5511166022701
 10
181.1431035861495
 20
118.5511166022701
 97
        0
 75
     0
 76
     1
 98
        0
  0
LINE
  5
105
330
E3
100
AcDbEntity
  8
0
  6
Continuous
100
AcDbLine
 10
181.1431046906551
 20
136.5511166640183
 30
0.0
 11
172.1431021029916
 21
118.5511182673689
 31
0.0
  0
LINE
  5
106
330
E3
100
AcDbEntity
  8
0
  6
Continuous
100
AcDbLine
 10
181.1431046906551
 20
136.5511166640183
 30
0.0
 11
172.1431021029916
 21
136.5511166640183
 31
0.0
  0
LINE
  5
107
330
E3
100
AcDbEntity
  8
0
  6
Continuous
100
AcDbLine
 10
172.1431021029916
 20
136.5511166640183
 30
0.0
 11
172.1431021029916
 21
118.5511182673689
 31
0.0
  0
LINE
  5
108
330
E3
100
AcDbEntity
  8
0
  6
Continuous
100
AcDbLine
 10
172.1431021029916
 20
118.5511182673689
 30
0.0
 11
181.1431046906551
 21
118.5511182673689
 31
0.0
  0
LINE
  5
109
330
E3
100
AcDbEntity
  8
0
  6
Continuous
100
AcDbLine
 10
181.1431046906551
 20
118.5511182673689
 30
0.0
 11
181.1431046906551
 21
136.5511166640183
 31
0.0
  0
HATCH
  5
10A
330
E3
100
AcDbEntity
  8
0
  6
Continuous
 62
   255
370
     0
100
AcDbHatch
 10
0.0
 20
0.0
 30
0.0
210
0.0
220
0.0
230
1.0
  2
SOLID
 70
     1
 71
     0
 91
        1
 92
        3
 72
     0
 73
     1
 93
        4
 10
172.1431030874204
 20
102.5389254599213
 10
35.31938941328067
 20
78.41321135362739
 10
35.31938941328067
 20
28.7087466410241
 10
172.1431030874204
 20
28.7087466410241
 97
        0
 75
     0
 76
     1
 98
        0
  0
HATCH
  5
10B
330
E3
100
AcDbEntity
  8
0
  6
Continuous
 62
   255
370
     0
100
AcDbHatch
 10
0.0
 20
0.0
 30
0.0
210
0.0
220
0.0
230
1.0
  2
SOLID
 70
     1
 71
     0
 91
        1
 92
        3
 72
     0
 73
     1
 93
        4
 10
172.1431050269107
 20
120.8166022915522
 10
35.31939153784569
 20
96.69088921764823
 10
35.31939153784569
 20
78.4132126871615
 10
172.1431050269107
 20
102.5389257610655
 97
        0
 75
     0
 76
     1
 98
        0
  0
LINE
  5
10C
330
E3
100
AcDbEntity
  8
0
  6
Continuous
100
AcDbLine
 10
35.31938941328067
 20
78.41321135362739
 30
0.0
 11
172.1431030874204
 21
102.5389254599213
 31
0.0
  0
LINE
  5
10D
330
E3
100
AcDbEntity
  8
0
  6
Continuous
100
AcDbLine
 10
172.1431021029916
 20
102.5389229688871
 30
0.0
 11
172.1431021029916
 21
120.8166031082293
 31
0.0
  0
LINE
  5
10E
330
E3
100
AcDbEntity
  8
0
  6
Continuous
100
AcDbLine
 10
172.1431050269107
 20
120.816604775009
 30
0.0
 11
35.31939153784569
 21
96.69089170110493
 31
0.0
  0
HATCH
  5
10F
330
E3
100
AcDbEntity
  8
0
  6
Continuous
 62
   255
370
     0
100
AcDbHatch
 10
0.0
 20
0.0
 30
0.0
210
0.0
220
0.0
230
1.0
  2
SOLID
 70
     1
 71
     0
 91
        1
 92
        3
 72
     0
 73
     1
 93
        4
 10
162.1431022405556
 20
100.7756562056509
 10
162.1431022405556
 20
28.70874690469444
 10
172.1431021029916
 20
28.70874690469444
 10
172.1431021029916
 20
102.5389257816018
 97
        0
 75
     0
 76
     1
 98
        0
  0
LINE
  5
110
330
E3
100
AcDbEntity
  8
0
  6
Continuous
100
AcDbLine
 10
172.1431021029916
 20
28.70874690469444
 30
0.0
 11
172.1431021029916
 21
102.5389257816018
 31
0.0
  0
LINE
  5
111
330
E3
100
AcDbEntity
  8
0
  6
Continuous
100
AcDbLine
 10
172.1431021029916
 20
102.5389229688871
 30
0.0
 11
162.1431022405556
 21
100.7756533929362
 31
0.0
  0
LINE
  5
112
330
E3
100
AcDbEntity
  8
0
  6
Continuous
100
AcDbLine
 10
162.1431022405556
 20
100.7756562056509
 30
0.0
 11
162.1431022405556
 21
28.70874690469444
 31
0.0
  0
HATCH
  5
113
330
E3
100
AcDbEntity
  8
0
  6
Continuous
 62
   255
370
     0
100
AcDbHatch
 10
0.0
 20
0.0
 30
0.0
210
0.0
220
0.0
230
1.0
  2
SOLID
 70
     1
 71
     0
 91
        1
 92
        3
 72
     0
 73
     1
 93
        4
 10
139.9280922574479
 20
28.70874831981048
 10
35.31939329414725
 20
69.2247062776317
 10
35.31939329414725
 20
58.50086102426148
 10
112.24005036449
 20
28.70874831981048
 97
        0
 75
     0
 76
     1
 98
        0
  0
LINE
  5
114
330
E3
100
AcDbEntity
  8
0
  6
Continuous
100
AcDbLine
 10
139.9280952367266
 20
28.70874659496576
 30
0.0
 11
35.31939279626983
 21
69.22470760201318
 31
0.0
  0
LINE
  5
115
330
E3
100
AcDbEntity
  8
0
  6
Continuous
100
AcDbLine
 10
35.31939329414725
 20
58.50086102426148
 30
0.0
 11
112.24005036449
 21
28.70874831981048
 31
0.0
  0
HATCH
  5
116
330
E3
100
AcDbEntity
  8
0
  6
Continuous
 62
   253
370
    25
100
AcDbHatch
 10
0.0
 20
0.0
 30
0.0
210
0.0
220
0.0
230
1.0
  2
SOLID
 70
     1
 71
     0
 91
        1
 92
        3
 72
     0
 73
     1
 93
        4
 10
170.1888661653691
 20
131.7112212649197
 10
168.8691400151005
 20
139.1957601878124
 10
63.85959792838742
 20
120.6797446860838
 10
65.1793240786561
 20
113.195205763191
 97
        0
 75
     0
 76
     1
 98
        0
  0
LINE
  5
117
330
E3
100
AcDbEntity
  8
0
  6
Continuous
100
AcDbLine
 10
168.8691398618799
 20
139.1957600488632
 30
0.0
 11
170.1888670155118
 21
131.7112223152791
 31
0.0
  0
LINE
  5
118
330
E3
100
AcDbEntity
  8
0
  6
Continuous
100
AcDbLine
 10
63.85959692846427
 20
120.6797450000344
 30
0.0
 11
168.8691398618799
 21
139.1957600488632
 31
0.0
  0
LINE
  5
119
330
E3
100
AcDbEntity
  8
0
  6
Continuous
100
AcDbLine
 10
65.17932408209619
 20
113.1952072664503
 30
0.0
 11
63.85959692846427
 21
120.6797450000344
 31
0.0
  0
LINE
  5
11A
330
E3
100
AcDbEntity
  8
0
  6
Continuous
100
AcDbLine
 10
170.1888670155118
 20
131.7112223152791
 30
0.0
 11
65.17932408209619
 21
113.1952072664503
 31
0.0
  0
HATCH
  5
11B
330
E3
100
AcDbEntity
  8
0
  6
Continuous
 62
   255
370
     0
100
AcDbHatch
 10
0.0
 20
0.0
 30
0.0
210
0.0
220
0.0
230
1.0
  2
SOLID
 70
     1
 71
     0
 91
        1
 92
        3
 72
     0
 73
     1
 93
        4
 10
160.2022524963973
 20
127.8499487897371
 10
146.4149439542264
 20
125.4188743024001
 10
147.9777775532288
 20
116.5556045252902
 10
161.7650860953997
 20
118.9866790126273
 97
        0
 75
     0
 76
     1
 98
        0
  0
LINE
  5
11C
330
E3
100
AcDbEntity
  8
0
  6
Continuous
100
AcDbLine
 10
161.7650859037199
 20
118.9866787970011
 30
0.0
 11
146.4149436948675
 21
125.4188743086133
 31
0.0
  0
LINE
  5
11D
330
E3
100
AcDbEntity
  8
0
  6
Continuous
100
AcDbLine
 10
160.202251651683
 20
127.8499486820023
 30
0.0
 11
147.9777779469045
 21
116.5556044236121
 31
0.0
  0
LINE
  5
11E
330
E3
100
AcDbEntity
  8
0
  6
Continuous
100
AcDbLine
 10
160.202251651683
 20
127.8499486820023
 30
0.0
 11
161.7650859037199
 21
118.9866787970011
 31
0.0
  0
LINE
  5
11F
330
E3
100
AcDbEntity
  8
0
  6
Continuous
100
AcDbLine
 10
161.7650859037199
 20
118.9866787970011
 30
0.0
 11
147.9777779469045
 21
116.5556044236121
 31
0.0
  0
LINE
  5
120
330
E3
100
AcDbEntity
  8
0
  6
Continuous
100
AcDbLine
 10
147.9777779469045
 20
116.5556044236121
 30
0.0
 11
146.4149436948675
 21
125.4188743086133
 31
0.0
  0
LINE
  5
121
330
E3
100
AcDbEntity
  8
0
  6
Continuous
100
AcDbLine
 10
146.4149436948675
 20
125.4188743086133
 30
0.0
 11
160.202251651683
 21
127.8499486820023
 31
0.0
  0
HATCH
  5
122
330
E3
100
AcDbEntity
  8
0
  6
Continuous
 62
   255
370
     0
100
AcDbHatch
 10
0.0
 20
0.0
 30
0.0
210
0.0
220
0.0
230
1.0
  2
SOLID
 70
     1
 71
     0
 91
        1
 92
        3
 72
     0
 73
     1
 93
        9
 10
35.31939137848009
 20
130.1708836776592
 10
35.31939137848009
 20
109.4544118487777
 10
40.10157342136979
 20
82.33331144094922
 10
117.7124420704056
 20
82.33331144094922
 10
113.842211870671
 20
104.2824810412963
 10
107.6106809891257
 20
105.595556424121
 10
119.379147949273
 20
106.9086352507166
 10
113.1476170677277
 20
108.2217106335413
 10
109.2773868679931
 20
130.1708836776592
 97
        0
 75
     0
 76
     1
 98
        0
  0
LINE
  5
123
330
E3
100
AcDbEntity
  8
0
  6
Continuous
100
AcDbLine
 10
109.2773865361472
 20
130.1708831043301
 30
0.0
 11
113.1476181916623
 21
108.2217119640265
 31
0.0
  0
LINE
  5
124
330
E3
100
AcDbEntity
  8
0
  6
Continuous
100
AcDbLine
 10
113.8422089330085
 20
104.2824801508396
 30
0.0
 11
117.7124405885235
 21
82.33331239987477
 31
0.0
  0
LINE
  5
125
330
E3
100
AcDbEntity
  8
0
  6
Continuous
100
AcDbLine
 10
113.8422089330085
 20
104.2824801508396
 30
0.0
 11
107.6106792203433
 21
105.5955574219019
 31
0.0
  0
LINE
  5
126
330
E3
100
AcDbEntity
  8
0
  6
Continuous
100
AcDbLine
 10
107.6106792203433
 20
105.5955574219019
 30
0.0
 11
119.3791479043275
 21
106.9086346929642
 31
0.0
  0
LINE
  5
127
330
E3
100
AcDbEntity
  8
0
  6
Continuous
100
AcDbLine
 10
119.3791479043275
 20
106.9086346929642
 30
0.0
 11
113.1476181916623
 21
108.2217119640265
 31
0.0
  0
HATCH
  5
128
330
E3
100
AcDbEntity
  8
Doc_ Finishes
  6
Continuous
 62
   255
370
    18
100
AcDbHatch
 10
0.0
 20
0.0
 30
0.0
210
0.0
220
0.0
230
1.0
  2
SOLID
 70
     1
 71
     0
 91
        1
 92
        3
 72
     0
 73
     1
 93
        4
 10
35.31939101362769
 20
28.70874774669871
 10
161.8305645617754
 20
28.70874774669871
 10
65.10936523507551
 20
110.5185131266177
 10
35.31939101362769
 20
109.5666333625265
 97
        0
 75
     0
 76
     1
 98
        0
  0
LINE
  5
129
330
E3
100
AcDbEntity
  8
Doc_ Finishes
  6
Continuous
 62
   255
370
    18
100
AcDbLine
 10
35.3193913749998
 20
109.5666300440814
 30
0.0
 11
65.10936570738224
 21
110.5185100367246
 31
0.0
  0
LINE
  5
12A
330
E3
100
AcDbEntity
  8
Doc_ Finishes
  6
Continuous
 62
   255
370
    18
100
AcDbLine
 10
65.10936474156642
 20
110.5185101510925
 30
0.0
 11
161.8305611491224
 21
28.70874672708527
 31
0.0
  0
HATCH
  5
12B
330
E3
100
AcDbEntity
  8
0
  6
Continuous
 62
   255
370
     0
100
AcDbHatch
 10
0.0
 20
0.0
 30
0.0
210
0.0
220
0.0
230
1.0
  2
SOLID
 70
     1
 71
     0
 91
        1
 92
        3
 72
     0
 73
     1
 93
        8
 10
153.4794459646313
 20
68.80288870772434
 10
153.4794459646313
 20
28.70875044434523
 10
201.317013537832
 20
28.70875044434523
 10
201.317013537832
 20
77.23794242281807
 10
179.3678445436156
 20
73.36770593514608
 10
178.0547727990724
 20
79.13618182915793
 10
176.74169387896
 20
66.9046493013844
 10
175.4286149588477
 20
72.67311801982717
 97
        0
 75
     0
 76
     1
 98
        0
  0
LINE
  5
12C
330
E3
100
AcDbEntity
  8
0
  6
Continuous
100
AcDbLine
 10
153.4794440701593
 20
68.80288581402445
 30
0.0
 11
175.4286152104629
 21
72.6731174695395
 31
0.0
  0
LINE
  5
12D
330
E3
100
AcDbEntity
  8
0
  6
Continuous
100
AcDbLine
 10
179.3678470236497
 20
73.36770821088567
 30
0.0
 11
201.3170181639533
 21
77.23793986640071
 31
0.0
  0
LINE
  5
12E
330
E3
100
AcDbEntity
  8
0
  6
Continuous
100
AcDbLine
 10
179.3678470236497
 20
73.36770821088567
 30
0.0
 11
178.0547697525875
 21
79.13617968887924
 31
0.0
  0
LINE
  5
12F
330
E3
100
AcDbEntity
  8
0
  6
Continuous
100
AcDbLine
 10
178.0547697525875
 20
79.13617968887924
 30
0.0
 11
176.7416924815251
 21
66.90464599154595
 31
0.0
  0
LINE
  5
130
330
E3
100
AcDbEntity
  8
0
  6
Continuous
100
AcDbLine
 10
176.7416924815251
 20
66.90464599154595
 30
0.0
 11
175.4286152104629
 21
72.6731174695395
 31
0.0
  0
LINE
  5
132
330
E3
100
AcDbEntity
  8
0
  6
Dashed
100
AcDbLine
 10
169.2633707951544
 20
161.9460657931918
 30
0.0
 11
169.2633707951544
 21
147.1392481385897
 31
0.0
  0
LINE
  5
133
330
E3
100
AcDbEntity
  8
0
  6
Dashed
100
AcDbLine
 10
171.3216721387084
 20
131.1379563427718
 30
0.0
 11
171.3216721387084
 21
161.9073832703747
 31
0.0
  0
LINE
  5
134
330
E3
100
AcDbEntity
  8
0
  6
Dashed
100
AcDbLine
 10
169.2633707951544
 20
161.9460657931918
 30
0.0
 11
170.0084084540164
 21
162.5886844145978
 31
0.0
  0
LINE
  5
135
330
E3
100
AcDbEntity
  8
0
  6
Continuous
100
AcDbLine
 10
77.50904692216226
 20
52.80019083197621
 30
0.0
 11
201.872151174306
 21
52.80019083197621
 31
0.0
  0
LINE
  5
136
330
E3
100
AcDbEntity
  8
0
  6
Continuous
100
AcDbLine
 10
177.9021342726486
 20
60.88655649546526
 30
0.0
 11
177.9021342726486
 21
31.27900504926459
 31
0.0
  0
LINE
  5
137
330
E3
100
AcDbEntity
  8
0
  6
Continuous
100
AcDbLine
 10
77.50904692216226
 20
31.27900504926459
 30
0.0
 11
77.50904692216226
 21
52.80019083197621
 31
0.0
  0
LINE
  5
138
330
E3
100
AcDbEntity
  8
0
  6
Continuous
100
AcDbLine
 10
153.9321173709913
 20
60.88655649546526
 30
0.0
 11
153.9321173709913
 21
31.27900504926459
 31
0.0
  0
LINE
  5
139
330
E3
100
AcDbEntity
  8
0
  6
Continuous
100
AcDbLine
 10
77.50904692216226
 20
42.03959624595105
 30
0.0
 11
201.872151174306
 21
42.03959624595105
 31
0.0
  0
LINE
  5
13A
330
E3
100
AcDbEntity
  8
0
  6
Continuous
100
AcDbLine
 10
77.50904692216226
 20
31.27900504926459
 30
0.0
 11
201.872151174306
 21
31.27900504926459
 31
0.0
  0
LINE
  5
13B
330
E3
100
AcDbEntity
  8
0
  6
Continuous
100
AcDbLine
 10
153.9321173709913
 20
60.88655649546526
 30
0.0
 11
177.9021342726486
 21
60.88655649546526
 31
0.0
  0
LINE
  5
13C
330
E3
100
AcDbEntity
  8
0
  6
Continuous
100
AcDbLine
 10
201.872151174306
 20
60.88655649546526
 30
0.0
 11
201.872151174306
 21
31.27900504926459
 31
0.0
  0
LINE
  5
13D
330
E3
100
AcDbEntity
  8
0
  6
Continuous
100
AcDbLine
 10
177.9021342726486
 20
60.88655649546526
 30
0.0
 11
201.872151174306
 21
60.88655649546526
 31
0.0
  0
LINE
  5
13E
330
E3
100
AcDbEntity
  8
0
  6
Dashed
100
AcDbLine
 10
171.3216721387084
 20
131.1379563427718
 30
0.0
 11
110.9828712762524
 21
120.4985984027788
 31
0.0
  0
LINE
  5
13F
330
E3
100
AcDbEntity
  8
0
  6
Dashed
100
AcDbLine
 10
153.7790717810673
 20
137.5168002735846
 30
0.0
 11
151.1123976945392
 21
137.0465939235515
 31
0.0
  0
LINE
  5
140
330
E3
100
AcDbEntity
  8
0
  6
Continuous
 62
     9
370
    18
100
AcDbLine
 10
168.9386009696177
 20
138.8018375454123
 30
0.0
 11
168.2571303584586
 21
131.3706039418854
 31
0.0
  0
LINE
  5
141
330
E3
100
AcDbEntity
  8
0
  6
Dashed
100
AcDbLine
 10
170.0084084540164
 20
162.5886844145978
 30
0.0
 11
170.0084084540164
 21
192.5142914063299
 31
0.0
  0
LWPOLYLINE
  5
142
330
E3
100
AcDbEntity
  8
0
  6
Continuous
100
AcDbPolyline
 90
        4
 70
   128
 43
0.0
 10
163.581717680206
 20
145.3869026451522
 10
163.581717680206
 20
143.4372883669138
 10
168.6556742533892
 20
143.4372883669138
 10
168.6556742533892
 20
155.3599295299867
  0
LWPOLYLINE
  5
143
330
E3
100
AcDbEntity
  8
0
  6
Continuous
100
AcDbPolyline
 90
        7
 70
   128
 43
0.0
 10
144.265313370823
 20
127.9549209490865
 10
144.7839858652657
 20
135.5207436390358
 10
170.384568453797
 20
140.034932866436
 10
170.384568453797
 20
161.0889963169459
 10
170.1242965052128
 20
161.3296627239524
 10
169.8391386366046
 20
161.0185814127435
 10
169.8391386366046
 20
158.8928591194818
  0
HATCH
  5
144
330
E3
100
AcDbEntity
  8
0
  6
Continuous
 62
   255
370
     0
100
AcDbHatch
 10
0.0
 20
0.0
 30
0.0
210
0.0
220
0.0
230
1.0
  2
SOLID
 70
     1
 71
     0
 91
        1
 92
        3
 72
     0
 73
     1
 93
        8
 10
152.5676181117994
 20
174.3594628117657
 10
174.715964741455
 20
178.264813347643
 10
176.0290395269705
 20
172.4963465586998
 10
177.342119413965
 20
184.7278771135459
 10
178.6551941994804
 20
178.9594052231237
 10
200.8035408291361
 20
182.864755759001
 10
200.8035408291361
 20
192.5142951451823
 10
152.5676181117994
 20
192.5142951451823
 97
        0
 75
     0
 76
     1
 98
        0
  0
LINE
  5
145
330
E3
100
AcDbEntity
  8
0
  6
Continuous
100
AcDbLine
 10
152.5676170528616
 20
174.3594646275894
 30
0.0
 11
174.7159626830752
 21
178.2648132215875
 31
0.0
  0
LINE
  5
146
330
E3
100
AcDbEntity
  8
0
  6
Continuous
100
AcDbLine
 10
178.6551944962621
 20
178.9594073522724
 30
0.0
 11
200.8035401264756
 21
182.8647593356093
 31
0.0
  0
LINE
  5
147
330
E3
100
AcDbEntity
  8
0
  6
Continuous
100
AcDbLine
 10
178.6551944962621
 20
178.9594073522724
 30
0.0
 11
177.3421172251998
 21
184.7278754409272
 31
0.0
  0
LINE
  5
148
330
E3
100
AcDbEntity
  8
0
  6
Continuous
100
AcDbLine
 10
177.3421172251998
 20
184.7278754409272
 30
0.0
 11
176.0290399541375
 21
172.4963451329327
 31
0.0
  0
LINE
  5
149
330
E3
100
AcDbEntity
  8
0
  6
Continuous
100
AcDbLine
 10
176.0290399541375
 20
172.4963451329327
 30
0.0
 11
174.7159626830752
 21
178.2648132215875
 31
0.0
  0
LINE
  5
14A
330
E3
100
AcDbEntity
  8
Doc_ Floor
  6
Continuous
100
AcDbLine
 10
149.6044266683709
 20
135.0970666275544
 30
0.0
 11
149.6044266683709
 21
136.0750670940311
 31
0.0
  0
LINE
  5
14B
330
E3
100
AcDbEntity
  8
Doc_ Floor
  6
Continuous
100
AcDbLine
 10
149.6044266683709
 20
136.0750670940311
 30
0.0
 11
149.6044266683709
 21
142.9934598557597
 31
0.0
  0
LINE
  5
14C
330
E3
100
AcDbEntity
  8
Doc_ Floor
  6
Continuous
100
AcDbLine
 10
148.6044260042596
 20
136.6524172196965
 30
0.0
 11
150.6044273324823
 21
135.4977169683656
 31
0.0
  0
LINE
  5
14D
330
E3
100
AcDbEntity
  8
Doc_ Floor
  6
Continuous
100
AcDbLine
 10
150.6044273324823
 20
142.4161131194329
 30
0.0
 11
148.6044260042596
 21
143.5708099814252
 31
0.0
  0
LINE
  5
14E
330
E3
100
AcDbEntity
  8
Doc_ Floor
  6
Continuous
100
AcDbLine
 10
149.6044266683709
 20
142.9934598557597
 30
0.0
 11
149.6044266683709
 21
143.9714603222363
 31
0.0
  0
LINE
  5
14F
330
E3
100
AcDbEntity
  8
Doc_ Floor
  6
Continuous
100
AcDbLine
 10
151.1044259698686
 20
136.0750670940311
 30
0.0
 11
148.1044273668732
 21
136.0750670940311
 31
0.0
  0
LINE
  5
150
330
E3
100
AcDbEntity
  8
Doc_ Floor
  6
Continuous
100
AcDbLine
 10
151.1044259698686
 20
142.9934598557597
 30
0.0
 11
148.1044273668732
 21
142.9934598557597
 31
0.0
  0
MTEXT
  5
151
330
E3
100
AcDbEntity
  8
Doc_ Floor
  6
Continuous
100
AcDbMText
 10
136.9638256135995
 20
138.4715294500545
 30
0.0
 40
2.5
 41
0.0
 71
     7
 72
     1
  1
{35 MIN.}
  7
GENERATED_STYLE_1
 73
     1
 44
1.0
  0
LINE
  5
152
330
E3
100
AcDbEntity
  8
Doc_ Floor
  6
Continuous
100
AcDbLine
 10
149.6044266683709
 20
142.0154627786218
 30
0.0
 11
149.6044266683709
 21
142.9934598557597
 31
0.0
  0
LINE
  5
153
330
E3
100
AcDbEntity
  8
Doc_ Floor
  6
Continuous
100
AcDbLine
 10
149.6044266683709
 20
142.9934598557597
 30
0.0
 11
149.6044266683709
 21
161.0889969322624
 31
0.0
  0
LINE
  5
154
330
E3
100
AcDbEntity
  8
Doc_ Floor
  6
Continuous
100
AcDbLine
 10
148.6044260042596
 20
143.5708099814252
 30
0.0
 11
150.6044273324823
 21
142.4161131194329
 31
0.0
  0
LINE
  5
155
330
E3
100
AcDbEntity
  8
Doc_ Floor
  6
Continuous
100
AcDbLine
 10
150.6044273324823
 20
160.511646806597
 30
0.0
 11
148.6044260042596
 21
161.6663470579279
 31
0.0
  0
LINE
  5
156
330
E3
100
AcDbEntity
  8
Doc_ Floor
  6
Continuous
100
AcDbLine
 10
149.6044266683709
 20
161.0889969322624
 30
0.0
 11
149.6044266683709
 21
162.066997398739
 31
0.0
  0
LINE
  5
157
330
E3
100
AcDbEntity
  8
Doc_ Floor
  6
Continuous
100
AcDbLine
 10
151.1044259698686
 20
142.9934598557597
 30
0.0
 11
148.1044273668732
 21
142.9934598557597
 31
0.0
  0
LINE
  5
158
330
E3
100
AcDbEntity
  8
Doc_ Floor
  6
Continuous
100
AcDbLine
 10
151.1044259698686
 20
161.0889969322624
 30
0.0
 11
148.1044273668732
 21
161.0889969322624
 31
0.0
  0
MTEXT
  5
159
330
E3
100
AcDbEntity
  8
Doc_ Floor
  6
Continuous
100
AcDbMText
 10
146.3203519561371
 20
153.0554828762028
 30
0.0
 40
2.5
 41
0.0
 71
     7
 72
     1
  1
{A}
  7
GENERATED_STYLE_1
 73
     1
 44
1.0
  0
LINE
  5
15A
330
E3
100
AcDbEntity
  8
Doc_ Floor
  6
Continuous
100
AcDbLine
 10
143.380156919245
 20
137.8501146220357
 30
0.0
 11
144.3432985247709
 21
138.0199442173036
 31
0.0
  0
LINE
  5
15B
330
E3
100
AcDbEntity
  8
Doc_ Floor
  6
Continuous
100
AcDbLine
 10
144.3432985247709
 20
138.0199442173036
 30
0.0
 11
169.9438788341169
 21
142.5341332830193
 31
0.0
  0
LINE
  5
15C
330
E3
100
AcDbEntity
  8
Doc_ Floor
  6
Continuous
100
AcDbLine
 10
144.7382242724832
 20
139.105010504622
 30
0.0
 11
143.9483727770588
 21
136.9348813193239
 31
0.0
  0
LINE
  5
15D
330
E3
100
AcDbEntity
  8
Doc_ Floor
  6
Continuous
100
AcDbLine
 10
169.5489530864047
 20
141.4490703850397
 30
0.0
 11
170.3388045818291
 21
143.6191995703377
 31
0.0
  0
LINE
  5
15E
330
E3
100
AcDbEntity
  8
Doc_ Floor
  6
Continuous
100
AcDbLine
 10
169.9438788341169
 20
142.5341332830193
 30
0.0
 11
170.9070204396428
 21
142.7039662676259
 31
0.0
  0
LINE
  5
15F
330
E3
100
AcDbEntity
  8
Doc_ Floor
  6
Continuous
100
AcDbLine
 10
144.6037759841186
 20
136.5427348293625
 30
0.0
 11
144.0828176760847
 21
139.4971569945833
 31
0.0
  0
LINE
  5
160
330
E3
100
AcDbEntity
  8
Doc_ Floor
  6
Continuous
100
AcDbLine
 10
170.2043596828032
 20
141.0569238950783
 30
0.0
 11
169.6834013747693
 21
144.0113460602991
 31
0.0
  0
MTEXT
  5
161
330
E3
100
AcDbEntity
  8
Doc_ Floor
  6
Continuous
100
AcDbMText
 10
156.060369662271
 20
140.5937479596797
 30
0.0
 40
2.5
 41
0.0
 71
     7
 72
     1
  1
{B}
  7
GENERATED_STYLE_1
 11
0.9848069912509642
 21
0.1736524977742142
 31
0.0
 73
     1
 44
1.0
  0
MTEXT
  5
162
330
E3
100
AcDbEntity
  8
Doc_ Floor
  6
Continuous
100
AcDbMText
 10
200.4460231647613
 20
177.6695520222605
 30
0.0
 40
2.499999999999999
 41
0.0
 71
     4
 72
     1
  1
{HEM TO FLASHING EDGE}
  7
GENERATED_STYLE_1
 73
     1
 44
1.0
  0
LINE
  5
163
330
E3
100
AcDbEntity
  8
Doc_ Floor
  6
Continuous
100
AcDbLine
 10
170.3845674332333
 20
159.4712147208888
 30
0.0
 11
172.7686452359238
 21
162.5116718601907
 31
0.0
  0
LINE
  5
164
330
E3
100
AcDbEntity
  8
Doc_ Floor
  6
Continuous
100
AcDbLine
 10
170.3845674332333
 20
159.4712147208888
 30
0.0
 11
173.9694676085633
 21
160.9122869793919
 31
0.0
  0
LINE
  5
165
330
E3
100
AcDbEntity
  8
Doc_ Floor
  6
Continuous
100
AcDbLine
 10
172.7686452359238
 20
162.5116718601907
 30
0.0
 11
173.9694676085633
 21
160.9122869793919
 31
0.0
  0
LWPOLYLINE
  5
166
330
E3
100
AcDbEntity
  8
Doc_ Floor
  6
Continuous
100
AcDbPolyline
 90
        8
 70
   128
 43
0.0
 10
173.3690558799848
 20
161.7119793406441
 10
183.6867948679354
 20
169.2390267475036
 10
187.717435707525
 20
172.0073522981052
 10
191.0911797709622
 20
174.1719232164101
 10
193.8794688033258
 20
175.77752260461
 10
196.1537445496944
 20
176.8689335648966
 10
197.9854487551466
 20
177.4909391994613
 10
199.4460231647613
 20
177.6883226104958
  0
MTEXT
  5
168
330
E3
100
AcDbEntity
  8
Doc_ Floor
  6
Continuous
100
AcDbMText
 10
114.3049395485372
 20
137.1687950341803
 30
0.0
 40
2.499999999999999
 41
56.6835322004004
 71
     6
 72
     1
  1
\A1;{\fCentury Gothic|b0|i0|c0|p34;TRS 9\PMIN. ROOF PITCH 3\fArial|b0|i0|c0|p34;\H1.029412x;\U+00B0}
  7
GENERATED_STYLE_1
 73
     1
 44
1.056356172275314
  0
LINE
  5
169
330
E3
100
AcDbEntity
  8
Doc_ Floor
  6
Continuous
100
AcDbLine
 10
130.2527938833748
 20
132.386656514177
 30
0.0
 11
126.5805843426048
 21
133.5879398368825
 31
0.0
  0
LINE
  5
16A
330
E3
100
AcDbEntity
  8
Doc_ Floor
  6
Continuous
100
AcDbLine
 10
130.2527938833748
 20
132.386656514177
 30
0.0
 11
127.6732088552698
 21
135.2631035527941
 31
0.0
  0
LINE
  5
16B
330
E3
100
AcDbEntity
  8
Doc_ Floor
  6
Continuous
100
AcDbLine
 10
126.5805843426048
 20
133.5879398368825
 30
0.0
 11
127.6732088552698
 21
135.2631035527941
 31
0.0
  0
LWPOLYLINE
  5
16C
330
E3
100
AcDbEntity
  8
Doc_ Floor
  6
Continuous
100
AcDbPolyline
 90
        8
 70
   128
 43
0.0
 10
127.1268978606189
 20
134.4255224430559
 10
125.7898893723285
 20
135.1274468916267
 10
124.4542718242195
 20
135.7141060554806
 10
123.0992445603841
 20
136.1921806957192
 10
121.7040069249145
 20
136.568351573444
 10
120.2477582619029
 20
136.8492994497568
 10
118.7096979154413
 20
137.0417050857592
 10
115.3049395485372
 20
137.1876126812391
  0
MTEXT
  5
16D
330
E3
100
AcDbEntity
  8
Doc_ Floor
  6
Continuous
100
AcDbMText
 10
91.91517509131607
 20
113.1694531874993
 30
0.0
 40
2.5
 41
0.0
 71
     6
 72
     1
  1
{UNDERLAY}
  7
GENERATED_STYLE_1
 73
     1
 44
1.0
  0
LINE
  5
16E
330
E3
100
AcDbEntity
  8
Doc_ Floor
  6
Continuous
100
AcDbLine
 10
119.2904997500929
 20
121.9634570404223
 30
0.0
 11
117.2817573173101
 21
118.6629766131614
 31
0.0
  0
LINE
  5
16F
330
E3
100
AcDbEntity
  8
Doc_ Floor
  6
Continuous
100
AcDbLine
 10
119.2904997500929
 20
121.9634570404223
 30
0.0
 11
115.9006390714338
 21
120.1095294323756
 31
0.0
  0
LINE
  5
170
330
E3
100
AcDbEntity
  8
Doc_ Floor
  6
Continuous
100
AcDbLine
 10
117.2817573173101
 20
118.6629766131614
 30
0.0
 11
115.9006390714338
 21
120.1095294323756
 31
0.0
  0
LWPOLYLINE
  5
171
330
E3
100
AcDbEntity
  8
Doc_ Floor
  6
Continuous
100
AcDbPolyline
 90
        9
 70
   128
 43
0.0
 10
116.5911987232457
 20
119.3862536451253
 10
114.4856759865963
 20
117.8101035511923
 10
112.2328850766837
 20
116.4961232048868
 10
109.7844629062335
 20
115.4282801536087
 10
107.0920463879714
 20
114.5905419447575
 10
104.1072724346229
 20
113.9668761257331
 10
100.7817779589138
 20
113.5412502439351
 10
97.06719987356962
 20
113.2976318467631
 10
92.91517509131607
 20
113.219988481617
  0
MTEXT
  5
172
330
E3
100
AcDbEntity
  8
Doc_ Floor
  6
Continuous
100
AcDbMText
 10
139.667516328832
 20
92.25528789756783
 30
0.0
 40
2.499999999999999
 41
0.0
 71
     6
 72
     1
  1
{PURLIN}
  7
GENERATED_STYLE_1
 73
     1
 44
1.0
  0
LINE
  5
173
330
E3
100
AcDbEntity
  8
Doc_ Floor
  6
Continuous
100
AcDbLine
 10
152.8659568150559
 20
119.9635675603774
 30
0.0
 11
153.2407431120909
 21
116.1180848561994
 31
0.0
  0
LINE
  5
174
330
E3
100
AcDbEntity
  8
Doc_ Floor
  6
Continuous
100
AcDbLine
 10
152.8659568150559
 20
119.9635675603774
 30
0.0
 11
151.2677887068577
 21
116.4458881398909
 31
0.0
  0
LINE
  5
175
330
E3
100
AcDbEntity
  8
Doc_ Floor
  6
Continuous
100
AcDbLine
 10
153.2407431120909
 20
116.1180848561994
 30
0.0
 11
151.2677887068577
 21
116.4458881398909
 31
0.0
  0
LWPOLYLINE
  5
176
330
E3
100
AcDbEntity
  8
Doc_ Floor
  6
Continuous
100
AcDbPolyline
 90
       14
 70
   128
 43
0.0
 10
152.2542666494834
 20
116.281986560521
 10
151.0924473763438
 20
110.1158731366919
 10
149.9078142337513
 20
104.9891006036638
 10
148.6708420825835
 20
100.8347260878539
 10
148.0235022728081
 20
99.10126843841118
 10
147.3520057837181
 20
97.58580671567957
 10
146.6526619729229
 20
96.27997306046119
 10
145.9217801980325
 20
95.1753996135582
 10
145.1556698166565
 20
94.26371851577281
 10
144.3506401864046
 20
93.53656190790716
 10
143.5030006648865
 20
92.98556193076344
 10
142.6090606097119
 20
92.6023507251438
 10
141.6651293784905
 20
92.37856043185043
 10
140.667516328832
 20
92.30582319168548
  0
MTEXT
  5
177
330
E3
100
AcDbEntity
  8
Doc_ Floor
  6
Continuous
100
AcDbMText
 10
114.3049395485372
 20
149.7644494346484
 30
0.0
 40
2.5
 41
68.41258466870822
 71
     6
 72
     1
  1
{NOTCHED TURN-DOWN OVER TRS 9.\P 5MM MAX. GAP BETWEEN PAN AND EDGE OF FLASHING}
  7
GENERATED_STYLE_1
 73
     1
 44
1.065340909090909
  0
LINE
  5
178
330
E3
100
AcDbEntity
  8
Doc_ Floor
  6
Continuous
100
AcDbLine
 10
144.5246484823498
 20
131.1779674863673
 30
0.0
 11
141.0660452357616
 21
132.9002497891712
 31
0.0
  0
LINE
  5
179
330
E3
100
AcDbEntity
  8
Doc_ Floor
  6
Continuous
100
AcDbLine
 10
144.5246484823498
 20
131.1779674863673
 30
0.0
 11
142.3905513569894
 21
134.3988086217127
 31
0.0
  0
LINE
  5
17A
330
E3
100
AcDbEntity
  8
Doc_ Floor
  6
Continuous
100
AcDbLine
 10
141.0660452357616
 20
132.9002497891712
 30
0.0
 11
142.3905513569894
 21
134.3988086217127
 31
0.0
  0
LWPOLYLINE
  5
17B
330
E3
100
AcDbEntity
  8
Doc_ Floor
  6
Continuous
100
AcDbPolyline
 90
        9
 70
   128
 43
0.0
 10
141.7282989976691
 20
133.6495301703049
 10
136.8863460792044
 20
137.7987786583497
 10
132.6256228131139
 20
141.2486286244555
 10
128.8753762285423
 20
144.0441310450537
 10
125.5648533546345
 20
146.2303368965758
 10
122.6233012205353
 20
147.8522971554532
 10
119.9799668553894
 20
148.9550627981172
 10
117.5640972883418
 20
149.5836848009992
 10
115.3049395485372
 20
149.7832141405307
  0
MTEXT
  5
17C
330
E3
100
AcDbEntity
  8
Doc_ Floor
  6
Continuous
100
AcDbMText
 10
200.4460231647613
 20
119.44354036551
 30
0.0
 40
2.500000000000001
 41
0.0
 71
     4
 72
     1
  1
{STOPEND}
  7
GENERATED_STYLE_1
 73
     1
 44
1.0
  0
LINE
  5
17D
330
E3
100
AcDbEntity
  8
Doc_ Floor
  6
Continuous
100
AcDbLine
 10
169.1606399385361
 20
132.4312669904162
 30
0.0
 11
172.8939118056947
 21
131.4358351549001
 31
0.0
  0
LINE
  5
17E
330
E3
100
AcDbEntity
  8
Doc_ Floor
  6
Continuous
100
AcDbLine
 10
169.1606399385361
 20
132.4312669904162
 30
0.0
 11
171.8960328676224
 21
129.7025612266255
 31
0.0
  0
LINE
  5
17F
330
E3
100
AcDbEntity
  8
Doc_ Floor
  6
Continuous
100
AcDbLine
 10
172.8939118056947
 20
131.4358351549001
 30
0.0
 11
171.8960328676224
 21
129.7025612266255
 31
0.0
  0
LWPOLYLINE
  5
180
330
E3
100
AcDbEntity
  8
Doc_ Floor
  6
Continuous
100
AcDbPolyline
 90
        9
 70
   128
 43
0.0
 10
172.3949714998111
 20
130.5691981273233
 10
177.4986414568468
 20
127.7138099674511
 10
181.9659915333714
 20
125.3393385305835
 10
185.8691404555095
 20
123.4149007785289
 10
189.2802069493857
 20
121.9096136730958
 10
192.2713097411245
 20
120.7925941760925
 10
194.9145675568503
 20
120.0329592493274
 10
197.2820991226877
 20
119.5998258546089
 10
199.4460231647613
 20
119.4623109537453
  0
MTEXT
  5
181
330
E3
100
AcDbEntity
  8
Doc_ Floor
  6
Continuous
100
AcDbMText
 10
101.4918736050076
 20
92.41867514365721
 30
0.0
 40
2.5
 41
0.0
 71
     6
 72
     1
  1
{ROOF FRAME}
  7
GENERATED_STYLE_1
 73
     1
 44
1.0
  0
LINE
  5
182
330
E3
100
AcDbEntity
  8
Doc_ Floor
  6
Continuous
100
AcDbLine
 10
128.9516335272538
 20
104.3539511364387
 30
0.0
 11
127.4907370265745
 21
100.7770836938762
 31
0.0
  0
LINE
  5
183
330
E3
100
AcDbEntity
  8
Doc_ Floor
  6
Continuous
100
AcDbLine
 10
128.9516335272538
 20
104.3539511364387
 30
0.0
 11
125.8980257537164
 21
101.9867386832213
 31
0.0
  0
LINE
  5
184
330
E3
100
AcDbEntity
  8
Doc_ Floor
  6
Continuous
100
AcDbLine
 10
127.4907370265745
 20
100.7770836938762
 30
0.0
 11
125.8980257537164
 21
101.9867386832213
 31
0.0
  0
LWPOLYLINE
  5
185
330
E3
100
AcDbEntity
  8
Doc_ Floor
  6
Continuous
100
AcDbPolyline
 90
       11
 70
   128
 43
0.0
 10
126.6943821636134
 20
101.3819108531095
 10
124.5385283402276
 20
99.0914559659033
 10
122.2398026470681
 20
97.18350526138705
 10
121.0203714117235
 20
96.36554183958586
 10
119.7454324838159
 20
95.63429189779497
 10
118.4083892883055
 20
94.98678458079365
 10
117.0026452501523
 20
94.4200490333612
 10
113.9586683457585
 20
93.51700982631989
 10
110.5607291703156
 20
92.90140743490524
 10
106.7560551235049
 20
92.54947501735138
 10
102.4918736050076
 20
92.43744573189251
  0
MTEXT
  5
186
330
E3
100
AcDbEntity
  8
Doc_ Floor
  6
Continuous
100
AcDbMText
 10
114.230057081854
 20
176.6805839226762
 30
0.0
 40
2.5
 41
56.71228972547952
 71
     6
 72
     1
  1
{CLADDING ON CAVITY BATTENS WITH BUILDING WRAP OVER METAL HIDDEN GUTTER}
  7
GENERATED_STYLE_1
 73
     1
 44
1.065340909090909
  0
LINE
  5
187
330
E3
100
AcDbEntity
  8
Doc_ Floor
  6
Continuous
100
AcDbLine
 10
161.0614659640223
 20
156.7586727134562
 30
0.0
 11
157.4724850248728
 21
158.1895498410881
 31
0.0
  0
LINE
  5
188
330
E3
100
AcDbEntity
  8
Doc_ Floor
  6
Continuous
100
AcDbLine
 10
161.0614659640223
 20
156.7586727134562
 30
0.0
 11
158.6687555156107
 21
159.7923376179622
 31
0.0
  0
LINE
  5
189
330
E3
100
AcDbEntity
  8
Doc_ Floor
  6
Continuous
100
AcDbLine
 10
157.4724850248728
 20
158.1895498410881
 30
0.0
 11
158.6687555156107
 21
159.7923376179622
 31
0.0
  0
LWPOLYLINE
  5
18A
330
E3
100
AcDbEntity
  8
Doc_ Floor
  6
Continuous
100
AcDbPolyline
 90
       15
 70
   128
 43
0.0
 10
158.0706211529338
 20
158.9909433510778
 10
151.6379870397263
 20
163.5484575823993
 10
145.7423766130802
 20
167.336568325234
 10
142.9601508492426
 20
168.9576754526682
 10
140.2692156874751
 20
170.4051253850201
 10
137.6552493545879
 20
171.6851493479693
 10
135.1039300773908
 20
172.8039785671958
 10
132.6009360826938
 20
173.7678442683792
 10
130.1319455973069
 20
174.5829776771993
 10
127.6826368480399
 20
175.2556100193359
 10
125.238688061703
 20
175.7919725204687
 10
122.7857774651059
 20
176.1982964062777
 10
120.3095832850588
 20
176.4808129024424
 10
117.7957837483715
 20
176.6457532346428
 10
115.230057081854
 20
176.6993486285585
  0
MTEXT
  5
18B
330
E3
100
AcDbEntity
  8
0
  6
Continuous
100
AcDbMText
 10
81.06497497887133
 20
43.95654790381578
 30
0.0
 40
2.499999999999999
 41
69.01187578516152
 71
     7
 72
     1
  1
\A1;{\fCentury Gothic|b0|i0|c0|p34;LOW, MEDIUM OR HIGH WIND ZONE.\P ROOF PITCH \fArial|b0|i0|c0|p34;\H1.029412x;\U+2265\fCentury Gothic|b0|i0|c0|p34;\H0.971429x; 10\fArial|b0|i0|c0|p34;\H1.029412x;\U+00B0}
  7
GENERATED_STYLE_1
 73
     1
 44
1.056355725756043
  0
MTEXT
  5
18C
330
E3
100
AcDbEntity
  8
0
  6
Continuous
100
AcDbMText
 10
81.06497497887133
 20
33.53369551768854
 30
0.0
 40
2.5
 41
69.01187578516152
 71
     7
 72
     1
  1
\A1;{\fCentury Gothic|b0|i0|c0|p34;VERY HIGH OR EXTRA WIND ZONE.\P ROOF PITCH \fArial|b0|i0|c0|p34;\H1.029412x;<\fCentury Gothic|b0|i0|c0|p34;\H0.971429x; 10\fArial|b0|i0|c0|p34;\H1.029412x;\U+00B0}
  7
GENERATED_STYLE_1
 73
     1
 44
1.056355725756043
  0
MTEXT
  5
18D
330
E3
100
AcDbEntity
  8
0
  6
Continuous
100
AcDbMText
 10
165.5643090354594
 20
45.99637563526121
 30
0.0
 40
2.499999999999999
 41
0.0
 71
     8
 72
     1
  1
{75MM}
  7
GENERATED_STYLE_1
 73
     1
 44
1.0
  0
MTEXT
  5
18E
330
E3
100
AcDbEntity
  8
0
  6
Continuous
100
AcDbMText
 10
165.5643090354594
 20
34.75759611380344
 30
0.0
 40
2.499999999999999
 41
0.0
 71
     8
 72
     1
  1
{100MM}
  7
GENERATED_STYLE_1
 73
     1
 44
1.0
  0
MTEXT
  5
18F
330
E3
100
AcDbEntity
  8
0
  6
Continuous
100
AcDbMText
 10
165.5643090354594
 20
55.87843970067759
 30
0.0
 40
2.499999999999999
 41
0.0
 71
     8
 72
     1
  1
{A}
  7
GENERATED_STYLE_1
 73
     1
 44
1.0
  0
MTEXT
  5
190
330
E3
100
AcDbEntity
  8
0
  6
Continuous
100
AcDbMText
 10
189.5343258722474
 20
45.99637875386539
 30
0.0
 40
2.499999999999999
 41
0.0
 71
     8
 72
     1
  1
{150MM}
  7
GENERATED_STYLE_1
 73
     1
 44
1.0
  0
MTEXT
  5
191
330
E3
100
AcDbEntity
  8
0
  6
Continuous
100
AcDbMText
 10
189.5343258722474
 20
34.75759923240764
 30
0.0
 40
2.499999999999999
 41
0.0
 71
     8
 72
     1
  1
{200MM}
  7
GENERATED_STYLE_1
 73
     1
 44
1.0
  0
MTEXT
  5
192
330
E3
100
AcDbEntity
  8
0
  6
Continuous
100
AcDbMText
 10
189.5343258722474
 20
55.87843970067765
 30
0.0
 40
2.499999999999999
 41
0.0
 71
     8
 72
     1
  1
{B}
  7
GENERATED_STYLE_1
 73
     1
 44
1.0
  0
HATCH
  5
193
330
E3
100
AcDbEntity
  8
0
  6
Continuous
 62
   255
370
     0
100
AcDbHatch
 10
0.0
 20
0.0
 30
0.0
210
0.0
220
0.0
230
1.0
  2
SOLID
 70
     1
 71
     0
 91
        1
 92
        3
 72
     0
 73
     1
 93
        4
 10
151.5446644403599
 20
137.9658457991024
 10
151.6314885291934
 20
137.4734419225963
 10
153.1087001587117
 20
137.7339141890967
 10
153.0218760698782
 20
138.2263180656028
 97
        0
 75
     0
 76
     1
 98
        0
  0
HATCH
  5
194
330
E3
100
AcDbEntity
  8
0
  6
Continuous
 62
   255
370
     0
100
AcDbHatch
 10
0.0
 20
0.0
 30
0.0
210
0.0
220
0.0
230
1.0
  2
SOLID
 70
     1
 71
     0
 91
        1
 92
        3
 72
     1
 73
     1
 93
        4
 10
151.8053370600852
 20
137.9271905307681
 42
0.0
 10
151.8632197859742
 20
137.5989212797641
 42
0.1666666666666667
 10
152.8480275389864
 20
137.772569457431
 42
0.0
 10
152.7901448130974
 20
138.1008387084351
 42
0.1666666666666667
 97
        0
 75
     0
 76
     1
 98
        0
  0
LINE
  5
195
330
E3
100
AcDbEntity
  8
0
  6
Continuous
100
AcDbLine
 10
151.8632209545971
 20
137.5989205614436
 30
0.0
 11
151.8053378279285
 21
137.9271915738785
 31
0.0
  0
ARC
  5
196
330
E3
100
AcDbEntity
  8
0
  6
Continuous
100
AcDbCircle
 10
152.1023867367159
 20
139.1219233417403
 30
0.0
 40
1.54166666666667
100
AcDbArc
 50
261.0753555839509
 51
298.924644416053
  0
LINE
  5
197
330
E3
100
AcDbEntity
  8
0
  6
Continuous
100
AcDbLine
 10
152.7901440865558
 20
138.1008375645457
 30
0.0
 11
152.8480272132245
 21
137.7725699414495
 31
0.0
  0
ARC
  5
198
330
E3
100
AcDbEntity
  8
0
  6
Continuous
100
AcDbCircle
 10
152.5509778623556
 20
136.5778366464589
 30
0.0
 40
1.541666666666588
100
AcDbArc
 50
81.07535558395035
 51
118.9246444160536
  0
HATCH
  5
199
330
E3
100
AcDbEntity
  8
0
  6
Continuous
 62
   255
370
     0
100
AcDbHatch
 10
0.0
 20
0.0
 30
0.0
210
0.0
220
0.0
230
1.0
  2
SOLID
 70
     1
 71
     0
 91
        1
 92
        3
 72
     1
 73
     1
 93
        4
 10
151.3129331835791
 20
137.8403664419346
 42
0.0
 10
151.3708159094681
 20
137.5120971909306
 42
0.3333333333333333
 10
151.8632197859742
 20
137.5989212797641
 42
0.0
 10
151.8053370600852
 20
137.9271905307681
 42
0.3333333333333333
 97
        0
 75
     0
 76
     1
 98
        0
  0
LINE
  5
19A
330
E3
100
AcDbEntity
  8
0
  6
Continuous
100
AcDbLine
 10
151.3708144359447
 20
137.5120958714406
 30
0.0
 11
151.3129346986148
 21
137.8403668838756
 31
0.0
  0
ARC
  5
19B
330
E3
100
AcDbEntity
  8
0
  6
Continuous
100
AcDbCircle
 10
151.5591351218321
 20
137.8837784863514
 30
0.0
 40
0.416666666666645
100
AcDbArc
 50
243.1301023541563
 51
316.8698976458447
  0
LINE
  5
19C
330
E3
100
AcDbEntity
  8
0
  6
Continuous
100
AcDbLine
 10
151.8053378279285
 20
137.9271915738785
 30
0.0
 11
151.8632209545971
 21
137.5989205614436
 31
0.0
  0
ARC
  5
19D
330
E3
100
AcDbEntity
  8
0
  6
Continuous
100
AcDbCircle
 10
151.6170178477211
 20
137.5555092353473
 30
0.0
 40
0.4166666666666698
100
AcDbArc
 50
63.13010235415805
 51
136.8698976458473
  0
HATCH
  5
19E
330
E3
100
AcDbEntity
  8
0
  6
Continuous
 62
   255
370
     0
100
AcDbHatch
 10
0.0
 20
0.0
 30
0.0
210
0.0
220
0.0
230
1.0
  2
SOLID
 70
     1
 71
     0
 91
        1
 92
        3
 72
     1
 73
     1
 93
        4
 10
153.2825486896035
 20
138.1876627972685
 42
0.3333333333333333
 10
152.7901448130974
 20
138.1008387084351
 42
0.0
 10
152.8480275389864
 20
137.772569457431
 42
0.3333333333333333
 10
153.3404314154925
 20
137.8593935462645
 42
0.0
 97
        0
 75
     0
 76
     1
 98
        0
  0
ARC
  5
19F
330
E3
100
AcDbEntity
  8
0
  6
Continuous
100
AcDbCircle
 10
153.0942294772395
 20
137.8159815018477
 30
0.0
 40
0.416666666666645
100
AcDbArc
 50
63.13010235415634
 51
136.8698976458473
  0
LINE
  5
1A0
330
E3
100
AcDbEntity
  8
0
  6
Continuous
100
AcDbLine
 10
152.7901440865558
 20
138.1008375645457
 30
0.0
 11
152.8480272132245
 21
137.7725699414495
 31
0.0
  0
ARC
  5
1A1
330
E3
100
AcDbEntity
  8
0
  6
Continuous
100
AcDbCircle
 10
153.0363467513504
 20
138.1442507528518
 30
0.0
 40
0.4166666666666698
100
AcDbArc
 50
243.1301023541581
 51
316.8698976458447
  0
LINE
  5
1A2
330
E3
100
AcDbEntity
  8
0
  6
Continuous
100
AcDbLine
 10
153.3404303425381
 20
137.8593946314524
 30
0.0
 11
153.2825472158695
 21
138.1876622545486
 31
0.0
  0
HATCH
  5
1A3
330
E3
100
AcDbEntity
  8
0
  6
Continuous
 62
   255
370
     0
100
AcDbHatch
 10
0.0
 20
0.0
 30
0.0
210
0.0
220
0.0
230
1.0
  2
SOLID
 70
     1
 71
     0
 91
        1
 92
        3
 72
     0
 73
     1
 93
        4
 10
152.6983632666874
 20
137.6615607238528
 10
152.0418254212177
 20
137.5457953878403
 10
152.3196625054848
 20
135.9701029830207
 10
152.9762003509544
 20
136.0858683190332
 97
        0
 75
     0
 76
     1
 98
        0
  0
LINE
  5
1A4
330
E3
100
AcDbEntity
  8
0
  6
Continuous
100
AcDbLine
 10
152.0418255478124
 20
137.5457960663385
 30
0.0
 11
152.6983641833435
 21
137.6615623196758
 31
0.0
  0
LINE
  5
1A5
330
E3
100
AcDbEntity
  8
0
  6
Continuous
100
AcDbLine
 10
152.3196632000863
 20
135.970102663196
 30
0.0
 11
152.0418255478124
 21
137.5457960663385
 31
0.0
  0
LINE
  5
1A6
330
E3
100
AcDbEntity
  8
0
  6
Continuous
100
AcDbLine
 10
152.9762018356175
 20
136.0858689165333
 30
0.0
 11
152.3196632000863
 21
135.970102663196
 31
0.0
  0
LINE
  5
1A7
330
E3
100
AcDbEntity
  8
0
  6
Continuous
100
AcDbLine
 10
152.6983641833435
 20
137.6615623196758
 30
0.0
 11
152.9762018356175
 21
136.0858689165333
 31
0.0
  0
HATCH
  5
1A8
330
E3
100
AcDbEntity
  8
0
  6
Continuous
 62
   255
370
     0
100
AcDbHatch
 10
0.0
 20
0.0
 30
0.0
210
0.0
220
0.0
230
1.0
  2
SOLID
 70
     1
 71
     0
 91
        1
 92
        3
 72
     0
 73
     1
 93
        5
 10
152.9433737541233
 20
136.080080104327
 10
152.352489102316
 20
135.9758911977269
 10
154.505726505386
 20
123.7642750603755
 10
154.9053577378897
 20
123.2254848618683
 10
155.0966111571933
 20
123.8684639669757
 97
        0
 75
     0
 76
     1
 98
        0
  0
LINE
  5
1A9
330
E3
100
AcDbEntity
  8
0
  6
Continuous
100
AcDbLine
 10
152.3524889455943
 20
135.9758916537306
 30
0.0
 11
152.9433727007707
 21
136.0800799259987
 31
0.0
  0
LINE
  5
1AA
330
E3
100
AcDbEntity
  8
0
  6
Continuous
100
AcDbLine
 10
154.5057256667094
 20
123.7642737107189
 30
0.0
 11
152.3524889455943
 21
135.9758916537306
 31
0.0
  0
LINE
  5
1AB
330
E3
100
AcDbEntity
  8
0
  6
Continuous
100
AcDbLine
 10
154.9053592059044
 20
123.2254840916765
 30
0.0
 11
154.5057256667094
 21
123.7642737107189
 31
0.0
  0
LINE
  5
1AC
330
E3
100
AcDbEntity
  8
0
  6
Continuous
100
AcDbLine
 10
155.0966128112245
 20
123.8684653723257
 30
0.0
 11
154.9053592059044
 21
123.2254840916765
 31
0.0
  0
LINE
  5
1AD
330
E3
100
AcDbEntity
  8
0
  6
Continuous
100
AcDbLine
 10
152.9433727007707
 20
136.0800799259987
 30
0.0
 11
155.0966128112245
 21
123.8684653723257
 31
0.0
  0
LINE
  5
1AE
330
E3
100
AcDbEntity
  8
0
  6
Continuous
100
AcDbLine
 10
151.5446637869351
 20
137.9658469819857
 30
0.0
 11
153.0218765642149
 21
138.2263176626559
 31
0.0
  0
LINE
  5
1AF
330
E3
100
AcDbEntity
  8
0
  6
Continuous
100
AcDbLine
 10
153.1087012542178
 20
137.7339145333422
 30
0.0
 11
151.631488476938
 21
137.4734404633333
 31
0.0
  0
LINE
  5
1B0
330
E3
100
AcDbEntity
  8
0
  6
Continuous
100
AcDbLine
 10
153.1403353047257
 20
136.1148097398604
 30
0.0
 11
153.139411654563
 21
136.1090910900816
 31
0.0
  0
LINE
  5
1B1
330
E3
100
AcDbEntity
  8
0
  6
Continuous
100
AcDbLine
 10
153.139411654563
 20
136.1090910900816
 30
0.0
 11
153.1347547739124
 21
136.1027141710426
 31
0.0
  0
LINE
  5
1B2
330
E3
100
AcDbEntity
  8
0
  6
Continuous
100
AcDbLine
 10
153.1347547739124
 20
136.1027141710426
 30
0.0
 11
153.1264071596937
 21
136.0956878308065
 31
0.0
  0
LINE
  5
1B3
330
E3
100
AcDbEntity
  8
0
  6
Continuous
100
AcDbLine
 10
153.1264071596937
 20
136.0956878308065
 30
0.0
 11
153.1144394046716
 21
136.0880211466208
 31
0.0
  0
LINE
  5
1B4
330
E3
100
AcDbEntity
  8
0
  6
Continuous
100
AcDbLine
 10
153.1144394046716
 20
136.0880211466208
 30
0.0
 11
153.098950126719
 21
136.0797342134491
 31
0.0
  0
LINE
  5
1B5
330
E3
100
AcDbEntity
  8
0
  6
Continuous
100
AcDbLine
 10
153.098950126719
 20
136.0797342134491
 30
0.0
 11
153.0800647313683
 21
136.070847367324
 31
0.0
  0
LINE
  5
1B6
330
E3
100
AcDbEntity
  8
0
  6
Continuous
100
AcDbLine
 10
153.0800647313683
 20
136.070847367324
 30
0.0
 11
153.0579357388622
 21
136.0613911122938
 31
0.0
  0
LINE
  5
1B7
330
E3
100
AcDbEntity
  8
0
  6
Continuous
100
AcDbLine
 10
153.0579357388622
 20
136.0613911122938
 30
0.0
 11
153.0327360054754
 21
136.0513891737297
 31
0.0
  0
LINE
  5
1B8
330
E3
100
AcDbEntity
  8
0
  6
Continuous
100
AcDbLine
 10
153.0327360054754
 20
136.0513891737297
 30
0.0
 11
153.0046655021922
 21
136.0408856130348
 31
0.0
  0
LINE
  5
1B9
330
E3
100
AcDbEntity
  8
0
  6
Continuous
100
AcDbLine
 10
153.0046655021922
 20
136.0408856130348
 30
0.0
 11
152.9739445360296
 21
136.0299109342579
 31
0.0
  0
LINE
  5
1BA
330
E3
100
AcDbEntity
  8
0
  6
Continuous
100
AcDbLine
 10
152.9739445360296
 20
136.0299109342579
 30
0.0
 11
152.9408137500368
 21
136.0185159774796
 31
0.0
  0
LINE
  5
1BB
330
E3
100
AcDbEntity
  8
0
  6
Continuous
100
AcDbLine
 10
152.9408137500368
 20
136.0185159774796
 30
0.0
 11
152.9055341232951
 21
136.0067380254258
 31
0.0
  0
LINE
  5
1BC
330
E3
100
AcDbEntity
  8
0
  6
Continuous
100
AcDbLine
 10
152.9055341232951
 20
136.0067380254258
 30
0.0
 11
152.8683801922411
 21
135.9946313075162
 31
0.0
  0
LINE
  5
1BD
330
E3
100
AcDbEntity
  8
0
  6
Continuous
100
AcDbLine
 10
152.8683801922411
 20
135.9946313075162
 30
0.0
 11
152.8296434400045
 21
135.9822466638315
 31
0.0
  0
LINE
  5
1BE
330
E3
100
AcDbEntity
  8
0
  6
Continuous
100
AcDbLine
 10
152.8296434400045
 20
135.9822466638315
 30
0.0
 11
152.7896255177316
 21
135.9696349344526
 31
0.0
  0
LINE
  5
1BF
330
E3
100
AcDbEntity
  8
0
  6
Continuous
100
AcDbLine
 10
152.7896255177316
 20
135.9696349344526
 30
0.0
 11
152.7486382445846
 21
135.9568503487988
 31
0.0
  0
LINE
  5
1C0
330
E3
100
AcDbEntity
  8
0
  6
Continuous
100
AcDbLine
 10
152.7486382445846
 20
135.9568503487988
 30
0.0
 11
152.7070002184033
 21
135.9439539149674
 31
0.0
  0
LINE
  5
1C1
330
E3
100
AcDbEntity
  8
0
  6
Continuous
100
AcDbLine
 10
152.7070002184033
 20
135.9439539149674
 30
0.0
 11
152.6650334263661
 21
135.9309964730389
 31
0.0
  0
LINE
  5
1C2
330
E3
100
AcDbEntity
  8
0
  6
Continuous
100
AcDbLine
 10
152.6650334263661
 20
135.9309964730389
 30
0.0
 11
152.623066634329
 21
135.9180424204492
 31
0.0
  0
LINE
  5
1C3
330
E3
100
AcDbEntity
  8
0
  6
Continuous
100
AcDbLine
 10
152.623066634329
 20
135.9180424204492
 30
0.0
 11
152.5814286081477
 21
135.905142597279
 31
0.0
  0
LINE
  5
1C4
330
E3
100
AcDbEntity
  8
0
  6
Continuous
100
AcDbLine
 10
152.5814286081477
 20
135.905142597279
 30
0.0
 11
152.5404413350007
 21
135.892361400964
 31
0.0
  0
LINE
  5
1C5
330
E3
100
AcDbEntity
  8
0
  6
Continuous
100
AcDbLine
 10
152.5404413350007
 20
135.892361400964
 30
0.0
 11
152.5004200233891
 21
135.879749671585
 31
0.0
  0
LINE
  5
1C6
330
E3
100
AcDbEntity
  8
0
  6
Continuous
100
AcDbLine
 10
152.5004200233891
 20
135.879749671585
 30
0.0
 11
152.4616832711526
 21
135.8673616385616
 31
0.0
  0
LINE
  5
1C7
330
E3
100
AcDbEntity
  8
0
  6
Continuous
100
AcDbLine
 10
152.4616832711526
 20
135.8673616385616
 30
0.0
 11
152.4245327294372
 21
135.855254920652
 31
0.0
  0
LINE
  5
1C8
330
E3
100
AcDbEntity
  8
0
  6
Continuous
100
AcDbLine
 10
152.4245327294372
 20
135.855254920652
 30
0.0
 11
152.3892531026955
 21
135.843480357937
 31
0.0
  0
LINE
  5
1C9
330
E3
100
AcDbEntity
  8
0
  6
Continuous
100
AcDbLine
 10
152.3892531026955
 20
135.843480357937
 30
0.0
 11
152.3561223167027
 21
135.8320820118199
 31
0.0
  0
LINE
  5
1CA
330
E3
100
AcDbEntity
  8
0
  6
Continuous
100
AcDbLine
 10
152.3561223167027
 20
135.8320820118199
 30
0.0
 11
152.3254013505401
 21
135.821107333043
 31
0.0
  0
LINE
  5
1CB
330
E3
100
AcDbEntity
  8
0
  6
Continuous
100
AcDbLine
 10
152.3254013505401
 20
135.821107333043
 30
0.0
 11
152.297330847257
 21
135.8106037723482
 31
0.0
  0
LINE
  5
1CC
330
E3
100
AcDbEntity
  8
0
  6
Continuous
100
AcDbLine
 10
152.297330847257
 20
135.8106037723482
 30
0.0
 11
152.27213111387
 21
135.8006052231227
 31
0.0
  0
LINE
  5
1CD
330
E3
100
AcDbEntity
  8
0
  6
Continuous
100
AcDbLine
 10
152.27213111387
 20
135.8006052231227
 30
0.0
 11
152.2499987320252
 21
135.7911455787538
 31
0.0
  0
LINE
  5
1CE
330
E3
100
AcDbEntity
  8
0
  6
Continuous
100
AcDbLine
 10
152.2499987320252
 20
135.7911455787538
 30
0.0
 11
152.2311133366747
 21
135.7822587326287
 31
0.0
  0
LINE
  5
1CF
330
E3
100
AcDbEntity
  8
0
  6
Continuous
100
AcDbLine
 10
152.2311133366747
 20
135.7822587326287
 30
0.0
 11
152.2156274480607
 21
135.7739717994571
 31
0.0
  0
LINE
  5
1D0
330
E3
100
AcDbEntity
  8
0
  6
Continuous
100
AcDbLine
 10
152.2156274480607
 20
135.7739717994571
 30
0.0
 11
152.2036596930386
 21
135.76630850461
 31
0.0
  0
LINE
  5
1D1
330
E3
100
AcDbEntity
  8
0
  6
Continuous
100
AcDbLine
 10
152.2036596930386
 20
135.76630850461
 30
0.0
 11
152.19531175177
 21
135.7592790161037
 31
0.0
  0
LINE
  5
1D2
330
E3
100
AcDbEntity
  8
0
  6
Continuous
100
AcDbLine
 10
152.19531175177
 20
135.7592790161037
 30
0.0
 11
152.1906546308106
 21
135.7529029272881
 31
0.0
  0
LINE
  5
1D3
330
E3
100
AcDbEntity
  8
0
  6
Continuous
100
AcDbLine
 10
152.1906546308106
 20
135.7529029272881
 30
0.0
 11
152.1897309806479
 21
135.7471842775093
 31
0.0
  0
LINE
  5
1D4
330
E3
100
AcDbEntity
  8
0
  6
Continuous
100
AcDbLine
 10
153.2087421625945
 20
135.726855170492
 30
0.0
 11
153.2078185124318
 21
135.7211365207132
 31
0.0
  0
LINE
  5
1D5
330
E3
100
AcDbEntity
  8
0
  6
Continuous
100
AcDbLine
 10
153.2078185124318
 20
135.7211365207132
 30
0.0
 11
153.2031616317813
 21
135.7147596016742
 31
0.0
  0
LINE
  5
1D6
330
E3
100
AcDbEntity
  8
0
  6
Continuous
100
AcDbLine
 10
153.2031616317813
 20
135.7147596016742
 30
0.0
 11
153.1948141830894
 21
135.7077305635036
 31
0.0
  0
LINE
  5
1D7
330
E3
100
AcDbEntity
  8
0
  6
Continuous
100
AcDbLine
 10
153.1948141830894
 20
135.7077305635036
 30
0.0
 11
153.1828464280674
 21
135.7000672686566
 31
0.0
  0
LINE
  5
1D8
330
E3
100
AcDbEntity
  8
0
  6
Continuous
100
AcDbLine
 10
153.1828464280674
 20
135.7000672686566
 30
0.0
 11
153.1673571501147
 21
135.691780335485
 31
0.0
  0
LINE
  5
1D9
330
E3
100
AcDbEntity
  8
0
  6
Continuous
100
AcDbLine
 10
153.1673571501147
 20
135.691780335485
 30
0.0
 11
153.1484717547642
 21
135.6828934893599
 31
0.0
  0
LINE
  5
1DA
330
E3
100
AcDbEntity
  8
0
  6
Continuous
100
AcDbLine
 10
153.1484717547642
 20
135.6828934893599
 30
0.0
 11
153.126342762258
 21
135.673433844991
 31
0.0
  0
LINE
  5
1DB
330
E3
100
AcDbEntity
  8
0
  6
Continuous
100
AcDbLine
 10
153.126342762258
 20
135.673433844991
 30
0.0
 11
153.1011430288711
 21
135.6634352957655
 31
0.0
  0
LINE
  5
1DC
330
E3
100
AcDbEntity
  8
0
  6
Continuous
100
AcDbLine
 10
153.1011430288711
 20
135.6634352957655
 30
0.0
 11
153.073072525588
 21
135.6529317350707
 31
0.0
  0
LINE
  5
1DD
330
E3
100
AcDbEntity
  8
0
  6
Continuous
100
AcDbLine
 10
153.073072525588
 20
135.6529317350707
 30
0.0
 11
153.0423515594254
 21
135.6419570562937
 31
0.0
  0
LINE
  5
1DE
330
E3
100
AcDbEntity
  8
0
  6
Continuous
100
AcDbLine
 10
153.0423515594254
 20
135.6419570562937
 30
0.0
 11
153.0092207734325
 21
135.6305620995154
 31
0.0
  0
LINE
  5
1DF
330
E3
100
AcDbEntity
  8
0
  6
Continuous
100
AcDbLine
 10
153.0092207734325
 20
135.6305620995154
 30
0.0
 11
152.9739411466909
 21
135.6187841474617
 31
0.0
  0
LINE
  5
1E0
330
E3
100
AcDbEntity
  8
0
  6
Continuous
100
AcDbLine
 10
152.9739411466909
 20
135.6187841474617
 30
0.0
 11
152.9367872156368
 21
135.6066774295521
 31
0.0
  0
LINE
  5
1E1
330
E3
100
AcDbEntity
  8
0
  6
Continuous
100
AcDbLine
 10
152.9367872156368
 20
135.6066774295521
 30
0.0
 11
152.8980504634003
 21
135.5942893965286
 31
0.0
  0
LINE
  5
1E2
330
E3
100
AcDbEntity
  8
0
  6
Continuous
100
AcDbLine
 10
152.8980504634003
 20
135.5942893965286
 30
0.0
 11
152.8580325411273
 21
135.5816776671497
 31
0.0
  0
LINE
  5
1E3
330
E3
100
AcDbEntity
  8
0
  6
Continuous
100
AcDbLine
 10
152.8580325411273
 20
135.5816776671497
 30
0.0
 11
152.8170452679804
 21
135.5688964708347
 31
0.0
  0
LINE
  5
1E4
330
E3
100
AcDbEntity
  8
0
  6
Continuous
100
AcDbLine
 10
152.8170452679804
 20
135.5688964708347
 30
0.0
 11
152.7754072417991
 21
135.5559966476645
 31
0.0
  0
LINE
  5
1E5
330
E3
100
AcDbEntity
  8
0
  6
Continuous
100
AcDbLine
 10
152.7754072417991
 20
135.5559966476645
 30
0.0
 11
152.733440449762
 21
135.5430425950748
 31
0.0
  0
LINE
  5
1E6
330
E3
100
AcDbEntity
  8
0
  6
Continuous
100
AcDbLine
 10
152.733440449762
 20
135.5430425950748
 30
0.0
 11
152.6914736577247
 21
135.530088542485
 31
0.0
  0
LINE
  5
1E7
330
E3
100
AcDbEntity
  8
0
  6
Continuous
100
AcDbLine
 10
152.6914736577247
 20
135.530088542485
 30
0.0
 11
152.6498356315435
 21
135.5171887193148
 31
0.0
  0
LINE
  5
1E8
330
E3
100
AcDbEntity
  8
0
  6
Continuous
100
AcDbLine
 10
152.6498356315435
 20
135.5171887193148
 30
0.0
 11
152.6088483583965
 21
135.5044075229998
 31
0.0
  0
LINE
  5
1E9
330
E3
100
AcDbEntity
  8
0
  6
Continuous
100
AcDbLine
 10
152.6088483583965
 20
135.5044075229998
 30
0.0
 11
152.5688270467849
 21
135.4917924042821
 31
0.0
  0
LINE
  5
1EA
330
E3
100
AcDbEntity
  8
0
  6
Continuous
100
AcDbLine
 10
152.5688270467849
 20
135.4917924042821
 30
0.0
 11
152.5300902945483
 21
135.4794077605974
 31
0.0
  0
LINE
  5
1EB
330
E3
100
AcDbEntity
  8
0
  6
Continuous
100
AcDbLine
 10
152.5300902945483
 20
135.4794077605974
 30
0.0
 11
152.492939752833
 21
135.4673010426878
 31
0.0
  0
LINE
  5
1EC
330
E3
100
AcDbEntity
  8
0
  6
Continuous
100
AcDbLine
 10
152.492939752833
 20
135.4673010426878
 30
0.0
 11
152.4576601260913
 21
135.4555230906341
 31
0.0
  0
LINE
  5
1ED
330
E3
100
AcDbEntity
  8
0
  6
Continuous
100
AcDbLine
 10
152.4576601260913
 20
135.4555230906341
 30
0.0
 11
152.4245293400985
 21
135.4441281338558
 31
0.0
  0
LINE
  5
1EE
330
E3
100
AcDbEntity
  8
0
  6
Continuous
100
AcDbLine
 10
152.4245293400985
 20
135.4441281338558
 30
0.0
 11
152.3938083739359
 21
135.4331534550788
 31
0.0
  0
LINE
  5
1EF
330
E3
100
AcDbEntity
  8
0
  6
Continuous
100
AcDbLine
 10
152.3938083739359
 20
135.4331534550788
 30
0.0
 11
152.3657378706528
 21
135.422649894384
 31
0.0
  0
LINE
  5
1F0
330
E3
100
AcDbEntity
  8
0
  6
Continuous
100
AcDbLine
 10
152.3657378706528
 20
135.422649894384
 30
0.0
 11
152.3405381372659
 21
135.4126479558198
 31
0.0
  0
LINE
  5
1F1
330
E3
100
AcDbEntity
  8
0
  6
Continuous
100
AcDbLine
 10
152.3405381372659
 20
135.4126479558198
 30
0.0
 11
152.318405755421
 21
135.4031917007896
 31
0.0
  0
LINE
  5
1F2
330
E3
100
AcDbEntity
  8
0
  6
Continuous
100
AcDbLine
 10
152.318405755421
 20
135.4031917007896
 30
0.0
 11
152.2995203600704
 21
135.3943048546645
 31
0.0
  0
LINE
  5
1F3
330
E3
100
AcDbEntity
  8
0
  6
Continuous
100
AcDbLine
 10
152.2995203600704
 20
135.3943048546645
 30
0.0
 11
152.2840344714565
 21
135.3860179214929
 31
0.0
  0
LINE
  5
1F4
330
E3
100
AcDbEntity
  8
0
  6
Continuous
100
AcDbLine
 10
152.2840344714565
 20
135.3860179214929
 30
0.0
 11
152.2720667164344
 21
135.3783546266459
 31
0.0
  0
LINE
  5
1F5
330
E3
100
AcDbEntity
  8
0
  6
Continuous
100
AcDbLine
 10
152.2720667164344
 20
135.3783546266459
 30
0.0
 11
152.2637187751658
 21
135.3713251381396
 31
0.0
  0
LINE
  5
1F6
330
E3
100
AcDbEntity
  8
0
  6
Continuous
100
AcDbLine
 10
152.2637187751658
 20
135.3713251381396
 30
0.0
 11
152.2590614886794
 21
135.3649483579197
 31
0.0
  0
LINE
  5
1F7
330
E3
100
AcDbEntity
  8
0
  6
Continuous
100
AcDbLine
 10
152.2590614886794
 20
135.3649483579197
 30
0.0
 11
152.2581378385167
 21
135.3592297081408
 31
0.0
  0
LINE
  5
1F8
330
E3
100
AcDbEntity
  8
0
  6
Continuous
100
AcDbLine
 10
153.2771490204633
 20
135.3389006011236
 30
0.0
 11
153.2762253703006
 21
135.3331819513448
 31
0.0
  0
LINE
  5
1F9
330
E3
100
AcDbEntity
  8
0
  6
Continuous
100
AcDbLine
 10
153.2762253703006
 20
135.3331819513448
 30
0.0
 11
153.27156848965
 21
135.3268050323057
 31
0.0
  0
LINE
  5
1FA
330
E3
100
AcDbEntity
  8
0
  6
Continuous
100
AcDbLine
 10
153.27156848965
 20
135.3268050323057
 30
0.0
 11
153.2632212064852
 21
135.3197766855395
 31
0.0
  0
LINE
  5
1FB
330
E3
100
AcDbEntity
  8
0
  6
Continuous
100
AcDbLine
 10
153.2632212064852
 20
135.3197766855395
 30
0.0
 11
153.2512534514632
 21
135.3121100013538
 31
0.0
  0
LINE
  5
1FC
330
E3
100
AcDbEntity
  8
0
  6
Continuous
100
AcDbLine
 10
153.2512534514632
 20
135.3121100013538
 30
0.0
 11
153.2357641735105
 21
135.3038230681821
 31
0.0
  0
LINE
  5
1FD
330
E3
100
AcDbEntity
  8
0
  6
Continuous
100
AcDbLine
 10
153.2357641735105
 20
135.3038230681821
 30
0.0
 11
153.2168787781599
 21
135.2949396113957
 31
0.0
  0
LINE
  5
1FE
330
E3
100
AcDbEntity
  8
0
  6
Continuous
100
AcDbLine
 10
153.2168787781599
 20
135.2949396113957
 30
0.0
 11
153.1947497856538
 21
135.2854799670268
 31
0.0
  0
LINE
  5
1FF
330
E3
100
AcDbEntity
  8
0
  6
Continuous
100
AcDbLine
 10
153.1947497856538
 20
135.2854799670268
 30
0.0
 11
153.1695500522669
 21
135.2754814178014
 31
0.0
  0
LINE
  5
200
330
E3
100
AcDbEntity
  8
0
  6
Continuous
100
AcDbLine
 10
153.1695500522669
 20
135.2754814178014
 30
0.0
 11
153.1414795489837
 21
135.2649744677678
 31
0.0
  0
LINE
  5
201
330
E3
100
AcDbEntity
  8
0
  6
Continuous
100
AcDbLine
 10
153.1414795489837
 20
135.2649744677678
 30
0.0
 11
153.1107585828211
 21
135.2540031783296
 31
0.0
  0
LINE
  5
202
330
E3
100
AcDbEntity
  8
0
  6
Continuous
100
AcDbLine
 10
153.1107585828211
 20
135.2540031783296
 30
0.0
 11
153.0776277968283
 21
135.2426048322125
 31
0.0
  0
LINE
  5
203
330
E3
100
AcDbEntity
  8
0
  6
Continuous
100
AcDbLine
 10
153.0776277968283
 20
135.2426048322125
 30
0.0
 11
153.0423481700867
 21
135.2308302694975
 31
0.0
  0
LINE
  5
204
330
E3
100
AcDbEntity
  8
0
  6
Continuous
100
AcDbLine
 10
153.0423481700867
 20
135.2308302694975
 30
0.0
 11
153.0051942390326
 21
135.2187235515879
 31
0.0
  0
LINE
  5
205
330
E3
100
AcDbEntity
  8
0
  6
Continuous
100
AcDbLine
 10
153.0051942390326
 20
135.2187235515879
 30
0.0
 11
152.9664574867961
 21
135.2063355185645
 31
0.0
  0
LINE
  5
206
330
E3
100
AcDbEntity
  8
0
  6
Continuous
100
AcDbLine
 10
152.9664574867961
 20
135.2063355185645
 30
0.0
 11
152.9264395645232
 21
135.1937237891855
 31
0.0
  0
LINE
  5
207
330
E3
100
AcDbEntity
  8
0
  6
Continuous
100
AcDbLine
 10
152.9264395645232
 20
135.1937237891855
 30
0.0
 11
152.8854522913762
 21
135.1809425928705
 31
0.0
  0
LINE
  5
208
330
E3
100
AcDbEntity
  8
0
  6
Continuous
100
AcDbLine
 10
152.8854522913762
 20
135.1809425928705
 30
0.0
 11
152.8438142651949
 21
135.1680427697003
 31
0.0
  0
LINE
  5
209
330
E3
100
AcDbEntity
  8
0
  6
Continuous
100
AcDbLine
 10
152.8438142651949
 20
135.1680427697003
 30
0.0
 11
152.8018474731577
 21
135.1550887171106
 31
0.0
  0
LINE
  5
20A
330
E3
100
AcDbEntity
  8
0
  6
Continuous
100
AcDbLine
 10
152.8018474731577
 20
135.1550887171106
 30
0.0
 11
152.7598806811205
 21
135.1421312751822
 31
0.0
  0
LINE
  5
20B
330
E3
100
AcDbEntity
  8
0
  6
Continuous
100
AcDbLine
 10
152.7598806811205
 20
135.1421312751822
 30
0.0
 11
152.7182426549392
 21
135.1292348413507
 31
0.0
  0
LINE
  5
20C
330
E3
100
AcDbEntity
  8
0
  6
Continuous
100
AcDbLine
 10
152.7182426549392
 20
135.1292348413507
 30
0.0
 11
152.6772519924536
 21
135.116450255697
 31
0.0
  0
LINE
  5
20D
330
E3
100
AcDbEntity
  8
0
  6
Continuous
100
AcDbLine
 10
152.6772519924536
 20
135.116450255697
 30
0.0
 11
152.6372340701807
 21
135.103838526318
 31
0.0
  0
LINE
  5
20E
330
E3
100
AcDbEntity
  8
0
  6
Continuous
100
AcDbLine
 10
152.6372340701807
 20
135.103838526318
 30
0.0
 11
152.5984973179441
 21
135.0914538826333
 31
0.0
  0
LINE
  5
20F
330
E3
100
AcDbEntity
  8
0
  6
Continuous
100
AcDbLine
 10
152.5984973179441
 20
135.0914538826333
 30
0.0
 11
152.5613467762287
 21
135.0793471647237
 31
0.0
  0
LINE
  5
210
330
E3
100
AcDbEntity
  8
0
  6
Continuous
100
AcDbLine
 10
152.5613467762287
 20
135.0793471647237
 30
0.0
 11
152.5260671494871
 21
135.0675692126699
 31
0.0
  0
LINE
  5
211
330
E3
100
AcDbEntity
  8
0
  6
Continuous
100
AcDbLine
 10
152.5260671494871
 20
135.0675692126699
 30
0.0
 11
152.4929363634943
 21
135.0561708665529
 31
0.0
  0
LINE
  5
212
330
E3
100
AcDbEntity
  8
0
  6
Continuous
100
AcDbLine
 10
152.4929363634943
 20
135.0561708665529
 30
0.0
 11
152.4622153973317
 21
135.0451995771147
 31
0.0
  0
LINE
  5
213
330
E3
100
AcDbEntity
  8
0
  6
Continuous
100
AcDbLine
 10
152.4622153973317
 20
135.0451995771147
 30
0.0
 11
152.4341448940485
 21
135.0346926270811
 31
0.0
  0
LINE
  5
214
330
E3
100
AcDbEntity
  8
0
  6
Continuous
100
AcDbLine
 10
152.4341448940485
 20
135.0346926270811
 30
0.0
 11
152.4089451606616
 21
135.0246940778557
 31
0.0
  0
LINE
  5
215
330
E3
100
AcDbEntity
  8
0
  6
Continuous
100
AcDbLine
 10
152.4089451606616
 20
135.0246940778557
 30
0.0
 11
152.3868127788168
 21
135.0152378228255
 31
0.0
  0
LINE
  5
216
330
E3
100
AcDbEntity
  8
0
  6
Continuous
100
AcDbLine
 10
152.3868127788168
 20
135.0152378228255
 30
0.0
 11
152.3679273834662
 21
135.0063509767004
 31
0.0
  0
LINE
  5
217
330
E3
100
AcDbEntity
  8
0
  6
Continuous
100
AcDbLine
 10
152.3679273834662
 20
135.0063509767004
 30
0.0
 11
152.3524414948522
 21
134.9980640435287
 31
0.0
  0
LINE
  5
218
330
E3
100
AcDbEntity
  8
0
  6
Continuous
100
AcDbLine
 10
152.3524414948522
 20
134.9980640435287
 30
0.0
 11
152.3404737398302
 21
134.990397359343
 31
0.0
  0
LINE
  5
219
330
E3
100
AcDbEntity
  8
0
  6
Continuous
100
AcDbLine
 10
152.3404737398302
 20
134.990397359343
 30
0.0
 11
152.3321257985616
 21
134.9833712601754
 31
0.0
  0
LINE
  5
21A
330
E3
100
AcDbEntity
  8
0
  6
Continuous
100
AcDbLine
 10
152.3321257985616
 20
134.9833712601754
 30
0.0
 11
152.3274683465482
 21
134.9769937885512
 31
0.0
  0
LINE
  5
21B
330
E3
100
AcDbEntity
  8
0
  6
Continuous
100
AcDbLine
 10
152.3274683465482
 20
134.9769937885512
 30
0.0
 11
152.3265446963855
 21
134.9712751387724
 31
0.0
  0
LINE
  5
21C
330
E3
100
AcDbEntity
  8
0
  6
Continuous
100
AcDbLine
 10
153.3455558783321
 20
134.9509460317551
 30
0.0
 11
153.3446322281694
 21
134.9452273819763
 31
0.0
  0
LINE
  5
21D
330
E3
100
AcDbEntity
  8
0
  6
Continuous
100
AcDbLine
 10
153.3446322281694
 20
134.9452273819763
 30
0.0
 11
153.3399753475188
 21
134.9388504629373
 31
0.0
  0
LINE
  5
21E
330
E3
100
AcDbEntity
  8
0
  6
Continuous
100
AcDbLine
 10
153.3399753475188
 20
134.9388504629373
 30
0.0
 11
153.331628229881
 21
134.9318228075753
 31
0.0
  0
LINE
  5
21F
330
E3
100
AcDbEntity
  8
0
  6
Continuous
100
AcDbLine
 10
153.331628229881
 20
134.9318228075753
 30
0.0
 11
153.3196604748589
 21
134.9241561233896
 31
0.0
  0
LINE
  5
220
330
E3
100
AcDbEntity
  8
0
  6
Continuous
100
AcDbLine
 10
153.3196604748589
 20
134.9241561233896
 30
0.0
 11
153.3041711969063
 21
134.915869190218
 31
0.0
  0
LINE
  5
221
330
E3
100
AcDbEntity
  8
0
  6
Continuous
100
AcDbLine
 10
153.3041711969063
 20
134.915869190218
 30
0.0
 11
153.2852858015557
 21
134.9069857334316
 31
0.0
  0
LINE
  5
222
330
E3
100
AcDbEntity
  8
0
  6
Continuous
100
AcDbLine
 10
153.2852858015557
 20
134.9069857334316
 30
0.0
 11
153.2631568090495
 21
134.8975260890627
 31
0.0
  0
LINE
  5
223
330
E3
100
AcDbEntity
  8
0
  6
Continuous
100
AcDbLine
 10
153.2631568090495
 20
134.8975260890627
 30
0.0
 11
153.2379570756627
 21
134.8875275398372
 31
0.0
  0
LINE
  5
224
330
E3
100
AcDbEntity
  8
0
  6
Continuous
100
AcDbLine
 10
153.2379570756627
 20
134.8875275398372
 30
0.0
 11
153.2098865723795
 21
134.8770205898037
 31
0.0
  0
LINE
  5
225
330
E3
100
AcDbEntity
  8
0
  6
Continuous
100
AcDbLine
 10
153.2098865723795
 20
134.8770205898037
 30
0.0
 11
153.1791656062169
 21
134.8660493003654
 31
0.0
  0
LINE
  5
226
330
E3
100
AcDbEntity
  8
0
  6
Continuous
100
AcDbLine
 10
153.1791656062169
 20
134.8660493003654
 30
0.0
 11
153.1460348202241
 21
134.8546509542484
 31
0.0
  0
LINE
  5
227
330
E3
100
AcDbEntity
  8
0
  6
Continuous
100
AcDbLine
 10
153.1460348202241
 20
134.8546509542484
 30
0.0
 11
153.1107551934824
 21
134.8428763915334
 31
0.0
  0
LINE
  5
228
330
E3
100
AcDbEntity
  8
0
  6
Continuous
100
AcDbLine
 10
153.1107551934824
 20
134.8428763915334
 30
0.0
 11
153.0736012624284
 21
134.8307696736238
 31
0.0
  0
LINE
  5
229
330
E3
100
AcDbEntity
  8
0
  6
Continuous
100
AcDbLine
 10
153.0736012624284
 20
134.8307696736238
 30
0.0
 11
153.0348645101918
 21
134.8183816406003
 31
0.0
  0
LINE
  5
22A
330
E3
100
AcDbEntity
  8
0
  6
Continuous
100
AcDbLine
 10
153.0348645101918
 20
134.8183816406003
 30
0.0
 11
152.9948465879189
 21
134.8057699112214
 31
0.0
  0
LINE
  5
22B
330
E3
100
AcDbEntity
  8
0
  6
Continuous
100
AcDbLine
 10
152.9948465879189
 20
134.8057699112214
 30
0.0
 11
152.953859314772
 21
134.7929853255677
 31
0.0
  0
LINE
  5
22C
330
E3
100
AcDbEntity
  8
0
  6
Continuous
100
AcDbLine
 10
152.953859314772
 20
134.7929853255677
 30
0.0
 11
152.9122178992519
 21
134.7800888917362
 31
0.0
  0
LINE
  5
22D
330
E3
100
AcDbEntity
  8
0
  6
Continuous
100
AcDbLine
 10
152.9122178992519
 20
134.7800888917362
 30
0.0
 11
152.8702544965535
 21
134.7671348391465
 31
0.0
  0
LINE
  5
22E
330
E3
100
AcDbEntity
  8
0
  6
Continuous
100
AcDbLine
 10
152.8702544965535
 20
134.7671348391465
 30
0.0
 11
152.8282877045163
 21
134.754177397218
 31
0.0
  0
LINE
  5
22F
330
E3
100
AcDbEntity
  8
0
  6
Continuous
100
AcDbLine
 10
152.8282877045163
 20
134.754177397218
 30
0.0
 11
152.786649678335
 21
134.7412809633865
 31
0.0
  0
LINE
  5
230
330
E3
100
AcDbEntity
  8
0
  6
Continuous
100
AcDbLine
 10
152.786649678335
 20
134.7412809633865
 30
0.0
 11
152.7456590158493
 21
134.7284963777328
 31
0.0
  0
LINE
  5
231
330
E3
100
AcDbEntity
  8
0
  6
Continuous
100
AcDbLine
 10
152.7456590158493
 20
134.7284963777328
 30
0.0
 11
152.7056410935764
 21
134.7158846483538
 31
0.0
  0
LINE
  5
232
330
E3
100
AcDbEntity
  8
0
  6
Continuous
100
AcDbLine
 10
152.7056410935764
 20
134.7158846483538
 30
0.0
 11
152.6669043413399
 21
134.7035000046691
 31
0.0
  0
LINE
  5
233
330
E3
100
AcDbEntity
  8
0
  6
Continuous
100
AcDbLine
 10
152.6669043413399
 20
134.7035000046691
 30
0.0
 11
152.6297537996245
 21
134.6913932867595
 31
0.0
  0
LINE
  5
234
330
E3
100
AcDbEntity
  8
0
  6
Continuous
100
AcDbLine
 10
152.6297537996245
 20
134.6913932867595
 30
0.0
 11
152.5944741728829
 21
134.6796153347058
 31
0.0
  0
LINE
  5
235
330
E3
100
AcDbEntity
  8
0
  6
Continuous
100
AcDbLine
 10
152.5944741728829
 20
134.6796153347058
 30
0.0
 11
152.56134338689
 21
134.6682169885888
 31
0.0
  0
LINE
  5
236
330
E3
100
AcDbEntity
  8
0
  6
Continuous
100
AcDbLine
 10
152.56134338689
 20
134.6682169885888
 30
0.0
 11
152.5306224207274
 21
134.6572456991505
 31
0.0
  0
LINE
  5
237
330
E3
100
AcDbEntity
  8
0
  6
Continuous
100
AcDbLine
 10
152.5306224207274
 20
134.6572456991505
 30
0.0
 11
152.5025519174443
 21
134.646738749117
 31
0.0
  0
LINE
  5
238
330
E3
100
AcDbEntity
  8
0
  6
Continuous
100
AcDbLine
 10
152.5025519174443
 20
134.646738749117
 30
0.0
 11
152.4773521840574
 21
134.6367401998915
 31
0.0
  0
LINE
  5
239
330
E3
100
AcDbEntity
  8
0
  6
Continuous
100
AcDbLine
 10
152.4773521840574
 20
134.6367401998915
 30
0.0
 11
152.4552198022126
 21
134.6272839448613
 31
0.0
  0
LINE
  5
23A
330
E3
100
AcDbEntity
  8
0
  6
Continuous
100
AcDbLine
 10
152.4552198022126
 20
134.6272839448613
 30
0.0
 11
152.4363344068619
 21
134.6183970987362
 31
0.0
  0
LINE
  5
23B
330
E3
100
AcDbEntity
  8
0
  6
Continuous
100
AcDbLine
 10
152.4363344068619
 20
134.6183970987362
 30
0.0
 11
152.4208451289093
 21
134.6101101655646
 31
0.0
  0
LINE
  5
23C
330
E3
100
AcDbEntity
  8
0
  6
Continuous
100
AcDbLine
 10
152.4208451289093
 20
134.6101101655646
 30
0.0
 11
152.4088807632259
 21
134.6024434813788
 31
0.0
  0
LINE
  5
23D
330
E3
100
AcDbEntity
  8
0
  6
Continuous
100
AcDbLine
 10
152.4088807632259
 20
134.6024434813788
 30
0.0
 11
152.4005328219574
 21
134.5954173822112
 31
0.0
  0
LINE
  5
23E
330
E3
100
AcDbEntity
  8
0
  6
Continuous
100
AcDbLine
 10
152.4005328219574
 20
134.5954173822112
 30
0.0
 11
152.395875204417
 21
134.5890392191828
 31
0.0
  0
LINE
  5
23F
330
E3
100
AcDbEntity
  8
0
  6
Continuous
100
AcDbLine
 10
152.395875204417
 20
134.5890392191828
 30
0.0
 11
152.3949515542543
 21
134.583320569404
 31
0.0
  0
LINE
  5
240
330
E3
100
AcDbEntity
  8
0
  6
Continuous
100
AcDbLine
 10
153.4139627362009
 20
134.5629914623867
 30
0.0
 11
153.4130390860381
 21
134.5572728126078
 31
0.0
  0
LINE
  5
241
330
E3
100
AcDbEntity
  8
0
  6
Continuous
100
AcDbLine
 10
153.4130390860381
 20
134.5572728126078
 30
0.0
 11
153.4083822053876
 21
134.5508958935688
 31
0.0
  0
LINE
  5
242
330
E3
100
AcDbEntity
  8
0
  6
Continuous
100
AcDbLine
 10
153.4083822053876
 20
134.5508958935688
 30
0.0
 11
153.4000352532768
 21
134.5438689296112
 31
0.0
  0
LINE
  5
243
330
E3
100
AcDbEntity
  8
0
  6
Continuous
100
AcDbLine
 10
153.4000352532768
 20
134.5438689296112
 30
0.0
 11
153.3880674982547
 21
134.5362022454254
 31
0.0
  0
LINE
  5
244
330
E3
100
AcDbEntity
  8
0
  6
Continuous
100
AcDbLine
 10
153.3880674982547
 20
134.5362022454254
 30
0.0
 11
153.3725782203021
 21
134.5279153122538
 31
0.0
  0
LINE
  5
245
330
E3
100
AcDbEntity
  8
0
  6
Continuous
100
AcDbLine
 10
153.3725782203021
 20
134.5279153122538
 30
0.0
 11
153.3536928249514
 21
134.5190284661287
 31
0.0
  0
LINE
  5
246
330
E3
100
AcDbEntity
  8
0
  6
Continuous
100
AcDbLine
 10
153.3536928249514
 20
134.5190284661287
 30
0.0
 11
153.3315638324453
 21
134.5095722110985
 31
0.0
  0
LINE
  5
247
330
E3
100
AcDbEntity
  8
0
  6
Continuous
100
AcDbLine
 10
153.3315638324453
 20
134.5095722110985
 30
0.0
 11
153.3063640990584
 21
134.499573661873
 31
0.0
  0
LINE
  5
248
330
E3
100
AcDbEntity
  8
0
  6
Continuous
100
AcDbLine
 10
153.3063640990584
 20
134.499573661873
 30
0.0
 11
153.2782902064366
 21
134.4890667118395
 31
0.0
  0
LINE
  5
249
330
E3
100
AcDbEntity
  8
0
  6
Continuous
100
AcDbLine
 10
153.2782902064366
 20
134.4890667118395
 30
0.0
 11
153.247569240274
 21
134.4780954224013
 31
0.0
  0
LINE
  5
24A
330
E3
100
AcDbEntity
  8
0
  6
Continuous
100
AcDbLine
 10
153.247569240274
 20
134.4780954224013
 30
0.0
 11
153.2144418436199
 21
134.4666970762842
 31
0.0
  0
LINE
  5
24B
330
E3
100
AcDbEntity
  8
0
  6
Continuous
100
AcDbLine
 10
153.2144418436199
 20
134.4666970762842
 30
0.0
 11
153.1791622168782
 21
134.4549191242305
 31
0.0
  0
LINE
  5
24C
330
E3
100
AcDbEntity
  8
0
  6
Continuous
100
AcDbLine
 10
153.1791622168782
 20
134.4549191242305
 30
0.0
 11
153.1420082858241
 21
134.4428124063209
 31
0.0
  0
LINE
  5
24D
330
E3
100
AcDbEntity
  8
0
  6
Continuous
100
AcDbLine
 10
153.1420082858241
 20
134.4428124063209
 30
0.0
 11
153.1032715335876
 21
134.4304277626362
 31
0.0
  0
LINE
  5
24E
330
E3
100
AcDbEntity
  8
0
  6
Continuous
100
AcDbLine
 10
153.1032715335876
 20
134.4304277626362
 30
0.0
 11
153.0632536113147
 21
134.4178160332572
 31
0.0
  0
LINE
  5
24F
330
E3
100
AcDbEntity
  8
0
  6
Continuous
100
AcDbLine
 10
153.0632536113147
 20
134.4178160332572
 30
0.0
 11
153.0222663381677
 21
134.4050314476035
 31
0.0
  0
LINE
  5
250
330
E3
100
AcDbEntity
  8
0
  6
Continuous
100
AcDbLine
 10
153.0222663381677
 20
134.4050314476035
 30
0.0
 11
152.9806249226477
 21
134.392135013772
 31
0.0
  0
LINE
  5
251
330
E3
100
AcDbEntity
  8
0
  6
Continuous
100
AcDbLine
 10
152.9806249226477
 20
134.392135013772
 30
0.0
 11
152.9386615199492
 21
134.3791775718436
 31
0.0
  0
LINE
  5
252
330
E3
100
AcDbEntity
  8
0
  6
Continuous
100
AcDbLine
 10
152.9386615199492
 20
134.3791775718436
 30
0.0
 11
152.8966947279121
 21
134.3662235192539
 31
0.0
  0
LINE
  5
253
330
E3
100
AcDbEntity
  8
0
  6
Continuous
100
AcDbLine
 10
152.8966947279121
 20
134.3662235192539
 30
0.0
 11
152.8550567017308
 21
134.3533236960836
 31
0.0
  0
LINE
  5
254
330
E3
100
AcDbEntity
  8
0
  6
Continuous
100
AcDbLine
 10
152.8550567017308
 20
134.3533236960836
 30
0.0
 11
152.8140660392451
 21
134.3405424997686
 31
0.0
  0
LINE
  5
255
330
E3
100
AcDbEntity
  8
0
  6
Continuous
100
AcDbLine
 10
152.8140660392451
 20
134.3405424997686
 30
0.0
 11
152.7740481169722
 21
134.3279307703897
 31
0.0
  0
LINE
  5
256
330
E3
100
AcDbEntity
  8
0
  6
Continuous
100
AcDbLine
 10
152.7740481169722
 20
134.3279307703897
 30
0.0
 11
152.7353113647357
 21
134.3155427373663
 31
0.0
  0
LINE
  5
257
330
E3
100
AcDbEntity
  8
0
  6
Continuous
100
AcDbLine
 10
152.7353113647357
 20
134.3155427373663
 30
0.0
 11
152.6981608230203
 21
134.3034360194567
 31
0.0
  0
LINE
  5
258
330
E3
100
AcDbEntity
  8
0
  6
Continuous
100
AcDbLine
 10
152.6981608230203
 20
134.3034360194567
 30
0.0
 11
152.6628811962786
 21
134.2916614567417
 31
0.0
  0
LINE
  5
259
330
E3
100
AcDbEntity
  8
0
  6
Continuous
100
AcDbLine
 10
152.6628811962786
 20
134.2916614567417
 30
0.0
 11
152.6297504102858
 21
134.2802631106246
 31
0.0
  0
LINE
  5
25A
330
E3
100
AcDbEntity
  8
0
  6
Continuous
100
AcDbLine
 10
152.6297504102858
 20
134.2802631106246
 30
0.0
 11
152.5990294441232
 21
134.2692918211864
 31
0.0
  0
LINE
  5
25B
330
E3
100
AcDbEntity
  8
0
  6
Continuous
100
AcDbLine
 10
152.5990294441232
 20
134.2692918211864
 30
0.0
 11
152.5709589408401
 21
134.2587848711528
 31
0.0
  0
LINE
  5
25C
330
E3
100
AcDbEntity
  8
0
  6
Continuous
100
AcDbLine
 10
152.5709589408401
 20
134.2587848711528
 30
0.0
 11
152.5457592074532
 21
134.2487863219274
 31
0.0
  0
LINE
  5
25D
330
E3
100
AcDbEntity
  8
0
  6
Continuous
100
AcDbLine
 10
152.5457592074532
 20
134.2487863219274
 30
0.0
 11
152.5236268256083
 21
134.2393266775585
 31
0.0
  0
LINE
  5
25E
330
E3
100
AcDbEntity
  8
0
  6
Continuous
100
AcDbLine
 10
152.5236268256083
 20
134.2393266775585
 30
0.0
 11
152.5047414302578
 21
134.230443220772
 31
0.0
  0
LINE
  5
25F
330
E3
100
AcDbEntity
  8
0
  6
Continuous
100
AcDbLine
 10
152.5047414302578
 20
134.230443220772
 30
0.0
 11
152.4892521523051
 21
134.2221562876004
 31
0.0
  0
LINE
  5
260
330
E3
100
AcDbEntity
  8
0
  6
Continuous
100
AcDbLine
 10
152.4892521523051
 20
134.2221562876004
 30
0.0
 11
152.4772877866217
 21
134.2144896034147
 31
0.0
  0
LINE
  5
261
330
E3
100
AcDbEntity
  8
0
  6
Continuous
100
AcDbLine
 10
152.4772877866217
 20
134.2144896034147
 30
0.0
 11
152.4689398453531
 21
134.2074601149084
 31
0.0
  0
LINE
  5
262
330
E3
100
AcDbEntity
  8
0
  6
Continuous
100
AcDbLine
 10
152.4689398453531
 20
134.2074601149084
 30
0.0
 11
152.4642820622858
 21
134.2010846498143
 31
0.0
  0
LINE
  5
263
330
E3
100
AcDbEntity
  8
0
  6
Continuous
100
AcDbLine
 10
152.4642820622858
 20
134.2010846498143
 30
0.0
 11
152.4633584121231
 21
134.1953660000355
 31
0.0
  0
LINE
  5
264
330
E3
100
AcDbEntity
  8
0
  6
Continuous
100
AcDbLine
 10
153.4823695940697
 20
134.1750368930182
 30
0.0
 11
153.4814459439069
 21
134.1693182432394
 31
0.0
  0
LINE
  5
265
330
E3
100
AcDbEntity
  8
0
  6
Continuous
100
AcDbLine
 10
153.4814459439069
 20
134.1693182432394
 30
0.0
 11
153.4767890632564
 21
134.1629413242004
 31
0.0
  0
LINE
  5
266
330
E3
100
AcDbEntity
  8
0
  6
Continuous
100
AcDbLine
 10
153.4767890632564
 20
134.1629413242004
 30
0.0
 11
153.4684422766726
 21
134.1559150516471
 31
0.0
  0
LINE
  5
267
330
E3
100
AcDbEntity
  8
0
  6
Continuous
100
AcDbLine
 10
153.4684422766726
 20
134.1559150516471
 30
0.0
 11
153.4564745216505
 21
134.1482483674613
 31
0.0
  0
LINE
  5
268
330
E3
100
AcDbEntity
  8
0
  6
Continuous
100
AcDbLine
 10
153.4564745216505
 20
134.1482483674613
 30
0.0
 11
153.4409852436978
 21
134.1399614342897
 31
0.0
  0
LINE
  5
269
330
E3
100
AcDbEntity
  8
0
  6
Continuous
100
AcDbLine
 10
153.4409852436978
 20
134.1399614342897
 30
0.0
 11
153.4220998483472
 21
134.1310745881645
 31
0.0
  0
LINE
  5
26A
330
E3
100
AcDbEntity
  8
0
  6
Continuous
100
AcDbLine
 10
153.4220998483472
 20
134.1310745881645
 30
0.0
 11
153.3999708558411
 21
134.1216183331344
 31
0.0
  0
LINE
  5
26B
330
E3
100
AcDbEntity
  8
0
  6
Continuous
100
AcDbLine
 10
153.3999708558411
 20
134.1216183331344
 30
0.0
 11
153.3747711224542
 21
134.1116163945702
 31
0.0
  0
LINE
  5
26C
330
E3
100
AcDbEntity
  8
0
  6
Continuous
100
AcDbLine
 10
153.3747711224542
 20
134.1116163945702
 30
0.0
 11
153.3466972298324
 21
134.1011128338754
 31
0.0
  0
LINE
  5
26D
330
E3
100
AcDbEntity
  8
0
  6
Continuous
100
AcDbLine
 10
153.3466972298324
 20
134.1011128338754
 30
0.0
 11
153.3159762636698
 21
134.0901381550984
 31
0.0
  0
LINE
  5
26E
330
E3
100
AcDbEntity
  8
0
  6
Continuous
100
AcDbLine
 10
153.3159762636698
 20
134.0901381550984
 30
0.0
 11
153.2828488670156
 21
134.0787431983201
 31
0.0
  0
LINE
  5
26F
330
E3
100
AcDbEntity
  8
0
  6
Continuous
100
AcDbLine
 10
153.2828488670156
 20
134.0787431983201
 30
0.0
 11
153.247569240274
 21
134.0669652462664
 31
0.0
  0
LINE
  5
270
330
E3
100
AcDbEntity
  8
0
  6
Continuous
100
AcDbLine
 10
153.247569240274
 20
134.0669652462664
 30
0.0
 11
153.2104153092199
 21
134.0548585283568
 31
0.0
  0
LINE
  5
271
330
E3
100
AcDbEntity
  8
0
  6
Continuous
100
AcDbLine
 10
153.2104153092199
 20
134.0548585283568
 30
0.0
 11
153.1716785569834
 21
134.0424738846721
 31
0.0
  0
LINE
  5
272
330
E3
100
AcDbEntity
  8
0
  6
Continuous
100
AcDbLine
 10
153.1716785569834
 20
134.0424738846721
 30
0.0
 11
153.1316606347104
 21
134.0298621552931
 31
0.0
  0
LINE
  5
273
330
E3
100
AcDbEntity
  8
0
  6
Continuous
100
AcDbLine
 10
153.1316606347104
 20
134.0298621552931
 30
0.0
 11
153.0906733615635
 21
134.0170775696394
 31
0.0
  0
LINE
  5
274
330
E3
100
AcDbEntity
  8
0
  6
Continuous
100
AcDbLine
 10
153.0906733615635
 20
134.0170775696394
 30
0.0
 11
153.0490319460435
 21
134.0041811358079
 31
0.0
  0
LINE
  5
275
330
E3
100
AcDbEntity
  8
0
  6
Continuous
100
AcDbLine
 10
153.0490319460435
 20
134.0041811358079
 30
0.0
 11
153.007068543345
 21
133.9912236938794
 31
0.0
  0
LINE
  5
276
330
E3
100
AcDbEntity
  8
0
  6
Continuous
100
AcDbLine
 10
153.007068543345
 20
133.9912236938794
 30
0.0
 11
152.9651017513078
 21
133.9782696412897
 31
0.0
  0
LINE
  5
277
330
E3
100
AcDbEntity
  8
0
  6
Continuous
100
AcDbLine
 10
152.9651017513078
 20
133.9782696412897
 30
0.0
 11
152.9234637251265
 21
133.9653698181195
 31
0.0
  0
LINE
  5
278
330
E3
100
AcDbEntity
  8
0
  6
Continuous
100
AcDbLine
 10
152.9234637251265
 20
133.9653698181195
 30
0.0
 11
152.8824730626409
 21
133.9525886218045
 31
0.0
  0
LINE
  5
279
330
E3
100
AcDbEntity
  8
0
  6
Continuous
100
AcDbLine
 10
152.8824730626409
 20
133.9525886218045
 30
0.0
 11
152.842455140368
 21
133.9399768924255
 31
0.0
  0
LINE
  5
27A
330
E3
100
AcDbEntity
  8
0
  6
Continuous
100
AcDbLine
 10
152.842455140368
 20
133.9399768924255
 30
0.0
 11
152.8037183881314
 21
133.9275888594021
 31
0.0
  0
LINE
  5
27B
330
E3
100
AcDbEntity
  8
0
  6
Continuous
100
AcDbLine
 10
152.8037183881314
 20
133.9275888594021
 30
0.0
 11
152.7665644570774
 21
133.9154821414925
 31
0.0
  0
LINE
  5
27C
330
E3
100
AcDbEntity
  8
0
  6
Continuous
100
AcDbLine
 10
152.7665644570774
 20
133.9154821414925
 30
0.0
 11
152.7312882196744
 21
133.9037075787775
 31
0.0
  0
LINE
  5
27D
330
E3
100
AcDbEntity
  8
0
  6
Continuous
100
AcDbLine
 10
152.7312882196744
 20
133.9037075787775
 30
0.0
 11
152.6981574336816
 21
133.8923092326605
 31
0.0
  0
LINE
  5
27E
330
E3
100
AcDbEntity
  8
0
  6
Continuous
100
AcDbLine
 10
152.6981574336816
 20
133.8923092326605
 30
0.0
 11
152.667436467519
 21
133.8813345538835
 31
0.0
  0
LINE
  5
27F
330
E3
100
AcDbEntity
  8
0
  6
Continuous
100
AcDbLine
 10
152.667436467519
 20
133.8813345538835
 30
0.0
 11
152.6393659642358
 21
133.8708309931887
 31
0.0
  0
LINE
  5
280
330
E3
100
AcDbEntity
  8
0
  6
Continuous
100
AcDbLine
 10
152.6393659642358
 20
133.8708309931887
 30
0.0
 11
152.614166230849
 21
133.8608324439632
 31
0.0
  0
LINE
  5
281
330
E3
100
AcDbEntity
  8
0
  6
Continuous
100
AcDbLine
 10
152.614166230849
 20
133.8608324439632
 30
0.0
 11
152.5920338490041
 21
133.8513727995943
 31
0.0
  0
LINE
  5
282
330
E3
100
AcDbEntity
  8
0
  6
Continuous
100
AcDbLine
 10
152.5920338490041
 20
133.8513727995943
 30
0.0
 11
152.5731484536535
 21
133.8424859534692
 31
0.0
  0
LINE
  5
283
330
E3
100
AcDbEntity
  8
0
  6
Continuous
100
AcDbLine
 10
152.5731484536535
 20
133.8424859534692
 30
0.0
 11
152.5576591757008
 21
133.8341990202975
 31
0.0
  0
LINE
  5
284
330
E3
100
AcDbEntity
  8
0
  6
Continuous
100
AcDbLine
 10
152.5576591757008
 20
133.8341990202975
 30
0.0
 11
152.5456948100175
 21
133.8265357254505
 31
0.0
  0
LINE
  5
285
330
E3
100
AcDbEntity
  8
0
  6
Continuous
100
AcDbLine
 10
152.5456948100175
 20
133.8265357254505
 30
0.0
 11
152.5373468687489
 21
133.8195062369442
 31
0.0
  0
LINE
  5
286
330
E3
100
AcDbEntity
  8
0
  6
Continuous
100
AcDbLine
 10
152.5373468687489
 20
133.8195062369442
 30
0.0
 11
152.5326889201546
 21
133.8131300804459
 31
0.0
  0
LINE
  5
287
330
E3
100
AcDbEntity
  8
0
  6
Continuous
100
AcDbLine
 10
152.5326889201546
 20
133.8131300804459
 30
0.0
 11
152.5317652699919
 21
133.807411430667
 31
0.0
  0
LINE
  5
288
330
E3
100
AcDbEntity
  8
0
  6
Continuous
100
AcDbLine
 10
153.5507764519384
 20
133.7870823236498
 30
0.0
 11
153.5498528017758
 21
133.7813636738709
 31
0.0
  0
LINE
  5
289
330
E3
100
AcDbEntity
  8
0
  6
Continuous
100
AcDbLine
 10
153.5498528017758
 20
133.7813636738709
 30
0.0
 11
153.5451959211252
 21
133.7749867548319
 31
0.0
  0
LINE
  5
28A
330
E3
100
AcDbEntity
  8
0
  6
Continuous
100
AcDbLine
 10
153.5451959211252
 20
133.7749867548319
 30
0.0
 11
153.5368493000683
 21
133.7679577843442
 31
0.0
  0
LINE
  5
28B
330
E3
100
AcDbEntity
  8
0
  6
Continuous
100
AcDbLine
 10
153.5368493000683
 20
133.7679577843442
 30
0.0
 11
153.5248815450463
 21
133.7602944894971
 31
0.0
  0
LINE
  5
28C
330
E3
100
AcDbEntity
  8
0
  6
Continuous
100
AcDbLine
 10
153.5248815450463
 20
133.7602944894971
 30
0.0
 11
153.5093922670936
 21
133.7520075563255
 31
0.0
  0
LINE
  5
28D
330
E3
100
AcDbEntity
  8
0
  6
Continuous
100
AcDbLine
 10
153.5093922670936
 20
133.7520075563255
 30
0.0
 11
153.490506871743
 21
133.7431207102004
 31
0.0
  0
LINE
  5
28E
330
E3
100
AcDbEntity
  8
0
  6
Continuous
100
AcDbLine
 10
153.490506871743
 20
133.7431207102004
 30
0.0
 11
153.4683778792369
 21
133.7336610658315
 31
0.0
  0
LINE
  5
28F
330
E3
100
AcDbEntity
  8
0
  6
Continuous
100
AcDbLine
 10
153.4683778792369
 20
133.7336610658315
 30
0.0
 11
153.44317814585
 21
133.723662516606
 31
0.0
  0
LINE
  5
290
330
E3
100
AcDbEntity
  8
0
  6
Continuous
100
AcDbLine
 10
153.44317814585
 20
133.723662516606
 30
0.0
 11
153.4151042532281
 21
133.7131589559112
 31
0.0
  0
LINE
  5
291
330
E3
100
AcDbEntity
  8
0
  6
Continuous
100
AcDbLine
 10
153.4151042532281
 20
133.7131589559112
 30
0.0
 11
153.3843832870656
 21
133.7021842771342
 31
0.0
  0
LINE
  5
292
330
E3
100
AcDbEntity
  8
0
  6
Continuous
100
AcDbLine
 10
153.3843832870656
 20
133.7021842771342
 30
0.0
 11
153.3512558904114
 21
133.6907893203559
 31
0.0
  0
LINE
  5
293
330
E3
100
AcDbEntity
  8
0
  6
Continuous
100
AcDbLine
 10
153.3512558904114
 20
133.6907893203559
 30
0.0
 11
153.3159762636698
 21
133.6790113683022
 31
0.0
  0
LINE
  5
294
330
E3
100
AcDbEntity
  8
0
  6
Continuous
100
AcDbLine
 10
153.3159762636698
 20
133.6790113683022
 30
0.0
 11
153.2788223326157
 21
133.6669046503926
 31
0.0
  0
LINE
  5
295
330
E3
100
AcDbEntity
  8
0
  6
Continuous
100
AcDbLine
 10
153.2788223326157
 20
133.6669046503926
 30
0.0
 11
153.2400855803791
 21
133.6545166173692
 31
0.0
  0
LINE
  5
296
330
E3
100
AcDbEntity
  8
0
  6
Continuous
100
AcDbLine
 10
153.2400855803791
 20
133.6545166173692
 30
0.0
 11
153.2000676581062
 21
133.6419048879902
 31
0.0
  0
LINE
  5
297
330
E3
100
AcDbEntity
  8
0
  6
Continuous
100
AcDbLine
 10
153.2000676581062
 20
133.6419048879902
 30
0.0
 11
153.1590803849593
 21
133.6291236916752
 31
0.0
  0
LINE
  5
298
330
E3
100
AcDbEntity
  8
0
  6
Continuous
100
AcDbLine
 10
153.1590803849593
 20
133.6291236916752
 30
0.0
 11
153.1174389694393
 21
133.616223868505
 31
0.0
  0
LINE
  5
299
330
E3
100
AcDbEntity
  8
0
  6
Continuous
100
AcDbLine
 10
153.1174389694393
 20
133.616223868505
 30
0.0
 11
153.0754755667408
 21
133.6032698159153
 31
0.0
  0
LINE
  5
29A
330
E3
100
AcDbEntity
  8
0
  6
Continuous
100
AcDbLine
 10
153.0754755667408
 20
133.6032698159153
 30
0.0
 11
153.0335087747036
 21
133.5903157633255
 31
0.0
  0
LINE
  5
29B
330
E3
100
AcDbEntity
  8
0
  6
Continuous
100
AcDbLine
 10
153.0335087747036
 20
133.5903157633255
 30
0.0
 11
152.9918707485223
 21
133.5774159401553
 31
0.0
  0
LINE
  5
29C
330
E3
100
AcDbEntity
  8
0
  6
Continuous
100
AcDbLine
 10
152.9918707485223
 20
133.5774159401553
 30
0.0
 11
152.9508800860366
 21
133.5646347438403
 31
0.0
  0
LINE
  5
29D
330
E3
100
AcDbEntity
  8
0
  6
Continuous
100
AcDbLine
 10
152.9508800860366
 20
133.5646347438403
 30
0.0
 11
152.9108621637637
 21
133.5520196251227
 31
0.0
  0
LINE
  5
29E
330
E3
100
AcDbEntity
  8
0
  6
Continuous
100
AcDbLine
 10
152.9108621637637
 20
133.5520196251227
 30
0.0
 11
152.8721254115272
 21
133.539634981438
 31
0.0
  0
LINE
  5
29F
330
E3
100
AcDbEntity
  8
0
  6
Continuous
100
AcDbLine
 10
152.8721254115272
 20
133.539634981438
 30
0.0
 11
152.8349714804731
 21
133.5275282635284
 31
0.0
  0
LINE
  5
2A0
330
E3
100
AcDbEntity
  8
0
  6
Continuous
100
AcDbLine
 10
152.8349714804731
 20
133.5275282635284
 30
0.0
 11
152.7996952430702
 21
133.5157503114746
 31
0.0
  0
LINE
  5
2A1
330
E3
100
AcDbEntity
  8
0
  6
Continuous
100
AcDbLine
 10
152.7996952430702
 20
133.5157503114746
 30
0.0
 11
152.7665644570774
 21
133.5043553546963
 31
0.0
  0
LINE
  5
2A2
330
E3
100
AcDbEntity
  8
0
  6
Continuous
100
AcDbLine
 10
152.7665644570774
 20
133.5043553546963
 30
0.0
 11
152.7358434909148
 21
133.4933806759194
 31
0.0
  0
LINE
  5
2A3
330
E3
100
AcDbEntity
  8
0
  6
Continuous
100
AcDbLine
 10
152.7358434909148
 20
133.4933806759194
 30
0.0
 11
152.7077729876316
 21
133.4828771152245
 31
0.0
  0
LINE
  5
2A4
330
E3
100
AcDbEntity
  8
0
  6
Continuous
100
AcDbLine
 10
152.7077729876316
 20
133.4828771152245
 30
0.0
 11
152.6825732542447
 21
133.4728751766604
 31
0.0
  0
LINE
  5
2A5
330
E3
100
AcDbEntity
  8
0
  6
Continuous
100
AcDbLine
 10
152.6825732542447
 20
133.4728751766604
 30
0.0
 11
152.6604408723999
 21
133.4634189216302
 31
0.0
  0
LINE
  5
2A6
330
E3
100
AcDbEntity
  8
0
  6
Continuous
100
AcDbLine
 10
152.6604408723999
 20
133.4634189216302
 30
0.0
 11
152.6415554770493
 21
133.454532075505
 31
0.0
  0
LINE
  5
2A7
330
E3
100
AcDbEntity
  8
0
  6
Continuous
100
AcDbLine
 10
152.6415554770493
 20
133.454532075505
 30
0.0
 11
152.6260661990966
 21
133.4462451423334
 31
0.0
  0
LINE
  5
2A8
330
E3
100
AcDbEntity
  8
0
  6
Continuous
100
AcDbLine
 10
152.6260661990966
 20
133.4462451423334
 30
0.0
 11
152.6140984440745
 21
133.4385784581476
 31
0.0
  0
LINE
  5
2A9
330
E3
100
AcDbEntity
  8
0
  6
Continuous
100
AcDbLine
 10
152.6140984440745
 20
133.4385784581476
 30
0.0
 11
152.6057538921447
 21
133.43155235898
 31
0.0
  0
LINE
  5
2AA
330
E3
100
AcDbEntity
  8
0
  6
Continuous
100
AcDbLine
 10
152.6057538921447
 20
133.43155235898
 30
0.0
 11
152.6010957780234
 21
133.4251755110774
 31
0.0
  0
LINE
  5
2AB
330
E3
100
AcDbEntity
  8
0
  6
Continuous
100
AcDbLine
 10
152.6010957780234
 20
133.4251755110774
 30
0.0
 11
152.6001721278606
 21
133.4194568612986
 31
0.0
  0
LINE
  5
2AC
330
E3
100
AcDbEntity
  8
0
  6
Continuous
100
AcDbLine
 10
153.6191833098073
 20
133.3991277542813
 30
0.0
 11
153.6182596596445
 21
133.3934091045025
 31
0.0
  0
LINE
  5
2AD
330
E3
100
AcDbEntity
  8
0
  6
Continuous
100
AcDbLine
 10
153.6182596596445
 20
133.3934091045025
 30
0.0
 11
153.613602778994
 21
133.3870321854635
 31
0.0
  0
LINE
  5
2AE
330
E3
100
AcDbEntity
  8
0
  6
Continuous
100
AcDbLine
 10
153.613602778994
 20
133.3870321854635
 30
0.0
 11
153.6052563234641
 21
133.38000390638
 31
0.0
  0
LINE
  5
2AF
330
E3
100
AcDbEntity
  8
0
  6
Continuous
100
AcDbLine
 10
153.6052563234641
 20
133.38000390638
 30
0.0
 11
153.5932885684421
 21
133.3723372221943
 31
0.0
  0
LINE
  5
2B0
330
E3
100
AcDbEntity
  8
0
  6
Continuous
100
AcDbLine
 10
153.5932885684421
 20
133.3723372221943
 30
0.0
 11
153.5777992904894
 21
133.3640502890227
 31
0.0
  0
LINE
  5
2B1
330
E3
100
AcDbEntity
  8
0
  6
Continuous
100
AcDbLine
 10
153.5777992904894
 20
133.3640502890227
 30
0.0
 11
153.5589138951388
 21
133.3551668322362
 31
0.0
  0
LINE
  5
2B2
330
E3
100
AcDbEntity
  8
0
  6
Continuous
100
AcDbLine
 10
153.5589138951388
 20
133.3551668322362
 30
0.0
 11
153.5367849026327
 21
133.3457071878673
 31
0.0
  0
LINE
  5
2B3
330
E3
100
AcDbEntity
  8
0
  6
Continuous
100
AcDbLine
 10
153.5367849026327
 20
133.3457071878673
 30
0.0
 11
153.511581779907
 21
133.3357086386418
 31
0.0
  0
LINE
  5
2B4
330
E3
100
AcDbEntity
  8
0
  6
Continuous
100
AcDbLine
 10
153.511581779907
 20
133.3357086386418
 30
0.0
 11
153.4835112766239
 21
133.3252016886083
 31
0.0
  0
LINE
  5
2B5
330
E3
100
AcDbEntity
  8
0
  6
Continuous
100
AcDbLine
 10
153.4835112766239
 20
133.3252016886083
 30
0.0
 11
153.4527903104613
 21
133.3142303991701
 31
0.0
  0
LINE
  5
2B6
330
E3
100
AcDbEntity
  8
0
  6
Continuous
100
AcDbLine
 10
153.4527903104613
 20
133.3142303991701
 30
0.0
 11
153.4196629138071
 21
133.302832053053
 31
0.0
  0
LINE
  5
2B7
330
E3
100
AcDbEntity
  8
0
  6
Continuous
100
AcDbLine
 10
153.4196629138071
 20
133.302832053053
 30
0.0
 11
153.3843832870656
 21
133.291057490338
 31
0.0
  0
LINE
  5
2B8
330
E3
100
AcDbEntity
  8
0
  6
Continuous
100
AcDbLine
 10
153.3843832870656
 20
133.291057490338
 30
0.0
 11
153.3472293560115
 21
133.2789507724284
 31
0.0
  0
LINE
  5
2B9
330
E3
100
AcDbEntity
  8
0
  6
Continuous
100
AcDbLine
 10
153.3472293560115
 20
133.2789507724284
 30
0.0
 11
153.3084926037749
 21
133.266562739405
 31
0.0
  0
LINE
  5
2BA
330
E3
100
AcDbEntity
  8
0
  6
Continuous
100
AcDbLine
 10
153.3084926037749
 20
133.266562739405
 30
0.0
 11
153.268474681502
 21
133.253951010026
 31
0.0
  0
LINE
  5
2BB
330
E3
100
AcDbEntity
  8
0
  6
Continuous
100
AcDbLine
 10
153.268474681502
 20
133.253951010026
 30
0.0
 11
153.2274874083551
 21
133.2411698137111
 31
0.0
  0
LINE
  5
2BC
330
E3
100
AcDbEntity
  8
0
  6
Continuous
100
AcDbLine
 10
153.2274874083551
 20
133.2411698137111
 30
0.0
 11
153.185845992835
 21
133.2282699905409
 31
0.0
  0
LINE
  5
2BD
330
E3
100
AcDbEntity
  8
0
  6
Continuous
100
AcDbLine
 10
153.185845992835
 20
133.2282699905409
 30
0.0
 11
153.1438825901366
 21
133.2153159379511
 31
0.0
  0
LINE
  5
2BE
330
E3
100
AcDbEntity
  8
0
  6
Continuous
100
AcDbLine
 10
153.1438825901366
 20
133.2153159379511
 30
0.0
 11
153.1019157980994
 21
133.2023584960227
 31
0.0
  0
LINE
  5
2BF
330
E3
100
AcDbEntity
  8
0
  6
Continuous
100
AcDbLine
 10
153.1019157980994
 20
133.2023584960227
 30
0.0
 11
153.0602777719181
 21
133.1894620621912
 31
0.0
  0
LINE
  5
2C0
330
E3
100
AcDbEntity
  8
0
  6
Continuous
100
AcDbLine
 10
153.0602777719181
 20
133.1894620621912
 30
0.0
 11
153.0192871094324
 21
133.1766774765375
 31
0.0
  0
LINE
  5
2C1
330
E3
100
AcDbEntity
  8
0
  6
Continuous
100
AcDbLine
 10
153.0192871094324
 20
133.1766774765375
 30
0.0
 11
152.9792691871595
 21
133.1640657471585
 31
0.0
  0
LINE
  5
2C2
330
E3
100
AcDbEntity
  8
0
  6
Continuous
100
AcDbLine
 10
152.9792691871595
 20
133.1640657471585
 30
0.0
 11
152.9405324349229
 21
133.1516811034738
 31
0.0
  0
LINE
  5
2C3
330
E3
100
AcDbEntity
  8
0
  6
Continuous
100
AcDbLine
 10
152.9405324349229
 20
133.1516811034738
 30
0.0
 11
152.9033785038689
 21
133.1395743855642
 31
0.0
  0
LINE
  5
2C4
330
E3
100
AcDbEntity
  8
0
  6
Continuous
100
AcDbLine
 10
152.9033785038689
 20
133.1395743855642
 30
0.0
 11
152.8680988771273
 21
133.1277964335105
 31
0.0
  0
LINE
  5
2C5
330
E3
100
AcDbEntity
  8
0
  6
Continuous
100
AcDbLine
 10
152.8680988771273
 20
133.1277964335105
 30
0.0
 11
152.8349714804731
 21
133.1163980873935
 31
0.0
  0
LINE
  5
2C6
330
E3
100
AcDbEntity
  8
0
  6
Continuous
100
AcDbLine
 10
152.8349714804731
 20
133.1163980873935
 30
0.0
 11
152.8042505143105
 21
133.1054267979552
 31
0.0
  0
LINE
  5
2C7
330
E3
100
AcDbEntity
  8
0
  6
Continuous
100
AcDbLine
 10
152.8042505143105
 20
133.1054267979552
 30
0.0
 11
152.7761800110274
 21
133.0949198479217
 31
0.0
  0
LINE
  5
2C8
330
E3
100
AcDbEntity
  8
0
  6
Continuous
100
AcDbLine
 10
152.7761800110274
 20
133.0949198479217
 30
0.0
 11
152.7509768883018
 21
133.0849212986962
 31
0.0
  0
LINE
  5
2C9
330
E3
100
AcDbEntity
  8
0
  6
Continuous
100
AcDbLine
 10
152.7509768883018
 20
133.0849212986962
 30
0.0
 11
152.7288478957957
 21
133.075465043666
 31
0.0
  0
LINE
  5
2CA
330
E3
100
AcDbEntity
  8
0
  6
Continuous
100
AcDbLine
 10
152.7288478957957
 20
133.075465043666
 30
0.0
 11
152.709962500445
 21
133.0665781975409
 31
0.0
  0
LINE
  5
2CB
330
E3
100
AcDbEntity
  8
0
  6
Continuous
100
AcDbLine
 10
152.709962500445
 20
133.0665781975409
 30
0.0
 11
152.6944732224923
 21
133.0582912643692
 31
0.0
  0
LINE
  5
2CC
330
E3
100
AcDbEntity
  8
0
  6
Continuous
100
AcDbLine
 10
152.6944732224923
 20
133.0582912643692
 30
0.0
 11
152.6825054674703
 21
133.0506245801835
 31
0.0
  0
LINE
  5
2CD
330
E3
100
AcDbEntity
  8
0
  6
Continuous
100
AcDbLine
 10
152.6825054674703
 20
133.0506245801835
 30
0.0
 11
152.6741609155405
 21
133.0435984810159
 31
0.0
  0
LINE
  5
2CE
330
E3
100
AcDbEntity
  8
0
  6
Continuous
100
AcDbLine
 10
152.6741609155405
 20
133.0435984810159
 30
0.0
 11
152.6695026358922
 21
133.037220941709
 31
0.0
  0
LINE
  5
2CF
330
E3
100
AcDbEntity
  8
0
  6
Continuous
100
AcDbLine
 10
152.6695026358922
 20
133.037220941709
 30
0.0
 11
152.6685789857295
 21
133.0315022919302
 31
0.0
  0
LINE
  5
2D0
330
E3
100
AcDbEntity
  8
0
  6
Continuous
100
AcDbLine
 10
153.6875901676761
 20
133.0111731849129
 30
0.0
 11
153.6866665175133
 21
133.0054545351341
 31
0.0
  0
LINE
  5
2D1
330
E3
100
AcDbEntity
  8
0
  6
Continuous
100
AcDbLine
 10
153.6866665175133
 20
133.0054545351341
 30
0.0
 11
153.6820096368628
 21
132.999077616095
 31
0.0
  0
LINE
  5
2D2
330
E3
100
AcDbEntity
  8
0
  6
Continuous
100
AcDbLine
 10
153.6820096368628
 20
132.999077616095
 30
0.0
 11
153.6736633468599
 21
132.9920500284159
 31
0.0
  0
LINE
  5
2D3
330
E3
100
AcDbEntity
  8
0
  6
Continuous
100
AcDbLine
 10
153.6736633468599
 20
132.9920500284159
 30
0.0
 11
153.6616955918378
 21
132.9843833442301
 31
0.0
  0
LINE
  5
2D4
330
E3
100
AcDbEntity
  8
0
  6
Continuous
100
AcDbLine
 10
153.6616955918378
 20
132.9843833442301
 30
0.0
 11
153.6462063138852
 21
132.9760964110585
 31
0.0
  0
LINE
  5
2D5
330
E3
100
AcDbEntity
  8
0
  6
Continuous
100
AcDbLine
 10
153.6462063138852
 20
132.9760964110585
 30
0.0
 11
153.6273209185345
 21
132.9672129542721
 31
0.0
  0
LINE
  5
2D6
330
E3
100
AcDbEntity
  8
0
  6
Continuous
100
AcDbLine
 10
153.6273209185345
 20
132.9672129542721
 30
0.0
 11
153.6051919260284
 21
132.9577533099032
 31
0.0
  0
LINE
  5
2D7
330
E3
100
AcDbEntity
  8
0
  6
Continuous
100
AcDbLine
 10
153.6051919260284
 20
132.9577533099032
 30
0.0
 11
153.5799888033028
 21
132.9477547606777
 31
0.0
  0
LINE
  5
2D8
330
E3
100
AcDbEntity
  8
0
  6
Continuous
100
AcDbLine
 10
153.5799888033028
 20
132.9477547606777
 30
0.0
 11
153.5519183000197
 21
132.9372478106442
 31
0.0
  0
LINE
  5
2D9
330
E3
100
AcDbEntity
  8
0
  6
Continuous
100
AcDbLine
 10
153.5519183000197
 20
132.9372478106442
 30
0.0
 11
153.5211973338571
 21
132.9262765212059
 31
0.0
  0
LINE
  5
2DA
330
E3
100
AcDbEntity
  8
0
  6
Continuous
100
AcDbLine
 10
153.5211973338571
 20
132.9262765212059
 30
0.0
 11
153.488069937203
 21
132.9148781750889
 31
0.0
  0
LINE
  5
2DB
330
E3
100
AcDbEntity
  8
0
  6
Continuous
100
AcDbLine
 10
153.488069937203
 20
132.9148781750889
 30
0.0
 11
153.4527903104613
 21
132.9031036123739
 31
0.0
  0
LINE
  5
2DC
330
E3
100
AcDbEntity
  8
0
  6
Continuous
100
AcDbLine
 10
153.4527903104613
 20
132.9031036123739
 30
0.0
 11
153.4156363794072
 21
132.8909935051256
 31
0.0
  0
LINE
  5
2DD
330
E3
100
AcDbEntity
  8
0
  6
Continuous
100
AcDbLine
 10
153.4156363794072
 20
132.8909935051256
 30
0.0
 11
153.3768996271707
 21
132.8786088614409
 31
0.0
  0
LINE
  5
2DE
330
E3
100
AcDbEntity
  8
0
  6
Continuous
100
AcDbLine
 10
153.3768996271707
 20
132.8786088614409
 30
0.0
 11
153.3368817048978
 21
132.8659971320619
 31
0.0
  0
LINE
  5
2DF
330
E3
100
AcDbEntity
  8
0
  6
Continuous
100
AcDbLine
 10
153.3368817048978
 20
132.8659971320619
 30
0.0
 11
153.2958944317508
 21
132.8532125464082
 31
0.0
  0
LINE
  5
2E0
330
E3
100
AcDbEntity
  8
0
  6
Continuous
100
AcDbLine
 10
153.2958944317508
 20
132.8532125464082
 30
0.0
 11
153.2542530162308
 21
132.8403161125767
 31
0.0
  0
LINE
  5
2E1
330
E3
100
AcDbEntity
  8
0
  6
Continuous
100
AcDbLine
 10
153.2542530162308
 20
132.8403161125767
 30
0.0
 11
153.2122896135323
 21
132.827362059987
 31
0.0
  0
LINE
  5
2E2
330
E3
100
AcDbEntity
  8
0
  6
Continuous
100
AcDbLine
 10
153.2122896135323
 20
132.827362059987
 30
0.0
 11
153.1703228214952
 21
132.8144046180585
 31
0.0
  0
LINE
  5
2E3
330
E3
100
AcDbEntity
  8
0
  6
Continuous
100
AcDbLine
 10
153.1703228214952
 20
132.8144046180585
 30
0.0
 11
153.1286847953139
 21
132.801508184227
 31
0.0
  0
LINE
  5
2E4
330
E3
100
AcDbEntity
  8
0
  6
Continuous
100
AcDbLine
 10
153.1286847953139
 20
132.801508184227
 30
0.0
 11
153.0876941328282
 21
132.7887235985733
 31
0.0
  0
LINE
  5
2E5
330
E3
100
AcDbEntity
  8
0
  6
Continuous
100
AcDbLine
 10
153.0876941328282
 20
132.7887235985733
 30
0.0
 11
153.0476762105553
 21
132.7761118691943
 31
0.0
  0
LINE
  5
2E6
330
E3
100
AcDbEntity
  8
0
  6
Continuous
100
AcDbLine
 10
153.0476762105553
 20
132.7761118691943
 30
0.0
 11
153.0089394583187
 21
132.7637272255096
 31
0.0
  0
LINE
  5
2E7
330
E3
100
AcDbEntity
  8
0
  6
Continuous
100
AcDbLine
 10
153.0089394583187
 20
132.7637272255096
 30
0.0
 11
152.9717855272646
 21
132.7516205076
 31
0.0
  0
LINE
  5
2E8
330
E3
100
AcDbEntity
  8
0
  6
Continuous
100
AcDbLine
 10
152.9717855272646
 20
132.7516205076
 30
0.0
 11
152.936505900523
 21
132.7398425555463
 31
0.0
  0
LINE
  5
2E9
330
E3
100
AcDbEntity
  8
0
  6
Continuous
100
AcDbLine
 10
152.936505900523
 20
132.7398425555463
 30
0.0
 11
152.9033785038689
 21
132.7284442094293
 31
0.0
  0
LINE
  5
2EA
330
E3
100
AcDbEntity
  8
0
  6
Continuous
100
AcDbLine
 10
152.9033785038689
 20
132.7284442094293
 30
0.0
 11
152.8726575377063
 21
132.717472919991
 31
0.0
  0
LINE
  5
2EB
330
E3
100
AcDbEntity
  8
0
  6
Continuous
100
AcDbLine
 10
152.8726575377063
 20
132.717472919991
 30
0.0
 11
152.8445870344232
 21
132.7069659699575
 31
0.0
  0
LINE
  5
2EC
330
E3
100
AcDbEntity
  8
0
  6
Continuous
100
AcDbLine
 10
152.8445870344232
 20
132.7069659699575
 30
0.0
 11
152.8193839116975
 21
132.696967420732
 31
0.0
  0
LINE
  5
2ED
330
E3
100
AcDbEntity
  8
0
  6
Continuous
100
AcDbLine
 10
152.8193839116975
 20
132.696967420732
 30
0.0
 11
152.7972549191914
 21
132.6875111657018
 31
0.0
  0
LINE
  5
2EE
330
E3
100
AcDbEntity
  8
0
  6
Continuous
100
AcDbLine
 10
152.7972549191914
 20
132.6875111657018
 30
0.0
 11
152.7783695238408
 21
132.6786243195767
 31
0.0
  0
LINE
  5
2EF
330
E3
100
AcDbEntity
  8
0
  6
Continuous
100
AcDbLine
 10
152.7783695238408
 20
132.6786243195767
 30
0.0
 11
152.7628802458882
 21
132.6703373864051
 31
0.0
  0
LINE
  5
2F0
330
E3
100
AcDbEntity
  8
0
  6
Continuous
100
AcDbLine
 10
152.7628802458882
 20
132.6703373864051
 30
0.0
 11
152.7509124908661
 21
132.6626707022193
 31
0.0
  0
LINE
  5
2F1
330
E3
100
AcDbEntity
  8
0
  6
Continuous
100
AcDbLine
 10
152.7509124908661
 20
132.6626707022193
 30
0.0
 11
152.7425679389362
 21
132.6556446030518
 31
0.0
  0
LINE
  5
2F2
330
E3
100
AcDbEntity
  8
0
  6
Continuous
100
AcDbLine
 10
152.7425679389362
 20
132.6556446030518
 30
0.0
 11
152.737909493761
 21
132.6492663723405
 31
0.0
  0
LINE
  5
2F3
330
E3
100
AcDbEntity
  8
0
  6
Continuous
100
AcDbLine
 10
152.737909493761
 20
132.6492663723405
 30
0.0
 11
152.7369858435982
 21
132.6435477225617
 31
0.0
  0
LINE
  5
2F4
330
E3
100
AcDbEntity
  8
0
  6
Continuous
100
AcDbLine
 10
153.7559970255448
 20
132.6232186155444
 30
0.0
 11
153.7550733753821
 21
132.6174999657656
 31
0.0
  0
LINE
  5
2F5
330
E3
100
AcDbEntity
  8
0
  6
Continuous
100
AcDbLine
 10
153.7550733753821
 20
132.6174999657656
 30
0.0
 11
153.7504164947316
 21
132.6111230467266
 31
0.0
  0
LINE
  5
2F6
330
E3
100
AcDbEntity
  8
0
  6
Continuous
100
AcDbLine
 10
153.7504164947316
 20
132.6111230467266
 30
0.0
 11
153.7420703702557
 21
132.6040961504517
 31
0.0
  0
LINE
  5
2F7
330
E3
100
AcDbEntity
  8
0
  6
Continuous
100
AcDbLine
 10
153.7420703702557
 20
132.6040961504517
 30
0.0
 11
153.7301026152336
 21
132.596429466266
 31
0.0
  0
LINE
  5
2F8
330
E3
100
AcDbEntity
  8
0
  6
Continuous
100
AcDbLine
 10
153.7301026152336
 20
132.596429466266
 30
0.0
 11
153.7146133372809
 21
132.5881425330943
 31
0.0
  0
LINE
  5
2F9
330
E3
100
AcDbEntity
  8
0
  6
Continuous
100
AcDbLine
 10
153.7146133372809
 20
132.5881425330943
 30
0.0
 11
153.6957279419303
 21
132.5792556869692
 31
0.0
  0
LINE
  5
2FA
330
E3
100
AcDbEntity
  8
0
  6
Continuous
100
AcDbLine
 10
153.6957279419303
 20
132.5792556869692
 30
0.0
 11
153.6735989494242
 21
132.569799431939
 31
0.0
  0
LINE
  5
2FB
330
E3
100
AcDbEntity
  8
0
  6
Continuous
100
AcDbLine
 10
153.6735989494242
 20
132.569799431939
 30
0.0
 11
153.6483958266986
 21
132.5598008827136
 31
0.0
  0
LINE
  5
2FC
330
E3
100
AcDbEntity
  8
0
  6
Continuous
100
AcDbLine
 10
153.6483958266986
 20
132.5598008827136
 30
0.0
 11
153.6203253234155
 21
132.54929393268
 31
0.0
  0
LINE
  5
2FD
330
E3
100
AcDbEntity
  8
0
  6
Continuous
100
AcDbLine
 10
153.6203253234155
 20
132.54929393268
 30
0.0
 11
153.5896043572529
 21
132.5383226432418
 31
0.0
  0
LINE
  5
2FE
330
E3
100
AcDbEntity
  8
0
  6
Continuous
100
AcDbLine
 10
153.5896043572529
 20
132.5383226432418
 30
0.0
 11
153.5564769605987
 21
132.5269242971247
 31
0.0
  0
LINE
  5
2FF
330
E3
100
AcDbEntity
  8
0
  6
Continuous
100
AcDbLine
 10
153.5564769605987
 20
132.5269242971247
 30
0.0
 11
153.5211973338571
 21
132.515146345071
 31
0.0
  0
LINE
  5
300
330
E3
100
AcDbEntity
  8
0
  6
Continuous
100
AcDbLine
 10
153.5211973338571
 20
132.515146345071
 30
0.0
 11
153.484043402803
 21
132.5030396271614
 31
0.0
  0
LINE
  5
301
330
E3
100
AcDbEntity
  8
0
  6
Continuous
100
AcDbLine
 10
153.484043402803
 20
132.5030396271614
 30
0.0
 11
153.4453066505664
 21
132.4906549834767
 31
0.0
  0
LINE
  5
302
330
E3
100
AcDbEntity
  8
0
  6
Continuous
100
AcDbLine
 10
153.4453066505664
 20
132.4906549834767
 30
0.0
 11
153.4052887282936
 21
132.4780432540978
 31
0.0
  0
LINE
  5
303
330
E3
100
AcDbEntity
  8
0
  6
Continuous
100
AcDbLine
 10
153.4052887282936
 20
132.4780432540978
 30
0.0
 11
153.3642980658079
 21
132.4652586684441
 31
0.0
  0
LINE
  5
304
330
E3
100
AcDbEntity
  8
0
  6
Continuous
100
AcDbLine
 10
153.3642980658079
 20
132.4652586684441
 30
0.0
 11
153.3226600396266
 21
132.4523622346125
 31
0.0
  0
LINE
  5
305
330
E3
100
AcDbEntity
  8
0
  6
Continuous
100
AcDbLine
 10
153.3226600396266
 20
132.4523622346125
 30
0.0
 11
153.2806932475894
 21
132.4394047926841
 31
0.0
  0
LINE
  5
306
330
E3
100
AcDbEntity
  8
0
  6
Continuous
100
AcDbLine
 10
153.2806932475894
 20
132.4394047926841
 30
0.0
 11
153.2387298448909
 21
132.4264507400943
 31
0.0
  0
LINE
  5
307
330
E3
100
AcDbEntity
  8
0
  6
Continuous
100
AcDbLine
 10
153.2387298448909
 20
132.4264507400943
 30
0.0
 11
153.1970884293709
 21
132.4135509169242
 31
0.0
  0
LINE
  5
308
330
E3
100
AcDbEntity
  8
0
  6
Continuous
100
AcDbLine
 10
153.1970884293709
 20
132.4135509169242
 30
0.0
 11
153.156101156224
 21
132.4007697206092
 31
0.0
  0
LINE
  5
309
330
E3
100
AcDbEntity
  8
0
  6
Continuous
100
AcDbLine
 10
153.156101156224
 20
132.4007697206092
 30
0.0
 11
153.1160832339511
 21
132.3881579912302
 31
0.0
  0
LINE
  5
30A
330
E3
100
AcDbEntity
  8
0
  6
Continuous
100
AcDbLine
 10
153.1160832339511
 20
132.3881579912302
 30
0.0
 11
153.0773464817145
 21
132.3757699582068
 31
0.0
  0
LINE
  5
30B
330
E3
100
AcDbEntity
  8
0
  6
Continuous
100
AcDbLine
 10
153.0773464817145
 20
132.3757699582068
 30
0.0
 11
153.0401925506604
 21
132.3636632402972
 31
0.0
  0
LINE
  5
30C
330
E3
100
AcDbEntity
  8
0
  6
Continuous
100
AcDbLine
 10
153.0401925506604
 20
132.3636632402972
 30
0.0
 11
153.0049129239188
 21
132.3518886775822
 31
0.0
  0
LINE
  5
30D
330
E3
100
AcDbEntity
  8
0
  6
Continuous
100
AcDbLine
 10
153.0049129239188
 20
132.3518886775822
 30
0.0
 11
152.9717855272646
 21
132.3404903314651
 31
0.0
  0
LINE
  5
30E
330
E3
100
AcDbEntity
  8
0
  6
Continuous
100
AcDbLine
 10
152.9717855272646
 20
132.3404903314651
 30
0.0
 11
152.9410645611021
 21
132.3295190420269
 31
0.0
  0
LINE
  5
30F
330
E3
100
AcDbEntity
  8
0
  6
Continuous
100
AcDbLine
 10
152.9410645611021
 20
132.3295190420269
 30
0.0
 11
152.9129940578189
 21
132.3190120919933
 31
0.0
  0
LINE
  5
310
330
E3
100
AcDbEntity
  8
0
  6
Continuous
100
AcDbLine
 10
152.9129940578189
 20
132.3190120919933
 30
0.0
 11
152.8877909350933
 21
132.3090135427679
 31
0.0
  0
LINE
  5
311
330
E3
100
AcDbEntity
  8
0
  6
Continuous
100
AcDbLine
 10
152.8877909350933
 20
132.3090135427679
 30
0.0
 11
152.8656619425872
 21
132.299553898399
 31
0.0
  0
LINE
  5
312
330
E3
100
AcDbEntity
  8
0
  6
Continuous
100
AcDbLine
 10
152.8656619425872
 20
132.299553898399
 30
0.0
 11
152.8467765472366
 21
132.2906704416125
 31
0.0
  0
LINE
  5
313
330
E3
100
AcDbEntity
  8
0
  6
Continuous
100
AcDbLine
 10
152.8467765472366
 20
132.2906704416125
 30
0.0
 11
152.8312872692839
 21
132.282383508441
 31
0.0
  0
LINE
  5
314
330
E3
100
AcDbEntity
  8
0
  6
Continuous
100
AcDbLine
 10
152.8312872692839
 20
132.282383508441
 30
0.0
 11
152.8193195142619
 21
132.2747168242552
 31
0.0
  0
LINE
  5
315
330
E3
100
AcDbEntity
  8
0
  6
Continuous
100
AcDbLine
 10
152.8193195142619
 20
132.2747168242552
 30
0.0
 11
152.8109715729933
 21
132.2676873357489
 31
0.0
  0
LINE
  5
316
330
E3
100
AcDbEntity
  8
0
  6
Continuous
100
AcDbLine
 10
152.8109715729933
 20
132.2676873357489
 30
0.0
 11
152.8063163516298
 21
132.2613118029721
 31
0.0
  0
LINE
  5
317
330
E3
100
AcDbEntity
  8
0
  6
Continuous
100
AcDbLine
 10
152.8063163516298
 20
132.2613118029721
 30
0.0
 11
152.805392701467
 21
132.2555931531933
 31
0.0
  0
LINE
  5
318
330
E3
100
AcDbEntity
  8
0
  6
Continuous
100
AcDbLine
 10
153.8244038834137
 20
132.235264046176
 30
0.0
 11
153.8234802332509
 21
132.2295453963972
 31
0.0
  0
LINE
  5
319
330
E3
100
AcDbEntity
  8
0
  6
Continuous
100
AcDbLine
 10
153.8234802332509
 20
132.2295453963972
 30
0.0
 11
153.8188233526004
 21
132.2231684773581
 31
0.0
  0
LINE
  5
31A
330
E3
100
AcDbEntity
  8
0
  6
Continuous
100
AcDbLine
 10
153.8188233526004
 20
132.2231684773581
 30
0.0
 11
153.8104773936514
 21
132.2161422724876
 31
0.0
  0
LINE
  5
31B
330
E3
100
AcDbEntity
  8
0
  6
Continuous
100
AcDbLine
 10
153.8104773936514
 20
132.2161422724876
 30
0.0
 11
153.7985096386294
 21
132.2084755883018
 31
0.0
  0
LINE
  5
31C
330
E3
100
AcDbEntity
  8
0
  6
Continuous
100
AcDbLine
 10
153.7985096386294
 20
132.2084755883018
 30
0.0
 11
153.7830203606767
 21
132.2001886551302
 31
0.0
  0
LINE
  5
31D
330
E3
100
AcDbEntity
  8
0
  6
Continuous
100
AcDbLine
 10
153.7830203606767
 20
132.2001886551302
 30
0.0
 11
153.7641349653261
 21
132.191301809005
 31
0.0
  0
LINE
  5
31E
330
E3
100
AcDbEntity
  8
0
  6
Continuous
100
AcDbLine
 10
153.7641349653261
 20
132.191301809005
 30
0.0
 11
153.74200597282
 21
132.1818455539749
 31
0.0
  0
LINE
  5
31F
330
E3
100
AcDbEntity
  8
0
  6
Continuous
100
AcDbLine
 10
153.74200597282
 20
132.1818455539749
 30
0.0
 11
153.7168028500944
 21
132.1718436154107
 31
0.0
  0
LINE
  5
320
330
E3
100
AcDbEntity
  8
0
  6
Continuous
100
AcDbLine
 10
153.7168028500944
 20
132.1718436154107
 30
0.0
 11
153.6887323468112
 21
132.1613400547159
 31
0.0
  0
LINE
  5
321
330
E3
100
AcDbEntity
  8
0
  6
Continuous
100
AcDbLine
 10
153.6887323468112
 20
132.1613400547159
 30
0.0
 11
153.6580113806486
 21
132.1503653759389
 31
0.0
  0
LINE
  5
322
330
E3
100
AcDbEntity
  8
0
  6
Continuous
100
AcDbLine
 10
153.6580113806486
 20
132.1503653759389
 30
0.0
 11
153.6248839839945
 21
132.1389704191606
 31
0.0
  0
LINE
  5
323
330
E3
100
AcDbEntity
  8
0
  6
Continuous
100
AcDbLine
 10
153.6248839839945
 20
132.1389704191606
 30
0.0
 11
153.5896043572529
 21
132.1271924671069
 31
0.0
  0
LINE
  5
324
330
E3
100
AcDbEntity
  8
0
  6
Continuous
100
AcDbLine
 10
153.5896043572529
 20
132.1271924671069
 30
0.0
 11
153.5524504261988
 21
132.1150857491972
 31
0.0
  0
LINE
  5
325
330
E3
100
AcDbEntity
  8
0
  6
Continuous
100
AcDbLine
 10
153.5524504261988
 20
132.1150857491972
 30
0.0
 11
153.5137136739622
 21
132.1027011055126
 31
0.0
  0
LINE
  5
326
330
E3
100
AcDbEntity
  8
0
  6
Continuous
100
AcDbLine
 10
153.5137136739622
 20
132.1027011055126
 30
0.0
 11
153.4736957516893
 21
132.0900893761336
 31
0.0
  0
LINE
  5
327
330
E3
100
AcDbEntity
  8
0
  6
Continuous
100
AcDbLine
 10
153.4736957516893
 20
132.0900893761336
 30
0.0
 11
153.4327050892036
 21
132.0773047904799
 31
0.0
  0
LINE
  5
328
330
E3
100
AcDbEntity
  8
0
  6
Continuous
100
AcDbLine
 10
153.4327050892036
 20
132.0773047904799
 30
0.0
 11
153.3910670630223
 21
132.0644083566484
 31
0.0
  0
LINE
  5
329
330
E3
100
AcDbEntity
  8
0
  6
Continuous
100
AcDbLine
 10
153.3910670630223
 20
132.0644083566484
 30
0.0
 11
153.3491002709852
 21
132.0514509147199
 31
0.0
  0
LINE
  5
32A
330
E3
100
AcDbEntity
  8
0
  6
Continuous
100
AcDbLine
 10
153.3491002709852
 20
132.0514509147199
 30
0.0
 11
153.3071368682867
 21
132.0384968621302
 31
0.0
  0
LINE
  5
32B
330
E3
100
AcDbEntity
  8
0
  6
Continuous
100
AcDbLine
 10
153.3071368682867
 20
132.0384968621302
 30
0.0
 11
153.2654954527667
 21
132.02559703896
 31
0.0
  0
LINE
  5
32C
330
E3
100
AcDbEntity
  8
0
  6
Continuous
100
AcDbLine
 10
153.2654954527667
 20
132.02559703896
 30
0.0
 11
153.2245081796197
 21
132.012815842645
 31
0.0
  0
LINE
  5
32D
330
E3
100
AcDbEntity
  8
0
  6
Continuous
100
AcDbLine
 10
153.2245081796197
 20
132.012815842645
 30
0.0
 11
153.1844902573469
 21
132.0002041132661
 31
0.0
  0
LINE
  5
32E
330
E3
100
AcDbEntity
  8
0
  6
Continuous
100
AcDbLine
 10
153.1844902573469
 20
132.0002041132661
 30
0.0
 11
153.1457535051103
 21
131.9878160802426
 31
0.0
  0
LINE
  5
32F
330
E3
100
AcDbEntity
  8
0
  6
Continuous
100
AcDbLine
 10
153.1457535051103
 20
131.9878160802426
 30
0.0
 11
153.1085995740562
 21
131.975709362333
 31
0.0
  0
LINE
  5
330
330
E3
100
AcDbEntity
  8
0
  6
Continuous
100
AcDbLine
 10
153.1085995740562
 20
131.975709362333
 30
0.0
 11
153.0733199473146
 21
131.963934799618
 31
0.0
  0
LINE
  5
331
330
E3
100
AcDbEntity
  8
0
  6
Continuous
100
AcDbLine
 10
153.0733199473146
 20
131.963934799618
 30
0.0
 11
153.0401925506604
 21
131.952536453501
 31
0.0
  0
LINE
  5
332
330
E3
100
AcDbEntity
  8
0
  6
Continuous
100
AcDbLine
 10
153.0401925506604
 20
131.952536453501
 30
0.0
 11
153.0094715844978
 21
131.941561774724
 31
0.0
  0
LINE
  5
333
330
E3
100
AcDbEntity
  8
0
  6
Continuous
100
AcDbLine
 10
153.0094715844978
 20
131.941561774724
 30
0.0
 11
152.9814010812147
 21
131.9310582140292
 31
0.0
  0
LINE
  5
334
330
E3
100
AcDbEntity
  8
0
  6
Continuous
100
AcDbLine
 10
152.9814010812147
 20
131.9310582140292
 30
0.0
 11
152.9561979584891
 21
131.9210596648037
 31
0.0
  0
LINE
  5
335
330
E3
100
AcDbEntity
  8
0
  6
Continuous
100
AcDbLine
 10
152.9561979584891
 20
131.9210596648037
 30
0.0
 11
152.934068965983
 21
131.9116000204348
 31
0.0
  0
LINE
  5
336
330
E3
100
AcDbEntity
  8
0
  6
Continuous
100
AcDbLine
 10
152.934068965983
 20
131.9116000204348
 30
0.0
 11
152.9151835706324
 21
131.9027131743097
 31
0.0
  0
LINE
  5
337
330
E3
100
AcDbEntity
  8
0
  6
Continuous
100
AcDbLine
 10
152.9151835706324
 20
131.9027131743097
 30
0.0
 11
152.8996942926797
 21
131.8944262411381
 31
0.0
  0
LINE
  5
338
330
E3
100
AcDbEntity
  8
0
  6
Continuous
100
AcDbLine
 10
152.8996942926797
 20
131.8944262411381
 30
0.0
 11
152.8877265376576
 21
131.886762946291
 31
0.0
  0
LINE
  5
339
330
E3
100
AcDbEntity
  8
0
  6
Continuous
100
AcDbLine
 10
152.8877265376576
 20
131.886762946291
 30
0.0
 11
152.879378596389
 21
131.8797334577847
 31
0.0
  0
LINE
  5
33A
330
E3
100
AcDbEntity
  8
0
  6
Continuous
100
AcDbLine
 10
152.879378596389
 20
131.8797334577847
 30
0.0
 11
152.8747232094985
 21
131.8733572336037
 31
0.0
  0
LINE
  5
33B
330
E3
100
AcDbEntity
  8
0
  6
Continuous
100
AcDbLine
 10
152.8747232094985
 20
131.8733572336037
 30
0.0
 11
152.8737995593358
 21
131.8676385838248
 31
0.0
  0
LINE
  5
33C
330
E3
100
AcDbEntity
  8
0
  6
Continuous
100
AcDbLine
 10
153.8928107412824
 20
131.8473094768076
 30
0.0
 11
153.8918870911197
 21
131.8415908270287
 31
0.0
  0
LINE
  5
33D
330
E3
100
AcDbEntity
  8
0
  6
Continuous
100
AcDbLine
 10
153.8918870911197
 20
131.8415908270287
 30
0.0
 11
153.8872302104692
 21
131.8352139079897
 31
0.0
  0
LINE
  5
33E
330
E3
100
AcDbEntity
  8
0
  6
Continuous
100
AcDbLine
 10
153.8872302104692
 20
131.8352139079897
 30
0.0
 11
153.8788844170472
 21
131.8281850051847
 31
0.0
  0
LINE
  5
33F
330
E3
100
AcDbEntity
  8
0
  6
Continuous
100
AcDbLine
 10
153.8788844170472
 20
131.8281850051847
 30
0.0
 11
153.8669166620251
 21
131.8205217103377
 31
0.0
  0
LINE
  5
340
330
E3
100
AcDbEntity
  8
0
  6
Continuous
100
AcDbLine
 10
153.8669166620251
 20
131.8205217103377
 30
0.0
 11
153.8514273840725
 21
131.8122347771661
 31
0.0
  0
LINE
  5
341
330
E3
100
AcDbEntity
  8
0
  6
Continuous
100
AcDbLine
 10
153.8514273840725
 20
131.8122347771661
 30
0.0
 11
153.8325419887219
 21
131.8033479310409
 31
0.0
  0
LINE
  5
342
330
E3
100
AcDbEntity
  8
0
  6
Continuous
100
AcDbLine
 10
153.8325419887219
 20
131.8033479310409
 30
0.0
 11
153.810409606877
 21
131.793888286672
 31
0.0
  0
LINE
  5
343
330
E3
100
AcDbEntity
  8
0
  6
Continuous
100
AcDbLine
 10
153.810409606877
 20
131.793888286672
 30
0.0
 11
153.7852098734901
 21
131.7838897374465
 31
0.0
  0
LINE
  5
344
330
E3
100
AcDbEntity
  8
0
  6
Continuous
100
AcDbLine
 10
153.7852098734901
 20
131.7838897374465
 30
0.0
 11
153.757139370207
 21
131.7733861767517
 31
0.0
  0
LINE
  5
345
330
E3
100
AcDbEntity
  8
0
  6
Continuous
100
AcDbLine
 10
153.757139370207
 20
131.7733861767517
 30
0.0
 11
153.7264184040444
 21
131.7624114979747
 31
0.0
  0
LINE
  5
346
330
E3
100
AcDbEntity
  8
0
  6
Continuous
100
AcDbLine
 10
153.7264184040444
 20
131.7624114979747
 30
0.0
 11
153.6932876180516
 21
131.7510131518577
 31
0.0
  0
LINE
  5
347
330
E3
100
AcDbEntity
  8
0
  6
Continuous
100
AcDbLine
 10
153.6932876180516
 20
131.7510131518577
 30
0.0
 11
153.6580113806486
 21
131.7392385891427
 31
0.0
  0
LINE
  5
348
330
E3
100
AcDbEntity
  8
0
  6
Continuous
100
AcDbLine
 10
153.6580113806486
 20
131.7392385891427
 30
0.0
 11
153.6208574495946
 21
131.7271318712331
 31
0.0
  0
LINE
  5
349
330
E3
100
AcDbEntity
  8
0
  6
Continuous
100
AcDbLine
 10
153.6208574495946
 20
131.7271318712331
 30
0.0
 11
153.582120697358
 21
131.7147438382097
 31
0.0
  0
LINE
  5
34A
330
E3
100
AcDbEntity
  8
0
  6
Continuous
100
AcDbLine
 10
153.582120697358
 20
131.7147438382097
 30
0.0
 11
153.5421027750851
 21
131.7021321088307
 31
0.0
  0
LINE
  5
34B
330
E3
100
AcDbEntity
  8
0
  6
Continuous
100
AcDbLine
 10
153.5421027750851
 20
131.7021321088307
 30
0.0
 11
153.5011121125994
 21
131.6893509125157
 31
0.0
  0
LINE
  5
34C
330
E3
100
AcDbEntity
  8
0
  6
Continuous
100
AcDbLine
 10
153.5011121125994
 20
131.6893509125157
 30
0.0
 11
153.4594740864181
 21
131.6764510893455
 31
0.0
  0
LINE
  5
34D
330
E3
100
AcDbEntity
  8
0
  6
Continuous
100
AcDbLine
 10
153.4594740864181
 20
131.6764510893455
 30
0.0
 11
153.417507294381
 21
131.6634970367558
 31
0.0
  0
LINE
  5
34E
330
E3
100
AcDbEntity
  8
0
  6
Continuous
100
AcDbLine
 10
153.417507294381
 20
131.6634970367558
 30
0.0
 11
153.3755438916825
 21
131.6505395948273
 31
0.0
  0
LINE
  5
34F
330
E3
100
AcDbEntity
  8
0
  6
Continuous
100
AcDbLine
 10
153.3755438916825
 20
131.6505395948273
 30
0.0
 11
153.3339024761625
 21
131.6376431609958
 31
0.0
  0
LINE
  5
350
330
E3
100
AcDbEntity
  8
0
  6
Continuous
100
AcDbLine
 10
153.3339024761625
 20
131.6376431609958
 30
0.0
 11
153.2929152030155
 21
131.6248585753421
 31
0.0
  0
LINE
  5
351
330
E3
100
AcDbEntity
  8
0
  6
Continuous
100
AcDbLine
 10
153.2929152030155
 20
131.6248585753421
 30
0.0
 11
153.2528972807426
 21
131.6122468459631
 31
0.0
  0
LINE
  5
352
330
E3
100
AcDbEntity
  8
0
  6
Continuous
100
AcDbLine
 10
153.2528972807426
 20
131.6122468459631
 30
0.0
 11
153.2141605285061
 21
131.5998622022784
 31
0.0
  0
LINE
  5
353
330
E3
100
AcDbEntity
  8
0
  6
Continuous
100
AcDbLine
 10
153.2141605285061
 20
131.5998622022784
 30
0.0
 11
153.177006597452
 21
131.5877554843688
 31
0.0
  0
LINE
  5
354
330
E3
100
AcDbEntity
  8
0
  6
Continuous
100
AcDbLine
 10
153.177006597452
 20
131.5877554843688
 30
0.0
 11
153.1417269707103
 21
131.5759775323151
 31
0.0
  0
LINE
  5
355
330
E3
100
AcDbEntity
  8
0
  6
Continuous
100
AcDbLine
 10
153.1417269707103
 20
131.5759775323151
 30
0.0
 11
153.1085995740562
 21
131.5645825755368
 31
0.0
  0
LINE
  5
356
330
E3
100
AcDbEntity
  8
0
  6
Continuous
100
AcDbLine
 10
153.1085995740562
 20
131.5645825755368
 30
0.0
 11
153.0778786078936
 21
131.5536078967598
 31
0.0
  0
LINE
  5
357
330
E3
100
AcDbEntity
  8
0
  6
Continuous
100
AcDbLine
 10
153.0778786078936
 20
131.5536078967598
 30
0.0
 11
153.0498047152717
 21
131.543104336065
 31
0.0
  0
LINE
  5
358
330
E3
100
AcDbEntity
  8
0
  6
Continuous
100
AcDbLine
 10
153.0498047152717
 20
131.543104336065
 30
0.0
 11
153.0246049818849
 21
131.5331023975008
 31
0.0
  0
LINE
  5
359
330
E3
100
AcDbEntity
  8
0
  6
Continuous
100
AcDbLine
 10
153.0246049818849
 20
131.5331023975008
 30
0.0
 11
153.0024759893788
 21
131.5236461424707
 31
0.0
  0
LINE
  5
35A
330
E3
100
AcDbEntity
  8
0
  6
Continuous
100
AcDbLine
 10
153.0024759893788
 20
131.5236461424707
 30
0.0
 11
152.9835905940282
 21
131.5147592963455
 31
0.0
  0
LINE
  5
35B
330
E3
100
AcDbEntity
  8
0
  6
Continuous
100
AcDbLine
 10
152.9835905940282
 20
131.5147592963455
 30
0.0
 11
152.9681013160755
 21
131.5064723631739
 31
0.0
  0
LINE
  5
35C
330
E3
100
AcDbEntity
  8
0
  6
Continuous
100
AcDbLine
 10
152.9681013160755
 20
131.5064723631739
 30
0.0
 11
152.9561335610534
 21
131.4988056789882
 31
0.0
  0
LINE
  5
35D
330
E3
100
AcDbEntity
  8
0
  6
Continuous
100
AcDbLine
 10
152.9561335610534
 20
131.4988056789882
 30
0.0
 11
152.9477856197848
 21
131.4917795798206
 31
0.0
  0
LINE
  5
35E
330
E3
100
AcDbEntity
  8
0
  6
Continuous
100
AcDbLine
 10
152.9477856197848
 20
131.4917795798206
 30
0.0
 11
152.9431300673673
 21
131.4854026642352
 31
0.0
  0
LINE
  5
35F
330
E3
100
AcDbEntity
  8
0
  6
Continuous
100
AcDbLine
 10
152.9431300673673
 20
131.4854026642352
 30
0.0
 11
152.9422064172046
 21
131.4796840144564
 31
0.0
  0
LINE
  5
360
330
E3
100
AcDbEntity
  8
0
  6
Continuous
100
AcDbLine
 10
153.9612175991512
 20
131.4593549074391
 30
0.0
 11
153.9602939489885
 21
131.4536362576603
 31
0.0
  0
LINE
  5
361
330
E3
100
AcDbEntity
  8
0
  6
Continuous
100
AcDbLine
 10
153.9602939489885
 20
131.4536362576603
 30
0.0
 11
153.9556370683379
 21
131.4472593386213
 31
0.0
  0
LINE
  5
362
330
E3
100
AcDbEntity
  8
0
  6
Continuous
100
AcDbLine
 10
153.9556370683379
 20
131.4472593386213
 30
0.0
 11
153.9472880511043
 21
131.4402311272205
 31
0.0
  0
LINE
  5
363
330
E3
100
AcDbEntity
  8
0
  6
Continuous
100
AcDbLine
 10
153.9472880511043
 20
131.4402311272205
 30
0.0
 11
153.9353236854209
 21
131.4325644430348
 31
0.0
  0
LINE
  5
364
330
E3
100
AcDbEntity
  8
0
  6
Continuous
100
AcDbLine
 10
153.9353236854209
 20
131.4325644430348
 30
0.0
 11
153.9198344074683
 21
131.4242775098631
 31
0.0
  0
LINE
  5
365
330
E3
100
AcDbEntity
  8
0
  6
Continuous
100
AcDbLine
 10
153.9198344074683
 20
131.4242775098631
 30
0.0
 11
153.9009490121176
 21
131.4153940530768
 31
0.0
  0
LINE
  5
366
330
E3
100
AcDbEntity
  8
0
  6
Continuous
100
AcDbLine
 10
153.9009490121176
 20
131.4153940530768
 30
0.0
 11
153.8788166302728
 21
131.4059344087079
 31
0.0
  0
LINE
  5
367
330
E3
100
AcDbEntity
  8
0
  6
Continuous
100
AcDbLine
 10
153.8788166302728
 20
131.4059344087079
 30
0.0
 11
153.8536168968859
 21
131.3959358594824
 31
0.0
  0
LINE
  5
368
330
E3
100
AcDbEntity
  8
0
  6
Continuous
100
AcDbLine
 10
153.8536168968859
 20
131.3959358594824
 30
0.0
 11
153.8255463936027
 21
131.3854289094488
 31
0.0
  0
LINE
  5
369
330
E3
100
AcDbEntity
  8
0
  6
Continuous
100
AcDbLine
 10
153.8255463936027
 20
131.3854289094488
 30
0.0
 11
153.7948254274402
 21
131.3744576200106
 31
0.0
  0
LINE
  5
36A
330
E3
100
AcDbEntity
  8
0
  6
Continuous
100
AcDbLine
 10
153.7948254274402
 20
131.3744576200106
 30
0.0
 11
153.7616946414473
 21
131.3630592738936
 31
0.0
  0
LINE
  5
36B
330
E3
100
AcDbEntity
  8
0
  6
Continuous
100
AcDbLine
 10
153.7616946414473
 20
131.3630592738936
 30
0.0
 11
153.7264184040444
 21
131.3512847111786
 31
0.0
  0
LINE
  5
36C
330
E3
100
AcDbEntity
  8
0
  6
Continuous
100
AcDbLine
 10
153.7264184040444
 20
131.3512847111786
 30
0.0
 11
153.6892644729903
 21
131.3391779932689
 31
0.0
  0
LINE
  5
36D
330
E3
100
AcDbEntity
  8
0
  6
Continuous
100
AcDbLine
 10
153.6892644729903
 20
131.3391779932689
 30
0.0
 11
153.6505277207538
 21
131.3267899602455
 31
0.0
  0
LINE
  5
36E
330
E3
100
AcDbEntity
  8
0
  6
Continuous
100
AcDbLine
 10
153.6505277207538
 20
131.3267899602455
 30
0.0
 11
153.6105097984809
 21
131.3141782308666
 31
0.0
  0
LINE
  5
36F
330
E3
100
AcDbEntity
  8
0
  6
Continuous
100
AcDbLine
 10
153.6105097984809
 20
131.3141782308666
 30
0.0
 11
153.5695191359952
 21
131.3013970345516
 31
0.0
  0
LINE
  5
370
330
E3
100
AcDbEntity
  8
0
  6
Continuous
100
AcDbLine
 10
153.5695191359952
 20
131.3013970345516
 30
0.0
 11
153.5278811098139
 21
131.2884972113814
 31
0.0
  0
LINE
  5
371
330
E3
100
AcDbEntity
  8
0
  6
Continuous
100
AcDbLine
 10
153.5278811098139
 20
131.2884972113814
 30
0.0
 11
153.4859143177767
 21
131.2755431587916
 31
0.0
  0
LINE
  5
372
330
E3
100
AcDbEntity
  8
0
  6
Continuous
100
AcDbLine
 10
153.4859143177767
 20
131.2755431587916
 30
0.0
 11
153.4439509150782
 21
131.2625857168632
 31
0.0
  0
LINE
  5
373
330
E3
100
AcDbEntity
  8
0
  6
Continuous
100
AcDbLine
 10
153.4439509150782
 20
131.2625857168632
 30
0.0
 11
153.4023094995582
 21
131.2496892830317
 31
0.0
  0
LINE
  5
374
330
E3
100
AcDbEntity
  8
0
  6
Continuous
100
AcDbLine
 10
153.4023094995582
 20
131.2496892830317
 30
0.0
 11
153.3613222264113
 21
131.236904697378
 31
0.0
  0
LINE
  5
375
330
E3
100
AcDbEntity
  8
0
  6
Continuous
100
AcDbLine
 10
153.3613222264113
 20
131.236904697378
 30
0.0
 11
153.3213043041384
 21
131.224292967999
 31
0.0
  0
LINE
  5
376
330
E3
100
AcDbEntity
  8
0
  6
Continuous
100
AcDbLine
 10
153.3213043041384
 20
131.224292967999
 30
0.0
 11
153.2825675519018
 21
131.2119083243143
 31
0.0
  0
LINE
  5
377
330
E3
100
AcDbEntity
  8
0
  6
Continuous
100
AcDbLine
 10
153.2825675519018
 20
131.2119083243143
 30
0.0
 11
153.2454136208478
 21
131.1998016064047
 31
0.0
  0
LINE
  5
378
330
E3
100
AcDbEntity
  8
0
  6
Continuous
100
AcDbLine
 10
153.2454136208478
 20
131.1998016064047
 30
0.0
 11
153.2101339941061
 21
131.188023654351
 31
0.0
  0
LINE
  5
379
330
E3
100
AcDbEntity
  8
0
  6
Continuous
100
AcDbLine
 10
153.2101339941061
 20
131.188023654351
 30
0.0
 11
153.177006597452
 21
131.176625308234
 31
0.0
  0
LINE
  5
37A
330
E3
100
AcDbEntity
  8
0
  6
Continuous
100
AcDbLine
 10
153.177006597452
 20
131.176625308234
 30
0.0
 11
153.1462856312894
 21
131.1656540187957
 31
0.0
  0
LINE
  5
37B
330
E3
100
AcDbEntity
  8
0
  6
Continuous
100
AcDbLine
 10
153.1462856312894
 20
131.1656540187957
 30
0.0
 11
153.1182117386676
 21
131.1551470687622
 31
0.0
  0
LINE
  5
37C
330
E3
100
AcDbEntity
  8
0
  6
Continuous
100
AcDbLine
 10
153.1182117386676
 20
131.1551470687622
 30
0.0
 11
153.0930120052806
 21
131.1451485195367
 31
0.0
  0
LINE
  5
37D
330
E3
100
AcDbEntity
  8
0
  6
Continuous
100
AcDbLine
 10
153.0930120052806
 20
131.1451485195367
 30
0.0
 11
153.0708830127745
 21
131.1356922645065
 31
0.0
  0
LINE
  5
37E
330
E3
100
AcDbEntity
  8
0
  6
Continuous
100
AcDbLine
 10
153.0708830127745
 20
131.1356922645065
 30
0.0
 11
153.0519976174239
 21
131.1268054183814
 31
0.0
  0
LINE
  5
37F
330
E3
100
AcDbEntity
  8
0
  6
Continuous
100
AcDbLine
 10
153.0519976174239
 20
131.1268054183814
 30
0.0
 11
153.0365083394713
 21
131.1185184852098
 31
0.0
  0
LINE
  5
380
330
E3
100
AcDbEntity
  8
0
  6
Continuous
100
AcDbLine
 10
153.0365083394713
 20
131.1185184852098
 30
0.0
 11
153.0245405844492
 21
131.110851801024
 31
0.0
  0
LINE
  5
381
330
E3
100
AcDbEntity
  8
0
  6
Continuous
100
AcDbLine
 10
153.0245405844492
 20
131.110851801024
 30
0.0
 11
153.0161926431806
 21
131.1038257018564
 31
0.0
  0
LINE
  5
382
330
E3
100
AcDbEntity
  8
0
  6
Continuous
100
AcDbLine
 10
153.0161926431806
 20
131.1038257018564
 30
0.0
 11
153.0115369252361
 21
131.0974480948668
 31
0.0
  0
LINE
  5
383
330
E3
100
AcDbEntity
  8
0
  6
Continuous
100
AcDbLine
 10
153.0115369252361
 20
131.0974480948668
 30
0.0
 11
153.0106132750734
 21
131.091729445088
 31
0.0
  0
LINE
  5
384
330
E3
100
AcDbEntity
  8
0
  6
Continuous
100
AcDbLine
 10
154.02962445702
 20
131.0714003380706
 30
0.0
 11
154.0287008068573
 21
131.0656816882918
 31
0.0
  0
LINE
  5
385
330
E3
100
AcDbEntity
  8
0
  6
Continuous
100
AcDbLine
 10
154.0287008068573
 20
131.0656816882918
 30
0.0
 11
154.0240439262068
 21
131.0593047692528
 31
0.0
  0
LINE
  5
386
330
E3
100
AcDbEntity
  8
0
  6
Continuous
100
AcDbLine
 10
154.0240439262068
 20
131.0593047692528
 30
0.0
 11
154.0156950745
 21
131.0522772492564
 31
0.0
  0
LINE
  5
387
330
E3
100
AcDbEntity
  8
0
  6
Continuous
100
AcDbLine
 10
154.0156950745
 20
131.0522772492564
 30
0.0
 11
154.0037307088167
 21
131.0446105650706
 31
0.0
  0
LINE
  5
388
330
E3
100
AcDbEntity
  8
0
  6
Continuous
100
AcDbLine
 10
154.0037307088167
 20
131.0446105650706
 30
0.0
 11
153.988241430864
 21
131.036323631899
 31
0.0
  0
LINE
  5
389
330
E3
100
AcDbEntity
  8
0
  6
Continuous
100
AcDbLine
 10
153.988241430864
 20
131.036323631899
 30
0.0
 11
153.9693560355134
 21
131.0274401751126
 31
0.0
  0
LINE
  5
38A
330
E3
100
AcDbEntity
  8
0
  6
Continuous
100
AcDbLine
 10
153.9693560355134
 20
131.0274401751126
 30
0.0
 11
153.9472236536686
 21
131.0179805307437
 31
0.0
  0
LINE
  5
38B
330
E3
100
AcDbEntity
  8
0
  6
Continuous
100
AcDbLine
 10
153.9472236536686
 20
131.0179805307437
 30
0.0
 11
153.9220239202817
 21
131.0079819815182
 31
0.0
  0
LINE
  5
38C
330
E3
100
AcDbEntity
  8
0
  6
Continuous
100
AcDbLine
 10
153.9220239202817
 20
131.0079819815182
 30
0.0
 11
153.8939534169986
 21
130.9974750314847
 31
0.0
  0
LINE
  5
38D
330
E3
100
AcDbEntity
  8
0
  6
Continuous
100
AcDbLine
 10
153.8939534169986
 20
130.9974750314847
 30
0.0
 11
153.8632324508359
 21
130.9865037420464
 31
0.0
  0
LINE
  5
38E
330
E3
100
AcDbEntity
  8
0
  6
Continuous
100
AcDbLine
 10
153.8632324508359
 20
130.9865037420464
 30
0.0
 11
153.8301016648431
 21
130.9751053959294
 31
0.0
  0
LINE
  5
38F
330
E3
100
AcDbEntity
  8
0
  6
Continuous
100
AcDbLine
 10
153.8301016648431
 20
130.9751053959294
 30
0.0
 11
153.7948220381015
 21
130.9633308332144
 31
0.0
  0
LINE
  5
390
330
E3
100
AcDbEntity
  8
0
  6
Continuous
100
AcDbLine
 10
153.7948220381015
 20
130.9633308332144
 30
0.0
 11
153.7576714963861
 21
130.9512207259661
 31
0.0
  0
LINE
  5
391
330
E3
100
AcDbEntity
  8
0
  6
Continuous
100
AcDbLine
 10
153.7576714963861
 20
130.9512207259661
 30
0.0
 11
153.7189347441495
 21
130.9388360822814
 31
0.0
  0
LINE
  5
392
330
E3
100
AcDbEntity
  8
0
  6
Continuous
100
AcDbLine
 10
153.7189347441495
 20
130.9388360822814
 30
0.0
 11
153.6789168218767
 21
130.9262243529024
 31
0.0
  0
LINE
  5
393
330
E3
100
AcDbEntity
  8
0
  6
Continuous
100
AcDbLine
 10
153.6789168218767
 20
130.9262243529024
 30
0.0
 11
153.637926159391
 21
130.9134397672487
 31
0.0
  0
LINE
  5
394
330
E3
100
AcDbEntity
  8
0
  6
Continuous
100
AcDbLine
 10
153.637926159391
 20
130.9134397672487
 30
0.0
 11
153.5962881332097
 21
130.9005433334172
 31
0.0
  0
LINE
  5
395
330
E3
100
AcDbEntity
  8
0
  6
Continuous
100
AcDbLine
 10
153.5962881332097
 20
130.9005433334172
 30
0.0
 11
153.5543213411725
 21
130.8875892808275
 31
0.0
  0
LINE
  5
396
330
E3
100
AcDbEntity
  8
0
  6
Continuous
100
AcDbLine
 10
153.5543213411725
 20
130.8875892808275
 30
0.0
 11
153.512357938474
 21
130.874631838899
 31
0.0
  0
LINE
  5
397
330
E3
100
AcDbEntity
  8
0
  6
Continuous
100
AcDbLine
 10
153.512357938474
 20
130.874631838899
 30
0.0
 11
153.470716522954
 21
130.8617354050675
 31
0.0
  0
LINE
  5
398
330
E3
100
AcDbEntity
  8
0
  6
Continuous
100
AcDbLine
 10
153.470716522954
 20
130.8617354050675
 30
0.0
 11
153.4297292498071
 21
130.8489508194138
 31
0.0
  0
LINE
  5
399
330
E3
100
AcDbEntity
  8
0
  6
Continuous
100
AcDbLine
 10
153.4297292498071
 20
130.8489508194138
 30
0.0
 11
153.3897113275341
 21
130.8363390900349
 31
0.0
  0
LINE
  5
39A
330
E3
100
AcDbEntity
  8
0
  6
Continuous
100
AcDbLine
 10
153.3897113275341
 20
130.8363390900349
 30
0.0
 11
153.3509745752976
 21
130.8239544463502
 31
0.0
  0
LINE
  5
39B
330
E3
100
AcDbEntity
  8
0
  6
Continuous
100
AcDbLine
 10
153.3509745752976
 20
130.8239544463502
 30
0.0
 11
153.3138206442435
 21
130.8118443391018
 31
0.0
  0
LINE
  5
39C
330
E3
100
AcDbEntity
  8
0
  6
Continuous
100
AcDbLine
 10
153.3138206442435
 20
130.8118443391018
 30
0.0
 11
153.2785410175019
 21
130.8000697763868
 31
0.0
  0
LINE
  5
39D
330
E3
100
AcDbEntity
  8
0
  6
Continuous
100
AcDbLine
 10
153.2785410175019
 20
130.8000697763868
 30
0.0
 11
153.2454136208478
 21
130.7886714302698
 31
0.0
  0
LINE
  5
39E
330
E3
100
AcDbEntity
  8
0
  6
Continuous
100
AcDbLine
 10
153.2454136208478
 20
130.7886714302698
 30
0.0
 11
153.2146926546852
 21
130.7777001408315
 31
0.0
  0
LINE
  5
39F
330
E3
100
AcDbEntity
  8
0
  6
Continuous
100
AcDbLine
 10
153.2146926546852
 20
130.7777001408315
 30
0.0
 11
153.1866187620633
 21
130.767193190798
 31
0.0
  0
LINE
  5
3A0
330
E3
100
AcDbEntity
  8
0
  6
Continuous
100
AcDbLine
 10
153.1866187620633
 20
130.767193190798
 30
0.0
 11
153.1614190286764
 21
130.7571946415726
 31
0.0
  0
LINE
  5
3A1
330
E3
100
AcDbEntity
  8
0
  6
Continuous
100
AcDbLine
 10
153.1614190286764
 20
130.7571946415726
 30
0.0
 11
153.1392900361703
 21
130.7477349972037
 31
0.0
  0
LINE
  5
3A2
330
E3
100
AcDbEntity
  8
0
  6
Continuous
100
AcDbLine
 10
153.1392900361703
 20
130.7477349972037
 30
0.0
 11
153.1204046408197
 21
130.7388515404172
 31
0.0
  0
LINE
  5
3A3
330
E3
100
AcDbEntity
  8
0
  6
Continuous
100
AcDbLine
 10
153.1204046408197
 20
130.7388515404172
 30
0.0
 11
153.104915362867
 21
130.7305646072456
 31
0.0
  0
LINE
  5
3A4
330
E3
100
AcDbEntity
  8
0
  6
Continuous
100
AcDbLine
 10
153.104915362867
 20
130.7305646072456
 30
0.0
 11
153.092947607845
 21
130.7228979230599
 31
0.0
  0
LINE
  5
3A5
330
E3
100
AcDbEntity
  8
0
  6
Continuous
100
AcDbLine
 10
153.092947607845
 20
130.7228979230599
 30
0.0
 11
153.0845996665764
 21
130.7158718238923
 31
0.0
  0
LINE
  5
3A6
330
E3
100
AcDbEntity
  8
0
  6
Continuous
100
AcDbLine
 10
153.0845996665764
 20
130.7158718238923
 30
0.0
 11
153.0799437831049
 21
130.7094935254983
 31
0.0
  0
LINE
  5
3A7
330
E3
100
AcDbEntity
  8
0
  6
Continuous
100
AcDbLine
 10
153.0799437831049
 20
130.7094935254983
 30
0.0
 11
153.0790201329422
 21
130.7037748757195
 31
0.0
  0
LINE
  5
3A8
330
E3
100
AcDbEntity
  8
0
  6
Continuous
100
AcDbLine
 10
154.0980313148888
 20
130.6834457687022
 30
0.0
 11
154.0971076647261
 21
130.6777271189234
 31
0.0
  0
LINE
  5
3A9
330
E3
100
AcDbEntity
  8
0
  6
Continuous
100
AcDbLine
 10
154.0971076647261
 20
130.6777271189234
 30
0.0
 11
154.0924507840755
 21
130.6713501998844
 31
0.0
  0
LINE
  5
3AA
330
E3
100
AcDbEntity
  8
0
  6
Continuous
100
AcDbLine
 10
154.0924507840755
 20
130.6713501998844
 30
0.0
 11
154.0841020978958
 21
130.6643233712923
 31
0.0
  0
LINE
  5
3AB
330
E3
100
AcDbEntity
  8
0
  6
Continuous
100
AcDbLine
 10
154.0841020978958
 20
130.6643233712923
 30
0.0
 11
154.0721377322125
 21
130.6566566871065
 31
0.0
  0
LINE
  5
3AC
330
E3
100
AcDbEntity
  8
0
  6
Continuous
100
AcDbLine
 10
154.0721377322125
 20
130.6566566871065
 30
0.0
 11
154.0566484542598
 21
130.6483697539349
 31
0.0
  0
LINE
  5
3AD
330
E3
100
AcDbEntity
  8
0
  6
Continuous
100
AcDbLine
 10
154.0566484542598
 20
130.6483697539349
 30
0.0
 11
154.0377630589092
 21
130.6394829078097
 31
0.0
  0
LINE
  5
3AE
330
E3
100
AcDbEntity
  8
0
  6
Continuous
100
AcDbLine
 10
154.0377630589092
 20
130.6394829078097
 30
0.0
 11
154.0156306770644
 21
130.6300266527795
 31
0.0
  0
LINE
  5
3AF
330
E3
100
AcDbEntity
  8
0
  6
Continuous
100
AcDbLine
 10
154.0156306770644
 20
130.6300266527795
 30
0.0
 11
153.9904309436775
 21
130.6200281035541
 31
0.0
  0
LINE
  5
3B0
330
E3
100
AcDbEntity
  8
0
  6
Continuous
100
AcDbLine
 10
153.9904309436775
 20
130.6200281035541
 30
0.0
 11
153.9623604403943
 21
130.6095211535205
 31
0.0
  0
LINE
  5
3B1
330
E3
100
AcDbEntity
  8
0
  6
Continuous
100
AcDbLine
 10
153.9623604403943
 20
130.6095211535205
 30
0.0
 11
153.9316394742317
 21
130.5985498640823
 31
0.0
  0
LINE
  5
3B2
330
E3
100
AcDbEntity
  8
0
  6
Continuous
100
AcDbLine
 10
153.9316394742317
 20
130.5985498640823
 30
0.0
 11
153.8985086882389
 21
130.5871515179653
 31
0.0
  0
LINE
  5
3B3
330
E3
100
AcDbEntity
  8
0
  6
Continuous
100
AcDbLine
 10
153.8985086882389
 20
130.5871515179653
 30
0.0
 11
153.8632290614972
 21
130.5753735659115
 31
0.0
  0
LINE
  5
3B4
330
E3
100
AcDbEntity
  8
0
  6
Continuous
100
AcDbLine
 10
153.8632290614972
 20
130.5753735659115
 30
0.0
 11
153.8260785197819
 21
130.5632668480019
 31
0.0
  0
LINE
  5
3B5
330
E3
100
AcDbEntity
  8
0
  6
Continuous
100
AcDbLine
 10
153.8260785197819
 20
130.5632668480019
 30
0.0
 11
153.7873417675453
 21
130.5508822043172
 31
0.0
  0
LINE
  5
3B6
330
E3
100
AcDbEntity
  8
0
  6
Continuous
100
AcDbLine
 10
153.7873417675453
 20
130.5508822043172
 30
0.0
 11
153.7473238452724
 21
130.5382704749383
 31
0.0
  0
LINE
  5
3B7
330
E3
100
AcDbEntity
  8
0
  6
Continuous
100
AcDbLine
 10
153.7473238452724
 20
130.5382704749383
 30
0.0
 11
153.7063331827868
 21
130.5254858892846
 31
0.0
  0
LINE
  5
3B8
330
E3
100
AcDbEntity
  8
0
  6
Continuous
100
AcDbLine
 10
153.7063331827868
 20
130.5254858892846
 30
0.0
 11
153.6646951566055
 21
130.5125894554531
 31
0.0
  0
LINE
  5
3B9
330
E3
100
AcDbEntity
  8
0
  6
Continuous
100
AcDbLine
 10
153.6646951566055
 20
130.5125894554531
 30
0.0
 11
153.6227283645683
 21
130.4996320135246
 31
0.0
  0
LINE
  5
3BA
330
E3
100
AcDbEntity
  8
0
  6
Continuous
100
AcDbLine
 10
153.6227283645683
 20
130.4996320135246
 30
0.0
 11
153.5807649618698
 21
130.4866779609349
 31
0.0
  0
LINE
  5
3BB
330
E3
100
AcDbEntity
  8
0
  6
Continuous
100
AcDbLine
 10
153.5807649618698
 20
130.4866779609349
 30
0.0
 11
153.5391235463498
 21
130.4737781377646
 31
0.0
  0
LINE
  5
3BC
330
E3
100
AcDbEntity
  8
0
  6
Continuous
100
AcDbLine
 10
153.5391235463498
 20
130.4737781377646
 30
0.0
 11
153.4981362732028
 21
130.4609969414497
 31
0.0
  0
LINE
  5
3BD
330
E3
100
AcDbEntity
  8
0
  6
Continuous
100
AcDbLine
 10
153.4981362732028
 20
130.4609969414497
 30
0.0
 11
153.4581183509299
 21
130.4483852120707
 31
0.0
  0
LINE
  5
3BE
330
E3
100
AcDbEntity
  8
0
  6
Continuous
100
AcDbLine
 10
153.4581183509299
 20
130.4483852120707
 30
0.0
 11
153.4193815986934
 21
130.4359971790473
 31
0.0
  0
LINE
  5
3BF
330
E3
100
AcDbEntity
  8
0
  6
Continuous
100
AcDbLine
 10
153.4193815986934
 20
130.4359971790473
 30
0.0
 11
153.3822276676393
 21
130.4238904611377
 31
0.0
  0
LINE
  5
3C0
330
E3
100
AcDbEntity
  8
0
  6
Continuous
100
AcDbLine
 10
153.3822276676393
 20
130.4238904611377
 30
0.0
 11
153.3469480408976
 21
130.4121158984227
 31
0.0
  0
LINE
  5
3C1
330
E3
100
AcDbEntity
  8
0
  6
Continuous
100
AcDbLine
 10
153.3469480408976
 20
130.4121158984227
 30
0.0
 11
153.3138172549048
 21
130.4007175523057
 31
0.0
  0
LINE
  5
3C2
330
E3
100
AcDbEntity
  8
0
  6
Continuous
100
AcDbLine
 10
153.3138172549048
 20
130.4007175523057
 30
0.0
 11
153.2830962887423
 21
130.3897462628674
 31
0.0
  0
LINE
  5
3C3
330
E3
100
AcDbEntity
  8
0
  6
Continuous
100
AcDbLine
 10
153.2830962887423
 20
130.3897462628674
 30
0.0
 11
153.2550257854591
 21
130.3792393128339
 31
0.0
  0
LINE
  5
3C4
330
E3
100
AcDbEntity
  8
0
  6
Continuous
100
AcDbLine
 10
153.2550257854591
 20
130.3792393128339
 30
0.0
 11
153.2298260520722
 21
130.3692407636084
 31
0.0
  0
LINE
  5
3C5
330
E3
100
AcDbEntity
  8
0
  6
Continuous
100
AcDbLine
 10
153.2298260520722
 20
130.3692407636084
 30
0.0
 11
153.2076970595661
 21
130.3597811192395
 31
0.0
  0
LINE
  5
3C6
330
E3
100
AcDbEntity
  8
0
  6
Continuous
100
AcDbLine
 10
153.2076970595661
 20
130.3597811192395
 30
0.0
 11
153.1888116642155
 21
130.3508976624531
 31
0.0
  0
LINE
  5
3C7
330
E3
100
AcDbEntity
  8
0
  6
Continuous
100
AcDbLine
 10
153.1888116642155
 20
130.3508976624531
 30
0.0
 11
153.1733223862628
 21
130.3426107292815
 31
0.0
  0
LINE
  5
3C8
330
E3
100
AcDbEntity
  8
0
  6
Continuous
100
AcDbLine
 10
153.1733223862628
 20
130.3426107292815
 30
0.0
 11
153.1613546312407
 21
130.3349440450957
 31
0.0
  0
LINE
  5
3C9
330
E3
100
AcDbEntity
  8
0
  6
Continuous
100
AcDbLine
 10
153.1613546312407
 20
130.3349440450957
 30
0.0
 11
153.1530066899722
 21
130.3279145565894
 31
0.0
  0
LINE
  5
3CA
330
E3
100
AcDbEntity
  8
0
  6
Continuous
100
AcDbLine
 10
153.1530066899722
 20
130.3279145565894
 30
0.0
 11
153.1483506409737
 21
130.3215389561299
 31
0.0
  0
LINE
  5
3CB
330
E3
100
AcDbEntity
  8
0
  6
Continuous
100
AcDbLine
 10
153.1483506409737
 20
130.3215389561299
 30
0.0
 11
153.147426990811
 21
130.315820306351
 31
0.0
  0
LINE
  5
3CC
330
E3
100
AcDbEntity
  8
0
  6
Continuous
100
AcDbLine
 10
154.1664381727576
 20
130.2954911993338
 30
0.0
 11
154.1655145225949
 21
130.289772549555
 31
0.0
  0
LINE
  5
3CD
330
E3
100
AcDbEntity
  8
0
  6
Continuous
100
AcDbLine
 10
154.1655145225949
 20
130.289772549555
 30
0.0
 11
154.1608576419443
 21
130.2833956305159
 31
0.0
  0
LINE
  5
3CE
330
E3
100
AcDbEntity
  8
0
  6
Continuous
100
AcDbLine
 10
154.1608576419443
 20
130.2833956305159
 30
0.0
 11
154.1525091212916
 21
130.2763694933281
 31
0.0
  0
LINE
  5
3CF
330
E3
100
AcDbEntity
  8
0
  6
Continuous
100
AcDbLine
 10
154.1525091212916
 20
130.2763694933281
 30
0.0
 11
154.1405413662695
 21
130.2687028091423
 31
0.0
  0
LINE
  5
3D0
330
E3
100
AcDbEntity
  8
0
  6
Continuous
100
AcDbLine
 10
154.1405413662695
 20
130.2687028091423
 30
0.0
 11
154.1250554776556
 21
130.2604158759707
 31
0.0
  0
LINE
  5
3D1
330
E3
100
AcDbEntity
  8
0
  6
Continuous
100
AcDbLine
 10
154.1250554776556
 20
130.2604158759707
 30
0.0
 11
154.1061700823049
 21
130.2515290298456
 31
0.0
  0
LINE
  5
3D2
330
E3
100
AcDbEntity
  8
0
  6
Continuous
100
AcDbLine
 10
154.1061700823049
 20
130.2515290298456
 30
0.0
 11
154.0840377004601
 21
130.2420727748154
 31
0.0
  0
LINE
  5
3D3
330
E3
100
AcDbEntity
  8
0
  6
Continuous
100
AcDbLine
 10
154.0840377004601
 20
130.2420727748154
 30
0.0
 11
154.0588379670733
 21
130.2320708362512
 31
0.0
  0
LINE
  5
3D4
330
E3
100
AcDbEntity
  8
0
  6
Continuous
100
AcDbLine
 10
154.0588379670733
 20
130.2320708362512
 30
0.0
 11
154.0307674637901
 21
130.2215672755564
 31
0.0
  0
LINE
  5
3D5
330
E3
100
AcDbEntity
  8
0
  6
Continuous
100
AcDbLine
 10
154.0307674637901
 20
130.2215672755564
 30
0.0
 11
154.0000464976275
 21
130.2105925967794
 31
0.0
  0
LINE
  5
3D6
330
E3
100
AcDbEntity
  8
0
  6
Continuous
100
AcDbLine
 10
154.0000464976275
 20
130.2105925967794
 30
0.0
 11
153.9669157116346
 21
130.1991976400011
 31
0.0
  0
LINE
  5
3D7
330
E3
100
AcDbEntity
  8
0
  6
Continuous
100
AcDbLine
 10
153.9669157116346
 20
130.1991976400011
 30
0.0
 11
153.931636084893
 21
130.1874196879474
 31
0.0
  0
LINE
  5
3D8
330
E3
100
AcDbEntity
  8
0
  6
Continuous
100
AcDbLine
 10
153.931636084893
 20
130.1874196879474
 30
0.0
 11
153.8944855431777
 21
130.1753129700378
 31
0.0
  0
LINE
  5
3D9
330
E3
100
AcDbEntity
  8
0
  6
Continuous
100
AcDbLine
 10
153.8944855431777
 20
130.1753129700378
 30
0.0
 11
153.8557487909411
 21
130.1629283263531
 31
0.0
  0
LINE
  5
3DA
330
E3
100
AcDbEntity
  8
0
  6
Continuous
100
AcDbLine
 10
153.8557487909411
 20
130.1629283263531
 30
0.0
 11
153.8157308686682
 21
130.1503165969741
 31
0.0
  0
LINE
  5
3DB
330
E3
100
AcDbEntity
  8
0
  6
Continuous
100
AcDbLine
 10
153.8157308686682
 20
130.1503165969741
 30
0.0
 11
153.7747402061825
 21
130.1375320113204
 31
0.0
  0
LINE
  5
3DC
330
E3
100
AcDbEntity
  8
0
  6
Continuous
100
AcDbLine
 10
153.7747402061825
 20
130.1375320113204
 30
0.0
 11
153.7331021800013
 21
130.1246355774889
 31
0.0
  0
LINE
  5
3DD
330
E3
100
AcDbEntity
  8
0
  6
Continuous
100
AcDbLine
 10
153.7331021800013
 20
130.1246355774889
 30
0.0
 11
153.691135387964
 21
130.1116781355605
 31
0.0
  0
LINE
  5
3DE
330
E3
100
AcDbEntity
  8
0
  6
Continuous
100
AcDbLine
 10
153.691135387964
 20
130.1116781355605
 30
0.0
 11
153.6491685959269
 21
130.0987240829707
 31
0.0
  0
LINE
  5
3DF
330
E3
100
AcDbEntity
  8
0
  6
Continuous
100
AcDbLine
 10
153.6491685959269
 20
130.0987240829707
 30
0.0
 11
153.6075305697456
 21
130.0858242598005
 31
0.0
  0
LINE
  5
3E0
330
E3
100
AcDbEntity
  8
0
  6
Continuous
100
AcDbLine
 10
153.6075305697456
 20
130.0858242598005
 30
0.0
 11
153.5665432965986
 21
130.0730430634855
 31
0.0
  0
LINE
  5
3E1
330
E3
100
AcDbEntity
  8
0
  6
Continuous
100
AcDbLine
 10
153.5665432965986
 20
130.0730430634855
 30
0.0
 11
153.5265253743257
 21
130.0604313341065
 31
0.0
  0
LINE
  5
3E2
330
E3
100
AcDbEntity
  8
0
  6
Continuous
100
AcDbLine
 10
153.5265253743257
 20
130.0604313341065
 30
0.0
 11
153.4877886220892
 21
130.0480433010831
 31
0.0
  0
LINE
  5
3E3
330
E3
100
AcDbEntity
  8
0
  6
Continuous
100
AcDbLine
 10
153.4877886220892
 20
130.0480433010831
 30
0.0
 11
153.4506346910351
 21
130.0359365831735
 31
0.0
  0
LINE
  5
3E4
330
E3
100
AcDbEntity
  8
0
  6
Continuous
100
AcDbLine
 10
153.4506346910351
 20
130.0359365831735
 30
0.0
 11
153.4153550642934
 21
130.0241620204585
 31
0.0
  0
LINE
  5
3E5
330
E3
100
AcDbEntity
  8
0
  6
Continuous
100
AcDbLine
 10
153.4153550642934
 20
130.0241620204585
 30
0.0
 11
153.3822242783006
 21
130.0127636743415
 31
0.0
  0
LINE
  5
3E6
330
E3
100
AcDbEntity
  8
0
  6
Continuous
100
AcDbLine
 10
153.3822242783006
 20
130.0127636743415
 30
0.0
 11
153.351503312138
 21
130.0017889955645
 31
0.0
  0
LINE
  5
3E7
330
E3
100
AcDbEntity
  8
0
  6
Continuous
100
AcDbLine
 10
153.351503312138
 20
130.0017889955645
 30
0.0
 11
153.3234328088548
 21
129.9912854348697
 31
0.0
  0
LINE
  5
3E8
330
E3
100
AcDbEntity
  8
0
  6
Continuous
100
AcDbLine
 10
153.3234328088548
 20
129.9912854348697
 30
0.0
 11
153.298233075468
 21
129.9812868856443
 31
0.0
  0
LINE
  5
3E9
330
E3
100
AcDbEntity
  8
0
  6
Continuous
100
AcDbLine
 10
153.298233075468
 20
129.9812868856443
 30
0.0
 11
153.2761040829618
 21
129.9718272412753
 31
0.0
  0
LINE
  5
3EA
330
E3
100
AcDbEntity
  8
0
  6
Continuous
100
AcDbLine
 10
153.2761040829618
 20
129.9718272412753
 30
0.0
 11
153.2572186876113
 21
129.9629403951502
 31
0.0
  0
LINE
  5
3EB
330
E3
100
AcDbEntity
  8
0
  6
Continuous
100
AcDbLine
 10
153.2572186876113
 20
129.9629403951502
 30
0.0
 11
153.2417294096586
 21
129.9546534619786
 31
0.0
  0
LINE
  5
3EC
330
E3
100
AcDbEntity
  8
0
  6
Continuous
100
AcDbLine
 10
153.2417294096586
 20
129.9546534619786
 30
0.0
 11
153.2297616546365
 21
129.9469901671315
 31
0.0
  0
LINE
  5
3ED
330
E3
100
AcDbEntity
  8
0
  6
Continuous
100
AcDbLine
 10
153.2297616546365
 20
129.9469901671315
 30
0.0
 11
153.2214137133679
 21
129.9399606786252
 31
0.0
  0
LINE
  5
3EE
330
E3
100
AcDbEntity
  8
0
  6
Continuous
100
AcDbLine
 10
153.2214137133679
 20
129.9399606786252
 30
0.0
 11
153.2167574988425
 21
129.9335843867614
 31
0.0
  0
LINE
  5
3EF
330
E3
100
AcDbEntity
  8
0
  6
Continuous
100
AcDbLine
 10
153.2167574988425
 20
129.9335843867614
 30
0.0
 11
153.2158338486798
 21
129.9278657369826
 31
0.0
  0
LINE
  5
3F0
330
E3
100
AcDbEntity
  8
0
  6
Continuous
100
AcDbLine
 10
154.2348450306264
 20
129.9075366299653
 30
0.0
 11
154.2339213804637
 21
129.9018179801865
 31
0.0
  0
LINE
  5
3F1
330
E3
100
AcDbEntity
  8
0
  6
Continuous
100
AcDbLine
 10
154.2339213804637
 20
129.9018179801865
 30
0.0
 11
154.2292644998131
 21
129.8954410611475
 31
0.0
  0
LINE
  5
3F2
330
E3
100
AcDbEntity
  8
0
  6
Continuous
100
AcDbLine
 10
154.2292644998131
 20
129.8954410611475
 30
0.0
 11
154.2209161446874
 21
129.8884122260252
 31
0.0
  0
LINE
  5
3F3
330
E3
100
AcDbEntity
  8
0
  6
Continuous
100
AcDbLine
 10
154.2209161446874
 20
129.8884122260252
 30
0.0
 11
154.2089483896653
 21
129.8807489311782
 31
0.0
  0
LINE
  5
3F4
330
E3
100
AcDbEntity
  8
0
  6
Continuous
100
AcDbLine
 10
154.2089483896653
 20
129.8807489311782
 30
0.0
 11
154.1934625010513
 21
129.8724619980066
 31
0.0
  0
LINE
  5
3F5
330
E3
100
AcDbEntity
  8
0
  6
Continuous
100
AcDbLine
 10
154.1934625010513
 20
129.8724619980066
 30
0.0
 11
154.1745771057008
 21
129.8635751518814
 31
0.0
  0
LINE
  5
3F6
330
E3
100
AcDbEntity
  8
0
  6
Continuous
100
AcDbLine
 10
154.1745771057008
 20
129.8635751518814
 30
0.0
 11
154.1524447238559
 21
129.8541155075125
 31
0.0
  0
LINE
  5
3F7
330
E3
100
AcDbEntity
  8
0
  6
Continuous
100
AcDbLine
 10
154.1524447238559
 20
129.8541155075125
 30
0.0
 11
154.127244990469
 21
129.844116958287
 31
0.0
  0
LINE
  5
3F8
330
E3
100
AcDbEntity
  8
0
  6
Continuous
100
AcDbLine
 10
154.127244990469
 20
129.844116958287
 30
0.0
 11
154.0991744871858
 21
129.8336133975922
 31
0.0
  0
LINE
  5
3F9
330
E3
100
AcDbEntity
  8
0
  6
Continuous
100
AcDbLine
 10
154.0991744871858
 20
129.8336133975922
 30
0.0
 11
154.0684535210233
 21
129.8226387188153
 31
0.0
  0
LINE
  5
3FA
330
E3
100
AcDbEntity
  8
0
  6
Continuous
100
AcDbLine
 10
154.0684535210233
 20
129.8226387188153
 30
0.0
 11
154.0353227350305
 21
129.8112403726982
 31
0.0
  0
LINE
  5
3FB
330
E3
100
AcDbEntity
  8
0
  6
Continuous
100
AcDbLine
 10
154.0353227350305
 20
129.8112403726982
 30
0.0
 11
154.0000431082888
 21
129.7994658099832
 31
0.0
  0
LINE
  5
3FC
330
E3
100
AcDbEntity
  8
0
  6
Continuous
100
AcDbLine
 10
154.0000431082888
 20
129.7994658099832
 30
0.0
 11
153.9628925665734
 21
129.7873590920736
 31
0.0
  0
LINE
  5
3FD
330
E3
100
AcDbEntity
  8
0
  6
Continuous
100
AcDbLine
 10
153.9628925665734
 20
129.7873590920736
 30
0.0
 11
153.9241558143369
 21
129.7749710590502
 31
0.0
  0
LINE
  5
3FE
330
E3
100
AcDbEntity
  8
0
  6
Continuous
100
AcDbLine
 10
153.9241558143369
 20
129.7749710590502
 30
0.0
 11
153.8841345027253
 21
129.7623593296712
 31
0.0
  0
LINE
  5
3FF
330
E3
100
AcDbEntity
  8
0
  6
Continuous
100
AcDbLine
 10
153.8841345027253
 20
129.7623593296712
 30
0.0
 11
153.8431472295783
 21
129.7495781333562
 31
0.0
  0
LINE
  5
400
330
E3
100
AcDbEntity
  8
0
  6
Continuous
100
AcDbLine
 10
153.8431472295783
 20
129.7495781333562
 30
0.0
 11
153.801509203397
 21
129.7366783101861
 31
0.0
  0
LINE
  5
401
330
E3
100
AcDbEntity
  8
0
  6
Continuous
100
AcDbLine
 10
153.801509203397
 20
129.7366783101861
 30
0.0
 11
153.7595424113598
 21
129.7237242575963
 31
0.0
  0
LINE
  5
402
330
E3
100
AcDbEntity
  8
0
  6
Continuous
100
AcDbLine
 10
153.7595424113598
 20
129.7237242575963
 30
0.0
 11
153.7175756193226
 21
129.7107668156679
 31
0.0
  0
LINE
  5
403
330
E3
100
AcDbEntity
  8
0
  6
Continuous
100
AcDbLine
 10
153.7175756193226
 20
129.7107668156679
 30
0.0
 11
153.6759375931414
 21
129.6978703818364
 31
0.0
  0
LINE
  5
404
330
E3
100
AcDbEntity
  8
0
  6
Continuous
100
AcDbLine
 10
153.6759375931414
 20
129.6978703818364
 30
0.0
 11
153.6349503199943
 21
129.6850857961826
 31
0.0
  0
LINE
  5
405
330
E3
100
AcDbEntity
  8
0
  6
Continuous
100
AcDbLine
 10
153.6349503199943
 20
129.6850857961826
 30
0.0
 11
153.5949323977215
 21
129.6724740668037
 31
0.0
  0
LINE
  5
406
330
E3
100
AcDbEntity
  8
0
  6
Continuous
100
AcDbLine
 10
153.5949323977215
 20
129.6724740668037
 30
0.0
 11
153.5561956454849
 21
129.660089423119
 31
0.0
  0
LINE
  5
407
330
E3
100
AcDbEntity
  8
0
  6
Continuous
100
AcDbLine
 10
153.5561956454849
 20
129.660089423119
 30
0.0
 11
153.5190417144309
 21
129.6479827052094
 31
0.0
  0
LINE
  5
408
330
E3
100
AcDbEntity
  8
0
  6
Continuous
100
AcDbLine
 10
153.5190417144309
 20
129.6479827052094
 30
0.0
 11
153.4837620876892
 21
129.6362047531557
 31
0.0
  0
LINE
  5
409
330
E3
100
AcDbEntity
  8
0
  6
Continuous
100
AcDbLine
 10
153.4837620876892
 20
129.6362047531557
 30
0.0
 11
153.4506313016964
 21
129.6248097963773
 31
0.0
  0
LINE
  5
40A
330
E3
100
AcDbEntity
  8
0
  6
Continuous
100
AcDbLine
 10
153.4506313016964
 20
129.6248097963773
 30
0.0
 11
153.4199103355338
 21
129.6138351176004
 31
0.0
  0
LINE
  5
40B
330
E3
100
AcDbEntity
  8
0
  6
Continuous
100
AcDbLine
 10
153.4199103355338
 20
129.6138351176004
 30
0.0
 11
153.3918398322506
 21
129.6033315569056
 31
0.0
  0
LINE
  5
40C
330
E3
100
AcDbEntity
  8
0
  6
Continuous
100
AcDbLine
 10
153.3918398322506
 20
129.6033315569056
 30
0.0
 11
153.3666400988637
 21
129.5933296183414
 31
0.0
  0
LINE
  5
40D
330
E3
100
AcDbEntity
  8
0
  6
Continuous
100
AcDbLine
 10
153.3666400988637
 20
129.5933296183414
 30
0.0
 11
153.3445111063576
 21
129.5838733633112
 31
0.0
  0
LINE
  5
40E
330
E3
100
AcDbEntity
  8
0
  6
Continuous
100
AcDbLine
 10
153.3445111063576
 20
129.5838733633112
 30
0.0
 11
153.325625711007
 21
129.574986517186
 31
0.0
  0
LINE
  5
40F
330
E3
100
AcDbEntity
  8
0
  6
Continuous
100
AcDbLine
 10
153.325625711007
 20
129.574986517186
 30
0.0
 11
153.3101364330544
 21
129.5666995840144
 31
0.0
  0
LINE
  5
410
330
E3
100
AcDbEntity
  8
0
  6
Continuous
100
AcDbLine
 10
153.3101364330544
 20
129.5666995840144
 30
0.0
 11
153.2981686780323
 21
129.5590328998287
 31
0.0
  0
LINE
  5
411
330
E3
100
AcDbEntity
  8
0
  6
Continuous
100
AcDbLine
 10
153.2981686780323
 20
129.5590328998287
 30
0.0
 11
153.2898207367637
 21
129.5520068006611
 31
0.0
  0
LINE
  5
412
330
E3
100
AcDbEntity
  8
0
  6
Continuous
100
AcDbLine
 10
153.2898207367637
 20
129.5520068006611
 30
0.0
 11
153.2851643567113
 21
129.545629817393
 31
0.0
  0
LINE
  5
413
330
E3
100
AcDbEntity
  8
0
  6
Continuous
100
AcDbLine
 10
153.2851643567113
 20
129.545629817393
 30
0.0
 11
153.2842407065486
 21
129.5399111676142
 31
0.0
  0
LINE
  5
414
330
E3
100
AcDbEntity
  8
0
  6
Continuous
100
AcDbLine
 10
154.3032518884952
 20
129.5195820605969
 30
0.0
 11
154.3023282383324
 21
129.5138634108181
 31
0.0
  0
LINE
  5
415
330
E3
100
AcDbEntity
  8
0
  6
Continuous
100
AcDbLine
 10
154.3023282383324
 20
129.5138634108181
 30
0.0
 11
154.2976713576819
 21
129.507486491779
 31
0.0
  0
LINE
  5
416
330
E3
100
AcDbEntity
  8
0
  6
Continuous
100
AcDbLine
 10
154.2976713576819
 20
129.507486491779
 30
0.0
 11
154.2893231680831
 21
129.5004583480611
 31
0.0
  0
LINE
  5
417
330
E3
100
AcDbEntity
  8
0
  6
Continuous
100
AcDbLine
 10
154.2893231680831
 20
129.5004583480611
 30
0.0
 11
154.277355413061
 21
129.4927916638753
 31
0.0
  0
LINE
  5
418
330
E3
100
AcDbEntity
  8
0
  6
Continuous
100
AcDbLine
 10
154.277355413061
 20
129.4927916638753
 30
0.0
 11
154.2618695244471
 21
129.4845047307037
 31
0.0
  0
LINE
  5
419
330
E3
100
AcDbEntity
  8
0
  6
Continuous
100
AcDbLine
 10
154.2618695244471
 20
129.4845047307037
 30
0.0
 11
154.2429841290965
 21
129.4756212739173
 31
0.0
  0
LINE
  5
41A
330
E3
100
AcDbEntity
  8
0
  6
Continuous
100
AcDbLine
 10
154.2429841290965
 20
129.4756212739173
 30
0.0
 11
154.2208517472517
 21
129.4661616295484
 31
0.0
  0
LINE
  5
41B
330
E3
100
AcDbEntity
  8
0
  6
Continuous
100
AcDbLine
 10
154.2208517472517
 20
129.4661616295484
 30
0.0
 11
154.1956520138648
 21
129.4561630803229
 31
0.0
  0
LINE
  5
41C
330
E3
100
AcDbEntity
  8
0
  6
Continuous
100
AcDbLine
 10
154.1956520138648
 20
129.4561630803229
 30
0.0
 11
154.1675815105816
 21
129.4456561302894
 31
0.0
  0
LINE
  5
41D
330
E3
100
AcDbEntity
  8
0
  6
Continuous
100
AcDbLine
 10
154.1675815105816
 20
129.4456561302894
 30
0.0
 11
154.1368605444191
 21
129.4346848408511
 31
0.0
  0
LINE
  5
41E
330
E3
100
AcDbEntity
  8
0
  6
Continuous
100
AcDbLine
 10
154.1368605444191
 20
129.4346848408511
 30
0.0
 11
154.1037297584262
 21
129.4232864947341
 31
0.0
  0
LINE
  5
41F
330
E3
100
AcDbEntity
  8
0
  6
Continuous
100
AcDbLine
 10
154.1037297584262
 20
129.4232864947341
 30
0.0
 11
154.0684501316846
 21
129.4115119320191
 31
0.0
  0
LINE
  5
420
330
E3
100
AcDbEntity
  8
0
  6
Continuous
100
AcDbLine
 10
154.0684501316846
 20
129.4115119320191
 30
0.0
 11
154.0312995899692
 21
129.3994052141095
 31
0.0
  0
LINE
  5
421
330
E3
100
AcDbEntity
  8
0
  6
Continuous
100
AcDbLine
 10
154.0312995899692
 20
129.3994052141095
 30
0.0
 11
153.9925628377327
 21
129.3870171810861
 31
0.0
  0
LINE
  5
422
330
E3
100
AcDbEntity
  8
0
  6
Continuous
100
AcDbLine
 10
153.9925628377327
 20
129.3870171810861
 30
0.0
 11
153.952541526121
 21
129.3744054517071
 31
0.0
  0
LINE
  5
423
330
E3
100
AcDbEntity
  8
0
  6
Continuous
100
AcDbLine
 10
153.952541526121
 20
129.3744054517071
 30
0.0
 11
153.9115542529741
 21
129.3616242553921
 31
0.0
  0
LINE
  5
424
330
E3
100
AcDbEntity
  8
0
  6
Continuous
100
AcDbLine
 10
153.9115542529741
 20
129.3616242553921
 30
0.0
 11
153.8699162267928
 21
129.3487244322219
 31
0.0
  0
LINE
  5
425
330
E3
100
AcDbEntity
  8
0
  6
Continuous
100
AcDbLine
 10
153.8699162267928
 20
129.3487244322219
 30
0.0
 11
153.8279494347556
 21
129.3357703796322
 31
0.0
  0
LINE
  5
426
330
E3
100
AcDbEntity
  8
0
  6
Continuous
100
AcDbLine
 10
153.8279494347556
 20
129.3357703796322
 30
0.0
 11
153.7859826427184
 21
129.3228129377037
 31
0.0
  0
LINE
  5
427
330
E3
100
AcDbEntity
  8
0
  6
Continuous
100
AcDbLine
 10
153.7859826427184
 20
129.3228129377037
 30
0.0
 11
153.7443446165371
 21
129.3099165038722
 31
0.0
  0
LINE
  5
428
330
E3
100
AcDbEntity
  8
0
  6
Continuous
100
AcDbLine
 10
153.7443446165371
 20
129.3099165038722
 30
0.0
 11
153.7033573433902
 21
129.2971319182185
 31
0.0
  0
LINE
  5
429
330
E3
100
AcDbEntity
  8
0
  6
Continuous
100
AcDbLine
 10
153.7033573433902
 20
129.2971319182185
 30
0.0
 11
153.6633394211173
 21
129.2845201888395
 31
0.0
  0
LINE
  5
42A
330
E3
100
AcDbEntity
  8
0
  6
Continuous
100
AcDbLine
 10
153.6633394211173
 20
129.2845201888395
 30
0.0
 11
153.6246026688807
 21
129.2721355451548
 31
0.0
  0
LINE
  5
42B
330
E3
100
AcDbEntity
  8
0
  6
Continuous
100
AcDbLine
 10
153.6246026688807
 20
129.2721355451548
 30
0.0
 11
153.5874487378267
 21
129.2600288272452
 31
0.0
  0
LINE
  5
42C
330
E3
100
AcDbEntity
  8
0
  6
Continuous
100
AcDbLine
 10
153.5874487378267
 20
129.2600288272452
 30
0.0
 11
153.552169111085
 21
129.2482508751915
 31
0.0
  0
LINE
  5
42D
330
E3
100
AcDbEntity
  8
0
  6
Continuous
100
AcDbLine
 10
153.552169111085
 20
129.2482508751915
 30
0.0
 11
153.5190383250921
 21
129.2368525290745
 31
0.0
  0
LINE
  5
42E
330
E3
100
AcDbEntity
  8
0
  6
Continuous
100
AcDbLine
 10
153.5190383250921
 20
129.2368525290745
 30
0.0
 11
153.4883173589295
 21
129.2258812396362
 31
0.0
  0
LINE
  5
42F
330
E3
100
AcDbEntity
  8
0
  6
Continuous
100
AcDbLine
 10
153.4883173589295
 20
129.2258812396362
 30
0.0
 11
153.4602468556464
 21
129.2153742896027
 31
0.0
  0
LINE
  5
430
330
E3
100
AcDbEntity
  8
0
  6
Continuous
100
AcDbLine
 10
153.4602468556464
 20
129.2153742896027
 30
0.0
 11
153.4350471222595
 21
129.2053757403772
 31
0.0
  0
LINE
  5
431
330
E3
100
AcDbEntity
  8
0
  6
Continuous
100
AcDbLine
 10
153.4350471222595
 20
129.2053757403772
 30
0.0
 11
153.4129181297534
 21
129.195919485347
 31
0.0
  0
LINE
  5
432
330
E3
100
AcDbEntity
  8
0
  6
Continuous
100
AcDbLine
 10
153.4129181297534
 20
129.195919485347
 30
0.0
 11
153.3940327344028
 21
129.1870326392219
 31
0.0
  0
LINE
  5
433
330
E3
100
AcDbEntity
  8
0
  6
Continuous
100
AcDbLine
 10
153.3940327344028
 20
129.1870326392219
 30
0.0
 11
153.3785434564501
 21
129.1787457060503
 31
0.0
  0
LINE
  5
434
330
E3
100
AcDbEntity
  8
0
  6
Continuous
100
AcDbLine
 10
153.3785434564501
 20
129.1787457060503
 30
0.0
 11
153.366575701428
 21
129.1710790218645
 31
0.0
  0
LINE
  5
435
330
E3
100
AcDbEntity
  8
0
  6
Continuous
100
AcDbLine
 10
153.366575701428
 20
129.1710790218645
 30
0.0
 11
153.3582277601595
 21
129.1640529226969
 31
0.0
  0
LINE
  5
436
330
E3
100
AcDbEntity
  8
0
  6
Continuous
100
AcDbLine
 10
153.3582277601595
 20
129.1640529226969
 30
0.0
 11
153.3535712145801
 21
129.1576752480245
 31
0.0
  0
LINE
  5
437
330
E3
100
AcDbEntity
  8
0
  6
Continuous
100
AcDbLine
 10
153.3535712145801
 20
129.1576752480245
 30
0.0
 11
153.3526475644174
 21
129.1519565982457
 31
0.0
  0
LINE
  5
438
330
E3
100
AcDbEntity
  8
0
  6
Continuous
100
AcDbLine
 10
154.371658746364
 20
129.1316274912284
 30
0.0
 11
154.3707350962013
 21
129.1259088414496
 31
0.0
  0
LINE
  5
439
330
E3
100
AcDbEntity
  8
0
  6
Continuous
100
AcDbLine
 10
154.3707350962013
 20
129.1259088414496
 30
0.0
 11
154.3660782155507
 21
129.1195319224106
 31
0.0
  0
LINE
  5
43A
330
E3
100
AcDbEntity
  8
0
  6
Continuous
100
AcDbLine
 10
154.3660782155507
 20
129.1195319224106
 30
0.0
 11
154.3577301914789
 21
129.1125044700969
 31
0.0
  0
LINE
  5
43B
330
E3
100
AcDbEntity
  8
0
  6
Continuous
100
AcDbLine
 10
154.3577301914789
 20
129.1125044700969
 30
0.0
 11
154.3457624364569
 21
129.1048377859111
 31
0.0
  0
LINE
  5
43C
330
E3
100
AcDbEntity
  8
0
  6
Continuous
100
AcDbLine
 10
154.3457624364569
 20
129.1048377859111
 30
0.0
 11
154.3302731585042
 21
129.0965508527395
 31
0.0
  0
LINE
  5
43D
330
E3
100
AcDbEntity
  8
0
  6
Continuous
100
AcDbLine
 10
154.3302731585042
 20
129.0965508527395
 30
0.0
 11
154.3113911524923
 21
129.0876673959531
 31
0.0
  0
LINE
  5
43E
330
E3
100
AcDbEntity
  8
0
  6
Continuous
100
AcDbLine
 10
154.3113911524923
 20
129.0876673959531
 30
0.0
 11
154.2892587706475
 21
129.0782077515842
 31
0.0
  0
LINE
  5
43F
330
E3
100
AcDbEntity
  8
0
  6
Continuous
100
AcDbLine
 10
154.2892587706475
 20
129.0782077515842
 30
0.0
 11
154.2640590372606
 21
129.0682092023587
 31
0.0
  0
LINE
  5
440
330
E3
100
AcDbEntity
  8
0
  6
Continuous
100
AcDbLine
 10
154.2640590372606
 20
129.0682092023587
 30
0.0
 11
154.2359885339774
 21
129.0577022523252
 31
0.0
  0
LINE
  5
441
330
E3
100
AcDbEntity
  8
0
  6
Continuous
100
AcDbLine
 10
154.2359885339774
 20
129.0577022523252
 30
0.0
 11
154.2052675678148
 21
129.046730962887
 31
0.0
  0
LINE
  5
442
330
E3
100
AcDbEntity
  8
0
  6
Continuous
100
AcDbLine
 10
154.2052675678148
 20
129.046730962887
 30
0.0
 11
154.172136781822
 21
129.0353326167699
 31
0.0
  0
LINE
  5
443
330
E3
100
AcDbEntity
  8
0
  6
Continuous
100
AcDbLine
 10
154.172136781822
 20
129.0353326167699
 30
0.0
 11
154.1368571550803
 21
129.0235546647162
 31
0.0
  0
LINE
  5
444
330
E3
100
AcDbEntity
  8
0
  6
Continuous
100
AcDbLine
 10
154.1368571550803
 20
129.0235546647162
 30
0.0
 11
154.099706613365
 21
129.0114479468066
 31
0.0
  0
LINE
  5
445
330
E3
100
AcDbEntity
  8
0
  6
Continuous
100
AcDbLine
 10
154.099706613365
 20
129.0114479468066
 30
0.0
 11
154.0609698611284
 21
128.9990633031219
 31
0.0
  0
LINE
  5
446
330
E3
100
AcDbEntity
  8
0
  6
Continuous
100
AcDbLine
 10
154.0609698611284
 20
128.9990633031219
 30
0.0
 11
154.0209485495168
 21
128.9864515737429
 31
0.0
  0
LINE
  5
447
330
E3
100
AcDbEntity
  8
0
  6
Continuous
100
AcDbLine
 10
154.0209485495168
 20
128.9864515737429
 30
0.0
 11
153.9799612763699
 21
128.9736669880892
 31
0.0
  0
LINE
  5
448
330
E3
100
AcDbEntity
  8
0
  6
Continuous
100
AcDbLine
 10
153.9799612763699
 20
128.9736669880892
 30
0.0
 11
153.9383232501885
 21
128.9607705542577
 31
0.0
  0
LINE
  5
449
330
E3
100
AcDbEntity
  8
0
  6
Continuous
100
AcDbLine
 10
153.9383232501885
 20
128.9607705542577
 30
0.0
 11
153.8963564581514
 21
128.9478131123293
 31
0.0
  0
LINE
  5
44A
330
E3
100
AcDbEntity
  8
0
  6
Continuous
100
AcDbLine
 10
153.8963564581514
 20
128.9478131123293
 30
0.0
 11
153.8543896661142
 21
128.9348590597395
 31
0.0
  0
LINE
  5
44B
330
E3
100
AcDbEntity
  8
0
  6
Continuous
100
AcDbLine
 10
153.8543896661142
 20
128.9348590597395
 30
0.0
 11
153.8127516399329
 21
128.921962625908
 31
0.0
  0
LINE
  5
44C
330
E3
100
AcDbEntity
  8
0
  6
Continuous
100
AcDbLine
 10
153.8127516399329
 20
128.921962625908
 30
0.0
 11
153.7717643667859
 21
128.9091780402543
 31
0.0
  0
LINE
  5
44D
330
E3
100
AcDbEntity
  8
0
  6
Continuous
100
AcDbLine
 10
153.7717643667859
 20
128.9091780402543
 30
0.0
 11
153.731746444513
 21
128.8965663108754
 31
0.0
  0
LINE
  5
44E
330
E3
100
AcDbEntity
  8
0
  6
Continuous
100
AcDbLine
 10
153.731746444513
 20
128.8965663108754
 30
0.0
 11
153.6930096922765
 21
128.8841816671907
 31
0.0
  0
LINE
  5
44F
330
E3
100
AcDbEntity
  8
0
  6
Continuous
100
AcDbLine
 10
153.6930096922765
 20
128.8841816671907
 30
0.0
 11
153.6558557612224
 21
128.8720715599424
 31
0.0
  0
LINE
  5
450
330
E3
100
AcDbEntity
  8
0
  6
Continuous
100
AcDbLine
 10
153.6558557612224
 20
128.8720715599424
 30
0.0
 11
153.6205761344808
 21
128.8602969972274
 31
0.0
  0
LINE
  5
451
330
E3
100
AcDbEntity
  8
0
  6
Continuous
100
AcDbLine
 10
153.6205761344808
 20
128.8602969972274
 30
0.0
 11
153.5874453484879
 21
128.8488986511103
 31
0.0
  0
LINE
  5
452
330
E3
100
AcDbEntity
  8
0
  6
Continuous
100
AcDbLine
 10
153.5874453484879
 20
128.8488986511103
 30
0.0
 11
153.5567243823253
 21
128.8379273616721
 31
0.0
  0
LINE
  5
453
330
E3
100
AcDbEntity
  8
0
  6
Continuous
100
AcDbLine
 10
153.5567243823253
 20
128.8379273616721
 30
0.0
 11
153.5286538790422
 21
128.8274204116385
 31
0.0
  0
LINE
  5
454
330
E3
100
AcDbEntity
  8
0
  6
Continuous
100
AcDbLine
 10
153.5286538790422
 20
128.8274204116385
 30
0.0
 11
153.5034541456553
 21
128.8174218624131
 31
0.0
  0
LINE
  5
455
330
E3
100
AcDbEntity
  8
0
  6
Continuous
100
AcDbLine
 10
153.5034541456553
 20
128.8174218624131
 30
0.0
 11
153.4813251531492
 21
128.8079622180442
 31
0.0
  0
LINE
  5
456
330
E3
100
AcDbEntity
  8
0
  6
Continuous
100
AcDbLine
 10
153.4813251531492
 20
128.8079622180442
 30
0.0
 11
153.4624397577986
 21
128.7990787612577
 31
0.0
  0
LINE
  5
457
330
E3
100
AcDbEntity
  8
0
  6
Continuous
100
AcDbLine
 10
153.4624397577986
 20
128.7990787612577
 30
0.0
 11
153.4469504798459
 21
128.7907918280861
 31
0.0
  0
LINE
  5
458
330
E3
100
AcDbEntity
  8
0
  6
Continuous
100
AcDbLine
 10
153.4469504798459
 20
128.7907918280861
 30
0.0
 11
153.4349827248238
 21
128.7831251439003
 31
0.0
  0
LINE
  5
459
330
E3
100
AcDbEntity
  8
0
  6
Continuous
100
AcDbLine
 10
153.4349827248238
 20
128.7831251439003
 30
0.0
 11
153.4266347835552
 21
128.7760990447328
 31
0.0
  0
LINE
  5
45A
330
E3
100
AcDbEntity
  8
0
  6
Continuous
100
AcDbLine
 10
153.4266347835552
 20
128.7760990447328
 30
0.0
 11
153.4219780724489
 21
128.7697206786561
 31
0.0
  0
LINE
  5
45B
330
E3
100
AcDbEntity
  8
0
  6
Continuous
100
AcDbLine
 10
153.4219780724489
 20
128.7697206786561
 30
0.0
 11
153.4210544222861
 21
128.7640020288773
 31
0.0
  0
LINE
  5
45C
330
E3
100
AcDbEntity
  8
0
  6
Continuous
100
AcDbLine
 10
154.4400656042328
 20
128.74367292186
 30
0.0
 11
154.43914195407
 21
128.7379542720812
 31
0.0
  0
LINE
  5
45D
330
E3
100
AcDbEntity
  8
0
  6
Continuous
100
AcDbLine
 10
154.43914195407
 20
128.7379542720812
 30
0.0
 11
154.4344850734195
 21
128.7315773530421
 31
0.0
  0
LINE
  5
45E
330
E3
100
AcDbEntity
  8
0
  6
Continuous
100
AcDbLine
 10
154.4344850734195
 20
128.7315773530421
 30
0.0
 11
154.4261372148747
 21
128.7245505921327
 31
0.0
  0
LINE
  5
45F
330
E3
100
AcDbEntity
  8
0
  6
Continuous
100
AcDbLine
 10
154.4261372148747
 20
128.7245505921327
 30
0.0
 11
154.4141694598526
 21
128.716883907947
 31
0.0
  0
LINE
  5
460
330
E3
100
AcDbEntity
  8
0
  6
Continuous
100
AcDbLine
 10
154.4141694598526
 20
128.716883907947
 30
0.0
 11
154.3986801818999
 21
128.7085969747754
 31
0.0
  0
LINE
  5
461
330
E3
100
AcDbEntity
  8
0
  6
Continuous
100
AcDbLine
 10
154.3986801818999
 20
128.7085969747754
 30
0.0
 11
154.379798175888
 21
128.6997101286503
 31
0.0
  0
LINE
  5
462
330
E3
100
AcDbEntity
  8
0
  6
Continuous
100
AcDbLine
 10
154.379798175888
 20
128.6997101286503
 30
0.0
 11
154.3576657940432
 21
128.69025387362
 31
0.0
  0
LINE
  5
463
330
E3
100
AcDbEntity
  8
0
  6
Continuous
100
AcDbLine
 10
154.3576657940432
 20
128.69025387362
 30
0.0
 11
154.3324660606563
 21
128.6802553243946
 31
0.0
  0
LINE
  5
464
330
E3
100
AcDbEntity
  8
0
  6
Continuous
100
AcDbLine
 10
154.3324660606563
 20
128.6802553243946
 30
0.0
 11
154.3043955573732
 21
128.669748374361
 31
0.0
  0
LINE
  5
465
330
E3
100
AcDbEntity
  8
0
  6
Continuous
100
AcDbLine
 10
154.3043955573732
 20
128.669748374361
 30
0.0
 11
154.2736745912106
 21
128.6587770849228
 31
0.0
  0
LINE
  5
466
330
E3
100
AcDbEntity
  8
0
  6
Continuous
100
AcDbLine
 10
154.2736745912106
 20
128.6587770849228
 30
0.0
 11
154.2405438052177
 21
128.6473787388058
 31
0.0
  0
LINE
  5
467
330
E3
100
AcDbEntity
  8
0
  6
Continuous
100
AcDbLine
 10
154.2405438052177
 20
128.6473787388058
 30
0.0
 11
154.2052641784761
 21
128.635600786752
 31
0.0
  0
LINE
  5
468
330
E3
100
AcDbEntity
  8
0
  6
Continuous
100
AcDbLine
 10
154.2052641784761
 20
128.635600786752
 30
0.0
 11
154.168110247422
 21
128.6234940688424
 31
0.0
  0
LINE
  5
469
330
E3
100
AcDbEntity
  8
0
  6
Continuous
100
AcDbLine
 10
154.168110247422
 20
128.6234940688424
 30
0.0
 11
154.1293734951855
 21
128.6111094251577
 31
0.0
  0
LINE
  5
46A
330
E3
100
AcDbEntity
  8
0
  6
Continuous
100
AcDbLine
 10
154.1293734951855
 20
128.6111094251577
 30
0.0
 11
154.0893555729126
 21
128.5984976957788
 31
0.0
  0
LINE
  5
46B
330
E3
100
AcDbEntity
  8
0
  6
Continuous
100
AcDbLine
 10
154.0893555729126
 20
128.5984976957788
 30
0.0
 11
154.0483682997656
 21
128.5857131101251
 31
0.0
  0
LINE
  5
46C
330
E3
100
AcDbEntity
  8
0
  6
Continuous
100
AcDbLine
 10
154.0483682997656
 20
128.5857131101251
 30
0.0
 11
154.0067302735843
 21
128.5728166762936
 31
0.0
  0
LINE
  5
46D
330
E3
100
AcDbEntity
  8
0
  6
Continuous
100
AcDbLine
 10
154.0067302735843
 20
128.5728166762936
 30
0.0
 11
153.9647634815472
 21
128.5598592343651
 31
0.0
  0
LINE
  5
46E
330
E3
100
AcDbEntity
  8
0
  6
Continuous
100
AcDbLine
 10
153.9647634815472
 20
128.5598592343651
 30
0.0
 11
153.92279668951
 21
128.5469051817754
 31
0.0
  0
LINE
  5
46F
330
E3
100
AcDbEntity
  8
0
  6
Continuous
100
AcDbLine
 10
153.92279668951
 20
128.5469051817754
 30
0.0
 11
153.8811586633286
 21
128.5340053586052
 31
0.0
  0
LINE
  5
470
330
E3
100
AcDbEntity
  8
0
  6
Continuous
100
AcDbLine
 10
153.8811586633286
 20
128.5340053586052
 30
0.0
 11
153.8401713901817
 21
128.5212241622902
 31
0.0
  0
LINE
  5
471
330
E3
100
AcDbEntity
  8
0
  6
Continuous
100
AcDbLine
 10
153.8401713901817
 20
128.5212241622902
 30
0.0
 11
153.8001534679088
 21
128.5086124329112
 31
0.0
  0
LINE
  5
472
330
E3
100
AcDbEntity
  8
0
  6
Continuous
100
AcDbLine
 10
153.8001534679088
 20
128.5086124329112
 30
0.0
 11
153.7614167156723
 21
128.4962243998878
 31
0.0
  0
LINE
  5
473
330
E3
100
AcDbEntity
  8
0
  6
Continuous
100
AcDbLine
 10
153.7614167156723
 20
128.4962243998878
 30
0.0
 11
153.7242627846182
 21
128.4841176819782
 31
0.0
  0
LINE
  5
474
330
E3
100
AcDbEntity
  8
0
  6
Continuous
100
AcDbLine
 10
153.7242627846182
 20
128.4841176819782
 30
0.0
 11
153.6889831578765
 21
128.4723431192632
 31
0.0
  0
LINE
  5
475
330
E3
100
AcDbEntity
  8
0
  6
Continuous
100
AcDbLine
 10
153.6889831578765
 20
128.4723431192632
 30
0.0
 11
153.6558523718837
 21
128.4609447731461
 31
0.0
  0
LINE
  5
476
330
E3
100
AcDbEntity
  8
0
  6
Continuous
100
AcDbLine
 10
153.6558523718837
 20
128.4609447731461
 30
0.0
 11
153.6251314057211
 21
128.4499734837079
 31
0.0
  0
LINE
  5
477
330
E3
100
AcDbEntity
  8
0
  6
Continuous
100
AcDbLine
 10
153.6251314057211
 20
128.4499734837079
 30
0.0
 11
153.597060902438
 21
128.4394665336744
 31
0.0
  0
LINE
  5
478
330
E3
100
AcDbEntity
  8
0
  6
Continuous
100
AcDbLine
 10
153.597060902438
 20
128.4394665336744
 30
0.0
 11
153.5718611690511
 21
128.4294679844489
 31
0.0
  0
LINE
  5
479
330
E3
100
AcDbEntity
  8
0
  6
Continuous
100
AcDbLine
 10
153.5718611690511
 20
128.4294679844489
 30
0.0
 11
153.5497287872062
 21
128.42000834008
 31
0.0
  0
LINE
  5
47A
330
E3
100
AcDbEntity
  8
0
  6
Continuous
100
AcDbLine
 10
153.5497287872062
 20
128.42000834008
 30
0.0
 11
153.5308467811944
 21
128.4111248832936
 31
0.0
  0
LINE
  5
47B
330
E3
100
AcDbEntity
  8
0
  6
Continuous
100
AcDbLine
 10
153.5308467811944
 20
128.4111248832936
 30
0.0
 11
153.5153575032417
 21
128.402837950122
 31
0.0
  0
LINE
  5
47C
330
E3
100
AcDbEntity
  8
0
  6
Continuous
100
AcDbLine
 10
153.5153575032417
 20
128.402837950122
 30
0.0
 11
153.5033897482196
 21
128.3951712659362
 31
0.0
  0
LINE
  5
47D
330
E3
100
AcDbEntity
  8
0
  6
Continuous
100
AcDbLine
 10
153.5033897482196
 20
128.3951712659362
 30
0.0
 11
153.495041806951
 21
128.3881417774299
 31
0.0
  0
LINE
  5
47E
330
E3
100
AcDbEntity
  8
0
  6
Continuous
100
AcDbLine
 10
153.495041806951
 20
128.3881417774299
 30
0.0
 11
153.4903849303177
 21
128.3817661092876
 31
0.0
  0
LINE
  5
47F
330
E3
100
AcDbEntity
  8
0
  6
Continuous
100
AcDbLine
 10
153.4903849303177
 20
128.3817661092876
 30
0.0
 11
153.489461280155
 21
128.3760474595088
 31
0.0
  0
LINE
  5
480
330
E3
100
AcDbEntity
  8
0
  6
Continuous
100
AcDbLine
 10
154.5084724621016
 20
128.3557183524916
 30
0.0
 11
154.5075488119388
 21
128.3499997027127
 31
0.0
  0
LINE
  5
481
330
E3
100
AcDbEntity
  8
0
  6
Continuous
100
AcDbLine
 10
154.5075488119388
 20
128.3499997027127
 30
0.0
 11
154.5028919312883
 21
128.3436227836737
 31
0.0
  0
LINE
  5
482
330
E3
100
AcDbEntity
  8
0
  6
Continuous
100
AcDbLine
 10
154.5028919312883
 20
128.3436227836737
 30
0.0
 11
154.4945442382705
 21
128.3365967141686
 31
0.0
  0
LINE
  5
483
330
E3
100
AcDbEntity
  8
0
  6
Continuous
100
AcDbLine
 10
154.4945442382705
 20
128.3365967141686
 30
0.0
 11
154.4825764832484
 21
128.3289300299828
 31
0.0
  0
LINE
  5
484
330
E3
100
AcDbEntity
  8
0
  6
Continuous
100
AcDbLine
 10
154.4825764832484
 20
128.3289300299828
 30
0.0
 11
154.4670872052957
 21
128.3206430968112
 31
0.0
  0
LINE
  5
485
330
E3
100
AcDbEntity
  8
0
  6
Continuous
100
AcDbLine
 10
154.4670872052957
 20
128.3206430968112
 30
0.0
 11
154.4482018099451
 21
128.3117562506861
 31
0.0
  0
LINE
  5
486
330
E3
100
AcDbEntity
  8
0
  6
Continuous
100
AcDbLine
 10
154.4482018099451
 20
128.3117562506861
 30
0.0
 11
154.426072817439
 21
128.3022999956559
 31
0.0
  0
LINE
  5
487
330
E3
100
AcDbEntity
  8
0
  6
Continuous
100
AcDbLine
 10
154.426072817439
 20
128.3022999956559
 30
0.0
 11
154.4008730840521
 21
128.2922980570917
 31
0.0
  0
LINE
  5
488
330
E3
100
AcDbEntity
  8
0
  6
Continuous
100
AcDbLine
 10
154.4008730840521
 20
128.2922980570917
 30
0.0
 11
154.372802580769
 21
128.2817944963969
 31
0.0
  0
LINE
  5
489
330
E3
100
AcDbEntity
  8
0
  6
Continuous
100
AcDbLine
 10
154.372802580769
 20
128.2817944963969
 30
0.0
 11
154.3420816146064
 21
128.2708198176199
 31
0.0
  0
LINE
  5
48A
330
E3
100
AcDbEntity
  8
0
  6
Continuous
100
AcDbLine
 10
154.3420816146064
 20
128.2708198176199
 30
0.0
 11
154.3089508286135
 21
128.2594248608416
 31
0.0
  0
LINE
  5
48B
330
E3
100
AcDbEntity
  8
0
  6
Continuous
100
AcDbLine
 10
154.3089508286135
 20
128.2594248608416
 30
0.0
 11
154.2736712018719
 21
128.2476469087879
 31
0.0
  0
LINE
  5
48C
330
E3
100
AcDbEntity
  8
0
  6
Continuous
100
AcDbLine
 10
154.2736712018719
 20
128.2476469087879
 30
0.0
 11
154.2365172708178
 21
128.2355401908783
 31
0.0
  0
LINE
  5
48D
330
E3
100
AcDbEntity
  8
0
  6
Continuous
100
AcDbLine
 10
154.2365172708178
 20
128.2355401908783
 30
0.0
 11
154.1977805185813
 21
128.2231555471936
 31
0.0
  0
LINE
  5
48E
330
E3
100
AcDbEntity
  8
0
  6
Continuous
100
AcDbLine
 10
154.1977805185813
 20
128.2231555471936
 30
0.0
 11
154.1577625963084
 21
128.2105404284759
 31
0.0
  0
LINE
  5
48F
330
E3
100
AcDbEntity
  8
0
  6
Continuous
100
AcDbLine
 10
154.1577625963084
 20
128.2105404284759
 30
0.0
 11
154.1167753231614
 21
128.1977592321609
 31
0.0
  0
LINE
  5
490
330
E3
100
AcDbEntity
  8
0
  6
Continuous
100
AcDbLine
 10
154.1167753231614
 20
128.1977592321609
 30
0.0
 11
154.0751372969801
 21
128.1848594089907
 31
0.0
  0
LINE
  5
491
330
E3
100
AcDbEntity
  8
0
  6
Continuous
100
AcDbLine
 10
154.0751372969801
 20
128.1848594089907
 30
0.0
 11
154.0331705049429
 21
128.171905356401
 31
0.0
  0
LINE
  5
492
330
E3
100
AcDbEntity
  8
0
  6
Continuous
100
AcDbLine
 10
154.0331705049429
 20
128.171905356401
 30
0.0
 11
153.9912037129057
 21
128.1589513038112
 31
0.0
  0
LINE
  5
493
330
E3
100
AcDbEntity
  8
0
  6
Continuous
100
AcDbLine
 10
153.9912037129057
 20
128.1589513038112
 30
0.0
 11
153.9495656867245
 21
128.146051480641
 31
0.0
  0
LINE
  5
494
330
E3
100
AcDbEntity
  8
0
  6
Continuous
100
AcDbLine
 10
153.9495656867245
 20
128.146051480641
 30
0.0
 11
153.9085784135775
 21
128.133270284326
 31
0.0
  0
LINE
  5
495
330
E3
100
AcDbEntity
  8
0
  6
Continuous
100
AcDbLine
 10
153.9085784135775
 20
128.133270284326
 30
0.0
 11
153.8685571019659
 21
128.1206585549471
 31
0.0
  0
LINE
  5
496
330
E3
100
AcDbEntity
  8
0
  6
Continuous
100
AcDbLine
 10
153.8685571019659
 20
128.1206585549471
 30
0.0
 11
153.8298203497293
 21
128.1082705219237
 31
0.0
  0
LINE
  5
497
330
E3
100
AcDbEntity
  8
0
  6
Continuous
100
AcDbLine
 10
153.8298203497293
 20
128.1082705219237
 30
0.0
 11
153.792669808014
 21
128.096163804014
 31
0.0
  0
LINE
  5
498
330
E3
100
AcDbEntity
  8
0
  6
Continuous
100
AcDbLine
 10
153.792669808014
 20
128.096163804014
 30
0.0
 11
153.7573901812723
 21
128.084389241299
 31
0.0
  0
LINE
  5
499
330
E3
100
AcDbEntity
  8
0
  6
Continuous
100
AcDbLine
 10
153.7573901812723
 20
128.084389241299
 30
0.0
 11
153.7242593952795
 21
128.072990895182
 31
0.0
  0
LINE
  5
49A
330
E3
100
AcDbEntity
  8
0
  6
Continuous
100
AcDbLine
 10
153.7242593952795
 20
128.072990895182
 30
0.0
 11
153.6935384291169
 21
128.0620162164051
 31
0.0
  0
LINE
  5
49B
330
E3
100
AcDbEntity
  8
0
  6
Continuous
100
AcDbLine
 10
153.6935384291169
 20
128.0620162164051
 30
0.0
 11
153.6654679258337
 21
128.0515126557102
 31
0.0
  0
LINE
  5
49C
330
E3
100
AcDbEntity
  8
0
  6
Continuous
100
AcDbLine
 10
153.6654679258337
 20
128.0515126557102
 30
0.0
 11
153.6402681924468
 21
128.0415141064848
 31
0.0
  0
LINE
  5
49D
330
E3
100
AcDbEntity
  8
0
  6
Continuous
100
AcDbLine
 10
153.6402681924468
 20
128.0415141064848
 30
0.0
 11
153.618135810602
 21
128.0320544621159
 31
0.0
  0
LINE
  5
49E
330
E3
100
AcDbEntity
  8
0
  6
Continuous
100
AcDbLine
 10
153.618135810602
 20
128.0320544621159
 30
0.0
 11
153.5992504152514
 21
128.0231676159907
 31
0.0
  0
LINE
  5
49F
330
E3
100
AcDbEntity
  8
0
  6
Continuous
100
AcDbLine
 10
153.5992504152514
 20
128.0231676159907
 30
0.0
 11
153.5837645266375
 21
128.0148806828191
 31
0.0
  0
LINE
  5
4A0
330
E3
100
AcDbEntity
  8
0
  6
Continuous
100
AcDbLine
 10
153.5837645266375
 20
128.0148806828191
 30
0.0
 11
153.5717967716154
 21
128.0072173879721
 31
0.0
  0
LINE
  5
4A1
330
E3
100
AcDbEntity
  8
0
  6
Continuous
100
AcDbLine
 10
153.5717967716154
 20
128.0072173879721
 30
0.0
 11
153.5634488303468
 21
128.0001878994657
 31
0.0
  0
LINE
  5
4A2
330
E3
100
AcDbEntity
  8
0
  6
Continuous
100
AcDbLine
 10
153.5634488303468
 20
128.0001878994657
 30
0.0
 11
153.5587917881865
 21
127.9938115399192
 31
0.0
  0
LINE
  5
4A3
330
E3
100
AcDbEntity
  8
0
  6
Continuous
100
AcDbLine
 10
153.5587917881865
 20
127.9938115399192
 30
0.0
 11
153.5578681380237
 21
127.9880928901404
 31
0.0
  0
LINE
  5
4A4
330
E3
100
AcDbEntity
  8
0
  6
Continuous
100
AcDbLine
 10
154.5768793199703
 20
127.9677637831231
 30
0.0
 11
154.5759556698076
 21
127.9620451333443
 31
0.0
  0
LINE
  5
4A5
330
E3
100
AcDbEntity
  8
0
  6
Continuous
100
AcDbLine
 10
154.5759556698076
 20
127.9620451333443
 30
0.0
 11
154.5712987891571
 21
127.9556682143053
 31
0.0
  0
LINE
  5
4A6
330
E3
100
AcDbEntity
  8
0
  6
Continuous
100
AcDbLine
 10
154.5712987891571
 20
127.9556682143053
 30
0.0
 11
154.5629512616663
 21
127.9486394468657
 31
0.0
  0
LINE
  5
4A7
330
E3
100
AcDbEntity
  8
0
  6
Continuous
100
AcDbLine
 10
154.5629512616663
 20
127.9486394468657
 30
0.0
 11
154.5509835066441
 21
127.9409761520187
 31
0.0
  0
LINE
  5
4A8
330
E3
100
AcDbEntity
  8
0
  6
Continuous
100
AcDbLine
 10
154.5509835066441
 20
127.9409761520187
 30
0.0
 11
154.5354942286915
 21
127.9326892188471
 31
0.0
  0
LINE
  5
4A9
330
E3
100
AcDbEntity
  8
0
  6
Continuous
100
AcDbLine
 10
154.5354942286915
 20
127.9326892188471
 30
0.0
 11
154.5166088333409
 21
127.9238023727219
 31
0.0
  0
LINE
  5
4AA
330
E3
100
AcDbEntity
  8
0
  6
Continuous
100
AcDbLine
 10
154.5166088333409
 20
127.9238023727219
 30
0.0
 11
154.4944798408347
 21
127.914342728353
 31
0.0
  0
LINE
  5
4AB
330
E3
100
AcDbEntity
  8
0
  6
Continuous
100
AcDbLine
 10
154.4944798408347
 20
127.914342728353
 30
0.0
 11
154.4692801074479
 21
127.9043441791275
 31
0.0
  0
LINE
  5
4AC
330
E3
100
AcDbEntity
  8
0
  6
Continuous
100
AcDbLine
 10
154.4692801074479
 20
127.9043441791275
 30
0.0
 11
154.4412096041648
 21
127.8938406184328
 31
0.0
  0
LINE
  5
4AD
330
E3
100
AcDbEntity
  8
0
  6
Continuous
100
AcDbLine
 10
154.4412096041648
 20
127.8938406184328
 30
0.0
 11
154.4104886380022
 21
127.8828659396558
 31
0.0
  0
LINE
  5
4AE
330
E3
100
AcDbEntity
  8
0
  6
Continuous
100
AcDbLine
 10
154.4104886380022
 20
127.8828659396558
 30
0.0
 11
154.3773578520093
 21
127.8714675935388
 31
0.0
  0
LINE
  5
4AF
330
E3
100
AcDbEntity
  8
0
  6
Continuous
100
AcDbLine
 10
154.3773578520093
 20
127.8714675935388
 30
0.0
 11
154.3420782252677
 21
127.8596930308238
 31
0.0
  0
LINE
  5
4B0
330
E3
100
AcDbEntity
  8
0
  6
Continuous
100
AcDbLine
 10
154.3420782252677
 20
127.8596930308238
 30
0.0
 11
154.3049242942135
 21
127.8475863129141
 31
0.0
  0
LINE
  5
4B1
330
E3
100
AcDbEntity
  8
0
  6
Continuous
100
AcDbLine
 10
154.3049242942135
 20
127.8475863129141
 30
0.0
 11
154.266187541977
 21
127.8351982798907
 31
0.0
  0
LINE
  5
4B2
330
E3
100
AcDbEntity
  8
0
  6
Continuous
100
AcDbLine
 10
154.266187541977
 20
127.8351982798907
 30
0.0
 11
154.2261696197041
 21
127.8225865505117
 31
0.0
  0
LINE
  5
4B3
330
E3
100
AcDbEntity
  8
0
  6
Continuous
100
AcDbLine
 10
154.2261696197041
 20
127.8225865505117
 30
0.0
 11
154.1851823465572
 21
127.8098053541968
 31
0.0
  0
LINE
  5
4B4
330
E3
100
AcDbEntity
  8
0
  6
Continuous
100
AcDbLine
 10
154.1851823465572
 20
127.8098053541968
 30
0.0
 11
154.1435443203759
 21
127.7969055310266
 31
0.0
  0
LINE
  5
4B5
330
E3
100
AcDbEntity
  8
0
  6
Continuous
100
AcDbLine
 10
154.1435443203759
 20
127.7969055310266
 30
0.0
 11
154.1015775283387
 21
127.7839514784368
 31
0.0
  0
LINE
  5
4B6
330
E3
100
AcDbEntity
  8
0
  6
Continuous
100
AcDbLine
 10
154.1015775283387
 20
127.7839514784368
 30
0.0
 11
154.0596107363015
 21
127.7709940365084
 31
0.0
  0
LINE
  5
4B7
330
E3
100
AcDbEntity
  8
0
  6
Continuous
100
AcDbLine
 10
154.0596107363015
 20
127.7709940365084
 30
0.0
 11
154.0179727101202
 21
127.7580976026769
 31
0.0
  0
LINE
  5
4B8
330
E3
100
AcDbEntity
  8
0
  6
Continuous
100
AcDbLine
 10
154.0179727101202
 20
127.7580976026769
 30
0.0
 11
153.9769854369733
 21
127.7453130170232
 31
0.0
  0
LINE
  5
4B9
330
E3
100
AcDbEntity
  8
0
  6
Continuous
100
AcDbLine
 10
153.9769854369733
 20
127.7453130170232
 30
0.0
 11
153.9369641253616
 21
127.7327012876442
 31
0.0
  0
LINE
  5
4BA
330
E3
100
AcDbEntity
  8
0
  6
Continuous
100
AcDbLine
 10
153.9369641253616
 20
127.7327012876442
 30
0.0
 11
153.8982273731251
 21
127.7203166439595
 31
0.0
  0
LINE
  5
4BB
330
E3
100
AcDbEntity
  8
0
  6
Continuous
100
AcDbLine
 10
153.8982273731251
 20
127.7203166439595
 30
0.0
 11
153.8610768314097
 21
127.7082099260499
 31
0.0
  0
LINE
  5
4BC
330
E3
100
AcDbEntity
  8
0
  6
Continuous
100
AcDbLine
 10
153.8610768314097
 20
127.7082099260499
 30
0.0
 11
153.8257972046681
 21
127.6964319739962
 31
0.0
  0
LINE
  5
4BD
330
E3
100
AcDbEntity
  8
0
  6
Continuous
100
AcDbLine
 10
153.8257972046681
 20
127.6964319739962
 30
0.0
 11
153.7926664186752
 21
127.6850370172178
 31
0.0
  0
LINE
  5
4BE
330
E3
100
AcDbEntity
  8
0
  6
Continuous
100
AcDbLine
 10
153.7926664186752
 20
127.6850370172178
 30
0.0
 11
153.7619454525127
 21
127.6740623384409
 31
0.0
  0
LINE
  5
4BF
330
E3
100
AcDbEntity
  8
0
  6
Continuous
100
AcDbLine
 10
153.7619454525127
 20
127.6740623384409
 30
0.0
 11
153.7338749492295
 21
127.6635587777461
 31
0.0
  0
LINE
  5
4C0
330
E3
100
AcDbEntity
  8
0
  6
Continuous
100
AcDbLine
 10
153.7338749492295
 20
127.6635587777461
 30
0.0
 11
153.7086752158426
 21
127.6535568391819
 31
0.0
  0
LINE
  5
4C1
330
E3
100
AcDbEntity
  8
0
  6
Continuous
100
AcDbLine
 10
153.7086752158426
 20
127.6535568391819
 30
0.0
 11
153.6865428339978
 21
127.6441005841517
 31
0.0
  0
LINE
  5
4C2
330
E3
100
AcDbEntity
  8
0
  6
Continuous
100
AcDbLine
 10
153.6865428339978
 20
127.6441005841517
 30
0.0
 11
153.6676574386472
 21
127.6352137380266
 31
0.0
  0
LINE
  5
4C3
330
E3
100
AcDbEntity
  8
0
  6
Continuous
100
AcDbLine
 10
153.6676574386472
 20
127.6352137380266
 30
0.0
 11
153.6521715500332
 21
127.6269268048549
 31
0.0
  0
LINE
  5
4C4
330
E3
100
AcDbEntity
  8
0
  6
Continuous
100
AcDbLine
 10
153.6521715500332
 20
127.6269268048549
 30
0.0
 11
153.6402037950111
 21
127.6192601206692
 31
0.0
  0
LINE
  5
4C5
330
E3
100
AcDbEntity
  8
0
  6
Continuous
100
AcDbLine
 10
153.6402037950111
 20
127.6192601206692
 30
0.0
 11
153.6318558537426
 21
127.6122340215016
 31
0.0
  0
LINE
  5
4C6
330
E3
100
AcDbEntity
  8
0
  6
Continuous
100
AcDbLine
 10
153.6318558537426
 20
127.6122340215016
 30
0.0
 11
153.6271986460553
 21
127.6058569705508
 31
0.0
  0
LINE
  5
4C7
330
E3
100
AcDbEntity
  8
0
  6
Continuous
100
AcDbLine
 10
153.6271986460553
 20
127.6058569705508
 30
0.0
 11
153.6262749958925
 21
127.6001383207719
 31
0.0
  0
LINE
  5
4C8
330
E3
100
AcDbEntity
  8
0
  6
Continuous
100
AcDbLine
 10
154.6452861778392
 20
127.5798092137546
 30
0.0
 11
154.6443625276764
 21
127.5740905639758
 31
0.0
  0
LINE
  5
4C9
330
E3
100
AcDbEntity
  8
0
  6
Continuous
100
AcDbLine
 10
154.6443625276764
 20
127.5740905639758
 30
0.0
 11
154.6397056470259
 21
127.5677136449368
 31
0.0
  0
LINE
  5
4CA
330
E3
100
AcDbEntity
  8
0
  6
Continuous
100
AcDbLine
 10
154.6397056470259
 20
127.5677136449368
 30
0.0
 11
154.631358285062
 21
127.5606855689016
 31
0.0
  0
LINE
  5
4CB
330
E3
100
AcDbEntity
  8
0
  6
Continuous
100
AcDbLine
 10
154.631358285062
 20
127.5606855689016
 30
0.0
 11
154.6193905300399
 21
127.5530188847158
 31
0.0
  0
LINE
  5
4CC
330
E3
100
AcDbEntity
  8
0
  6
Continuous
100
AcDbLine
 10
154.6193905300399
 20
127.5530188847158
 30
0.0
 11
154.6039012520873
 21
127.5447319515442
 31
0.0
  0
LINE
  5
4CD
330
E3
100
AcDbEntity
  8
0
  6
Continuous
100
AcDbLine
 10
154.6039012520873
 20
127.5447319515442
 30
0.0
 11
154.5850158567366
 21
127.5358484947578
 31
0.0
  0
LINE
  5
4CE
330
E3
100
AcDbEntity
  8
0
  6
Continuous
100
AcDbLine
 10
154.5850158567366
 20
127.5358484947578
 30
0.0
 11
154.5628868642305
 21
127.5263888503889
 31
0.0
  0
LINE
  5
4CF
330
E3
100
AcDbEntity
  8
0
  6
Continuous
100
AcDbLine
 10
154.5628868642305
 20
127.5263888503889
 30
0.0
 11
154.5376871308436
 21
127.5163903011634
 31
0.0
  0
LINE
  5
4D0
330
E3
100
AcDbEntity
  8
0
  6
Continuous
100
AcDbLine
 10
154.5376871308436
 20
127.5163903011634
 30
0.0
 11
154.5096166275605
 21
127.5058833511299
 31
0.0
  0
LINE
  5
4D1
330
E3
100
AcDbEntity
  8
0
  6
Continuous
100
AcDbLine
 10
154.5096166275605
 20
127.5058833511299
 30
0.0
 11
154.4788956613979
 21
127.4949120616916
 31
0.0
  0
LINE
  5
4D2
330
E3
100
AcDbEntity
  8
0
  6
Continuous
100
AcDbLine
 10
154.4788956613979
 20
127.4949120616916
 30
0.0
 11
154.4457648754051
 21
127.4835137155746
 31
0.0
  0
LINE
  5
4D3
330
E3
100
AcDbEntity
  8
0
  6
Continuous
100
AcDbLine
 10
154.4457648754051
 20
127.4835137155746
 30
0.0
 11
154.4104852486634
 21
127.4717391528596
 31
0.0
  0
LINE
  5
4D4
330
E3
100
AcDbEntity
  8
0
  6
Continuous
100
AcDbLine
 10
154.4104852486634
 20
127.4717391528596
 30
0.0
 11
154.3733313176094
 21
127.45963243495
 31
0.0
  0
LINE
  5
4D5
330
E3
100
AcDbEntity
  8
0
  6
Continuous
100
AcDbLine
 10
154.3733313176094
 20
127.45963243495
 30
0.0
 11
154.3345945653728
 21
127.4472444019266
 31
0.0
  0
LINE
  5
4D6
330
E3
100
AcDbEntity
  8
0
  6
Continuous
100
AcDbLine
 10
154.3345945653728
 20
127.4472444019266
 30
0.0
 11
154.2945766430999
 21
127.4346326725476
 31
0.0
  0
LINE
  5
4D7
330
E3
100
AcDbEntity
  8
0
  6
Continuous
100
AcDbLine
 10
154.2945766430999
 20
127.4346326725476
 30
0.0
 11
154.2535893699529
 21
127.4218514762326
 31
0.0
  0
LINE
  5
4D8
330
E3
100
AcDbEntity
  8
0
  6
Continuous
100
AcDbLine
 10
154.2535893699529
 20
127.4218514762326
 30
0.0
 11
154.2119513437716
 21
127.4089516530624
 31
0.0
  0
LINE
  5
4D9
330
E3
100
AcDbEntity
  8
0
  6
Continuous
100
AcDbLine
 10
154.2119513437716
 20
127.4089516530624
 30
0.0
 11
154.1699845517345
 21
127.3959976004727
 31
0.0
  0
LINE
  5
4DA
330
E3
100
AcDbEntity
  8
0
  6
Continuous
100
AcDbLine
 10
154.1699845517345
 20
127.3959976004727
 30
0.0
 11
154.1280177596973
 21
127.3830401585442
 31
0.0
  0
LINE
  5
4DB
330
E3
100
AcDbEntity
  8
0
  6
Continuous
100
AcDbLine
 10
154.1280177596973
 20
127.3830401585442
 30
0.0
 11
154.086379733516
 21
127.3701437247127
 31
0.0
  0
LINE
  5
4DC
330
E3
100
AcDbEntity
  8
0
  6
Continuous
100
AcDbLine
 10
154.086379733516
 20
127.3701437247127
 30
0.0
 11
154.045392460369
 21
127.357359139059
 31
0.0
  0
LINE
  5
4DD
330
E3
100
AcDbEntity
  8
0
  6
Continuous
100
AcDbLine
 10
154.045392460369
 20
127.357359139059
 30
0.0
 11
154.0053711487574
 21
127.3447474096801
 31
0.0
  0
LINE
  5
4DE
330
E3
100
AcDbEntity
  8
0
  6
Continuous
100
AcDbLine
 10
154.0053711487574
 20
127.3447474096801
 30
0.0
 11
153.9666343965209
 21
127.3323627659954
 31
0.0
  0
LINE
  5
4DF
330
E3
100
AcDbEntity
  8
0
  6
Continuous
100
AcDbLine
 10
153.9666343965209
 20
127.3323627659954
 30
0.0
 11
153.9294838548055
 21
127.3202560480857
 31
0.0
  0
LINE
  5
4E0
330
E3
100
AcDbEntity
  8
0
  6
Continuous
100
AcDbLine
 10
153.9294838548055
 20
127.3202560480857
 30
0.0
 11
153.8942042280639
 21
127.308478096032
 31
0.0
  0
LINE
  5
4E1
330
E3
100
AcDbEntity
  8
0
  6
Continuous
100
AcDbLine
 10
153.8942042280639
 20
127.308478096032
 30
0.0
 11
153.861073442071
 21
127.297079749915
 31
0.0
  0
LINE
  5
4E2
330
E3
100
AcDbEntity
  8
0
  6
Continuous
100
AcDbLine
 10
153.861073442071
 20
127.297079749915
 30
0.0
 11
153.8303524759084
 21
127.2861084604768
 31
0.0
  0
LINE
  5
4E3
330
E3
100
AcDbEntity
  8
0
  6
Continuous
100
AcDbLine
 10
153.8303524759084
 20
127.2861084604768
 30
0.0
 11
153.8022819726253
 21
127.2756015104432
 31
0.0
  0
LINE
  5
4E4
330
E3
100
AcDbEntity
  8
0
  6
Continuous
100
AcDbLine
 10
153.8022819726253
 20
127.2756015104432
 30
0.0
 11
153.7770822392384
 21
127.2656029612177
 31
0.0
  0
LINE
  5
4E5
330
E3
100
AcDbEntity
  8
0
  6
Continuous
100
AcDbLine
 10
153.7770822392384
 20
127.2656029612177
 30
0.0
 11
153.7549498573936
 21
127.2561467061876
 31
0.0
  0
LINE
  5
4E6
330
E3
100
AcDbEntity
  8
0
  6
Continuous
100
AcDbLine
 10
153.7549498573936
 20
127.2561467061876
 30
0.0
 11
153.736064462043
 21
127.2472598600624
 31
0.0
  0
LINE
  5
4E7
330
E3
100
AcDbEntity
  8
0
  6
Continuous
100
AcDbLine
 10
153.736064462043
 20
127.2472598600624
 30
0.0
 11
153.720578573429
 21
127.2389729268908
 31
0.0
  0
LINE
  5
4E8
330
E3
100
AcDbEntity
  8
0
  6
Continuous
100
AcDbLine
 10
153.720578573429
 20
127.2389729268908
 30
0.0
 11
153.7086108184069
 21
127.231306242705
 31
0.0
  0
LINE
  5
4E9
330
E3
100
AcDbEntity
  8
0
  6
Continuous
100
AcDbLine
 10
153.7086108184069
 20
127.231306242705
 30
0.0
 11
153.7002628771383
 21
127.2242801435375
 31
0.0
  0
LINE
  5
4EA
330
E3
100
AcDbEntity
  8
0
  6
Continuous
100
AcDbLine
 10
153.7002628771383
 20
127.2242801435375
 30
0.0
 11
153.695605503924
 21
127.2179024011823
 31
0.0
  0
LINE
  5
4EB
330
E3
100
AcDbEntity
  8
0
  6
Continuous
100
AcDbLine
 10
153.695605503924
 20
127.2179024011823
 30
0.0
 11
153.6946818537614
 21
127.2121837514035
 31
0.0
  0
LINE
  5
4EC
330
E3
100
AcDbEntity
  8
0
  6
Continuous
100
AcDbLine
 10
154.713693035708
 20
127.1918546443862
 30
0.0
 11
154.7127693855452
 21
127.1861359946074
 31
0.0
  0
LINE
  5
4ED
330
E3
100
AcDbEntity
  8
0
  6
Continuous
100
AcDbLine
 10
154.7127693855452
 20
127.1861359946074
 30
0.0
 11
154.7081125048947
 21
127.1797590755684
 31
0.0
  0
LINE
  5
4EE
330
E3
100
AcDbEntity
  8
0
  6
Continuous
100
AcDbLine
 10
154.7081125048947
 20
127.1797590755684
 30
0.0
 11
154.6997653084578
 21
127.1727316909374
 31
0.0
  0
LINE
  5
4EF
330
E3
100
AcDbEntity
  8
0
  6
Continuous
100
AcDbLine
 10
154.6997653084578
 20
127.1727316909374
 30
0.0
 11
154.6877975534357
 21
127.1650650067516
 31
0.0
  0
LINE
  5
4F0
330
E3
100
AcDbEntity
  8
0
  6
Continuous
100
AcDbLine
 10
154.6877975534357
 20
127.1650650067516
 30
0.0
 11
154.6723082754831
 21
127.15677807358
 31
0.0
  0
LINE
  5
4F1
330
E3
100
AcDbEntity
  8
0
  6
Continuous
100
AcDbLine
 10
154.6723082754831
 20
127.15677807358
 30
0.0
 11
154.6534228801324
 21
127.1478912274549
 31
0.0
  0
LINE
  5
4F2
330
E3
100
AcDbEntity
  8
0
  6
Continuous
100
AcDbLine
 10
154.6534228801324
 20
127.1478912274549
 30
0.0
 11
154.6312938876263
 21
127.1384349724247
 31
0.0
  0
LINE
  5
4F3
330
E3
100
AcDbEntity
  8
0
  6
Continuous
100
AcDbLine
 10
154.6312938876263
 20
127.1384349724247
 30
0.0
 11
154.6060941542394
 21
127.1284364231993
 31
0.0
  0
LINE
  5
4F4
330
E3
100
AcDbEntity
  8
0
  6
Continuous
100
AcDbLine
 10
154.6060941542394
 20
127.1284364231993
 30
0.0
 11
154.5780236509563
 21
127.1179294731657
 31
0.0
  0
LINE
  5
4F5
330
E3
100
AcDbEntity
  8
0
  6
Continuous
100
AcDbLine
 10
154.5780236509563
 20
127.1179294731657
 30
0.0
 11
154.5473026847937
 21
127.1069581837275
 31
0.0
  0
LINE
  5
4F6
330
E3
100
AcDbEntity
  8
0
  6
Continuous
100
AcDbLine
 10
154.5473026847937
 20
127.1069581837275
 30
0.0
 11
154.5141718988008
 21
127.0955598376105
 31
0.0
  0
LINE
  5
4F7
330
E3
100
AcDbEntity
  8
0
  6
Continuous
100
AcDbLine
 10
154.5141718988008
 20
127.0955598376105
 30
0.0
 11
154.4788922720592
 21
127.0837818855567
 31
0.0
  0
LINE
  5
4F8
330
E3
100
AcDbEntity
  8
0
  6
Continuous
100
AcDbLine
 10
154.4788922720592
 20
127.0837818855567
 30
0.0
 11
154.4417383410051
 21
127.0716751676471
 31
0.0
  0
LINE
  5
4F9
330
E3
100
AcDbEntity
  8
0
  6
Continuous
100
AcDbLine
 10
154.4417383410051
 20
127.0716751676471
 30
0.0
 11
154.4030015887686
 21
127.0592905239624
 31
0.0
  0
LINE
  5
4FA
330
E3
100
AcDbEntity
  8
0
  6
Continuous
100
AcDbLine
 10
154.4030015887686
 20
127.0592905239624
 30
0.0
 11
154.3629836664957
 21
127.0466787945835
 31
0.0
  0
LINE
  5
4FB
330
E3
100
AcDbEntity
  8
0
  6
Continuous
100
AcDbLine
 10
154.3629836664957
 20
127.0466787945835
 30
0.0
 11
154.3219963933487
 21
127.0338942089297
 31
0.0
  0
LINE
  5
4FC
330
E3
100
AcDbEntity
  8
0
  6
Continuous
100
AcDbLine
 10
154.3219963933487
 20
127.0338942089297
 30
0.0
 11
154.2803549778287
 21
127.0209977750983
 31
0.0
  0
LINE
  5
4FD
330
E3
100
AcDbEntity
  8
0
  6
Continuous
100
AcDbLine
 10
154.2803549778287
 20
127.0209977750983
 30
0.0
 11
154.2383915751303
 21
127.0080403331698
 31
0.0
  0
LINE
  5
4FE
330
E3
100
AcDbEntity
  8
0
  6
Continuous
100
AcDbLine
 10
154.2383915751303
 20
127.0080403331698
 30
0.0
 11
154.196424783093
 21
126.9950862805801
 31
0.0
  0
LINE
  5
4FF
330
E3
100
AcDbEntity
  8
0
  6
Continuous
100
AcDbLine
 10
154.196424783093
 20
126.9950862805801
 30
0.0
 11
154.1547867569117
 21
126.9821898467486
 31
0.0
  0
LINE
  5
500
330
E3
100
AcDbEntity
  8
0
  6
Continuous
100
AcDbLine
 10
154.1547867569117
 20
126.9821898467486
 30
0.0
 11
154.113796094426
 21
126.9694052610948
 31
0.0
  0
LINE
  5
501
330
E3
100
AcDbEntity
  8
0
  6
Continuous
100
AcDbLine
 10
154.113796094426
 20
126.9694052610948
 30
0.0
 11
154.0737781721532
 21
126.9567935317159
 31
0.0
  0
LINE
  5
502
330
E3
100
AcDbEntity
  8
0
  6
Continuous
100
AcDbLine
 10
154.0737781721532
 20
126.9567935317159
 30
0.0
 11
154.0350414199166
 21
126.9444054986925
 31
0.0
  0
LINE
  5
503
330
E3
100
AcDbEntity
  8
0
  6
Continuous
100
AcDbLine
 10
154.0350414199166
 20
126.9444054986925
 30
0.0
 11
153.9978908782012
 21
126.9322987807829
 31
0.0
  0
LINE
  5
504
330
E3
100
AcDbEntity
  8
0
  6
Continuous
100
AcDbLine
 10
153.9978908782012
 20
126.9322987807829
 30
0.0
 11
153.9626112514596
 21
126.9205242180679
 31
0.0
  0
LINE
  5
505
330
E3
100
AcDbEntity
  8
0
  6
Continuous
100
AcDbLine
 10
153.9626112514596
 20
126.9205242180679
 30
0.0
 11
153.9294804654668
 21
126.9091258719508
 31
0.0
  0
LINE
  5
506
330
E3
100
AcDbEntity
  8
0
  6
Continuous
100
AcDbLine
 10
153.9294804654668
 20
126.9091258719508
 30
0.0
 11
153.8987594993042
 21
126.8981545825126
 31
0.0
  0
LINE
  5
507
330
E3
100
AcDbEntity
  8
0
  6
Continuous
100
AcDbLine
 10
153.8987594993042
 20
126.8981545825126
 30
0.0
 11
153.8706889960211
 21
126.887647632479
 31
0.0
  0
LINE
  5
508
330
E3
100
AcDbEntity
  8
0
  6
Continuous
100
AcDbLine
 10
153.8706889960211
 20
126.887647632479
 30
0.0
 11
153.8454892626342
 21
126.8776490832536
 31
0.0
  0
LINE
  5
509
330
E3
100
AcDbEntity
  8
0
  6
Continuous
100
AcDbLine
 10
153.8454892626342
 20
126.8776490832536
 30
0.0
 11
153.8233568807893
 21
126.8681894388847
 31
0.0
  0
LINE
  5
50A
330
E3
100
AcDbEntity
  8
0
  6
Continuous
100
AcDbLine
 10
153.8233568807893
 20
126.8681894388847
 30
0.0
 11
153.8044714854387
 21
126.8593059820983
 31
0.0
  0
LINE
  5
50B
330
E3
100
AcDbEntity
  8
0
  6
Continuous
100
AcDbLine
 10
153.8044714854387
 20
126.8593059820983
 30
0.0
 11
153.7889855968248
 21
126.8510190489266
 31
0.0
  0
LINE
  5
50C
330
E3
100
AcDbEntity
  8
0
  6
Continuous
100
AcDbLine
 10
153.7889855968248
 20
126.8510190489266
 30
0.0
 11
153.7770178418027
 21
126.8433523647409
 31
0.0
  0
LINE
  5
50D
330
E3
100
AcDbEntity
  8
0
  6
Continuous
100
AcDbLine
 10
153.7770178418027
 20
126.8433523647409
 30
0.0
 11
153.7686699005341
 21
126.8363262655733
 31
0.0
  0
LINE
  5
50E
330
E3
100
AcDbEntity
  8
0
  6
Continuous
100
AcDbLine
 10
153.7686699005341
 20
126.8363262655733
 30
0.0
 11
153.7640123617928
 21
126.8299478318139
 31
0.0
  0
LINE
  5
50F
330
E3
100
AcDbEntity
  8
0
  6
Continuous
100
AcDbLine
 10
153.7640123617928
 20
126.8299478318139
 30
0.0
 11
153.7630887116301
 21
126.8242291820351
 31
0.0
  0
LINE
  5
510
330
E3
100
AcDbEntity
  8
0
  6
Continuous
100
AcDbLine
 10
154.7820998935767
 20
126.8039000750177
 30
0.0
 11
154.781176243414
 21
126.7981814252389
 31
0.0
  0
LINE
  5
511
330
E3
100
AcDbEntity
  8
0
  6
Continuous
100
AcDbLine
 10
154.781176243414
 20
126.7981814252389
 30
0.0
 11
154.7765193627635
 21
126.7918045061999
 31
0.0
  0
LINE
  5
512
330
E3
100
AcDbEntity
  8
0
  6
Continuous
100
AcDbLine
 10
154.7765193627635
 20
126.7918045061999
 30
0.0
 11
154.7681723318535
 21
126.7847778129733
 31
0.0
  0
LINE
  5
513
330
E3
100
AcDbEntity
  8
0
  6
Continuous
100
AcDbLine
 10
154.7681723318535
 20
126.7847778129733
 30
0.0
 11
154.7562045768315
 21
126.7771111287875
 31
0.0
  0
LINE
  5
514
330
E3
100
AcDbEntity
  8
0
  6
Continuous
100
AcDbLine
 10
154.7562045768315
 20
126.7771111287875
 30
0.0
 11
154.7407152988788
 21
126.7688241956159
 31
0.0
  0
LINE
  5
515
330
E3
100
AcDbEntity
  8
0
  6
Continuous
100
AcDbLine
 10
154.7407152988788
 20
126.7688241956159
 30
0.0
 11
154.7218299035282
 21
126.7599373494908
 31
0.0
  0
LINE
  5
516
330
E3
100
AcDbEntity
  8
0
  6
Continuous
100
AcDbLine
 10
154.7218299035282
 20
126.7599373494908
 30
0.0
 11
154.6997009110221
 21
126.7504810944606
 31
0.0
  0
LINE
  5
517
330
E3
100
AcDbEntity
  8
0
  6
Continuous
100
AcDbLine
 10
154.6997009110221
 20
126.7504810944606
 30
0.0
 11
154.6745011776352
 21
126.7404825452351
 31
0.0
  0
LINE
  5
518
330
E3
100
AcDbEntity
  8
0
  6
Continuous
100
AcDbLine
 10
154.6745011776352
 20
126.7404825452351
 30
0.0
 11
154.6464306743521
 21
126.7299755952016
 31
0.0
  0
LINE
  5
519
330
E3
100
AcDbEntity
  8
0
  6
Continuous
100
AcDbLine
 10
154.6464306743521
 20
126.7299755952016
 30
0.0
 11
154.6157097081895
 21
126.7190043057633
 31
0.0
  0
LINE
  5
51A
330
E3
100
AcDbEntity
  8
0
  6
Continuous
100
AcDbLine
 10
154.6157097081895
 20
126.7190043057633
 30
0.0
 11
154.5825789221966
 21
126.7076059596463
 31
0.0
  0
LINE
  5
51B
330
E3
100
AcDbEntity
  8
0
  6
Continuous
100
AcDbLine
 10
154.5825789221966
 20
126.7076059596463
 30
0.0
 11
154.547299295455
 21
126.6958280075926
 31
0.0
  0
LINE
  5
51C
330
E3
100
AcDbEntity
  8
0
  6
Continuous
100
AcDbLine
 10
154.547299295455
 20
126.6958280075926
 30
0.0
 11
154.5101453644009
 21
126.6837212896829
 31
0.0
  0
LINE
  5
51D
330
E3
100
AcDbEntity
  8
0
  6
Continuous
100
AcDbLine
 10
154.5101453644009
 20
126.6837212896829
 30
0.0
 11
154.4714086121643
 21
126.6713366459983
 31
0.0
  0
LINE
  5
51E
330
E3
100
AcDbEntity
  8
0
  6
Continuous
100
AcDbLine
 10
154.4714086121643
 20
126.6713366459983
 30
0.0
 11
154.4313906898915
 21
126.6587249166193
 31
0.0
  0
LINE
  5
51F
330
E3
100
AcDbEntity
  8
0
  6
Continuous
100
AcDbLine
 10
154.4313906898915
 20
126.6587249166193
 30
0.0
 11
154.3904034167445
 21
126.6459403309656
 31
0.0
  0
LINE
  5
520
330
E3
100
AcDbEntity
  8
0
  6
Continuous
100
AcDbLine
 10
154.3904034167445
 20
126.6459403309656
 30
0.0
 11
154.3487620012245
 21
126.6330438971341
 31
0.0
  0
LINE
  5
521
330
E3
100
AcDbEntity
  8
0
  6
Continuous
100
AcDbLine
 10
154.3487620012245
 20
126.6330438971341
 30
0.0
 11
154.306798598526
 21
126.6200864552056
 31
0.0
  0
LINE
  5
522
330
E3
100
AcDbEntity
  8
0
  6
Continuous
100
AcDbLine
 10
154.306798598526
 20
126.6200864552056
 30
0.0
 11
154.2648318064888
 21
126.6071324026159
 31
0.0
  0
LINE
  5
523
330
E3
100
AcDbEntity
  8
0
  6
Continuous
100
AcDbLine
 10
154.2648318064888
 20
126.6071324026159
 30
0.0
 11
154.2231937803075
 21
126.5942325794457
 31
0.0
  0
LINE
  5
524
330
E3
100
AcDbEntity
  8
0
  6
Continuous
100
AcDbLine
 10
154.2231937803075
 20
126.5942325794457
 30
0.0
 11
154.1822031178218
 21
126.5814513831307
 31
0.0
  0
LINE
  5
525
330
E3
100
AcDbEntity
  8
0
  6
Continuous
100
AcDbLine
 10
154.1822031178218
 20
126.5814513831307
 30
0.0
 11
154.142185195549
 21
126.5688396537517
 31
0.0
  0
LINE
  5
526
330
E3
100
AcDbEntity
  8
0
  6
Continuous
100
AcDbLine
 10
154.142185195549
 20
126.5688396537517
 30
0.0
 11
154.1034484433124
 21
126.5564516207283
 31
0.0
  0
LINE
  5
527
330
E3
100
AcDbEntity
  8
0
  6
Continuous
100
AcDbLine
 10
154.1034484433124
 20
126.5564516207283
 30
0.0
 11
154.066297901597
 21
126.5443449028187
 31
0.0
  0
LINE
  5
528
330
E3
100
AcDbEntity
  8
0
  6
Continuous
100
AcDbLine
 10
154.066297901597
 20
126.5443449028187
 30
0.0
 11
154.0310182748554
 21
126.5325703401037
 31
0.0
  0
LINE
  5
529
330
E3
100
AcDbEntity
  8
0
  6
Continuous
100
AcDbLine
 10
154.0310182748554
 20
126.5325703401037
 30
0.0
 11
153.9978874888626
 21
126.5211719939867
 31
0.0
  0
LINE
  5
52A
330
E3
100
AcDbEntity
  8
0
  6
Continuous
100
AcDbLine
 10
153.9978874888626
 20
126.5211719939867
 30
0.0
 11
153.9671665227
 21
126.5102007045484
 31
0.0
  0
LINE
  5
52B
330
E3
100
AcDbEntity
  8
0
  6
Continuous
100
AcDbLine
 10
153.9671665227
 20
126.5102007045484
 30
0.0
 11
153.9390960194168
 21
126.4996937545149
 31
0.0
  0
LINE
  5
52C
330
E3
100
AcDbEntity
  8
0
  6
Continuous
100
AcDbLine
 10
153.9390960194168
 20
126.4996937545149
 30
0.0
 11
153.9138962860299
 21
126.4896952052894
 31
0.0
  0
LINE
  5
52D
330
E3
100
AcDbEntity
  8
0
  6
Continuous
100
AcDbLine
 10
153.9138962860299
 20
126.4896952052894
 30
0.0
 11
153.8917639041851
 21
126.4802355609205
 31
0.0
  0
LINE
  5
52E
330
E3
100
AcDbEntity
  8
0
  6
Continuous
100
AcDbLine
 10
153.8917639041851
 20
126.4802355609205
 30
0.0
 11
153.8728785088345
 21
126.4713521041341
 31
0.0
  0
LINE
  5
52F
330
E3
100
AcDbEntity
  8
0
  6
Continuous
100
AcDbLine
 10
153.8728785088345
 20
126.4713521041341
 30
0.0
 11
153.8573892308818
 21
126.4630651709625
 31
0.0
  0
LINE
  5
530
330
E3
100
AcDbEntity
  8
0
  6
Continuous
100
AcDbLine
 10
153.8573892308818
 20
126.4630651709625
 30
0.0
 11
153.8454248651985
 21
126.4553984867767
 31
0.0
  0
LINE
  5
531
330
E3
100
AcDbEntity
  8
0
  6
Continuous
100
AcDbLine
 10
153.8454248651985
 20
126.4553984867767
 30
0.0
 11
153.8370769239299
 21
126.4483689982704
 31
0.0
  0
LINE
  5
532
330
E3
100
AcDbEntity
  8
0
  6
Continuous
100
AcDbLine
 10
153.8370769239299
 20
126.4483689982704
 30
0.0
 11
153.8324192196616
 21
126.4419932624454
 31
0.0
  0
LINE
  5
533
330
E3
100
AcDbEntity
  8
0
  6
Continuous
100
AcDbLine
 10
153.8324192196616
 20
126.4419932624454
 30
0.0
 11
153.8314955694989
 21
126.4362746126666
 31
0.0
  0
LINE
  5
534
330
E3
100
AcDbEntity
  8
0
  6
Continuous
100
AcDbLine
 10
154.8505067514455
 20
126.4159455056493
 30
0.0
 11
154.8495831012828
 21
126.4102268558705
 31
0.0
  0
LINE
  5
535
330
E3
100
AcDbEntity
  8
0
  6
Continuous
100
AcDbLine
 10
154.8495831012828
 20
126.4102268558705
 30
0.0
 11
154.8449262206323
 21
126.4038499368315
 31
0.0
  0
LINE
  5
536
330
E3
100
AcDbEntity
  8
0
  6
Continuous
100
AcDbLine
 10
154.8449262206323
 20
126.4038499368315
 30
0.0
 11
154.8365793552494
 21
126.3968239350091
 31
0.0
  0
LINE
  5
537
330
E3
100
AcDbEntity
  8
0
  6
Continuous
100
AcDbLine
 10
154.8365793552494
 20
126.3968239350091
 30
0.0
 11
154.8246116002273
 21
126.3891572508234
 31
0.0
  0
LINE
  5
538
330
E3
100
AcDbEntity
  8
0
  6
Continuous
100
AcDbLine
 10
154.8246116002273
 20
126.3891572508234
 30
0.0
 11
154.8091223222746
 21
126.3808703176517
 31
0.0
  0
LINE
  5
539
330
E3
100
AcDbEntity
  8
0
  6
Continuous
100
AcDbLine
 10
154.8091223222746
 20
126.3808703176517
 30
0.0
 11
154.790236926924
 21
126.3719834715266
 31
0.0
  0
LINE
  5
53A
330
E3
100
AcDbEntity
  8
0
  6
Continuous
100
AcDbLine
 10
154.790236926924
 20
126.3719834715266
 30
0.0
 11
154.7681079344179
 21
126.3625272164964
 31
0.0
  0
LINE
  5
53B
330
E3
100
AcDbEntity
  8
0
  6
Continuous
100
AcDbLine
 10
154.7681079344179
 20
126.3625272164964
 30
0.0
 11
154.742908201031
 21
126.3525252779322
 31
0.0
  0
LINE
  5
53C
330
E3
100
AcDbEntity
  8
0
  6
Continuous
100
AcDbLine
 10
154.742908201031
 20
126.3525252779322
 30
0.0
 11
154.7148343084091
 21
126.3420217172374
 31
0.0
  0
LINE
  5
53D
330
E3
100
AcDbEntity
  8
0
  6
Continuous
100
AcDbLine
 10
154.7148343084091
 20
126.3420217172374
 30
0.0
 11
154.6841133422465
 21
126.3310470384605
 31
0.0
  0
LINE
  5
53E
330
E3
100
AcDbEntity
  8
0
  6
Continuous
100
AcDbLine
 10
154.6841133422465
 20
126.3310470384605
 30
0.0
 11
154.6509859455924
 21
126.3196520816821
 31
0.0
  0
LINE
  5
53F
330
E3
100
AcDbEntity
  8
0
  6
Continuous
100
AcDbLine
 10
154.6509859455924
 20
126.3196520816821
 30
0.0
 11
154.6157063188508
 21
126.3078741296284
 31
0.0
  0
LINE
  5
540
330
E3
100
AcDbEntity
  8
0
  6
Continuous
100
AcDbLine
 10
154.6157063188508
 20
126.3078741296284
 30
0.0
 11
154.5785523877967
 21
126.2957674117188
 31
0.0
  0
LINE
  5
541
330
E3
100
AcDbEntity
  8
0
  6
Continuous
100
AcDbLine
 10
154.5785523877967
 20
126.2957674117188
 30
0.0
 11
154.5398156355601
 21
126.2833827680341
 31
0.0
  0
LINE
  5
542
330
E3
100
AcDbEntity
  8
0
  6
Continuous
100
AcDbLine
 10
154.5398156355601
 20
126.2833827680341
 30
0.0
 11
154.4997977132872
 21
126.2707676493164
 31
0.0
  0
LINE
  5
543
330
E3
100
AcDbEntity
  8
0
  6
Continuous
100
AcDbLine
 10
154.4997977132872
 20
126.2707676493164
 30
0.0
 11
154.4588104401403
 21
126.2579864530014
 31
0.0
  0
LINE
  5
544
330
E3
100
AcDbEntity
  8
0
  6
Continuous
100
AcDbLine
 10
154.4588104401403
 20
126.2579864530014
 30
0.0
 11
154.4171690246203
 21
126.2450866298312
 31
0.0
  0
LINE
  5
545
330
E3
100
AcDbEntity
  8
0
  6
Continuous
100
AcDbLine
 10
154.4171690246203
 20
126.2450866298312
 30
0.0
 11
154.3752056219218
 21
126.2321325772415
 31
0.0
  0
LINE
  5
546
330
E3
100
AcDbEntity
  8
0
  6
Continuous
100
AcDbLine
 10
154.3752056219218
 20
126.2321325772415
 30
0.0
 11
154.3332388298846
 21
126.2191785246518
 31
0.0
  0
LINE
  5
547
330
E3
100
AcDbEntity
  8
0
  6
Continuous
100
AcDbLine
 10
154.3332388298846
 20
126.2191785246518
 30
0.0
 11
154.2916008037033
 21
126.2062787014816
 31
0.0
  0
LINE
  5
548
330
E3
100
AcDbEntity
  8
0
  6
Continuous
100
AcDbLine
 10
154.2916008037033
 20
126.2062787014816
 30
0.0
 11
154.2506101412176
 21
126.1934975051665
 31
0.0
  0
LINE
  5
549
330
E3
100
AcDbEntity
  8
0
  6
Continuous
100
AcDbLine
 10
154.2506101412176
 20
126.1934975051665
 30
0.0
 11
154.2105922189447
 21
126.1808857757876
 31
0.0
  0
LINE
  5
54A
330
E3
100
AcDbEntity
  8
0
  6
Continuous
100
AcDbLine
 10
154.2105922189447
 20
126.1808857757876
 30
0.0
 11
154.1718554667082
 21
126.1684977427642
 31
0.0
  0
LINE
  5
54B
330
E3
100
AcDbEntity
  8
0
  6
Continuous
100
AcDbLine
 10
154.1718554667082
 20
126.1684977427642
 30
0.0
 11
154.1347015356541
 21
126.1563910248545
 31
0.0
  0
LINE
  5
54C
330
E3
100
AcDbEntity
  8
0
  6
Continuous
100
AcDbLine
 10
154.1347015356541
 20
126.1563910248545
 30
0.0
 11
154.0994252982512
 21
126.1446130728008
 31
0.0
  0
LINE
  5
54D
330
E3
100
AcDbEntity
  8
0
  6
Continuous
100
AcDbLine
 10
154.0994252982512
 20
126.1446130728008
 30
0.0
 11
154.0662945122583
 21
126.1332181160225
 31
0.0
  0
LINE
  5
54E
330
E3
100
AcDbEntity
  8
0
  6
Continuous
100
AcDbLine
 10
154.0662945122583
 20
126.1332181160225
 30
0.0
 11
154.0355735460957
 21
126.1222434372456
 31
0.0
  0
LINE
  5
54F
330
E3
100
AcDbEntity
  8
0
  6
Continuous
100
AcDbLine
 10
154.0355735460957
 20
126.1222434372456
 30
0.0
 11
154.0075030428126
 21
126.1117398765507
 31
0.0
  0
LINE
  5
550
330
E3
100
AcDbEntity
  8
0
  6
Continuous
100
AcDbLine
 10
154.0075030428126
 20
126.1117398765507
 30
0.0
 11
153.9823033094257
 21
126.1017413273253
 31
0.0
  0
LINE
  5
551
330
E3
100
AcDbEntity
  8
0
  6
Continuous
100
AcDbLine
 10
153.9823033094257
 20
126.1017413273253
 30
0.0
 11
153.9601709275809
 21
126.0922816829564
 31
0.0
  0
LINE
  5
552
330
E3
100
AcDbEntity
  8
0
  6
Continuous
100
AcDbLine
 10
153.9601709275809
 20
126.0922816829564
 30
0.0
 11
153.9412855322302
 21
126.0833948368312
 31
0.0
  0
LINE
  5
553
330
E3
100
AcDbEntity
  8
0
  6
Continuous
100
AcDbLine
 10
153.9412855322302
 20
126.0833948368312
 30
0.0
 11
153.9257962542776
 21
126.0751079036596
 31
0.0
  0
LINE
  5
554
330
E3
100
AcDbEntity
  8
0
  6
Continuous
100
AcDbLine
 10
153.9257962542776
 20
126.0751079036596
 30
0.0
 11
153.9138318885942
 21
126.0674446088126
 31
0.0
  0
LINE
  5
555
330
E3
100
AcDbEntity
  8
0
  6
Continuous
100
AcDbLine
 10
153.9138318885942
 20
126.0674446088126
 30
0.0
 11
153.9054839473257
 21
126.0604151203063
 31
0.0
  0
LINE
  5
556
330
E3
100
AcDbEntity
  8
0
  6
Continuous
100
AcDbLine
 10
153.9054839473257
 20
126.0604151203063
 30
0.0
 11
153.9008260775304
 21
126.054038693077
 31
0.0
  0
LINE
  5
557
330
E3
100
AcDbEntity
  8
0
  6
Continuous
100
AcDbLine
 10
153.9008260775304
 20
126.054038693077
 30
0.0
 11
153.8999024273677
 21
126.0483200432982
 31
0.0
  0
LINE
  5
558
330
E3
100
AcDbEntity
  8
0
  6
Continuous
100
AcDbLine
 10
154.9189136093143
 20
126.0279909362809
 30
0.0
 11
154.9179899591516
 21
126.022272286502
 31
0.0
  0
LINE
  5
559
330
E3
100
AcDbEntity
  8
0
  6
Continuous
100
AcDbLine
 10
154.9179899591516
 20
126.022272286502
 30
0.0
 11
154.913333078501
 21
126.015895367463
 31
0.0
  0
LINE
  5
55A
330
E3
100
AcDbEntity
  8
0
  6
Continuous
100
AcDbLine
 10
154.913333078501
 20
126.015895367463
 30
0.0
 11
154.9049863786451
 21
126.0088666677062
 31
0.0
  0
LINE
  5
55B
330
E3
100
AcDbEntity
  8
0
  6
Continuous
100
AcDbLine
 10
154.9049863786451
 20
126.0088666677062
 30
0.0
 11
154.893018623623
 21
126.0012033728592
 31
0.0
  0
LINE
  5
55C
330
E3
100
AcDbEntity
  8
0
  6
Continuous
100
AcDbLine
 10
154.893018623623
 20
126.0012033728592
 30
0.0
 11
154.8775293456704
 21
125.9929164396876
 31
0.0
  0
LINE
  5
55D
330
E3
100
AcDbEntity
  8
0
  6
Continuous
100
AcDbLine
 10
154.8775293456704
 20
125.9929164396876
 30
0.0
 11
154.8586439503198
 21
125.9840295935624
 31
0.0
  0
LINE
  5
55E
330
E3
100
AcDbEntity
  8
0
  6
Continuous
100
AcDbLine
 10
154.8586439503198
 20
125.9840295935624
 30
0.0
 11
154.8365149578136
 21
125.9745699491935
 31
0.0
  0
LINE
  5
55F
330
E3
100
AcDbEntity
  8
0
  6
Continuous
100
AcDbLine
 10
154.8365149578136
 20
125.9745699491935
 30
0.0
 11
154.8113152244267
 21
125.9645713999681
 31
0.0
  0
LINE
  5
560
330
E3
100
AcDbEntity
  8
0
  6
Continuous
100
AcDbLine
 10
154.8113152244267
 20
125.9645713999681
 30
0.0
 11
154.7832413318049
 21
125.9540678392733
 31
0.0
  0
LINE
  5
561
330
E3
100
AcDbEntity
  8
0
  6
Continuous
100
AcDbLine
 10
154.7832413318049
 20
125.9540678392733
 30
0.0
 11
154.7525203656423
 21
125.9430931604963
 31
0.0
  0
LINE
  5
562
330
E3
100
AcDbEntity
  8
0
  6
Continuous
100
AcDbLine
 10
154.7525203656423
 20
125.9430931604963
 30
0.0
 11
154.7193929689882
 21
125.9316948143793
 31
0.0
  0
LINE
  5
563
330
E3
100
AcDbEntity
  8
0
  6
Continuous
100
AcDbLine
 10
154.7193929689882
 20
125.9316948143793
 30
0.0
 11
154.6841133422465
 21
125.9199202516643
 31
0.0
  0
LINE
  5
564
330
E3
100
AcDbEntity
  8
0
  6
Continuous
100
AcDbLine
 10
154.6841133422465
 20
125.9199202516643
 30
0.0
 11
154.6469594111925
 21
125.9078135337546
 31
0.0
  0
LINE
  5
565
330
E3
100
AcDbEntity
  8
0
  6
Continuous
100
AcDbLine
 10
154.6469594111925
 20
125.9078135337546
 30
0.0
 11
154.6082226589559
 21
125.8954255007312
 31
0.0
  0
LINE
  5
566
330
E3
100
AcDbEntity
  8
0
  6
Continuous
100
AcDbLine
 10
154.6082226589559
 20
125.8954255007312
 30
0.0
 11
154.568204736683
 21
125.8828137713523
 31
0.0
  0
LINE
  5
567
330
E3
100
AcDbEntity
  8
0
  6
Continuous
100
AcDbLine
 10
154.568204736683
 20
125.8828137713523
 30
0.0
 11
154.527217463536
 21
125.8700325750373
 31
0.0
  0
LINE
  5
568
330
E3
100
AcDbEntity
  8
0
  6
Continuous
100
AcDbLine
 10
154.527217463536
 20
125.8700325750373
 30
0.0
 11
154.485576048016
 21
125.8571327518671
 31
0.0
  0
LINE
  5
569
330
E3
100
AcDbEntity
  8
0
  6
Continuous
100
AcDbLine
 10
154.485576048016
 20
125.8571327518671
 30
0.0
 11
154.4436126453176
 21
125.8441786992773
 31
0.0
  0
LINE
  5
56A
330
E3
100
AcDbEntity
  8
0
  6
Continuous
100
AcDbLine
 10
154.4436126453176
 20
125.8441786992773
 30
0.0
 11
154.4016458532804
 21
125.8312212573489
 31
0.0
  0
LINE
  5
56B
330
E3
100
AcDbEntity
  8
0
  6
Continuous
100
AcDbLine
 10
154.4016458532804
 20
125.8312212573489
 30
0.0
 11
154.3600078270991
 21
125.8183248235174
 31
0.0
  0
LINE
  5
56C
330
E3
100
AcDbEntity
  8
0
  6
Continuous
100
AcDbLine
 10
154.3600078270991
 20
125.8183248235174
 30
0.0
 11
154.3190171646134
 21
125.8055402378637
 31
0.0
  0
LINE
  5
56D
330
E3
100
AcDbEntity
  8
0
  6
Continuous
100
AcDbLine
 10
154.3190171646134
 20
125.8055402378637
 30
0.0
 11
154.2789992423405
 21
125.7929285084847
 31
0.0
  0
LINE
  5
56E
330
E3
100
AcDbEntity
  8
0
  6
Continuous
100
AcDbLine
 10
154.2789992423405
 20
125.7929285084847
 30
0.0
 11
154.240262490104
 21
125.7805438648
 31
0.0
  0
LINE
  5
56F
330
E3
100
AcDbEntity
  8
0
  6
Continuous
100
AcDbLine
 10
154.240262490104
 20
125.7805438648
 30
0.0
 11
154.2031085590499
 21
125.7684371468904
 31
0.0
  0
LINE
  5
570
330
E3
100
AcDbEntity
  8
0
  6
Continuous
100
AcDbLine
 10
154.2031085590499
 20
125.7684371468904
 30
0.0
 11
154.1678323216469
 21
125.7566591948367
 31
0.0
  0
LINE
  5
571
330
E3
100
AcDbEntity
  8
0
  6
Continuous
100
AcDbLine
 10
154.1678323216469
 20
125.7566591948367
 30
0.0
 11
154.1347015356541
 21
125.7452642380584
 31
0.0
  0
LINE
  5
572
330
E3
100
AcDbEntity
  8
0
  6
Continuous
100
AcDbLine
 10
154.1347015356541
 20
125.7452642380584
 30
0.0
 11
154.1039805694915
 21
125.7342895592814
 31
0.0
  0
LINE
  5
573
330
E3
100
AcDbEntity
  8
0
  6
Continuous
100
AcDbLine
 10
154.1039805694915
 20
125.7342895592814
 30
0.0
 11
154.0759100662084
 21
125.7237859985866
 31
0.0
  0
LINE
  5
574
330
E3
100
AcDbEntity
  8
0
  6
Continuous
100
AcDbLine
 10
154.0759100662084
 20
125.7237859985866
 30
0.0
 11
154.0507103328215
 21
125.7137840600224
 31
0.0
  0
LINE
  5
575
330
E3
100
AcDbEntity
  8
0
  6
Continuous
100
AcDbLine
 10
154.0507103328215
 20
125.7137840600224
 30
0.0
 11
154.0285779509766
 21
125.7043278049922
 31
0.0
  0
LINE
  5
576
330
E3
100
AcDbEntity
  8
0
  6
Continuous
100
AcDbLine
 10
154.0285779509766
 20
125.7043278049922
 30
0.0
 11
154.0096925556261
 21
125.6954409588671
 31
0.0
  0
LINE
  5
577
330
E3
100
AcDbEntity
  8
0
  6
Continuous
100
AcDbLine
 10
154.0096925556261
 20
125.6954409588671
 30
0.0
 11
153.9942032776734
 21
125.6871540256955
 31
0.0
  0
LINE
  5
578
330
E3
100
AcDbEntity
  8
0
  6
Continuous
100
AcDbLine
 10
153.9942032776734
 20
125.6871540256955
 30
0.0
 11
153.98223891199
 21
125.6794873415097
 31
0.0
  0
LINE
  5
579
330
E3
100
AcDbEntity
  8
0
  6
Continuous
100
AcDbLine
 10
153.98223891199
 20
125.6794873415097
 30
0.0
 11
153.9738909707214
 21
125.6724612423421
 31
0.0
  0
LINE
  5
57A
330
E3
100
AcDbEntity
  8
0
  6
Continuous
100
AcDbLine
 10
153.9738909707214
 20
125.6724612423421
 30
0.0
 11
153.9692329353992
 21
125.6660841237085
 31
0.0
  0
LINE
  5
57B
330
E3
100
AcDbEntity
  8
0
  6
Continuous
100
AcDbLine
 10
153.9692329353992
 20
125.6660841237085
 30
0.0
 11
153.9683092852365
 21
125.6603654739297
 31
0.0
  0
LINE
  5
57C
330
E3
100
AcDbEntity
  8
0
  6
Continuous
100
AcDbLine
 10
154.9873204671831
 20
125.6400363669124
 30
0.0
 11
154.9863968170204
 21
125.6343177171336
 31
0.0
  0
LINE
  5
57D
330
E3
100
AcDbEntity
  8
0
  6
Continuous
100
AcDbLine
 10
154.9863968170204
 20
125.6343177171336
 30
0.0
 11
154.9817399363698
 21
125.6279407980946
 31
0.0
  0
LINE
  5
57E
330
E3
100
AcDbEntity
  8
0
  6
Continuous
100
AcDbLine
 10
154.9817399363698
 20
125.6279407980946
 30
0.0
 11
154.9733934020409
 21
125.6209127897421
 31
0.0
  0
LINE
  5
57F
330
E3
100
AcDbEntity
  8
0
  6
Continuous
100
AcDbLine
 10
154.9733934020409
 20
125.6209127897421
 30
0.0
 11
154.9614256470188
 21
125.6132461055563
 31
0.0
  0
LINE
  5
580
330
E3
100
AcDbEntity
  8
0
  6
Continuous
100
AcDbLine
 10
154.9614256470188
 20
125.6132461055563
 30
0.0
 11
154.9459363690661
 21
125.6049591723847
 31
0.0
  0
LINE
  5
581
330
E3
100
AcDbEntity
  8
0
  6
Continuous
100
AcDbLine
 10
154.9459363690661
 20
125.6049591723847
 30
0.0
 11
154.9270509737155
 21
125.5960757155983
 31
0.0
  0
LINE
  5
582
330
E3
100
AcDbEntity
  8
0
  6
Continuous
100
AcDbLine
 10
154.9270509737155
 20
125.5960757155983
 30
0.0
 11
154.9049219812094
 21
125.5866160712294
 31
0.0
  0
LINE
  5
583
330
E3
100
AcDbEntity
  8
0
  6
Continuous
100
AcDbLine
 10
154.9049219812094
 20
125.5866160712294
 30
0.0
 11
154.8797222478225
 21
125.5766175220039
 31
0.0
  0
LINE
  5
584
330
E3
100
AcDbEntity
  8
0
  6
Continuous
100
AcDbLine
 10
154.8797222478225
 20
125.5766175220039
 30
0.0
 11
154.8516483552007
 21
125.5661105719704
 31
0.0
  0
LINE
  5
585
330
E3
100
AcDbEntity
  8
0
  6
Continuous
100
AcDbLine
 10
154.8516483552007
 20
125.5661105719704
 30
0.0
 11
154.8209273890381
 21
125.5551392825322
 31
0.0
  0
LINE
  5
586
330
E3
100
AcDbEntity
  8
0
  6
Continuous
100
AcDbLine
 10
154.8209273890381
 20
125.5551392825322
 30
0.0
 11
154.787799992384
 21
125.5437409364151
 31
0.0
  0
LINE
  5
587
330
E3
100
AcDbEntity
  8
0
  6
Continuous
100
AcDbLine
 10
154.787799992384
 20
125.5437409364151
 30
0.0
 11
154.7525203656423
 21
125.5319663737001
 31
0.0
  0
LINE
  5
588
330
E3
100
AcDbEntity
  8
0
  6
Continuous
100
AcDbLine
 10
154.7525203656423
 20
125.5319663737001
 30
0.0
 11
154.7153664345882
 21
125.5198596557905
 31
0.0
  0
LINE
  5
589
330
E3
100
AcDbEntity
  8
0
  6
Continuous
100
AcDbLine
 10
154.7153664345882
 20
125.5198596557905
 30
0.0
 11
154.6766296823517
 21
125.5074716227671
 31
0.0
  0
LINE
  5
58A
330
E3
100
AcDbEntity
  8
0
  6
Continuous
100
AcDbLine
 10
154.6766296823517
 20
125.5074716227671
 30
0.0
 11
154.6366117600788
 21
125.4948598933881
 31
0.0
  0
LINE
  5
58B
330
E3
100
AcDbEntity
  8
0
  6
Continuous
100
AcDbLine
 10
154.6366117600788
 20
125.4948598933881
 30
0.0
 11
154.5956244869318
 21
125.4820753077344
 31
0.0
  0
LINE
  5
58C
330
E3
100
AcDbEntity
  8
0
  6
Continuous
100
AcDbLine
 10
154.5956244869318
 20
125.4820753077344
 30
0.0
 11
154.5539830714118
 21
125.4691788739029
 31
0.0
  0
LINE
  5
58D
330
E3
100
AcDbEntity
  8
0
  6
Continuous
100
AcDbLine
 10
154.5539830714118
 20
125.4691788739029
 30
0.0
 11
154.5120196687133
 21
125.4562248213132
 31
0.0
  0
LINE
  5
58E
330
E3
100
AcDbEntity
  8
0
  6
Continuous
100
AcDbLine
 10
154.5120196687133
 20
125.4562248213132
 30
0.0
 11
154.4700528766761
 21
125.4432673793847
 31
0.0
  0
LINE
  5
58F
330
E3
100
AcDbEntity
  8
0
  6
Continuous
100
AcDbLine
 10
154.4700528766761
 20
125.4432673793847
 30
0.0
 11
154.4284148504948
 21
125.4303709455532
 31
0.0
  0
LINE
  5
590
330
E3
100
AcDbEntity
  8
0
  6
Continuous
100
AcDbLine
 10
154.4284148504948
 20
125.4303709455532
 30
0.0
 11
154.3874241880092
 21
125.4175863598995
 31
0.0
  0
LINE
  5
591
330
E3
100
AcDbEntity
  8
0
  6
Continuous
100
AcDbLine
 10
154.3874241880092
 20
125.4175863598995
 30
0.0
 11
154.3474062657363
 21
125.4049746305206
 31
0.0
  0
LINE
  5
592
330
E3
100
AcDbEntity
  8
0
  6
Continuous
100
AcDbLine
 10
154.3474062657363
 20
125.4049746305206
 30
0.0
 11
154.3086695134998
 21
125.3925899868359
 31
0.0
  0
LINE
  5
593
330
E3
100
AcDbEntity
  8
0
  6
Continuous
100
AcDbLine
 10
154.3086695134998
 20
125.3925899868359
 30
0.0
 11
154.2715155824457
 21
125.3804832689263
 31
0.0
  0
LINE
  5
594
330
E3
100
AcDbEntity
  8
0
  6
Continuous
100
AcDbLine
 10
154.2715155824457
 20
125.3804832689263
 30
0.0
 11
154.2362393450427
 21
125.3687053168725
 31
0.0
  0
LINE
  5
595
330
E3
100
AcDbEntity
  8
0
  6
Continuous
100
AcDbLine
 10
154.2362393450427
 20
125.3687053168725
 30
0.0
 11
154.2031085590499
 21
125.3573069707555
 31
0.0
  0
LINE
  5
596
330
E3
100
AcDbEntity
  8
0
  6
Continuous
100
AcDbLine
 10
154.2031085590499
 20
125.3573069707555
 30
0.0
 11
154.1723875928873
 21
125.3463356813173
 31
0.0
  0
LINE
  5
597
330
E3
100
AcDbEntity
  8
0
  6
Continuous
100
AcDbLine
 10
154.1723875928873
 20
125.3463356813173
 30
0.0
 11
154.1443170896042
 21
125.3358287312837
 31
0.0
  0
LINE
  5
598
330
E3
100
AcDbEntity
  8
0
  6
Continuous
100
AcDbLine
 10
154.1443170896042
 20
125.3358287312837
 30
0.0
 11
154.1191173562173
 21
125.3258301820583
 31
0.0
  0
LINE
  5
599
330
E3
100
AcDbEntity
  8
0
  6
Continuous
100
AcDbLine
 10
154.1191173562173
 20
125.3258301820583
 30
0.0
 11
154.0969849743724
 21
125.3163739270281
 31
0.0
  0
LINE
  5
59A
330
E3
100
AcDbEntity
  8
0
  6
Continuous
100
AcDbLine
 10
154.0969849743724
 20
125.3163739270281
 30
0.0
 11
154.0780995790218
 21
125.3074870809029
 31
0.0
  0
LINE
  5
59B
330
E3
100
AcDbEntity
  8
0
  6
Continuous
100
AcDbLine
 10
154.0780995790218
 20
125.3074870809029
 30
0.0
 11
154.0626103010692
 21
125.2992001477313
 31
0.0
  0
LINE
  5
59C
330
E3
100
AcDbEntity
  8
0
  6
Continuous
100
AcDbLine
 10
154.0626103010692
 20
125.2992001477313
 30
0.0
 11
154.050642546047
 21
125.2915334635455
 31
0.0
  0
LINE
  5
59D
330
E3
100
AcDbEntity
  8
0
  6
Continuous
100
AcDbLine
 10
154.050642546047
 20
125.2915334635455
 30
0.0
 11
154.0422979941172
 21
125.284507364378
 31
0.0
  0
LINE
  5
59E
330
E3
100
AcDbEntity
  8
0
  6
Continuous
100
AcDbLine
 10
154.0422979941172
 20
125.284507364378
 30
0.0
 11
154.037639793268
 21
125.2781295543401
 31
0.0
  0
LINE
  5
59F
330
E3
100
AcDbEntity
  8
0
  6
Continuous
100
AcDbLine
 10
154.037639793268
 20
125.2781295543401
 30
0.0
 11
154.0367161431053
 21
125.2724109045613
 31
0.0
  0
LINE
  5
5A0
330
E3
100
AcDbEntity
  8
0
  6
Continuous
100
AcDbLine
 10
155.0557273250519
 20
125.252081797544
 30
0.0
 11
155.0548036748892
 21
125.2463631477652
 31
0.0
  0
LINE
  5
5A1
330
E3
100
AcDbEntity
  8
0
  6
Continuous
100
AcDbLine
 10
155.0548036748892
 20
125.2463631477652
 30
0.0
 11
155.0501467942386
 21
125.2399862287261
 31
0.0
  0
LINE
  5
5A2
330
E3
100
AcDbEntity
  8
0
  6
Continuous
100
AcDbLine
 10
155.0501467942386
 20
125.2399862287261
 30
0.0
 11
155.0418004254366
 21
125.2329589117779
 31
0.0
  0
LINE
  5
5A3
330
E3
100
AcDbEntity
  8
0
  6
Continuous
100
AcDbLine
 10
155.0418004254366
 20
125.2329589117779
 30
0.0
 11
155.0298326704145
 21
125.2252922275922
 31
0.0
  0
LINE
  5
5A4
330
E3
100
AcDbEntity
  8
0
  6
Continuous
100
AcDbLine
 10
155.0298326704145
 20
125.2252922275922
 30
0.0
 11
155.0143433924619
 21
125.2170052944206
 31
0.0
  0
LINE
  5
5A5
330
E3
100
AcDbEntity
  8
0
  6
Continuous
100
AcDbLine
 10
155.0143433924619
 20
125.2170052944206
 30
0.0
 11
154.9954579971113
 21
125.2081184482954
 31
0.0
  0
LINE
  5
5A6
330
E3
100
AcDbEntity
  8
0
  6
Continuous
100
AcDbLine
 10
154.9954579971113
 20
125.2081184482954
 30
0.0
 11
154.9733290046052
 21
125.1986621932652
 31
0.0
  0
LINE
  5
5A7
330
E3
100
AcDbEntity
  8
0
  6
Continuous
100
AcDbLine
 10
154.9733290046052
 20
125.1986621932652
 30
0.0
 11
154.9481258818796
 21
125.1886636440398
 31
0.0
  0
LINE
  5
5A8
330
E3
100
AcDbEntity
  8
0
  6
Continuous
100
AcDbLine
 10
154.9481258818796
 20
125.1886636440398
 30
0.0
 11
154.9200553785964
 21
125.1781566940062
 31
0.0
  0
LINE
  5
5A9
330
E3
100
AcDbEntity
  8
0
  6
Continuous
100
AcDbLine
 10
154.9200553785964
 20
125.1781566940062
 30
0.0
 11
154.8893344124339
 21
125.167185404568
 31
0.0
  0
LINE
  5
5AA
330
E3
100
AcDbEntity
  8
0
  6
Continuous
100
AcDbLine
 10
154.8893344124339
 20
125.167185404568
 30
0.0
 11
154.8562070157797
 21
125.155787058451
 31
0.0
  0
LINE
  5
5AB
330
E3
100
AcDbEntity
  8
0
  6
Continuous
100
AcDbLine
 10
154.8562070157797
 20
125.155787058451
 30
0.0
 11
154.8209273890381
 21
125.1440091063972
 31
0.0
  0
LINE
  5
5AC
330
E3
100
AcDbEntity
  8
0
  6
Continuous
100
AcDbLine
 10
154.8209273890381
 20
125.1440091063972
 30
0.0
 11
154.783773457984
 21
125.1319023884876
 31
0.0
  0
LINE
  5
5AD
330
E3
100
AcDbEntity
  8
0
  6
Continuous
100
AcDbLine
 10
154.783773457984
 20
125.1319023884876
 30
0.0
 11
154.7450367057475
 21
125.1195177448029
 31
0.0
  0
LINE
  5
5AE
330
E3
100
AcDbEntity
  8
0
  6
Continuous
100
AcDbLine
 10
154.7450367057475
 20
125.1195177448029
 30
0.0
 11
154.7050187834745
 21
125.106906015424
 31
0.0
  0
LINE
  5
5AF
330
E3
100
AcDbEntity
  8
0
  6
Continuous
100
AcDbLine
 10
154.7050187834745
 20
125.106906015424
 30
0.0
 11
154.6640315103276
 21
125.0941214297703
 31
0.0
  0
LINE
  5
5B0
330
E3
100
AcDbEntity
  8
0
  6
Continuous
100
AcDbLine
 10
154.6640315103276
 20
125.0941214297703
 30
0.0
 11
154.6223900948076
 21
125.0812249959388
 31
0.0
  0
LINE
  5
5B1
330
E3
100
AcDbEntity
  8
0
  6
Continuous
100
AcDbLine
 10
154.6223900948076
 20
125.0812249959388
 30
0.0
 11
154.5804266921091
 21
125.0682675540103
 31
0.0
  0
LINE
  5
5B2
330
E3
100
AcDbEntity
  8
0
  6
Continuous
100
AcDbLine
 10
154.5804266921091
 20
125.0682675540103
 30
0.0
 11
154.5384599000719
 21
125.0553135014206
 31
0.0
  0
LINE
  5
5B3
330
E3
100
AcDbEntity
  8
0
  6
Continuous
100
AcDbLine
 10
154.5384599000719
 20
125.0553135014206
 30
0.0
 11
154.4968218738906
 21
125.0424170675891
 31
0.0
  0
LINE
  5
5B4
330
E3
100
AcDbEntity
  8
0
  6
Continuous
100
AcDbLine
 10
154.4968218738906
 20
125.0424170675891
 30
0.0
 11
154.4558312114049
 21
125.0296324819354
 31
0.0
  0
LINE
  5
5B5
330
E3
100
AcDbEntity
  8
0
  6
Continuous
100
AcDbLine
 10
154.4558312114049
 20
125.0296324819354
 30
0.0
 11
154.415813289132
 21
125.0170207525564
 31
0.0
  0
LINE
  5
5B6
330
E3
100
AcDbEntity
  8
0
  6
Continuous
100
AcDbLine
 10
154.415813289132
 20
125.0170207525564
 30
0.0
 11
154.3770765368955
 21
125.004632719533
 31
0.0
  0
LINE
  5
5B7
330
E3
100
AcDbEntity
  8
0
  6
Continuous
100
AcDbLine
 10
154.3770765368955
 20
125.004632719533
 30
0.0
 11
154.3399226058415
 21
124.9925260016234
 31
0.0
  0
LINE
  5
5B8
330
E3
100
AcDbEntity
  8
0
  6
Continuous
100
AcDbLine
 10
154.3399226058415
 20
124.9925260016234
 30
0.0
 11
154.3046429790998
 21
124.9807514389084
 31
0.0
  0
LINE
  5
5B9
330
E3
100
AcDbEntity
  8
0
  6
Continuous
100
AcDbLine
 10
154.3046429790998
 20
124.9807514389084
 30
0.0
 11
154.2715155824457
 21
124.9693530927913
 31
0.0
  0
LINE
  5
5BA
330
E3
100
AcDbEntity
  8
0
  6
Continuous
100
AcDbLine
 10
154.2715155824457
 20
124.9693530927913
 30
0.0
 11
154.2407946162831
 21
124.9583818033531
 31
0.0
  0
LINE
  5
5BB
330
E3
100
AcDbEntity
  8
0
  6
Continuous
100
AcDbLine
 10
154.2407946162831
 20
124.9583818033531
 30
0.0
 11
154.2127241129999
 21
124.9478748533196
 31
0.0
  0
LINE
  5
5BC
330
E3
100
AcDbEntity
  8
0
  6
Continuous
100
AcDbLine
 10
154.2127241129999
 20
124.9478748533196
 30
0.0
 11
154.1875209902743
 21
124.9378763040941
 31
0.0
  0
LINE
  5
5BD
330
E3
100
AcDbEntity
  8
0
  6
Continuous
100
AcDbLine
 10
154.1875209902743
 20
124.9378763040941
 30
0.0
 11
154.1653919977682
 21
124.9284166597252
 31
0.0
  0
LINE
  5
5BE
330
E3
100
AcDbEntity
  8
0
  6
Continuous
100
AcDbLine
 10
154.1653919977682
 20
124.9284166597252
 30
0.0
 11
154.1465066024176
 21
124.9195332029388
 31
0.0
  0
LINE
  5
5BF
330
E3
100
AcDbEntity
  8
0
  6
Continuous
100
AcDbLine
 10
154.1465066024176
 20
124.9195332029388
 30
0.0
 11
154.1310173244649
 21
124.9112462697672
 31
0.0
  0
LINE
  5
5C0
330
E3
100
AcDbEntity
  8
0
  6
Continuous
100
AcDbLine
 10
154.1310173244649
 20
124.9112462697672
 30
0.0
 11
154.1190495694429
 21
124.9035795855814
 31
0.0
  0
LINE
  5
5C1
330
E3
100
AcDbEntity
  8
0
  6
Continuous
100
AcDbLine
 10
154.1190495694429
 20
124.9035795855814
 30
0.0
 11
154.110705017513
 21
124.8965534864138
 31
0.0
  0
LINE
  5
5C2
330
E3
100
AcDbEntity
  8
0
  6
Continuous
100
AcDbLine
 10
154.110705017513
 20
124.8965534864138
 30
0.0
 11
154.1060466511368
 21
124.8901749849716
 31
0.0
  0
LINE
  5
5C3
330
E3
100
AcDbEntity
  8
0
  6
Continuous
100
AcDbLine
 10
154.1060466511368
 20
124.8901749849716
 30
0.0
 11
154.1051230009741
 21
124.8844563351928
 31
0.0
  0
LINE
  5
5C4
330
E3
100
AcDbEntity
  8
0
  6
Continuous
100
AcDbLine
 10
155.1241341829207
 20
124.8641272281755
 30
0.0
 11
155.123210532758
 21
124.8584085783967
 31
0.0
  0
LINE
  5
5C5
330
E3
100
AcDbEntity
  8
0
  6
Continuous
100
AcDbLine
 10
155.123210532758
 20
124.8584085783967
 30
0.0
 11
155.1185536521074
 21
124.8520316593577
 31
0.0
  0
LINE
  5
5C6
330
E3
100
AcDbEntity
  8
0
  6
Continuous
100
AcDbLine
 10
155.1185536521074
 20
124.8520316593577
 30
0.0
 11
155.1102074488324
 21
124.8450050338138
 31
0.0
  0
LINE
  5
5C7
330
E3
100
AcDbEntity
  8
0
  6
Continuous
100
AcDbLine
 10
155.1102074488324
 20
124.8450050338138
 30
0.0
 11
155.0982396938104
 21
124.837338349628
 31
0.0
  0
LINE
  5
5C8
330
E3
100
AcDbEntity
  8
0
  6
Continuous
100
AcDbLine
 10
155.0982396938104
 20
124.837338349628
 30
0.0
 11
155.0827504158577
 21
124.8290514164564
 31
0.0
  0
LINE
  5
5C9
330
E3
100
AcDbEntity
  8
0
  6
Continuous
100
AcDbLine
 10
155.0827504158577
 20
124.8290514164564
 30
0.0
 11
155.0638650205071
 21
124.8201645703313
 31
0.0
  0
LINE
  5
5CA
330
E3
100
AcDbEntity
  8
0
  6
Continuous
100
AcDbLine
 10
155.0638650205071
 20
124.8201645703313
 30
0.0
 11
155.041736028001
 21
124.8107083153011
 31
0.0
  0
LINE
  5
5CB
330
E3
100
AcDbEntity
  8
0
  6
Continuous
100
AcDbLine
 10
155.041736028001
 20
124.8107083153011
 30
0.0
 11
155.0165329052753
 21
124.8007097660756
 31
0.0
  0
LINE
  5
5CC
330
E3
100
AcDbEntity
  8
0
  6
Continuous
100
AcDbLine
 10
155.0165329052753
 20
124.8007097660756
 30
0.0
 11
154.9884624019922
 21
124.7902028160421
 31
0.0
  0
LINE
  5
5CD
330
E3
100
AcDbEntity
  8
0
  6
Continuous
100
AcDbLine
 10
154.9884624019922
 20
124.7902028160421
 30
0.0
 11
154.9577414358296
 21
124.7792315266038
 31
0.0
  0
LINE
  5
5CE
330
E3
100
AcDbEntity
  8
0
  6
Continuous
100
AcDbLine
 10
154.9577414358296
 20
124.7792315266038
 30
0.0
 11
154.9246140391755
 21
124.7678331804868
 31
0.0
  0
LINE
  5
5CF
330
E3
100
AcDbEntity
  8
0
  6
Continuous
100
AcDbLine
 10
154.9246140391755
 20
124.7678331804868
 30
0.0
 11
154.8893344124339
 21
124.7560552284331
 31
0.0
  0
LINE
  5
5D0
330
E3
100
AcDbEntity
  8
0
  6
Continuous
100
AcDbLine
 10
154.8893344124339
 20
124.7560552284331
 30
0.0
 11
154.8521804813798
 21
124.7439485105235
 31
0.0
  0
LINE
  5
5D1
330
E3
100
AcDbEntity
  8
0
  6
Continuous
100
AcDbLine
 10
154.8521804813798
 20
124.7439485105235
 30
0.0
 11
154.8134437291432
 21
124.7315638668388
 31
0.0
  0
LINE
  5
5D2
330
E3
100
AcDbEntity
  8
0
  6
Continuous
100
AcDbLine
 10
154.8134437291432
 20
124.7315638668388
 30
0.0
 11
154.7734258068703
 21
124.7189521374598
 31
0.0
  0
LINE
  5
5D3
330
E3
100
AcDbEntity
  8
0
  6
Continuous
100
AcDbLine
 10
154.7734258068703
 20
124.7189521374598
 30
0.0
 11
154.7324385337234
 21
124.7061675518061
 31
0.0
  0
LINE
  5
5D4
330
E3
100
AcDbEntity
  8
0
  6
Continuous
100
AcDbLine
 10
154.7324385337234
 20
124.7061675518061
 30
0.0
 11
154.6907971182033
 21
124.6932711179746
 31
0.0
  0
LINE
  5
5D5
330
E3
100
AcDbEntity
  8
0
  6
Continuous
100
AcDbLine
 10
154.6907971182033
 20
124.6932711179746
 30
0.0
 11
154.6488337155049
 21
124.6803136760462
 31
0.0
  0
LINE
  5
5D6
330
E3
100
AcDbEntity
  8
0
  6
Continuous
100
AcDbLine
 10
154.6488337155049
 20
124.6803136760462
 30
0.0
 11
154.6068669234677
 21
124.6673596234564
 31
0.0
  0
LINE
  5
5D7
330
E3
100
AcDbEntity
  8
0
  6
Continuous
100
AcDbLine
 10
154.6068669234677
 20
124.6673596234564
 30
0.0
 11
154.5652255079477
 21
124.6544598002862
 31
0.0
  0
LINE
  5
5D8
330
E3
100
AcDbEntity
  8
0
  6
Continuous
100
AcDbLine
 10
154.5652255079477
 20
124.6544598002862
 30
0.0
 11
154.5242382348007
 21
124.6416786039712
 31
0.0
  0
LINE
  5
5D9
330
E3
100
AcDbEntity
  8
0
  6
Continuous
100
AcDbLine
 10
154.5242382348007
 20
124.6416786039712
 30
0.0
 11
154.4842203125278
 21
124.6290668745922
 31
0.0
  0
LINE
  5
5DA
330
E3
100
AcDbEntity
  8
0
  6
Continuous
100
AcDbLine
 10
154.4842203125278
 20
124.6290668745922
 30
0.0
 11
154.4454835602913
 21
124.6166788415688
 31
0.0
  0
LINE
  5
5DB
330
E3
100
AcDbEntity
  8
0
  6
Continuous
100
AcDbLine
 10
154.4454835602913
 20
124.6166788415688
 30
0.0
 11
154.4083296292372
 21
124.6045721236592
 31
0.0
  0
LINE
  5
5DC
330
E3
100
AcDbEntity
  8
0
  6
Continuous
100
AcDbLine
 10
154.4083296292372
 20
124.6045721236592
 30
0.0
 11
154.3730500024956
 21
124.5927975609442
 31
0.0
  0
LINE
  5
5DD
330
E3
100
AcDbEntity
  8
0
  6
Continuous
100
AcDbLine
 10
154.3730500024956
 20
124.5927975609442
 30
0.0
 11
154.3399226058415
 21
124.5813992148272
 31
0.0
  0
LINE
  5
5DE
330
E3
100
AcDbEntity
  8
0
  6
Continuous
100
AcDbLine
 10
154.3399226058415
 20
124.5813992148272
 30
0.0
 11
154.3092016396789
 21
124.5704279253889
 31
0.0
  0
LINE
  5
5DF
330
E3
100
AcDbEntity
  8
0
  6
Continuous
100
AcDbLine
 10
154.3092016396789
 20
124.5704279253889
 30
0.0
 11
154.2811311363957
 21
124.5599209753554
 31
0.0
  0
LINE
  5
5E0
330
E3
100
AcDbEntity
  8
0
  6
Continuous
100
AcDbLine
 10
154.2811311363957
 20
124.5599209753554
 30
0.0
 11
154.2559280136701
 21
124.5499224261299
 31
0.0
  0
LINE
  5
5E1
330
E3
100
AcDbEntity
  8
0
  6
Continuous
100
AcDbLine
 10
154.2559280136701
 20
124.5499224261299
 30
0.0
 11
154.233799021164
 21
124.540462781761
 31
0.0
  0
LINE
  5
5E2
330
E3
100
AcDbEntity
  8
0
  6
Continuous
100
AcDbLine
 10
154.233799021164
 20
124.540462781761
 30
0.0
 11
154.2149136258134
 21
124.5315793249746
 31
0.0
  0
LINE
  5
5E3
330
E3
100
AcDbEntity
  8
0
  6
Continuous
100
AcDbLine
 10
154.2149136258134
 20
124.5315793249746
 30
0.0
 11
154.1994243478607
 21
124.523292391803
 31
0.0
  0
LINE
  5
5E4
330
E3
100
AcDbEntity
  8
0
  6
Continuous
100
AcDbLine
 10
154.1994243478607
 20
124.523292391803
 30
0.0
 11
154.1874565928386
 21
124.5156257076172
 31
0.0
  0
LINE
  5
5E5
330
E3
100
AcDbEntity
  8
0
  6
Continuous
100
AcDbLine
 10
154.1874565928386
 20
124.5156257076172
 30
0.0
 11
154.1791120409088
 21
124.5085962191109
 31
0.0
  0
LINE
  5
5E6
330
E3
100
AcDbEntity
  8
0
  6
Continuous
100
AcDbLine
 10
154.1791120409088
 20
124.5085962191109
 30
0.0
 11
154.1744535090056
 21
124.5022204156032
 31
0.0
  0
LINE
  5
5E7
330
E3
100
AcDbEntity
  8
0
  6
Continuous
100
AcDbLine
 10
154.1744535090056
 20
124.5022204156032
 30
0.0
 11
154.1735298588429
 21
124.4965017658244
 31
0.0
  0
LINE
  5
5E8
330
E3
100
AcDbEntity
  8
0
  6
Continuous
100
AcDbLine
 10
155.1925410407895
 20
124.4761726588071
 30
0.0
 11
155.1916173906268
 21
124.4704540090283
 31
0.0
  0
LINE
  5
5E9
330
E3
100
AcDbEntity
  8
0
  6
Continuous
100
AcDbLine
 10
155.1916173906268
 20
124.4704540090283
 30
0.0
 11
155.1869605099762
 21
124.4640770899892
 31
0.0
  0
LINE
  5
5EA
330
E3
100
AcDbEntity
  8
0
  6
Continuous
100
AcDbLine
 10
155.1869605099762
 20
124.4640770899892
 30
0.0
 11
155.1786144722282
 21
124.4570477665109
 31
0.0
  0
LINE
  5
5EB
330
E3
100
AcDbEntity
  8
0
  6
Continuous
100
AcDbLine
 10
155.1786144722282
 20
124.4570477665109
 30
0.0
 11
155.1666467172061
 21
124.4493844716639
 31
0.0
  0
LINE
  5
5EC
330
E3
100
AcDbEntity
  8
0
  6
Continuous
100
AcDbLine
 10
155.1666467172061
 20
124.4493844716639
 30
0.0
 11
155.1511574392534
 21
124.4410975384923
 31
0.0
  0
LINE
  5
5ED
330
E3
100
AcDbEntity
  8
0
  6
Continuous
100
AcDbLine
 10
155.1511574392534
 20
124.4410975384923
 30
0.0
 11
155.1322720439028
 21
124.4322106923671
 31
0.0
  0
LINE
  5
5EE
330
E3
100
AcDbEntity
  8
0
  6
Continuous
100
AcDbLine
 10
155.1322720439028
 20
124.4322106923671
 30
0.0
 11
155.1101430513967
 21
124.4227544373369
 31
0.0
  0
LINE
  5
5EF
330
E3
100
AcDbEntity
  8
0
  6
Continuous
100
AcDbLine
 10
155.1101430513967
 20
124.4227544373369
 30
0.0
 11
155.0849399286711
 21
124.4127524987727
 31
0.0
  0
LINE
  5
5F0
330
E3
100
AcDbEntity
  8
0
  6
Continuous
100
AcDbLine
 10
155.0849399286711
 20
124.4127524987727
 30
0.0
 11
155.056869425388
 21
124.4022489380779
 31
0.0
  0
LINE
  5
5F1
330
E3
100
AcDbEntity
  8
0
  6
Continuous
100
AcDbLine
 10
155.056869425388
 20
124.4022489380779
 30
0.0
 11
155.0261484592254
 21
124.391274259301
 31
0.0
  0
LINE
  5
5F2
330
E3
100
AcDbEntity
  8
0
  6
Continuous
100
AcDbLine
 10
155.0261484592254
 20
124.391274259301
 30
0.0
 11
154.9930210625713
 21
124.3798793025226
 31
0.0
  0
LINE
  5
5F3
330
E3
100
AcDbEntity
  8
0
  6
Continuous
100
AcDbLine
 10
154.9930210625713
 20
124.3798793025226
 30
0.0
 11
154.9577414358296
 21
124.3681013504689
 31
0.0
  0
LINE
  5
5F4
330
E3
100
AcDbEntity
  8
0
  6
Continuous
100
AcDbLine
 10
154.9577414358296
 20
124.3681013504689
 30
0.0
 11
154.9205875047755
 21
124.3559946325593
 31
0.0
  0
LINE
  5
5F5
330
E3
100
AcDbEntity
  8
0
  6
Continuous
100
AcDbLine
 10
154.9205875047755
 20
124.3559946325593
 30
0.0
 11
154.881850752539
 21
124.3436099888746
 31
0.0
  0
LINE
  5
5F6
330
E3
100
AcDbEntity
  8
0
  6
Continuous
100
AcDbLine
 10
154.881850752539
 20
124.3436099888746
 30
0.0
 11
154.8418328302661
 21
124.3309948701569
 31
0.0
  0
LINE
  5
5F7
330
E3
100
AcDbEntity
  8
0
  6
Continuous
100
AcDbLine
 10
154.8418328302661
 20
124.3309948701569
 30
0.0
 11
154.8008421677804
 21
124.3182136738419
 31
0.0
  0
LINE
  5
5F8
330
E3
100
AcDbEntity
  8
0
  6
Continuous
100
AcDbLine
 10
154.8008421677804
 20
124.3182136738419
 30
0.0
 11
154.7592041415991
 21
124.3053138506717
 31
0.0
  0
LINE
  5
5F9
330
E3
100
AcDbEntity
  8
0
  6
Continuous
100
AcDbLine
 10
154.7592041415991
 20
124.3053138506717
 30
0.0
 11
154.7172373495619
 21
124.292359798082
 31
0.0
  0
LINE
  5
5FA
330
E3
100
AcDbEntity
  8
0
  6
Continuous
100
AcDbLine
 10
154.7172373495619
 20
124.292359798082
 30
0.0
 11
154.6752739468635
 21
124.2794057454923
 31
0.0
  0
LINE
  5
5FB
330
E3
100
AcDbEntity
  8
0
  6
Continuous
100
AcDbLine
 10
154.6752739468635
 20
124.2794057454923
 30
0.0
 11
154.6336325313434
 21
124.2665059223221
 31
0.0
  0
LINE
  5
5FC
330
E3
100
AcDbEntity
  8
0
  6
Continuous
100
AcDbLine
 10
154.6336325313434
 20
124.2665059223221
 30
0.0
 11
154.5926452581965
 21
124.2537247260071
 31
0.0
  0
LINE
  5
5FD
330
E3
100
AcDbEntity
  8
0
  6
Continuous
100
AcDbLine
 10
154.5926452581965
 20
124.2537247260071
 30
0.0
 11
154.5526273359236
 21
124.2411129966281
 31
0.0
  0
LINE
  5
5FE
330
E3
100
AcDbEntity
  8
0
  6
Continuous
100
AcDbLine
 10
154.5526273359236
 20
124.2411129966281
 30
0.0
 11
154.5138905836871
 21
124.2287249636047
 31
0.0
  0
LINE
  5
5FF
330
E3
100
AcDbEntity
  8
0
  6
Continuous
100
AcDbLine
 10
154.5138905836871
 20
124.2287249636047
 30
0.0
 11
154.476736652633
 21
124.2166182456951
 31
0.0
  0
LINE
  5
600
330
E3
100
AcDbEntity
  8
0
  6
Continuous
100
AcDbLine
 10
154.476736652633
 20
124.2166182456951
 30
0.0
 11
154.4414570258913
 21
124.2048402936413
 31
0.0
  0
LINE
  5
601
330
E3
100
AcDbEntity
  8
0
  6
Continuous
100
AcDbLine
 10
154.4414570258913
 20
124.2048402936413
 30
0.0
 11
154.4083296292372
 21
124.193445336863
 31
0.0
  0
LINE
  5
602
330
E3
100
AcDbEntity
  8
0
  6
Continuous
100
AcDbLine
 10
154.4083296292372
 20
124.193445336863
 30
0.0
 11
154.3776086630746
 21
124.1824706580861
 31
0.0
  0
LINE
  5
603
330
E3
100
AcDbEntity
  8
0
  6
Continuous
100
AcDbLine
 10
154.3776086630746
 20
124.1824706580861
 30
0.0
 11
154.3495381597915
 21
124.1719670973912
 31
0.0
  0
LINE
  5
604
330
E3
100
AcDbEntity
  8
0
  6
Continuous
100
AcDbLine
 10
154.3495381597915
 20
124.1719670973912
 30
0.0
 11
154.3243350370659
 21
124.1619685481658
 31
0.0
  0
LINE
  5
605
330
E3
100
AcDbEntity
  8
0
  6
Continuous
100
AcDbLine
 10
154.3243350370659
 20
124.1619685481658
 30
0.0
 11
154.3022060445597
 21
124.1525089037969
 31
0.0
  0
LINE
  5
606
330
E3
100
AcDbEntity
  8
0
  6
Continuous
100
AcDbLine
 10
154.3022060445597
 20
124.1525089037969
 30
0.0
 11
154.2833206492091
 21
124.1436220576717
 31
0.0
  0
LINE
  5
607
330
E3
100
AcDbEntity
  8
0
  6
Continuous
100
AcDbLine
 10
154.2833206492091
 20
124.1436220576717
 30
0.0
 11
154.2678313712565
 21
124.1353351245001
 31
0.0
  0
LINE
  5
608
330
E3
100
AcDbEntity
  8
0
  6
Continuous
100
AcDbLine
 10
154.2678313712565
 20
124.1353351245001
 30
0.0
 11
154.2558636162344
 21
124.1276718296531
 31
0.0
  0
LINE
  5
609
330
E3
100
AcDbEntity
  8
0
  6
Continuous
100
AcDbLine
 10
154.2558636162344
 20
124.1276718296531
 30
0.0
 11
154.2475156749658
 21
124.1206423411468
 31
0.0
  0
LINE
  5
60A
330
E3
100
AcDbEntity
  8
0
  6
Continuous
100
AcDbLine
 10
154.2475156749658
 20
124.1206423411468
 30
0.0
 11
154.2428603668744
 21
124.1142658462347
 31
0.0
  0
LINE
  5
60B
330
E3
100
AcDbEntity
  8
0
  6
Continuous
100
AcDbLine
 10
154.2428603668744
 20
124.1142658462347
 30
0.0
 11
154.2419367167116
 21
124.1085471964559
 31
0.0
  0
LINE
  5
60C
330
E3
100
AcDbEntity
  8
0
  6
Continuous
100
AcDbLine
 10
155.2609478986583
 20
124.0882180894386
 30
0.0
 11
155.2600242484955
 21
124.0824994396598
 31
0.0
  0
LINE
  5
60D
330
E3
100
AcDbEntity
  8
0
  6
Continuous
100
AcDbLine
 10
155.2600242484955
 20
124.0824994396598
 30
0.0
 11
155.255367367845
 21
124.0761225206208
 31
0.0
  0
LINE
  5
60E
330
E3
100
AcDbEntity
  8
0
  6
Continuous
100
AcDbLine
 10
155.255367367845
 20
124.0761225206208
 30
0.0
 11
155.247021495624
 21
124.0690938885468
 31
0.0
  0
LINE
  5
60F
330
E3
100
AcDbEntity
  8
0
  6
Continuous
100
AcDbLine
 10
155.247021495624
 20
124.0690938885468
 30
0.0
 11
155.2350537406019
 21
124.0614305936997
 31
0.0
  0
LINE
  5
610
330
E3
100
AcDbEntity
  8
0
  6
Continuous
100
AcDbLine
 10
155.2350537406019
 20
124.0614305936997
 30
0.0
 11
155.2195644626492
 21
124.0531436605281
 31
0.0
  0
LINE
  5
611
330
E3
100
AcDbEntity
  8
0
  6
Continuous
100
AcDbLine
 10
155.2195644626492
 20
124.0531436605281
 30
0.0
 11
155.2006790672986
 21
124.044256814403
 31
0.0
  0
LINE
  5
612
330
E3
100
AcDbEntity
  8
0
  6
Continuous
100
AcDbLine
 10
155.2006790672986
 20
124.044256814403
 30
0.0
 11
155.1785466854538
 21
124.0347971700341
 31
0.0
  0
LINE
  5
613
330
E3
100
AcDbEntity
  8
0
  6
Continuous
100
AcDbLine
 10
155.1785466854538
 20
124.0347971700341
 30
0.0
 11
155.1533469520669
 21
124.0247986208086
 31
0.0
  0
LINE
  5
614
330
E3
100
AcDbEntity
  8
0
  6
Continuous
100
AcDbLine
 10
155.1533469520669
 20
124.0247986208086
 30
0.0
 11
155.1252764487838
 21
124.0142950601138
 31
0.0
  0
LINE
  5
615
330
E3
100
AcDbEntity
  8
0
  6
Continuous
100
AcDbLine
 10
155.1252764487838
 20
124.0142950601138
 30
0.0
 11
155.0945554826212
 21
124.0033203813368
 31
0.0
  0
LINE
  5
616
330
E3
100
AcDbEntity
  8
0
  6
Continuous
100
AcDbLine
 10
155.0945554826212
 20
124.0033203813368
 30
0.0
 11
155.0614246966283
 21
123.9919220352198
 31
0.0
  0
LINE
  5
617
330
E3
100
AcDbEntity
  8
0
  6
Continuous
100
AcDbLine
 10
155.0614246966283
 20
123.9919220352198
 30
0.0
 11
155.0261484592254
 21
123.9801474725048
 31
0.0
  0
LINE
  5
618
330
E3
100
AcDbEntity
  8
0
  6
Continuous
100
AcDbLine
 10
155.0261484592254
 20
123.9801474725048
 30
0.0
 11
154.9889945281713
 21
123.9680407545952
 31
0.0
  0
LINE
  5
619
330
E3
100
AcDbEntity
  8
0
  6
Continuous
100
AcDbLine
 10
154.9889945281713
 20
123.9680407545952
 30
0.0
 11
154.9502577759348
 21
123.9556527215718
 31
0.0
  0
LINE
  5
61A
330
E3
100
AcDbEntity
  8
0
  6
Continuous
100
AcDbLine
 10
154.9502577759348
 20
123.9556527215718
 30
0.0
 11
154.9102398536619
 21
123.9430409921928
 31
0.0
  0
LINE
  5
61B
330
E3
100
AcDbEntity
  8
0
  6
Continuous
100
AcDbLine
 10
154.9102398536619
 20
123.9430409921928
 30
0.0
 11
154.8692491911762
 21
123.9302597958778
 31
0.0
  0
LINE
  5
61C
330
E3
100
AcDbEntity
  8
0
  6
Continuous
100
AcDbLine
 10
154.8692491911762
 20
123.9302597958778
 30
0.0
 11
154.8276111649949
 21
123.9173599727076
 31
0.0
  0
LINE
  5
61D
330
E3
100
AcDbEntity
  8
0
  6
Continuous
100
AcDbLine
 10
154.8276111649949
 20
123.9173599727076
 30
0.0
 11
154.7856443729577
 21
123.9044059201178
 31
0.0
  0
LINE
  5
61E
330
E3
100
AcDbEntity
  8
0
  6
Continuous
100
AcDbLine
 10
154.7856443729577
 20
123.9044059201178
 30
0.0
 11
154.7436809702592
 21
123.8914484781894
 31
0.0
  0
LINE
  5
61F
330
E3
100
AcDbEntity
  8
0
  6
Continuous
100
AcDbLine
 10
154.7436809702592
 20
123.8914484781894
 30
0.0
 11
154.7020395547392
 21
123.8785520443579
 31
0.0
  0
LINE
  5
620
330
E3
100
AcDbEntity
  8
0
  6
Continuous
100
AcDbLine
 10
154.7020395547392
 20
123.8785520443579
 30
0.0
 11
154.6610522815923
 21
123.8657674587042
 31
0.0
  0
LINE
  5
621
330
E3
100
AcDbEntity
  8
0
  6
Continuous
100
AcDbLine
 10
154.6610522815923
 20
123.8657674587042
 30
0.0
 11
154.6210343593194
 21
123.8531557293252
 31
0.0
  0
LINE
  5
622
330
E3
100
AcDbEntity
  8
0
  6
Continuous
100
AcDbLine
 10
154.6210343593194
 20
123.8531557293252
 30
0.0
 11
154.5822976070828
 21
123.8407710856405
 31
0.0
  0
LINE
  5
623
330
E3
100
AcDbEntity
  8
0
  6
Continuous
100
AcDbLine
 10
154.5822976070828
 20
123.8407710856405
 30
0.0
 11
154.5451436760287
 21
123.8286643677309
 31
0.0
  0
LINE
  5
624
330
E3
100
AcDbEntity
  8
0
  6
Continuous
100
AcDbLine
 10
154.5451436760287
 20
123.8286643677309
 30
0.0
 11
154.5098640492871
 21
123.8168864156772
 31
0.0
  0
LINE
  5
625
330
E3
100
AcDbEntity
  8
0
  6
Continuous
100
AcDbLine
 10
154.5098640492871
 20
123.8168864156772
 30
0.0
 11
154.476736652633
 21
123.8054914588989
 31
0.0
  0
LINE
  5
626
330
E3
100
AcDbEntity
  8
0
  6
Continuous
100
AcDbLine
 10
154.476736652633
 20
123.8054914588989
 30
0.0
 11
154.4460156864704
 21
123.7945167801219
 31
0.0
  0
LINE
  5
627
330
E3
100
AcDbEntity
  8
0
  6
Continuous
100
AcDbLine
 10
154.4460156864704
 20
123.7945167801219
 30
0.0
 11
154.4179417938485
 21
123.7840132194271
 31
0.0
  0
LINE
  5
628
330
E3
100
AcDbEntity
  8
0
  6
Continuous
100
AcDbLine
 10
154.4179417938485
 20
123.7840132194271
 30
0.0
 11
154.3927420604617
 21
123.7740112808629
 31
0.0
  0
LINE
  5
629
330
E3
100
AcDbEntity
  8
0
  6
Continuous
100
AcDbLine
 10
154.3927420604617
 20
123.7740112808629
 30
0.0
 11
154.3706130679555
 21
123.7645550258327
 31
0.0
  0
LINE
  5
62A
330
E3
100
AcDbEntity
  8
0
  6
Continuous
100
AcDbLine
 10
154.3706130679555
 20
123.7645550258327
 30
0.0
 11
154.3517276726049
 21
123.7556681797076
 31
0.0
  0
LINE
  5
62B
330
E3
100
AcDbEntity
  8
0
  6
Continuous
100
AcDbLine
 10
154.3517276726049
 20
123.7556681797076
 30
0.0
 11
154.3362383946523
 21
123.747381246536
 31
0.0
  0
LINE
  5
62C
330
E3
100
AcDbEntity
  8
0
  6
Continuous
100
AcDbLine
 10
154.3362383946523
 20
123.747381246536
 30
0.0
 11
154.3242706396302
 21
123.7397145623502
 31
0.0
  0
LINE
  5
62D
330
E3
100
AcDbEntity
  8
0
  6
Continuous
100
AcDbLine
 10
154.3242706396302
 20
123.7397145623502
 30
0.0
 11
154.3159226983616
 21
123.7326884631826
 31
0.0
  0
MTEXT
  5
62E
330
E3
100
AcDbEntity
  8
Doc_ Floor
  6
Continuous
100
AcDbMText
 10
200.4460231647613
 20
106.4103931793979
 30
0.0
 40
2.5
 41
0.0
 71
     4
 72
     1
  1
{ROOF FIXING}
  7
GENERATED_STYLE_1
 73
     1
 44
1.0
  0
LINE
  5
62F
330
E3
100
AcDbEntity
  8
Doc_ Floor
  6
Continuous
100
AcDbLine
 10
154.4887349117035
 20
125.0284089306573
 30
0.0
 11
157.3199546144343
 21
122.3992649917812
 31
0.0
  0
LINE
  5
630
330
E3
100
AcDbEntity
  8
Doc_ Floor
  6
Continuous
100
AcDbLine
 10
154.4887349117035
 20
125.0284089306573
 30
0.0
 11
155.6260681914306
 21
121.3358938616127
 31
0.0
  0
LINE
  5
631
330
E3
100
AcDbEntity
  8
Doc_ Floor
  6
Continuous
100
AcDbLine
 10
157.3199546144343
 20
122.3992649917812
 30
0.0
 11
155.6260681914306
 21
121.3358938616127
 31
0.0
  0
LWPOLYLINE
  5
632
330
E3
100
AcDbEntity
  8
Doc_ Floor
  6
Continuous
100
AcDbPolyline
 90
       17
 70
   128
 43
0.0
 10
156.4730117023165
 20
121.8675782633272
 10
158.0003891642899
 20
119.7990008898474
 10
159.6223405552775
 20
117.9023550111807
 10
161.3516981977599
 20
116.1723317775099
 10
163.2012944142179
 20
114.6036223390179
 10
165.183961527132
 20
113.1909178458877
 10
167.3125318589829
 20
111.928909448302
 10
169.5998377322513
 20
110.8122882964439
 10
172.0587114694178
 20
109.8357455404961
 10
174.7019853929631
 20
108.9939723306416
 10
177.5424918253678
 20
108.2816598170632
 10
180.5930630891127
 20
107.6934991499438
 10
183.8665315066783
 20
107.2241814794664
 10
187.3757294005453
 20
106.8683979558137
 10
191.1334890931943
 20
106.6208397291687
 10
195.1526429071061
 20
106.4761979497142
 10
199.4460231647613
 20
106.4291637676332
  0
ENDBLK
  5
E5
330
E3
100
AcDbEntity
  8
0
100
AcDbBlockEnd
  0
BLOCK
  5
638
330
637
100
AcDbEntity
  8
0
100
AcDbBlockBegin
  2
R-TRS9-08 APRON DETAIL - HEAD_STORY_MARKER
 70
     0
 10
0.0
 20
0.0
 30
0.0
  3
R-TRS9-08 APRON DETAIL - HEAD_STORY_MARKER
  1

  0
ENDBLK
  5
639
330
637
100
AcDbEntity
  8
0
100
AcDbBlockEnd
  0
ENDSEC
  0
SECTION
  2
ENTITIES
  0
HATCH
  5
3F
330
1F
100
AcDbEntity
  8
Doc_ Finishes
  6
Continuous
100
AcDbHatch
 10
0.0
 20
0.0
 30
0.0
210
0.0
220
0.0
230
1.0
  2
SOLID
 70
     1
 71
     0
 91
        1
 92
        3
 72
     0
 73
     1
 93
       54
 10
27.4117749414874
 20
16.87044408857867
 10
26.89356552397386
 20
16.5825499677378
 10
26.5480925789648
 20
16.29465584689693
 10
26.12584786839819
 20
16.02595466744544
 10
25.76118198199976
 20
15.60370995687884
 10
25.39651609560134
 20
15.33500877742737
 10
25.07023609198168
 20
14.89357112547136
 10
24.49444785029994
 20
14.45213347351537
 10
23.93785255000758
 20
14.02988876294876
 10
23.43883607388344
 20
13.81876640766546
 10
22.74789018386533
 20
13.39652169709885
 10
22.09533017662603
 20
12.99346992792163
 10
21.63469958328064
 20
12.55203227596564
 10
20.90536781048376
 20
12.12978756539902
 10
20.59828074825351
 20
11.7459287376112
 10
20.04168544796116
 20
11.28529814426581
 10
19.36993249933246
 20
10.8630534336992
 10
18.73656543348255
 20
10.42161578174319
 10
18.04561954346447
 20
10.15291460229172
 10
17.1051654153843
 20
9.692284008946325
 10
16.39502658397681
 20
9.020531060317637
 10
15.83843128368446
 20
8.598286349751023
 10
15.12829245227699
 20
8.137655756405634
 10
14.84039833143612
 20
7.98411222529051
 10
14.37976773809073
 20
7.81137575278599
 10
14.07268067586046
 20
7.523481631945121
 10
14.0151018516923
 20
7.216394569714853
 10
14.14945244141803
 20
6.890114566095209
 10
14.4373465622589
 20
6.563834562475543
 10
14.8787842142149
 20
6.659799269422514
 10
15.51215128006482
 20
7.06285103859973
 10
16.01116775618899
 20
7.389131042219374
 10
16.33744775980864
 20
7.696218104449641
 10
16.51018423231316
 20
7.907340459732938
 10
17.01303929671522
 20
8.421711288968723
 10
17.33548071205699
 20
8.652026585641417
 10
17.75004824606785
 20
8.99749953065046
 10
18.14158425041142
 20
9.204783297655894
 10
19.24709767444037
 20
9.75754000967037
 10
20.23745345013295
 20
10.47151742935572
 10
21.4120614631637
 20
11.1624633193738
 10
21.84966052684182
 20
11.64612544238645
 10
22.49454335752537
 20
12.06069297639732
 10
23.78430901889248
 20
12.9819541630881
 10
24.3600972605742
 20
13.25833251909534
 10
25.6498629219413
 20
14.24868829478776
 10
25.85714668894673
 20
14.64022429913134
 10
26.68628175696843
 20
15.23904407048036
 10
27.28510152831745
 20
15.72270619349301
 10
27.81482671066464
 20
16.1142421978366
 10
28.27545730401003
 20
16.52880973184745
 10
28.22939424467549
 20
16.7821565581874
 10
28.09120506667188
 20
16.89731420652375
 10
27.56147988432467
 20
16.89731420652375
 97
        0
 75
     0
 76
     1
 98
        0
  0
LINE
  5
41
330
1F
100
AcDbEntity
  8
Doc_ Finishes
  6
Continuous
100
AcDbLine
 10
27.41177566876475
 20
16.87044600708104
 30
0.0
 11
26.89356756490952
 21
16.58254868214004
 31
0.0
  0
LINE
  5
42
330
1F
100
AcDbEntity
  8
Doc_ Finishes
  6
Continuous
100
AcDbLine
 10
26.89356756490952
 20
16.58254868214004
 30
0.0
 11
26.54809254523997
 21
16.29465578284815
 31
0.0
  0
LINE
  5
43
330
1F
100
AcDbEntity
  8
Doc_ Finishes
  6
Continuous
100
AcDbLine
 10
26.54809254523997
 20
16.29465578284815
 30
0.0
 11
26.12584579071597
 21
16.02595249803305
 31
0.0
  0
LINE
  5
44
330
1F
100
AcDbEntity
  8
Doc_ Finishes
  6
Continuous
100
AcDbLine
 10
26.12584579071597
 20
16.02595249803305
 30
0.0
 11
25.76118115656963
 21
15.60371016915814
 31
0.0
  0
LINE
  5
45
330
1F
100
AcDbEntity
  8
Doc_ Finishes
  6
Continuous
100
AcDbLine
 10
25.76118115656963
 20
15.60371016915814
 30
0.0
 11
25.39651652242329
 21
15.33500688434304
 31
0.0
  0
LINE
  5
46
330
1F
100
AcDbEntity
  8
Doc_ Finishes
  6
Continuous
100
AcDbLine
 10
25.39651652242329
 20
15.33500688434304
 30
0.0
 11
25.07023554287962
 21
14.89357051534225
 31
0.0
  0
LINE
  5
47
330
1F
100
AcDbEntity
  8
Doc_ Finishes
  6
Continuous
100
AcDbLine
 10
25.07023554287962
 20
14.89357051534225
 30
0.0
 11
24.49444974429583
 21
14.45213414634146
 31
0.0
  0
LINE
  5
48
330
1F
100
AcDbEntity
  8
Doc_ Finishes
  6
Continuous
100
AcDbLine
 10
24.49444974429583
 20
14.45213414634146
 30
0.0
 11
23.93785356018882
 21
14.02988739181747
 31
0.0
  0
LINE
  5
49
330
1F
100
AcDbEntity
  8
Doc_ Finishes
  6
Continuous
100
AcDbLine
 10
23.93785356018882
 20
14.02988739181747
 30
0.0
 11
23.43883507081038
 21
13.81876622738001
 31
0.0
  0
LINE
  5
4A
330
1F
100
AcDbEntity
  8
Doc_ Finishes
  6
Continuous
100
AcDbLine
 10
23.43883507081038
 20
13.81876622738001
 30
0.0
 11
22.74788945712038
 21
13.39652389850511
 31
0.0
  0
LINE
  5
4B
330
1F
100
AcDbEntity
  8
Doc_ Finishes
  6
Continuous
100
AcDbLine
 10
22.74788945712038
 20
13.39652389850511
 30
0.0
 11
22.09533192368214
 21
12.993471184107
 31
0.0
  0
LINE
  5
4C
330
1F
100
AcDbEntity
  8
Doc_ Finishes
  6
Continuous
100
AcDbLine
 10
22.09533192368214
 20
12.993471184107
 30
0.0
 11
21.63470151455547
 21
12.55203038945712
 31
0.0
  0
LINE
  5
4D
330
1F
100
AcDbEntity
  8
Doc_ Finishes
  6
Continuous
100
AcDbLine
 10
21.63470151455547
 20
12.55203038945712
 30
0.0
 11
20.90536782061369
 21
12.12978806058222
 31
0.0
  0
LINE
  5
4E
330
1F
100
AcDbEntity
  8
Doc_ Finishes
  6
Continuous
100
AcDbLine
 10
20.90536782061369
 20
12.12978806058222
 30
0.0
 11
20.59828088119591
 21
11.74592938630999
 31
0.0
  0
LINE
  5
4F
330
1F
100
AcDbEntity
  8
Doc_ Finishes
  6
Continuous
100
AcDbLine
 10
20.59828088119591
 20
11.74592938630999
 30
0.0
 11
20.0416846970889
 21
11.28529897718332
 31
0.0
  0
LINE
  5
50
330
1F
100
AcDbEntity
  8
Doc_ Finishes
  6
Continuous
100
AcDbLine
 10
20.0416846970889
 20
11.28529897718332
 30
0.0
 11
19.36993312352478
 21
10.86305222265932
 31
0.0
  0
LINE
  5
51
330
1F
100
AcDbEntity
  8
Doc_ Finishes
  6
Continuous
100
AcDbLine
 10
19.36993312352478
 20
10.86305222265932
 30
0.0
 11
18.73656520456333
 21
10.42161585365854
 31
0.0
  0
LINE
  5
52
330
1F
100
AcDbEntity
  8
Doc_ Finishes
  6
Continuous
100
AcDbLine
 10
18.73656520456333
 20
10.42161585365854
 30
0.0
 11
18.04561959087333
 21
10.15291256884343
 31
0.0
  0
LINE
  5
53
330
1F
100
AcDbEntity
  8
Doc_ Finishes
  6
Continuous
100
AcDbLine
 10
18.04561959087333
 20
10.15291256884343
 30
0.0
 11
17.1051647324941
 21
9.692282159716758
 31
0.0
  0
LINE
  5
54
330
1F
100
AcDbEntity
  8
Doc_ Finishes
  6
Continuous
100
AcDbLine
 10
17.1051647324941
 20
9.692282159716758
 30
0.0
 11
16.3950250786782
 21
9.020530586152635
 31
0.0
  0
LINE
  5
55
330
1F
100
AcDbEntity
  8
Doc_ Finishes
  6
Continuous
100
AcDbLine
 10
16.3950250786782
 20
9.020530586152635
 30
0.0
 11
15.8384333202203
 21
8.598288257277733
 31
0.0
  0
LINE
  5
56
330
1F
100
AcDbEntity
  8
Doc_ Finishes
  6
Continuous
100
AcDbLine
 10
15.8384333202203
 20
8.598288257277733
 30
0.0
 11
15.1282936664044
 21
8.137657848151063
 31
0.0
  0
LINE
  5
57
330
1F
100
AcDbEntity
  8
Doc_ Finishes
  6
Continuous
100
AcDbLine
 10
15.1282936664044
 20
8.137657848151063
 30
0.0
 11
14.84039634146341
 21
7.984114378442171
 31
0.0
  0
LINE
  5
58
330
1F
100
AcDbEntity
  8
Doc_ Finishes
  6
Continuous
100
AcDbLine
 10
14.84039634146341
 20
7.984114378442171
 30
0.0
 11
14.37976593233674
 21
7.811376868607396
 31
0.0
  0
LINE
  5
59
330
1F
100
AcDbEntity
  8
Doc_ Finishes
  6
Continuous
100
AcDbLine
 10
14.37976593233674
 20
7.811376868607396
 30
0.0
 11
14.07267899291896
 21
7.523479543666405
 31
0.0
  0
LINE
  5
5A
330
1F
100
AcDbEntity
  8
Doc_ Finishes
  6
Continuous
100
AcDbLine
 10
14.07267899291896
 20
7.523479543666405
 30
0.0
 11
14.0151012981904
 21
7.216392604248622
 31
0.0
  0
LINE
  5
5B
330
1F
100
AcDbEntity
  8
Doc_ Finishes
  6
Continuous
100
AcDbLine
 10
14.0151012981904
 20
7.216392604248622
 30
0.0
 11
14.14945072777341
 21
6.890116050354051
 31
0.0
  0
LINE
  5
5C
330
1F
100
AcDbEntity
  8
Doc_ Finishes
  6
Continuous
100
AcDbLine
 10
14.14945072777341
 20
6.890116050354051
 30
0.0
 11
14.4373480527144
 21
6.563835070810386
 31
0.0
  0
LINE
  5
5D
330
1F
100
AcDbEntity
  8
Doc_ Finishes
  6
Continuous
100
AcDbLine
 10
14.4373480527144
 20
6.563835070810386
 30
0.0
 11
14.87878442171519
 21
6.659800845790715
 31
0.0
  0
LINE
  5
5E
330
1F
100
AcDbEntity
  8
Doc_ Finishes
  6
Continuous
100
AcDbLine
 10
14.87878442171519
 20
6.659800845790715
 30
0.0
 11
15.51215234067663
 21
7.062849134539732
 31
0.0
  0
LINE
  5
5F
330
1F
100
AcDbEntity
  8
Doc_ Finishes
  6
Continuous
100
AcDbLine
 10
15.51215234067663
 20
7.062849134539732
 30
0.0
 11
16.01116640440598
 21
7.389130114083398
 31
0.0
  0
LINE
  5
60
330
1F
100
AcDbEntity
  8
Doc_ Finishes
  6
Continuous
100
AcDbLine
 10
16.01116640440598
 20
7.389130114083398
 30
0.0
 11
16.33744738394964
 21
7.69621705350118
 31
0.0
  0
LINE
  5
61
330
1F
100
AcDbEntity
  8
Doc_ Finishes
  6
Continuous
100
AcDbLine
 10
16.33744738394964
 20
7.69621705350118
 30
0.0
 11
16.51018489378442
 21
7.907342643587726
 31
0.0
  0
LINE
  5
62
330
1F
100
AcDbEntity
  8
Doc_ Finishes
  6
Continuous
100
AcDbLine
 10
16.51018489378442
 20
7.907342643587726
 30
0.0
 11
17.0130404209284
 21
8.421709284028323
 31
0.0
  0
LINE
  5
63
330
1F
100
AcDbEntity
  8
Doc_ Finishes
  6
Continuous
100
AcDbLine
 10
17.0130404209284
 20
8.421709284028323
 30
0.0
 11
17.33547993705743
 21
8.65202448859166
 31
0.0
  0
LINE
  5
64
330
1F
100
AcDbEntity
  8
Doc_ Finishes
  6
Continuous
100
AcDbLine
 10
17.33547993705743
 20
8.65202448859166
 30
0.0
 11
17.75004819040126
 21
8.997499508261212
 31
0.0
  0
LINE
  5
65
330
1F
100
AcDbEntity
  8
Doc_ Finishes
  6
Continuous
100
AcDbLine
 10
17.75004819040126
 20
8.997499508261212
 30
0.0
 11
18.14158536585366
 21
9.204783634933122
 31
0.0
  0
LINE
  5
66
330
1F
100
AcDbEntity
  8
Doc_ Finishes
  6
Continuous
100
AcDbLine
 10
18.14158536585366
 20
9.204783634933122
 30
0.0
 11
19.24709923288749
 21
9.75753835562549
 31
0.0
  0
LINE
  5
67
330
1F
100
AcDbEntity
  8
Doc_ Finishes
  6
Continuous
100
AcDbLine
 10
19.24709923288749
 20
9.75753835562549
 30
0.0
 11
20.23745328481511
 21
10.47151947285602
 31
0.0
  0
LINE
  5
68
330
1F
100
AcDbEntity
  8
Doc_ Finishes
  6
Continuous
100
AcDbLine
 10
20.23745328481511
 20
10.47151947285602
 30
0.0
 11
21.41206038552321
 21
11.16246508654602
 31
0.0
  0
LINE
  5
69
330
1F
100
AcDbEntity
  8
Doc_ Finishes
  6
Continuous
100
AcDbLine
 10
21.41206038552321
 20
11.16246508654602
 30
0.0
 11
21.84965971675846
 21
11.64612657356412
 31
0.0
  0
LINE
  5
6A
330
1F
100
AcDbEntity
  8
Doc_ Finishes
  6
Continuous
100
AcDbLine
 10
21.84965971675846
 20
11.64612657356412
 30
0.0
 11
22.49454317466562
 21
12.06069482690795
 31
0.0
  0
LINE
  5
6B
330
1F
100
AcDbEntity
  8
Doc_ Finishes
  6
Continuous
100
AcDbLine
 10
22.49454317466562
 20
12.06069482690795
 30
0.0
 11
23.78431009047993
 21
12.98195564516129
 31
0.0
  0
LINE
  5
6C
330
1F
100
AcDbEntity
  8
Doc_ Finishes
  6
Continuous
100
AcDbLine
 10
23.78431009047993
 20
12.98195564516129
 30
0.0
 11
24.36009588906373
 21
13.25833300550747
 31
0.0
  0
LINE
  5
6D
330
1F
100
AcDbEntity
  8
Doc_ Finishes
  6
Continuous
100
AcDbLine
 10
24.36009588906373
 20
13.25833300550747
 30
0.0
 11
25.64986280487805
 21
14.24868705743509
 31
0.0
  0
LINE
  5
6E
330
1F
100
AcDbEntity
  8
Doc_ Finishes
  6
Continuous
100
AcDbLine
 10
25.64986280487805
 20
14.24868705743509
 30
0.0
 11
25.85714693154996
 21
14.64022423288749
 31
0.0
  0
LINE
  5
6F
330
1F
100
AcDbEntity
  8
Doc_ Finishes
  6
Continuous
100
AcDbLine
 10
25.85714693154996
 20
14.64022423288749
 30
0.0
 11
26.68628343823761
 21
15.2390455350118
 31
0.0
  0
LINE
  5
70
330
1F
100
AcDbEntity
  8
Doc_ Finishes
  6
Continuous
100
AcDbLine
 10
26.68628343823761
 20
15.2390455350118
 30
0.0
 11
27.28510031471282
 21
15.7227070220299
 31
0.0
  0
LINE
  5
71
330
1F
100
AcDbEntity
  8
Doc_ Finishes
  6
Continuous
100
AcDbLine
 10
27.28510031471282
 20
15.7227070220299
 30
0.0
 11
27.81482838316287
 21
16.1142441974823
 31
0.0
  0
LINE
  5
72
330
1F
100
AcDbEntity
  8
Doc_ Finishes
  6
Continuous
100
AcDbLine
 10
27.81482838316287
 20
16.1142441974823
 30
0.0
 11
28.27545879228953
 21
16.52880802517702
 31
0.0
  0
LINE
  5
73
330
1F
100
AcDbEntity
  8
Doc_ Finishes
  6
Continuous
100
AcDbLine
 10
28.27545879228953
 20
16.52880802517702
 30
0.0
 11
28.22939221085759
 21
16.78215873328088
 31
0.0
  0
LINE
  5
74
330
1F
100
AcDbEntity
  8
Doc_ Finishes
  6
Continuous
100
AcDbLine
 10
28.22939221085759
 20
16.78215873328088
 30
0.0
 11
28.09120574350905
 21
16.897314122738
 31
0.0
  0
LINE
  5
75
330
1F
100
AcDbEntity
  8
Doc_ Finishes
  6
Continuous
100
AcDbLine
 10
28.09120574350905
 20
16.897314122738
 30
0.0
 11
27.56147767505901
 21
16.897314122738
 31
0.0
  0
LINE
  5
76
330
1F
100
AcDbEntity
  8
Doc_ Finishes
  6
Continuous
100
AcDbLine
 10
27.56147767505901
 20
16.897314122738
 30
0.0
 11
27.41177566876475
 21
16.87044600708104
 31
0.0
  0
HATCH
  5
77
330
1F
100
AcDbEntity
  8
Doc_ Finishes
  6
Continuous
100
AcDbHatch
 10
0.0
 20
0.0
 30
0.0
210
0.0
220
0.0
230
1.0
  2
SOLID
 70
     1
 71
     0
 91
        1
 92
        3
 72
     0
 73
     1
 93
       39
 10
27.65360600299377
 20
13.12014334109181
 10
27.21600693931564
 20
12.77467039608275
 10
26.54809257896482
 20
12.24494521373555
 10
25.92624127794851
 20
11.85340920939199
 10
25.32742150659951
 20
11.32368402704478
 10
24.72860173525052
 20
11.04730567103754
 10
24.08371890456698
 20
10.56364354802488
 10
23.62308831122158
 20
10.33332825135219
 10
23.231552306878
 20
10.03391836567767
 10
22.81698477286715
 20
9.619350831666825
 10
22.40241723885631
 20
9.38903553499415
 10
21.91875511584363
 20
9.043562589985086
 10
21.66540828950367
 20
8.859310352646935
 10
21.25084075549282
 20
8.582931996639696
 10
20.09926427212933
 20
7.753796928618002
 10
19.75379132712029
 20
7.477418572610764
 10
19.2931607337749
 20
7.316197864939873
 10
19.22406614477309
 20
6.993756449598113
 10
19.3622553227767
 20
6.717378093590874
 10
19.63863367878394
 20
6.602220445254527
 10
20.00713815346026
 20
6.8325357419272
 10
20.26048497980021
 20
7.131945627601722
 10
20.55989486547472
 20
7.362260924274415
 10
21.31993534449462
 20
7.707733869283458
 10
21.84966052684182
 20
8.122301403294307
 10
22.88607936186895
 20
8.882341882314256
 10
23.20852077721072
 20
9.342972475659646
 10
24.01462431556515
 20
9.734508480003234
 10
24.5673810275796
 20
10.05694989534501
 10
25.46561068460312
 20
10.60970660735953
 10
25.88017821861399
 20
11.07033720070492
 10
26.31777728229212
 20
11.34671555671216
 10
26.70931328663569
 20
11.30065249737762
 10
27.21600693931562
 20
11.55399932371759
 10
28.0681735370046
 20
12.17585062473387
 10
28.41364648201364
 20
12.49829204007566
 10
28.39061495234636
 20
12.77467039608289
 10
28.22939424467547
 20
13.00498569275559
 10
28.04514200733732
 20
13.05104875209013
 97
        0
 75
     0
 76
     1
 98
        0
  0
LINE
  5
78
330
1F
100
AcDbEntity
  8
Doc_ Finishes
  6
Continuous
100
AcDbLine
 10
27.6536064122738
 20
13.12014211250983
 30
0.0
 11
27.21600708103855
 21
12.77467151848938
 31
0.0
  0
LINE
  5
79
330
1F
100
AcDbEntity
  8
Doc_ Finishes
  6
Continuous
100
AcDbLine
 10
27.21600708103855
 20
12.77467151848938
 30
0.0
 11
26.54809254523997
 21
12.24494345003934
 31
0.0
  0
LINE
  5
7A
330
1F
100
AcDbEntity
  8
Doc_ Finishes
  6
Continuous
100
AcDbLine
 10
26.54809254523997
 20
12.24494345003934
 30
0.0
 11
25.92624016522423
 21
11.85341070023603
 31
0.0
  0
LINE
  5
7B
330
1F
100
AcDbEntity
  8
Doc_ Finishes
  6
Continuous
100
AcDbLine
 10
25.92624016522423
 20
11.85341070023603
 30
0.0
 11
25.32742328874902
 21
11.32368263178599
 31
0.0
  0
LINE
  5
7C
330
1F
100
AcDbEntity
  8
Doc_ Finishes
  6
Continuous
100
AcDbLine
 10
25.32742328874902
 20
11.32368263178599
 30
0.0
 11
24.72860198662471
 21
11.04730527143981
 31
0.0
  0
LINE
  5
7D
330
1F
100
AcDbEntity
  8
Doc_ Finishes
  6
Continuous
100
AcDbLine
 10
24.72860198662471
 20
11.04730527143981
 30
0.0
 11
24.08371852871754
 21
10.56364378442171
 31
0.0
  0
LINE
  5
7E
330
1F
100
AcDbEntity
  8
Doc_ Finishes
  6
Continuous
100
AcDbLine
 10
24.08371852871754
 20
10.56364378442171
 30
0.0
 11
23.62308811959087
 21
10.33332857985838
 31
0.0
  0
LINE
  5
7F
330
1F
100
AcDbEntity
  8
Doc_ Finishes
  6
Continuous
100
AcDbLine
 10
23.62308811959087
 20
10.33332857985838
 30
0.0
 11
23.23155094413847
 21
10.03392014162077
 31
0.0
  0
LINE
  5
80
330
1F
100
AcDbEntity
  8
Doc_ Finishes
  6
Continuous
100
AcDbLine
 10
23.23155094413847
 20
10.03392014162077
 30
0.0
 11
22.81698269079465
 21
9.619351888276947
 31
0.0
  0
LINE
  5
81
330
1F
100
AcDbEntity
  8
Doc_ Finishes
  6
Continuous
100
AcDbLine
 10
22.81698269079465
 20
9.619351888276947
 30
0.0
 11
22.40241886309992
 21
9.389036683713611
 31
0.0
  0
LINE
  5
82
330
1F
100
AcDbEntity
  8
Doc_ Finishes
  6
Continuous
100
AcDbLine
 10
22.40241886309992
 20
9.389036683713611
 30
0.0
 11
21.91875295043273
 21
9.04356166404406
 31
0.0
  0
LINE
  5
83
330
1F
100
AcDbEntity
  8
Doc_ Finishes
  6
Continuous
100
AcDbLine
 10
21.91875295043273
 20
9.04356166404406
 30
0.0
 11
21.66540666797797
 21
8.859308615263572
 31
0.0
  0
LINE
  5
84
330
1F
100
AcDbEntity
  8
Doc_ Finishes
  6
Continuous
100
AcDbLine
 10
21.66540666797797
 20
8.859308615263572
 30
0.0
 11
21.25084284028324
 21
8.582931254917387
 31
0.0
  0
LINE
  5
85
330
1F
100
AcDbEntity
  8
Doc_ Finishes
  6
Continuous
100
AcDbLine
 10
21.25084284028324
 20
8.582931254917387
 30
0.0
 11
20.09926239181747
 21
7.75379474822974
 31
0.0
  0
LINE
  5
86
330
1F
100
AcDbEntity
  8
Doc_ Finishes
  6
Continuous
100
AcDbLine
 10
20.09926239181747
 20
7.75379474822974
 30
0.0
 11
19.75379179779701
 21
7.477417387883556
 31
0.0
  0
LINE
  5
87
330
1F
100
AcDbEntity
  8
Doc_ Finishes
  6
Continuous
100
AcDbLine
 10
19.75379179779701
 20
7.477417387883556
 30
0.0
 11
19.29316138867033
 21
7.316199842643588
 31
0.0
  0
LINE
  5
88
330
1F
100
AcDbEntity
  8
Doc_ Finishes
  6
Continuous
100
AcDbLine
 10
19.29316138867033
 20
7.316199842643588
 30
0.0
 11
19.22406815499606
 21
6.993755900865461
 31
0.0
  0
LINE
  5
89
330
1F
100
AcDbEntity
  8
Doc_ Finishes
  6
Continuous
100
AcDbLine
 10
19.22406815499606
 20
6.993755900865461
 30
0.0
 11
19.36225462234461
 21
6.717378540519276
 31
0.0
  0
LINE
  5
8A
330
1F
100
AcDbEntity
  8
Doc_ Finishes
  6
Continuous
100
AcDbLine
 10
19.36225462234461
 20
6.717378540519276
 30
0.0
 11
19.63863198269079
 21
6.602218725413059
 31
0.0
  0
LINE
  5
8B
330
1F
100
AcDbEntity
  8
Doc_ Finishes
  6
Continuous
100
AcDbLine
 10
19.63863198269079
 20
6.602218725413059
 30
0.0
 11
20.00713808025177
 21
6.832533929976396
 31
0.0
  0
LINE
  5
8C
330
1F
100
AcDbEntity
  8
Doc_ Finishes
  6
Continuous
100
AcDbLine
 10
20.00713808025177
 20
6.832533929976396
 30
0.0
 11
20.26048436270653
 21
7.1319467938631
 31
0.0
  0
LINE
  5
8D
330
1F
100
AcDbEntity
  8
Doc_ Finishes
  6
Continuous
100
AcDbLine
 10
20.26048436270653
 20
7.1319467938631
 30
0.0
 11
20.55989280094414
 21
7.362261998426435
 31
0.0
  0
LINE
  5
8E
330
1F
100
AcDbEntity
  8
Doc_ Finishes
  6
Continuous
100
AcDbLine
 10
20.55989280094414
 20
7.362261998426435
 30
0.0
 11
21.31993607395751
 21
7.707732592446892
 31
0.0
  0
LINE
  5
8F
330
1F
100
AcDbEntity
  8
Doc_ Finishes
  6
Continuous
100
AcDbLine
 10
21.31993607395751
 20
7.707732592446892
 30
0.0
 11
21.84965971675846
 21
8.122300845790717
 31
0.0
  0
LINE
  5
90
330
1F
100
AcDbEntity
  8
Doc_ Finishes
  6
Continuous
100
AcDbLine
 10
21.84965971675846
 20
8.122300845790717
 30
0.0
 11
22.88608035011802
 21
8.882339693154996
 31
0.0
  0
LINE
  5
91
330
1F
100
AcDbEntity
  8
Doc_ Finishes
  6
Continuous
100
AcDbLine
 10
22.88608035011802
 20
8.882339693154996
 30
0.0
 11
23.20851986624705
 21
9.342974527930762
 31
0.0
  0
LINE
  5
92
330
1F
100
AcDbEntity
  8
Doc_ Finishes
  6
Continuous
100
AcDbLine
 10
23.20851986624705
 20
9.342974527930762
 30
0.0
 11
24.01462529504327
 21
9.734507277734066
 31
0.0
  0
LINE
  5
93
330
1F
100
AcDbEntity
  8
Doc_ Finishes
  6
Continuous
100
AcDbLine
 10
24.01462529504327
 20
9.734507277734066
 30
0.0
 11
24.56738001573564
 21
10.05695121951219
 31
0.0
  0
LINE
  5
94
330
1F
100
AcDbEntity
  8
Doc_ Finishes
  6
Continuous
100
AcDbLine
 10
24.56738001573564
 20
10.05695121951219
 30
0.0
 11
25.46560975609756
 21
10.60970594020456
 31
0.0
  0
LINE
  5
95
330
1F
100
AcDbEntity
  8
Doc_ Finishes
  6
Continuous
100
AcDbLine
 10
25.46560975609756
 20
10.60970594020456
 30
0.0
 11
25.88017800944139
 21
11.07033634933124
 31
0.0
  0
LINE
  5
96
330
1F
100
AcDbEntity
  8
Doc_ Finishes
  6
Continuous
100
AcDbLine
 10
25.88017800944139
 20
11.07033634933124
 30
0.0
 11
26.31777734067663
 21
11.34671370967742
 31
0.0
  0
LINE
  5
97
330
1F
100
AcDbEntity
  8
Doc_ Finishes
  6
Continuous
100
AcDbLine
 10
26.31777734067663
 20
11.34671370967742
 30
0.0
 11
26.70931451612903
 21
11.30065155389457
 31
0.0
  0
LINE
  5
98
330
1F
100
AcDbEntity
  8
Doc_ Finishes
  6
Continuous
100
AcDbLine
 10
26.70931451612903
 20
11.30065155389457
 30
0.0
 11
27.21600708103855
 21
11.55399783634933
 31
0.0
  0
LINE
  5
99
330
1F
100
AcDbEntity
  8
Doc_ Finishes
  6
Continuous
100
AcDbLine
 10
27.21600708103855
 20
11.55399783634933
 30
0.0
 11
28.06817466561763
 21
12.17585021636507
 31
0.0
  0
LINE
  5
9A
330
1F
100
AcDbEntity
  8
Doc_ Finishes
  6
Continuous
100
AcDbLine
 10
28.06817466561763
 20
12.17585021636507
 30
0.0
 11
28.41364525963808
 21
12.49829415814319
 31
0.0
  0
LINE
  5
9B
330
1F
100
AcDbEntity
  8
Doc_ Finishes
  6
Continuous
100
AcDbLine
 10
28.41364525963808
 20
12.49829415814319
 30
0.0
 11
28.39061418174666
 21
12.77467151848938
 31
0.0
  0
LINE
  5
9C
330
1F
100
AcDbEntity
  8
Doc_ Finishes
  6
Continuous
100
AcDbLine
 10
28.39061418174666
 20
12.77467151848938
 30
0.0
 11
28.22939221085759
 21
13.00498672305271
 31
0.0
  0
LINE
  5
9D
330
1F
100
AcDbEntity
  8
Doc_ Finishes
  6
Continuous
100
AcDbLine
 10
28.22939221085759
 20
13.00498672305271
 30
0.0
 11
28.04514358772619
 21
13.05104887883556
 31
0.0
  0
LINE
  5
9E
330
1F
100
AcDbEntity
  8
Doc_ Finishes
  6
Continuous
100
AcDbLine
 10
28.04514358772619
 20
13.05104887883556
 30
0.0
 11
27.6536064122738
 21
13.12014211250983
 31
0.0
  0
HATCH
  5
9F
330
1F
100
AcDbEntity
  8
Doc_ Finishes
  6
Continuous
100
AcDbHatch
 10
0.0
 20
0.0
 30
0.0
210
0.0
220
0.0
230
1.0
  2
SOLID
 70
     1
 71
     0
 91
        1
 92
        3
 72
     0
 73
     1
 93
       47
 10
28.06817353700456
 20
15.74573772316067
 10
28.30309513961077
 20
15.62136746295728
 10
28.4412843176144
 20
15.4002647781515
 10
28.93876535842742
 20
15.17916209334572
 10
29.82317609765057
 20
14.40530269652538
 10
30.92868952167951
 20
13.74199464210799
 10
31.59199757609689
 20
13.3827027792986
 10
32.20002995931279
 20
13.07868658769064
 10
33.55428390374828
 20
12.08372450606458
 10
34.07940278016201
 20
11.69679480765445
 10
34.88090001258301
 20
11.08876242443854
 10
35.59948373820179
 20
10.50836787682334
 10
36.5668079842271
 20
9.817421986805197
 10
37.06428902504012
 20
9.458130123995785
 10
37.81051058625966
 20
8.933011247582023
 10
38.61200781868061
 20
8.407892371168286
 10
38.77783483228498
 20
8.186789686362482
 10
39.38586721550092
 20
7.744584316750918
 10
40.18736444792187
 20
6.915449248729224
 10
40.7953968311378
 20
6.44560604351692
 10
41.56925622795804
 20
6.169227687509681
 10
42.23256428237543
 20
6.086314180707507
 10
42.48130480278193
 20
6.30741686551329
 10
42.14965077557326
 20
6.611433057121246
 10
41.48634272115586
 20
6.998362755531397
 10
40.76775899553709
 20
7.357654618340788
 10
40.18736444792187
 20
8.048600508358874
 10
38.99893751709079
 20
8.822459905179112
 10
38.47381864067705
 20
9.319940945992132
 10
38.22507812027052
 20
9.734508480003
 10
37.17484036744301
 20
10.31490302761817
 10
36.73263499783144
 20
10.78474623283046
 10
36.2351539570184
 20
11.17167593124059
 10
35.48893239579888
 20
11.61388130085215
 10
34.85326217698223
 20
12.16663801286669
 10
34.35578113616919
 20
12.58120554687754
 10
33.69247308175183
 20
12.99577308088841
 10
33.22262987653953
 20
13.32742710809708
 10
32.7251488357265
 20
13.5761676285036
 10
31.93747052110588
 20
14.06443605744977
 10
31.43077686842594
 20
14.38687747279155
 10
30.92408321574601
 20
14.70931888813342
 10
30.62467333007151
 20
15.100854892477
 10
29.95675896972068
 20
15.67664313415887
 10
29.47309684670803
 20
15.9530214901661
 10
28.82821401602447
 20
16.36758902417695
 10
28.50577260068269
 20
16.22939984617334
 97
        0
 75
     0
 76
     1
 98
        0
  0
LINE
  5
A0
330
1F
100
AcDbEntity
  8
Doc_ Finishes
  6
Continuous
100
AcDbLine
 10
28.30309697088906
 20
15.62136850904799
 30
0.0
 11
28.06817466561763
 21
15.74573809992132
 31
0.0
  0
LINE
  5
A1
330
1F
100
AcDbEntity
  8
Doc_ Finishes
  6
Continuous
100
AcDbLine
 10
28.44128343823761
 20
15.40026308025177
 30
0.0
 11
28.30309697088906
 21
15.62136850904799
 31
0.0
  0
LINE
  5
A2
330
1F
100
AcDbEntity
  8
Doc_ Finishes
  6
Continuous
100
AcDbLine
 10
28.93876622738001
 20
15.17916207710464
 30
0.0
 11
28.44128343823761
 21
15.40026308025177
 31
0.0
  0
LINE
  5
A3
330
1F
100
AcDbEntity
  8
Doc_ Finishes
  6
Continuous
100
AcDbLine
 10
29.82317466561762
 20
14.40530192761605
 30
0.0
 11
28.93876622738001
 21
15.17916207710464
 31
0.0
  0
LINE
  5
A4
330
1F
100
AcDbEntity
  8
Doc_ Finishes
  6
Continuous
100
AcDbLine
 10
30.92868853265146
 20
13.74199449252557
 30
0.0
 11
29.82317466561762
 21
14.40530192761605
 31
0.0
  0
LINE
  5
A5
330
1F
100
AcDbEntity
  8
Doc_ Finishes
  6
Continuous
100
AcDbLine
 10
31.59199596774193
 20
13.3827025963808
 30
0.0
 11
30.92868853265146
 21
13.74199449252557
 31
0.0
  0
LINE
  5
A6
330
1F
100
AcDbEntity
  8
Doc_ Finishes
  6
Continuous
100
AcDbLine
 10
32.20003147128246
 20
13.07868705743509
 30
0.0
 11
31.59199596774193
 21
13.3827025963808
 31
0.0
  0
LINE
  5
A7
330
1F
100
AcDbEntity
  8
Doc_ Finishes
  6
Continuous
100
AcDbLine
 10
33.55428452006294
 20
12.08372590479937
 30
0.0
 11
32.20003147128246
 21
13.07868705743509
 31
0.0
  0
LINE
  5
A8
330
1F
100
AcDbEntity
  8
Doc_ Finishes
  6
Continuous
100
AcDbLine
 10
34.07940106215578
 20
11.69679583005508
 30
0.0
 11
33.55428452006294
 21
12.08372590479937
 31
0.0
  0
LINE
  5
A9
330
1F
100
AcDbEntity
  8
Doc_ Finishes
  6
Continuous
100
AcDbLine
 10
34.8808993902439
 20
11.08876032651456
 30
0.0
 11
34.07940106215578
 21
11.69679583005508
 31
0.0
  0
LINE
  5
AA
330
1F
100
AcDbEntity
  8
Doc_ Finishes
  6
Continuous
100
AcDbLine
 10
35.59948318253343
 20
10.50836742722266
 30
0.0
 11
34.8808993902439
 21
11.08876032651456
 31
0.0
  0
LINE
  5
AB
330
1F
100
AcDbEntity
  8
Doc_ Finishes
  6
Continuous
100
AcDbLine
 10
36.56680615656963
 20
9.817421813532652
 30
0.0
 11
35.59948318253343
 21
10.50836742722266
 31
0.0
  0
LINE
  5
AC
330
1F
100
AcDbEntity
  8
Doc_ Finishes
  6
Continuous
100
AcDbLine
 10
37.06428894571204
 20
9.458129917387884
 30
0.0
 11
36.56680615656963
 21
9.817421813532652
 31
0.0
  0
LINE
  5
AD
330
1F
100
AcDbEntity
  8
Doc_ Finishes
  6
Continuous
100
AcDbLine
 10
37.8105109166011
 20
8.933013375295044
 30
0.0
 11
37.06428894571204
 21
9.458129917387884
 31
0.0
  0
LINE
  5
AE
330
1F
100
AcDbEntity
  8
Doc_ Finishes
  6
Continuous
100
AcDbLine
 10
38.61200924468922
 20
8.407892407553108
 30
0.0
 11
37.8105109166011
 21
8.933013375295044
 31
0.0
  0
LINE
  5
AF
330
1F
100
AcDbEntity
  8
Doc_ Finishes
  6
Continuous
100
AcDbLine
 10
38.77783389063729
 20
8.18679140440598
 30
0.0
 11
38.61200924468922
 21
8.407892407553108
 31
0.0
  0
LINE
  5
B0
330
1F
100
AcDbEntity
  8
Doc_ Finishes
  6
Continuous
100
AcDbLine
 10
39.3858693941778
 20
7.744584972462627
 30
0.0
 11
38.77783389063729
 21
8.18679140440598
 31
0.0
  0
LINE
  5
B1
330
1F
100
AcDbEntity
  8
Doc_ Finishes
  6
Continuous
100
AcDbLine
 10
40.18736329661684
 20
6.915448465774981
 30
0.0
 11
39.3858693941778
 21
7.744584972462627
 31
0.0
  0
LINE
  5
B2
330
1F
100
AcDbEntity
  8
Doc_ Finishes
  6
Continuous
100
AcDbLine
 10
40.79539880015735
 20
6.4456038552321
 30
0.0
 11
40.18736329661684
 21
6.915448465774981
 31
0.0
  0
LINE
  5
B3
330
1F
100
AcDbEntity
  8
Doc_ Finishes
  6
Continuous
100
AcDbLine
 10
41.56925452399685
 20
6.169226494885916
 30
0.0
 11
40.79539880015735
 21
6.4456038552321
 31
0.0
  0
LINE
  5
B4
330
1F
100
AcDbEntity
  8
Doc_ Finishes
  6
Continuous
100
AcDbLine
 10
42.23256638473643
 20
6.086316384736428
 30
0.0
 11
41.56925452399685
 21
6.169226494885916
 31
0.0
  0
LINE
  5
B5
330
1F
100
AcDbEntity
  8
Doc_ Finishes
  6
Continuous
100
AcDbLine
 10
42.48130556648308
 20
6.307417387883556
 30
0.0
 11
42.23256638473643
 21
6.086316384736428
 31
0.0
  0
LINE
  5
B6
330
1F
100
AcDbEntity
  8
Doc_ Finishes
  6
Continuous
100
AcDbLine
 10
42.14965184893784
 20
6.611432926829268
 30
0.0
 11
42.48130556648308
 21
6.307417387883556
 31
0.0
  0
LINE
  5
B7
330
1F
100
AcDbEntity
  8
Doc_ Finishes
  6
Continuous
100
AcDbLine
 10
41.48634441384736
 20
6.998363001573564
 30
0.0
 11
42.14965184893784
 21
6.611432926829268
 31
0.0
  0
LINE
  5
B8
330
1F
100
AcDbEntity
  8
Doc_ Finishes
  6
Continuous
100
AcDbLine
 10
40.76776062155783
 20
7.357654897718332
 30
0.0
 11
41.48634441384736
 21
6.998363001573564
 31
0.0
  0
LINE
  5
B9
330
1F
100
AcDbEntity
  8
Doc_ Finishes
  6
Continuous
100
AcDbLine
 10
40.18736329661684
 20
8.048600511408338
 30
0.0
 11
40.76776062155783
 21
7.357654897718332
 31
0.0
  0
LINE
  5
BA
330
1F
100
AcDbEntity
  8
Doc_ Finishes
  6
Continuous
100
AcDbLine
 10
38.99893931943352
 20
8.822460660896931
 30
0.0
 11
40.18736329661684
 21
8.048600511408338
 31
0.0
  0
LINE
  5
BB
330
1F
100
AcDbEntity
  8
Doc_ Finishes
  6
Continuous
100
AcDbLine
 10
38.47381835169158
 20
9.319939024390242
 30
0.0
 11
38.99893931943352
 21
8.822460660896931
 31
0.0
  0
LINE
  5
BC
330
1F
100
AcDbEntity
  8
Doc_ Finishes
  6
Continuous
100
AcDbLine
 10
38.22507916994492
 20
9.734507277734066
 30
0.0
 11
38.47381835169158
 21
9.319939024390242
 31
0.0
  0
LINE
  5
BD
330
1F
100
AcDbEntity
  8
Doc_ Finishes
  6
Continuous
100
AcDbLine
 10
37.17484166011014
 20
10.31490460267506
 30
0.0
 11
38.22507916994492
 21
9.734507277734066
 31
0.0
  0
LINE
  5
BE
330
1F
100
AcDbEntity
  8
Doc_ Finishes
  6
Continuous
100
AcDbLine
 10
36.7326352281668
 20
10.78474478756884
 30
0.0
 11
37.17484166011014
 21
10.31490460267506
 31
0.0
  0
LINE
  5
BF
330
1F
100
AcDbEntity
  8
Doc_ Finishes
  6
Continuous
100
AcDbLine
 10
36.23515243902439
 20
11.17167486231314
 30
0.0
 11
36.7326352281668
 21
10.78474478756884
 31
0.0
  0
LINE
  5
C0
330
1F
100
AcDbEntity
  8
Doc_ Finishes
  6
Continuous
100
AcDbLine
 10
35.48893046813532
 20
11.61388129425649
 30
0.0
 11
36.23515243902439
 21
11.17167486231314
 31
0.0
  0
LINE
  5
C1
330
1F
100
AcDbEntity
  8
Doc_ Finishes
  6
Continuous
100
AcDbLine
 10
34.85326121164437
 20
12.16663601494886
 30
0.0
 11
35.48893046813532
 21
11.61388129425649
 31
0.0
  0
LINE
  5
C2
330
1F
100
AcDbEntity
  8
Doc_ Finishes
  6
Continuous
100
AcDbLine
 10
34.35578284815106
 20
12.58120426829268
 30
0.0
 11
34.85326121164437
 21
12.16663601494886
 31
0.0
  0
LINE
  5
C3
330
1F
100
AcDbEntity
  8
Doc_ Finishes
  6
Continuous
100
AcDbLine
 10
33.69247098741149
 20
12.99577252163651
 30
0.0
 11
34.35578284815106
 21
12.58120426829268
 31
0.0
  0
LINE
  5
C4
330
1F
100
AcDbEntity
  8
Doc_ Finishes
  6
Continuous
100
AcDbLine
 10
33.2226308025177
 20
13.32742623918175
 30
0.0
 11
33.69247098741149
 21
12.99577252163651
 31
0.0
  0
LINE
  5
C5
330
1F
100
AcDbEntity
  8
Doc_ Finishes
  6
Continuous
100
AcDbLine
 10
32.7251480133753
 20
13.5761654209284
 30
0.0
 11
33.2226308025177
 21
13.32742623918175
 31
0.0
  0
LINE
  5
C6
330
1F
100
AcDbEntity
  8
Doc_ Finishes
  6
Continuous
100
AcDbLine
 10
31.93747098741148
 20
14.0644340086546
 30
0.0
 11
32.7251480133753
 21
13.5761654209284
 31
0.0
  0
LINE
  5
C7
330
1F
100
AcDbEntity
  8
Doc_ Finishes
  6
Continuous
100
AcDbLine
 10
31.43077842250197
 20
14.38687795043273
 30
0.0
 11
31.93747098741148
 21
14.0644340086546
 31
0.0
  0
LINE
  5
C8
330
1F
100
AcDbEntity
  8
Doc_ Finishes
  6
Continuous
100
AcDbLine
 10
30.92408143194335
 20
14.70931746656176
 30
0.0
 11
31.43077842250197
 21
14.38687795043273
 31
0.0
  0
LINE
  5
C9
330
1F
100
AcDbEntity
  8
Doc_ Finishes
  6
Continuous
100
AcDbLine
 10
30.62467299370574
 20
15.10085464201416
 30
0.0
 11
30.92408143194335
 21
14.70931746656176
 31
0.0
  0
LINE
  5
CA
330
1F
100
AcDbEntity
  8
Doc_ Finishes
  6
Continuous
100
AcDbLine
 10
29.95675845790716
 20
15.67664486624705
 30
0.0
 11
30.62467299370574
 21
15.10085464201416
 31
0.0
  0
LINE
  5
CB
330
1F
100
AcDbEntity
  8
Doc_ Finishes
  6
Continuous
100
AcDbLine
 10
29.47309697088906
 20
15.95302222659323
 30
0.0
 11
29.95675845790716
 21
15.67664486624705
 31
0.0
  0
LINE
  5
CC
330
1F
100
AcDbEntity
  8
Doc_ Finishes
  6
Continuous
100
AcDbLine
 10
28.8282135129819
 20
16.36759047993706
 30
0.0
 11
29.47309697088906
 21
15.95302222659323
 31
0.0
  0
LINE
  5
CD
330
1F
100
AcDbEntity
  8
Doc_ Finishes
  6
Continuous
100
AcDbLine
 10
28.50577399685287
 20
16.22939958693942
 30
0.0
 11
28.8282135129819
 21
16.36759047993706
 31
0.0
  0
LINE
  5
CE
330
1F
100
AcDbEntity
  8
Doc_ Finishes
  6
Continuous
100
AcDbLine
 10
28.06817466561763
 20
15.74573809992132
 30
0.0
 11
28.50577399685287
 21
16.22939958693942
 31
0.0
  0
LINE
  5
CF
330
1F
100
AcDbEntity
  8
Doc_ Finishes
  6
Continuous
 62
   254
370
    18
100
AcDbLine
 10
97.43333792289535
 20
5.093360051140834
 30
0.0
 11
97.43333792289535
 21
20.69901750590086
 31
0.0
  0
LINE
  5
D0
330
1F
100
AcDbEntity
  8
Doc_ Finishes
  6
Continuous
 62
   254
370
    18
100
AcDbLine
 10
7.000000491738787
 20
20.69901750590086
 30
0.0
 11
290.2406840086546
 21
20.69901750590086
 31
0.0
  0
LINE
  5
D1
330
1F
100
AcDbEntity
  8
Doc_ Finishes
  6
Continuous
 62
   254
370
    18
100
AcDbLine
 10
290.2406840086546
 20
20.69901750590086
 30
0.0
 11
290.2406840086546
 21
5.000000983477577
 31
0.0
  0
LINE
  5
D2
330
1F
100
AcDbEntity
  8
Doc_ Finishes
  6
Continuous
 62
   254
370
    18
100
AcDbLine
 10
290.2406840086546
 20
5.000000983477577
 30
0.0
 11
7.000000491738787
 21
5.000000983477577
 31
0.0
  0
LINE
  5
D3
330
1F
100
AcDbEntity
  8
Doc_ Finishes
  6
Continuous
 62
   254
370
    18
100
AcDbLine
 10
7.000000491738787
 20
20.69901750590086
 30
0.0
 11
7.000000491738787
 21
5.000000983477577
 31
0.0
  0
LINE
  5
D4
330
1F
100
AcDbEntity
  8
Doc_ Finishes
  6
Continuous
 62
   254
370
    18
100
AcDbLine
 10
190.2919443351691
 20
5.093360051140834
 30
0.0
 11
190.2919443351691
 21
20.69901750590086
 31
0.0
  0
LINE
  5
D5
330
1F
100
AcDbEntity
  8
Doc_ Finishes
  6
Continuous
 62
   254
370
    18
100
AcDbLine
 10
190.2919443351691
 20
12.8961909913454
 30
0.0
 11
290.2406840086546
 21
12.8961909913454
 31
0.0
  0
MTEXT
  5
D7
330
1F
100
AcDbEntity
  8
0
  6
Continuous
100
AcDbMText
 10
210.3494767103412
 20
15.00228492609298
 30
0.0
 40
2.25
 41
0.0
 71
     7
 72
     1
  1
{R-TRS9-08}
  7
GENERATED_STYLE_1
 73
     1
 44
1.0
  0
MTEXT
  5
D8
330
1F
100
AcDbEntity
  8
0
  6
Continuous
100
AcDbMText
 10
210.3494767103412
 20
11.03300550383743
 30
0.0
 40
3.0
 41
0.0
 71
     1
 72
     1
  1
{APRON DETAIL - HEAD}
  7
GENERATED_STYLE_1
 73
     1
 44
1.0
  0
MTEXT
  5
DA
330
1F
100
AcDbEntity
  8
Doc_ Floor
  6
Continuous
100
AcDbMText
 10
29.78353726544612
 20
13.33283672870609
 30
0.0
 40
5.603347280334726
 41
0.0
 71
     1
 72
     1
  1
{The Roofing Store}
  7
GENERATED_STYLE_2
 73
     1
 44
1.0
  0
MTEXT
  5
DC
102
{ACAD_XDICTIONARY
360
665
102
}
330
1F
100
AcDbEntity
  8
0
  6
Continuous
100
AcDbMText
 10
102.7389238446655
 20
6.378784417288159
 30
0.0
 40
1.5
 41
0.0
 71
     7
 72
     1
  1
{P: HEAD OFFICE              09 277 2717\P    ALBANY             09 972 0060\P    KATIKAIT            07 549 5190\P    WELLINGTON              04 974 5792\P    CHRISTCHURCH          03 348 6528}
  7
GENERATED_STYLE_1
 73
     1
 44
1.062946161486498
  0
MTEXT
  5
DD
330
1F
100
AcDbEntity
  8
0
  6
Continuous
100
AcDbMText
 10
149.4184566143587
 20
9.199084231526156
 30
0.0
 40
1.5
 41
0.0
 71
     7
 72
     1
  1
{WEB: www.theroofingstore.co.nz}
  7
GENERATED_STYLE_1
 73
     1
 44
1.0
  0
MTEXT
  5
DE
330
1F
100
AcDbEntity
  8
0
  6
Continuous
100
AcDbMText
 10
149.4184566143587
 20
6.620946023411263
 30
0.0
 40
1.5
 41
0.0
 71
     7
 72
     1
  1
{Copyright \U+00A9 The Roofing Store 2013}
  7
GENERATED_STYLE_1
 73
     1
 44
1.0
  0
MTEXT
  5
DF
330
1F
100
AcDbEntity
  8
0
  6
Continuous
100
AcDbMText
 10
273.9546684065315
 20
15.01595325993831
 30
0.0
 40
2.25
 41
0.0
 71
     7
 72
     1
  1
{1:5}
  7
GENERATED_STYLE_1
 73
     1
 44
1.0
  0
MTEXT
  5
E0
330
1F
100
AcDbEntity
  8
0
  6
Continuous
100
AcDbMText
 10
264.8396605309016
 20
15.51746459162148
 30
0.0
 40
1.5
 41
0.0
 71
     7
 72
     1
  1
{SCALE:}
  7
GENERATED_STYLE_1
 73
     1
 44
1.0
  0
MTEXT
  5
E1
330
1F
100
AcDbEntity
  8
0
  6
Continuous
100
AcDbMText
 10
191.5066235617487
 20
15.48695559872207
 30
0.0
 40
1.5
 41
0.0
 71
     7
 72
     1
  1
{DETAIL NUMBER:}
  7
GENERATED_STYLE_1
 73
     1
 44
1.0
  0
MTEXT
  5
E2
330
1F
100
AcDbEntity
  8
0
  6
Continuous
100
AcDbMText
 10
191.5066235617487
 20
9.005462392315325
 30
0.0
 40
1.5
 41
0.0
 71
     7
 72
     1
  1
{TITLE:}
  7
GENERATED_STYLE_1
 73
     1
 44
1.0
  0
INSERT
  5
633
102
{ACAD_XDICTIONARY
360
634
102
}
330
1F
100
AcDbEntity
  8
0
  6
Continuous
100
AcDbBlockReference
  2
Drawing_1_2
 10
28.8753134188689
 20
84.42632391951834
 30
0.0
  0
ENDSEC
  0
SECTION
  2
OBJECTS
  0
DICTIONARY
  5
C
330
0
100
AcDbDictionary
281
     1
  3
ACAD_GROUP
350
D
  3
ACAD_LAYOUT
350
1A
  3
ACAD_MATERIAL
350
3B
  3
ACAD_MLEADERSTYLE
350
660
  3
ACAD_MLINESTYLE
350
17
  3
ACAD_PLOTSETTINGS
350
19
  3
ACAD_PLOTSTYLENAME
350
E
  3
ACAD_SCALELIST
350
63A
  3
ACAD_VISUALSTYLE
350
2A
  3
AcDbVariableDictionary
350
65E
  3
WATERMARKS
350
65C
  0
DICTIONARY
  5
665
330
DC
100
AcDbDictionary
280
     1
281
     1
  3
ACAD_MTEXT_RT
360
666
  0
DICTIONARY
  5
634
330
633
100
AcDbDictionary
280
     1
281
     1
  3
ACAD_FILTER
360
635
  0
DICTIONARY
  5
D
102
{ACAD_REACTORS
330
C
102
}
330
C
100
AcDbDictionary
281
     1
  0
DICTIONARY
  5
1A
102
{ACAD_REACTORS
330
C
102
}
330
C
100
AcDbDictionary
281
     1
  3
Layout1
350
1E
  3
Model
350
22
  0
DICTIONARY
  5
3B
102
{ACAD_REACTORS
330
C
102
}
330
C
100
AcDbDictionary
281
     1
  3
ByBlock
350
3D
  3
ByLayer
350
3C
  3
Global
350
3E
  0
DICTIONARY
  5
660
102
{ACAD_REACTORS
330
C
102
}
330
C
100
AcDbDictionary
281
     1
  0
DICTIONARY
  5
17
102
{ACAD_REACTORS
330
C
102
}
330
C
100
AcDbDictionary
281
     1
  3
Standard
350
18
  0
DICTIONARY
  5
19
102
{ACAD_REACTORS
330
C
102
}
330
C
100
AcDbDictionary
281
     1
  0
ACDBDICTIONARYWDFLT
  5
E
102
{ACAD_REACTORS
330
C
102
}
330
C
100
AcDbDictionary
281
     1
  3
Normal
350
F
100
AcDbDictionaryWithDefault
340
F
  0
DICTIONARY
  5
63A
102
{ACAD_REACTORS
330
C
102
}
330
C
100
AcDbDictionary
281
     1
  3
A0
350
63B
  3
A1
350
63C
  3
A2
350
63D
  3
A3
350
63E
  3
A4
350
63F
  3
A5
350
640
  3
A6
350
641
  3
A7
350
642
  3
A8
350
643
  3
A9
350
644
  3
B0
350
645
  3
B1
350
646
  3
B2
350
647
  3
B3
350
648
  3
B4
350
649
  3
B5
350
64A
  3
B6
350
64B
  3
B7
350
64C
  3
B8
350
64D
  3
B9
350
64E
  3
C0
350
64F
  3
C1
350
650
  3
C2
350
651
  3
C3
350
652
  3
C4
350
653
  3
C5
350
654
  3
C6
350
655
  3
C7
350
656
  3
C8
350
657
  3
C9
350
658
  3
D0
350
659
  3
D1
350
65A
  3
D2
350
65B
  0
DICTIONARY
  5
2A
102
{ACAD_REACTORS
330
C
102
}
330
C
100
AcDbDictionary
281
     1
  3
2dWireframe
350
2F
  3
3D Hidden
350
31
  3
3dWireframe
350
30
  3
Basic
350
32
  3
Brighten
350
36
  3
ColorChange
350
3A
  3
Conceptual
350
34
  3
Dim
350
35
  3
Facepattern
350
39
  3
Flat
350
2B
  3
FlatWithEdges
350
2C
  3
Gouraud
350
2D
  3
GouraudWithEdges
350
2E
  3
Linepattern
350
38
  3
Realistic
350
33
  3
Thicken
350
37
  0
DICTIONARY
  5
65E
102
{ACAD_REACTORS
330
C
102
}
330
C
100
AcDbDictionary
281
     1
  3
CANNOSCALE
350
662
  3
DIMASSOC
350
663
  3
HIDETEXT
350
664
  3
XCLIPFRAME
350
661
  0
DICTIONARY
  5
65C
102
{ACAD_REACTORS
330
C
102
}
330
C
100
AcDbDictionary
281
     1
  3
AC_WATERMARK
350
65D
  0
XRECORD
  5
666
102
{ACAD_REACTORS
330
665
102
}
330
665
100
AcDbXrecord
280
     1
 40
956118.0
  1
{P: HEAD OFFICE ^I^I09 277 2717\P    ALBANY ^I^I09 972 0060\P    KATIKAIT^I^I07 549 5190\P    WELLINGTON^I^I04 974 5792\P    CHRISTCHURCH^I^I03 348 6528}
  0
DICTIONARY
  5
635
102
{ACAD_REACTORS
330
634
102
}
330
634
100
AcDbDictionary
280
     1
281
     1
  3
SPATIAL
360
636
  0
LAYOUT
  5
1E
102
{ACAD_REACTORS
330
1A
102
}
330
1A
100
AcDbPlotSettings
  1

  2
none_device
  4

  6

 40
0.0
 41
0.0
 42
0.0
 43
0.0
 44
0.0
 45
0.0
 46
0.0
 47
0.0
 48
0.0
 49
0.0
140
0.0
141
0.0
142
1.0
143
1.0
 70
   688
 72
     0
 73
     0
 74
     5
  7

 75
    16
147
1.0
148
0.0
149
0.0
100
AcDbLayout
  1
Layout1
 70
     1
 71
     1
 10
0.0
 20
0.0
 11
12.0
 21
9.0
 12
0.0
 22
0.0
 32
0.0
 14
1.000000000000000E+20
 24
1.000000000000000E+20
 34
1.000000000000000E+20
 15
-1.000000000000000E+20
 25
-1.000000000000000E+20
 35
-1.000000000000000E+20
146
0.0
 13
0.0
 23
0.0
 33
0.0
 16
1.0
 26
0.0
 36
0.0
 17
0.0
 27
1.0
 37
0.0
 76
     0
330
1B
  0
LAYOUT
  5
22
102
{ACAD_REACTORS
330
1A
102
}
330
1A
100
AcDbPlotSettings
  1

  2
none_device
  4

  6

 40
0.0
 41
0.0
 42
0.0
 43
0.0
 44
0.0
 45
0.0
 46
0.0
 47
0.0
 48
0.0
 49
0.0
140
0.0
141
0.0
142
1.0
143
1.0
 70
  1712
 72
     0
 73
     0
 74
     0
  7

 75
     0
147
1.0
148
0.0
149
0.0
100
AcDbLayout
  1
Model
 70
     1
 71
     0
 10
0.0
 20
0.0
 11
12.0
 21
9.0
 12
0.0
 22
0.0
 32
0.0
 14
1.000000000000000E+20
 24
1.000000000000000E+20
 34
1.000000000000000E+20
 15
-1.000000000000000E+20
 25
-1.000000000000000E+20
 35
-1.000000000000000E+20
146
0.0
 13
0.0
 23
0.0
 33
0.0
 16
1.0
 26
0.0
 36
0.0
 17
0.0
 27
1.0
 37
0.0
 76
     0
330
1F
331
29
  0
MATERIAL
  5
3D
102
{ACAD_REACTORS
330
3B
102
}
102
{ACAD_XDICTIONARY
360
689
102
}
330
3B
100
AcDbMaterial
  1
ByBlock
  0
MATERIAL
  5
3C
102
{ACAD_REACTORS
330
3B
102
}
102
{ACAD_XDICTIONARY
360
687
102
}
330
3B
100
AcDbMaterial
  1
ByLayer
  0
MATERIAL
  5
3E
102
{ACAD_REACTORS
330
3B
102
}
102
{ACAD_XDICTIONARY
360
68B
102
}
330
3B
100
AcDbMaterial
  1
Global
  0
MLINESTYLE
  5
18
102
{ACAD_REACTORS
330
17
102
}
330
17
100
AcDbMlineStyle
  2
Standard
 70
     0
  3

 62
   256
 51
90.0
 52
90.0
 71
     2
 49
0.5
 62
   256
  6
BYLAYER
 49
-0.5
 62
   256
  6
BYLAYER
  0
ACDBPLACEHOLDER
  5
F
102
{ACAD_REACTORS
330
E
102
}
330
E
  0
SCALE
  5
63B
102
{ACAD_REACTORS
330
63A
102
}
330
63A
100
AcDbScale
 70
     0
300
1:1
140
1.0
141
1.0
290
     1
  0
SCALE
  5
63C
102
{ACAD_REACTORS
330
63A
102
}
330
63A
100
AcDbScale
 70
     0
300
1:2
140
1.0
141
2.0
290
     0
  0
SCALE
  5
63D
102
{ACAD_REACTORS
330
63A
102
}
330
63A
100
AcDbScale
 70
     0
300
1:4
140
1.0
141
4.0
290
     0
  0
SCALE
  5
63E
102
{ACAD_REACTORS
330
63A
102
}
330
63A
100
AcDbScale
 70
     0
300
1:5
140
1.0
141
5.0
290
     0
  0
SCALE
  5
63F
102
{ACAD_REACTORS
330
63A
102
}
330
63A
100
AcDbScale
 70
     0
300
1:8
140
1.0
141
8.0
290
     0
  0
SCALE
  5
640
102
{ACAD_REACTORS
330
63A
102
}
330
63A
100
AcDbScale
 70
     0
300
1:10
140
1.0
141
10.0
290
     0
  0
SCALE
  5
641
102
{ACAD_REACTORS
330
63A
102
}
330
63A
100
AcDbScale
 70
     0
300
1:16
140
1.0
141
16.0
290
     0
  0
SCALE
  5
642
102
{ACAD_REACTORS
330
63A
102
}
330
63A
100
AcDbScale
 70
     0
300
1:20
140
1.0
141
20.0
290
     0
  0
SCALE
  5
643
102
{ACAD_REACTORS
330
63A
102
}
330
63A
100
AcDbScale
 70
     0
300
1:30
140
1.0
141
30.0
290
     0
  0
SCALE
  5
644
102
{ACAD_REACTORS
330
63A
102
}
330
63A
100
AcDbScale
 70
     0
300
1:40
140
1.0
141
40.0
290
     0
  0
SCALE
  5
645
102
{ACAD_REACTORS
330
63A
102
}
330
63A
100
AcDbScale
 70
     0
300
1:50
140
1.0
141
50.0
290
     0
  0
SCALE
  5
646
102
{ACAD_REACTORS
330
63A
102
}
330
63A
100
AcDbScale
 70
     0
300
1:100
140
1.0
141
100.0
290
     0
  0
SCALE
  5
647
102
{ACAD_REACTORS
330
63A
102
}
330
63A
100
AcDbScale
 70
     0
300
2:1
140
2.0
141
1.0
290
     0
  0
SCALE
  5
648
102
{ACAD_REACTORS
330
63A
102
}
330
63A
100
AcDbScale
 70
     0
300
4:1
140
4.0
141
1.0
290
     0
  0
SCALE
  5
649
102
{ACAD_REACTORS
330
63A
102
}
330
63A
100
AcDbScale
 70
     0
300
8:1
140
8.0
141
1.0
290
     0
  0
SCALE
  5
64A
102
{ACAD_REACTORS
330
63A
102
}
330
63A
100
AcDbScale
 70
     0
300
10:1
140
10.0
141
1.0
290
     0
  0
SCALE
  5
64B
102
{ACAD_REACTORS
330
63A
102
}
330
63A
100
AcDbScale
 70
     0
300
100:1
140
100.0
141
1.0
290
     0
  0
SCALE
  5
64C
102
{ACAD_REACTORS
330
63A
102
}
330
63A
100
AcDbScale
 70
     0
300
1/128" = 1'-0"
140
0.0078125
141
12.0
290
     0
  0
SCALE
  5
64D
102
{ACAD_REACTORS
330
63A
102
}
330
63A
100
AcDbScale
 70
     0
300
1/64" = 1'-0"
140
0.015625
141
12.0
290
     0
  0
SCALE
  5
64E
102
{ACAD_REACTORS
330
63A
102
}
330
63A
100
AcDbScale
 70
     0
300
1/32" = 1'-0"
140
0.03125
141
12.0
290
     0
  0
SCALE
  5
64F
102
{ACAD_REACTORS
330
63A
102
}
330
63A
100
AcDbScale
 70
     0
300
1/16" = 1'-0"
140
0.0625
141
12.0
290
     0
  0
SCALE
  5
650
102
{ACAD_REACTORS
330
63A
102
}
330
63A
100
AcDbScale
 70
     0
300
3/32" = 1'-0"
140
0.09375
141
12.0
290
     0
  0
SCALE
  5
651
102
{ACAD_REACTORS
330
63A
102
}
330
63A
100
AcDbScale
 70
     0
300
1/8" = 1'-0"
140
0.125
141
12.0
290
     0
  0
SCALE
  5
652
102
{ACAD_REACTORS
330
63A
102
}
330
63A
100
AcDbScale
 70
     0
300
3/16" = 1'-0"
140
0.1875
141
12.0
290
     0
  0
SCALE
  5
653
102
{ACAD_REACTORS
330
63A
102
}
330
63A
100
AcDbScale
 70
     0
300
1/4" = 1'-0"
140
0.25
141
12.0
290
     0
  0
SCALE
  5
654
102
{ACAD_REACTORS
330
63A
102
}
330
63A
100
AcDbScale
 70
     0
300
3/8" = 1'-0"
140
0.375
141
12.0
290
     0
  0
SCALE
  5
655
102
{ACAD_REACTORS
330
63A
102
}
330
63A
100
AcDbScale
 70
     0
300
1/2" = 1'-0"
140
0.5
141
12.0
290
     0
  0
SCALE
  5
656
102
{ACAD_REACTORS
330
63A
102
}
330
63A
100
AcDbScale
 70
     0
300
3/4" = 1'-0"
140
0.75
141
12.0
290
     0
  0
SCALE
  5
657
102
{ACAD_REACTORS
330
63A
102
}
330
63A
100
AcDbScale
 70
     0
300
1" = 1'-0"
140
1.0
141
12.0
290
     0
  0
SCALE
  5
658
102
{ACAD_REACTORS
330
63A
102
}
330
63A
100
AcDbScale
 70
     0
300
1-1/2" = 1'-0"
140
1.5
141
12.0
290
     0
  0
SCALE
  5
659
102
{ACAD_REACTORS
330
63A
102
}
330
63A
100
AcDbScale
 70
     0
300
3" = 1'-0"
140
3.0
141
12.0
290
     0
  0
SCALE
  5
65A
102
{ACAD_REACTORS
330
63A
102
}
330
63A
100
AcDbScale
 70
     0
300
6" = 1'-0"
140
6.0
141
12.0
290
     0
  0
SCALE
  5
65B
102
{ACAD_REACTORS
330
63A
102
}
330
63A
100
AcDbScale
 70
     0
300
1'-0" = 1'-0"
140
12.0
141
12.0
290
     0
  0
VISUALSTYLE
  5
2F
102
{ACAD_REACTORS
330
2A
102
}
102
{ACAD_XDICTIONARY
360
66F
102
}
330
2A
100
AcDbVisualStyle
  2
2dWireframe
 70
     4
 71
     0
 72
     2
 73
     0
 90
        0
 40
-0.6
 41
-30.0
 62
     5
 63
     7
 74
     1
 91
        4
 64
     7
 65
   257
 75
     1
175
     1
 42
1.0
 92
        0
 66
   257
 43
1.0
 76
     1
 77
     6
 78
     2
 67
     7
 79
     5
170
     0
171
     0
290
     0
174
     0
 93
        1
 44
0.0
173
     0
291
     0
 45
0.0
1001
ACAD
1000
AcDbSavedByObjectVersion
1070
     0
  0
VISUALSTYLE
  5
31
102
{ACAD_REACTORS
330
2A
102
}
102
{ACAD_XDICTIONARY
360
673
102
}
330
2A
100
AcDbVisualStyle
  2
3D Hidden
 70
     6
 71
     1
 72
     2
 73
     2
 90
        0
 40
-0.6
 41
-30.0
 62
     5
 63
     7
 74
     2
 91
        2
 64
     7
 65
   257
 75
     2
175
     1
 42
40.0
 92
        0
 66
   257
 43
1.0
 76
     1
 77
     6
 78
     2
 67
     7
 79
     3
170
     0
171
     0
290
     0
174
     0
 93
        1
 44
0.0
173
     0
291
     0
 45
0.0
1001
ACAD
1000
AcDbSavedByObjectVersion
1070
     0
  0
VISUALSTYLE
  5
30
102
{ACAD_REACTORS
330
2A
102
}
102
{ACAD_XDICTIONARY
360
671
102
}
330
2A
100
AcDbVisualStyle
  2
3dWireframe
 70
     5
 71
     0
 72
     2
 73
     0
 90
        0
 40
-0.6
 41
-30.0
 62
     5
 63
     7
 74
     1
 91
        4
 64
     7
 65
   257
 75
     1
175
     1
 42
1.0
 92
        0
 66
   257
 43
1.0
 76
     1
 77
     6
 78
     2
 67
     7
 79
     5
170
     0
171
     0
290
     0
174
     0
 93
        1
 44
0.0
173
     0
291
     0
 45
0.0
1001
ACAD
1000
AcDbSavedByObjectVersion
1070
     0
  0
VISUALSTYLE
  5
32
102
{ACAD_REACTORS
330
2A
102
}
102
{ACAD_XDICTIONARY
360
675
102
}
330
2A
100
AcDbVisualStyle
  2
Basic
 70
     7
 71
     1
 72
     0
 73
     1
 90
        0
 40
-0.6
 41
-30.0
 62
     5
 63
     7
 74
     0
 91
        4
 64
     7
 65
   257
 75
     1
175
     1
 42
1.0
 92
        8
 66
     7
 43
1.0
 76
     1
 77
     6
 78
     2
 67
     7
 79
     5
170
     0
171
     0
290
     0
174
     0
 93
        1
 44
0.0
173
     0
291
     1
 45
0.0
1001
ACAD
1000
AcDbSavedByObjectVersion
1070
     0
  0
VISUALSTYLE
  5
36
102
{ACAD_REACTORS
330
2A
102
}
102
{ACAD_XDICTIONARY
360
67D
102
}
330
2A
100
AcDbVisualStyle
  2
Brighten
 70
    12
 71
     2
 72
     2
 73
     0
 90
        0
 40
-0.6
 41
-30.0
 62
     5
 63
     7
 74
     1
 91
        4
 64
     7
 65
   257
 75
     1
175
     1
 42
1.0
 92
        8
 66
     7
 43
1.0
 76
     1
 77
     6
 78
     2
 67
     7
 79
     5
170
     0
171
     0
290
     0
174
     0
 93
        1
 44
50.0
173
     0
291
     1
 45
0.0
1001
ACAD
1000
AcDbSavedByObjectVersion
1070
     0
  0
VISUALSTYLE
  5
3A
102
{ACAD_REACTORS
330
2A
102
}
102
{ACAD_XDICTIONARY
360
685
102
}
330
2A
100
AcDbVisualStyle
  2
ColorChange
 70
    16
 71
     2
 72
     2
 73
     3
 90
        0
 40
-0.6
 41
-30.0
 62
     5
 63
     8
 74
     1
 91
        4
 64
     7
 65
   257
 75
     1
175
     1
 42
1.0
 92
        8
 66
     8
 43
1.0
 76
     1
 77
     6
 78
     2
 67
     7
 79
     5
170
     0
171
     0
290
     0
174
     0
 93
        1
 44
0.0
173
     0
291
     1
 45
0.0
1001
ACAD
1000
AcDbSavedByObjectVersion
1070
     0
  0
VISUALSTYLE
  5
34
102
{ACAD_REACTORS
330
2A
102
}
102
{ACAD_XDICTIONARY
360
679
102
}
330
2A
100
AcDbVisualStyle
  2
Conceptual
 70
     9
 71
     3
 72
     2
 73
     0
 90
        0
 40
-0.6
 41
-30.0
 62
     5
 63
     7
 74
     2
 91
        2
 64
     7
 65
   257
 75
     1
175
     1
 42
40.0
 92
        8
 66
     7
 43
1.0
 76
     1
 77
     6
 78
     2
 67
     7
 79
     3
170
     0
171
     0
290
     0
174
     0
 93
        1
 44
0.0
173
     0
291
     0
 45
0.0
1001
ACAD
1000
AcDbSavedByObjectVersion
1070
     0
  0
VISUALSTYLE
  5
35
102
{ACAD_REACTORS
330
2A
102
}
102
{ACAD_XDICTIONARY
360
67B
102
}
330
2A
100
AcDbVisualStyle
  2
Dim
 70
    11
 71
     2
 72
     2
 73
     0
 90
        0
 40
-0.6
 41
-30.0
 62
     5
 63
     7
 74
     1
 91
        4
 64
     7
 65
   257
 75
     1
175
     1
 42
1.0
 92
        8
 66
     7
 43
1.0
 76
     1
 77
     6
 78
     2
 67
     7
 79
     5
170
     0
171
     0
290
     0
174
     0
 93
        1
 44
-50.0
173
     0
291
     1
 45
0.0
1001
ACAD
1000
AcDbSavedByObjectVersion
1070
     0
  0
VISUALSTYLE
  5
39
102
{ACAD_REACTORS
330
2A
102
}
102
{ACAD_XDICTIONARY
360
683
102
}
330
2A
100
AcDbVisualStyle
  2
Facepattern
 70
    15
 71
     2
 72
     2
 73
     0
 90
        0
 40
-0.6
 41
-30.0
 62
     5
 63
     7
 74
     1
 91
        4
 64
     7
 65
   257
 75
     1
175
     1
 42
1.0
 92
        8
 66
     7
 43
1.0
 76
     1
 77
     6
 78
     2
 67
     7
 79
     5
170
     0
171
     0
290
     0
174
     0
 93
        1
 44
0.0
173
     0
291
     1
 45
0.0
1001
ACAD
1000
AcDbSavedByObjectVersion
1070
     0
  0
VISUALSTYLE
  5
2B
102
{ACAD_REACTORS
330
2A
102
}
102
{ACAD_XDICTIONARY
360
667
102
}
330
2A
100
AcDbVisualStyle
  2
Flat
 70
     0
 71
     2
 72
     1
 73
     1
 90
        2
 40
-0.6
 41
30.0
 62
     5
 63
     7
 74
     0
 91
        4
 64
     7
 65
   257
 75
     1
175
     1
 42
1.0
 92
        8
 66
     7
 43
1.0
 76
     1
 77
     6
 78
     2
 67
     7
 79
     5
170
     0
171
     0
290
     0
174
     0
 93
       13
 44
0.0
173
     0
291
     1
 45
0.0
1001
ACAD
1000
AcDbSavedByObjectVersion
1070
     0
  0
VISUALSTYLE
  5
2C
102
{ACAD_REACTORS
330
2A
102
}
102
{ACAD_XDICTIONARY
360
669
102
}
330
2A
100
AcDbVisualStyle
  2
FlatWithEdges
 70
     1
 71
     2
 72
     1
 73
     1
 90
        2
 40
-0.6
 41
30.0
 62
     5
 63
     7
 74
     1
 91
        4
 64
     7
 65
   257
 75
     1
175
     1
 42
1.0
 92
        0
 66
   257
 43
1.0
 76
     1
 77
     6
 78
     2
 67
     7
 79
     5
170
     0
171
     0
290
     0
174
     0
 93
       13
 44
0.0
173
     0
291
     1
 45
0.0
1001
ACAD
1000
AcDbSavedByObjectVersion
1070
     0
  0
VISUALSTYLE
  5
2D
102
{ACAD_REACTORS
330
2A
102
}
102
{ACAD_XDICTIONARY
360
66B
102
}
330
2A
100
AcDbVisualStyle
  2
Gouraud
 70
     2
 71
     2
 72
     2
 73
     1
 90
        2
 40
-0.6
 41
30.0
 62
     5
 63
     7
 74
     0
 91
        4
 64
     7
 65
   257
 75
     1
175
     1
 42
1.0
 92
        0
 66
     7
 43
1.0
 76
     1
 77
     6
 78
     2
 67
     7
 79
     5
170
     0
171
     0
290
     0
174
     0
 93
       13
 44
0.0
173
     0
291
     1
 45
0.0
1001
ACAD
1000
AcDbSavedByObjectVersion
1070
     0
  0
VISUALSTYLE
  5
2E
102
{ACAD_REACTORS
330
2A
102
}
102
{ACAD_XDICTIONARY
360
66D
102
}
330
2A
100
AcDbVisualStyle
  2
GouraudWithEdges
 70
     3
 71
     2
 72
     2
 73
     1
 90
        2
 40
-0.6
 41
30.0
 62
     5
 63
     7
 74
     1
 91
        4
 64
     7
 65
   257
 75
     1
175
     1
 42
1.0
 92
        0
 66
   257
 43
1.0
 76
     1
 77
     6
 78
     2
 67
     7
 79
     5
170
     0
171
     0
290
     0
174
     0
 93
       13
 44
0.0
173
     0
291
     1
 45
0.0
1001
ACAD
1000
AcDbSavedByObjectVersion
1070
     0
  0
VISUALSTYLE
  5
38
102
{ACAD_REACTORS
330
2A
102
}
102
{ACAD_XDICTIONARY
360
681
102
}
330
2A
100
AcDbVisualStyle
  2
Linepattern
 70
    14
 71
     2
 72
     2
 73
     0
 90
        0
 40
-0.6
 41
-30.0
 62
     5
 63
     7
 74
     1
 91
        4
 64
     7
 65
   257
 75
     7
175
     7
 42
1.0
 92
        8
 66
     7
 43
1.0
 76
     1
 77
     6
 78
     2
 67
     7
 79
     5
170
     0
171
     0
290
     0
174
     0
 93
        1
 44
0.0
173
     0
291
     1
 45
0.0
1001
ACAD
1000
AcDbSavedByObjectVersion
1070
     0
  0
VISUALSTYLE
  5
33
102
{ACAD_REACTORS
330
2A
102
}
102
{ACAD_XDICTIONARY
360
677
102
}
330
2A
100
AcDbVisualStyle
  2
Realistic
 70
     8
 71
     2
 72
     2
 73
     0
 90
        0
 40
-0.6
 41
-30.0
 62
     5
 63
     7
 74
     1
 91
        0
 64
     7
 65
   257
 75
     1
175
     1
 42
1.0
 92
        8
 66
     8
 43
1.0
 76
     1
 77
     6
 78
     2
 67
     7
 79
     5
170
     0
171
     0
290
     0
174
     0
 93
       13
 44
0.0
173
     0
291
     0
 45
0.0
1001
ACAD
1000
AcDbSavedByObjectVersion
1070
     0
  0
VISUALSTYLE
  5
37
102
{ACAD_REACTORS
330
2A
102
}
102
{ACAD_XDICTIONARY
360
67F
102
}
330
2A
100
AcDbVisualStyle
  2
Thicken
 70
    13
 71
     2
 72
     2
 73
     0
 90
        0
 40
-0.6
 41
-30.0
 62
     5
 63
     7
 74
     1
 91
        4
 64
     7
 65
   257
 75
     1
175
     1
 42
1.0
 92
       12
 66
     7
 43
1.0
 76
     1
 77
     6
 78
     2
 67
     7
 79
     5
170
     0
171
     0
290
     0
174
     0
 93
        1
 44
0.0
173
     0
291
     1
 45
0.0
1001
ACAD
1000
AcDbSavedByObjectVersion
1070
     0
  0
DICTIONARYVAR
  5
662
102
{ACAD_REACTORS
330
65E
102
}
330
65E
100
DictionaryVariables
280
     0
  1
1:1
  0
DICTIONARYVAR
  5
663
102
{ACAD_REACTORS
330
65E
102
}
330
65E
100
DictionaryVariables
280
     0
  1
2
  0
DICTIONARYVAR
  5
664
102
{ACAD_REACTORS
330
65E
102
}
330
65E
100
DictionaryVariables
280
     0
  1
1
  0
DICTIONARYVAR
  5
661
102
{ACAD_REACTORS
330
65E
102
}
330
65E
100
DictionaryVariables
280
     0
  1
0
  0
XRECORD
  5
65D
102
{ACAD_REACTORS
330
65C
102
}
330
65C
100
AcDbXrecord
280
     1
1000
This DWG file was created in ArchiCAD(TM)®
  0
SPATIAL_FILTER
  5
636
102
{ACAD_REACTORS
330
635
102
}
330
635
100
AcDbFilter
100
AcDbSpatialFilter
 70
     4
 10
35.31939230675121
 20
28.70874748131841
 10
262.7738466327844
 20
28.70874748131841
 10
262.7738466327844
 20
192.5142927135917
 10
35.31939230675121
 20
192.5142927135917
210
0.0
220
0.0
230
1.0
 11
0.0
 21
0.0
 31
0.0
 71
     1
 72
     0
 73
     0
 40
1.0
 40
0.0
 40
0.0
 40
0.0
 40
0.0
 40
1.0
 40
0.0
 40
0.0
 40
0.0
 40
0.0
 40
1.0
 40
0.0
 40
1.0
 40
0.0
 40
0.0
 40
0.0
 40
0.0
 40
1.0
 40
0.0
 40
0.0
 40
0.0
 40
0.0
 40
1.0
 40
0.0
  0
DICTIONARY
  5
689
330
3D
100
AcDbDictionary
280
     1
281
     1
  3
ACAD_XREC_ROUNDTRIP
360
68A
  0
DICTIONARY
  5
687
330
3C
100
AcDbDictionary
280
     1
281
     1
  3
ACAD_XREC_ROUNDTRIP
360
688
  0
DICTIONARY
  5
68B
330
3E
100
AcDbDictionary
280
     1
281
     1
  3
ACAD_XREC_ROUNDTRIP
360
68C
  0
DICTIONARY
  5
66F
330
2F
100
AcDbDictionary
280
     1
281
     1
  3
ACAD_XREC_ROUNDTRIP
360
670
  0
DICTIONARY
  5
673
330
31
100
AcDbDictionary
280
     1
281
     1
  3
ACAD_XREC_ROUNDTRIP
360
674
  0
DICTIONARY
  5
671
330
30
100
AcDbDictionary
280
     1
281
     1
  3
ACAD_XREC_ROUNDTRIP
360
672
  0
DICTIONARY
  5
675
330
32
100
AcDbDictionary
280
     1
281
     1
  3
ACAD_XREC_ROUNDTRIP
360
676
  0
DICTIONARY
  5
67D
330
36
100
AcDbDictionary
280
     1
281
     1
  3
ACAD_XREC_ROUNDTRIP
360
67E
  0
DICTIONARY
  5
685
330
3A
100
AcDbDictionary
280
     1
281
     1
  3
ACAD_XREC_ROUNDTRIP
360
686
  0
DICTIONARY
  5
679
330
34
100
AcDbDictionary
280
     1
281
     1
  3
ACAD_XREC_ROUNDTRIP
360
67A
  0
DICTIONARY
  5
67B
330
35
100
AcDbDictionary
280
     1
281
     1
  3
ACAD_XREC_ROUNDTRIP
360
67C
  0
DICTIONARY
  5
683
330
39
100
AcDbDictionary
280
     1
281
     1
  3
ACAD_XREC_ROUNDTRIP
360
684
  0
DICTIONARY
  5
667
330
2B
100
AcDbDictionary
280
     1
281
     1
  3
ACAD_XREC_ROUNDTRIP
360
668
  0
DICTIONARY
  5
669
330
2C
100
AcDbDictionary
280
     1
281
     1
  3
ACAD_XREC_ROUNDTRIP
360
66A
  0
DICTIONARY
  5
66B
330
2D
100
AcDbDictionary
280
     1
281
     1
  3
ACAD_XREC_ROUNDTRIP
360
66C
  0
DICTIONARY
  5
66D
330
2E
100
AcDbDictionary
280
     1
281
     1
  3
ACAD_XREC_ROUNDTRIP
360
66E
  0
DICTIONARY
  5
681
330
38
100
AcDbDictionary
280
     1
281
     1
  3
ACAD_XREC_ROUNDTRIP
360
682
  0
DICTIONARY
  5
677
330
33
100
AcDbDictionary
280
     1
281
     1
  3
ACAD_XREC_ROUNDTRIP
360
678
  0
DICTIONARY
  5
67F
330
37
100
AcDbDictionary
280
     1
281
     1
  3
ACAD_XREC_ROUNDTRIP
360
680
  0
XRECORD
  5
68A
102
{ACAD_REACTORS
330
689
102
}
330
689
100
AcDbXrecord
280
     1
102
MATERIAL
148
0.0
149
0.0
149
0.0
 93
        0
 94
      127
282
     0
 72
     1
 77
     1
171
     1
175
     1
179
     1
273
     0
  0
XRECORD
  5
688
102
{ACAD_REACTORS
330
687
102
}
330
687
100
AcDbXrecord
280
     1
102
MATERIAL
148
0.0
149
0.0
149
0.0
 93
        0
 94
      127
282
     0
 72
     1
 77
     1
171
     1
175
     1
179
     1
273
     0
  0
XRECORD
  5
68C
102
{ACAD_REACTORS
330
68B
102
}
330
68B
100
AcDbXrecord
280
     1
102
MATERIAL
148
0.0
149
0.0
149
0.0
 93
        0
 94
      127
282
     0
 72
     1
 77
     1
171
     1
175
     1
179
     1
273
     0
  0
XRECORD
  5
670
102
{ACAD_REACTORS
330
66F
102
}
330
66F
100
AcDbXrecord
280
     1
102
RTVSPropertyOp0
 70
     1
102
RTVSPropertyOp1
 70
     1
102
RTVSPropertyOp2
 70
     1
102
RTVSPropertyOp3
 70
     1
102
RTVSPropertyOp4
 70
     1
102
RTVSPropertyOp5
 70
     1
102
RTVSPropertyOp6
 70
     1
102
RTVSPropertyOp7
 70
     1
102
RTVSPropertyOp8
 70
     1
102
RTVSPropertyOp9
 70
     1
102
RTVSPropertyOp10
 70
     1
102
RTVSPropertyOp11
 70
     1
102
RTVSPropertyOp12
 70
     1
102
RTVSPropertyOp13
 70
     1
102
RTVSPropertyOp14
 70
     1
102
RTVSPropertyOp15
 70
     1
102
RTVSPropertyOp16
 70
     1
102
RTVSPropertyOp17
 70
     1
102
RTVSPropertyOp18
 70
     1
102
RTVSPropertyOp19
 70
     1
102
RTVSPropertyOp20
 70
     1
102
RTVSPropertyOp21
 70
     1
102
RTVSPropertyOp22
 70
     1
102
RTVSPropertyOp23
 70
     1
102
RTVSPropertyOp24
 70
     1
102
RTVSPropertyOp25
 70
     1
102
RTVSPropertyOp26
 70
     1
102
RTVSPropertyOp27
 70
     1
102
RTVSPropertyOp28
 70
     1
102
RTVSPropertyOp29
 70
     1
102
RTVSPropertyOp30
 70
     1
102
RTVSPropertyOp31
 70
     1
102
RTVSPropertyOp32
 70
     1
  0
XRECORD
  5
674
102
{ACAD_REACTORS
330
673
102
}
330
673
100
AcDbXrecord
280
     1
102
RTVSPropertyOp0
 70
     1
102
RTVSPropertyOp1
 70
     1
102
RTVSPropertyOp2
 70
     1
102
RTVSPropertyOp3
 70
     1
102
RTVSPropertyOp4
 70
     1
102
RTVSPropertyOp5
 70
     1
102
RTVSPropertyOp6
 70
     1
102
RTVSPropertyOp7
 70
     1
102
RTVSPropertyOp8
 70
     1
102
RTVSPropertyOp9
 70
     1
102
RTVSPropertyOp10
 70
     1
102
RTVSPropertyOp11
 70
     1
102
RTVSPropertyOp12
 70
     1
102
RTVSPropertyOp13
 70
     1
102
RTVSPropertyOp14
 70
     1
102
RTVSPropertyOp15
 70
     1
102
RTVSPropertyOp16
 70
     1
102
RTVSPropertyOp17
 70
     1
102
RTVSPropertyOp18
 70
     1
102
RTVSPropertyOp19
 70
     1
102
RTVSPropertyOp20
 70
     1
102
RTVSPropertyOp21
 70
     1
102
RTVSPropertyOp22
 70
     1
102
RTVSPropertyOp23
 70
     1
102
RTVSPropertyOp24
 70
     1
102
RTVSPropertyOp25
 70
     1
102
RTVSPropertyOp26
 70
     1
102
RTVSPropertyOp27
 70
     1
102
RTVSPropertyOp28
 70
     1
102
RTVSPropertyOp29
 70
     1
102
RTVSPropertyOp30
 70
     1
102
RTVSPropertyOp31
 70
     1
102
RTVSPropertyOp32
 70
     1
  0
XRECORD
  5
672
102
{ACAD_REACTORS
330
671
102
}
330
671
100
AcDbXrecord
280
     1
102
RTVSPropertyOp0
 70
     1
102
RTVSPropertyOp1
 70
     1
102
RTVSPropertyOp2
 70
     1
102
RTVSPropertyOp3
 70
     1
102
RTVSPropertyOp4
 70
     1
102
RTVSPropertyOp5
 70
     1
102
RTVSPropertyOp6
 70
     1
102
RTVSPropertyOp7
 70
     1
102
RTVSPropertyOp8
 70
     1
102
RTVSPropertyOp9
 70
     1
102
RTVSPropertyOp10
 70
     1
102
RTVSPropertyOp11
 70
     1
102
RTVSPropertyOp12
 70
     1
102
RTVSPropertyOp13
 70
     1
102
RTVSPropertyOp14
 70
     1
102
RTVSPropertyOp15
 70
     1
102
RTVSPropertyOp16
 70
     1
102
RTVSPropertyOp17
 70
     1
102
RTVSPropertyOp18
 70
     1
102
RTVSPropertyOp19
 70
     1
102
RTVSPropertyOp20
 70
     1
102
RTVSPropertyOp21
 70
     1
102
RTVSPropertyOp22
 70
     1
102
RTVSPropertyOp23
 70
     1
102
RTVSPropertyOp24
 70
     1
102
RTVSPropertyOp25
 70
     1
102
RTVSPropertyOp26
 70
     1
102
RTVSPropertyOp27
 70
     1
102
RTVSPropertyOp28
 70
     1
102
RTVSPropertyOp29
 70
     1
102
RTVSPropertyOp30
 70
     1
102
RTVSPropertyOp31
 70
     1
102
RTVSPropertyOp32
 70
     1
  0
XRECORD
  5
676
102
{ACAD_REACTORS
330
675
102
}
330
675
100
AcDbXrecord
280
     1
102
RTVSPropertyOp0
 70
     1
102
RTVSPropertyOp1
 70
     1
102
RTVSPropertyOp2
 70
     1
102
RTVSPropertyOp3
 70
     1
102
RTVSPropertyOp4
 70
     1
102
RTVSPropertyOp5
 70
     1
102
RTVSPropertyOp6
 70
     1
102
RTVSPropertyOp7
 70
     1
102
RTVSPropertyOp8
 70
     1
102
RTVSPropertyOp9
 70
     1
102
RTVSPropertyOp10
 70
     1
102
RTVSPropertyOp11
 70
     1
102
RTVSPropertyOp12
 70
     1
102
RTVSPropertyOp13
 70
     1
102
RTVSPropertyOp14
 70
     1
102
RTVSPropertyOp15
 70
     1
102
RTVSPropertyOp16
 70
     1
102
RTVSPropertyOp17
 70
     1
102
RTVSPropertyOp18
 70
     1
102
RTVSPropertyOp19
 70
     1
102
RTVSPropertyOp20
 70
     1
102
RTVSPropertyOp21
 70
     1
102
RTVSPropertyOp22
 70
     1
102
RTVSPropertyOp23
 70
     1
102
RTVSPropertyOp24
 70
     1
102
RTVSPropertyOp25
 70
     1
102
RTVSPropertyOp26
 70
     1
102
RTVSPropertyOp27
 70
     1
102
RTVSPropertyOp28
 70
     1
102
RTVSPropertyOp29
 70
     1
102
RTVSPropertyOp30
 70
     1
102
RTVSPropertyOp31
 70
     1
102
RTVSPropertyOp32
 70
     1
  0
XRECORD
  5
67E
102
{ACAD_REACTORS
330
67D
102
}
330
67D
100
AcDbXrecord
280
     1
102
RTVSPropertyOp0
 70
     1
102
RTVSPropertyOp1
 70
     1
102
RTVSPropertyOp2
 70
     1
102
RTVSPropertyOp3
 70
     1
102
RTVSPropertyOp4
 70
     1
102
RTVSPropertyOp5
 70
     1
102
RTVSPropertyOp6
 70
     1
102
RTVSPropertyOp7
 70
     1
102
RTVSPropertyOp8
 70
     1
102
RTVSPropertyOp9
 70
     1
102
RTVSPropertyOp10
 70
     1
102
RTVSPropertyOp11
 70
     1
102
RTVSPropertyOp12
 70
     1
102
RTVSPropertyOp13
 70
     1
102
RTVSPropertyOp14
 70
     1
102
RTVSPropertyOp15
 70
     1
102
RTVSPropertyOp16
 70
     1
102
RTVSPropertyOp17
 70
     1
102
RTVSPropertyOp18
 70
     1
102
RTVSPropertyOp19
 70
     1
102
RTVSPropertyOp20
 70
     1
102
RTVSPropertyOp21
 70
     1
102
RTVSPropertyOp22
 70
     1
102
RTVSPropertyOp23
 70
     1
102
RTVSPropertyOp24
 70
     1
102
RTVSPropertyOp25
 70
     1
102
RTVSPropertyOp26
 70
     1
102
RTVSPropertyOp27
 70
     1
102
RTVSPropertyOp28
 70
     1
102
RTVSPropertyOp29
 70
     1
102
RTVSPropertyOp30
 70
     1
102
RTVSPropertyOp31
 70
     1
102
RTVSPropertyOp32
 70
     1
  0
XRECORD
  5
686
102
{ACAD_REACTORS
330
685
102
}
330
685
100
AcDbXrecord
280
     1
102
RTVSPropertyOp0
 70
     1
102
RTVSPropertyOp1
 70
     1
102
RTVSPropertyOp2
 70
     1
102
RTVSPropertyOp3
 70
     1
102
RTVSPropertyOp4
 70
     1
102
RTVSPropertyOp5
 70
     1
102
RTVSPropertyOp6
 70
     1
102
RTVSPropertyOp7
 70
     1
102
RTVSPropertyOp8
 70
     1
102
RTVSPropertyOp9
 70
     1
102
RTVSPropertyOp10
 70
     1
102
RTVSPropertyOp11
 70
     1
102
RTVSPropertyOp12
 70
     1
102
RTVSPropertyOp13
 70
     1
102
RTVSPropertyOp14
 70
     1
102
RTVSPropertyOp15
 70
     1
102
RTVSPropertyOp16
 70
     1
102
RTVSPropertyOp17
 70
     1
102
RTVSPropertyOp18
 70
     1
102
RTVSPropertyOp19
 70
     1
102
RTVSPropertyOp20
 70
     1
102
RTVSPropertyOp21
 70
     1
102
RTVSPropertyOp22
 70
     1
102
RTVSPropertyOp23
 70
     1
102
RTVSPropertyOp24
 70
     1
102
RTVSPropertyOp25
 70
     1
102
RTVSPropertyOp26
 70
     1
102
RTVSPropertyOp27
 70
     1
102
RTVSPropertyOp28
 70
     1
102
RTVSPropertyOp29
 70
     1
102
RTVSPropertyOp30
 70
     1
102
RTVSPropertyOp31
 70
     1
102
RTVSPropertyOp32
 70
     1
  0
XRECORD
  5
67A
102
{ACAD_REACTORS
330
679
102
}
330
679
100
AcDbXrecord
280
     1
102
RTVSPropertyOp0
 70
     1
102
RTVSPropertyOp1
 70
     1
102
RTVSPropertyOp2
 70
     1
102
RTVSPropertyOp3
 70
     1
102
RTVSPropertyOp4
 70
     1
102
RTVSPropertyOp5
 70
     1
102
RTVSPropertyOp6
 70
     1
102
RTVSPropertyOp7
 70
     1
102
RTVSPropertyOp8
 70
     1
102
RTVSPropertyOp9
 70
     1
102
RTVSPropertyOp10
 70
     1
102
RTVSPropertyOp11
 70
     1
102
RTVSPropertyOp12
 70
     1
102
RTVSPropertyOp13
 70
     1
102
RTVSPropertyOp14
 70
     1
102
RTVSPropertyOp15
 70
     1
102
RTVSPropertyOp16
 70
     1
102
RTVSPropertyOp17
 70
     1
102
RTVSPropertyOp18
 70
     1
102
RTVSPropertyOp19
 70
     1
102
RTVSPropertyOp20
 70
     1
102
RTVSPropertyOp21
 70
     1
102
RTVSPropertyOp22
 70
     1
102
RTVSPropertyOp23
 70
     1
102
RTVSPropertyOp24
 70
     1
102
RTVSPropertyOp25
 70
     1
102
RTVSPropertyOp26
 70
     1
102
RTVSPropertyOp27
 70
     1
102
RTVSPropertyOp28
 70
     1
102
RTVSPropertyOp29
 70
     1
102
RTVSPropertyOp30
 70
     1
102
RTVSPropertyOp31
 70
     1
102
RTVSPropertyOp32
 70
     1
  0
XRECORD
  5
67C
102
{ACAD_REACTORS
330
67B
102
}
330
67B
100
AcDbXrecord
280
     1
102
RTVSPropertyOp0
 70
     1
102
RTVSPropertyOp1
 70
     1
102
RTVSPropertyOp2
 70
     1
102
RTVSPropertyOp3
 70
     1
102
RTVSPropertyOp4
 70
     1
102
RTVSPropertyOp5
 70
     1
102
RTVSPropertyOp6
 70
     1
102
RTVSPropertyOp7
 70
     1
102
RTVSPropertyOp8
 70
     1
102
RTVSPropertyOp9
 70
     1
102
RTVSPropertyOp10
 70
     1
102
RTVSPropertyOp11
 70
     1
102
RTVSPropertyOp12
 70
     1
102
RTVSPropertyOp13
 70
     1
102
RTVSPropertyOp14
 70
     1
102
RTVSPropertyOp15
 70
     1
102
RTVSPropertyOp16
 70
     1
102
RTVSPropertyOp17
 70
     1
102
RTVSPropertyOp18
 70
     1
102
RTVSPropertyOp19
 70
     1
102
RTVSPropertyOp20
 70
     1
102
RTVSPropertyOp21
 70
     1
102
RTVSPropertyOp22
 70
     1
102
RTVSPropertyOp23
 70
     1
102
RTVSPropertyOp24
 70
     1
102
RTVSPropertyOp25
 70
     1
102
RTVSPropertyOp26
 70
     1
102
RTVSPropertyOp27
 70
     1
102
RTVSPropertyOp28
 70
     1
102
RTVSPropertyOp29
 70
     1
102
RTVSPropertyOp30
 70
     1
102
RTVSPropertyOp31
 70
     1
102
RTVSPropertyOp32
 70
     1
  0
XRECORD
  5
684
102
{ACAD_REACTORS
330
683
102
}
330
683
100
AcDbXrecord
280
     1
102
RTVSPropertyOp0
 70
     1
102
RTVSPropertyOp1
 70
     1
102
RTVSPropertyOp2
 70
     1
102
RTVSPropertyOp3
 70
     1
102
RTVSPropertyOp4
 70
     1
102
RTVSPropertyOp5
 70
     1
102
RTVSPropertyOp6
 70
     1
102
RTVSPropertyOp7
 70
     1
102
RTVSPropertyOp8
 70
     1
102
RTVSPropertyOp9
 70
     1
102
RTVSPropertyOp10
 70
     1
102
RTVSPropertyOp11
 70
     1
102
RTVSPropertyOp12
 70
     1
102
RTVSPropertyOp13
 70
     1
102
RTVSPropertyOp14
 70
     1
102
RTVSPropertyOp15
 70
     1
102
RTVSPropertyOp16
 70
     1
102
RTVSPropertyOp17
 70
     1
102
RTVSPropertyOp18
 70
     1
102
RTVSPropertyOp19
 70
     1
102
RTVSPropertyOp20
 70
     1
102
RTVSPropertyOp21
 70
     1
102
RTVSPropertyOp22
 70
     1
102
RTVSPropertyOp23
 70
     1
102
RTVSPropertyOp24
 70
     1
102
RTVSPropertyOp25
 70
     1
102
RTVSPropertyOp26
 70
     1
102
RTVSPropertyOp27
 70
     1
102
RTVSPropertyOp28
 70
     1
102
RTVSPropertyOp29
 70
     1
102
RTVSPropertyOp30
 70
     1
102
RTVSPropertyOp31
 70
     1
102
RTVSPropertyOp32
 70
     1
  0
XRECORD
  5
668
102
{ACAD_REACTORS
330
667
102
}
330
667
100
AcDbXrecord
280
     1
102
RTVSPropertyOp0
 70
     1
102
RTVSPropertyOp1
 70
     1
102
RTVSPropertyOp2
 70
     1
102
RTVSPropertyOp3
 70
     1
102
RTVSPropertyOp4
 70
     1
102
RTVSPropertyOp5
 70
     1
102
RTVSPropertyOp6
 70
     1
102
RTVSPropertyOp7
 70
     1
102
RTVSPropertyOp8
 70
     1
102
RTVSPropertyOp9
 70
     1
102
RTVSPropertyOp10
 70
     1
102
RTVSPropertyOp11
 70
     1
102
RTVSPropertyOp12
 70
     1
102
RTVSPropertyOp13
 70
     1
102
RTVSPropertyOp14
 70
     1
102
RTVSPropertyOp15
 70
     1
102
RTVSPropertyOp16
 70
     1
102
RTVSPropertyOp17
 70
     1
102
RTVSPropertyOp18
 70
     1
102
RTVSPropertyOp19
 70
     1
102
RTVSPropertyOp20
 70
     1
102
RTVSPropertyOp21
 70
     1
102
RTVSPropertyOp22
 70
     1
102
RTVSPropertyOp23
 70
     1
102
RTVSPropertyOp24
 70
     1
102
RTVSPropertyOp25
 70
     1
102
RTVSPropertyOp26
 70
     1
102
RTVSPropertyOp27
 70
     1
102
RTVSPropertyOp28
 70
     1
102
RTVSPropertyOp29
 70
     1
102
RTVSPropertyOp30
 70
     1
102
RTVSPropertyOp31
 70
     1
102
RTVSPropertyOp32
 70
     1
  0
XRECORD
  5
66A
102
{ACAD_REACTORS
330
669
102
}
330
669
100
AcDbXrecord
280
     1
102
RTVSPropertyOp0
 70
     1
102
RTVSPropertyOp1
 70
     1
102
RTVSPropertyOp2
 70
     1
102
RTVSPropertyOp3
 70
     1
102
RTVSPropertyOp4
 70
     1
102
RTVSPropertyOp5
 70
     1
102
RTVSPropertyOp6
 70
     1
102
RTVSPropertyOp7
 70
     1
102
RTVSPropertyOp8
 70
     1
102
RTVSPropertyOp9
 70
     1
102
RTVSPropertyOp10
 70
     1
102
RTVSPropertyOp11
 70
     1
102
RTVSPropertyOp12
 70
     1
102
RTVSPropertyOp13
 70
     1
102
RTVSPropertyOp14
 70
     1
102
RTVSPropertyOp15
 70
     1
102
RTVSPropertyOp16
 70
     1
102
RTVSPropertyOp17
 70
     1
102
RTVSPropertyOp18
 70
     1
102
RTVSPropertyOp19
 70
     1
102
RTVSPropertyOp20
 70
     1
102
RTVSPropertyOp21
 70
     1
102
RTVSPropertyOp22
 70
     1
102
RTVSPropertyOp23
 70
     1
102
RTVSPropertyOp24
 70
     1
102
RTVSPropertyOp25
 70
     1
102
RTVSPropertyOp26
 70
     1
102
RTVSPropertyOp27
 70
     1
102
RTVSPropertyOp28
 70
     1
102
RTVSPropertyOp29
 70
     1
102
RTVSPropertyOp30
 70
     1
102
RTVSPropertyOp31
 70
     1
102
RTVSPropertyOp32
 70
     1
  0
XRECORD
  5
66C
102
{ACAD_REACTORS
330
66B
102
}
330
66B
100
AcDbXrecord
280
     1
102
RTVSPropertyOp0
 70
     1
102
RTVSPropertyOp1
 70
     1
102
RTVSPropertyOp2
 70
     1
102
RTVSPropertyOp3
 70
     1
102
RTVSPropertyOp4
 70
     1
102
RTVSPropertyOp5
 70
     1
102
RTVSPropertyOp6
 70
     1
102
RTVSPropertyOp7
 70
     1
102
RTVSPropertyOp8
 70
     1
102
RTVSPropertyOp9
 70
     1
102
RTVSPropertyOp10
 70
     1
102
RTVSPropertyOp11
 70
     1
102
RTVSPropertyOp12
 70
     1
102
RTVSPropertyOp13
 70
     1
102
RTVSPropertyOp14
 70
     1
102
RTVSPropertyOp15
 70
     1
102
RTVSPropertyOp16
 70
     1
102
RTVSPropertyOp17
 70
     1
102
RTVSPropertyOp18
 70
     1
102
RTVSPropertyOp19
 70
     1
102
RTVSPropertyOp20
 70
     1
102
RTVSPropertyOp21
 70
     1
102
RTVSPropertyOp22
 70
     1
102
RTVSPropertyOp23
 70
     1
102
RTVSPropertyOp24
 70
     1
102
RTVSPropertyOp25
 70
     1
102
RTVSPropertyOp26
 70
     1
102
RTVSPropertyOp27
 70
     1
102
RTVSPropertyOp28
 70
     1
102
RTVSPropertyOp29
 70
     1
102
RTVSPropertyOp30
 70
     1
102
RTVSPropertyOp31
 70
     1
102
RTVSPropertyOp32
 70
     1
  0
XRECORD
  5
66E
102
{ACAD_REACTORS
330
66D
102
}
330
66D
100
AcDbXrecord
280
     1
102
RTVSPropertyOp0
 70
     1
102
RTVSPropertyOp1
 70
     1
102
RTVSPropertyOp2
 70
     1
102
RTVSPropertyOp3
 70
     1
102
RTVSPropertyOp4
 70
     1
102
RTVSPropertyOp5
 70
     1
102
RTVSPropertyOp6
 70
     1
102
RTVSPropertyOp7
 70
     1
102
RTVSPropertyOp8
 70
     1
102
RTVSPropertyOp9
 70
     1
102
RTVSPropertyOp10
 70
     1
102
RTVSPropertyOp11
 70
     1
102
RTVSPropertyOp12
 70
     1
102
RTVSPropertyOp13
 70
     1
102
RTVSPropertyOp14
 70
     1
102
RTVSPropertyOp15
 70
     1
102
RTVSPropertyOp16
 70
     1
102
RTVSPropertyOp17
 70
     1
102
RTVSPropertyOp18
 70
     1
102
RTVSPropertyOp19
 70
     1
102
RTVSPropertyOp20
 70
     1
102
RTVSPropertyOp21
 70
     1
102
RTVSPropertyOp22
 70
     1
102
RTVSPropertyOp23
 70
     1
102
RTVSPropertyOp24
 70
     1
102
RTVSPropertyOp25
 70
     1
102
RTVSPropertyOp26
 70
     1
102
RTVSPropertyOp27
 70
     1
102
RTVSPropertyOp28
 70
     1
102
RTVSPropertyOp29
 70
     1
102
RTVSPropertyOp30
 70
     1
102
RTVSPropertyOp31
 70
     1
102
RTVSPropertyOp32
 70
     1
  0
XRECORD
  5
682
102
{ACAD_REACTORS
330
681
102
}
330
681
100
AcDbXrecord
280
     1
102
RTVSPropertyOp0
 70
     1
102
RTVSPropertyOp1
 70
     1
102
RTVSPropertyOp2
 70
     1
102
RTVSPropertyOp3
 70
     1
102
RTVSPropertyOp4
 70
     1
102
RTVSPropertyOp5
 70
     1
102
RTVSPropertyOp6
 70
     1
102
RTVSPropertyOp7
 70
     1
102
RTVSPropertyOp8
 70
     1
102
RTVSPropertyOp9
 70
     1
102
RTVSPropertyOp10
 70
     1
102
RTVSPropertyOp11
 70
     1
102
RTVSPropertyOp12
 70
     1
102
RTVSPropertyOp13
 70
     1
102
RTVSPropertyOp14
 70
     1
102
RTVSPropertyOp15
 70
     1
102
RTVSPropertyOp16
 70
     1
102
RTVSPropertyOp17
 70
     1
102
RTVSPropertyOp18
 70
     1
102
RTVSPropertyOp19
 70
     1
102
RTVSPropertyOp20
 70
     1
102
RTVSPropertyOp21
 70
     1
102
RTVSPropertyOp22
 70
     1
102
RTVSPropertyOp23
 70
     1
102
RTVSPropertyOp24
 70
     1
102
RTVSPropertyOp25
 70
     1
102
RTVSPropertyOp26
 70
     1
102
RTVSPropertyOp27
 70
     1
102
RTVSPropertyOp28
 70
     1
102
RTVSPropertyOp29
 70
     1
102
RTVSPropertyOp30
 70
     1
102
RTVSPropertyOp31
 70
     1
102
RTVSPropertyOp32
 70
     1
  0
XRECORD
  5
678
102
{ACAD_REACTORS
330
677
102
}
330
677
100
AcDbXrecord
280
     1
102
RTVSPropertyOp0
 70
     1
102
RTVSPropertyOp1
 70
     1
102
RTVSPropertyOp2
 70
     1
102
RTVSPropertyOp3
 70
     1
102
RTVSPropertyOp4
 70
     1
102
RTVSPropertyOp5
 70
     1
102
RTVSPropertyOp6
 70
     1
102
RTVSPropertyOp7
 70
     1
102
RTVSPropertyOp8
 70
     1
102
RTVSPropertyOp9
 70
     1
102
RTVSPropertyOp10
 70
     1
102
RTVSPropertyOp11
 70
     1
102
RTVSPropertyOp12
 70
     1
102
RTVSPropertyOp13
 70
     1
102
RTVSPropertyOp14
 70
     1
102
RTVSPropertyOp15
 70
     1
102
RTVSPropertyOp16
 70
     1
102
RTVSPropertyOp17
 70
     1
102
RTVSPropertyOp18
 70
     1
102
RTVSPropertyOp19
 70
     1
102
RTVSPropertyOp20
 70
     1
102
RTVSPropertyOp21
 70
     1
102
RTVSPropertyOp22
 70
     1
102
RTVSPropertyOp23
 70
     1
102
RTVSPropertyOp24
 70
     1
102
RTVSPropertyOp25
 70
     1
102
RTVSPropertyOp26
 70
     1
102
RTVSPropertyOp27
 70
     1
102
RTVSPropertyOp28
 70
     1
102
RTVSPropertyOp29
 70
     1
102
RTVSPropertyOp30
 70
     1
102
RTVSPropertyOp31
 70
     1
102
RTVSPropertyOp32
 70
     1
  0
XRECORD
  5
680
102
{ACAD_REACTORS
330
67F
102
}
330
67F
100
AcDbXrecord
280
     1
102
RTVSPropertyOp0
 70
     1
102
RTVSPropertyOp1
 70
     1
102
RTVSPropertyOp2
 70
     1
102
RTVSPropertyOp3
 70
     1
102
RTVSPropertyOp4
 70
     1
102
RTVSPropertyOp5
 70
     1
102
RTVSPropertyOp6
 70
     1
102
RTVSPropertyOp7
 70
     1
102
RTVSPropertyOp8
 70
     1
102
RTVSPropertyOp9
 70
     1
102
RTVSPropertyOp10
 70
     1
102
RTVSPropertyOp11
 70
     1
102
RTVSPropertyOp12
 70
     1
102
RTVSPropertyOp13
 70
     1
102
RTVSPropertyOp14
 70
     1
102
RTVSPropertyOp15
 70
     1
102
RTVSPropertyOp16
 70
     1
102
RTVSPropertyOp17
 70
     1
102
RTVSPropertyOp18
 70
     1
102
RTVSPropertyOp19
 70
     1
102
RTVSPropertyOp20
 70
     1
102
RTVSPropertyOp21
 70
     1
102
RTVSPropertyOp22
 70
     1
102
RTVSPropertyOp23
 70
     1
102
RTVSPropertyOp24
 70
     1
102
RTVSPropertyOp25
 70
     1
102
RTVSPropertyOp26
 70
     1
102
RTVSPropertyOp27
 70
     1
102
RTVSPropertyOp28
 70
     1
102
RTVSPropertyOp29
 70
     1
102
RTVSPropertyOp30
 70
     1
102
RTVSPropertyOp31
 70
     1
102
RTVSPropertyOp32
 70
     1
  0
ENDSEC
  0
EOF
