  0
SECTION
  2
HEADER
  9
$ACADVER
  1
AC1015
  9
$ACADMAINTVER
 70
     6
  9
$DWGCODEPAGE
  3
ANSI_949
  9
$INSBASE
 10
0.0
 20
0.0
 30
0.0
  9
$EXTMIN
 10
1.000000000000000E+20
 20
1.000000000000000E+20
 30
1.000000000000000E+20
  9
$EXTMAX
 10
-1.000000000000000E+20
 20
-1.000000000000000E+20
 30
-1.000000000000000E+20
  9
$LIMMIN
 10
0.0
 20
0.0
  9
$LIMMAX
 10
12.0
 20
9.0
  9
$ORTHOMODE
 70
     0
  9
$REGENMODE
 70
     1
  9
$FILLMODE
 70
     1
  9
$QTEXTMODE
 70
     0
  9
$MIRRTEXT
 70
     1
  9
$LTSCALE
 40
1.0
  9
$ATTMODE
 70
     1
  9
$TEXTSIZE
 40
0.2
  9
$TRACEWID
 40
0.05
  9
$TEXTSTYLE
  7
Standard
  9
$CLAYER
  8
0
  9
$CELTYPE
  6
ByLayer
  9
$CECOLOR
 62
   256
  9
$CELTSCALE
 40
1.0
  9
$DISPSILH
 70
     0
  9
$DIMSCALE
 40
1.0
  9
$DIMASZ
 40
0.18
  9
$DIMEXO
 40
0.0625
  9
$DIMDLI
 40
0.38
  9
$DIMRND
 40
0.0
  9
$DIMDLE
 40
0.0
  9
$DIMEXE
 40
0.18
  9
$DIMTP
 40
0.0
  9
$DIMTM
 40
0.0
  9
$DIMTXT
 40
0.18
  9
$DIMCEN
 40
0.09
  9
$DIMTSZ
 40
0.0
  9
$DIMTOL
 70
     0
  9
$DIMLIM
 70
     0
  9
$DIMTIH
 70
     1
  9
$DIMTOH
 70
     1
  9
$DIMSE1
 70
     0
  9
$DIMSE2
 70
     0
  9
$DIMTAD
 70
     0
  9
$DIMZIN
 70
     0
  9
$DIMBLK
  1

  9
$DIMASO
 70
     1
  9
$DIMSHO
 70
     1
  9
$DIMPOST
  1

  9
$DIMAPOST
  1

  9
$DIMALT
 70
     0
  9
$DIMALTD
 70
     2
  9
$DIMALTF
 40
25.4
  9
$DIMLFAC
 40
1.0
  9
$DIMTOFL
 70
     0
  9
$DIMTVP
 40
0.0
  9
$DIMTIX
 70
     0
  9
$DIMSOXD
 70
     0
  9
$DIMSAH
 70
     0
  9
$DIMBLK1
  1

  9
$DIMBLK2
  1

  9
$DIMSTYLE
  2
Standard
  9
$DIMCLRD
 70
     0
  9
$DIMCLRE
 70
     0
  9
$DIMCLRT
 70
     0
  9
$DIMTFAC
 40
1.0
  9
$DIMGAP
 40
0.09
  9
$DIMJUST
 70
     0
  9
$DIMSD1
 70
     0
  9
$DIMSD2
 70
     0
  9
$DIMTOLJ
 70
     1
  9
$DIMTZIN
 70
     0
  9
$DIMALTZ
 70
     0
  9
$DIMALTTZ
 70
     0
  9
$DIMUPT
 70
     0
  9
$DIMDEC
 70
     4
  9
$DIMTDEC
 70
     4
  9
$DIMALTU
 70
     2
  9
$DIMALTTD
 70
     2
  9
$DIMTXSTY
  7
Standard
  9
$DIMAUNIT
 70
     0
  9
$DIMADEC
 70
     0
  9
$DIMALTRND
 40
0.0
  9
$DIMAZIN
 70
     0
  9
$DIMDSEP
 70
    46
  9
$DIMATFIT
 70
     3
  9
$DIMFRAC
 70
     0
  9
$DIMLDRBLK
  1

  9
$DIMLUNIT
 70
     2
  9
$DIMLWD
 70
    -2
  9
$DIMLWE
 70
    -2
  9
$DIMTMOVE
 70
     0
  9
$LUNITS
 70
     2
  9
$LUPREC
 70
     4
  9
$SKETCHINC
 40
0.1
  9
$FILLETRAD
 40
0.5
  9
$AUNITS
 70
     0
  9
$AUPREC
 70
     0
  9
$MENU
  1
.
  9
$ELEVATION
 40
0.0
  9
$PELEVATION
 40
0.0
  9
$THICKNESS
 40
0.0
  9
$LIMCHECK
 70
     0
  9
$CHAMFERA
 40
0.5
  9
$CHAMFERB
 40
0.5
  9
$CHAMFERC
 40
1.0
  9
$CHAMFERD
 40
0.0
  9
$SKPOLY
 70
     0
  9
$TDCREATE
 40
2456522.588416655
  9
$TDUCREATE
 40
2456522.088416655
  9
$TDUPDATE
 40
2456522.588445833
  9
$TDUUPDATE
 40
2456522.088445833
  9
$TDINDWG
 40
0.0000000116
  9
$TDUSRTIMER
 40
0.0000000116
  9
$USRTIMER
 70
     1
  9
$ANGBASE
 50
0.0
  9
$ANGDIR
 70
     0
  9
$PDMODE
 70
     0
  9
$PDSIZE
 40
0.0
  9
$PLINEWID
 40
0.0
  9
$SPLFRAME
 70
     0
  9
$SPLINETYPE
 70
     6
  9
$SPLINESEGS
 70
     8
  9
$HANDSEED
  5
686
  9
$SURFTAB1
 70
     6
  9
$SURFTAB2
 70
     6
  9
$SURFTYPE
 70
     6
  9
$SURFU
 70
     6
  9
$SURFV
 70
     6
  9
$UCSBASE
  2

  9
$UCSNAME
  2

  9
$UCSORG
 10
0.0
 20
0.0
 30
0.0
  9
$UCSXDIR
 10
1.0
 20
0.0
 30
0.0
  9
$UCSYDIR
 10
0.0
 20
1.0
 30
0.0
  9
$UCSORTHOREF
  2

  9
$UCSORTHOVIEW
 70
     0
  9
$UCSORGTOP
 10
0.0
 20
0.0
 30
0.0
  9
$UCSORGBOTTOM
 10
0.0
 20
0.0
 30
0.0
  9
$UCSORGLEFT
 10
0.0
 20
0.0
 30
0.0
  9
$UCSORGRIGHT
 10
0.0
 20
0.0
 30
0.0
  9
$UCSORGFRONT
 10
0.0
 20
0.0
 30
0.0
  9
$UCSORGBACK
 10
0.0
 20
0.0
 30
0.0
  9
$PUCSBASE
  2

  9
$PUCSNAME
  2

  9
$PUCSORG
 10
0.0
 20
0.0
 30
0.0
  9
$PUCSXDIR
 10
1.0
 20
0.0
 30
0.0
  9
$PUCSYDIR
 10
0.0
 20
1.0
 30
0.0
  9
$PUCSORTHOREF
  2

  9
$PUCSORTHOVIEW
 70
     0
  9
$PUCSORGTOP
 10
0.0
 20
0.0
 30
0.0
  9
$PUCSORGBOTTOM
 10
0.0
 20
0.0
 30
0.0
  9
$PUCSORGLEFT
 10
0.0
 20
0.0
 30
0.0
  9
$PUCSORGRIGHT
 10
0.0
 20
0.0
 30
0.0
  9
$PUCSORGFRONT
 10
0.0
 20
0.0
 30
0.0
  9
$PUCSORGBACK
 10
0.0
 20
0.0
 30
0.0
  9
$USERI1
 70
     0
  9
$USERI2
 70
     0
  9
$USERI3
 70
     0
  9
$USERI4
 70
     0
  9
$USERI5
 70
     0
  9
$USERR1
 40
0.0
  9
$USERR2
 40
0.0
  9
$USERR3
 40
0.0
  9
$USERR4
 40
0.0
  9
$USERR5
 40
0.0
  9
$WORLDVIEW
 70
     1
  9
$SHADEDGE
 70
     3
  9
$SHADEDIF
 70
    70
  9
$TILEMODE
 70
     1
  9
$MAXACTVP
 70
    64
  9
$PINSBASE
 10
0.0
 20
0.0
 30
0.0
  9
$PLIMCHECK
 70
     0
  9
$PEXTMIN
 10
1.000000000000000E+20
 20
1.000000000000000E+20
 30
1.000000000000000E+20
  9
$PEXTMAX
 10
-1.000000000000000E+20
 20
-1.000000000000000E+20
 30
-1.000000000000000E+20
  9
$PLIMMIN
 10
0.0
 20
0.0
  9
$PLIMMAX
 10
12.0
 20
9.0
  9
$UNITMODE
 70
     0
  9
$VISRETAIN
 70
     1
  9
$PLINEGEN
 70
     0
  9
$PSLTSCALE
 70
     1
  9
$TREEDEPTH
 70
  3020
  9
$CMLSTYLE
  2
Standard
  9
$CMLJUST
 70
     0
  9
$CMLSCALE
 40
1.0
  9
$PROXYGRAPHICS
 70
     1
  9
$MEASUREMENT
 70
     0
  9
$CELWEIGHT
370
    -1
  9
$ENDCAPS
280
     0
  9
$JOINSTYLE
280
     0
  9
$LWDISPLAY
290
     1
  9
$INSUNITS
 70
     4
  9
$HYPERLINKBASE
  1

  9
$STYLESHEET
  1

  9
$XEDIT
290
     1
  9
$CEPSNTYPE
380
     0
  9
$PSTYLEMODE
290
     1
  9
$FINGERPRINTGUID
  2
{A1138740-277D-43C8-893D-4202A858C3D1}
  9
$VERSIONGUID
  2
{FAEB1C32-E019-11D5-929B-00C0DF256EC4}
  9
$EXTNAMES
290
     1
  9
$PSVPSCALE
 40
0.0
  9
$OLESTARTUP
290
     0
  0
ENDSEC
  0
SECTION
  2
CLASSES
  0
CLASS
  1
ACDBDICTIONARYWDFLT
  2
AcDbDictionaryWithDefault
  3
ObjectDBX Classes
 90
        0
280
     0
281
     0
  0
CLASS
  1
VISUALSTYLE
  2
AcDbVisualStyle
  3
ObjectDBX Classes
 90
     4095
280
     0
281
     0
  0
CLASS
  1
MATERIAL
  2
AcDbMaterial
  3
ObjectDBX Classes
 90
     1153
280
     0
281
     0
  0
CLASS
  1
SPATIAL_FILTER
  2
AcDbSpatialFilter
  3
ObjectDBX Classes
 90
        0
280
     0
281
     0
  0
CLASS
  1
SCALE
  2
AcDbScale
  3
ObjectDBX Classes
 90
     1153
280
     0
281
     0
  0
CLASS
  1
DICTIONARYVAR
  2
AcDbDictionaryVar
  3
ObjectDBX Classes
 90
        0
280
     0
281
     0
  0
CLASS
  1
ACDBPLACEHOLDER
  2
AcDbPlaceHolder
  3
ObjectDBX Classes
 90
        0
280
     0
281
     0
  0
CLASS
  1
LAYOUT
  2
AcDbLayout
  3
ObjectDBX Classes
 90
        0
280
     0
281
     0
  0
ENDSEC
  0
SECTION
  2
TABLES
  0
TABLE
  2
VPORT
  5
8
330
0
100
AcDbSymbolTable
 70
     1
  0
VPORT
  5
29
330
8
100
AcDbSymbolTableRecord
100
AcDbViewportTableRecord
  2
*Active
 70
     0
 10
0.0
 20
0.0
 11
1.0
 21
1.0
 12
148.6203422501967
 22
100.4660812394923
 13
0.0
 23
0.0
 14
0.5
 24
0.5
 15
0.5
 25
0.5
 16
0.0
 26
0.0
 36
1.0
 17
0.0
 27
0.0
 37
0.0
 40
200.8158936151757
 41
1.438658524413834
 42
50.0
 43
0.0
 44
0.0
 50
0.0
 51
0.0
 71
     0
 72
   100
 73
     1
 74
     3
 75
     0
 76
     0
 77
     0
 78
     0
281
     0
 65
     1
110
0.0
120
0.0
130
0.0
111
1.0
121
0.0
131
0.0
112
0.0
122
1.0
132
0.0
 79
     0
146
0.0
  0
ENDTAB
  0
TABLE
  2
LTYPE
  5
5
330
0
100
AcDbSymbolTable
 70
     2
  0
LTYPE
  5
14
330
5
100
AcDbSymbolTableRecord
100
AcDbLinetypeTableRecord
  2
ByBlock
 70
     0
  3

 72
    65
 73
     0
 40
0.0
  0
LTYPE
  5
15
330
5
100
AcDbSymbolTableRecord
100
AcDbLinetypeTableRecord
  2
ByLayer
 70
     0
  3

 72
    65
 73
     0
 40
0.0
  0
LTYPE
  5
16
330
5
100
AcDbSymbolTableRecord
100
AcDbLinetypeTableRecord
  2
Continuous
 70
     0
  3
Solid line
 72
    65
 73
     0
 40
0.0
  0
LTYPE
  5
12D
330
5
100
AcDbSymbolTableRecord
100
AcDbLinetypeTableRecord
  2
Dashed
 70
     0
  3
- - - - - 
 72
    65
 73
     2
 40
5.644444465637207
 49
2.822222232818604
 74
     0
 49
-2.822222232818603
 74
     0
  0
ENDTAB
  0
TABLE
  2
LAYER
  5
2
330
0
100
AcDbSymbolTable
 70
     3
  0
LAYER
  5
10
330
2
100
AcDbSymbolTableRecord
100
AcDbLayerTableRecord
  2
0
 70
     0
 62
     7
  6
Continuous
370
    -3
390
F
  0
LAYER
  5
40
330
2
100
AcDbSymbolTableRecord
100
AcDbLayerTableRecord
  2
Doc_ Finishes
 70
     0
 62
     7
  6
Continuous
370
    -3
390
F
  0
LAYER
  5
DB
330
2
100
AcDbSymbolTableRecord
100
AcDbLayerTableRecord
  2
Doc_ Floor
 70
     0
 62
     7
  6
Continuous
370
    -3
390
F
  0
ENDTAB
  0
TABLE
  2
STYLE
  5
3
330
0
100
AcDbSymbolTable
 70
     4
  0
STYLE
  5
11
330
3
100
AcDbSymbolTableRecord
100
AcDbTextStyleTableRecord
  2
Standard
 70
     0
 40
0.0
 41
1.0
 50
0.0
 71
     0
 42
0.2
  3
txt
  4

  0
STYLE
  5
D6
330
3
100
AcDbSymbolTableRecord
100
AcDbTextStyleTableRecord
  2
GENERATED_STYLE_1
 70
     0
 40
0.0
 41
1.0
 50
0.0
 71
     0
 42
0.2
  3

  4

1001
ACAD
1000
Century Gothic
1071
       34
  0
STYLE
  5
D9
330
3
100
AcDbSymbolTableRecord
100
AcDbTextStyleTableRecord
  2
GENERATED_STYLE_2
 70
     0
 40
0.0
 41
1.0
 50
0.0
 71
     0
 42
0.2
  3

  4

1001
ACAD
1000
DilleniaUPC
1071
 33554450
  0
STYLE
  5
14E
330
3
100
AcDbSymbolTableRecord
100
AcDbTextStyleTableRecord
  2
GENERATED_STYLE_3
 70
     0
 40
0.0
 41
1.0
 50
0.0
 71
     0
 42
0.2
  3

  4

1001
ACAD
1000
Arial
1071
       34
  0
ENDTAB
  0
TABLE
  2
VIEW
  5
6
330
0
100
AcDbSymbolTable
 70
     0
  0
ENDTAB
  0
TABLE
  2
UCS
  5
7
330
0
100
AcDbSymbolTable
 70
     0
  0
ENDTAB
  0
TABLE
  2
APPID
  5
9
330
0
100
AcDbSymbolTable
 70
     1
  0
APPID
  5
12
330
9
100
AcDbSymbolTableRecord
100
AcDbRegAppTableRecord
  2
ACAD
 70
     0
  0
ENDTAB
  0
TABLE
  2
DIMSTYLE
  5
A
330
0
100
AcDbSymbolTable
 70
     1
100
AcDbDimStyleTable
  0
DIMSTYLE
105
27
330
A
100
AcDbSymbolTableRecord
100
AcDbDimStyleTableRecord
  2
Standard
 70
     0
178
     0
340
11
  0
ENDTAB
  0
TABLE
  2
BLOCK_RECORD
  5
1
330
0
100
AcDbSymbolTable
 70
     3
  0
BLOCK_RECORD
  5
1F
330
1
100
AcDbSymbolTableRecord
100
AcDbBlockTableRecord
  2
*Model_Space
340
22
  0
BLOCK_RECORD
  5
1B
330
1
100
AcDbSymbolTableRecord
100
AcDbBlockTableRecord
  2
*Paper_Space
340
1E
  0
BLOCK_RECORD
  5
E3
330
1
100
AcDbSymbolTableRecord
100
AcDbBlockTableRecord
  2
Drawing_1_2
340
0
102
{BLKREFS
331
62C
102
}
  0
BLOCK_RECORD
  5
630
330
1
100
AcDbSymbolTableRecord
100
AcDbBlockTableRecord
  2
R-TRS9-09 APRON DETAIL - SIDE_STORY_MARKER
340
0
  0
ENDTAB
  0
ENDSEC
  0
SECTION
  2
BLOCKS
  0
BLOCK
  5
20
330
1F
100
AcDbEntity
  8
0
100
AcDbBlockBegin
  2
*Model_Space
 70
     0
 10
0.0
 20
0.0
 30
0.0
  3
*Model_Space
  1

  0
ENDBLK
  5
21
330
1F
100
AcDbEntity
  8
0
100
AcDbBlockEnd
  0
BLOCK
  5
1C
330
1B
100
AcDbEntity
 67
     1
  8
0
100
AcDbBlockBegin
  2
*Paper_Space
 70
     0
 10
0.0
 20
0.0
 30
0.0
  3
*Paper_Space
  1

  0
ENDBLK
  5
1D
330
1B
100
AcDbEntity
 67
     1
  8
0
100
AcDbBlockEnd
  0
BLOCK
  5
E4
330
E3
100
AcDbEntity
  8
0
100
AcDbBlockBegin
  2
Drawing_1_2
 70
     0
 10
-1488.68793027213
 20
350.9956652514564
 30
0.0
  3
Drawing_1_2
  1

  0
HATCH
  5
E6
330
E3
100
AcDbEntity
  8
0
  6
Continuous
 62
   255
370
     0
100
AcDbHatch
 10
0.0
 20
0.0
 30
0.0
210
0.0
220
0.0
230
1.0
  2
SOLID
 70
     1
 71
     0
 91
        1
 92
        3
 72
     0
 73
     1
 93
        4
 10
168.1174859022492
 20
115.0117335009554
 10
168.1174859022492
 20
124.0117335009554
 10
79.43972639502928
 20
124.0117335009554
 10
79.43972639502928
 20
115.0117335009554
 97
        0
 75
     0
 76
     1
 98
        0
  0
LINE
  5
E7
330
E3
100
AcDbEntity
  8
0
  6
Continuous
100
AcDbLine
 10
168.1174872315822
 20
124.0117327594818
 30
0.0
 11
168.1174872315822
 21
115.0117343705166
 31
0.0
  0
LINE
  5
E8
330
E3
100
AcDbEntity
  8
0
  6
Continuous
100
AcDbLine
 10
79.43972579803209
 20
124.0117327594818
 30
0.0
 11
168.1174872315822
 21
124.0117327594818
 31
0.0
  0
LINE
  5
E9
330
E3
100
AcDbEntity
  8
0
  6
Continuous
100
AcDbLine
 10
79.43972579803209
 20
115.0117343705166
 30
0.0
 11
79.43972579803209
 21
124.0117327594818
 31
0.0
  0
LINE
  5
EA
330
E3
100
AcDbEntity
  8
0
  6
Continuous
100
AcDbLine
 10
168.1174872315822
 20
115.0117343705166
 30
0.0
 11
79.43972579803209
 21
115.0117343705166
 31
0.0
  0
HATCH
  5
EB
330
E3
100
AcDbEntity
  8
0
  6
Continuous
 62
   255
370
     0
100
AcDbHatch
 10
0.0
 20
0.0
 30
0.0
210
0.0
220
0.0
230
1.0
  2
SOLID
 70
     1
 71
     0
 91
        1
 92
        3
 72
     0
 73
     1
 93
        4
 10
168.1174859022492
 20
124.0117335009554
 10
154.1174859022492
 20
124.0117335009554
 10
154.1174859022492
 20
115.0117335009554
 10
168.1174859022492
 20
115.0117335009554
 97
        0
 75
     0
 76
     1
 98
        0
  0
LINE
  5
EC
330
E3
100
AcDbEntity
  8
0
  6
Continuous
100
AcDbLine
 10
168.1174872315822
 20
124.0117327594818
 30
0.0
 11
154.1174851055383
 21
115.0117343705166
 31
0.0
  0
LINE
  5
ED
330
E3
100
AcDbEntity
  8
0
  6
Continuous
100
AcDbLine
 10
168.1174872315822
 20
124.0117327594818
 30
0.0
 11
168.1174872315822
 21
115.0117343705166
 31
0.0
  0
LINE
  5
EE
330
E3
100
AcDbEntity
  8
0
  6
Continuous
100
AcDbLine
 10
168.1174872315822
 20
115.0117343705166
 30
0.0
 11
154.1174851055383
 21
115.0117343705166
 31
0.0
  0
LINE
  5
EF
330
E3
100
AcDbEntity
  8
0
  6
Continuous
100
AcDbLine
 10
154.1174851055383
 20
115.0117343705166
 30
0.0
 11
154.1174851055383
 21
124.0117327594818
 31
0.0
  0
LINE
  5
F0
330
E3
100
AcDbEntity
  8
0
  6
Continuous
100
AcDbLine
 10
154.1174851055383
 20
124.0117327594818
 30
0.0
 11
168.1174872315822
 21
124.0117327594818
 31
0.0
  0
HATCH
  5
F1
330
E3
100
AcDbEntity
  8
0
  6
Continuous
 62
   255
370
     0
100
AcDbHatch
 10
0.0
 20
0.0
 30
0.0
210
0.0
220
0.0
230
1.0
  2
SOLID
 70
     1
 71
     0
 91
        1
 92
        3
 72
     0
 73
     1
 93
        4
 10
168.1174859022492
 20
97.01173350095543
 10
168.1174859022492
 20
115.0117335009554
 10
79.43972639502928
 20
115.0117335009554
 10
79.43972639502928
 20
97.01173350095543
 97
        0
 75
     0
 76
     1
 98
        0
  0
LINE
  5
F2
330
E3
100
AcDbEntity
  8
0
  6
Continuous
100
AcDbLine
 10
168.1174872315822
 20
115.0117343705166
 30
0.0
 11
168.1174872315822
 21
97.01173461480893
 31
0.0
  0
LINE
  5
F3
330
E3
100
AcDbEntity
  8
0
  6
Continuous
100
AcDbLine
 10
79.43972579803209
 20
115.0117343705166
 30
0.0
 11
168.1174872315822
 21
115.0117343705166
 31
0.0
  0
LINE
  5
F4
330
E3
100
AcDbEntity
  8
0
  6
Continuous
100
AcDbLine
 10
79.43972579803209
 20
97.01173461480893
 30
0.0
 11
79.43972579803209
 21
115.0117343705166
 31
0.0
  0
LINE
  5
F5
330
E3
100
AcDbEntity
  8
0
  6
Continuous
100
AcDbLine
 10
168.1174872315822
 20
97.01173461480893
 30
0.0
 11
79.43972579803209
 21
97.01173461480893
 31
0.0
  0
HATCH
  5
F6
330
E3
100
AcDbEntity
  8
0
  6
Continuous
 62
   255
370
     0
100
AcDbHatch
 10
0.0
 20
0.0
 30
0.0
210
0.0
220
0.0
230
1.0
  2
SOLID
 70
     1
 71
     0
 91
        1
 92
        3
 72
     0
 73
     1
 93
        4
 10
160.0358488927439
 20
198.9052440655402
 10
160.0358488927439
 20
142.086526479936
 10
164.0358483337264
 20
142.086526479936
 10
164.0358483337264
 20
198.9052440655402
 97
        0
 75
     0
 76
     1
 98
        0
  0
LINE
  5
F7
330
E3
100
AcDbEntity
  8
0
  6
Continuous
100
AcDbLine
 10
160.0358488927439
 20
198.9052440655402
 30
0.0
 11
160.0358488927439
 21
142.086526479936
 31
0.0
  0
LINE
  5
F8
330
E3
100
AcDbEntity
  8
0
  6
Continuous
100
AcDbLine
 10
160.0358502519228
 20
142.086525347723
 30
0.0
 11
164.0358478815866
 21
142.086525347723
 31
0.0
  0
LINE
  5
F9
330
E3
100
AcDbEntity
  8
0
  6
Continuous
100
AcDbLine
 10
164.0358483337264
 20
142.086526479936
 30
0.0
 11
164.0358483337264
 21
198.9052440655402
 31
0.0
  0
HATCH
  5
FA
330
E3
100
AcDbEntity
  8
0
  6
Continuous
 62
   255
370
     0
100
AcDbHatch
 10
0.0
 20
0.0
 30
0.0
210
0.0
220
0.0
230
1.0
  2
SOLID
 70
     1
 71
     0
 91
        1
 92
        3
 72
     0
 73
     1
 93
        4
 10
160.0358492924565
 20
140.0865257098757
 10
164.0358492924563
 20
140.0865257098757
 10
164.0358492924563
 20
149.0865257098756
 10
160.0358492924565
 20
149.0865257098756
 97
        0
 75
     0
 76
     1
 98
        0
  0
LINE
  5
FB
330
E3
100
AcDbEntity
  8
0
  6
Continuous
100
AcDbLine
 10
160.0358502519228
 20
140.0865250440025
 30
0.0
 11
164.0358478815866
 21
149.086526410745
 31
0.0
  0
LINE
  5
FC
330
E3
100
AcDbEntity
  8
0
  6
Continuous
100
AcDbLine
 10
160.0358502519228
 20
140.0865250440025
 30
0.0
 11
164.0358478815866
 21
140.0865250440025
 31
0.0
  0
LINE
  5
FD
330
E3
100
AcDbEntity
  8
0
  6
Continuous
100
AcDbLine
 10
164.0358478815866
 20
140.0865250440025
 30
0.0
 11
164.0358478815866
 21
149.086526410745
 31
0.0
  0
LINE
  5
FE
330
E3
100
AcDbEntity
  8
0
  6
Continuous
100
AcDbLine
 10
164.0358478815866
 20
149.086526410745
 30
0.0
 11
160.0358502519228
 21
149.086526410745
 31
0.0
  0
LINE
  5
FF
330
E3
100
AcDbEntity
  8
0
  6
Continuous
100
AcDbLine
 10
160.0358502519228
 20
149.086526410745
 30
0.0
 11
160.0358502519228
 21
140.0865250440025
 31
0.0
  0
HATCH
  5
100
330
E3
100
AcDbEntity
  8
0
  6
Continuous
 62
   255
370
     0
100
AcDbHatch
 10
0.0
 20
0.0
 30
0.0
210
0.0
220
0.0
230
1.0
  2
SOLID
 70
     1
 71
     0
 91
        1
 92
        3
 72
     0
 73
     1
 93
        4
 10
168.1174868787372
 20
198.9052482462201
 10
168.1174868787372
 20
23.56187983551988
 10
186.117485075695
 20
23.56187983551988
 10
186.117485075695
 20
198.9052482462201
 97
        0
 75
     0
 76
     1
 98
        0
  0
LINE
  5
101
330
E3
100
AcDbEntity
  8
0
  6
Continuous
100
AcDbLine
 10
186.117485075695
 20
23.56187983551988
 30
0.0
 11
186.117485075695
 21
198.9052482462201
 31
0.0
  0
LINE
  5
102
330
E3
100
AcDbEntity
  8
0
  6
Continuous
100
AcDbLine
 10
168.1174868787372
 20
198.9052482462201
 30
0.0
 11
168.1174868787372
 21
23.56187983551988
 31
0.0
  0
HATCH
  5
103
330
E3
100
AcDbEntity
  8
0
  6
Continuous
 62
   255
370
     0
100
AcDbHatch
 10
0.0
 20
0.0
 30
0.0
210
0.0
220
0.0
230
1.0
  2
SOLID
 70
     1
 71
     0
 91
        1
 92
        3
 72
     0
 73
     1
 93
        4
 10
168.1174872315822
 20
194.1691040313079
 10
186.1174869872899
 20
194.1691040313079
 10
186.1174869872899
 20
198.9052439437405
 10
168.1174872315822
 20
198.9052439437405
 97
        0
 75
     0
 76
     1
 98
        0
  0
LINE
  5
104
330
E3
100
AcDbEntity
  8
0
  6
Continuous
100
AcDbLine
 10
186.1174869872899
 20
194.1691040313079
 30
0.0
 11
186.1174869872899
 21
198.9052439437405
 31
0.0
  0
LINE
  5
105
330
E3
100
AcDbEntity
  8
0
  6
Continuous
100
AcDbLine
 10
168.1174872315822
 20
198.9052439437405
 30
0.0
 11
168.1174872315822
 21
194.1691040313079
 31
0.0
  0
LINE
  5
106
330
E3
100
AcDbEntity
  8
0
  6
Continuous
100
AcDbLine
 10
168.1174872315822
 20
194.1691040313079
 30
0.0
 11
186.1174869872899
 21
194.1691040313079
 31
0.0
  0
HATCH
  5
107
330
E3
100
AcDbEntity
  8
0
  6
Continuous
 62
   255
370
     0
100
AcDbHatch
 10
0.0
 20
0.0
 30
0.0
210
0.0
220
0.0
230
1.0
  2
SOLID
 70
     1
 71
     0
 91
        1
 92
        3
 72
     0
 73
     1
 93
        4
 10
186.1174859022492
 20
45.66910478962427
 10
186.1174859022492
 20
54.66910478962428
 10
168.1174859022492
 20
54.66910478962428
 10
168.1174859022492
 20
45.66910478962427
 97
        0
 75
     0
 76
     1
 98
        0
  0
LINE
  5
108
330
E3
100
AcDbEntity
  8
0
  6
Continuous
100
AcDbLine
 10
186.1174869872899
 20
45.66910381338675
 30
0.0
 11
186.1174869872899
 21
54.66910518012923
 31
0.0
  0
LINE
  5
109
330
E3
100
AcDbEntity
  8
0
  6
Continuous
100
AcDbLine
 10
186.1174869872899
 20
54.66910518012923
 30
0.0
 11
168.1174872315822
 21
54.66910518012923
 31
0.0
  0
LINE
  5
10A
330
E3
100
AcDbEntity
  8
0
  6
Continuous
100
AcDbLine
 10
168.1174872315822
 20
54.66910518012923
 30
0.0
 11
168.1174872315822
 21
45.66910381338675
 31
0.0
  0
LINE
  5
10B
330
E3
100
AcDbEntity
  8
0
  6
Continuous
100
AcDbLine
 10
168.1174872315822
 20
45.66910381338675
 30
0.0
 11
186.1174869872899
 21
45.66910381338675
 31
0.0
  0
LINE
  5
10C
330
E3
100
AcDbEntity
  8
0
  6
Continuous
100
AcDbLine
 10
186.1174869872899
 20
194.1691040313079
 30
0.0
 11
176.6452101402021
 21
198.9052439437405
 31
0.0
  0
LINE
  5
10D
330
E3
100
AcDbEntity
  8
0
  6
Continuous
100
AcDbLine
 10
177.5897670564473
 20
198.9052439437405
 30
0.0
 11
168.1174872315822
 21
194.1691040313079
 31
0.0
  0
LINE
  5
10E
330
E3
100
AcDbEntity
  8
0
  6
Continuous
100
AcDbLine
 10
168.1174872315822
 20
45.66910381338675
 30
0.0
 11
186.1174869872899
 21
54.66910518012923
 31
0.0
  0
HATCH
  5
10F
330
E3
100
AcDbEntity
  8
0
  6
Continuous
 62
   255
370
     0
100
AcDbHatch
 10
0.0
 20
0.0
 30
0.0
210
0.0
220
0.0
230
1.0
  2
SOLID
 70
     1
 71
     0
 91
        1
 92
        3
 72
     0
 73
     1
 93
        4
 10
157.23584828813
 20
198.90524494705
 10
157.23584828813
 20
139.0865260571862
 10
159.0358483553277
 20
139.0865260571862
 10
159.0358483553277
 20
198.90524494705
 97
        0
 75
     0
 76
     1
 98
        0
  0
HATCH
  5
110
330
E3
100
AcDbEntity
  8
0
  6
Continuous
100
AcDbHatch
 10
0.0
 20
0.0
 30
0.0
210
0.0
220
0.0
230
1.0
  2
Plaster_0002
 70
     0
 71
     0
 91
        1
 92
        3
 72
     0
 73
     1
 93
        4
 10
157.23584828813
 20
198.90524494705
 10
157.23584828813
 20
139.0865260571862
 10
159.0358483553277
 20
139.0865260571862
 10
159.0358483553277
 20
198.90524494705
 97
        0
 75
     0
 76
     2
 52
0.0
 41
1.0
 77
     0
 78
     2
 53
0.0
 43
-1488.68793027213
 44
350.9956652514564
 45
0.0
 46
1.732050807568877
 79
     2
 49
0.0
 49
-1.0
 53
0.0
 43
-1488.18793027213
 44
351.8616906396973
 45
0.0
 46
1.732050807568877
 79
     2
 49
0.0
 49
-1.0
 98
        0
  0
LINE
  5
111
330
E3
100
AcDbEntity
  8
0
  6
Continuous
100
AcDbLine
 10
157.23584828813
 20
198.90524494705
 30
0.0
 11
157.23584828813
 21
139.0865260571862
 31
0.0
  0
LINE
  5
112
330
E3
100
AcDbEntity
  8
0
  6
Continuous
100
AcDbLine
 10
157.2358492311586
 20
139.0865248921423
 30
0.0
 11
159.0358501000625
 21
139.0865248921423
 31
0.0
  0
LINE
  5
113
330
E3
100
AcDbEntity
  8
0
  6
Continuous
100
AcDbLine
 10
159.0358483553277
 20
139.0865260571862
 30
0.0
 11
159.0358483553277
 21
198.90524494705
 31
0.0
  0
HATCH
  5
114
330
E3
100
AcDbEntity
  8
0
  6
Continuous
 62
   255
370
     0
100
AcDbHatch
 10
0.0
 20
0.0
 30
0.0
210
0.0
220
0.0
230
1.0
  2
SOLID
 70
     1
 71
     0
 91
        1
 92
        3
 72
     0
 73
     1
 93
        4
 10
177.1174859022491
 20
151.3784425109963
 10
168.1174859022492
 20
151.3784425109963
 10
168.1174859022492
 20
133.3784425109963
 10
177.1174859022491
 20
133.3784425109963
 97
        0
 75
     0
 76
     1
 98
        0
  0
LINE
  5
115
330
E3
100
AcDbEntity
  8
0
  6
Continuous
100
AcDbLine
 10
177.1174856205474
 20
151.3784412013113
 30
0.0
 11
168.1174872315822
 21
133.3784414456036
 31
0.0
  0
LINE
  5
116
330
E3
100
AcDbEntity
  8
0
  6
Continuous
100
AcDbLine
 10
177.1174856205474
 20
151.3784412013113
 30
0.0
 11
168.1174872315822
 21
151.3784412013113
 31
0.0
  0
LINE
  5
117
330
E3
100
AcDbEntity
  8
0
  6
Continuous
100
AcDbLine
 10
168.1174872315822
 20
151.3784412013113
 30
0.0
 11
168.1174872315822
 21
133.3784414456036
 31
0.0
  0
LINE
  5
118
330
E3
100
AcDbEntity
  8
0
  6
Continuous
100
AcDbLine
 10
168.1174872315822
 20
133.3784414456036
 30
0.0
 11
177.1174856205474
 21
133.3784414456036
 31
0.0
  0
LINE
  5
119
330
E3
100
AcDbEntity
  8
0
  6
Continuous
100
AcDbLine
 10
177.1174856205474
 20
133.3784414456036
 30
0.0
 11
177.1174856205474
 21
151.3784412013113
 31
0.0
  0
HATCH
  5
11A
330
E3
100
AcDbEntity
  8
0
  6
Continuous
 62
   255
370
     0
100
AcDbHatch
 10
0.0
 20
0.0
 30
0.0
210
0.0
220
0.0
230
1.0
  2
SOLID
 70
     1
 71
     0
 91
        1
 92
        3
 72
     0
 73
     1
 93
        4
 10
177.1174859022491
 20
130.736097640514
 10
168.1174859022492
 20
130.736097640514
 10
168.1174859022492
 20
112.736097640514
 10
177.1174859022491
 20
112.736097640514
 97
        0
 75
     0
 76
     1
 98
        0
  0
LINE
  5
11B
330
E3
100
AcDbEntity
  8
0
  6
Continuous
100
AcDbLine
 10
177.1174856205474
 20
130.7360988441766
 30
0.0
 11
168.1174872315822
 21
112.7360990884689
 31
0.0
  0
LINE
  5
11C
330
E3
100
AcDbEntity
  8
0
  6
Continuous
100
AcDbLine
 10
177.1174856205474
 20
130.7360988441766
 30
0.0
 11
168.1174872315822
 21
130.7360988441766
 31
0.0
  0
LINE
  5
11D
330
E3
100
AcDbEntity
  8
0
  6
Continuous
100
AcDbLine
 10
168.1174872315822
 20
130.7360988441766
 30
0.0
 11
168.1174872315822
 21
112.7360990884689
 31
0.0
  0
LINE
  5
11E
330
E3
100
AcDbEntity
  8
0
  6
Continuous
100
AcDbLine
 10
168.1174872315822
 20
112.7360990884689
 30
0.0
 11
177.1174856205474
 21
112.7360990884689
 31
0.0
  0
LINE
  5
11F
330
E3
100
AcDbEntity
  8
0
  6
Continuous
100
AcDbLine
 10
177.1174856205474
 20
112.7360990884689
 30
0.0
 11
177.1174856205474
 21
130.7360988441766
 31
0.0
  0
HATCH
  5
120
330
E3
100
AcDbEntity
  8
0
  6
Continuous
 62
   255
370
     0
100
AcDbHatch
 10
0.0
 20
0.0
 30
0.0
210
0.0
220
0.0
230
1.0
  2
SOLID
 70
     1
 71
     0
 91
        1
 92
        3
 72
     0
 73
     1
 93
        4
 10
159.1174859022493
 20
115.0117335009554
 10
159.1174859022493
 20
97.01173350095537
 10
168.1174859022492
 20
97.01173350095537
 10
168.1174859022492
 20
115.0117335009554
 97
        0
 75
     0
 76
     1
 98
        0
  0
LINE
  5
121
330
E3
100
AcDbEntity
  8
0
  6
Continuous
100
AcDbLine
 10
168.1174872315822
 20
115.0117343705166
 30
0.0
 11
159.1174858648397
 21
97.01173461480893
 31
0.0
  0
LINE
  5
122
330
E3
100
AcDbEntity
  8
0
  6
Continuous
100
AcDbLine
 10
159.1174858648397
 20
115.0117343705166
 30
0.0
 11
168.1174872315822
 21
97.01173461480893
 31
0.0
  0
LINE
  5
123
330
E3
100
AcDbEntity
  8
0
  6
Continuous
100
AcDbLine
 10
159.1174858648397
 20
115.0117343705166
 30
0.0
 11
168.1174872315822
 21
115.0117343705166
 31
0.0
  0
LINE
  5
124
330
E3
100
AcDbEntity
  8
0
  6
Continuous
100
AcDbLine
 10
168.1174872315822
 20
115.0117343705166
 30
0.0
 11
168.1174872315822
 21
97.01173461480893
 31
0.0
  0
LINE
  5
125
330
E3
100
AcDbEntity
  8
0
  6
Continuous
100
AcDbLine
 10
168.1174872315822
 20
97.01173461480893
 30
0.0
 11
159.1174858648397
 21
97.01173461480893
 31
0.0
  0
LINE
  5
126
330
E3
100
AcDbEntity
  8
0
  6
Continuous
100
AcDbLine
 10
159.1174858648397
 20
97.01173461480893
 30
0.0
 11
159.1174858648397
 21
115.0117343705166
 31
0.0
  0
HATCH
  5
127
330
E3
100
AcDbEntity
  8
0
  6
Continuous
 62
   255
370
     0
100
AcDbHatch
 10
0.0
 20
0.0
 30
0.0
210
0.0
220
0.0
230
1.0
  2
SOLID
 70
     1
 71
     0
 91
        1
 92
        3
 72
     0
 73
     1
 93
        8
 10
149.4538248712417
 20
75.11660877879062
 10
149.4538248712417
 20
23.56188081484578
 10
197.2913994821194
 20
23.56188081484578
 10
197.2913994821194
 20
83.55166601136033
 10
175.3422270631407
 20
79.68143322333098
 10
174.0291528644072
 20
85.44990124193052
 10
172.7160714889538
 20
73.21837354822041
 10
171.4029972902203
 20
78.98684156681995
 97
        0
 75
     0
 76
     1
 98
        0
  0
LINE
  5
128
330
E3
100
AcDbEntity
  8
0
  6
Continuous
100
AcDbLine
 10
149.4538272704519
 20
75.11661156829169
 30
0.0
 11
171.4029969750288
 21
78.98684361862077
 31
0.0
  0
LINE
  5
129
330
E3
100
AcDbEntity
  8
0
  6
Continuous
100
AcDbLine
 10
175.3422300810361
 20
79.68143399689558
 30
0.0
 11
197.291399785613
 21
83.55166604722464
 31
0.0
  0
LINE
  5
12A
330
E3
100
AcDbEntity
  8
0
  6
Continuous
100
AcDbLine
 10
175.3422300810361
 20
79.68143399689558
 30
0.0
 11
174.0291523790336
 21
85.4499037893732
 31
0.0
  0
LINE
  5
12B
330
E3
100
AcDbEntity
  8
0
  6
Continuous
100
AcDbLine
 10
174.0291523790336
 20
85.4499037893732
 30
0.0
 11
172.7160746770312
 21
73.21837382614316
 31
0.0
  0
LINE
  5
12C
330
E3
100
AcDbEntity
  8
0
  6
Continuous
100
AcDbLine
 10
172.7160746770312
 20
73.21837382614316
 30
0.0
 11
171.4029969750288
 21
78.98684361862077
 31
0.0
  0
LINE
  5
12E
330
E3
100
AcDbEntity
  8
0
  6
Dashed
100
AcDbLine
 10
165.2377532457378
 20
157.5015285373157
 30
0.0
 11
165.2377532457378
 21
143.8323128030383
 31
0.0
  0
LINE
  5
12F
330
E3
100
AcDbEntity
  8
0
  6
Dashed
100
AcDbLine
 10
167.2960554512848
 20
125.3229374395602
 30
0.0
 11
167.2960554512848
 21
156.0923668950592
 31
0.0
  0
LINE
  5
130
330
E3
100
AcDbEntity
  8
0
  6
Dashed
100
AcDbLine
 10
165.2377532457378
 20
155.5934432856243
 30
0.0
 11
165.9827901493122
 21
156.23606251662
 31
0.0
  0
LINE
  5
131
330
E3
100
AcDbEntity
  8
0
  6
Dashed
100
AcDbLine
 10
165.9827901493122
 20
156.23606251662
 30
0.0
 11
165.9827901493122
 21
198.9052439437405
 31
0.0
  0
LINE
  5
132
330
E3
100
AcDbEntity
  8
0
  6
Continuous
100
AcDbLine
 10
77.03935738029271
 20
52.93717332260744
 30
0.0
 11
201.4024595753678
 21
52.93717332260744
 31
0.0
  0
LINE
  5
133
330
E3
100
AcDbEntity
  8
0
  6
Continuous
100
AcDbLine
 10
177.4324421481681
 20
61.02354199040224
 30
0.0
 11
177.4324421481681
 21
31.41598763876262
 31
0.0
  0
LINE
  5
134
330
E3
100
AcDbEntity
  8
0
  6
Continuous
100
AcDbLine
 10
77.03935738029271
 20
31.41598763876262
 30
0.0
 11
77.03935738029271
 21
52.93717332260744
 31
0.0
  0
LINE
  5
135
330
E3
100
AcDbEntity
  8
0
  6
Continuous
100
AcDbLine
 10
153.4624247209684
 20
61.02354199040224
 30
0.0
 11
153.4624247209684
 21
31.41598763876262
 31
0.0
  0
LINE
  5
136
330
E3
100
AcDbEntity
  8
0
  6
Continuous
100
AcDbLine
 10
77.03935738029271
 20
42.17658196957368
 30
0.0
 11
201.4024595753678
 21
42.17658196957368
 31
0.0
  0
LINE
  5
137
330
E3
100
AcDbEntity
  8
0
  6
Continuous
100
AcDbLine
 10
77.03935738029271
 20
31.41598763876262
 30
0.0
 11
201.4024595753678
 21
31.41598763876262
 31
0.0
  0
LINE
  5
138
330
E3
100
AcDbEntity
  8
0
  6
Continuous
100
AcDbLine
 10
153.4624247209684
 20
61.02354199040224
 30
0.0
 11
177.4324421481681
 21
61.02354199040224
 31
0.0
  0
LINE
  5
139
330
E3
100
AcDbEntity
  8
0
  6
Continuous
100
AcDbLine
 10
201.4024595753678
 20
61.02354199040224
 30
0.0
 11
201.4024595753678
 21
31.41598763876262
 31
0.0
  0
LINE
  5
13A
330
E3
100
AcDbEntity
  8
0
  6
Continuous
100
AcDbLine
 10
177.4324421481681
 20
61.02354199040224
 30
0.0
 11
201.4024595753678
 21
61.02354199040224
 31
0.0
  0
LINE
  5
13B
330
E3
100
AcDbEntity
  8
0
  6
Dashed
100
AcDbLine
 10
167.4693352903565
 20
124.9637758078681
 30
0.0
 11
78.7596788841079
 21
124.9637758078681
 31
0.0
  0
LINE
  5
13C
330
E3
100
AcDbEntity
  8
0
  6
Dashed
100
AcDbLine
 10
136.7196782761532
 20
134.1227249715203
 30
0.0
 11
134.01186626293
 21
134.1227249715203
 31
0.0
  0
LWPOLYLINE
  5
13D
330
E3
100
AcDbEntity
  8
0
  6
Continuous
100
AcDbPolyline
 90
        4
 70
   128
 43
0.0
 10
159.5560999963057
 20
141.4799668822754
 10
159.5560999963057
 20
139.5303526040371
 10
164.6300565694887
 20
139.5303526040371
 10
164.6300565694887
 20
151.4529937671099
  0
LWPOLYLINE
  5
13E
330
E3
100
AcDbEntity
  8
0
  6
Continuous
100
AcDbPolyline
 90
        7
 70
   128
 43
0.0
 10
121.0144820943098
 20
126.8536340377483
 10
124.8835823277852
 20
133.7749803699358
 10
166.3960886925158
 20
133.7749803699358
 10
166.3582516125697
 20
155.4221952003886
 10
166.0979796639859
 20
155.6628616073952
 10
165.8128217953774
 20
155.3517802961862
 10
165.8128217953774
 20
153.2260580029246
  0
LWPOLYLINE
  5
13F
330
E3
100
AcDbEntity
  8
0
  6
Continuous
100
AcDbPolyline
 90
        3
 70
   128
 43
0.0
 10
92.06513356143708
 20
127.5011779545818
 42
0.5012060838038215
 10
99.71990934907127
 20
127.723502625549
 42
-0.4736328287552234
 10
107.0402104810115
 20
127.6183838804715
  0
LWPOLYLINE
  5
140
330
E3
100
AcDbEntity
  8
0
  6
Continuous
100
AcDbPolyline
 90
       33
 70
   128
 43
0.0
 10
165.6651624388177
 20
129.5310263186786
 10
163.515162438818
 20
133.3310263186787
 10
156.5151624388179
 20
133.3310263186787
 10
152.2151624388173
 20
125.7310263186787
 10
146.7555063944304
 20
125.7310263186787
 10
145.6343458375535
 20
126.3789632261152
 10
143.144768412028
 20
126.3789632261152
 10
142.0236078551511
 20
125.7310263186787
 10
136.6151624388174
 20
125.7310263186787
 10
132.3151624388175
 20
133.3310263186787
 10
125.3151624388176
 20
133.3310263186787
 10
121.0151624388176
 20
125.7310263186787
 10
115.5555063944307
 20
125.7310263186786
 10
114.4343458375538
 20
126.3789632261152
 10
111.9447684120276
 20
126.3789632261152
 10
110.8236078551508
 20
125.7310263186787
 10
105.4151624388178
 20
125.7310263186787
 10
101.1151624388178
 20
133.3310263186787
 10
94.11516243881768
 20
133.3310263186787
 10
89.81516243881704
 20
125.7310263186787
 10
84.35550639443012
 20
125.7310263186787
 10
83.23434583755329
 20
126.3789632261152
 10
80.74476841202771
 20
126.3789632261152
 10
79.62360785515088
 20
125.7310263186787
 10
74.2151624388172
 20
125.7310263186787
 10
69.86287569287519
 20
133.3310263186787
 10
62.91516243881734
 20
133.3310263186787
 10
58.61516243881737
 20
125.7310263186787
 10
53.15550639443045
 20
125.7310263186787
 10
52.03434583755362
 20
126.3789632261152
 10
49.54476841202737
 20
126.3789632261152
 10
48.42360785515054
 20
125.7310263186787
 10
46.37732444102409
 20
125.7310263186787
  0
HATCH
  5
141
330
E3
100
AcDbEntity
  8
0
  6
Continuous
 62
   255
370
     0
100
AcDbHatch
 10
0.0
 20
0.0
 30
0.0
210
0.0
220
0.0
230
1.0
  2
SOLID
 70
     1
 71
     0
 91
        1
 92
        3
 72
     0
 73
     1
 93
        8
 10
148.5420028568649
 20
168.5444418697064
 10
170.6903458823079
 20
172.4497925871144
 10
172.003424149476
 20
166.6813263966904
 10
173.316502416644
 20
178.9128544981364
 10
174.6295755922893
 20
173.1443883077123
 10
196.7779237092551
 20
177.0497390251203
 10
196.7779237092551
 20
198.9052431179118
 10
148.5420028568649
 20
198.9052431179118
 97
        0
 75
     0
 76
     1
 98
        0
  0
LINE
  5
142
330
E3
100
AcDbEntity
  8
0
  6
Continuous
100
AcDbLine
 10
148.5420020823274
 20
168.5444429565004
 30
0.0
 11
170.6903463774079
 21
172.4497949123478
 31
0.0
  0
LINE
  5
143
330
E3
100
AcDbEntity
  8
0
  6
Continuous
100
AcDbLine
 10
174.6295765056378
 20
173.1443882683998
 30
0.0
 11
196.7779237784955
 21
177.0497402242472
 31
0.0
  0
LINE
  5
144
330
E3
100
AcDbEntity
  8
0
  6
Continuous
100
AcDbLine
 10
174.6295765056378
 20
173.1443882683998
 30
0.0
 11
173.3165017814127
 21
178.9128580608775
 31
0.0
  0
LINE
  5
145
330
E3
100
AcDbEntity
  8
0
  6
Continuous
100
AcDbLine
 10
173.3165017814127
 20
178.9128580608775
 30
0.0
 11
172.0034240794103
 21
166.6813251198701
 31
0.0
  0
LINE
  5
146
330
E3
100
AcDbEntity
  8
0
  6
Continuous
100
AcDbLine
 10
172.0034240794103
 20
166.6813251198701
 30
0.0
 11
170.6903463774079
 21
172.4497949123478
 31
0.0
  0
LINE
  5
147
330
E3
100
AcDbEntity
  8
Doc_ Floor
  6
Continuous
100
AcDbLine
 10
151.1802413066301
 20
138.1085245590007
 30
0.0
 11
151.1802413066301
 21
139.0865248921423
 31
0.0
  0
LINE
  5
148
330
E3
100
AcDbEntity
  8
Doc_ Floor
  6
Continuous
100
AcDbLine
 10
151.1802413066301
 20
139.0865248921423
 30
0.0
 11
151.1802413066301
 21
155.4221942906736
 31
0.0
  0
LINE
  5
149
330
E3
100
AcDbEntity
  8
Doc_ Floor
  6
Continuous
100
AcDbLine
 10
150.1802411547698
 20
139.6638742224211
 30
0.0
 11
152.1802414584904
 21
138.5091755618633
 31
0.0
  0
LINE
  5
14A
330
E3
100
AcDbEntity
  8
Doc_ Floor
  6
Continuous
100
AcDbLine
 10
152.1802414584904
 20
154.8448449603947
 30
0.0
 11
150.1802411547698
 21
155.9995465987298
 31
0.0
  0
LINE
  5
14B
330
E3
100
AcDbEntity
  8
Doc_ Floor
  6
Continuous
100
AcDbLine
 10
151.1802413066301
 20
155.4221942906736
 30
0.0
 11
151.1802413066301
 21
156.4001946238152
 31
0.0
  0
LINE
  5
14C
330
E3
100
AcDbEntity
  8
Doc_ Floor
  6
Continuous
100
AcDbLine
 10
152.6802400455319
 20
139.0865248921423
 30
0.0
 11
149.6802425677284
 21
139.0865248921423
 31
0.0
  0
LINE
  5
14D
330
E3
100
AcDbEntity
  8
Doc_ Floor
  6
Continuous
100
AcDbLine
 10
152.6802400455319
 20
155.4221942906736
 30
0.0
 11
149.6802425677284
 21
155.4221942906736
 31
0.0
  0
MTEXT
  5
14F
330
E3
100
AcDbEntity
  8
Doc_ Floor
  6
Continuous
100
AcDbMText
 10
147.8961667906316
 20
147.3886817596456
 30
0.0
 40
2.5
 41
0.0
 71
     7
 72
     1
  1
{A}
  7
GENERATED_STYLE_3
 73
     1
 44
1.0
  0
LINE
  5
150
330
E3
100
AcDbEntity
  8
Doc_ Floor
  6
Continuous
100
AcDbLine
 10
151.1802413066301
 20
132.3969809352353
 30
0.0
 11
151.1802413066301
 21
133.3749812683768
 31
0.0
  0
LINE
  5
151
330
E3
100
AcDbEntity
  8
Doc_ Floor
  6
Continuous
100
AcDbLine
 10
151.1802413066301
 20
133.3749812683768
 30
0.0
 11
151.1802413066301
 21
139.0865248921423
 31
0.0
  0
LINE
  5
152
330
E3
100
AcDbEntity
  8
Doc_ Floor
  6
Continuous
100
AcDbLine
 10
150.1802411547698
 20
133.9523305986557
 30
0.0
 11
152.1802414584904
 21
132.797631938098
 31
0.0
  0
LINE
  5
153
330
E3
100
AcDbEntity
  8
Doc_ Floor
  6
Continuous
100
AcDbLine
 10
152.1802414584904
 20
138.5091755618633
 30
0.0
 11
150.1802411547698
 21
139.6638742224211
 31
0.0
  0
LINE
  5
154
330
E3
100
AcDbEntity
  8
Doc_ Floor
  6
Continuous
100
AcDbLine
 10
151.1802413066301
 20
139.0865248921423
 30
0.0
 11
151.1802413066301
 21
140.0645252252837
 31
0.0
  0
LINE
  5
155
330
E3
100
AcDbEntity
  8
Doc_ Floor
  6
Continuous
100
AcDbLine
 10
152.6802400455319
 20
133.3749812683768
 30
0.0
 11
149.6802425677284
 21
133.3749812683768
 31
0.0
  0
LINE
  5
156
330
E3
100
AcDbEntity
  8
Doc_ Floor
  6
Continuous
100
AcDbLine
 10
152.6802400455319
 20
139.0865248921423
 30
0.0
 11
149.6802425677284
 21
139.0865248921423
 31
0.0
  0
MTEXT
  5
157
330
E3
100
AcDbEntity
  8
Doc_ Floor
  6
Continuous
100
AcDbMText
 10
138.1825294138399
 20
135.1737498277818
 30
0.0
 40
2.5
 41
0.0
 71
     7
 72
     1
  1
{35 MIN.}
  7
GENERATED_STYLE_3
 73
     1
 44
1.0
  0
LINE
  5
158
330
E3
100
AcDbEntity
  8
Doc_ Floor
  6
Continuous
100
AcDbLine
 10
123.9055819168084
 20
137.9232948996097
 30
0.0
 11
124.88358224995
 21
137.9232948996097
 31
0.0
  0
LINE
  5
159
330
E3
100
AcDbEntity
  8
Doc_ Floor
  6
Continuous
100
AcDbLine
 10
124.88358224995
 20
137.9232948996097
 30
0.0
 11
166.3960877723831
 21
137.9232948996097
 31
0.0
  0
LINE
  5
15A
330
E3
100
AcDbEntity
  8
Doc_ Floor
  6
Continuous
100
AcDbLine
 10
125.4609315802289
 20
138.9232950514701
 30
0.0
 11
124.3062329196711
 21
136.9232947477495
 31
0.0
  0
LINE
  5
15B
330
E3
100
AcDbEntity
  8
Doc_ Floor
  6
Continuous
100
AcDbLine
 10
165.8187384421043
 20
136.9232947477495
 30
0.0
 11
166.9734400804393
 21
138.9232950514701
 31
0.0
  0
LINE
  5
15C
330
E3
100
AcDbEntity
  8
Doc_ Floor
  6
Continuous
100
AcDbLine
 10
166.3960877723831
 20
137.9232948996097
 30
0.0
 11
167.3740881055247
 21
137.9232948996097
 31
0.0
  0
LINE
  5
15D
330
E3
100
AcDbEntity
  8
Doc_ Floor
  6
Continuous
100
AcDbLine
 10
124.88358224995
 20
136.423296160708
 30
0.0
 11
124.88358224995
 21
139.4232966162888
 31
0.0
  0
LINE
  5
15E
330
E3
100
AcDbEntity
  8
Doc_ Floor
  6
Continuous
100
AcDbLine
 10
166.3960877723831
 20
136.423296160708
 30
0.0
 11
166.3960877723831
 21
139.4232966162888
 31
0.0
  0
MTEXT
  5
15F
330
E3
100
AcDbEntity
  8
Doc_ Floor
  6
Continuous
100
AcDbMText
 10
134.5523812803731
 20
138.4232954850914
 30
0.0
 40
2.5
 41
0.0
 71
     7
 72
     1
  1
{B}
  7
GENERATED_STYLE_3
 73
     1
 44
1.0
  0
MTEXT
  5
160
330
E3
100
AcDbEntity
  8
Doc_ Floor
  6
Continuous
100
AcDbMText
 10
196.4204054808611
 20
171.8545330605044
 30
0.0
 40
2.499999999999999
 41
0.0
 71
     4
 72
     1
  1
{HEM TO FLASHING EDGE}
  7
GENERATED_STYLE_1
 73
     1
 44
1.0
  0
LINE
  5
161
330
E3
100
AcDbEntity
  8
Doc_ Floor
  6
Continuous
100
AcDbLine
 10
166.3589519116304
 20
152.1125615732909
 30
0.0
 11
168.6210234180603
 21
155.2448497855825
 31
0.0
  0
LINE
  5
162
330
E3
100
AcDbEntity
  8
Doc_ Floor
  6
Continuous
100
AcDbLine
 10
166.3589519116304
 20
152.1125615732909
 30
0.0
 11
169.8841072169132
 21
153.6941662991968
 31
0.0
  0
LINE
  5
163
330
E3
100
AcDbEntity
  8
Doc_ Floor
  6
Continuous
100
AcDbLine
 10
168.6210234180603
 20
155.2448497855825
 30
0.0
 11
169.8841072169132
 21
153.6941662991968
 31
0.0
  0
LWPOLYLINE
  5
164
330
E3
100
AcDbEntity
  8
Doc_ Floor
  6
Continuous
100
AcDbPolyline
 90
        8
 70
   128
 43
0.0
 10
169.2525651739379
 20
154.4695078430173
 10
179.6112532404657
 20
162.6699253916852
 10
183.6567927397811
 20
165.6856301659465
 10
187.0422612359303
 20
168.043471927233
 10
189.8395077435132
 20
169.7923054158503
 10
192.1203812771295
 20
170.9809853721035
 10
193.9567308513788
 20
171.6583665362982
 10
195.420405480861
 20
171.8733036487397
  0
MTEXT
  5
165
330
E3
100
AcDbEntity
  8
Doc_ Floor
  6
Continuous
100
AcDbMText
 10
110.2044393979538
 20
170.8655649609201
 30
0.0
 40
2.5
 41
56.71228972547948
 71
     6
 72
     1
  1
{CLADDING ON CAVITY BATTENS WITH BUILDING WRAP OVER METAL HIDDEN GUTTER}
  7
GENERATED_STYLE_1
 73
     1
 44
1.065340909090909
  0
LINE
  5
166
330
E3
100
AcDbEntity
  8
Doc_ Floor
  6
Continuous
100
AcDbLine
 10
157.0358497963419
 20
150.9436529594405
 30
0.0
 11
153.4468688123345
 21
152.3745285537946
 31
0.0
  0
LINE
  5
167
330
E3
100
AcDbEntity
  8
Doc_ Floor
  6
Continuous
100
AcDbLine
 10
157.0358497963419
 20
150.9436529594405
 30
0.0
 11
154.6431402218273
 21
153.9773201652154
 31
0.0
  0
LINE
  5
168
330
E3
100
AcDbEntity
  8
Doc_ Floor
  6
Continuous
100
AcDbLine
 10
153.4468688123345
 20
152.3745285537946
 30
0.0
 11
154.6431402218273
 21
153.9773201652154
 31
0.0
  0
LWPOLYLINE
  5
169
330
E3
100
AcDbEntity
  8
Doc_ Floor
  6
Continuous
100
AcDbPolyline
 90
       15
 70
   128
 43
0.0
 10
154.0450034690336
 20
153.1759243893217
 10
147.6123693558259
 20
157.7334386206432
 10
141.7167589291798
 20
161.5215493634779
 10
138.9345331653421
 20
163.1426564909121
 10
136.2435980035747
 20
164.590106423264
 10
133.6296316706874
 20
165.8701303862132
 10
131.0783123934904
 20
166.9889596054397
 10
128.5753183987934
 20
167.9528253066231
 10
126.1063279134064
 20
168.7679587154432
 10
123.6570191641395
 20
169.4405910575798
 10
121.2130703778026
 20
169.9769535587127
 10
118.7601597812055
 20
170.3832774445216
 10
116.2839656011584
 20
170.6657939406864
 10
113.7701660644711
 20
170.8307342728867
 10
111.2044393979537
 20
170.8843296668024
  0
MTEXT
  5
16A
330
E3
100
AcDbEntity
  8
Doc_ Floor
  6
Continuous
100
AcDbMText
 10
100.5528247465177
 20
153.4616035793204
 30
0.0
 40
2.5
 41
56.68353220040024
 71
     6
 72
     1
  1
\A1;{\fCentury Gothic|b0|i0|c0|p34;TRS 9\PMIN. ROOF PITCH 3\fArial|b0|i0|c0|p34;\H1.029412x;\U+00B0}
  7
GENERATED_STYLE_1
 73
     1
 44
1.056356172275314
  0
LINE
  5
16B
330
E3
100
AcDbEntity
  8
Doc_ Floor
  6
Continuous
100
AcDbLine
 10
133.2883229559326
 20
131.6110204381779
 30
0.0
 11
130.4260447006417
 21
134.2063141582086
 31
0.0
  0
LINE
  5
16C
330
E3
100
AcDbEntity
  8
Doc_ Floor
  6
Continuous
100
AcDbLine
 10
133.2883229559326
 20
131.6110204381779
 30
0.0
 11
132.1071667440327
 21
135.2897516301148
 31
0.0
  0
LINE
  5
16D
330
E3
100
AcDbEntity
  8
Doc_ Floor
  6
Continuous
100
AcDbLine
 10
130.4260447006417
 20
134.2063141582086
 30
0.0
 11
132.1071667440327
 21
135.2897516301148
 31
0.0
  0
LWPOLYLINE
  5
16E
330
E3
100
AcDbEntity
  8
Doc_ Floor
  6
Continuous
100
AcDbPolyline
 90
       16
 70
   128
 43
0.0
 10
131.2666053147005
 20
134.7480326110305
 10
127.8356858700263
 20
139.5638280243578
 10
126.1512874768969
 20
141.6643057091803
 10
124.4749986395262
 20
143.5685181787263
 10
122.797370860129
 20
145.2829765324594
 10
121.1089556409204
 20
146.8141918698427
 10
119.4003044841155
 20
148.1686752903398
 10
117.6619688919293
 20
149.3529378934138
 10
115.8845003665769
 20
150.3734907785282
 10
114.0584504102732
 20
151.2368450451463
 10
112.1743705252334
 20
151.9495117927314
 10
110.2228122136724
 20
152.5180021207468
 10
108.1943269778053
 20
152.948827128656
 10
106.0794663198472
 20
153.2484979159222
 10
103.868781742013
 20
153.4235255820089
 10
101.5528247465178
 20
153.4804212263792
  0
MTEXT
  5
16F
330
E3
100
AcDbEntity
  8
Doc_ Floor
  6
Continuous
100
AcDbMText
 10
100.5528247465177
 20
139.0084227469098
 30
0.0
 40
2.5
 41
0.0
 71
     6
 72
     1
  1
{UNDERLAY}
  7
GENERATED_STYLE_1
 73
     1
 44
1.0
  0
LINE
  5
170
330
E3
100
AcDbEntity
  8
Doc_ Floor
  6
Continuous
100
AcDbLine
 10
113.8171493456217
 20
124.9637758078681
 30
0.0
 11
111.8637750789204
 21
128.2973200769985
 31
0.0
  0
LINE
  5
171
330
E3
100
AcDbEntity
  8
Doc_ Floor
  6
Continuous
100
AcDbLine
 10
113.8171493456217
 20
124.9637758078681
 30
0.0
 11
113.7922521495866
 21
128.8273971925833
 31
0.0
  0
LINE
  5
172
330
E3
100
AcDbEntity
  8
Doc_ Floor
  6
Continuous
100
AcDbLine
 10
111.8637750789204
 20
128.2973200769985
 30
0.0
 11
113.7922521495866
 21
128.8273971925833
 31
0.0
  0
LWPOLYLINE
  5
173
330
E3
100
AcDbEntity
  8
Doc_ Floor
  6
Continuous
100
AcDbPolyline
 90
        9
 70
   128
 43
0.0
 10
112.8280133526868
 20
128.5623595735138
 10
111.8860875303899
 20
131.249653425282
 10
110.8590016674151
 20
133.4883981007656
 10
109.7225539621764
 20
135.3064083247743
 10
108.452542613088
 20
136.7314988221175
 10
107.0247658185638
 20
137.7914843176049
 10
105.415021777018
 20
138.514179536046
 10
103.5991086868647
 20
138.9273992022503
 10
101.5528247465178
 20
139.0589580410274
  0
MTEXT
  5
174
330
E3
100
AcDbEntity
  8
Doc_ Floor
  6
Continuous
100
AcDbMText
 10
196.4204054808611
 20
104.0446282221472
 30
0.0
 40
2.499999999999999
 41
0.0
 71
     4
 72
     1
  1
{PURLIN}
  7
GENERATED_STYLE_1
 73
     1
 44
1.0
  0
LINE
  5
175
330
E3
100
AcDbEntity
  8
Doc_ Floor
  6
Continuous
100
AcDbLine
 10
162.6100761975308
 20
118.954519964847
 30
0.0
 11
165.9896181926693
 21
117.0818494186269
 31
0.0
  0
LINE
  5
176
330
E3
100
AcDbEntity
  8
Doc_ Floor
  6
Continuous
100
AcDbLine
 10
162.6100761975308
 20
118.954519964847
 30
0.0
 11
164.6005089027749
 21
115.6429665811035
 31
0.0
  0
LINE
  5
177
330
E3
100
AcDbEntity
  8
Doc_ Floor
  6
Continuous
100
AcDbLine
 10
165.9896181926693
 20
117.0818494186269
 30
0.0
 11
164.6005089027749
 21
115.6429665811035
 31
0.0
  0
LWPOLYLINE
  5
178
330
E3
100
AcDbEntity
  8
Doc_ Floor
  6
Continuous
100
AcDbPolyline
 90
       13
 70
   128
 43
0.0
 10
165.2950634778693
 20
116.3624076779615
 10
168.9074832343356
 20
113.2121847392251
 10
172.4149347682818
 20
110.5912780233338
 10
174.1525401648782
 20
109.4687919381767
 10
175.8917947615264
 20
108.4660033357969
 10
177.6419956434537
 20
107.5787016918832
 10
179.4124398958874
 20
106.8026764821242
 10
181.2124246040548
 20
106.1337171822085
 10
183.0512468531832
 20
105.567613267825
 10
184.9382037284998
 20
105.1001542146623
 10
186.8825923152319
 20
104.727129498409
 10
190.9808529638518
 20
104.2475409793858
 10
195.420405480861
 20
104.0951635162648
  0
MTEXT
  5
179
330
E3
100
AcDbEntity
  8
0
  6
Continuous
100
AcDbMText
 10
80.59528482672773
 20
44.09353246607213
 30
0.0
 40
2.499999999999999
 41
69.01187578516166
 71
     7
 72
     1
  1
\A1;{\fCentury Gothic|b0|i0|c0|p34;LOW, MEDIUM OR HIGH WIND ZONE.\P ROOF PITCH \fArial|b0|i0|c0|p34;\H1.029412x;\U+2265\fCentury Gothic|b0|i0|c0|p34;\H0.971429x; 10\fArial|b0|i0|c0|p34;\H1.029412x;\U+00B0}
  7
GENERATED_STYLE_1
 73
     1
 44
1.056355725756043
  0
MTEXT
  5
17A
330
E3
100
AcDbEntity
  8
0
  6
Continuous
100
AcDbMText
 10
80.59528482672773
 20
33.67068007994492
 30
0.0
 40
2.5
 41
69.01187578516166
 71
     7
 72
     1
  1
\A1;{\fCentury Gothic|b0|i0|c0|p34;VERY HIGH OR EXTRA WIND ZONE.\P ROOF PITCH \fArial|b0|i0|c0|p34;\H1.029412x;<\fCentury Gothic|b0|i0|c0|p34;\H0.971429x; 10\fArial|b0|i0|c0|p34;\H1.029412x;\U+00B0}
  7
GENERATED_STYLE_1
 73
     1
 44
1.056355725756043
  0
MTEXT
  5
17B
330
E3
100
AcDbEntity
  8
0
  6
Continuous
100
AcDbMText
 10
165.0946188833159
 20
46.13336019751755
 30
0.0
 40
2.499999999999999
 41
0.0
 71
     8
 72
     1
  1
{75MM}
  7
GENERATED_STYLE_1
 73
     1
 44
1.0
  0
MTEXT
  5
17C
330
E3
100
AcDbEntity
  8
0
  6
Continuous
100
AcDbMText
 10
165.0946188833159
 20
34.89458067605981
 30
0.0
 40
2.499999999999999
 41
0.0
 71
     8
 72
     1
  1
{100MM}
  7
GENERATED_STYLE_1
 73
     1
 44
1.0
  0
MTEXT
  5
17D
330
E3
100
AcDbEntity
  8
0
  6
Continuous
100
AcDbMText
 10
165.0946188833159
 20
56.01542426293395
 30
0.0
 40
2.499999999999999
 41
0.0
 71
     8
 72
     1
  1
{A}
  7
GENERATED_STYLE_1
 73
     1
 44
1.0
  0
MTEXT
  5
17E
330
E3
100
AcDbEntity
  8
0
  6
Continuous
100
AcDbMText
 10
189.0646357201038
 20
46.13335364306047
 30
0.0
 40
2.5
 41
0.0
 71
     8
 72
     1
  1
{2 CRESTS}
  7
GENERATED_STYLE_1
 73
     1
 44
1.0
  0
MTEXT
  5
17F
330
E3
100
AcDbEntity
  8
0
  6
Continuous
100
AcDbMText
 10
189.0646357201038
 20
34.89457336032336
 30
0.0
 40
2.499999999999999
 41
0.0
 71
     8
 72
     1
  1
{2 CRESTS}
  7
GENERATED_STYLE_1
 73
     1
 44
1.0
  0
MTEXT
  5
180
330
E3
100
AcDbEntity
  8
0
  6
Continuous
100
AcDbMText
 10
189.0646357201038
 20
56.015424262934
 30
0.0
 40
2.499999999999999
 41
0.0
 71
     8
 72
     1
  1
{B}
  7
GENERATED_STYLE_1
 73
     1
 44
1.0
  0
MTEXT
  5
181
330
E3
100
AcDbEntity
  8
Doc_ Floor
  6
Continuous
100
AcDbMText
 10
109.0617621256458
 20
82.3994032760864
 30
0.0
 40
2.499999999999999
 41
0.0
 71
     6
 72
     1
  1
{ROOF FRAME}
  7
GENERATED_STYLE_1
 73
     1
 44
1.0
  0
LINE
  5
182
330
E3
100
AcDbEntity
  8
Doc_ Floor
  6
Continuous
100
AcDbLine
 10
129.6189777180566
 20
108.030668993368
 30
0.0
 11
129.2825722605184
 21
104.1816387174403
 31
0.0
  0
LINE
  5
183
330
E3
100
AcDbEntity
  8
Doc_ Floor
  6
Continuous
100
AcDbLine
 10
129.6189777180566
 20
108.030668993368
 30
0.0
 11
127.4031272709326
 21
104.8655150529769
 31
0.0
  0
LINE
  5
184
330
E3
100
AcDbEntity
  8
Doc_ Floor
  6
Continuous
100
AcDbLine
 10
129.2825722605184
 20
104.1816387174403
 30
0.0
 11
127.4031272709326
 21
104.8655150529769
 31
0.0
  0
LWPOLYLINE
  5
185
330
E3
100
AcDbEntity
  8
Doc_ Floor
  6
Continuous
100
AcDbPolyline
 90
       15
 70
   128
 43
0.0
 10
128.3428502201417
 20
104.5235763658809
 10
126.0877698862937
 20
98.8393358963964
 10
123.918216553828
 20
94.11293937167176
 10
122.8508071478098
 20
92.08967416672519
 10
121.7871330537728
 20
90.28275984172554
 10
120.7213121255955
 20
88.68449302792517
 10
119.6474622171564
 20
87.28717035657638
 10
118.5597011823341
 20
86.0830884589315
 10
117.4521468750072
 20
85.06454396624282
 10
116.3189171490541
 20
84.22383350976273
 10
115.1541298583535
 20
83.55325372074348
 10
113.9519028567838
 20
83.04510123043744
 10
112.7063539982236
 20
82.69167267009692
 10
111.4116011365515
 20
82.48526467097423
 10
110.0617621256459
 20
82.41817386432172
  0
HATCH
  5
186
330
E3
100
AcDbEntity
  8
0
  6
Continuous
 62
   255
370
     0
100
AcDbHatch
 10
0.0
 20
0.0
 30
0.0
210
0.0
220
0.0
230
1.0
  2
SOLID
 70
     1
 71
     0
 91
        1
 92
        3
 72
     0
 73
     1
 93
        8
 10
46.37732440698232
 20
134.4176614465682
 10
46.37732440698232
 20
89.38636536409926
 10
114.0931829407312
 20
89.38636536409926
 10
110.4703640846976
 20
109.9323979474363
 10
104.2388349781746
 20
111.245474919368
 10
116.0073034341675
 20
112.5585518912996
 10
109.7757703900161
 20
113.8716288632312
 10
106.1529515339825
 20
134.4176614465682
 97
        0
 75
     0
 76
     1
 98
        0
  0
LINE
  5
187
330
E3
100
AcDbEntity
  8
0
  6
Continuous
100
AcDbLine
 10
106.1529520772625
 20
134.4176589245518
 30
0.0
 11
109.7757725225476
 21
113.8716297965236
 31
0.0
  0
LINE
  5
188
330
E3
100
AcDbEntity
  8
0
  6
Continuous
100
AcDbLine
 10
110.4703629008224
 20
109.9323966905163
 30
0.0
 11
114.0931833461075
 21
89.38636756248815
 31
0.0
  0
LINE
  5
189
330
E3
100
AcDbEntity
  8
0
  6
Continuous
100
AcDbLine
 10
110.4703629008224
 20
109.9323966905163
 30
0.0
 11
104.238833848754
 21
111.2454743925188
 31
0.0
  0
LINE
  5
18A
330
E3
100
AcDbEntity
  8
0
  6
Continuous
100
AcDbLine
 10
104.238833848754
 20
111.2454743925188
 30
0.0
 11
116.007301574616
 21
112.5585520945212
 31
0.0
  0
LINE
  5
18B
330
E3
100
AcDbEntity
  8
0
  6
Continuous
100
AcDbLine
 10
116.007301574616
 20
112.5585520945212
 30
0.0
 11
109.7757725225476
 21
113.8716297965236
 31
0.0
  0
HATCH
  5
18C
330
E3
100
AcDbEntity
  8
0
  6
Continuous
 62
   255
370
     0
100
AcDbHatch
 10
0.0
 20
0.0
 30
0.0
210
0.0
220
0.0
230
1.0
  2
SOLID
 70
     1
 71
     0
 91
        1
 92
        3
 72
     0
 73
     1
 93
        4
 10
134.5971910351171
 20
134.9529503928237
 10
134.5971910351171
 20
134.4529503928238
 10
136.0971910351172
 20
134.4529503928238
 10
136.0971910351172
 20
134.9529503928237
 97
        0
 75
     0
 76
     1
 98
        0
  0
HATCH
  5
18D
330
E3
100
AcDbEntity
  8
0
  6
Continuous
 62
   255
370
     0
100
AcDbHatch
 10
0.0
 20
0.0
 30
0.0
210
0.0
220
0.0
230
1.0
  2
SOLID
 70
     1
 71
     0
 91
        1
 92
        3
 72
     1
 73
     1
 93
        4
 10
134.8471910351172
 20
134.8696170594905
 42
0.0
 10
134.8471910351172
 20
134.5362837261571
 42
0.1666666666666667
 10
135.8471910351171
 20
134.5362837261571
 42
0.0
 10
135.8471910351171
 20
134.8696170594904
 42
0.1666666666666667
 97
        0
 75
     0
 76
     1
 98
        0
  0
LINE
  5
18E
330
E3
100
AcDbEntity
  8
0
  6
Continuous
100
AcDbLine
 10
134.8471923521259
 20
134.5362846389939
 30
0.0
 11
134.8471923521259
 21
134.8696170303549
 31
0.0
  0
ARC
  5
18F
330
E3
100
AcDbEntity
  8
0
  6
Continuous
100
AcDbCircle
 10
135.3471910351172
 20
135.9946170594903
 30
0.0
 40
1.541666666666497
100
AcDbArc
 50
251.0753555839488
 51
288.9246444160513
  0
LINE
  5
190
330
E3
100
AcDbEntity
  8
0
  6
Continuous
100
AcDbLine
 10
135.8471925039862
 20
134.8696170303549
 30
0.0
 11
135.8471925039862
 21
134.5362846389939
 31
0.0
  0
ARC
  5
191
330
E3
100
AcDbEntity
  8
0
  6
Continuous
100
AcDbCircle
 10
135.3471910351171
 20
133.4112837261573
 30
0.0
 40
1.541666666666524
100
AcDbArc
 50
71.07535558394585
 51
108.924644416048
  0
HATCH
  5
192
330
E3
100
AcDbEntity
  8
0
  6
Continuous
 62
   255
370
     0
100
AcDbHatch
 10
0.0
 20
0.0
 30
0.0
210
0.0
220
0.0
230
1.0
  2
SOLID
 70
     1
 71
     0
 91
        1
 92
        3
 72
     1
 73
     1
 93
        4
 10
134.347191035117
 20
134.8696170594905
 42
0.0
 10
134.347191035117
 20
134.5362837261571
 42
0.3333333333333333
 10
134.8471910351172
 20
134.5362837261571
 42
0.0
 10
134.8471910351172
 20
134.8696170594905
 42
0.3333333333333333
 97
        0
 75
     0
 76
     1
 98
        0
  0
LINE
  5
193
330
E3
100
AcDbEntity
  8
0
  6
Continuous
100
AcDbLine
 10
134.3471907873071
 20
134.5362846389939
 30
0.0
 11
134.3471907873071
 21
134.8696170303549
 31
0.0
  0
ARC
  5
194
330
E3
100
AcDbEntity
  8
0
  6
Continuous
100
AcDbCircle
 10
134.5971910351171
 20
134.8696170594905
 30
0.0
 40
0.4166666666667984
100
AcDbArc
 50
233.1301023541552
 51
306.8698976458448
  0
LINE
  5
195
330
E3
100
AcDbEntity
  8
0
  6
Continuous
100
AcDbLine
 10
134.8471923521259
 20
134.8696170303549
 30
0.0
 11
134.8471923521259
 21
134.5362846389939
 31
0.0
  0
ARC
  5
196
330
E3
100
AcDbEntity
  8
0
  6
Continuous
100
AcDbCircle
 10
134.5971910351171
 20
134.536283726157
 30
0.0
 40
0.4166666666667984
100
AcDbArc
 50
53.13010235415521
 51
126.8698976458448
  0
HATCH
  5
197
330
E3
100
AcDbEntity
  8
0
  6
Continuous
 62
   255
370
     0
100
AcDbHatch
 10
0.0
 20
0.0
 30
0.0
210
0.0
220
0.0
230
1.0
  2
SOLID
 70
     1
 71
     0
 91
        1
 92
        3
 72
     1
 73
     1
 93
        4
 10
136.3471910351173
 20
134.8696170594905
 42
0.3333333333333333
 10
135.8471910351171
 20
134.8696170594905
 42
0.0
 10
135.8471910351171
 20
134.5362837261571
 42
0.3333333333333333
 10
136.3471910351173
 20
134.5362837261571
 42
0.0
 97
        0
 75
     0
 76
     1
 98
        0
  0
ARC
  5
198
330
E3
100
AcDbEntity
  8
0
  6
Continuous
100
AcDbCircle
 10
136.0971910351172
 20
134.536283726157
 30
0.0
 40
0.4166666666667984
100
AcDbArc
 50
53.13010235415521
 51
126.8698976458448
  0
LINE
  5
199
330
E3
100
AcDbEntity
  8
0
  6
Continuous
100
AcDbLine
 10
135.8471925039862
 20
134.8696170303549
 30
0.0
 11
135.8471925039862
 21
134.5362846389939
 31
0.0
  0
ARC
  5
19A
330
E3
100
AcDbEntity
  8
0
  6
Continuous
100
AcDbCircle
 10
136.0971910351172
 20
134.8696170594905
 30
0.0
 40
0.4166666666667984
100
AcDbArc
 50
233.1301023541552
 51
306.8698976458448
  0
LINE
  5
19B
330
E3
100
AcDbEntity
  8
0
  6
Continuous
100
AcDbLine
 10
136.3471910910276
 20
134.5362846389939
 30
0.0
 11
136.3471910910276
 21
134.8696170303549
 31
0.0
  0
HATCH
  5
19C
330
E3
100
AcDbEntity
  8
0
  6
Continuous
 62
   255
370
     0
100
AcDbHatch
 10
0.0
 20
0.0
 30
0.0
210
0.0
220
0.0
230
1.0
  2
SOLID
 70
     1
 71
     0
 91
        1
 92
        3
 72
     0
 73
     1
 93
        4
 10
135.6805240351173
 20
134.4529503928238
 10
135.0138580351172
 20
134.4529503928238
 10
135.0138580351172
 20
132.8529503928237
 10
135.6805240351173
 20
132.8529503928237
 97
        0
 75
     0
 76
     1
 98
        0
  0
LINE
  5
19D
330
E3
100
AcDbEntity
  8
0
  6
Continuous
100
AcDbLine
 10
135.0138585478064
 20
134.4529515411537
 30
0.0
 11
135.6805233305284
 21
134.4529515411537
 31
0.0
  0
LINE
  5
19E
330
E3
100
AcDbEntity
  8
0
  6
Continuous
100
AcDbLine
 10
135.0138585478064
 20
132.8529501070663
 30
0.0
 11
135.0138585478064
 21
134.4529515411537
 31
0.0
  0
LINE
  5
19F
330
E3
100
AcDbEntity
  8
0
  6
Continuous
100
AcDbLine
 10
135.6805233305284
 20
132.8529501070663
 30
0.0
 11
135.0138585478064
 21
132.8529501070663
 31
0.0
  0
LINE
  5
1A0
330
E3
100
AcDbEntity
  8
0
  6
Continuous
100
AcDbLine
 10
135.6805233305284
 20
134.4529515411537
 30
0.0
 11
135.6805233305284
 21
132.8529501070663
 31
0.0
  0
HATCH
  5
1A1
330
E3
100
AcDbEntity
  8
0
  6
Continuous
 62
   255
370
     0
100
AcDbHatch
 10
0.0
 20
0.0
 30
0.0
210
0.0
220
0.0
230
1.0
  2
SOLID
 70
     1
 71
     0
 91
        1
 92
        3
 72
     0
 73
     1
 93
        5
 10
135.6471910351171
 20
132.8529503928237
 10
135.0471910351172
 20
132.8529503928237
 10
135.0471910351172
 20
120.4529503928238
 10
135.3471910351172
 20
119.8529503928238
 10
135.6471910351171
 20
120.4529503928238
 97
        0
 75
     0
 76
     1
 98
        0
  0
LINE
  5
1A2
330
E3
100
AcDbEntity
  8
0
  6
Continuous
100
AcDbLine
 10
135.0471917869425
 20
132.8529501070663
 30
0.0
 11
135.6471900913922
 21
132.8529501070663
 31
0.0
  0
LINE
  5
1A3
330
E3
100
AcDbEntity
  8
0
  6
Continuous
100
AcDbLine
 10
135.0471917869425
 20
120.4529494151098
 30
0.0
 11
135.0471917869425
 21
132.8529501070663
 31
0.0
  0
LINE
  5
1A4
330
E3
100
AcDbEntity
  8
0
  6
Continuous
100
AcDbLine
 10
135.3471909391673
 20
119.85295111066
 30
0.0
 11
135.0471917869425
 21
120.4529494151098
 31
0.0
  0
LINE
  5
1A5
330
E3
100
AcDbEntity
  8
0
  6
Continuous
100
AcDbLine
 10
135.6471900913922
 20
120.4529494151098
 30
0.0
 11
135.3471909391673
 21
119.85295111066
 31
0.0
  0
LINE
  5
1A6
330
E3
100
AcDbEntity
  8
0
  6
Continuous
100
AcDbLine
 10
135.6471900913922
 20
132.8529501070663
 30
0.0
 11
135.6471900913922
 21
120.4529494151098
 31
0.0
  0
LINE
  5
1A7
330
E3
100
AcDbEntity
  8
0
  6
Continuous
100
AcDbLine
 10
134.5971900808278
 20
134.9529501281951
 30
0.0
 11
136.0971917975069
 21
134.9529501281951
 31
0.0
  0
LINE
  5
1A8
330
E3
100
AcDbEntity
  8
0
  6
Continuous
100
AcDbLine
 10
136.0971917975069
 20
134.4529515411537
 30
0.0
 11
134.5971900808278
 21
134.4529515411537
 31
0.0
  0
LINE
  5
1A9
330
E3
100
AcDbEntity
  8
0
  6
Continuous
100
AcDbLine
 10
135.8471910351171
 20
132.8529503928237
 30
0.0
 11
135.845288384163
 21
132.8474790123524
 31
0.0
  0
LINE
  5
1AA
330
E3
100
AcDbEntity
  8
0
  6
Continuous
100
AcDbLine
 10
135.845288384163
 20
132.8474790123524
 30
0.0
 11
135.8395949116234
 21
132.842007631881
 31
0.0
  0
LINE
  5
1AB
330
E3
100
AcDbEntity
  8
0
  6
Continuous
100
AcDbLine
 10
135.8395949116234
 20
132.842007631881
 30
0.0
 11
135.8301536622552
 21
132.836536598569
 31
0.0
  0
LINE
  5
1AC
330
E3
100
AcDbEntity
  8
0
  6
Continuous
100
AcDbLine
 10
135.8301536622552
 20
132.836536598569
 30
0.0
 11
135.817036553233
 21
132.8310634438851
 31
0.0
  0
LINE
  5
1AD
330
E3
100
AcDbEntity
  8
0
  6
Continuous
100
AcDbLine
 10
135.817036553233
 20
132.8310634438851
 30
0.0
 11
135.8003461114465
 21
132.8255932669784
 31
0.0
  0
LINE
  5
1AE
330
E3
100
AcDbEntity
  8
0
  6
Continuous
100
AcDbLine
 10
135.8003461114465
 20
132.8255932669784
 30
0.0
 11
135.7802044257652
 21
132.8201230900718
 31
0.0
  0
LINE
  5
1AF
330
E3
100
AcDbEntity
  8
0
  6
Continuous
100
AcDbLine
 10
135.7802044257652
 20
132.8201230900718
 30
0.0
 11
135.7567663406088
 21
132.8146499353878
 31
0.0
  0
LINE
  5
1B0
330
E3
100
AcDbEntity
  8
0
  6
Continuous
100
AcDbLine
 10
135.7567663406088
 20
132.8146499353878
 30
0.0
 11
135.7302135003929
 21
132.8091797584812
 31
0.0
  0
LINE
  5
1B1
330
E3
100
AcDbEntity
  8
0
  6
Continuous
100
AcDbLine
 10
135.7302135003929
 20
132.8091797584812
 30
0.0
 11
135.7007454161969
 21
132.8037066037973
 31
0.0
  0
LINE
  5
1B2
330
E3
100
AcDbEntity
  8
0
  6
Continuous
100
AcDbLine
 10
135.7007454161969
 20
132.8037066037973
 30
0.0
 11
135.6685854213184
 21
132.7982364268906
 31
0.0
  0
LINE
  5
1B3
330
E3
100
AcDbEntity
  8
0
  6
Continuous
100
AcDbLine
 10
135.6685854213184
 20
132.7982364268906
 30
0.0
 11
135.6339806712736
 21
132.792766249984
 31
0.0
  0
LINE
  5
1B4
330
E3
100
AcDbEntity
  8
0
  6
Continuous
100
AcDbLine
 10
135.6339806712736
 20
132.792766249984
 30
0.0
 11
135.5971902326881
 21
132.7872930953
 31
0.0
  0
LINE
  5
1B5
330
E3
100
AcDbEntity
  8
0
  6
Continuous
100
AcDbLine
 10
135.5971902326881
 20
132.7872930953
 30
0.0
 11
135.5584999721829
 21
132.7818229183933
 31
0.0
  0
LINE
  5
1B6
330
E3
100
AcDbEntity
  8
0
  6
Continuous
100
AcDbLine
 10
135.5584999721829
 20
132.7818229183933
 30
0.0
 11
135.5182017119337
 21
132.7763497637094
 31
0.0
  0
LINE
  5
1B7
330
E3
100
AcDbEntity
  8
0
  6
Continuous
100
AcDbLine
 10
135.5182017119337
 20
132.7763497637094
 30
0.0
 11
135.4765991852256
 21
132.7708795868027
 31
0.0
  0
LINE
  5
1B8
330
E3
100
AcDbEntity
  8
0
  6
Continuous
100
AcDbLine
 10
135.4765991852256
 20
132.7708795868027
 30
0.0
 11
135.4340139920074
 21
132.7654094098961
 31
0.0
  0
LINE
  5
1B9
330
E3
100
AcDbEntity
  8
0
  6
Continuous
100
AcDbLine
 10
135.4340139920074
 20
132.7654094098961
 30
0.0
 11
135.3907677322277
 21
132.7599362552122
 31
0.0
  0
LINE
  5
1BA
330
E3
100
AcDbEntity
  8
0
  6
Continuous
100
AcDbLine
 10
135.3907677322277
 20
132.7599362552122
 30
0.0
 11
135.3471909391673
 21
132.7544660783055
 31
0.0
  0
LINE
  5
1BB
330
E3
100
AcDbEntity
  8
0
  6
Continuous
100
AcDbLine
 10
135.3471909391673
 20
132.7544660783055
 30
0.0
 11
135.303614146107
 21
132.7489929236216
 31
0.0
  0
LINE
  5
1BC
330
E3
100
AcDbEntity
  8
0
  6
Continuous
100
AcDbLine
 10
135.303614146107
 20
132.7489929236216
 30
0.0
 11
135.2603678863273
 21
132.7435227467149
 31
0.0
  0
LINE
  5
1BD
330
E3
100
AcDbEntity
  8
0
  6
Continuous
100
AcDbLine
 10
135.2603678863273
 20
132.7435227467149
 30
0.0
 11
135.2177826931091
 21
132.7380525698082
 31
0.0
  0
LINE
  5
1BE
330
E3
100
AcDbEntity
  8
0
  6
Continuous
100
AcDbLine
 10
135.2177826931091
 20
132.7380525698082
 30
0.0
 11
135.176180166401
 21
132.7325794151243
 31
0.0
  0
LINE
  5
1BF
330
E3
100
AcDbEntity
  8
0
  6
Continuous
100
AcDbLine
 10
135.176180166401
 20
132.7325794151243
 30
0.0
 11
135.1358819061518
 21
132.7271092382177
 31
0.0
  0
LINE
  5
1C0
330
E3
100
AcDbEntity
  8
0
  6
Continuous
100
AcDbLine
 10
135.1358819061518
 20
132.7271092382177
 30
0.0
 11
135.0971916456466
 21
132.7216360835337
 31
0.0
  0
LINE
  5
1C1
330
E3
100
AcDbEntity
  8
0
  6
Continuous
100
AcDbLine
 10
135.0971916456466
 20
132.7216360835337
 30
0.0
 11
135.0604041848384
 21
132.7161659066271
 31
0.0
  0
LINE
  5
1C2
330
E3
100
AcDbEntity
  8
0
  6
Continuous
100
AcDbLine
 10
135.0604041848384
 20
132.7161659066271
 30
0.0
 11
135.0257964570164
 21
132.7106957297204
 31
0.0
  0
LINE
  5
1C3
330
E3
100
AcDbEntity
  8
0
  6
Continuous
100
AcDbLine
 10
135.0257964570164
 20
132.7106957297204
 30
0.0
 11
134.9936364621379
 21
132.7052225750365
 31
0.0
  0
LINE
  5
1C4
330
E3
100
AcDbEntity
  8
0
  6
Continuous
100
AcDbLine
 10
134.9936364621379
 20
132.7052225750365
 30
0.0
 11
134.9641683779418
 21
132.6997523981298
 31
0.0
  0
LINE
  5
1C5
330
E3
100
AcDbEntity
  8
0
  6
Continuous
100
AcDbLine
 10
134.9641683779418
 20
132.6997523981298
 30
0.0
 11
134.9376155377259
 21
132.6942792434458
 31
0.0
  0
LINE
  5
1C6
330
E3
100
AcDbEntity
  8
0
  6
Continuous
100
AcDbLine
 10
134.9376155377259
 20
132.6942792434458
 30
0.0
 11
134.9141774525696
 21
132.6888090665392
 31
0.0
  0
LINE
  5
1C7
330
E3
100
AcDbEntity
  8
0
  6
Continuous
100
AcDbLine
 10
134.9141774525696
 20
132.6888090665392
 30
0.0
 11
134.8940357668882
 21
132.6833388896326
 31
0.0
  0
LINE
  5
1C8
330
E3
100
AcDbEntity
  8
0
  6
Continuous
100
AcDbLine
 10
134.8940357668882
 20
132.6833388896326
 30
0.0
 11
134.8773453251018
 21
132.6778657349486
 31
0.0
  0
LINE
  5
1C9
330
E3
100
AcDbEntity
  8
0
  6
Continuous
100
AcDbLine
 10
134.8773453251018
 20
132.6778657349486
 30
0.0
 11
134.8642282160796
 21
132.672395558042
 31
0.0
  0
LINE
  5
1CA
330
E3
100
AcDbEntity
  8
0
  6
Continuous
100
AcDbLine
 10
134.8642282160796
 20
132.672395558042
 30
0.0
 11
134.85478568425
 21
132.666922403358
 31
0.0
  0
LINE
  5
1CB
330
E3
100
AcDbEntity
  8
0
  6
Continuous
100
AcDbLine
 10
134.85478568425
 20
132.666922403358
 30
0.0
 11
134.8490936860713
 21
132.6614520763254
 31
0.0
  0
LINE
  5
1CC
330
E3
100
AcDbEntity
  8
0
  6
Continuous
100
AcDbLine
 10
134.8490936860713
 20
132.6614520763254
 30
0.0
 11
134.8471910351172
 21
132.6559806958541
 31
0.0
  0
LINE
  5
1CD
330
E3
100
AcDbEntity
  8
0
  6
Continuous
100
AcDbLine
 10
135.8471910351171
 20
132.4590109988844
 30
0.0
 11
135.845288384163
 21
132.453539618413
 31
0.0
  0
LINE
  5
1CE
330
E3
100
AcDbEntity
  8
0
  6
Continuous
100
AcDbLine
 10
135.845288384163
 20
132.453539618413
 30
0.0
 11
135.8395949116234
 21
132.4480682379416
 31
0.0
  0
LINE
  5
1CF
330
E3
100
AcDbEntity
  8
0
  6
Continuous
100
AcDbLine
 10
135.8395949116234
 20
132.4480682379416
 30
0.0
 11
135.8301536622552
 21
132.4425975057486
 31
0.0
  0
LINE
  5
1D0
330
E3
100
AcDbEntity
  8
0
  6
Continuous
100
AcDbLine
 10
135.8301536622552
 20
132.4425975057486
 30
0.0
 11
135.817036553233
 21
132.4371243510646
 31
0.0
  0
LINE
  5
1D1
330
E3
100
AcDbEntity
  8
0
  6
Continuous
100
AcDbLine
 10
135.817036553233
 20
132.4371243510646
 30
0.0
 11
135.8003461114465
 21
132.431654174158
 31
0.0
  0
LINE
  5
1D2
330
E3
100
AcDbEntity
  8
0
  6
Continuous
100
AcDbLine
 10
135.8003461114465
 20
132.431654174158
 30
0.0
 11
135.7802044257652
 21
132.4261839972514
 31
0.0
  0
LINE
  5
1D3
330
E3
100
AcDbEntity
  8
0
  6
Continuous
100
AcDbLine
 10
135.7802044257652
 20
132.4261839972514
 30
0.0
 11
135.7567663406088
 21
132.4207108425674
 31
0.0
  0
LINE
  5
1D4
330
E3
100
AcDbEntity
  8
0
  6
Continuous
100
AcDbLine
 10
135.7567663406088
 20
132.4207108425674
 30
0.0
 11
135.7302135003929
 21
132.4152406656607
 31
0.0
  0
LINE
  5
1D5
330
E3
100
AcDbEntity
  8
0
  6
Continuous
100
AcDbLine
 10
135.7302135003929
 20
132.4152406656607
 30
0.0
 11
135.7007454161969
 21
132.4097675109768
 31
0.0
  0
LINE
  5
1D6
330
E3
100
AcDbEntity
  8
0
  6
Continuous
100
AcDbLine
 10
135.7007454161969
 20
132.4097675109768
 30
0.0
 11
135.6685854213184
 21
132.4042973340702
 31
0.0
  0
LINE
  5
1D7
330
E3
100
AcDbEntity
  8
0
  6
Continuous
100
AcDbLine
 10
135.6685854213184
 20
132.4042973340702
 30
0.0
 11
135.6339806712736
 21
132.3988271571635
 31
0.0
  0
LINE
  5
1D8
330
E3
100
AcDbEntity
  8
0
  6
Continuous
100
AcDbLine
 10
135.6339806712736
 20
132.3988271571635
 30
0.0
 11
135.5971902326881
 21
132.3933540024795
 31
0.0
  0
LINE
  5
1D9
330
E3
100
AcDbEntity
  8
0
  6
Continuous
100
AcDbLine
 10
135.5971902326881
 20
132.3933540024795
 30
0.0
 11
135.5584999721829
 21
132.3878838255729
 31
0.0
  0
LINE
  5
1DA
330
E3
100
AcDbEntity
  8
0
  6
Continuous
100
AcDbLine
 10
135.5584999721829
 20
132.3878838255729
 30
0.0
 11
135.5182017119337
 21
132.382410670889
 31
0.0
  0
LINE
  5
1DB
330
E3
100
AcDbEntity
  8
0
  6
Continuous
100
AcDbLine
 10
135.5182017119337
 20
132.382410670889
 30
0.0
 11
135.4765991852256
 21
132.3769404939823
 31
0.0
  0
LINE
  5
1DC
330
E3
100
AcDbEntity
  8
0
  6
Continuous
100
AcDbLine
 10
135.4765991852256
 20
132.3769404939823
 30
0.0
 11
135.4340139920074
 21
132.3714703170757
 31
0.0
  0
LINE
  5
1DD
330
E3
100
AcDbEntity
  8
0
  6
Continuous
100
AcDbLine
 10
135.4340139920074
 20
132.3714703170757
 30
0.0
 11
135.3907677322277
 21
132.3659971623917
 31
0.0
  0
LINE
  5
1DE
330
E3
100
AcDbEntity
  8
0
  6
Continuous
100
AcDbLine
 10
135.3907677322277
 20
132.3659971623917
 30
0.0
 11
135.3471909391673
 21
132.3605269854851
 31
0.0
  0
LINE
  5
1DF
330
E3
100
AcDbEntity
  8
0
  6
Continuous
100
AcDbLine
 10
135.3471909391673
 20
132.3605269854851
 30
0.0
 11
135.303614146107
 21
132.3550538308011
 31
0.0
  0
LINE
  5
1E0
330
E3
100
AcDbEntity
  8
0
  6
Continuous
100
AcDbLine
 10
135.303614146107
 20
132.3550538308011
 30
0.0
 11
135.2603678863273
 21
132.3495836538945
 31
0.0
  0
LINE
  5
1E1
330
E3
100
AcDbEntity
  8
0
  6
Continuous
100
AcDbLine
 10
135.2603678863273
 20
132.3495836538945
 30
0.0
 11
135.2177826931091
 21
132.3441134769878
 31
0.0
  0
LINE
  5
1E2
330
E3
100
AcDbEntity
  8
0
  6
Continuous
100
AcDbLine
 10
135.2177826931091
 20
132.3441134769878
 30
0.0
 11
135.176180166401
 21
132.3386403223039
 31
0.0
  0
LINE
  5
1E3
330
E3
100
AcDbEntity
  8
0
  6
Continuous
100
AcDbLine
 10
135.176180166401
 20
132.3386403223039
 30
0.0
 11
135.1358819061518
 21
132.3331701453972
 31
0.0
  0
LINE
  5
1E4
330
E3
100
AcDbEntity
  8
0
  6
Continuous
100
AcDbLine
 10
135.1358819061518
 20
132.3331701453972
 30
0.0
 11
135.0971916456466
 21
132.3276969907133
 31
0.0
  0
LINE
  5
1E5
330
E3
100
AcDbEntity
  8
0
  6
Continuous
100
AcDbLine
 10
135.0971916456466
 20
132.3276969907133
 30
0.0
 11
135.0604041848384
 21
132.3222268138066
 31
0.0
  0
LINE
  5
1E6
330
E3
100
AcDbEntity
  8
0
  6
Continuous
100
AcDbLine
 10
135.0604041848384
 20
132.3222268138066
 30
0.0
 11
135.0257964570164
 21
132.3167536591227
 31
0.0
  0
LINE
  5
1E7
330
E3
100
AcDbEntity
  8
0
  6
Continuous
100
AcDbLine
 10
135.0257964570164
 20
132.3167536591227
 30
0.0
 11
134.9936364621379
 21
132.311283482216
 31
0.0
  0
LINE
  5
1E8
330
E3
100
AcDbEntity
  8
0
  6
Continuous
100
AcDbLine
 10
134.9936364621379
 20
132.311283482216
 30
0.0
 11
134.9641683779418
 21
132.3058133053094
 31
0.0
  0
LINE
  5
1E9
330
E3
100
AcDbEntity
  8
0
  6
Continuous
100
AcDbLine
 10
134.9641683779418
 20
132.3058133053094
 30
0.0
 11
134.9376155377259
 21
132.3003401506254
 31
0.0
  0
LINE
  5
1EA
330
E3
100
AcDbEntity
  8
0
  6
Continuous
100
AcDbLine
 10
134.9376155377259
 20
132.3003401506254
 30
0.0
 11
134.9141774525696
 21
132.2948699737188
 31
0.0
  0
LINE
  5
1EB
330
E3
100
AcDbEntity
  8
0
  6
Continuous
100
AcDbLine
 10
134.9141774525696
 20
132.2948699737188
 30
0.0
 11
134.8940357668882
 21
132.2893968190348
 31
0.0
  0
LINE
  5
1EC
330
E3
100
AcDbEntity
  8
0
  6
Continuous
100
AcDbLine
 10
134.8940357668882
 20
132.2893968190348
 30
0.0
 11
134.8773453251018
 21
132.2839266421282
 31
0.0
  0
LINE
  5
1ED
330
E3
100
AcDbEntity
  8
0
  6
Continuous
100
AcDbLine
 10
134.8773453251018
 20
132.2839266421282
 30
0.0
 11
134.8642282160796
 21
132.2784564652215
 31
0.0
  0
LINE
  5
1EE
330
E3
100
AcDbEntity
  8
0
  6
Continuous
100
AcDbLine
 10
134.8642282160796
 20
132.2784564652215
 30
0.0
 11
134.85478568425
 21
132.2729833105375
 31
0.0
  0
LINE
  5
1EF
330
E3
100
AcDbEntity
  8
0
  6
Continuous
100
AcDbLine
 10
134.85478568425
 20
132.2729833105375
 30
0.0
 11
134.8490936860713
 21
132.267512682386
 31
0.0
  0
LINE
  5
1F0
330
E3
100
AcDbEntity
  8
0
  6
Continuous
100
AcDbLine
 10
134.8490936860713
 20
132.267512682386
 30
0.0
 11
134.8471910351172
 21
132.2620413019146
 31
0.0
  0
LINE
  5
1F1
330
E3
100
AcDbEntity
  8
0
  6
Continuous
100
AcDbLine
 10
135.8471910351171
 20
132.065071604945
 30
0.0
 11
135.845288384163
 21
132.0596002244736
 31
0.0
  0
LINE
  5
1F2
330
E3
100
AcDbEntity
  8
0
  6
Continuous
100
AcDbLine
 10
135.845288384163
 20
132.0596002244736
 30
0.0
 11
135.8395949116234
 21
132.0541288440022
 31
0.0
  0
LINE
  5
1F3
330
E3
100
AcDbEntity
  8
0
  6
Continuous
100
AcDbLine
 10
135.8395949116234
 20
132.0541288440022
 30
0.0
 11
135.8301536622552
 21
132.0486584129282
 31
0.0
  0
LINE
  5
1F4
330
E3
100
AcDbEntity
  8
0
  6
Continuous
100
AcDbLine
 10
135.8301536622552
 20
132.0486584129282
 30
0.0
 11
135.817036553233
 21
132.0431852582442
 31
0.0
  0
LINE
  5
1F5
330
E3
100
AcDbEntity
  8
0
  6
Continuous
100
AcDbLine
 10
135.817036553233
 20
132.0431852582442
 30
0.0
 11
135.8003461114465
 21
132.0377150813376
 31
0.0
  0
LINE
  5
1F6
330
E3
100
AcDbEntity
  8
0
  6
Continuous
100
AcDbLine
 10
135.8003461114465
 20
132.0377150813376
 30
0.0
 11
135.7802044257652
 21
132.0322419266536
 31
0.0
  0
LINE
  5
1F7
330
E3
100
AcDbEntity
  8
0
  6
Continuous
100
AcDbLine
 10
135.7802044257652
 20
132.0322419266536
 30
0.0
 11
135.7567663406088
 21
132.026771749747
 31
0.0
  0
LINE
  5
1F8
330
E3
100
AcDbEntity
  8
0
  6
Continuous
100
AcDbLine
 10
135.7567663406088
 20
132.026771749747
 30
0.0
 11
135.7302135003929
 21
132.0213015728403
 31
0.0
  0
LINE
  5
1F9
330
E3
100
AcDbEntity
  8
0
  6
Continuous
100
AcDbLine
 10
135.7302135003929
 20
132.0213015728403
 30
0.0
 11
135.7007454161969
 21
132.0158284181564
 31
0.0
  0
LINE
  5
1FA
330
E3
100
AcDbEntity
  8
0
  6
Continuous
100
AcDbLine
 10
135.7007454161969
 20
132.0158284181564
 30
0.0
 11
135.6685854213184
 21
132.0103582412497
 31
0.0
  0
LINE
  5
1FB
330
E3
100
AcDbEntity
  8
0
  6
Continuous
100
AcDbLine
 10
135.6685854213184
 20
132.0103582412497
 30
0.0
 11
135.6339806712736
 21
132.0048850865658
 31
0.0
  0
LINE
  5
1FC
330
E3
100
AcDbEntity
  8
0
  6
Continuous
100
AcDbLine
 10
135.6339806712736
 20
132.0048850865658
 30
0.0
 11
135.5971902326881
 21
131.9994149096591
 31
0.0
  0
LINE
  5
1FD
330
E3
100
AcDbEntity
  8
0
  6
Continuous
100
AcDbLine
 10
135.5971902326881
 20
131.9994149096591
 30
0.0
 11
135.5584999721829
 21
131.9939447327525
 31
0.0
  0
LINE
  5
1FE
330
E3
100
AcDbEntity
  8
0
  6
Continuous
100
AcDbLine
 10
135.5584999721829
 20
131.9939447327525
 30
0.0
 11
135.5182017119337
 21
131.9884715780685
 31
0.0
  0
LINE
  5
1FF
330
E3
100
AcDbEntity
  8
0
  6
Continuous
100
AcDbLine
 10
135.5182017119337
 20
131.9884715780685
 30
0.0
 11
135.4765991852256
 21
131.9830014011619
 31
0.0
  0
LINE
  5
200
330
E3
100
AcDbEntity
  8
0
  6
Continuous
100
AcDbLine
 10
135.4765991852256
 20
131.9830014011619
 30
0.0
 11
135.4340139920074
 21
131.9775282464779
 31
0.0
  0
LINE
  5
201
330
E3
100
AcDbEntity
  8
0
  6
Continuous
100
AcDbLine
 10
135.4340139920074
 20
131.9775282464779
 30
0.0
 11
135.3907677322277
 21
131.9720580695713
 31
0.0
  0
LINE
  5
202
330
E3
100
AcDbEntity
  8
0
  6
Continuous
100
AcDbLine
 10
135.3907677322277
 20
131.9720580695713
 30
0.0
 11
135.3471909391673
 21
131.9665878926646
 31
0.0
  0
LINE
  5
203
330
E3
100
AcDbEntity
  8
0
  6
Continuous
100
AcDbLine
 10
135.3471909391673
 20
131.9665878926646
 30
0.0
 11
135.303614146107
 21
131.9611147379807
 31
0.0
  0
LINE
  5
204
330
E3
100
AcDbEntity
  8
0
  6
Continuous
100
AcDbLine
 10
135.303614146107
 20
131.9611147379807
 30
0.0
 11
135.2603678863273
 21
131.955644561074
 31
0.0
  0
LINE
  5
205
330
E3
100
AcDbEntity
  8
0
  6
Continuous
100
AcDbLine
 10
135.2603678863273
 20
131.955644561074
 30
0.0
 11
135.2177826931091
 21
131.9501714063901
 31
0.0
  0
LINE
  5
206
330
E3
100
AcDbEntity
  8
0
  6
Continuous
100
AcDbLine
 10
135.2177826931091
 20
131.9501714063901
 30
0.0
 11
135.176180166401
 21
131.9447012294834
 31
0.0
  0
LINE
  5
207
330
E3
100
AcDbEntity
  8
0
  6
Continuous
100
AcDbLine
 10
135.176180166401
 20
131.9447012294834
 30
0.0
 11
135.1358819061518
 21
131.9392310525768
 31
0.0
  0
LINE
  5
208
330
E3
100
AcDbEntity
  8
0
  6
Continuous
100
AcDbLine
 10
135.1358819061518
 20
131.9392310525768
 30
0.0
 11
135.0971916456466
 21
131.9337578978929
 31
0.0
  0
LINE
  5
209
330
E3
100
AcDbEntity
  8
0
  6
Continuous
100
AcDbLine
 10
135.0971916456466
 20
131.9337578978929
 30
0.0
 11
135.0604041848384
 21
131.9282877209862
 31
0.0
  0
LINE
  5
20A
330
E3
100
AcDbEntity
  8
0
  6
Continuous
100
AcDbLine
 10
135.0604041848384
 20
131.9282877209862
 30
0.0
 11
135.0257964570164
 21
131.9228145663022
 31
0.0
  0
LINE
  5
20B
330
E3
100
AcDbEntity
  8
0
  6
Continuous
100
AcDbLine
 10
135.0257964570164
 20
131.9228145663022
 30
0.0
 11
134.9936364621379
 21
131.9173443893956
 31
0.0
  0
LINE
  5
20C
330
E3
100
AcDbEntity
  8
0
  6
Continuous
100
AcDbLine
 10
134.9936364621379
 20
131.9173443893956
 30
0.0
 11
134.9641683779418
 21
131.911874212489
 31
0.0
  0
LINE
  5
20D
330
E3
100
AcDbEntity
  8
0
  6
Continuous
100
AcDbLine
 10
134.9641683779418
 20
131.911874212489
 30
0.0
 11
134.9376155377259
 21
131.906401057805
 31
0.0
  0
LINE
  5
20E
330
E3
100
AcDbEntity
  8
0
  6
Continuous
100
AcDbLine
 10
134.9376155377259
 20
131.906401057805
 30
0.0
 11
134.9141774525696
 21
131.9009308808983
 31
0.0
  0
LINE
  5
20F
330
E3
100
AcDbEntity
  8
0
  6
Continuous
100
AcDbLine
 10
134.9141774525696
 20
131.9009308808983
 30
0.0
 11
134.8940357668882
 21
131.8954577262144
 31
0.0
  0
LINE
  5
210
330
E3
100
AcDbEntity
  8
0
  6
Continuous
100
AcDbLine
 10
134.8940357668882
 20
131.8954577262144
 30
0.0
 11
134.8773453251018
 21
131.8899875493078
 31
0.0
  0
LINE
  5
211
330
E3
100
AcDbEntity
  8
0
  6
Continuous
100
AcDbLine
 10
134.8773453251018
 20
131.8899875493078
 30
0.0
 11
134.8642282160796
 21
131.8845173724011
 31
0.0
  0
LINE
  5
212
330
E3
100
AcDbEntity
  8
0
  6
Continuous
100
AcDbLine
 10
134.8642282160796
 20
131.8845173724011
 30
0.0
 11
134.85478568425
 21
131.8790442177171
 31
0.0
  0
LINE
  5
213
330
E3
100
AcDbEntity
  8
0
  6
Continuous
100
AcDbLine
 10
134.85478568425
 20
131.8790442177171
 30
0.0
 11
134.8490936860713
 21
131.8735732884466
 31
0.0
  0
LINE
  5
214
330
E3
100
AcDbEntity
  8
0
  6
Continuous
100
AcDbLine
 10
134.8490936860713
 20
131.8735732884466
 30
0.0
 11
134.8471910351172
 21
131.8681019079753
 31
0.0
  0
LINE
  5
215
330
E3
100
AcDbEntity
  8
0
  6
Continuous
100
AcDbLine
 10
135.8471910351171
 20
131.6711322110056
 30
0.0
 11
135.845288384163
 21
131.6656608305342
 31
0.0
  0
LINE
  5
216
330
E3
100
AcDbEntity
  8
0
  6
Continuous
100
AcDbLine
 10
135.845288384163
 20
131.6656608305342
 30
0.0
 11
135.8395949116234
 21
131.6601894500628
 31
0.0
  0
LINE
  5
217
330
E3
100
AcDbEntity
  8
0
  6
Continuous
100
AcDbLine
 10
135.8395949116234
 20
131.6601894500628
 30
0.0
 11
135.8301536622552
 21
131.6547193201077
 31
0.0
  0
LINE
  5
218
330
E3
100
AcDbEntity
  8
0
  6
Continuous
100
AcDbLine
 10
135.8301536622552
 20
131.6547193201077
 30
0.0
 11
135.817036553233
 21
131.6492461654238
 31
0.0
  0
LINE
  5
219
330
E3
100
AcDbEntity
  8
0
  6
Continuous
100
AcDbLine
 10
135.817036553233
 20
131.6492461654238
 30
0.0
 11
135.8003461114465
 21
131.6437759885171
 31
0.0
  0
LINE
  5
21A
330
E3
100
AcDbEntity
  8
0
  6
Continuous
100
AcDbLine
 10
135.8003461114465
 20
131.6437759885171
 30
0.0
 11
135.7802044257652
 21
131.6383028338332
 31
0.0
  0
LINE
  5
21B
330
E3
100
AcDbEntity
  8
0
  6
Continuous
100
AcDbLine
 10
135.7802044257652
 20
131.6383028338332
 30
0.0
 11
135.7567663406088
 21
131.6328326569266
 31
0.0
  0
LINE
  5
21C
330
E3
100
AcDbEntity
  8
0
  6
Continuous
100
AcDbLine
 10
135.7567663406088
 20
131.6328326569266
 30
0.0
 11
135.7302135003929
 21
131.6273624800199
 31
0.0
  0
LINE
  5
21D
330
E3
100
AcDbEntity
  8
0
  6
Continuous
100
AcDbLine
 10
135.7302135003929
 20
131.6273624800199
 30
0.0
 11
135.7007454161969
 21
131.621889325336
 31
0.0
  0
LINE
  5
21E
330
E3
100
AcDbEntity
  8
0
  6
Continuous
100
AcDbLine
 10
135.7007454161969
 20
131.621889325336
 30
0.0
 11
135.6685854213184
 21
131.6164191484293
 31
0.0
  0
LINE
  5
21F
330
E3
100
AcDbEntity
  8
0
  6
Continuous
100
AcDbLine
 10
135.6685854213184
 20
131.6164191484293
 30
0.0
 11
135.6339806712736
 21
131.6109459937453
 31
0.0
  0
LINE
  5
220
330
E3
100
AcDbEntity
  8
0
  6
Continuous
100
AcDbLine
 10
135.6339806712736
 20
131.6109459937453
 30
0.0
 11
135.5971902326881
 21
131.6054758168387
 31
0.0
  0
LINE
  5
221
330
E3
100
AcDbEntity
  8
0
  6
Continuous
100
AcDbLine
 10
135.5971902326881
 20
131.6054758168387
 30
0.0
 11
135.5584999721829
 21
131.600005639932
 31
0.0
  0
LINE
  5
222
330
E3
100
AcDbEntity
  8
0
  6
Continuous
100
AcDbLine
 10
135.5584999721829
 20
131.600005639932
 30
0.0
 11
135.5182017119337
 21
131.5945324852481
 31
0.0
  0
LINE
  5
223
330
E3
100
AcDbEntity
  8
0
  6
Continuous
100
AcDbLine
 10
135.5182017119337
 20
131.5945324852481
 30
0.0
 11
135.4765991852256
 21
131.5890623083415
 31
0.0
  0
LINE
  5
224
330
E3
100
AcDbEntity
  8
0
  6
Continuous
100
AcDbLine
 10
135.4765991852256
 20
131.5890623083415
 30
0.0
 11
135.4340139920074
 21
131.5835891536575
 31
0.0
  0
LINE
  5
225
330
E3
100
AcDbEntity
  8
0
  6
Continuous
100
AcDbLine
 10
135.4340139920074
 20
131.5835891536575
 30
0.0
 11
135.3907677322277
 21
131.5781189767508
 31
0.0
  0
LINE
  5
226
330
E3
100
AcDbEntity
  8
0
  6
Continuous
100
AcDbLine
 10
135.3907677322277
 20
131.5781189767508
 30
0.0
 11
135.3471909391673
 21
131.5726487998442
 31
0.0
  0
LINE
  5
227
330
E3
100
AcDbEntity
  8
0
  6
Continuous
100
AcDbLine
 10
135.3471909391673
 20
131.5726487998442
 30
0.0
 11
135.303614146107
 21
131.5671756451602
 31
0.0
  0
LINE
  5
228
330
E3
100
AcDbEntity
  8
0
  6
Continuous
100
AcDbLine
 10
135.303614146107
 20
131.5671756451602
 30
0.0
 11
135.2603678863273
 21
131.5617054682536
 31
0.0
  0
LINE
  5
229
330
E3
100
AcDbEntity
  8
0
  6
Continuous
100
AcDbLine
 10
135.2603678863273
 20
131.5617054682536
 30
0.0
 11
135.2177826931091
 21
131.5562323135696
 31
0.0
  0
LINE
  5
22A
330
E3
100
AcDbEntity
  8
0
  6
Continuous
100
AcDbLine
 10
135.2177826931091
 20
131.5562323135696
 30
0.0
 11
135.176180166401
 21
131.550762136663
 31
0.0
  0
LINE
  5
22B
330
E3
100
AcDbEntity
  8
0
  6
Continuous
100
AcDbLine
 10
135.176180166401
 20
131.550762136663
 30
0.0
 11
135.1358819061518
 21
131.545288981979
 31
0.0
  0
LINE
  5
22C
330
E3
100
AcDbEntity
  8
0
  6
Continuous
100
AcDbLine
 10
135.1358819061518
 20
131.545288981979
 30
0.0
 11
135.0971916456466
 21
131.5398188050724
 31
0.0
  0
LINE
  5
22D
330
E3
100
AcDbEntity
  8
0
  6
Continuous
100
AcDbLine
 10
135.0971916456466
 20
131.5398188050724
 30
0.0
 11
135.0604041848384
 21
131.5343486281658
 31
0.0
  0
LINE
  5
22E
330
E3
100
AcDbEntity
  8
0
  6
Continuous
100
AcDbLine
 10
135.0604041848384
 20
131.5343486281658
 30
0.0
 11
135.0257964570164
 21
131.5288754734818
 31
0.0
  0
LINE
  5
22F
330
E3
100
AcDbEntity
  8
0
  6
Continuous
100
AcDbLine
 10
135.0257964570164
 20
131.5288754734818
 30
0.0
 11
134.9936364621379
 21
131.5234052965752
 31
0.0
  0
LINE
  5
230
330
E3
100
AcDbEntity
  8
0
  6
Continuous
100
AcDbLine
 10
134.9936364621379
 20
131.5234052965752
 30
0.0
 11
134.9641683779418
 21
131.5179321418912
 31
0.0
  0
LINE
  5
231
330
E3
100
AcDbEntity
  8
0
  6
Continuous
100
AcDbLine
 10
134.9641683779418
 20
131.5179321418912
 30
0.0
 11
134.9376155377259
 21
131.5124619649846
 31
0.0
  0
LINE
  5
232
330
E3
100
AcDbEntity
  8
0
  6
Continuous
100
AcDbLine
 10
134.9376155377259
 20
131.5124619649846
 30
0.0
 11
134.9141774525696
 21
131.5069917880779
 31
0.0
  0
LINE
  5
233
330
E3
100
AcDbEntity
  8
0
  6
Continuous
100
AcDbLine
 10
134.9141774525696
 20
131.5069917880779
 30
0.0
 11
134.8940357668882
 21
131.501518633394
 31
0.0
  0
LINE
  5
234
330
E3
100
AcDbEntity
  8
0
  6
Continuous
100
AcDbLine
 10
134.8940357668882
 20
131.501518633394
 30
0.0
 11
134.8773453251018
 21
131.4960484564873
 31
0.0
  0
LINE
  5
235
330
E3
100
AcDbEntity
  8
0
  6
Continuous
100
AcDbLine
 10
134.8773453251018
 20
131.4960484564873
 30
0.0
 11
134.8642282160796
 21
131.4905753018033
 31
0.0
  0
LINE
  5
236
330
E3
100
AcDbEntity
  8
0
  6
Continuous
100
AcDbLine
 10
134.8642282160796
 20
131.4905753018033
 30
0.0
 11
134.85478568425
 21
131.4851051248967
 31
0.0
  0
LINE
  5
237
330
E3
100
AcDbEntity
  8
0
  6
Continuous
100
AcDbLine
 10
134.85478568425
 20
131.4851051248967
 30
0.0
 11
134.8490936860713
 21
131.4796338945072
 31
0.0
  0
LINE
  5
238
330
E3
100
AcDbEntity
  8
0
  6
Continuous
100
AcDbLine
 10
134.8490936860713
 20
131.4796338945072
 30
0.0
 11
134.8471910351172
 21
131.4741625140359
 31
0.0
  0
LINE
  5
239
330
E3
100
AcDbEntity
  8
0
  6
Continuous
100
AcDbLine
 10
135.8471910351171
 20
131.2771928170662
 30
0.0
 11
135.845288384163
 21
131.2717214365948
 31
0.0
  0
LINE
  5
23A
330
E3
100
AcDbEntity
  8
0
  6
Continuous
100
AcDbLine
 10
135.845288384163
 20
131.2717214365948
 30
0.0
 11
135.8395949116234
 21
131.2662500561235
 31
0.0
  0
LINE
  5
23B
330
E3
100
AcDbEntity
  8
0
  6
Continuous
100
AcDbLine
 10
135.8395949116234
 20
131.2662500561235
 30
0.0
 11
135.8301536622552
 21
131.26077724951
 31
0.0
  0
LINE
  5
23C
330
E3
100
AcDbEntity
  8
0
  6
Continuous
100
AcDbLine
 10
135.8301536622552
 20
131.26077724951
 30
0.0
 11
135.817036553233
 21
131.2553070726034
 31
0.0
  0
LINE
  5
23D
330
E3
100
AcDbEntity
  8
0
  6
Continuous
100
AcDbLine
 10
135.817036553233
 20
131.2553070726034
 30
0.0
 11
135.8003461114465
 21
131.2498368956967
 31
0.0
  0
LINE
  5
23E
330
E3
100
AcDbEntity
  8
0
  6
Continuous
100
AcDbLine
 10
135.8003461114465
 20
131.2498368956967
 30
0.0
 11
135.7802044257652
 21
131.2443637410127
 31
0.0
  0
LINE
  5
23F
330
E3
100
AcDbEntity
  8
0
  6
Continuous
100
AcDbLine
 10
135.7802044257652
 20
131.2443637410127
 30
0.0
 11
135.7567663406088
 21
131.2388935641061
 31
0.0
  0
LINE
  5
240
330
E3
100
AcDbEntity
  8
0
  6
Continuous
100
AcDbLine
 10
135.7567663406088
 20
131.2388935641061
 30
0.0
 11
135.7302135003929
 21
131.2334204094222
 31
0.0
  0
LINE
  5
241
330
E3
100
AcDbEntity
  8
0
  6
Continuous
100
AcDbLine
 10
135.7302135003929
 20
131.2334204094222
 30
0.0
 11
135.7007454161969
 21
131.2279502325155
 31
0.0
  0
LINE
  5
242
330
E3
100
AcDbEntity
  8
0
  6
Continuous
100
AcDbLine
 10
135.7007454161969
 20
131.2279502325155
 30
0.0
 11
135.6685854213184
 21
131.2224800556088
 31
0.0
  0
LINE
  5
243
330
E3
100
AcDbEntity
  8
0
  6
Continuous
100
AcDbLine
 10
135.6685854213184
 20
131.2224800556088
 30
0.0
 11
135.6339806712736
 21
131.2170069009249
 31
0.0
  0
LINE
  5
244
330
E3
100
AcDbEntity
  8
0
  6
Continuous
100
AcDbLine
 10
135.6339806712736
 20
131.2170069009249
 30
0.0
 11
135.5971902326881
 21
131.2115367240183
 31
0.0
  0
LINE
  5
245
330
E3
100
AcDbEntity
  8
0
  6
Continuous
100
AcDbLine
 10
135.5971902326881
 20
131.2115367240183
 30
0.0
 11
135.5584999721829
 21
131.2060635693343
 31
0.0
  0
LINE
  5
246
330
E3
100
AcDbEntity
  8
0
  6
Continuous
100
AcDbLine
 10
135.5584999721829
 20
131.2060635693343
 30
0.0
 11
135.5182017119337
 21
131.2005933924277
 31
0.0
  0
LINE
  5
247
330
E3
100
AcDbEntity
  8
0
  6
Continuous
100
AcDbLine
 10
135.5182017119337
 20
131.2005933924277
 30
0.0
 11
135.4765991852256
 21
131.195123215521
 31
0.0
  0
LINE
  5
248
330
E3
100
AcDbEntity
  8
0
  6
Continuous
100
AcDbLine
 10
135.4765991852256
 20
131.195123215521
 30
0.0
 11
135.4340139920074
 21
131.189650060837
 31
0.0
  0
LINE
  5
249
330
E3
100
AcDbEntity
  8
0
  6
Continuous
100
AcDbLine
 10
135.4340139920074
 20
131.189650060837
 30
0.0
 11
135.3907677322277
 21
131.1841798839304
 31
0.0
  0
LINE
  5
24A
330
E3
100
AcDbEntity
  8
0
  6
Continuous
100
AcDbLine
 10
135.3907677322277
 20
131.1841798839304
 30
0.0
 11
135.3471909391673
 21
131.1787067292465
 31
0.0
  0
LINE
  5
24B
330
E3
100
AcDbEntity
  8
0
  6
Continuous
100
AcDbLine
 10
135.3471909391673
 20
131.1787067292465
 30
0.0
 11
135.303614146107
 21
131.1732365523398
 31
0.0
  0
LINE
  5
24C
330
E3
100
AcDbEntity
  8
0
  6
Continuous
100
AcDbLine
 10
135.303614146107
 20
131.1732365523398
 30
0.0
 11
135.2603678863273
 21
131.1677663754332
 31
0.0
  0
LINE
  5
24D
330
E3
100
AcDbEntity
  8
0
  6
Continuous
100
AcDbLine
 10
135.2603678863273
 20
131.1677663754332
 30
0.0
 11
135.2177826931091
 21
131.1622932207492
 31
0.0
  0
LINE
  5
24E
330
E3
100
AcDbEntity
  8
0
  6
Continuous
100
AcDbLine
 10
135.2177826931091
 20
131.1622932207492
 30
0.0
 11
135.176180166401
 21
131.1568230438426
 31
0.0
  0
LINE
  5
24F
330
E3
100
AcDbEntity
  8
0
  6
Continuous
100
AcDbLine
 10
135.176180166401
 20
131.1568230438426
 30
0.0
 11
135.1358819061518
 21
131.1513498891586
 31
0.0
  0
LINE
  5
250
330
E3
100
AcDbEntity
  8
0
  6
Continuous
100
AcDbLine
 10
135.1358819061518
 20
131.1513498891586
 30
0.0
 11
135.0971916456466
 21
131.1458797122519
 31
0.0
  0
LINE
  5
251
330
E3
100
AcDbEntity
  8
0
  6
Continuous
100
AcDbLine
 10
135.0971916456466
 20
131.1458797122519
 30
0.0
 11
135.0604041848384
 21
131.1404095353453
 31
0.0
  0
LINE
  5
252
330
E3
100
AcDbEntity
  8
0
  6
Continuous
100
AcDbLine
 10
135.0604041848384
 20
131.1404095353453
 30
0.0
 11
135.0257964570164
 21
131.1349363806614
 31
0.0
  0
LINE
  5
253
330
E3
100
AcDbEntity
  8
0
  6
Continuous
100
AcDbLine
 10
135.0257964570164
 20
131.1349363806614
 30
0.0
 11
134.9936364621379
 21
131.1294662037547
 31
0.0
  0
LINE
  5
254
330
E3
100
AcDbEntity
  8
0
  6
Continuous
100
AcDbLine
 10
134.9936364621379
 20
131.1294662037547
 30
0.0
 11
134.9641683779418
 21
131.1239930490707
 31
0.0
  0
LINE
  5
255
330
E3
100
AcDbEntity
  8
0
  6
Continuous
100
AcDbLine
 10
134.9641683779418
 20
131.1239930490707
 30
0.0
 11
134.9376155377259
 21
131.1185228721641
 31
0.0
  0
LINE
  5
256
330
E3
100
AcDbEntity
  8
0
  6
Continuous
100
AcDbLine
 10
134.9376155377259
 20
131.1185228721641
 30
0.0
 11
134.9141774525696
 21
131.1130526952575
 31
0.0
  0
LINE
  5
257
330
E3
100
AcDbEntity
  8
0
  6
Continuous
100
AcDbLine
 10
134.9141774525696
 20
131.1130526952575
 30
0.0
 11
134.8940357668882
 21
131.1075795405735
 31
0.0
  0
LINE
  5
258
330
E3
100
AcDbEntity
  8
0
  6
Continuous
100
AcDbLine
 10
134.8940357668882
 20
131.1075795405735
 30
0.0
 11
134.8773453251018
 21
131.1021093636668
 31
0.0
  0
LINE
  5
259
330
E3
100
AcDbEntity
  8
0
  6
Continuous
100
AcDbLine
 10
134.8773453251018
 20
131.1021093636668
 30
0.0
 11
134.8642282160796
 21
131.0966362089829
 31
0.0
  0
LINE
  5
25A
330
E3
100
AcDbEntity
  8
0
  6
Continuous
100
AcDbLine
 10
134.8642282160796
 20
131.0966362089829
 30
0.0
 11
134.85478568425
 21
131.0911660320763
 31
0.0
  0
LINE
  5
25B
330
E3
100
AcDbEntity
  8
0
  6
Continuous
100
AcDbLine
 10
134.85478568425
 20
131.0911660320763
 30
0.0
 11
134.8490936860713
 21
131.0856945005679
 31
0.0
  0
LINE
  5
25C
330
E3
100
AcDbEntity
  8
0
  6
Continuous
100
AcDbLine
 10
134.8490936860713
 20
131.0856945005679
 30
0.0
 11
134.8471910351172
 21
131.0802231200965
 31
0.0
  0
LINE
  5
25D
330
E3
100
AcDbEntity
  8
0
  6
Continuous
100
AcDbLine
 10
135.8471910351171
 20
130.8832534231268
 30
0.0
 11
135.845288384163
 21
130.8777820426554
 31
0.0
  0
LINE
  5
25E
330
E3
100
AcDbEntity
  8
0
  6
Continuous
100
AcDbLine
 10
135.845288384163
 20
130.8777820426554
 30
0.0
 11
135.8395949116234
 21
130.872310662184
 31
0.0
  0
LINE
  5
25F
330
E3
100
AcDbEntity
  8
0
  6
Continuous
100
AcDbLine
 10
135.8395949116234
 20
130.872310662184
 30
0.0
 11
135.8301536622552
 21
130.8668381566896
 31
0.0
  0
LINE
  5
260
330
E3
100
AcDbEntity
  8
0
  6
Continuous
100
AcDbLine
 10
135.8301536622552
 20
130.8668381566896
 30
0.0
 11
135.817036553233
 21
130.8613679797829
 31
0.0
  0
LINE
  5
261
330
E3
100
AcDbEntity
  8
0
  6
Continuous
100
AcDbLine
 10
135.817036553233
 20
130.8613679797829
 30
0.0
 11
135.8003461114465
 21
130.8558978028763
 31
0.0
  0
LINE
  5
262
330
E3
100
AcDbEntity
  8
0
  6
Continuous
100
AcDbLine
 10
135.8003461114465
 20
130.8558978028763
 30
0.0
 11
135.7802044257652
 21
130.8504246481923
 31
0.0
  0
LINE
  5
263
330
E3
100
AcDbEntity
  8
0
  6
Continuous
100
AcDbLine
 10
135.7802044257652
 20
130.8504246481923
 30
0.0
 11
135.7567663406088
 21
130.8449544712857
 31
0.0
  0
LINE
  5
264
330
E3
100
AcDbEntity
  8
0
  6
Continuous
100
AcDbLine
 10
135.7567663406088
 20
130.8449544712857
 30
0.0
 11
135.7302135003929
 21
130.8394813166017
 31
0.0
  0
LINE
  5
265
330
E3
100
AcDbEntity
  8
0
  6
Continuous
100
AcDbLine
 10
135.7302135003929
 20
130.8394813166017
 30
0.0
 11
135.7007454161969
 21
130.8340111396951
 31
0.0
  0
LINE
  5
266
330
E3
100
AcDbEntity
  8
0
  6
Continuous
100
AcDbLine
 10
135.7007454161969
 20
130.8340111396951
 30
0.0
 11
135.6685854213184
 21
130.8285409627884
 31
0.0
  0
LINE
  5
267
330
E3
100
AcDbEntity
  8
0
  6
Continuous
100
AcDbLine
 10
135.6685854213184
 20
130.8285409627884
 30
0.0
 11
135.6339806712736
 21
130.8230678081045
 31
0.0
  0
LINE
  5
268
330
E3
100
AcDbEntity
  8
0
  6
Continuous
100
AcDbLine
 10
135.6339806712736
 20
130.8230678081045
 30
0.0
 11
135.5971902326881
 21
130.8175976311978
 31
0.0
  0
LINE
  5
269
330
E3
100
AcDbEntity
  8
0
  6
Continuous
100
AcDbLine
 10
135.5971902326881
 20
130.8175976311978
 30
0.0
 11
135.5584999721829
 21
130.8121244765138
 31
0.0
  0
LINE
  5
26A
330
E3
100
AcDbEntity
  8
0
  6
Continuous
100
AcDbLine
 10
135.5584999721829
 20
130.8121244765138
 30
0.0
 11
135.5182017119337
 21
130.8066542996072
 31
0.0
  0
LINE
  5
26B
330
E3
100
AcDbEntity
  8
0
  6
Continuous
100
AcDbLine
 10
135.5182017119337
 20
130.8066542996072
 30
0.0
 11
135.4765991852256
 21
130.8011841227006
 31
0.0
  0
LINE
  5
26C
330
E3
100
AcDbEntity
  8
0
  6
Continuous
100
AcDbLine
 10
135.4765991852256
 20
130.8011841227006
 30
0.0
 11
135.4340139920074
 21
130.7957109680166
 31
0.0
  0
LINE
  5
26D
330
E3
100
AcDbEntity
  8
0
  6
Continuous
100
AcDbLine
 10
135.4340139920074
 20
130.7957109680166
 30
0.0
 11
135.3907677322277
 21
130.79024079111
 31
0.0
  0
LINE
  5
26E
330
E3
100
AcDbEntity
  8
0
  6
Continuous
100
AcDbLine
 10
135.3907677322277
 20
130.79024079111
 30
0.0
 11
135.3471909391673
 21
130.784767636426
 31
0.0
  0
LINE
  5
26F
330
E3
100
AcDbEntity
  8
0
  6
Continuous
100
AcDbLine
 10
135.3471909391673
 20
130.784767636426
 30
0.0
 11
135.303614146107
 21
130.7792974595194
 31
0.0
  0
LINE
  5
270
330
E3
100
AcDbEntity
  8
0
  6
Continuous
100
AcDbLine
 10
135.303614146107
 20
130.7792974595194
 30
0.0
 11
135.2603678863273
 21
130.7738272826127
 31
0.0
  0
LINE
  5
271
330
E3
100
AcDbEntity
  8
0
  6
Continuous
100
AcDbLine
 10
135.2603678863273
 20
130.7738272826127
 30
0.0
 11
135.2177826931091
 21
130.7683541279288
 31
0.0
  0
LINE
  5
272
330
E3
100
AcDbEntity
  8
0
  6
Continuous
100
AcDbLine
 10
135.2177826931091
 20
130.7683541279288
 30
0.0
 11
135.176180166401
 21
130.7628839510221
 31
0.0
  0
LINE
  5
273
330
E3
100
AcDbEntity
  8
0
  6
Continuous
100
AcDbLine
 10
135.176180166401
 20
130.7628839510221
 30
0.0
 11
135.1358819061518
 21
130.7574107963382
 31
0.0
  0
LINE
  5
274
330
E3
100
AcDbEntity
  8
0
  6
Continuous
100
AcDbLine
 10
135.1358819061518
 20
130.7574107963382
 30
0.0
 11
135.0971916456466
 21
130.7519406194315
 31
0.0
  0
LINE
  5
275
330
E3
100
AcDbEntity
  8
0
  6
Continuous
100
AcDbLine
 10
135.0971916456466
 20
130.7519406194315
 30
0.0
 11
135.0604041848384
 21
130.7464674647476
 31
0.0
  0
LINE
  5
276
330
E3
100
AcDbEntity
  8
0
  6
Continuous
100
AcDbLine
 10
135.0604041848384
 20
130.7464674647476
 30
0.0
 11
135.0257964570164
 21
130.7409972878409
 31
0.0
  0
LINE
  5
277
330
E3
100
AcDbEntity
  8
0
  6
Continuous
100
AcDbLine
 10
135.0257964570164
 20
130.7409972878409
 30
0.0
 11
134.9936364621379
 21
130.7355271109343
 31
0.0
  0
LINE
  5
278
330
E3
100
AcDbEntity
  8
0
  6
Continuous
100
AcDbLine
 10
134.9936364621379
 20
130.7355271109343
 30
0.0
 11
134.9641683779418
 21
130.7300539562503
 31
0.0
  0
LINE
  5
279
330
E3
100
AcDbEntity
  8
0
  6
Continuous
100
AcDbLine
 10
134.9641683779418
 20
130.7300539562503
 30
0.0
 11
134.9376155377259
 21
130.7245837793437
 31
0.0
  0
LINE
  5
27A
330
E3
100
AcDbEntity
  8
0
  6
Continuous
100
AcDbLine
 10
134.9376155377259
 20
130.7245837793437
 30
0.0
 11
134.9141774525696
 21
130.7191106246597
 31
0.0
  0
LINE
  5
27B
330
E3
100
AcDbEntity
  8
0
  6
Continuous
100
AcDbLine
 10
134.9141774525696
 20
130.7191106246597
 30
0.0
 11
134.8940357668882
 21
130.7136404477531
 31
0.0
  0
LINE
  5
27C
330
E3
100
AcDbEntity
  8
0
  6
Continuous
100
AcDbLine
 10
134.8940357668882
 20
130.7136404477531
 30
0.0
 11
134.8773453251018
 21
130.7081702708464
 31
0.0
  0
LINE
  5
27D
330
E3
100
AcDbEntity
  8
0
  6
Continuous
100
AcDbLine
 10
134.8773453251018
 20
130.7081702708464
 30
0.0
 11
134.8642282160796
 21
130.7026971161625
 31
0.0
  0
LINE
  5
27E
330
E3
100
AcDbEntity
  8
0
  6
Continuous
100
AcDbLine
 10
134.8642282160796
 20
130.7026971161625
 30
0.0
 11
134.85478568425
 21
130.6972269392558
 31
0.0
  0
LINE
  5
27F
330
E3
100
AcDbEntity
  8
0
  6
Continuous
100
AcDbLine
 10
134.85478568425
 20
130.6972269392558
 30
0.0
 11
134.8490936860713
 21
130.6917551066284
 31
0.0
  0
LINE
  5
280
330
E3
100
AcDbEntity
  8
0
  6
Continuous
100
AcDbLine
 10
134.8490936860713
 20
130.6917551066284
 30
0.0
 11
134.8471910351172
 21
130.6862837261571
 31
0.0
  0
LINE
  5
281
330
E3
100
AcDbEntity
  8
0
  6
Continuous
100
AcDbLine
 10
135.8471910351171
 20
130.4893140291874
 30
0.0
 11
135.845288384163
 21
130.483842648716
 31
0.0
  0
LINE
  5
282
330
E3
100
AcDbEntity
  8
0
  6
Continuous
100
AcDbLine
 10
135.845288384163
 20
130.483842648716
 30
0.0
 11
135.8395949116234
 21
130.4783712682446
 31
0.0
  0
LINE
  5
283
330
E3
100
AcDbEntity
  8
0
  6
Continuous
100
AcDbLine
 10
135.8395949116234
 20
130.4783712682446
 30
0.0
 11
135.8301536622552
 21
130.4728990638691
 31
0.0
  0
LINE
  5
284
330
E3
100
AcDbEntity
  8
0
  6
Continuous
100
AcDbLine
 10
135.8301536622552
 20
130.4728990638691
 30
0.0
 11
135.817036553233
 21
130.4674288869624
 31
0.0
  0
LINE
  5
285
330
E3
100
AcDbEntity
  8
0
  6
Continuous
100
AcDbLine
 10
135.817036553233
 20
130.4674288869624
 30
0.0
 11
135.8003461114465
 21
130.4619557322785
 31
0.0
  0
LINE
  5
286
330
E3
100
AcDbEntity
  8
0
  6
Continuous
100
AcDbLine
 10
135.8003461114465
 20
130.4619557322785
 30
0.0
 11
135.7802044257652
 21
130.4564855553719
 31
0.0
  0
LINE
  5
287
330
E3
100
AcDbEntity
  8
0
  6
Continuous
100
AcDbLine
 10
135.7802044257652
 20
130.4564855553719
 30
0.0
 11
135.7567663406088
 21
130.4510153784652
 31
0.0
  0
LINE
  5
288
330
E3
100
AcDbEntity
  8
0
  6
Continuous
100
AcDbLine
 10
135.7567663406088
 20
130.4510153784652
 30
0.0
 11
135.7302135003929
 21
130.4455422237813
 31
0.0
  0
LINE
  5
289
330
E3
100
AcDbEntity
  8
0
  6
Continuous
100
AcDbLine
 10
135.7302135003929
 20
130.4455422237813
 30
0.0
 11
135.7007454161969
 21
130.4400720468746
 31
0.0
  0
LINE
  5
28A
330
E3
100
AcDbEntity
  8
0
  6
Continuous
100
AcDbLine
 10
135.7007454161969
 20
130.4400720468746
 30
0.0
 11
135.6685854213184
 21
130.4345988921907
 31
0.0
  0
LINE
  5
28B
330
E3
100
AcDbEntity
  8
0
  6
Continuous
100
AcDbLine
 10
135.6685854213184
 20
130.4345988921907
 30
0.0
 11
135.6339806712736
 21
130.429128715284
 31
0.0
  0
LINE
  5
28C
330
E3
100
AcDbEntity
  8
0
  6
Continuous
100
AcDbLine
 10
135.6339806712736
 20
130.429128715284
 30
0.0
 11
135.5971902326881
 21
130.4236585383774
 31
0.0
  0
LINE
  5
28D
330
E3
100
AcDbEntity
  8
0
  6
Continuous
100
AcDbLine
 10
135.5971902326881
 20
130.4236585383774
 30
0.0
 11
135.5584999721829
 21
130.4181853836934
 31
0.0
  0
LINE
  5
28E
330
E3
100
AcDbEntity
  8
0
  6
Continuous
100
AcDbLine
 10
135.5584999721829
 20
130.4181853836934
 30
0.0
 11
135.5182017119337
 21
130.4127152067868
 31
0.0
  0
LINE
  5
28F
330
E3
100
AcDbEntity
  8
0
  6
Continuous
100
AcDbLine
 10
135.5182017119337
 20
130.4127152067868
 30
0.0
 11
135.4765991852256
 21
130.4072420521028
 31
0.0
  0
LINE
  5
290
330
E3
100
AcDbEntity
  8
0
  6
Continuous
100
AcDbLine
 10
135.4765991852256
 20
130.4072420521028
 30
0.0
 11
135.4340139920074
 21
130.4017718751962
 31
0.0
  0
LINE
  5
291
330
E3
100
AcDbEntity
  8
0
  6
Continuous
100
AcDbLine
 10
135.4340139920074
 20
130.4017718751962
 30
0.0
 11
135.3907677322277
 21
130.3963016982895
 31
0.0
  0
LINE
  5
292
330
E3
100
AcDbEntity
  8
0
  6
Continuous
100
AcDbLine
 10
135.3907677322277
 20
130.3963016982895
 30
0.0
 11
135.3471909391673
 21
130.3908285436056
 31
0.0
  0
LINE
  5
293
330
E3
100
AcDbEntity
  8
0
  6
Continuous
100
AcDbLine
 10
135.3471909391673
 20
130.3908285436056
 30
0.0
 11
135.303614146107
 21
130.3853583666989
 31
0.0
  0
LINE
  5
294
330
E3
100
AcDbEntity
  8
0
  6
Continuous
100
AcDbLine
 10
135.303614146107
 20
130.3853583666989
 30
0.0
 11
135.2603678863273
 21
130.379885212015
 31
0.0
  0
LINE
  5
295
330
E3
100
AcDbEntity
  8
0
  6
Continuous
100
AcDbLine
 10
135.2603678863273
 20
130.379885212015
 30
0.0
 11
135.2177826931091
 21
130.3744150351083
 31
0.0
  0
LINE
  5
296
330
E3
100
AcDbEntity
  8
0
  6
Continuous
100
AcDbLine
 10
135.2177826931091
 20
130.3744150351083
 30
0.0
 11
135.176180166401
 21
130.3689448582017
 31
0.0
  0
LINE
  5
297
330
E3
100
AcDbEntity
  8
0
  6
Continuous
100
AcDbLine
 10
135.176180166401
 20
130.3689448582017
 30
0.0
 11
135.1358819061518
 21
130.3634717035177
 31
0.0
  0
LINE
  5
298
330
E3
100
AcDbEntity
  8
0
  6
Continuous
100
AcDbLine
 10
135.1358819061518
 20
130.3634717035177
 30
0.0
 11
135.0971916456466
 21
130.3580015266111
 31
0.0
  0
LINE
  5
299
330
E3
100
AcDbEntity
  8
0
  6
Continuous
100
AcDbLine
 10
135.0971916456466
 20
130.3580015266111
 30
0.0
 11
135.0604041848384
 21
130.3525283719271
 31
0.0
  0
LINE
  5
29A
330
E3
100
AcDbEntity
  8
0
  6
Continuous
100
AcDbLine
 10
135.0604041848384
 20
130.3525283719271
 30
0.0
 11
135.0257964570164
 21
130.3470581950205
 31
0.0
  0
LINE
  5
29B
330
E3
100
AcDbEntity
  8
0
  6
Continuous
100
AcDbLine
 10
135.0257964570164
 20
130.3470581950205
 30
0.0
 11
134.9936364621379
 21
130.3415880181138
 31
0.0
  0
LINE
  5
29C
330
E3
100
AcDbEntity
  8
0
  6
Continuous
100
AcDbLine
 10
134.9936364621379
 20
130.3415880181138
 30
0.0
 11
134.9641683779418
 21
130.3361148634299
 31
0.0
  0
LINE
  5
29D
330
E3
100
AcDbEntity
  8
0
  6
Continuous
100
AcDbLine
 10
134.9641683779418
 20
130.3361148634299
 30
0.0
 11
134.9376155377259
 21
130.3306446865232
 31
0.0
  0
LINE
  5
29E
330
E3
100
AcDbEntity
  8
0
  6
Continuous
100
AcDbLine
 10
134.9376155377259
 20
130.3306446865232
 30
0.0
 11
134.9141774525696
 21
130.3251715318393
 31
0.0
  0
LINE
  5
29F
330
E3
100
AcDbEntity
  8
0
  6
Continuous
100
AcDbLine
 10
134.9141774525696
 20
130.3251715318393
 30
0.0
 11
134.8940357668882
 21
130.3197013549326
 31
0.0
  0
LINE
  5
2A0
330
E3
100
AcDbEntity
  8
0
  6
Continuous
100
AcDbLine
 10
134.8940357668882
 20
130.3197013549326
 30
0.0
 11
134.8773453251018
 21
130.314231178026
 31
0.0
  0
LINE
  5
2A1
330
E3
100
AcDbEntity
  8
0
  6
Continuous
100
AcDbLine
 10
134.8773453251018
 20
130.314231178026
 30
0.0
 11
134.8642282160796
 21
130.3087580233421
 31
0.0
  0
LINE
  5
2A2
330
E3
100
AcDbEntity
  8
0
  6
Continuous
100
AcDbLine
 10
134.8642282160796
 20
130.3087580233421
 30
0.0
 11
134.85478568425
 21
130.3032878464354
 31
0.0
  0
LINE
  5
2A3
330
E3
100
AcDbEntity
  8
0
  6
Continuous
100
AcDbLine
 10
134.85478568425
 20
130.3032878464354
 30
0.0
 11
134.8490936860713
 21
130.297815712689
 31
0.0
  0
LINE
  5
2A4
330
E3
100
AcDbEntity
  8
0
  6
Continuous
100
AcDbLine
 10
134.8490936860713
 20
130.297815712689
 30
0.0
 11
134.8471910351172
 21
130.2923443322177
 31
0.0
  0
LINE
  5
2A5
330
E3
100
AcDbEntity
  8
0
  6
Continuous
100
AcDbLine
 10
135.8471910351171
 20
130.095374635248
 30
0.0
 11
135.845288384163
 21
130.0899032547766
 31
0.0
  0
LINE
  5
2A6
330
E3
100
AcDbEntity
  8
0
  6
Continuous
100
AcDbLine
 10
135.845288384163
 20
130.0899032547766
 30
0.0
 11
135.8395949116234
 21
130.0844318743052
 31
0.0
  0
LINE
  5
2A7
330
E3
100
AcDbEntity
  8
0
  6
Continuous
100
AcDbLine
 10
135.8395949116234
 20
130.0844318743052
 30
0.0
 11
135.8301536622552
 21
130.0789599710487
 31
0.0
  0
LINE
  5
2A8
330
E3
100
AcDbEntity
  8
0
  6
Continuous
100
AcDbLine
 10
135.8301536622552
 20
130.0789599710487
 30
0.0
 11
135.817036553233
 21
130.073489794142
 31
0.0
  0
LINE
  5
2A9
330
E3
100
AcDbEntity
  8
0
  6
Continuous
100
AcDbLine
 10
135.817036553233
 20
130.073489794142
 30
0.0
 11
135.8003461114465
 21
130.0680166394581
 31
0.0
  0
LINE
  5
2AA
330
E3
100
AcDbEntity
  8
0
  6
Continuous
100
AcDbLine
 10
135.8003461114465
 20
130.0680166394581
 30
0.0
 11
135.7802044257652
 21
130.0625464625514
 31
0.0
  0
LINE
  5
2AB
330
E3
100
AcDbEntity
  8
0
  6
Continuous
100
AcDbLine
 10
135.7802044257652
 20
130.0625464625514
 30
0.0
 11
135.7567663406088
 21
130.0570762856448
 31
0.0
  0
LINE
  5
2AC
330
E3
100
AcDbEntity
  8
0
  6
Continuous
100
AcDbLine
 10
135.7567663406088
 20
130.0570762856448
 30
0.0
 11
135.7302135003929
 21
130.0516031309608
 31
0.0
  0
LINE
  5
2AD
330
E3
100
AcDbEntity
  8
0
  6
Continuous
100
AcDbLine
 10
135.7302135003929
 20
130.0516031309608
 30
0.0
 11
135.7007454161969
 21
130.0461329540542
 31
0.0
  0
LINE
  5
2AE
330
E3
100
AcDbEntity
  8
0
  6
Continuous
100
AcDbLine
 10
135.7007454161969
 20
130.0461329540542
 30
0.0
 11
135.6685854213184
 21
130.0406597993702
 31
0.0
  0
LINE
  5
2AF
330
E3
100
AcDbEntity
  8
0
  6
Continuous
100
AcDbLine
 10
135.6685854213184
 20
130.0406597993702
 30
0.0
 11
135.6339806712736
 21
130.0351896224636
 31
0.0
  0
LINE
  5
2B0
330
E3
100
AcDbEntity
  8
0
  6
Continuous
100
AcDbLine
 10
135.6339806712736
 20
130.0351896224636
 30
0.0
 11
135.5971902326881
 21
130.029719445557
 31
0.0
  0
LINE
  5
2B1
330
E3
100
AcDbEntity
  8
0
  6
Continuous
100
AcDbLine
 10
135.5971902326881
 20
130.029719445557
 30
0.0
 11
135.5584999721829
 21
130.024246290873
 31
0.0
  0
LINE
  5
2B2
330
E3
100
AcDbEntity
  8
0
  6
Continuous
100
AcDbLine
 10
135.5584999721829
 20
130.024246290873
 30
0.0
 11
135.5182017119337
 21
130.0187761139663
 31
0.0
  0
LINE
  5
2B3
330
E3
100
AcDbEntity
  8
0
  6
Continuous
100
AcDbLine
 10
135.5182017119337
 20
130.0187761139663
 30
0.0
 11
135.4765991852256
 21
130.0133029592824
 31
0.0
  0
LINE
  5
2B4
330
E3
100
AcDbEntity
  8
0
  6
Continuous
100
AcDbLine
 10
135.4765991852256
 20
130.0133029592824
 30
0.0
 11
135.4340139920074
 21
130.0078327823758
 31
0.0
  0
LINE
  5
2B5
330
E3
100
AcDbEntity
  8
0
  6
Continuous
100
AcDbLine
 10
135.4340139920074
 20
130.0078327823758
 30
0.0
 11
135.3907677322277
 21
130.0023626054691
 31
0.0
  0
LINE
  5
2B6
330
E3
100
AcDbEntity
  8
0
  6
Continuous
100
AcDbLine
 10
135.3907677322277
 20
130.0023626054691
 30
0.0
 11
135.3471909391673
 21
129.9968894507851
 31
0.0
  0
LINE
  5
2B7
330
E3
100
AcDbEntity
  8
0
  6
Continuous
100
AcDbLine
 10
135.3471909391673
 20
129.9968894507851
 30
0.0
 11
135.303614146107
 21
129.9914192738785
 31
0.0
  0
LINE
  5
2B8
330
E3
100
AcDbEntity
  8
0
  6
Continuous
100
AcDbLine
 10
135.303614146107
 20
129.9914192738785
 30
0.0
 11
135.2603678863273
 21
129.9859461191946
 31
0.0
  0
LINE
  5
2B9
330
E3
100
AcDbEntity
  8
0
  6
Continuous
100
AcDbLine
 10
135.2603678863273
 20
129.9859461191946
 30
0.0
 11
135.2177826931091
 21
129.9804759422879
 31
0.0
  0
LINE
  5
2BA
330
E3
100
AcDbEntity
  8
0
  6
Continuous
100
AcDbLine
 10
135.2177826931091
 20
129.9804759422879
 30
0.0
 11
135.176180166401
 21
129.9750027876039
 31
0.0
  0
LINE
  5
2BB
330
E3
100
AcDbEntity
  8
0
  6
Continuous
100
AcDbLine
 10
135.176180166401
 20
129.9750027876039
 30
0.0
 11
135.1358819061518
 21
129.9695326106973
 31
0.0
  0
LINE
  5
2BC
330
E3
100
AcDbEntity
  8
0
  6
Continuous
100
AcDbLine
 10
135.1358819061518
 20
129.9695326106973
 30
0.0
 11
135.0971916456466
 21
129.9640624337907
 31
0.0
  0
LINE
  5
2BD
330
E3
100
AcDbEntity
  8
0
  6
Continuous
100
AcDbLine
 10
135.0971916456466
 20
129.9640624337907
 30
0.0
 11
135.0604041848384
 21
129.9585892791067
 31
0.0
  0
LINE
  5
2BE
330
E3
100
AcDbEntity
  8
0
  6
Continuous
100
AcDbLine
 10
135.0604041848384
 20
129.9585892791067
 30
0.0
 11
135.0257964570164
 21
129.9531191022
 31
0.0
  0
LINE
  5
2BF
330
E3
100
AcDbEntity
  8
0
  6
Continuous
100
AcDbLine
 10
135.0257964570164
 20
129.9531191022
 30
0.0
 11
134.9936364621379
 21
129.9476459475161
 31
0.0
  0
LINE
  5
2C0
330
E3
100
AcDbEntity
  8
0
  6
Continuous
100
AcDbLine
 10
134.9936364621379
 20
129.9476459475161
 30
0.0
 11
134.9641683779418
 21
129.9421757706095
 31
0.0
  0
LINE
  5
2C1
330
E3
100
AcDbEntity
  8
0
  6
Continuous
100
AcDbLine
 10
134.9641683779418
 20
129.9421757706095
 30
0.0
 11
134.9376155377259
 21
129.9367055937028
 31
0.0
  0
LINE
  5
2C2
330
E3
100
AcDbEntity
  8
0
  6
Continuous
100
AcDbLine
 10
134.9376155377259
 20
129.9367055937028
 30
0.0
 11
134.9141774525696
 21
129.9312324390188
 31
0.0
  0
LINE
  5
2C3
330
E3
100
AcDbEntity
  8
0
  6
Continuous
100
AcDbLine
 10
134.9141774525696
 20
129.9312324390188
 30
0.0
 11
134.8940357668882
 21
129.9257622621122
 31
0.0
  0
LINE
  5
2C4
330
E3
100
AcDbEntity
  8
0
  6
Continuous
100
AcDbLine
 10
134.8940357668882
 20
129.9257622621122
 30
0.0
 11
134.8773453251018
 21
129.9202891074283
 31
0.0
  0
LINE
  5
2C5
330
E3
100
AcDbEntity
  8
0
  6
Continuous
100
AcDbLine
 10
134.8773453251018
 20
129.9202891074283
 30
0.0
 11
134.8642282160796
 21
129.9148189305216
 31
0.0
  0
LINE
  5
2C6
330
E3
100
AcDbEntity
  8
0
  6
Continuous
100
AcDbLine
 10
134.8642282160796
 20
129.9148189305216
 30
0.0
 11
134.85478568425
 21
129.909348753615
 31
0.0
  0
LINE
  5
2C7
330
E3
100
AcDbEntity
  8
0
  6
Continuous
100
AcDbLine
 10
134.85478568425
 20
129.909348753615
 30
0.0
 11
134.8490936860713
 21
129.9038763187497
 31
0.0
  0
LINE
  5
2C8
330
E3
100
AcDbEntity
  8
0
  6
Continuous
100
AcDbLine
 10
134.8490936860713
 20
129.9038763187497
 30
0.0
 11
134.8471910351172
 21
129.8984049382783
 31
0.0
  0
LINE
  5
2C9
330
E3
100
AcDbEntity
  8
0
  6
Continuous
100
AcDbLine
 10
135.8471910351171
 20
129.7014352413086
 30
0.0
 11
135.845288384163
 21
129.6959638608372
 31
0.0
  0
LINE
  5
2CA
330
E3
100
AcDbEntity
  8
0
  6
Continuous
100
AcDbLine
 10
135.845288384163
 20
129.6959638608372
 30
0.0
 11
135.8395949116234
 21
129.6904924803658
 31
0.0
  0
LINE
  5
2CB
330
E3
100
AcDbEntity
  8
0
  6
Continuous
100
AcDbLine
 10
135.8395949116234
 20
129.6904924803658
 30
0.0
 11
135.8301536622552
 21
129.6850208782282
 31
0.0
  0
LINE
  5
2CC
330
E3
100
AcDbEntity
  8
0
  6
Continuous
100
AcDbLine
 10
135.8301536622552
 20
129.6850208782282
 30
0.0
 11
135.817036553233
 21
129.6795507013216
 31
0.0
  0
LINE
  5
2CD
330
E3
100
AcDbEntity
  8
0
  6
Continuous
100
AcDbLine
 10
135.817036553233
 20
129.6795507013216
 30
0.0
 11
135.8003461114465
 21
129.6740775466376
 31
0.0
  0
LINE
  5
2CE
330
E3
100
AcDbEntity
  8
0
  6
Continuous
100
AcDbLine
 10
135.8003461114465
 20
129.6740775466376
 30
0.0
 11
135.7802044257652
 21
129.668607369731
 31
0.0
  0
LINE
  5
2CF
330
E3
100
AcDbEntity
  8
0
  6
Continuous
100
AcDbLine
 10
135.7802044257652
 20
129.668607369731
 30
0.0
 11
135.7567663406088
 21
129.6631342150471
 31
0.0
  0
LINE
  5
2D0
330
E3
100
AcDbEntity
  8
0
  6
Continuous
100
AcDbLine
 10
135.7567663406088
 20
129.6631342150471
 30
0.0
 11
135.7302135003929
 21
129.6576640381404
 31
0.0
  0
LINE
  5
2D1
330
E3
100
AcDbEntity
  8
0
  6
Continuous
100
AcDbLine
 10
135.7302135003929
 20
129.6576640381404
 30
0.0
 11
135.7007454161969
 21
129.6521938612337
 31
0.0
  0
LINE
  5
2D2
330
E3
100
AcDbEntity
  8
0
  6
Continuous
100
AcDbLine
 10
135.7007454161969
 20
129.6521938612337
 30
0.0
 11
135.6685854213184
 21
129.6467207065498
 31
0.0
  0
LINE
  5
2D3
330
E3
100
AcDbEntity
  8
0
  6
Continuous
100
AcDbLine
 10
135.6685854213184
 20
129.6467207065498
 30
0.0
 11
135.6339806712736
 21
129.6412505296431
 31
0.0
  0
LINE
  5
2D4
330
E3
100
AcDbEntity
  8
0
  6
Continuous
100
AcDbLine
 10
135.6339806712736
 20
129.6412505296431
 30
0.0
 11
135.5971902326881
 21
129.6357773749592
 31
0.0
  0
LINE
  5
2D5
330
E3
100
AcDbEntity
  8
0
  6
Continuous
100
AcDbLine
 10
135.5971902326881
 20
129.6357773749592
 30
0.0
 11
135.5584999721829
 21
129.6303071980526
 31
0.0
  0
LINE
  5
2D6
330
E3
100
AcDbEntity
  8
0
  6
Continuous
100
AcDbLine
 10
135.5584999721829
 20
129.6303071980526
 30
0.0
 11
135.5182017119337
 21
129.6248370211459
 31
0.0
  0
LINE
  5
2D7
330
E3
100
AcDbEntity
  8
0
  6
Continuous
100
AcDbLine
 10
135.5182017119337
 20
129.6248370211459
 30
0.0
 11
135.4765991852256
 21
129.619363866462
 31
0.0
  0
LINE
  5
2D8
330
E3
100
AcDbEntity
  8
0
  6
Continuous
100
AcDbLine
 10
135.4765991852256
 20
129.619363866462
 30
0.0
 11
135.4340139920074
 21
129.6138936895553
 31
0.0
  0
LINE
  5
2D9
330
E3
100
AcDbEntity
  8
0
  6
Continuous
100
AcDbLine
 10
135.4340139920074
 20
129.6138936895553
 30
0.0
 11
135.3907677322277
 21
129.6084205348714
 31
0.0
  0
LINE
  5
2DA
330
E3
100
AcDbEntity
  8
0
  6
Continuous
100
AcDbLine
 10
135.3907677322277
 20
129.6084205348714
 30
0.0
 11
135.3471909391673
 21
129.6029503579647
 31
0.0
  0
LINE
  5
2DB
330
E3
100
AcDbEntity
  8
0
  6
Continuous
100
AcDbLine
 10
135.3471909391673
 20
129.6029503579647
 30
0.0
 11
135.303614146107
 21
129.5974801810581
 31
0.0
  0
LINE
  5
2DC
330
E3
100
AcDbEntity
  8
0
  6
Continuous
100
AcDbLine
 10
135.303614146107
 20
129.5974801810581
 30
0.0
 11
135.2603678863273
 21
129.5920070263741
 31
0.0
  0
LINE
  5
2DD
330
E3
100
AcDbEntity
  8
0
  6
Continuous
100
AcDbLine
 10
135.2603678863273
 20
129.5920070263741
 30
0.0
 11
135.2177826931091
 21
129.5865368494675
 31
0.0
  0
LINE
  5
2DE
330
E3
100
AcDbEntity
  8
0
  6
Continuous
100
AcDbLine
 10
135.2177826931091
 20
129.5865368494675
 30
0.0
 11
135.176180166401
 21
129.5810636947835
 31
0.0
  0
LINE
  5
2DF
330
E3
100
AcDbEntity
  8
0
  6
Continuous
100
AcDbLine
 10
135.176180166401
 20
129.5810636947835
 30
0.0
 11
135.1358819061518
 21
129.5755935178769
 31
0.0
  0
LINE
  5
2E0
330
E3
100
AcDbEntity
  8
0
  6
Continuous
100
AcDbLine
 10
135.1358819061518
 20
129.5755935178769
 30
0.0
 11
135.0971916456466
 21
129.5701233409702
 31
0.0
  0
LINE
  5
2E1
330
E3
100
AcDbEntity
  8
0
  6
Continuous
100
AcDbLine
 10
135.0971916456466
 20
129.5701233409702
 30
0.0
 11
135.0604041848384
 21
129.5646501862863
 31
0.0
  0
LINE
  5
2E2
330
E3
100
AcDbEntity
  8
0
  6
Continuous
100
AcDbLine
 10
135.0604041848384
 20
129.5646501862863
 30
0.0
 11
135.0257964570164
 21
129.5591800093796
 31
0.0
  0
LINE
  5
2E3
330
E3
100
AcDbEntity
  8
0
  6
Continuous
100
AcDbLine
 10
135.0257964570164
 20
129.5591800093796
 30
0.0
 11
134.9936364621379
 21
129.5537068546957
 31
0.0
  0
LINE
  5
2E4
330
E3
100
AcDbEntity
  8
0
  6
Continuous
100
AcDbLine
 10
134.9936364621379
 20
129.5537068546957
 30
0.0
 11
134.9641683779418
 21
129.548236677789
 31
0.0
  0
LINE
  5
2E5
330
E3
100
AcDbEntity
  8
0
  6
Continuous
100
AcDbLine
 10
134.9641683779418
 20
129.548236677789
 30
0.0
 11
134.9376155377259
 21
129.5427665008824
 31
0.0
  0
LINE
  5
2E6
330
E3
100
AcDbEntity
  8
0
  6
Continuous
100
AcDbLine
 10
134.9376155377259
 20
129.5427665008824
 30
0.0
 11
134.9141774525696
 21
129.5372933461984
 31
0.0
  0
LINE
  5
2E7
330
E3
100
AcDbEntity
  8
0
  6
Continuous
100
AcDbLine
 10
134.9141774525696
 20
129.5372933461984
 30
0.0
 11
134.8940357668882
 21
129.5318231692918
 31
0.0
  0
LINE
  5
2E8
330
E3
100
AcDbEntity
  8
0
  6
Continuous
100
AcDbLine
 10
134.8940357668882
 20
129.5318231692918
 30
0.0
 11
134.8773453251018
 21
129.5263500146078
 31
0.0
  0
LINE
  5
2E9
330
E3
100
AcDbEntity
  8
0
  6
Continuous
100
AcDbLine
 10
134.8773453251018
 20
129.5263500146078
 30
0.0
 11
134.8642282160796
 21
129.5208798377012
 31
0.0
  0
LINE
  5
2EA
330
E3
100
AcDbEntity
  8
0
  6
Continuous
100
AcDbLine
 10
134.8642282160796
 20
129.5208798377012
 30
0.0
 11
134.85478568425
 21
129.5154096607945
 31
0.0
  0
LINE
  5
2EB
330
E3
100
AcDbEntity
  8
0
  6
Continuous
100
AcDbLine
 10
134.85478568425
 20
129.5154096607945
 30
0.0
 11
134.8490936860713
 21
129.5099369248103
 31
0.0
  0
LINE
  5
2EC
330
E3
100
AcDbEntity
  8
0
  6
Continuous
100
AcDbLine
 10
134.8490936860713
 20
129.5099369248103
 30
0.0
 11
134.8471910351172
 21
129.5044655443389
 31
0.0
  0
LINE
  5
2ED
330
E3
100
AcDbEntity
  8
0
  6
Continuous
100
AcDbLine
 10
135.8471910351171
 20
129.3074958473692
 30
0.0
 11
135.845288384163
 21
129.3020244668978
 31
0.0
  0
LINE
  5
2EE
330
E3
100
AcDbEntity
  8
0
  6
Continuous
100
AcDbLine
 10
135.845288384163
 20
129.3020244668978
 30
0.0
 11
135.8395949116234
 21
129.2965530864264
 31
0.0
  0
LINE
  5
2EF
330
E3
100
AcDbEntity
  8
0
  6
Continuous
100
AcDbLine
 10
135.8395949116234
 20
129.2965530864264
 30
0.0
 11
135.8301536622552
 21
129.2910817854078
 31
0.0
  0
LINE
  5
2F0
330
E3
100
AcDbEntity
  8
0
  6
Continuous
100
AcDbLine
 10
135.8301536622552
 20
129.2910817854078
 30
0.0
 11
135.817036553233
 21
129.2856116085012
 31
0.0
  0
LINE
  5
2F1
330
E3
100
AcDbEntity
  8
0
  6
Continuous
100
AcDbLine
 10
135.817036553233
 20
129.2856116085012
 30
0.0
 11
135.8003461114465
 21
129.2801384538172
 31
0.0
  0
LINE
  5
2F2
330
E3
100
AcDbEntity
  8
0
  6
Continuous
100
AcDbLine
 10
135.8003461114465
 20
129.2801384538172
 30
0.0
 11
135.7802044257652
 21
129.2746682769106
 31
0.0
  0
LINE
  5
2F3
330
E3
100
AcDbEntity
  8
0
  6
Continuous
100
AcDbLine
 10
135.7802044257652
 20
129.2746682769106
 30
0.0
 11
135.7567663406088
 21
129.2691951222266
 31
0.0
  0
LINE
  5
2F4
330
E3
100
AcDbEntity
  8
0
  6
Continuous
100
AcDbLine
 10
135.7567663406088
 20
129.2691951222266
 30
0.0
 11
135.7302135003929
 21
129.26372494532
 31
0.0
  0
LINE
  5
2F5
330
E3
100
AcDbEntity
  8
0
  6
Continuous
100
AcDbLine
 10
135.7302135003929
 20
129.26372494532
 30
0.0
 11
135.7007454161969
 21
129.2582547684133
 31
0.0
  0
LINE
  5
2F6
330
E3
100
AcDbEntity
  8
0
  6
Continuous
100
AcDbLine
 10
135.7007454161969
 20
129.2582547684133
 30
0.0
 11
135.6685854213184
 21
129.2527816137294
 31
0.0
  0
LINE
  5
2F7
330
E3
100
AcDbEntity
  8
0
  6
Continuous
100
AcDbLine
 10
135.6685854213184
 20
129.2527816137294
 30
0.0
 11
135.6339806712736
 21
129.2473114368227
 31
0.0
  0
LINE
  5
2F8
330
E3
100
AcDbEntity
  8
0
  6
Continuous
100
AcDbLine
 10
135.6339806712736
 20
129.2473114368227
 30
0.0
 11
135.5971902326881
 21
129.2418382821388
 31
0.0
  0
LINE
  5
2F9
330
E3
100
AcDbEntity
  8
0
  6
Continuous
100
AcDbLine
 10
135.5971902326881
 20
129.2418382821388
 30
0.0
 11
135.5584999721829
 21
129.2363681052321
 31
0.0
  0
LINE
  5
2FA
330
E3
100
AcDbEntity
  8
0
  6
Continuous
100
AcDbLine
 10
135.5584999721829
 20
129.2363681052321
 30
0.0
 11
135.5182017119337
 21
129.2308979283255
 31
0.0
  0
LINE
  5
2FB
330
E3
100
AcDbEntity
  8
0
  6
Continuous
100
AcDbLine
 10
135.5182017119337
 20
129.2308979283255
 30
0.0
 11
135.4765991852256
 21
129.2254247736415
 31
0.0
  0
LINE
  5
2FC
330
E3
100
AcDbEntity
  8
0
  6
Continuous
100
AcDbLine
 10
135.4765991852256
 20
129.2254247736415
 30
0.0
 11
135.4340139920074
 21
129.2199545967349
 31
0.0
  0
LINE
  5
2FD
330
E3
100
AcDbEntity
  8
0
  6
Continuous
100
AcDbLine
 10
135.4340139920074
 20
129.2199545967349
 30
0.0
 11
135.3907677322277
 21
129.214481442051
 31
0.0
  0
LINE
  5
2FE
330
E3
100
AcDbEntity
  8
0
  6
Continuous
100
AcDbLine
 10
135.3907677322277
 20
129.214481442051
 30
0.0
 11
135.3471909391673
 21
129.2090112651443
 31
0.0
  0
LINE
  5
2FF
330
E3
100
AcDbEntity
  8
0
  6
Continuous
100
AcDbLine
 10
135.3471909391673
 20
129.2090112651443
 30
0.0
 11
135.303614146107
 21
129.2035410882376
 31
0.0
  0
LINE
  5
300
330
E3
100
AcDbEntity
  8
0
  6
Continuous
100
AcDbLine
 10
135.303614146107
 20
129.2035410882376
 30
0.0
 11
135.2603678863273
 21
129.1980679335537
 31
0.0
  0
LINE
  5
301
330
E3
100
AcDbEntity
  8
0
  6
Continuous
100
AcDbLine
 10
135.2603678863273
 20
129.1980679335537
 30
0.0
 11
135.2177826931091
 21
129.192597756647
 31
0.0
  0
LINE
  5
302
330
E3
100
AcDbEntity
  8
0
  6
Continuous
100
AcDbLine
 10
135.2177826931091
 20
129.192597756647
 30
0.0
 11
135.176180166401
 21
129.1871246019631
 31
0.0
  0
LINE
  5
303
330
E3
100
AcDbEntity
  8
0
  6
Continuous
100
AcDbLine
 10
135.176180166401
 20
129.1871246019631
 30
0.0
 11
135.1358819061518
 21
129.1816544250565
 31
0.0
  0
LINE
  5
304
330
E3
100
AcDbEntity
  8
0
  6
Continuous
100
AcDbLine
 10
135.1358819061518
 20
129.1816544250565
 30
0.0
 11
135.0971916456466
 21
129.1761812703725
 31
0.0
  0
LINE
  5
305
330
E3
100
AcDbEntity
  8
0
  6
Continuous
100
AcDbLine
 10
135.0971916456466
 20
129.1761812703725
 30
0.0
 11
135.0604041848384
 21
129.1707110934658
 31
0.0
  0
LINE
  5
306
330
E3
100
AcDbEntity
  8
0
  6
Continuous
100
AcDbLine
 10
135.0604041848384
 20
129.1707110934658
 30
0.0
 11
135.0257964570164
 21
129.1652409165592
 31
0.0
  0
LINE
  5
307
330
E3
100
AcDbEntity
  8
0
  6
Continuous
100
AcDbLine
 10
135.0257964570164
 20
129.1652409165592
 30
0.0
 11
134.9936364621379
 21
129.1597677618752
 31
0.0
  0
LINE
  5
308
330
E3
100
AcDbEntity
  8
0
  6
Continuous
100
AcDbLine
 10
134.9936364621379
 20
129.1597677618752
 30
0.0
 11
134.9641683779418
 21
129.1542975849686
 31
0.0
  0
LINE
  5
309
330
E3
100
AcDbEntity
  8
0
  6
Continuous
100
AcDbLine
 10
134.9641683779418
 20
129.1542975849686
 30
0.0
 11
134.9376155377259
 21
129.1488244302846
 31
0.0
  0
LINE
  5
30A
330
E3
100
AcDbEntity
  8
0
  6
Continuous
100
AcDbLine
 10
134.9376155377259
 20
129.1488244302846
 30
0.0
 11
134.9141774525696
 21
129.143354253378
 31
0.0
  0
LINE
  5
30B
330
E3
100
AcDbEntity
  8
0
  6
Continuous
100
AcDbLine
 10
134.9141774525696
 20
129.143354253378
 30
0.0
 11
134.8940357668882
 21
129.1378840764714
 31
0.0
  0
LINE
  5
30C
330
E3
100
AcDbEntity
  8
0
  6
Continuous
100
AcDbLine
 10
134.8940357668882
 20
129.1378840764714
 30
0.0
 11
134.8773453251018
 21
129.1324109217874
 31
0.0
  0
LINE
  5
30D
330
E3
100
AcDbEntity
  8
0
  6
Continuous
100
AcDbLine
 10
134.8773453251018
 20
129.1324109217874
 30
0.0
 11
134.8642282160796
 21
129.1269407448807
 31
0.0
  0
LINE
  5
30E
330
E3
100
AcDbEntity
  8
0
  6
Continuous
100
AcDbLine
 10
134.8642282160796
 20
129.1269407448807
 30
0.0
 11
134.85478568425
 21
129.1214675901968
 31
0.0
  0
LINE
  5
30F
330
E3
100
AcDbEntity
  8
0
  6
Continuous
100
AcDbLine
 10
134.85478568425
 20
129.1214675901968
 30
0.0
 11
134.8490936860713
 21
129.1159975308709
 31
0.0
  0
LINE
  5
310
330
E3
100
AcDbEntity
  8
0
  6
Continuous
100
AcDbLine
 10
134.8490936860713
 20
129.1159975308709
 30
0.0
 11
134.8471910351172
 21
129.1105261503995
 31
0.0
  0
LINE
  5
311
330
E3
100
AcDbEntity
  8
0
  6
Continuous
100
AcDbLine
 10
135.8471910351171
 20
128.9135564534298
 30
0.0
 11
135.845288384163
 21
128.9080850729584
 31
0.0
  0
LINE
  5
312
330
E3
100
AcDbEntity
  8
0
  6
Continuous
100
AcDbLine
 10
135.845288384163
 20
128.9080850729584
 30
0.0
 11
135.8395949116234
 21
128.9026136924871
 31
0.0
  0
LINE
  5
313
330
E3
100
AcDbEntity
  8
0
  6
Continuous
100
AcDbLine
 10
135.8395949116234
 20
128.9026136924871
 30
0.0
 11
135.8301536622552
 21
128.8971426925874
 31
0.0
  0
LINE
  5
314
330
E3
100
AcDbEntity
  8
0
  6
Continuous
100
AcDbLine
 10
135.8301536622552
 20
128.8971426925874
 30
0.0
 11
135.817036553233
 21
128.8916695379034
 31
0.0
  0
LINE
  5
315
330
E3
100
AcDbEntity
  8
0
  6
Continuous
100
AcDbLine
 10
135.817036553233
 20
128.8916695379034
 30
0.0
 11
135.8003461114465
 21
128.8861993609968
 31
0.0
  0
LINE
  5
316
330
E3
100
AcDbEntity
  8
0
  6
Continuous
100
AcDbLine
 10
135.8003461114465
 20
128.8861993609968
 30
0.0
 11
135.7802044257652
 21
128.8807291840901
 31
0.0
  0
LINE
  5
317
330
E3
100
AcDbEntity
  8
0
  6
Continuous
100
AcDbLine
 10
135.7802044257652
 20
128.8807291840901
 30
0.0
 11
135.7567663406088
 21
128.8752560294062
 31
0.0
  0
LINE
  5
318
330
E3
100
AcDbEntity
  8
0
  6
Continuous
100
AcDbLine
 10
135.7567663406088
 20
128.8752560294062
 30
0.0
 11
135.7302135003929
 21
128.8697858524995
 31
0.0
  0
LINE
  5
319
330
E3
100
AcDbEntity
  8
0
  6
Continuous
100
AcDbLine
 10
135.7302135003929
 20
128.8697858524995
 30
0.0
 11
135.7007454161969
 21
128.8643126978156
 31
0.0
  0
LINE
  5
31A
330
E3
100
AcDbEntity
  8
0
  6
Continuous
100
AcDbLine
 10
135.7007454161969
 20
128.8643126978156
 30
0.0
 11
135.6685854213184
 21
128.858842520909
 31
0.0
  0
LINE
  5
31B
330
E3
100
AcDbEntity
  8
0
  6
Continuous
100
AcDbLine
 10
135.6685854213184
 20
128.858842520909
 30
0.0
 11
135.6339806712736
 21
128.8533723440023
 31
0.0
  0
LINE
  5
31C
330
E3
100
AcDbEntity
  8
0
  6
Continuous
100
AcDbLine
 10
135.6339806712736
 20
128.8533723440023
 30
0.0
 11
135.5971902326881
 21
128.8478991893183
 31
0.0
  0
LINE
  5
31D
330
E3
100
AcDbEntity
  8
0
  6
Continuous
100
AcDbLine
 10
135.5971902326881
 20
128.8478991893183
 30
0.0
 11
135.5584999721829
 21
128.8424290124117
 31
0.0
  0
LINE
  5
31E
330
E3
100
AcDbEntity
  8
0
  6
Continuous
100
AcDbLine
 10
135.5584999721829
 20
128.8424290124117
 30
0.0
 11
135.5182017119337
 21
128.8369558577278
 31
0.0
  0
LINE
  5
31F
330
E3
100
AcDbEntity
  8
0
  6
Continuous
100
AcDbLine
 10
135.5182017119337
 20
128.8369558577278
 30
0.0
 11
135.4765991852256
 21
128.8314856808211
 31
0.0
  0
LINE
  5
320
330
E3
100
AcDbEntity
  8
0
  6
Continuous
100
AcDbLine
 10
135.4765991852256
 20
128.8314856808211
 30
0.0
 11
135.4340139920074
 21
128.8260155039144
 31
0.0
  0
LINE
  5
321
330
E3
100
AcDbEntity
  8
0
  6
Continuous
100
AcDbLine
 10
135.4340139920074
 20
128.8260155039144
 30
0.0
 11
135.3907677322277
 21
128.8205423492305
 31
0.0
  0
LINE
  5
322
330
E3
100
AcDbEntity
  8
0
  6
Continuous
100
AcDbLine
 10
135.3907677322277
 20
128.8205423492305
 30
0.0
 11
135.3471909391673
 21
128.8150721723239
 31
0.0
  0
LINE
  5
323
330
E3
100
AcDbEntity
  8
0
  6
Continuous
100
AcDbLine
 10
135.3471909391673
 20
128.8150721723239
 30
0.0
 11
135.303614146107
 21
128.8095990176399
 31
0.0
  0
LINE
  5
324
330
E3
100
AcDbEntity
  8
0
  6
Continuous
100
AcDbLine
 10
135.303614146107
 20
128.8095990176399
 30
0.0
 11
135.2603678863273
 21
128.8041288407332
 31
0.0
  0
LINE
  5
325
330
E3
100
AcDbEntity
  8
0
  6
Continuous
100
AcDbLine
 10
135.2603678863273
 20
128.8041288407332
 30
0.0
 11
135.2177826931091
 21
128.7986586638266
 31
0.0
  0
LINE
  5
326
330
E3
100
AcDbEntity
  8
0
  6
Continuous
100
AcDbLine
 10
135.2177826931091
 20
128.7986586638266
 30
0.0
 11
135.176180166401
 21
128.7931855091427
 31
0.0
  0
LINE
  5
327
330
E3
100
AcDbEntity
  8
0
  6
Continuous
100
AcDbLine
 10
135.176180166401
 20
128.7931855091427
 30
0.0
 11
135.1358819061518
 21
128.787715332236
 31
0.0
  0
LINE
  5
328
330
E3
100
AcDbEntity
  8
0
  6
Continuous
100
AcDbLine
 10
135.1358819061518
 20
128.787715332236
 30
0.0
 11
135.0971916456466
 21
128.782242177552
 31
0.0
  0
LINE
  5
329
330
E3
100
AcDbEntity
  8
0
  6
Continuous
100
AcDbLine
 10
135.0971916456466
 20
128.782242177552
 30
0.0
 11
135.0604041848384
 21
128.7767720006454
 31
0.0
  0
LINE
  5
32A
330
E3
100
AcDbEntity
  8
0
  6
Continuous
100
AcDbLine
 10
135.0604041848384
 20
128.7767720006454
 30
0.0
 11
135.0257964570164
 21
128.7713018237388
 31
0.0
  0
LINE
  5
32B
330
E3
100
AcDbEntity
  8
0
  6
Continuous
100
AcDbLine
 10
135.0257964570164
 20
128.7713018237388
 30
0.0
 11
134.9936364621379
 21
128.7658286690548
 31
0.0
  0
LINE
  5
32C
330
E3
100
AcDbEntity
  8
0
  6
Continuous
100
AcDbLine
 10
134.9936364621379
 20
128.7658286690548
 30
0.0
 11
134.9641683779418
 21
128.7603584921482
 31
0.0
  0
LINE
  5
32D
330
E3
100
AcDbEntity
  8
0
  6
Continuous
100
AcDbLine
 10
134.9641683779418
 20
128.7603584921482
 30
0.0
 11
134.9376155377259
 21
128.7548853374642
 31
0.0
  0
LINE
  5
32E
330
E3
100
AcDbEntity
  8
0
  6
Continuous
100
AcDbLine
 10
134.9376155377259
 20
128.7548853374642
 30
0.0
 11
134.9141774525696
 21
128.7494151605575
 31
0.0
  0
LINE
  5
32F
330
E3
100
AcDbEntity
  8
0
  6
Continuous
100
AcDbLine
 10
134.9141774525696
 20
128.7494151605575
 30
0.0
 11
134.8940357668882
 21
128.7439449836509
 31
0.0
  0
LINE
  5
330
330
E3
100
AcDbEntity
  8
0
  6
Continuous
100
AcDbLine
 10
134.8940357668882
 20
128.7439449836509
 30
0.0
 11
134.8773453251018
 21
128.738471828967
 31
0.0
  0
LINE
  5
331
330
E3
100
AcDbEntity
  8
0
  6
Continuous
100
AcDbLine
 10
134.8773453251018
 20
128.738471828967
 30
0.0
 11
134.8642282160796
 21
128.7330016520603
 31
0.0
  0
LINE
  5
332
330
E3
100
AcDbEntity
  8
0
  6
Continuous
100
AcDbLine
 10
134.8642282160796
 20
128.7330016520603
 30
0.0
 11
134.85478568425
 21
128.7275284973763
 31
0.0
  0
LINE
  5
333
330
E3
100
AcDbEntity
  8
0
  6
Continuous
100
AcDbLine
 10
134.85478568425
 20
128.7275284973763
 30
0.0
 11
134.8490936860713
 21
128.7220581369315
 31
0.0
  0
LINE
  5
334
330
E3
100
AcDbEntity
  8
0
  6
Continuous
100
AcDbLine
 10
134.8490936860713
 20
128.7220581369315
 30
0.0
 11
134.8471910351172
 21
128.7165867564601
 31
0.0
  0
LINE
  5
335
330
E3
100
AcDbEntity
  8
0
  6
Continuous
100
AcDbLine
 10
135.8471910351171
 20
128.5196170594904
 30
0.0
 11
135.845288384163
 21
128.5141456790191
 31
0.0
  0
LINE
  5
336
330
E3
100
AcDbEntity
  8
0
  6
Continuous
100
AcDbLine
 10
135.845288384163
 20
128.5141456790191
 30
0.0
 11
135.8395949116234
 21
128.5086742985476
 31
0.0
  0
LINE
  5
337
330
E3
100
AcDbEntity
  8
0
  6
Continuous
100
AcDbLine
 10
135.8395949116234
 20
128.5086742985476
 30
0.0
 11
135.8301536622552
 21
128.5032035997669
 31
0.0
  0
LINE
  5
338
330
E3
100
AcDbEntity
  8
0
  6
Continuous
100
AcDbLine
 10
135.8301536622552
 20
128.5032035997669
 30
0.0
 11
135.817036553233
 21
128.497730445083
 31
0.0
  0
LINE
  5
339
330
E3
100
AcDbEntity
  8
0
  6
Continuous
100
AcDbLine
 10
135.817036553233
 20
128.497730445083
 30
0.0
 11
135.8003461114465
 21
128.4922602681764
 31
0.0
  0
LINE
  5
33A
330
E3
100
AcDbEntity
  8
0
  6
Continuous
100
AcDbLine
 10
135.8003461114465
 20
128.4922602681764
 30
0.0
 11
135.7802044257652
 21
128.4867900912697
 31
0.0
  0
LINE
  5
33B
330
E3
100
AcDbEntity
  8
0
  6
Continuous
100
AcDbLine
 10
135.7802044257652
 20
128.4867900912697
 30
0.0
 11
135.7567663406088
 21
128.4813169365858
 31
0.0
  0
LINE
  5
33C
330
E3
100
AcDbEntity
  8
0
  6
Continuous
100
AcDbLine
 10
135.7567663406088
 20
128.4813169365858
 30
0.0
 11
135.7302135003929
 21
128.4758467596791
 31
0.0
  0
LINE
  5
33D
330
E3
100
AcDbEntity
  8
0
  6
Continuous
100
AcDbLine
 10
135.7302135003929
 20
128.4758467596791
 30
0.0
 11
135.7007454161969
 21
128.4703736049951
 31
0.0
  0
LINE
  5
33E
330
E3
100
AcDbEntity
  8
0
  6
Continuous
100
AcDbLine
 10
135.7007454161969
 20
128.4703736049951
 30
0.0
 11
135.6685854213184
 21
128.4649034280885
 31
0.0
  0
LINE
  5
33F
330
E3
100
AcDbEntity
  8
0
  6
Continuous
100
AcDbLine
 10
135.6685854213184
 20
128.4649034280885
 30
0.0
 11
135.6339806712736
 21
128.4594332511819
 31
0.0
  0
LINE
  5
340
330
E3
100
AcDbEntity
  8
0
  6
Continuous
100
AcDbLine
 10
135.6339806712736
 20
128.4594332511819
 30
0.0
 11
135.5971902326881
 21
128.4539600964979
 31
0.0
  0
LINE
  5
341
330
E3
100
AcDbEntity
  8
0
  6
Continuous
100
AcDbLine
 10
135.5971902326881
 20
128.4539600964979
 30
0.0
 11
135.5584999721829
 21
128.4484899195913
 31
0.0
  0
LINE
  5
342
330
E3
100
AcDbEntity
  8
0
  6
Continuous
100
AcDbLine
 10
135.5584999721829
 20
128.4484899195913
 30
0.0
 11
135.5182017119337
 21
128.4430167649073
 31
0.0
  0
LINE
  5
343
330
E3
100
AcDbEntity
  8
0
  6
Continuous
100
AcDbLine
 10
135.5182017119337
 20
128.4430167649073
 30
0.0
 11
135.4765991852256
 21
128.4375465880007
 31
0.0
  0
LINE
  5
344
330
E3
100
AcDbEntity
  8
0
  6
Continuous
100
AcDbLine
 10
135.4765991852256
 20
128.4375465880007
 30
0.0
 11
135.4340139920074
 21
128.432076411094
 31
0.0
  0
LINE
  5
345
330
E3
100
AcDbEntity
  8
0
  6
Continuous
100
AcDbLine
 10
135.4340139920074
 20
128.432076411094
 30
0.0
 11
135.3907677322277
 21
128.4266032564101
 31
0.0
  0
LINE
  5
346
330
E3
100
AcDbEntity
  8
0
  6
Continuous
100
AcDbLine
 10
135.3907677322277
 20
128.4266032564101
 30
0.0
 11
135.3471909391673
 21
128.4211330795034
 31
0.0
  0
LINE
  5
347
330
E3
100
AcDbEntity
  8
0
  6
Continuous
100
AcDbLine
 10
135.3471909391673
 20
128.4211330795034
 30
0.0
 11
135.303614146107
 21
128.4156599248195
 31
0.0
  0
LINE
  5
348
330
E3
100
AcDbEntity
  8
0
  6
Continuous
100
AcDbLine
 10
135.303614146107
 20
128.4156599248195
 30
0.0
 11
135.2603678863273
 21
128.4101897479128
 31
0.0
  0
LINE
  5
349
330
E3
100
AcDbEntity
  8
0
  6
Continuous
100
AcDbLine
 10
135.2603678863273
 20
128.4101897479128
 30
0.0
 11
135.2177826931091
 21
128.4047165932289
 31
0.0
  0
LINE
  5
34A
330
E3
100
AcDbEntity
  8
0
  6
Continuous
100
AcDbLine
 10
135.2177826931091
 20
128.4047165932289
 30
0.0
 11
135.176180166401
 21
128.3992464163222
 31
0.0
  0
LINE
  5
34B
330
E3
100
AcDbEntity
  8
0
  6
Continuous
100
AcDbLine
 10
135.176180166401
 20
128.3992464163222
 30
0.0
 11
135.1358819061518
 21
128.3937762394156
 31
0.0
  0
LINE
  5
34C
330
E3
100
AcDbEntity
  8
0
  6
Continuous
100
AcDbLine
 10
135.1358819061518
 20
128.3937762394156
 30
0.0
 11
135.0971916456466
 21
128.3883030847316
 31
0.0
  0
LINE
  5
34D
330
E3
100
AcDbEntity
  8
0
  6
Continuous
100
AcDbLine
 10
135.0971916456466
 20
128.3883030847316
 30
0.0
 11
135.0604041848384
 21
128.382832907825
 31
0.0
  0
LINE
  5
34E
330
E3
100
AcDbEntity
  8
0
  6
Continuous
100
AcDbLine
 10
135.0604041848384
 20
128.382832907825
 30
0.0
 11
135.0257964570164
 21
128.377359753141
 31
0.0
  0
LINE
  5
34F
330
E3
100
AcDbEntity
  8
0
  6
Continuous
100
AcDbLine
 10
135.0257964570164
 20
128.377359753141
 30
0.0
 11
134.9936364621379
 21
128.3718895762344
 31
0.0
  0
LINE
  5
350
330
E3
100
AcDbEntity
  8
0
  6
Continuous
100
AcDbLine
 10
134.9936364621379
 20
128.3718895762344
 30
0.0
 11
134.9641683779418
 21
128.3664193993277
 31
0.0
  0
LINE
  5
351
330
E3
100
AcDbEntity
  8
0
  6
Continuous
100
AcDbLine
 10
134.9641683779418
 20
128.3664193993277
 30
0.0
 11
134.9376155377259
 21
128.3609462446438
 31
0.0
  0
LINE
  5
352
330
E3
100
AcDbEntity
  8
0
  6
Continuous
100
AcDbLine
 10
134.9376155377259
 20
128.3609462446438
 30
0.0
 11
134.9141774525696
 21
128.3554760677371
 31
0.0
  0
LINE
  5
353
330
E3
100
AcDbEntity
  8
0
  6
Continuous
100
AcDbLine
 10
134.9141774525696
 20
128.3554760677371
 30
0.0
 11
134.8940357668882
 21
128.3500029130532
 31
0.0
  0
LINE
  5
354
330
E3
100
AcDbEntity
  8
0
  6
Continuous
100
AcDbLine
 10
134.8940357668882
 20
128.3500029130532
 30
0.0
 11
134.8773453251018
 21
128.3445327361465
 31
0.0
  0
LINE
  5
355
330
E3
100
AcDbEntity
  8
0
  6
Continuous
100
AcDbLine
 10
134.8773453251018
 20
128.3445327361465
 30
0.0
 11
134.8642282160796
 21
128.3390625592399
 31
0.0
  0
LINE
  5
356
330
E3
100
AcDbEntity
  8
0
  6
Continuous
100
AcDbLine
 10
134.8642282160796
 20
128.3390625592399
 30
0.0
 11
134.85478568425
 21
128.3335894045559
 31
0.0
  0
LINE
  5
357
330
E3
100
AcDbEntity
  8
0
  6
Continuous
100
AcDbLine
 10
134.85478568425
 20
128.3335894045559
 30
0.0
 11
134.8490936860713
 21
128.3281187429921
 31
0.0
  0
LINE
  5
358
330
E3
100
AcDbEntity
  8
0
  6
Continuous
100
AcDbLine
 10
134.8490936860713
 20
128.3281187429921
 30
0.0
 11
134.8471910351172
 21
128.3226473625207
 31
0.0
  0
LINE
  5
359
330
E3
100
AcDbEntity
  8
0
  6
Continuous
100
AcDbLine
 10
135.8471910351171
 20
128.125677665551
 30
0.0
 11
135.845288384163
 21
128.1202062850797
 31
0.0
  0
LINE
  5
35A
330
E3
100
AcDbEntity
  8
0
  6
Continuous
100
AcDbLine
 10
135.845288384163
 20
128.1202062850797
 30
0.0
 11
135.8395949116234
 21
128.1147349046083
 31
0.0
  0
LINE
  5
35B
330
E3
100
AcDbEntity
  8
0
  6
Continuous
100
AcDbLine
 10
135.8395949116234
 20
128.1147349046083
 30
0.0
 11
135.8301536622552
 21
128.1092645069465
 31
0.0
  0
LINE
  5
35C
330
E3
100
AcDbEntity
  8
0
  6
Continuous
100
AcDbLine
 10
135.8301536622552
 20
128.1092645069465
 30
0.0
 11
135.817036553233
 21
128.1037913522626
 31
0.0
  0
LINE
  5
35D
330
E3
100
AcDbEntity
  8
0
  6
Continuous
100
AcDbLine
 10
135.817036553233
 20
128.1037913522626
 30
0.0
 11
135.8003461114465
 21
128.0983211753559
 31
0.0
  0
LINE
  5
35E
330
E3
100
AcDbEntity
  8
0
  6
Continuous
100
AcDbLine
 10
135.8003461114465
 20
128.0983211753559
 30
0.0
 11
135.7802044257652
 21
128.0928480206719
 31
0.0
  0
LINE
  5
35F
330
E3
100
AcDbEntity
  8
0
  6
Continuous
100
AcDbLine
 10
135.7802044257652
 20
128.0928480206719
 30
0.0
 11
135.7567663406088
 21
128.0873778437653
 31
0.0
  0
LINE
  5
360
330
E3
100
AcDbEntity
  8
0
  6
Continuous
100
AcDbLine
 10
135.7567663406088
 20
128.0873778437653
 30
0.0
 11
135.7302135003929
 21
128.0819076668587
 31
0.0
  0
LINE
  5
361
330
E3
100
AcDbEntity
  8
0
  6
Continuous
100
AcDbLine
 10
135.7302135003929
 20
128.0819076668587
 30
0.0
 11
135.7007454161969
 21
128.0764345121747
 31
0.0
  0
LINE
  5
362
330
E3
100
AcDbEntity
  8
0
  6
Continuous
100
AcDbLine
 10
135.7007454161969
 20
128.0764345121747
 30
0.0
 11
135.6685854213184
 21
128.0709643352681
 31
0.0
  0
LINE
  5
363
330
E3
100
AcDbEntity
  8
0
  6
Continuous
100
AcDbLine
 10
135.6685854213184
 20
128.0709643352681
 30
0.0
 11
135.6339806712736
 21
128.0654911805841
 31
0.0
  0
LINE
  5
364
330
E3
100
AcDbEntity
  8
0
  6
Continuous
100
AcDbLine
 10
135.6339806712736
 20
128.0654911805841
 30
0.0
 11
135.5971902326881
 21
128.0600210036775
 31
0.0
  0
LINE
  5
365
330
E3
100
AcDbEntity
  8
0
  6
Continuous
100
AcDbLine
 10
135.5971902326881
 20
128.0600210036775
 30
0.0
 11
135.5584999721829
 21
128.0545508267708
 31
0.0
  0
LINE
  5
366
330
E3
100
AcDbEntity
  8
0
  6
Continuous
100
AcDbLine
 10
135.5584999721829
 20
128.0545508267708
 30
0.0
 11
135.5182017119337
 21
128.0490776720868
 31
0.0
  0
LINE
  5
367
330
E3
100
AcDbEntity
  8
0
  6
Continuous
100
AcDbLine
 10
135.5182017119337
 20
128.0490776720868
 30
0.0
 11
135.4765991852256
 21
128.0436074951802
 31
0.0
  0
LINE
  5
368
330
E3
100
AcDbEntity
  8
0
  6
Continuous
100
AcDbLine
 10
135.4765991852256
 20
128.0436074951802
 30
0.0
 11
135.4340139920074
 21
128.0381343404963
 31
0.0
  0
LINE
  5
369
330
E3
100
AcDbEntity
  8
0
  6
Continuous
100
AcDbLine
 10
135.4340139920074
 20
128.0381343404963
 30
0.0
 11
135.3907677322277
 21
128.0326641635896
 31
0.0
  0
LINE
  5
36A
330
E3
100
AcDbEntity
  8
0
  6
Continuous
100
AcDbLine
 10
135.3907677322277
 20
128.0326641635896
 30
0.0
 11
135.3471909391673
 21
128.027193986683
 31
0.0
  0
LINE
  5
36B
330
E3
100
AcDbEntity
  8
0
  6
Continuous
100
AcDbLine
 10
135.3471909391673
 20
128.027193986683
 30
0.0
 11
135.303614146107
 21
128.021720831999
 31
0.0
  0
LINE
  5
36C
330
E3
100
AcDbEntity
  8
0
  6
Continuous
100
AcDbLine
 10
135.303614146107
 20
128.021720831999
 30
0.0
 11
135.2603678863273
 21
128.0162506550924
 31
0.0
  0
LINE
  5
36D
330
E3
100
AcDbEntity
  8
0
  6
Continuous
100
AcDbLine
 10
135.2603678863273
 20
128.0162506550924
 30
0.0
 11
135.2177826931091
 21
128.0107775004084
 31
0.0
  0
LINE
  5
36E
330
E3
100
AcDbEntity
  8
0
  6
Continuous
100
AcDbLine
 10
135.2177826931091
 20
128.0107775004084
 30
0.0
 11
135.176180166401
 21
128.0053073235018
 31
0.0
  0
LINE
  5
36F
330
E3
100
AcDbEntity
  8
0
  6
Continuous
100
AcDbLine
 10
135.176180166401
 20
128.0053073235018
 30
0.0
 11
135.1358819061518
 21
127.9998371465951
 31
0.0
  0
LINE
  5
370
330
E3
100
AcDbEntity
  8
0
  6
Continuous
100
AcDbLine
 10
135.1358819061518
 20
127.9998371465951
 30
0.0
 11
135.0971916456466
 21
127.9943639919112
 31
0.0
  0
LINE
  5
371
330
E3
100
AcDbEntity
  8
0
  6
Continuous
100
AcDbLine
 10
135.0971916456466
 20
127.9943639919112
 30
0.0
 11
135.0604041848384
 21
127.9888938150045
 31
0.0
  0
LINE
  5
372
330
E3
100
AcDbEntity
  8
0
  6
Continuous
100
AcDbLine
 10
135.0604041848384
 20
127.9888938150045
 30
0.0
 11
135.0257964570164
 21
127.9834206603206
 31
0.0
  0
LINE
  5
373
330
E3
100
AcDbEntity
  8
0
  6
Continuous
100
AcDbLine
 10
135.0257964570164
 20
127.9834206603206
 30
0.0
 11
134.9936364621379
 21
127.9779504834139
 31
0.0
  0
LINE
  5
374
330
E3
100
AcDbEntity
  8
0
  6
Continuous
100
AcDbLine
 10
134.9936364621379
 20
127.9779504834139
 30
0.0
 11
134.9641683779418
 21
127.9724803065073
 31
0.0
  0
LINE
  5
375
330
E3
100
AcDbEntity
  8
0
  6
Continuous
100
AcDbLine
 10
134.9641683779418
 20
127.9724803065073
 30
0.0
 11
134.9376155377259
 21
127.9670071518233
 31
0.0
  0
LINE
  5
376
330
E3
100
AcDbEntity
  8
0
  6
Continuous
100
AcDbLine
 10
134.9376155377259
 20
127.9670071518233
 30
0.0
 11
134.9141774525696
 21
127.9615369749167
 31
0.0
  0
LINE
  5
377
330
E3
100
AcDbEntity
  8
0
  6
Continuous
100
AcDbLine
 10
134.9141774525696
 20
127.9615369749167
 30
0.0
 11
134.8940357668882
 21
127.9560638202327
 31
0.0
  0
LINE
  5
378
330
E3
100
AcDbEntity
  8
0
  6
Continuous
100
AcDbLine
 10
134.8940357668882
 20
127.9560638202327
 30
0.0
 11
134.8773453251018
 21
127.9505936433261
 31
0.0
  0
LINE
  5
379
330
E3
100
AcDbEntity
  8
0
  6
Continuous
100
AcDbLine
 10
134.8773453251018
 20
127.9505936433261
 30
0.0
 11
134.8642282160796
 21
127.9451234664194
 31
0.0
  0
LINE
  5
37A
330
E3
100
AcDbEntity
  8
0
  6
Continuous
100
AcDbLine
 10
134.8642282160796
 20
127.9451234664194
 30
0.0
 11
134.85478568425
 21
127.9396503117355
 31
0.0
  0
LINE
  5
37B
330
E3
100
AcDbEntity
  8
0
  6
Continuous
100
AcDbLine
 10
134.85478568425
 20
127.9396503117355
 30
0.0
 11
134.8490936860713
 21
127.9341793490527
 31
0.0
  0
LINE
  5
37C
330
E3
100
AcDbEntity
  8
0
  6
Continuous
100
AcDbLine
 10
134.8490936860713
 20
127.9341793490527
 30
0.0
 11
134.8471910351172
 21
127.9287079685813
 31
0.0
  0
LINE
  5
37D
330
E3
100
AcDbEntity
  8
0
  6
Continuous
100
AcDbLine
 10
135.8471910351171
 20
127.7317382716116
 30
0.0
 11
135.845288384163
 21
127.7262668911403
 31
0.0
  0
LINE
  5
37E
330
E3
100
AcDbEntity
  8
0
  6
Continuous
100
AcDbLine
 10
135.845288384163
 20
127.7262668911403
 30
0.0
 11
135.8395949116234
 21
127.7207955106689
 31
0.0
  0
LINE
  5
37F
330
E3
100
AcDbEntity
  8
0
  6
Continuous
100
AcDbLine
 10
135.8395949116234
 20
127.7207955106689
 30
0.0
 11
135.8301536622552
 21
127.7153254141261
 31
0.0
  0
LINE
  5
380
330
E3
100
AcDbEntity
  8
0
  6
Continuous
100
AcDbLine
 10
135.8301536622552
 20
127.7153254141261
 30
0.0
 11
135.817036553233
 21
127.7098522594421
 31
0.0
  0
LINE
  5
381
330
E3
100
AcDbEntity
  8
0
  6
Continuous
100
AcDbLine
 10
135.817036553233
 20
127.7098522594421
 30
0.0
 11
135.8003461114465
 21
127.7043820825355
 31
0.0
  0
LINE
  5
382
330
E3
100
AcDbEntity
  8
0
  6
Continuous
100
AcDbLine
 10
135.8003461114465
 20
127.7043820825355
 30
0.0
 11
135.7802044257652
 21
127.6989089278515
 31
0.0
  0
LINE
  5
383
330
E3
100
AcDbEntity
  8
0
  6
Continuous
100
AcDbLine
 10
135.7802044257652
 20
127.6989089278515
 30
0.0
 11
135.7567663406088
 21
127.6934387509449
 31
0.0
  0
LINE
  5
384
330
E3
100
AcDbEntity
  8
0
  6
Continuous
100
AcDbLine
 10
135.7567663406088
 20
127.6934387509449
 30
0.0
 11
135.7302135003929
 21
127.6879685740383
 31
0.0
  0
LINE
  5
385
330
E3
100
AcDbEntity
  8
0
  6
Continuous
100
AcDbLine
 10
135.7302135003929
 20
127.6879685740383
 30
0.0
 11
135.7007454161969
 21
127.6824954193543
 31
0.0
  0
LINE
  5
386
330
E3
100
AcDbEntity
  8
0
  6
Continuous
100
AcDbLine
 10
135.7007454161969
 20
127.6824954193543
 30
0.0
 11
135.6685854213184
 21
127.6770252424476
 31
0.0
  0
LINE
  5
387
330
E3
100
AcDbEntity
  8
0
  6
Continuous
100
AcDbLine
 10
135.6685854213184
 20
127.6770252424476
 30
0.0
 11
135.6339806712736
 21
127.6715520877637
 31
0.0
  0
LINE
  5
388
330
E3
100
AcDbEntity
  8
0
  6
Continuous
100
AcDbLine
 10
135.6339806712736
 20
127.6715520877637
 30
0.0
 11
135.5971902326881
 21
127.666081910857
 31
0.0
  0
LINE
  5
389
330
E3
100
AcDbEntity
  8
0
  6
Continuous
100
AcDbLine
 10
135.5971902326881
 20
127.666081910857
 30
0.0
 11
135.5584999721829
 21
127.6606117339504
 31
0.0
  0
LINE
  5
38A
330
E3
100
AcDbEntity
  8
0
  6
Continuous
100
AcDbLine
 10
135.5584999721829
 20
127.6606117339504
 30
0.0
 11
135.5182017119337
 21
127.6551385792664
 31
0.0
  0
LINE
  5
38B
330
E3
100
AcDbEntity
  8
0
  6
Continuous
100
AcDbLine
 10
135.5182017119337
 20
127.6551385792664
 30
0.0
 11
135.4765991852256
 21
127.6496684023598
 31
0.0
  0
LINE
  5
38C
330
E3
100
AcDbEntity
  8
0
  6
Continuous
100
AcDbLine
 10
135.4765991852256
 20
127.6496684023598
 30
0.0
 11
135.4340139920074
 21
127.6441952476758
 31
0.0
  0
LINE
  5
38D
330
E3
100
AcDbEntity
  8
0
  6
Continuous
100
AcDbLine
 10
135.4340139920074
 20
127.6441952476758
 30
0.0
 11
135.3907677322277
 21
127.6387250707692
 31
0.0
  0
LINE
  5
38E
330
E3
100
AcDbEntity
  8
0
  6
Continuous
100
AcDbLine
 10
135.3907677322277
 20
127.6387250707692
 30
0.0
 11
135.3471909391673
 21
127.6332548938625
 31
0.0
  0
LINE
  5
38F
330
E3
100
AcDbEntity
  8
0
  6
Continuous
100
AcDbLine
 10
135.3471909391673
 20
127.6332548938625
 30
0.0
 11
135.303614146107
 21
127.6277817391786
 31
0.0
  0
LINE
  5
390
330
E3
100
AcDbEntity
  8
0
  6
Continuous
100
AcDbLine
 10
135.303614146107
 20
127.6277817391786
 30
0.0
 11
135.2603678863273
 21
127.6223115622719
 31
0.0
  0
LINE
  5
391
330
E3
100
AcDbEntity
  8
0
  6
Continuous
100
AcDbLine
 10
135.2603678863273
 20
127.6223115622719
 30
0.0
 11
135.2177826931091
 21
127.616838407588
 31
0.0
  0
LINE
  5
392
330
E3
100
AcDbEntity
  8
0
  6
Continuous
100
AcDbLine
 10
135.2177826931091
 20
127.616838407588
 30
0.0
 11
135.176180166401
 21
127.6113682306813
 31
0.0
  0
LINE
  5
393
330
E3
100
AcDbEntity
  8
0
  6
Continuous
100
AcDbLine
 10
135.176180166401
 20
127.6113682306813
 30
0.0
 11
135.1358819061518
 21
127.6058950759974
 31
0.0
  0
LINE
  5
394
330
E3
100
AcDbEntity
  8
0
  6
Continuous
100
AcDbLine
 10
135.1358819061518
 20
127.6058950759974
 30
0.0
 11
135.0971916456466
 21
127.6004248990907
 31
0.0
  0
LINE
  5
395
330
E3
100
AcDbEntity
  8
0
  6
Continuous
100
AcDbLine
 10
135.0971916456466
 20
127.6004248990907
 30
0.0
 11
135.0604041848384
 21
127.5949547221841
 31
0.0
  0
LINE
  5
396
330
E3
100
AcDbEntity
  8
0
  6
Continuous
100
AcDbLine
 10
135.0604041848384
 20
127.5949547221841
 30
0.0
 11
135.0257964570164
 21
127.5894815675001
 31
0.0
  0
LINE
  5
397
330
E3
100
AcDbEntity
  8
0
  6
Continuous
100
AcDbLine
 10
135.0257964570164
 20
127.5894815675001
 30
0.0
 11
134.9936364621379
 21
127.5840113905935
 31
0.0
  0
LINE
  5
398
330
E3
100
AcDbEntity
  8
0
  6
Continuous
100
AcDbLine
 10
134.9936364621379
 20
127.5840113905935
 30
0.0
 11
134.9641683779418
 21
127.5785382359095
 31
0.0
  0
LINE
  5
399
330
E3
100
AcDbEntity
  8
0
  6
Continuous
100
AcDbLine
 10
134.9641683779418
 20
127.5785382359095
 30
0.0
 11
134.9376155377259
 21
127.5730680590029
 31
0.0
  0
LINE
  5
39A
330
E3
100
AcDbEntity
  8
0
  6
Continuous
100
AcDbLine
 10
134.9376155377259
 20
127.5730680590029
 30
0.0
 11
134.9141774525696
 21
127.5675978820963
 31
0.0
  0
LINE
  5
39B
330
E3
100
AcDbEntity
  8
0
  6
Continuous
100
AcDbLine
 10
134.9141774525696
 20
127.5675978820963
 30
0.0
 11
134.8940357668882
 21
127.5621247274123
 31
0.0
  0
LINE
  5
39C
330
E3
100
AcDbEntity
  8
0
  6
Continuous
100
AcDbLine
 10
134.8940357668882
 20
127.5621247274123
 30
0.0
 11
134.8773453251018
 21
127.5566545505056
 31
0.0
  0
LINE
  5
39D
330
E3
100
AcDbEntity
  8
0
  6
Continuous
100
AcDbLine
 10
134.8773453251018
 20
127.5566545505056
 30
0.0
 11
134.8642282160796
 21
127.5511813958217
 31
0.0
  0
LINE
  5
39E
330
E3
100
AcDbEntity
  8
0
  6
Continuous
100
AcDbLine
 10
134.8642282160796
 20
127.5511813958217
 30
0.0
 11
134.85478568425
 21
127.5457112189151
 31
0.0
  0
LINE
  5
39F
330
E3
100
AcDbEntity
  8
0
  6
Continuous
100
AcDbLine
 10
134.85478568425
 20
127.5457112189151
 30
0.0
 11
134.8490936860713
 21
127.5402399551133
 31
0.0
  0
LINE
  5
3A0
330
E3
100
AcDbEntity
  8
0
  6
Continuous
100
AcDbLine
 10
134.8490936860713
 20
127.5402399551133
 30
0.0
 11
134.8471910351172
 21
127.5347685746419
 31
0.0
  0
LINE
  5
3A1
330
E3
100
AcDbEntity
  8
0
  6
Continuous
100
AcDbLine
 10
135.8471910351171
 20
127.3377988776722
 30
0.0
 11
135.845288384163
 21
127.3323274972008
 31
0.0
  0
LINE
  5
3A2
330
E3
100
AcDbEntity
  8
0
  6
Continuous
100
AcDbLine
 10
135.845288384163
 20
127.3323274972008
 30
0.0
 11
135.8395949116234
 21
127.3268561167295
 31
0.0
  0
LINE
  5
3A3
330
E3
100
AcDbEntity
  8
0
  6
Continuous
100
AcDbLine
 10
135.8395949116234
 20
127.3268561167295
 30
0.0
 11
135.8301536622552
 21
127.3213833435283
 31
0.0
  0
LINE
  5
3A4
330
E3
100
AcDbEntity
  8
0
  6
Continuous
100
AcDbLine
 10
135.8301536622552
 20
127.3213833435283
 30
0.0
 11
135.817036553233
 21
127.3159131666217
 31
0.0
  0
LINE
  5
3A5
330
E3
100
AcDbEntity
  8
0
  6
Continuous
100
AcDbLine
 10
135.817036553233
 20
127.3159131666217
 30
0.0
 11
135.8003461114465
 21
127.3104429897151
 31
0.0
  0
LINE
  5
3A6
330
E3
100
AcDbEntity
  8
0
  6
Continuous
100
AcDbLine
 10
135.8003461114465
 20
127.3104429897151
 30
0.0
 11
135.7802044257652
 21
127.3049698350311
 31
0.0
  0
LINE
  5
3A7
330
E3
100
AcDbEntity
  8
0
  6
Continuous
100
AcDbLine
 10
135.7802044257652
 20
127.3049698350311
 30
0.0
 11
135.7567663406088
 21
127.2994996581245
 31
0.0
  0
LINE
  5
3A8
330
E3
100
AcDbEntity
  8
0
  6
Continuous
100
AcDbLine
 10
135.7567663406088
 20
127.2994996581245
 30
0.0
 11
135.7302135003929
 21
127.2940265034405
 31
0.0
  0
LINE
  5
3A9
330
E3
100
AcDbEntity
  8
0
  6
Continuous
100
AcDbLine
 10
135.7302135003929
 20
127.2940265034405
 30
0.0
 11
135.7007454161969
 21
127.2885563265339
 31
0.0
  0
LINE
  5
3AA
330
E3
100
AcDbEntity
  8
0
  6
Continuous
100
AcDbLine
 10
135.7007454161969
 20
127.2885563265339
 30
0.0
 11
135.6685854213184
 21
127.2830861496272
 31
0.0
  0
LINE
  5
3AB
330
E3
100
AcDbEntity
  8
0
  6
Continuous
100
AcDbLine
 10
135.6685854213184
 20
127.2830861496272
 30
0.0
 11
135.6339806712736
 21
127.2776129949433
 31
0.0
  0
LINE
  5
3AC
330
E3
100
AcDbEntity
  8
0
  6
Continuous
100
AcDbLine
 10
135.6339806712736
 20
127.2776129949433
 30
0.0
 11
135.5971902326881
 21
127.2721428180366
 31
0.0
  0
LINE
  5
3AD
330
E3
100
AcDbEntity
  8
0
  6
Continuous
100
AcDbLine
 10
135.5971902326881
 20
127.2721428180366
 30
0.0
 11
135.5584999721829
 21
127.2666696633526
 31
0.0
  0
LINE
  5
3AE
330
E3
100
AcDbEntity
  8
0
  6
Continuous
100
AcDbLine
 10
135.5584999721829
 20
127.2666696633526
 30
0.0
 11
135.5182017119337
 21
127.261199486446
 31
0.0
  0
LINE
  5
3AF
330
E3
100
AcDbEntity
  8
0
  6
Continuous
100
AcDbLine
 10
135.5182017119337
 20
127.261199486446
 30
0.0
 11
135.4765991852256
 21
127.2557293095393
 31
0.0
  0
LINE
  5
3B0
330
E3
100
AcDbEntity
  8
0
  6
Continuous
100
AcDbLine
 10
135.4765991852256
 20
127.2557293095393
 30
0.0
 11
135.4340139920074
 21
127.2502561548554
 31
0.0
  0
LINE
  5
3B1
330
E3
100
AcDbEntity
  8
0
  6
Continuous
100
AcDbLine
 10
135.4340139920074
 20
127.2502561548554
 30
0.0
 11
135.3907677322277
 21
127.2447859779488
 31
0.0
  0
LINE
  5
3B2
330
E3
100
AcDbEntity
  8
0
  6
Continuous
100
AcDbLine
 10
135.3907677322277
 20
127.2447859779488
 30
0.0
 11
135.3471909391673
 21
127.2393128232648
 31
0.0
  0
LINE
  5
3B3
330
E3
100
AcDbEntity
  8
0
  6
Continuous
100
AcDbLine
 10
135.3471909391673
 20
127.2393128232648
 30
0.0
 11
135.303614146107
 21
127.2338426463581
 31
0.0
  0
LINE
  5
3B4
330
E3
100
AcDbEntity
  8
0
  6
Continuous
100
AcDbLine
 10
135.303614146107
 20
127.2338426463581
 30
0.0
 11
135.2603678863273
 21
127.2283724694515
 31
0.0
  0
LINE
  5
3B5
330
E3
100
AcDbEntity
  8
0
  6
Continuous
100
AcDbLine
 10
135.2603678863273
 20
127.2283724694515
 30
0.0
 11
135.2177826931091
 21
127.2228993147675
 31
0.0
  0
LINE
  5
3B6
330
E3
100
AcDbEntity
  8
0
  6
Continuous
100
AcDbLine
 10
135.2177826931091
 20
127.2228993147675
 30
0.0
 11
135.176180166401
 21
127.2174291378609
 31
0.0
  0
LINE
  5
3B7
330
E3
100
AcDbEntity
  8
0
  6
Continuous
100
AcDbLine
 10
135.176180166401
 20
127.2174291378609
 30
0.0
 11
135.1358819061518
 21
127.211955983177
 31
0.0
  0
LINE
  5
3B8
330
E3
100
AcDbEntity
  8
0
  6
Continuous
100
AcDbLine
 10
135.1358819061518
 20
127.211955983177
 30
0.0
 11
135.0971916456466
 21
127.2064858062703
 31
0.0
  0
LINE
  5
3B9
330
E3
100
AcDbEntity
  8
0
  6
Continuous
100
AcDbLine
 10
135.0971916456466
 20
127.2064858062703
 30
0.0
 11
135.0604041848384
 21
127.2010156293637
 31
0.0
  0
LINE
  5
3BA
330
E3
100
AcDbEntity
  8
0
  6
Continuous
100
AcDbLine
 10
135.0604041848384
 20
127.2010156293637
 30
0.0
 11
135.0257964570164
 21
127.1955424746797
 31
0.0
  0
LINE
  5
3BB
330
E3
100
AcDbEntity
  8
0
  6
Continuous
100
AcDbLine
 10
135.0257964570164
 20
127.1955424746797
 30
0.0
 11
134.9936364621379
 21
127.1900722977731
 31
0.0
  0
LINE
  5
3BC
330
E3
100
AcDbEntity
  8
0
  6
Continuous
100
AcDbLine
 10
134.9936364621379
 20
127.1900722977731
 30
0.0
 11
134.9641683779418
 21
127.1845991430891
 31
0.0
  0
LINE
  5
3BD
330
E3
100
AcDbEntity
  8
0
  6
Continuous
100
AcDbLine
 10
134.9641683779418
 20
127.1845991430891
 30
0.0
 11
134.9376155377259
 21
127.1791289661825
 31
0.0
  0
LINE
  5
3BE
330
E3
100
AcDbEntity
  8
0
  6
Continuous
100
AcDbLine
 10
134.9376155377259
 20
127.1791289661825
 30
0.0
 11
134.9141774525696
 21
127.1736587892758
 31
0.0
  0
LINE
  5
3BF
330
E3
100
AcDbEntity
  8
0
  6
Continuous
100
AcDbLine
 10
134.9141774525696
 20
127.1736587892758
 30
0.0
 11
134.8940357668882
 21
127.1681856345919
 31
0.0
  0
LINE
  5
3C0
330
E3
100
AcDbEntity
  8
0
  6
Continuous
100
AcDbLine
 10
134.8940357668882
 20
127.1681856345919
 30
0.0
 11
134.8773453251018
 21
127.1627154576852
 31
0.0
  0
LINE
  5
3C1
330
E3
100
AcDbEntity
  8
0
  6
Continuous
100
AcDbLine
 10
134.8773453251018
 20
127.1627154576852
 30
0.0
 11
134.8642282160796
 21
127.1572423030013
 31
0.0
  0
LINE
  5
3C2
330
E3
100
AcDbEntity
  8
0
  6
Continuous
100
AcDbLine
 10
134.8642282160796
 20
127.1572423030013
 30
0.0
 11
134.85478568425
 21
127.1517721260946
 31
0.0
  0
LINE
  5
3C3
330
E3
100
AcDbEntity
  8
0
  6
Continuous
100
AcDbLine
 10
134.85478568425
 20
127.1517721260946
 30
0.0
 11
134.8490936860713
 21
127.1463005611739
 31
0.0
  0
LINE
  5
3C4
330
E3
100
AcDbEntity
  8
0
  6
Continuous
100
AcDbLine
 10
134.8490936860713
 20
127.1463005611739
 30
0.0
 11
134.8471910351172
 21
127.1408291807026
 31
0.0
  0
LINE
  5
3C5
330
E3
100
AcDbEntity
  8
0
  6
Continuous
100
AcDbLine
 10
135.8471910351171
 20
126.9438594837329
 30
0.0
 11
135.845288384163
 21
126.9383881032614
 31
0.0
  0
LINE
  5
3C6
330
E3
100
AcDbEntity
  8
0
  6
Continuous
100
AcDbLine
 10
135.845288384163
 20
126.9383881032614
 30
0.0
 11
135.8395949116234
 21
126.9329167227901
 31
0.0
  0
LINE
  5
3C7
330
E3
100
AcDbEntity
  8
0
  6
Continuous
100
AcDbLine
 10
135.8395949116234
 20
126.9329167227901
 30
0.0
 11
135.8301536622552
 21
126.9274442507079
 31
0.0
  0
LINE
  5
3C8
330
E3
100
AcDbEntity
  8
0
  6
Continuous
100
AcDbLine
 10
135.8301536622552
 20
126.9274442507079
 30
0.0
 11
135.817036553233
 21
126.9219740738012
 31
0.0
  0
LINE
  5
3C9
330
E3
100
AcDbEntity
  8
0
  6
Continuous
100
AcDbLine
 10
135.817036553233
 20
126.9219740738012
 30
0.0
 11
135.8003461114465
 21
126.9165038968946
 31
0.0
  0
LINE
  5
3CA
330
E3
100
AcDbEntity
  8
0
  6
Continuous
100
AcDbLine
 10
135.8003461114465
 20
126.9165038968946
 30
0.0
 11
135.7802044257652
 21
126.9110307422107
 31
0.0
  0
LINE
  5
3CB
330
E3
100
AcDbEntity
  8
0
  6
Continuous
100
AcDbLine
 10
135.7802044257652
 20
126.9110307422107
 30
0.0
 11
135.7567663406088
 21
126.905560565304
 31
0.0
  0
LINE
  5
3CC
330
E3
100
AcDbEntity
  8
0
  6
Continuous
100
AcDbLine
 10
135.7567663406088
 20
126.905560565304
 30
0.0
 11
135.7302135003929
 21
126.90008741062
 31
0.0
  0
LINE
  5
3CD
330
E3
100
AcDbEntity
  8
0
  6
Continuous
100
AcDbLine
 10
135.7302135003929
 20
126.90008741062
 30
0.0
 11
135.7007454161969
 21
126.8946172337134
 31
0.0
  0
LINE
  5
3CE
330
E3
100
AcDbEntity
  8
0
  6
Continuous
100
AcDbLine
 10
135.7007454161969
 20
126.8946172337134
 30
0.0
 11
135.6685854213184
 21
126.8891470568068
 31
0.0
  0
LINE
  5
3CF
330
E3
100
AcDbEntity
  8
0
  6
Continuous
100
AcDbLine
 10
135.6685854213184
 20
126.8891470568068
 30
0.0
 11
135.6339806712736
 21
126.8836739021228
 31
0.0
  0
LINE
  5
3D0
330
E3
100
AcDbEntity
  8
0
  6
Continuous
100
AcDbLine
 10
135.6339806712736
 20
126.8836739021228
 30
0.0
 11
135.5971902326881
 21
126.8782037252161
 31
0.0
  0
LINE
  5
3D1
330
E3
100
AcDbEntity
  8
0
  6
Continuous
100
AcDbLine
 10
135.5971902326881
 20
126.8782037252161
 30
0.0
 11
135.5584999721829
 21
126.8727305705322
 31
0.0
  0
LINE
  5
3D2
330
E3
100
AcDbEntity
  8
0
  6
Continuous
100
AcDbLine
 10
135.5584999721829
 20
126.8727305705322
 30
0.0
 11
135.5182017119337
 21
126.8672603936256
 31
0.0
  0
LINE
  5
3D3
330
E3
100
AcDbEntity
  8
0
  6
Continuous
100
AcDbLine
 10
135.5182017119337
 20
126.8672603936256
 30
0.0
 11
135.4765991852256
 21
126.8617902167189
 31
0.0
  0
LINE
  5
3D4
330
E3
100
AcDbEntity
  8
0
  6
Continuous
100
AcDbLine
 10
135.4765991852256
 20
126.8617902167189
 30
0.0
 11
135.4340139920074
 21
126.856317062035
 31
0.0
  0
LINE
  5
3D5
330
E3
100
AcDbEntity
  8
0
  6
Continuous
100
AcDbLine
 10
135.4340139920074
 20
126.856317062035
 30
0.0
 11
135.3907677322277
 21
126.8508468851283
 31
0.0
  0
LINE
  5
3D6
330
E3
100
AcDbEntity
  8
0
  6
Continuous
100
AcDbLine
 10
135.3907677322277
 20
126.8508468851283
 30
0.0
 11
135.3471909391673
 21
126.8453737304444
 31
0.0
  0
LINE
  5
3D7
330
E3
100
AcDbEntity
  8
0
  6
Continuous
100
AcDbLine
 10
135.3471909391673
 20
126.8453737304444
 30
0.0
 11
135.303614146107
 21
126.8399035535377
 31
0.0
  0
LINE
  5
3D8
330
E3
100
AcDbEntity
  8
0
  6
Continuous
100
AcDbLine
 10
135.303614146107
 20
126.8399035535377
 30
0.0
 11
135.2603678863273
 21
126.8344303988538
 31
0.0
  0
LINE
  5
3D9
330
E3
100
AcDbEntity
  8
0
  6
Continuous
100
AcDbLine
 10
135.2603678863273
 20
126.8344303988538
 30
0.0
 11
135.2177826931091
 21
126.8289602219471
 31
0.0
  0
LINE
  5
3DA
330
E3
100
AcDbEntity
  8
0
  6
Continuous
100
AcDbLine
 10
135.2177826931091
 20
126.8289602219471
 30
0.0
 11
135.176180166401
 21
126.8234900450405
 31
0.0
  0
LINE
  5
3DB
330
E3
100
AcDbEntity
  8
0
  6
Continuous
100
AcDbLine
 10
135.176180166401
 20
126.8234900450405
 30
0.0
 11
135.1358819061518
 21
126.8180168903565
 31
0.0
  0
LINE
  5
3DC
330
E3
100
AcDbEntity
  8
0
  6
Continuous
100
AcDbLine
 10
135.1358819061518
 20
126.8180168903565
 30
0.0
 11
135.0971916456466
 21
126.8125467134499
 31
0.0
  0
LINE
  5
3DD
330
E3
100
AcDbEntity
  8
0
  6
Continuous
100
AcDbLine
 10
135.0971916456466
 20
126.8125467134499
 30
0.0
 11
135.0604041848384
 21
126.8070735587659
 31
0.0
  0
LINE
  5
3DE
330
E3
100
AcDbEntity
  8
0
  6
Continuous
100
AcDbLine
 10
135.0604041848384
 20
126.8070735587659
 30
0.0
 11
135.0257964570164
 21
126.8016033818593
 31
0.0
  0
LINE
  5
3DF
330
E3
100
AcDbEntity
  8
0
  6
Continuous
100
AcDbLine
 10
135.0257964570164
 20
126.8016033818593
 30
0.0
 11
134.9936364621379
 21
126.7961332049526
 31
0.0
  0
LINE
  5
3E0
330
E3
100
AcDbEntity
  8
0
  6
Continuous
100
AcDbLine
 10
134.9936364621379
 20
126.7961332049526
 30
0.0
 11
134.9641683779418
 21
126.7906600502687
 31
0.0
  0
LINE
  5
3E1
330
E3
100
AcDbEntity
  8
0
  6
Continuous
100
AcDbLine
 10
134.9641683779418
 20
126.7906600502687
 30
0.0
 11
134.9376155377259
 21
126.785189873362
 31
0.0
  0
LINE
  5
3E2
330
E3
100
AcDbEntity
  8
0
  6
Continuous
100
AcDbLine
 10
134.9376155377259
 20
126.785189873362
 30
0.0
 11
134.9141774525696
 21
126.779716718678
 31
0.0
  0
LINE
  5
3E3
330
E3
100
AcDbEntity
  8
0
  6
Continuous
100
AcDbLine
 10
134.9141774525696
 20
126.779716718678
 30
0.0
 11
134.8940357668882
 21
126.7742465417714
 31
0.0
  0
LINE
  5
3E4
330
E3
100
AcDbEntity
  8
0
  6
Continuous
100
AcDbLine
 10
134.8940357668882
 20
126.7742465417714
 30
0.0
 11
134.8773453251018
 21
126.7687763648648
 31
0.0
  0
LINE
  5
3E5
330
E3
100
AcDbEntity
  8
0
  6
Continuous
100
AcDbLine
 10
134.8773453251018
 20
126.7687763648648
 30
0.0
 11
134.8642282160796
 21
126.7633032101808
 31
0.0
  0
LINE
  5
3E6
330
E3
100
AcDbEntity
  8
0
  6
Continuous
100
AcDbLine
 10
134.8642282160796
 20
126.7633032101808
 30
0.0
 11
134.85478568425
 21
126.7578330332742
 31
0.0
  0
LINE
  5
3E7
330
E3
100
AcDbEntity
  8
0
  6
Continuous
100
AcDbLine
 10
134.85478568425
 20
126.7578330332742
 30
0.0
 11
134.8490936860713
 21
126.7523611672345
 31
0.0
  0
LINE
  5
3E8
330
E3
100
AcDbEntity
  8
0
  6
Continuous
100
AcDbLine
 10
134.8490936860713
 20
126.7523611672345
 30
0.0
 11
134.8471910351172
 21
126.7468897867632
 31
0.0
  0
LINE
  5
3E9
330
E3
100
AcDbEntity
  8
0
  6
Continuous
100
AcDbLine
 10
135.8471910351171
 20
126.5499200897935
 30
0.0
 11
135.845288384163
 21
126.5444487093221
 31
0.0
  0
LINE
  5
3EA
330
E3
100
AcDbEntity
  8
0
  6
Continuous
100
AcDbLine
 10
135.845288384163
 20
126.5444487093221
 30
0.0
 11
135.8395949116234
 21
126.5389773288507
 31
0.0
  0
LINE
  5
3EB
330
E3
100
AcDbEntity
  8
0
  6
Continuous
100
AcDbLine
 10
135.8395949116234
 20
126.5389773288507
 30
0.0
 11
135.8301536622552
 21
126.5335051578875
 31
0.0
  0
LINE
  5
3EC
330
E3
100
AcDbEntity
  8
0
  6
Continuous
100
AcDbLine
 10
135.8301536622552
 20
126.5335051578875
 30
0.0
 11
135.817036553233
 21
126.5280349809808
 31
0.0
  0
LINE
  5
3ED
330
E3
100
AcDbEntity
  8
0
  6
Continuous
100
AcDbLine
 10
135.817036553233
 20
126.5280349809808
 30
0.0
 11
135.8003461114465
 21
126.5225618262969
 31
0.0
  0
LINE
  5
3EE
330
E3
100
AcDbEntity
  8
0
  6
Continuous
100
AcDbLine
 10
135.8003461114465
 20
126.5225618262969
 30
0.0
 11
135.7802044257652
 21
126.5170916493902
 31
0.0
  0
LINE
  5
3EF
330
E3
100
AcDbEntity
  8
0
  6
Continuous
100
AcDbLine
 10
135.7802044257652
 20
126.5170916493902
 30
0.0
 11
135.7567663406088
 21
126.5116214724836
 31
0.0
  0
LINE
  5
3F0
330
E3
100
AcDbEntity
  8
0
  6
Continuous
100
AcDbLine
 10
135.7567663406088
 20
126.5116214724836
 30
0.0
 11
135.7302135003929
 21
126.5061483177996
 31
0.0
  0
LINE
  5
3F1
330
E3
100
AcDbEntity
  8
0
  6
Continuous
100
AcDbLine
 10
135.7302135003929
 20
126.5061483177996
 30
0.0
 11
135.7007454161969
 21
126.500678140893
 31
0.0
  0
LINE
  5
3F2
330
E3
100
AcDbEntity
  8
0
  6
Continuous
100
AcDbLine
 10
135.7007454161969
 20
126.500678140893
 30
0.0
 11
135.6685854213184
 21
126.495204986209
 31
0.0
  0
LINE
  5
3F3
330
E3
100
AcDbEntity
  8
0
  6
Continuous
100
AcDbLine
 10
135.6685854213184
 20
126.495204986209
 30
0.0
 11
135.6339806712736
 21
126.4897348093024
 31
0.0
  0
LINE
  5
3F4
330
E3
100
AcDbEntity
  8
0
  6
Continuous
100
AcDbLine
 10
135.6339806712736
 20
126.4897348093024
 30
0.0
 11
135.5971902326881
 21
126.4842646323957
 31
0.0
  0
LINE
  5
3F5
330
E3
100
AcDbEntity
  8
0
  6
Continuous
100
AcDbLine
 10
135.5971902326881
 20
126.4842646323957
 30
0.0
 11
135.5584999721829
 21
126.4787914777118
 31
0.0
  0
LINE
  5
3F6
330
E3
100
AcDbEntity
  8
0
  6
Continuous
100
AcDbLine
 10
135.5584999721829
 20
126.4787914777118
 30
0.0
 11
135.5182017119337
 21
126.4733213008051
 31
0.0
  0
LINE
  5
3F7
330
E3
100
AcDbEntity
  8
0
  6
Continuous
100
AcDbLine
 10
135.5182017119337
 20
126.4733213008051
 30
0.0
 11
135.4765991852256
 21
126.4678481461212
 31
0.0
  0
LINE
  5
3F8
330
E3
100
AcDbEntity
  8
0
  6
Continuous
100
AcDbLine
 10
135.4765991852256
 20
126.4678481461212
 30
0.0
 11
135.4340139920074
 21
126.4623779692145
 31
0.0
  0
LINE
  5
3F9
330
E3
100
AcDbEntity
  8
0
  6
Continuous
100
AcDbLine
 10
135.4340139920074
 20
126.4623779692145
 30
0.0
 11
135.3907677322277
 21
126.4569077923079
 31
0.0
  0
LINE
  5
3FA
330
E3
100
AcDbEntity
  8
0
  6
Continuous
100
AcDbLine
 10
135.3907677322277
 20
126.4569077923079
 30
0.0
 11
135.3471909391673
 21
126.4514346376239
 31
0.0
  0
LINE
  5
3FB
330
E3
100
AcDbEntity
  8
0
  6
Continuous
100
AcDbLine
 10
135.3471909391673
 20
126.4514346376239
 30
0.0
 11
135.303614146107
 21
126.4459644607173
 31
0.0
  0
LINE
  5
3FC
330
E3
100
AcDbEntity
  8
0
  6
Continuous
100
AcDbLine
 10
135.303614146107
 20
126.4459644607173
 30
0.0
 11
135.2603678863273
 21
126.4404913060333
 31
0.0
  0
LINE
  5
3FD
330
E3
100
AcDbEntity
  8
0
  6
Continuous
100
AcDbLine
 10
135.2603678863273
 20
126.4404913060333
 30
0.0
 11
135.2177826931091
 21
126.4350211291267
 31
0.0
  0
LINE
  5
3FE
330
E3
100
AcDbEntity
  8
0
  6
Continuous
100
AcDbLine
 10
135.2177826931091
 20
126.4350211291267
 30
0.0
 11
135.176180166401
 21
126.42955095222
 31
0.0
  0
LINE
  5
3FF
330
E3
100
AcDbEntity
  8
0
  6
Continuous
100
AcDbLine
 10
135.176180166401
 20
126.42955095222
 30
0.0
 11
135.1358819061518
 21
126.4240777975361
 31
0.0
  0
LINE
  5
400
330
E3
100
AcDbEntity
  8
0
  6
Continuous
100
AcDbLine
 10
135.1358819061518
 20
126.4240777975361
 30
0.0
 11
135.0971916456466
 21
126.4186076206294
 31
0.0
  0
LINE
  5
401
330
E3
100
AcDbEntity
  8
0
  6
Continuous
100
AcDbLine
 10
135.0971916456466
 20
126.4186076206294
 30
0.0
 11
135.0604041848384
 21
126.4131344659455
 31
0.0
  0
LINE
  5
402
330
E3
100
AcDbEntity
  8
0
  6
Continuous
100
AcDbLine
 10
135.0604041848384
 20
126.4131344659455
 30
0.0
 11
135.0257964570164
 21
126.4076642890388
 31
0.0
  0
LINE
  5
403
330
E3
100
AcDbEntity
  8
0
  6
Continuous
100
AcDbLine
 10
135.0257964570164
 20
126.4076642890388
 30
0.0
 11
134.9936364621379
 21
126.4021941121322
 31
0.0
  0
LINE
  5
404
330
E3
100
AcDbEntity
  8
0
  6
Continuous
100
AcDbLine
 10
134.9936364621379
 20
126.4021941121322
 30
0.0
 11
134.9641683779418
 21
126.3967209574483
 31
0.0
  0
LINE
  5
405
330
E3
100
AcDbEntity
  8
0
  6
Continuous
100
AcDbLine
 10
134.9641683779418
 20
126.3967209574483
 30
0.0
 11
134.9376155377259
 21
126.3912507805416
 31
0.0
  0
LINE
  5
406
330
E3
100
AcDbEntity
  8
0
  6
Continuous
100
AcDbLine
 10
134.9376155377259
 20
126.3912507805416
 30
0.0
 11
134.9141774525696
 21
126.3857776258576
 31
0.0
  0
LINE
  5
407
330
E3
100
AcDbEntity
  8
0
  6
Continuous
100
AcDbLine
 10
134.9141774525696
 20
126.3857776258576
 30
0.0
 11
134.8940357668882
 21
126.380307448951
 31
0.0
  0
LINE
  5
408
330
E3
100
AcDbEntity
  8
0
  6
Continuous
100
AcDbLine
 10
134.8940357668882
 20
126.380307448951
 30
0.0
 11
134.8773453251018
 21
126.3748372720443
 31
0.0
  0
LINE
  5
409
330
E3
100
AcDbEntity
  8
0
  6
Continuous
100
AcDbLine
 10
134.8773453251018
 20
126.3748372720443
 30
0.0
 11
134.8642282160796
 21
126.3693641173604
 31
0.0
  0
LINE
  5
40A
330
E3
100
AcDbEntity
  8
0
  6
Continuous
100
AcDbLine
 10
134.8642282160796
 20
126.3693641173604
 30
0.0
 11
134.85478568425
 21
126.3638939404537
 31
0.0
  0
LINE
  5
40B
330
E3
100
AcDbEntity
  8
0
  6
Continuous
100
AcDbLine
 10
134.85478568425
 20
126.3638939404537
 30
0.0
 11
134.8490936860713
 21
126.3584217732951
 31
0.0
  0
LINE
  5
40C
330
E3
100
AcDbEntity
  8
0
  6
Continuous
100
AcDbLine
 10
134.8490936860713
 20
126.3584217732951
 30
0.0
 11
134.8471910351172
 21
126.3529503928238
 31
0.0
  0
LINE
  5
40D
330
E3
100
AcDbEntity
  8
0
  6
Continuous
100
AcDbLine
 10
135.8471910351171
 20
126.1559806958541
 30
0.0
 11
135.845288384163
 21
126.1505093153827
 31
0.0
  0
LINE
  5
40E
330
E3
100
AcDbEntity
  8
0
  6
Continuous
100
AcDbLine
 10
135.845288384163
 20
126.1505093153827
 30
0.0
 11
135.8395949116234
 21
126.1450379349113
 31
0.0
  0
LINE
  5
40F
330
E3
100
AcDbEntity
  8
0
  6
Continuous
100
AcDbLine
 10
135.8395949116234
 20
126.1450379349113
 30
0.0
 11
135.8301536622552
 21
126.139566065067
 31
0.0
  0
LINE
  5
410
330
E3
100
AcDbEntity
  8
0
  6
Continuous
100
AcDbLine
 10
135.8301536622552
 20
126.139566065067
 30
0.0
 11
135.817036553233
 21
126.1340958881604
 31
0.0
  0
LINE
  5
411
330
E3
100
AcDbEntity
  8
0
  6
Continuous
100
AcDbLine
 10
135.817036553233
 20
126.1340958881604
 30
0.0
 11
135.8003461114465
 21
126.1286227334764
 31
0.0
  0
LINE
  5
412
330
E3
100
AcDbEntity
  8
0
  6
Continuous
100
AcDbLine
 10
135.8003461114465
 20
126.1286227334764
 30
0.0
 11
135.7802044257652
 21
126.1231525565698
 31
0.0
  0
LINE
  5
413
330
E3
100
AcDbEntity
  8
0
  6
Continuous
100
AcDbLine
 10
135.7802044257652
 20
126.1231525565698
 30
0.0
 11
135.7567663406088
 21
126.1176823796631
 31
0.0
  0
LINE
  5
414
330
E3
100
AcDbEntity
  8
0
  6
Continuous
100
AcDbLine
 10
135.7567663406088
 20
126.1176823796631
 30
0.0
 11
135.7302135003929
 21
126.1122092249792
 31
0.0
  0
LINE
  5
415
330
E3
100
AcDbEntity
  8
0
  6
Continuous
100
AcDbLine
 10
135.7302135003929
 20
126.1122092249792
 30
0.0
 11
135.7007454161969
 21
126.1067390480725
 31
0.0
  0
LINE
  5
416
330
E3
100
AcDbEntity
  8
0
  6
Continuous
100
AcDbLine
 10
135.7007454161969
 20
126.1067390480725
 30
0.0
 11
135.6685854213184
 21
126.1012658933886
 31
0.0
  0
LINE
  5
417
330
E3
100
AcDbEntity
  8
0
  6
Continuous
100
AcDbLine
 10
135.6685854213184
 20
126.1012658933886
 30
0.0
 11
135.6339806712736
 21
126.0957957164819
 31
0.0
  0
LINE
  5
418
330
E3
100
AcDbEntity
  8
0
  6
Continuous
100
AcDbLine
 10
135.6339806712736
 20
126.0957957164819
 30
0.0
 11
135.5971902326881
 21
126.0903255395753
 31
0.0
  0
LINE
  5
419
330
E3
100
AcDbEntity
  8
0
  6
Continuous
100
AcDbLine
 10
135.5971902326881
 20
126.0903255395753
 30
0.0
 11
135.5584999721829
 21
126.0848523848913
 31
0.0
  0
LINE
  5
41A
330
E3
100
AcDbEntity
  8
0
  6
Continuous
100
AcDbLine
 10
135.5584999721829
 20
126.0848523848913
 30
0.0
 11
135.5182017119337
 21
126.0793822079847
 31
0.0
  0
LINE
  5
41B
330
E3
100
AcDbEntity
  8
0
  6
Continuous
100
AcDbLine
 10
135.5182017119337
 20
126.0793822079847
 30
0.0
 11
135.4765991852256
 21
126.0739090533007
 31
0.0
  0
LINE
  5
41C
330
E3
100
AcDbEntity
  8
0
  6
Continuous
100
AcDbLine
 10
135.4765991852256
 20
126.0739090533007
 30
0.0
 11
135.4340139920074
 21
126.0684388763941
 31
0.0
  0
LINE
  5
41D
330
E3
100
AcDbEntity
  8
0
  6
Continuous
100
AcDbLine
 10
135.4340139920074
 20
126.0684388763941
 30
0.0
 11
135.3907677322277
 21
126.0629686994874
 31
0.0
  0
LINE
  5
41E
330
E3
100
AcDbEntity
  8
0
  6
Continuous
100
AcDbLine
 10
135.3907677322277
 20
126.0629686994874
 30
0.0
 11
135.3471909391673
 21
126.0574955448035
 31
0.0
  0
LINE
  5
41F
330
E3
100
AcDbEntity
  8
0
  6
Continuous
100
AcDbLine
 10
135.3471909391673
 20
126.0574955448035
 30
0.0
 11
135.303614146107
 21
126.0520253678968
 31
0.0
  0
LINE
  5
420
330
E3
100
AcDbEntity
  8
0
  6
Continuous
100
AcDbLine
 10
135.303614146107
 20
126.0520253678968
 30
0.0
 11
135.2603678863273
 21
126.0465522132129
 31
0.0
  0
LINE
  5
421
330
E3
100
AcDbEntity
  8
0
  6
Continuous
100
AcDbLine
 10
135.2603678863273
 20
126.0465522132129
 30
0.0
 11
135.2177826931091
 21
126.0410820363063
 31
0.0
  0
LINE
  5
422
330
E3
100
AcDbEntity
  8
0
  6
Continuous
100
AcDbLine
 10
135.2177826931091
 20
126.0410820363063
 30
0.0
 11
135.176180166401
 21
126.0356088816223
 31
0.0
  0
LINE
  5
423
330
E3
100
AcDbEntity
  8
0
  6
Continuous
100
AcDbLine
 10
135.176180166401
 20
126.0356088816223
 30
0.0
 11
135.1358819061518
 21
126.0301387047157
 31
0.0
  0
LINE
  5
424
330
E3
100
AcDbEntity
  8
0
  6
Continuous
100
AcDbLine
 10
135.1358819061518
 20
126.0301387047157
 30
0.0
 11
135.0971916456466
 21
126.024668527809
 31
0.0
  0
LINE
  5
425
330
E3
100
AcDbEntity
  8
0
  6
Continuous
100
AcDbLine
 10
135.0971916456466
 20
126.024668527809
 30
0.0
 11
135.0604041848384
 21
126.0191953731251
 31
0.0
  0
LINE
  5
426
330
E3
100
AcDbEntity
  8
0
  6
Continuous
100
AcDbLine
 10
135.0604041848384
 20
126.0191953731251
 30
0.0
 11
135.0257964570164
 21
126.0137251962184
 31
0.0
  0
LINE
  5
427
330
E3
100
AcDbEntity
  8
0
  6
Continuous
100
AcDbLine
 10
135.0257964570164
 20
126.0137251962184
 30
0.0
 11
134.9936364621379
 21
126.0082520415345
 31
0.0
  0
LINE
  5
428
330
E3
100
AcDbEntity
  8
0
  6
Continuous
100
AcDbLine
 10
134.9936364621379
 20
126.0082520415345
 30
0.0
 11
134.9641683779418
 21
126.0027818646278
 31
0.0
  0
LINE
  5
429
330
E3
100
AcDbEntity
  8
0
  6
Continuous
100
AcDbLine
 10
134.9641683779418
 20
126.0027818646278
 30
0.0
 11
134.9376155377259
 21
125.9973116877212
 31
0.0
  0
LINE
  5
42A
330
E3
100
AcDbEntity
  8
0
  6
Continuous
100
AcDbLine
 10
134.9376155377259
 20
125.9973116877212
 30
0.0
 11
134.9141774525696
 21
125.9918385330372
 31
0.0
  0
LINE
  5
42B
330
E3
100
AcDbEntity
  8
0
  6
Continuous
100
AcDbLine
 10
134.9141774525696
 20
125.9918385330372
 30
0.0
 11
134.8940357668882
 21
125.9863683561306
 31
0.0
  0
LINE
  5
42C
330
E3
100
AcDbEntity
  8
0
  6
Continuous
100
AcDbLine
 10
134.8940357668882
 20
125.9863683561306
 30
0.0
 11
134.8773453251018
 21
125.9808952014466
 31
0.0
  0
LINE
  5
42D
330
E3
100
AcDbEntity
  8
0
  6
Continuous
100
AcDbLine
 10
134.8773453251018
 20
125.9808952014466
 30
0.0
 11
134.8642282160796
 21
125.97542502454
 31
0.0
  0
LINE
  5
42E
330
E3
100
AcDbEntity
  8
0
  6
Continuous
100
AcDbLine
 10
134.8642282160796
 20
125.97542502454
 30
0.0
 11
134.85478568425
 21
125.9699548476333
 31
0.0
  0
LINE
  5
42F
330
E3
100
AcDbEntity
  8
0
  6
Continuous
100
AcDbLine
 10
134.85478568425
 20
125.9699548476333
 30
0.0
 11
134.8490936860713
 21
125.9644823793557
 31
0.0
  0
LINE
  5
430
330
E3
100
AcDbEntity
  8
0
  6
Continuous
100
AcDbLine
 10
134.8490936860713
 20
125.9644823793557
 30
0.0
 11
134.8471910351172
 21
125.9590109988844
 31
0.0
  0
LINE
  5
431
330
E3
100
AcDbEntity
  8
0
  6
Continuous
100
AcDbLine
 10
135.8471910351171
 20
125.7620413019147
 30
0.0
 11
135.845288384163
 21
125.7565699214433
 31
0.0
  0
LINE
  5
432
330
E3
100
AcDbEntity
  8
0
  6
Continuous
100
AcDbLine
 10
135.845288384163
 20
125.7565699214433
 30
0.0
 11
135.8395949116234
 21
125.7510985409719
 31
0.0
  0
LINE
  5
433
330
E3
100
AcDbEntity
  8
0
  6
Continuous
100
AcDbLine
 10
135.8395949116234
 20
125.7510985409719
 30
0.0
 11
135.8301536622552
 21
125.7456269722466
 31
0.0
  0
LINE
  5
434
330
E3
100
AcDbEntity
  8
0
  6
Continuous
100
AcDbLine
 10
135.8301536622552
 20
125.7456269722466
 30
0.0
 11
135.817036553233
 21
125.74015679534
 31
0.0
  0
LINE
  5
435
330
E3
100
AcDbEntity
  8
0
  6
Continuous
100
AcDbLine
 10
135.817036553233
 20
125.74015679534
 30
0.0
 11
135.8003461114465
 21
125.734683640656
 31
0.0
  0
LINE
  5
436
330
E3
100
AcDbEntity
  8
0
  6
Continuous
100
AcDbLine
 10
135.8003461114465
 20
125.734683640656
 30
0.0
 11
135.7802044257652
 21
125.7292134637493
 31
0.0
  0
LINE
  5
437
330
E3
100
AcDbEntity
  8
0
  6
Continuous
100
AcDbLine
 10
135.7802044257652
 20
125.7292134637493
 30
0.0
 11
135.7567663406088
 21
125.7237403090654
 31
0.0
  0
LINE
  5
438
330
E3
100
AcDbEntity
  8
0
  6
Continuous
100
AcDbLine
 10
135.7567663406088
 20
125.7237403090654
 30
0.0
 11
135.7302135003929
 21
125.7182701321588
 31
0.0
  0
LINE
  5
439
330
E3
100
AcDbEntity
  8
0
  6
Continuous
100
AcDbLine
 10
135.7302135003929
 20
125.7182701321588
 30
0.0
 11
135.7007454161969
 21
125.7127999552521
 31
0.0
  0
LINE
  5
43A
330
E3
100
AcDbEntity
  8
0
  6
Continuous
100
AcDbLine
 10
135.7007454161969
 20
125.7127999552521
 30
0.0
 11
135.6685854213184
 21
125.7073268005681
 31
0.0
  0
LINE
  5
43B
330
E3
100
AcDbEntity
  8
0
  6
Continuous
100
AcDbLine
 10
135.6685854213184
 20
125.7073268005681
 30
0.0
 11
135.6339806712736
 21
125.7018566236615
 31
0.0
  0
LINE
  5
43C
330
E3
100
AcDbEntity
  8
0
  6
Continuous
100
AcDbLine
 10
135.6339806712736
 20
125.7018566236615
 30
0.0
 11
135.5971902326881
 21
125.6963834689775
 31
0.0
  0
LINE
  5
43D
330
E3
100
AcDbEntity
  8
0
  6
Continuous
100
AcDbLine
 10
135.5971902326881
 20
125.6963834689775
 30
0.0
 11
135.5584999721829
 21
125.6909132920709
 31
0.0
  0
LINE
  5
43E
330
E3
100
AcDbEntity
  8
0
  6
Continuous
100
AcDbLine
 10
135.5584999721829
 20
125.6909132920709
 30
0.0
 11
135.5182017119337
 21
125.6854431151642
 31
0.0
  0
LINE
  5
43F
330
E3
100
AcDbEntity
  8
0
  6
Continuous
100
AcDbLine
 10
135.5182017119337
 20
125.6854431151642
 30
0.0
 11
135.4765991852256
 21
125.6799699604803
 31
0.0
  0
LINE
  5
440
330
E3
100
AcDbEntity
  8
0
  6
Continuous
100
AcDbLine
 10
135.4765991852256
 20
125.6799699604803
 30
0.0
 11
135.4340139920074
 21
125.6744997835737
 31
0.0
  0
LINE
  5
441
330
E3
100
AcDbEntity
  8
0
  6
Continuous
100
AcDbLine
 10
135.4340139920074
 20
125.6744997835737
 30
0.0
 11
135.3907677322277
 21
125.6690266288897
 31
0.0
  0
LINE
  5
442
330
E3
100
AcDbEntity
  8
0
  6
Continuous
100
AcDbLine
 10
135.3907677322277
 20
125.6690266288897
 30
0.0
 11
135.3471909391673
 21
125.6635564519831
 31
0.0
  0
LINE
  5
443
330
E3
100
AcDbEntity
  8
0
  6
Continuous
100
AcDbLine
 10
135.3471909391673
 20
125.6635564519831
 30
0.0
 11
135.303614146107
 21
125.6580862750764
 31
0.0
  0
LINE
  5
444
330
E3
100
AcDbEntity
  8
0
  6
Continuous
100
AcDbLine
 10
135.303614146107
 20
125.6580862750764
 30
0.0
 11
135.2603678863273
 21
125.6526131203924
 31
0.0
  0
LINE
  5
445
330
E3
100
AcDbEntity
  8
0
  6
Continuous
100
AcDbLine
 10
135.2603678863273
 20
125.6526131203924
 30
0.0
 11
135.2177826931091
 21
125.6471429434858
 31
0.0
  0
LINE
  5
446
330
E3
100
AcDbEntity
  8
0
  6
Continuous
100
AcDbLine
 10
135.2177826931091
 20
125.6471429434858
 30
0.0
 11
135.176180166401
 21
125.6416697888019
 31
0.0
  0
LINE
  5
447
330
E3
100
AcDbEntity
  8
0
  6
Continuous
100
AcDbLine
 10
135.176180166401
 20
125.6416697888019
 30
0.0
 11
135.1358819061518
 21
125.6361996118952
 31
0.0
  0
LINE
  5
448
330
E3
100
AcDbEntity
  8
0
  6
Continuous
100
AcDbLine
 10
135.1358819061518
 20
125.6361996118952
 30
0.0
 11
135.0971916456466
 21
125.6307294349885
 31
0.0
  0
LINE
  5
449
330
E3
100
AcDbEntity
  8
0
  6
Continuous
100
AcDbLine
 10
135.0971916456466
 20
125.6307294349885
 30
0.0
 11
135.0604041848384
 21
125.6252562803046
 31
0.0
  0
LINE
  5
44A
330
E3
100
AcDbEntity
  8
0
  6
Continuous
100
AcDbLine
 10
135.0604041848384
 20
125.6252562803046
 30
0.0
 11
135.0257964570164
 21
125.619786103398
 31
0.0
  0
LINE
  5
44B
330
E3
100
AcDbEntity
  8
0
  6
Continuous
100
AcDbLine
 10
135.0257964570164
 20
125.619786103398
 30
0.0
 11
134.9936364621379
 21
125.614312948714
 31
0.0
  0
LINE
  5
44C
330
E3
100
AcDbEntity
  8
0
  6
Continuous
100
AcDbLine
 10
134.9936364621379
 20
125.614312948714
 30
0.0
 11
134.9641683779418
 21
125.6088427718073
 31
0.0
  0
LINE
  5
44D
330
E3
100
AcDbEntity
  8
0
  6
Continuous
100
AcDbLine
 10
134.9641683779418
 20
125.6088427718073
 30
0.0
 11
134.9376155377259
 21
125.6033725949007
 31
0.0
  0
LINE
  5
44E
330
E3
100
AcDbEntity
  8
0
  6
Continuous
100
AcDbLine
 10
134.9376155377259
 20
125.6033725949007
 30
0.0
 11
134.9141774525696
 21
125.5978994402168
 31
0.0
  0
LINE
  5
44F
330
E3
100
AcDbEntity
  8
0
  6
Continuous
100
AcDbLine
 10
134.9141774525696
 20
125.5978994402168
 30
0.0
 11
134.8940357668882
 21
125.5924292633101
 31
0.0
  0
LINE
  5
450
330
E3
100
AcDbEntity
  8
0
  6
Continuous
100
AcDbLine
 10
134.8940357668882
 20
125.5924292633101
 30
0.0
 11
134.8773453251018
 21
125.5869561086262
 31
0.0
  0
LINE
  5
451
330
E3
100
AcDbEntity
  8
0
  6
Continuous
100
AcDbLine
 10
134.8773453251018
 20
125.5869561086262
 30
0.0
 11
134.8642282160796
 21
125.5814859317195
 31
0.0
  0
LINE
  5
452
330
E3
100
AcDbEntity
  8
0
  6
Continuous
100
AcDbLine
 10
134.8642282160796
 20
125.5814859317195
 30
0.0
 11
134.85478568425
 21
125.5760157548129
 31
0.0
  0
LINE
  5
453
330
E3
100
AcDbEntity
  8
0
  6
Continuous
100
AcDbLine
 10
134.85478568425
 20
125.5760157548129
 30
0.0
 11
134.8490936860713
 21
125.5705429854163
 31
0.0
  0
LINE
  5
454
330
E3
100
AcDbEntity
  8
0
  6
Continuous
100
AcDbLine
 10
134.8490936860713
 20
125.5705429854163
 30
0.0
 11
134.8471910351172
 21
125.565071604945
 31
0.0
  0
LINE
  5
455
330
E3
100
AcDbEntity
  8
0
  6
Continuous
100
AcDbLine
 10
135.8471910351171
 20
125.3681019079753
 30
0.0
 11
135.845288384163
 21
125.3626305275039
 31
0.0
  0
LINE
  5
456
330
E3
100
AcDbEntity
  8
0
  6
Continuous
100
AcDbLine
 10
135.845288384163
 20
125.3626305275039
 30
0.0
 11
135.8395949116234
 21
125.3571591470325
 31
0.0
  0
LINE
  5
457
330
E3
100
AcDbEntity
  8
0
  6
Continuous
100
AcDbLine
 10
135.8395949116234
 20
125.3571591470325
 30
0.0
 11
135.8301536622552
 21
125.3516878794262
 31
0.0
  0
LINE
  5
458
330
E3
100
AcDbEntity
  8
0
  6
Continuous
100
AcDbLine
 10
135.8301536622552
 20
125.3516878794262
 30
0.0
 11
135.817036553233
 21
125.3462177025195
 31
0.0
  0
LINE
  5
459
330
E3
100
AcDbEntity
  8
0
  6
Continuous
100
AcDbLine
 10
135.817036553233
 20
125.3462177025195
 30
0.0
 11
135.8003461114465
 21
125.3407445478356
 31
0.0
  0
LINE
  5
45A
330
E3
100
AcDbEntity
  8
0
  6
Continuous
100
AcDbLine
 10
135.8003461114465
 20
125.3407445478356
 30
0.0
 11
135.7802044257652
 21
125.3352743709289
 31
0.0
  0
LINE
  5
45B
330
E3
100
AcDbEntity
  8
0
  6
Continuous
100
AcDbLine
 10
135.7802044257652
 20
125.3352743709289
 30
0.0
 11
135.7567663406088
 21
125.329801216245
 31
0.0
  0
LINE
  5
45C
330
E3
100
AcDbEntity
  8
0
  6
Continuous
100
AcDbLine
 10
135.7567663406088
 20
125.329801216245
 30
0.0
 11
135.7302135003929
 21
125.3243310393383
 31
0.0
  0
LINE
  5
45D
330
E3
100
AcDbEntity
  8
0
  6
Continuous
100
AcDbLine
 10
135.7302135003929
 20
125.3243310393383
 30
0.0
 11
135.7007454161969
 21
125.3188608624317
 31
0.0
  0
LINE
  5
45E
330
E3
100
AcDbEntity
  8
0
  6
Continuous
100
AcDbLine
 10
135.7007454161969
 20
125.3188608624317
 30
0.0
 11
135.6685854213184
 21
125.3133877077477
 31
0.0
  0
LINE
  5
45F
330
E3
100
AcDbEntity
  8
0
  6
Continuous
100
AcDbLine
 10
135.6685854213184
 20
125.3133877077477
 30
0.0
 11
135.6339806712736
 21
125.3079175308411
 31
0.0
  0
LINE
  5
460
330
E3
100
AcDbEntity
  8
0
  6
Continuous
100
AcDbLine
 10
135.6339806712736
 20
125.3079175308411
 30
0.0
 11
135.5971902326881
 21
125.3024443761571
 31
0.0
  0
LINE
  5
461
330
E3
100
AcDbEntity
  8
0
  6
Continuous
100
AcDbLine
 10
135.5971902326881
 20
125.3024443761571
 30
0.0
 11
135.5584999721829
 21
125.2969741992505
 31
0.0
  0
LINE
  5
462
330
E3
100
AcDbEntity
  8
0
  6
Continuous
100
AcDbLine
 10
135.5584999721829
 20
125.2969741992505
 30
0.0
 11
135.5182017119337
 21
125.2915040223438
 31
0.0
  0
LINE
  5
463
330
E3
100
AcDbEntity
  8
0
  6
Continuous
100
AcDbLine
 10
135.5182017119337
 20
125.2915040223438
 30
0.0
 11
135.4765991852256
 21
125.2860308676599
 31
0.0
  0
LINE
  5
464
330
E3
100
AcDbEntity
  8
0
  6
Continuous
100
AcDbLine
 10
135.4765991852256
 20
125.2860308676599
 30
0.0
 11
135.4340139920074
 21
125.2805606907532
 31
0.0
  0
LINE
  5
465
330
E3
100
AcDbEntity
  8
0
  6
Continuous
100
AcDbLine
 10
135.4340139920074
 20
125.2805606907532
 30
0.0
 11
135.3907677322277
 21
125.2750875360693
 31
0.0
  0
LINE
  5
466
330
E3
100
AcDbEntity
  8
0
  6
Continuous
100
AcDbLine
 10
135.3907677322277
 20
125.2750875360693
 30
0.0
 11
135.3471909391673
 21
125.2696173591626
 31
0.0
  0
LINE
  5
467
330
E3
100
AcDbEntity
  8
0
  6
Continuous
100
AcDbLine
 10
135.3471909391673
 20
125.2696173591626
 30
0.0
 11
135.303614146107
 21
125.2641442044787
 31
0.0
  0
LINE
  5
468
330
E3
100
AcDbEntity
  8
0
  6
Continuous
100
AcDbLine
 10
135.303614146107
 20
125.2641442044787
 30
0.0
 11
135.2603678863273
 21
125.258674027572
 31
0.0
  0
LINE
  5
469
330
E3
100
AcDbEntity
  8
0
  6
Continuous
100
AcDbLine
 10
135.2603678863273
 20
125.258674027572
 30
0.0
 11
135.2177826931091
 21
125.2532038506654
 31
0.0
  0
LINE
  5
46A
330
E3
100
AcDbEntity
  8
0
  6
Continuous
100
AcDbLine
 10
135.2177826931091
 20
125.2532038506654
 30
0.0
 11
135.176180166401
 21
125.2477306959814
 31
0.0
  0
LINE
  5
46B
330
E3
100
AcDbEntity
  8
0
  6
Continuous
100
AcDbLine
 10
135.176180166401
 20
125.2477306959814
 30
0.0
 11
135.1358819061518
 21
125.2422605190748
 31
0.0
  0
LINE
  5
46C
330
E3
100
AcDbEntity
  8
0
  6
Continuous
100
AcDbLine
 10
135.1358819061518
 20
125.2422605190748
 30
0.0
 11
135.0971916456466
 21
125.2367873643908
 31
0.0
  0
LINE
  5
46D
330
E3
100
AcDbEntity
  8
0
  6
Continuous
100
AcDbLine
 10
135.0971916456466
 20
125.2367873643908
 30
0.0
 11
135.0604041848384
 21
125.2313171874842
 31
0.0
  0
LINE
  5
46E
330
E3
100
AcDbEntity
  8
0
  6
Continuous
100
AcDbLine
 10
135.0604041848384
 20
125.2313171874842
 30
0.0
 11
135.0257964570164
 21
125.2258470105775
 31
0.0
  0
LINE
  5
46F
330
E3
100
AcDbEntity
  8
0
  6
Continuous
100
AcDbLine
 10
135.0257964570164
 20
125.2258470105775
 30
0.0
 11
134.9936364621379
 21
125.2203738558936
 31
0.0
  0
LINE
  5
470
330
E3
100
AcDbEntity
  8
0
  6
Continuous
100
AcDbLine
 10
134.9936364621379
 20
125.2203738558936
 30
0.0
 11
134.9641683779418
 21
125.2149036789869
 31
0.0
  0
LINE
  5
471
330
E3
100
AcDbEntity
  8
0
  6
Continuous
100
AcDbLine
 10
134.9641683779418
 20
125.2149036789869
 30
0.0
 11
134.9376155377259
 21
125.209430524303
 31
0.0
  0
LINE
  5
472
330
E3
100
AcDbEntity
  8
0
  6
Continuous
100
AcDbLine
 10
134.9376155377259
 20
125.209430524303
 30
0.0
 11
134.9141774525696
 21
125.2039603473963
 31
0.0
  0
LINE
  5
473
330
E3
100
AcDbEntity
  8
0
  6
Continuous
100
AcDbLine
 10
134.9141774525696
 20
125.2039603473963
 30
0.0
 11
134.8940357668882
 21
125.1984901704897
 31
0.0
  0
LINE
  5
474
330
E3
100
AcDbEntity
  8
0
  6
Continuous
100
AcDbLine
 10
134.8940357668882
 20
125.1984901704897
 30
0.0
 11
134.8773453251018
 21
125.1930170158057
 31
0.0
  0
LINE
  5
475
330
E3
100
AcDbEntity
  8
0
  6
Continuous
100
AcDbLine
 10
134.8773453251018
 20
125.1930170158057
 30
0.0
 11
134.8642282160796
 21
125.1875468388991
 31
0.0
  0
LINE
  5
476
330
E3
100
AcDbEntity
  8
0
  6
Continuous
100
AcDbLine
 10
134.8642282160796
 20
125.1875468388991
 30
0.0
 11
134.85478568425
 21
125.1820736842151
 31
0.0
  0
LINE
  5
477
330
E3
100
AcDbEntity
  8
0
  6
Continuous
100
AcDbLine
 10
134.85478568425
 20
125.1820736842151
 30
0.0
 11
134.8490936860713
 21
125.1766035914769
 31
0.0
  0
LINE
  5
478
330
E3
100
AcDbEntity
  8
0
  6
Continuous
100
AcDbLine
 10
134.8490936860713
 20
125.1766035914769
 30
0.0
 11
134.8471910351172
 21
125.1711322110056
 31
0.0
  0
LINE
  5
479
330
E3
100
AcDbEntity
  8
0
  6
Continuous
100
AcDbLine
 10
135.8471910351171
 20
124.9741625140359
 30
0.0
 11
135.845288384163
 21
124.9686911335645
 31
0.0
  0
LINE
  5
47A
330
E3
100
AcDbEntity
  8
0
  6
Continuous
100
AcDbLine
 10
135.845288384163
 20
124.9686911335645
 30
0.0
 11
135.8395949116234
 21
124.9632197530931
 31
0.0
  0
LINE
  5
47B
330
E3
100
AcDbEntity
  8
0
  6
Continuous
100
AcDbLine
 10
135.8395949116234
 20
124.9632197530931
 30
0.0
 11
135.8301536622552
 21
124.9577487866057
 31
0.0
  0
LINE
  5
47C
330
E3
100
AcDbEntity
  8
0
  6
Continuous
100
AcDbLine
 10
135.8301536622552
 20
124.9577487866057
 30
0.0
 11
135.817036553233
 21
124.9522756319218
 31
0.0
  0
LINE
  5
47D
330
E3
100
AcDbEntity
  8
0
  6
Continuous
100
AcDbLine
 10
135.817036553233
 20
124.9522756319218
 30
0.0
 11
135.8003461114465
 21
124.9468054550151
 31
0.0
  0
LINE
  5
47E
330
E3
100
AcDbEntity
  8
0
  6
Continuous
100
AcDbLine
 10
135.8003461114465
 20
124.9468054550151
 30
0.0
 11
135.7802044257652
 21
124.9413352781085
 31
0.0
  0
LINE
  5
47F
330
E3
100
AcDbEntity
  8
0
  6
Continuous
100
AcDbLine
 10
135.7802044257652
 20
124.9413352781085
 30
0.0
 11
135.7567663406088
 21
124.9358621234245
 31
0.0
  0
LINE
  5
480
330
E3
100
AcDbEntity
  8
0
  6
Continuous
100
AcDbLine
 10
135.7567663406088
 20
124.9358621234245
 30
0.0
 11
135.7302135003929
 21
124.9303919465179
 31
0.0
  0
LINE
  5
481
330
E3
100
AcDbEntity
  8
0
  6
Continuous
100
AcDbLine
 10
135.7302135003929
 20
124.9303919465179
 30
0.0
 11
135.7007454161969
 21
124.9249187918339
 31
0.0
  0
LINE
  5
482
330
E3
100
AcDbEntity
  8
0
  6
Continuous
100
AcDbLine
 10
135.7007454161969
 20
124.9249187918339
 30
0.0
 11
135.6685854213184
 21
124.9194486149273
 31
0.0
  0
LINE
  5
483
330
E3
100
AcDbEntity
  8
0
  6
Continuous
100
AcDbLine
 10
135.6685854213184
 20
124.9194486149273
 30
0.0
 11
135.6339806712736
 21
124.9139784380206
 31
0.0
  0
LINE
  5
484
330
E3
100
AcDbEntity
  8
0
  6
Continuous
100
AcDbLine
 10
135.6339806712736
 20
124.9139784380206
 30
0.0
 11
135.5971902326881
 21
124.9085052833367
 31
0.0
  0
LINE
  5
485
330
E3
100
AcDbEntity
  8
0
  6
Continuous
100
AcDbLine
 10
135.5971902326881
 20
124.9085052833367
 30
0.0
 11
135.5584999721829
 21
124.90303510643
 31
0.0
  0
LINE
  5
486
330
E3
100
AcDbEntity
  8
0
  6
Continuous
100
AcDbLine
 10
135.5584999721829
 20
124.90303510643
 30
0.0
 11
135.5182017119337
 21
124.8975619517461
 31
0.0
  0
LINE
  5
487
330
E3
100
AcDbEntity
  8
0
  6
Continuous
100
AcDbLine
 10
135.5182017119337
 20
124.8975619517461
 30
0.0
 11
135.4765991852256
 21
124.8920917748394
 31
0.0
  0
LINE
  5
488
330
E3
100
AcDbEntity
  8
0
  6
Continuous
100
AcDbLine
 10
135.4765991852256
 20
124.8920917748394
 30
0.0
 11
135.4340139920074
 21
124.8866215979328
 31
0.0
  0
LINE
  5
489
330
E3
100
AcDbEntity
  8
0
  6
Continuous
100
AcDbLine
 10
135.4340139920074
 20
124.8866215979328
 30
0.0
 11
135.3907677322277
 21
124.8811484432488
 31
0.0
  0
LINE
  5
48A
330
E3
100
AcDbEntity
  8
0
  6
Continuous
100
AcDbLine
 10
135.3907677322277
 20
124.8811484432488
 30
0.0
 11
135.3471909391673
 21
124.8756782663422
 31
0.0
  0
LINE
  5
48B
330
E3
100
AcDbEntity
  8
0
  6
Continuous
100
AcDbLine
 10
135.3471909391673
 20
124.8756782663422
 30
0.0
 11
135.303614146107
 21
124.8702051116582
 31
0.0
  0
LINE
  5
48C
330
E3
100
AcDbEntity
  8
0
  6
Continuous
100
AcDbLine
 10
135.303614146107
 20
124.8702051116582
 30
0.0
 11
135.2603678863273
 21
124.8647349347516
 31
0.0
  0
LINE
  5
48D
330
E3
100
AcDbEntity
  8
0
  6
Continuous
100
AcDbLine
 10
135.2603678863273
 20
124.8647349347516
 30
0.0
 11
135.2177826931091
 21
124.859264757845
 31
0.0
  0
LINE
  5
48E
330
E3
100
AcDbEntity
  8
0
  6
Continuous
100
AcDbLine
 10
135.2177826931091
 20
124.859264757845
 30
0.0
 11
135.176180166401
 21
124.853791603161
 31
0.0
  0
LINE
  5
48F
330
E3
100
AcDbEntity
  8
0
  6
Continuous
100
AcDbLine
 10
135.176180166401
 20
124.853791603161
 30
0.0
 11
135.1358819061518
 21
124.8483214262543
 31
0.0
  0
LINE
  5
490
330
E3
100
AcDbEntity
  8
0
  6
Continuous
100
AcDbLine
 10
135.1358819061518
 20
124.8483214262543
 30
0.0
 11
135.0971916456466
 21
124.8428482715704
 31
0.0
  0
LINE
  5
491
330
E3
100
AcDbEntity
  8
0
  6
Continuous
100
AcDbLine
 10
135.0971916456466
 20
124.8428482715704
 30
0.0
 11
135.0604041848384
 21
124.8373780946637
 31
0.0
  0
LINE
  5
492
330
E3
100
AcDbEntity
  8
0
  6
Continuous
100
AcDbLine
 10
135.0604041848384
 20
124.8373780946637
 30
0.0
 11
135.0257964570164
 21
124.8319079177571
 31
0.0
  0
LINE
  5
493
330
E3
100
AcDbEntity
  8
0
  6
Continuous
100
AcDbLine
 10
135.0257964570164
 20
124.8319079177571
 30
0.0
 11
134.9936364621379
 21
124.8264347630731
 31
0.0
  0
LINE
  5
494
330
E3
100
AcDbEntity
  8
0
  6
Continuous
100
AcDbLine
 10
134.9936364621379
 20
124.8264347630731
 30
0.0
 11
134.9641683779418
 21
124.8209645861665
 31
0.0
  0
LINE
  5
495
330
E3
100
AcDbEntity
  8
0
  6
Continuous
100
AcDbLine
 10
134.9641683779418
 20
124.8209645861665
 30
0.0
 11
134.9376155377259
 21
124.8154914314825
 31
0.0
  0
LINE
  5
496
330
E3
100
AcDbEntity
  8
0
  6
Continuous
100
AcDbLine
 10
134.9376155377259
 20
124.8154914314825
 30
0.0
 11
134.9141774525696
 21
124.8100212545759
 31
0.0
  0
LINE
  5
497
330
E3
100
AcDbEntity
  8
0
  6
Continuous
100
AcDbLine
 10
134.9141774525696
 20
124.8100212545759
 30
0.0
 11
134.8940357668882
 21
124.8045510776692
 31
0.0
  0
LINE
  5
498
330
E3
100
AcDbEntity
  8
0
  6
Continuous
100
AcDbLine
 10
134.8940357668882
 20
124.8045510776692
 30
0.0
 11
134.8773453251018
 21
124.7990779229853
 31
0.0
  0
LINE
  5
499
330
E3
100
AcDbEntity
  8
0
  6
Continuous
100
AcDbLine
 10
134.8773453251018
 20
124.7990779229853
 30
0.0
 11
134.8642282160796
 21
124.7936077460786
 31
0.0
  0
LINE
  5
49A
330
E3
100
AcDbEntity
  8
0
  6
Continuous
100
AcDbLine
 10
134.8642282160796
 20
124.7936077460786
 30
0.0
 11
134.85478568425
 21
124.7881345913947
 31
0.0
  0
LINE
  5
49B
330
E3
100
AcDbEntity
  8
0
  6
Continuous
100
AcDbLine
 10
134.85478568425
 20
124.7881345913947
 30
0.0
 11
134.8490936860713
 21
124.7826641975376
 31
0.0
  0
LINE
  5
49C
330
E3
100
AcDbEntity
  8
0
  6
Continuous
100
AcDbLine
 10
134.8490936860713
 20
124.7826641975376
 30
0.0
 11
134.8471910351172
 21
124.7771928170662
 31
0.0
  0
LINE
  5
49D
330
E3
100
AcDbEntity
  8
0
  6
Continuous
100
AcDbLine
 10
135.8471910351171
 20
124.5802231200965
 30
0.0
 11
135.845288384163
 21
124.5747517396251
 31
0.0
  0
LINE
  5
49E
330
E3
100
AcDbEntity
  8
0
  6
Continuous
100
AcDbLine
 10
135.845288384163
 20
124.5747517396251
 30
0.0
 11
135.8395949116234
 21
124.5692803591537
 31
0.0
  0
LINE
  5
49F
330
E3
100
AcDbEntity
  8
0
  6
Continuous
100
AcDbLine
 10
135.8395949116234
 20
124.5692803591537
 30
0.0
 11
135.8301536622552
 21
124.5638096937853
 31
0.0
  0
LINE
  5
4A0
330
E3
100
AcDbEntity
  8
0
  6
Continuous
100
AcDbLine
 10
135.8301536622552
 20
124.5638096937853
 30
0.0
 11
135.817036553233
 21
124.5583365391013
 31
0.0
  0
LINE
  5
4A1
330
E3
100
AcDbEntity
  8
0
  6
Continuous
100
AcDbLine
 10
135.817036553233
 20
124.5583365391013
 30
0.0
 11
135.8003461114465
 21
124.5528663621947
 31
0.0
  0
LINE
  5
4A2
330
E3
100
AcDbEntity
  8
0
  6
Continuous
100
AcDbLine
 10
135.8003461114465
 20
124.5528663621947
 30
0.0
 11
135.7802044257652
 21
124.547396185288
 31
0.0
  0
LINE
  5
4A3
330
E3
100
AcDbEntity
  8
0
  6
Continuous
100
AcDbLine
 10
135.7802044257652
 20
124.547396185288
 30
0.0
 11
135.7567663406088
 21
124.5419230306041
 31
0.0
  0
LINE
  5
4A4
330
E3
100
AcDbEntity
  8
0
  6
Continuous
100
AcDbLine
 10
135.7567663406088
 20
124.5419230306041
 30
0.0
 11
135.7302135003929
 21
124.5364528536974
 31
0.0
  0
LINE
  5
4A5
330
E3
100
AcDbEntity
  8
0
  6
Continuous
100
AcDbLine
 10
135.7302135003929
 20
124.5364528536974
 30
0.0
 11
135.7007454161969
 21
124.5309796990135
 31
0.0
  0
LINE
  5
4A6
330
E3
100
AcDbEntity
  8
0
  6
Continuous
100
AcDbLine
 10
135.7007454161969
 20
124.5309796990135
 30
0.0
 11
135.6685854213184
 21
124.5255095221068
 31
0.0
  0
LINE
  5
4A7
330
E3
100
AcDbEntity
  8
0
  6
Continuous
100
AcDbLine
 10
135.6685854213184
 20
124.5255095221068
 30
0.0
 11
135.6339806712736
 21
124.5200393452002
 31
0.0
  0
LINE
  5
4A8
330
E3
100
AcDbEntity
  8
0
  6
Continuous
100
AcDbLine
 10
135.6339806712736
 20
124.5200393452002
 30
0.0
 11
135.5971902326881
 21
124.5145661905162
 31
0.0
  0
LINE
  5
4A9
330
E3
100
AcDbEntity
  8
0
  6
Continuous
100
AcDbLine
 10
135.5971902326881
 20
124.5145661905162
 30
0.0
 11
135.5584999721829
 21
124.5090960136096
 31
0.0
  0
LINE
  5
4AA
330
E3
100
AcDbEntity
  8
0
  6
Continuous
100
AcDbLine
 10
135.5584999721829
 20
124.5090960136096
 30
0.0
 11
135.5182017119337
 21
124.5036228589257
 31
0.0
  0
LINE
  5
4AB
330
E3
100
AcDbEntity
  8
0
  6
Continuous
100
AcDbLine
 10
135.5182017119337
 20
124.5036228589257
 30
0.0
 11
135.4765991852256
 21
124.498152682019
 31
0.0
  0
LINE
  5
4AC
330
E3
100
AcDbEntity
  8
0
  6
Continuous
100
AcDbLine
 10
135.4765991852256
 20
124.498152682019
 30
0.0
 11
135.4340139920074
 21
124.4926825051124
 31
0.0
  0
LINE
  5
4AD
330
E3
100
AcDbEntity
  8
0
  6
Continuous
100
AcDbLine
 10
135.4340139920074
 20
124.4926825051124
 30
0.0
 11
135.3907677322277
 21
124.4872093504284
 31
0.0
  0
LINE
  5
4AE
330
E3
100
AcDbEntity
  8
0
  6
Continuous
100
AcDbLine
 10
135.3907677322277
 20
124.4872093504284
 30
0.0
 11
135.3471909391673
 21
124.4817391735217
 31
0.0
  0
LINE
  5
4AF
330
E3
100
AcDbEntity
  8
0
  6
Continuous
100
AcDbLine
 10
135.3471909391673
 20
124.4817391735217
 30
0.0
 11
135.303614146107
 21
124.4762660188378
 31
0.0
  0
LINE
  5
4B0
330
E3
100
AcDbEntity
  8
0
  6
Continuous
100
AcDbLine
 10
135.303614146107
 20
124.4762660188378
 30
0.0
 11
135.2603678863273
 21
124.4707958419312
 31
0.0
  0
LINE
  5
4B1
330
E3
100
AcDbEntity
  8
0
  6
Continuous
100
AcDbLine
 10
135.2603678863273
 20
124.4707958419312
 30
0.0
 11
135.2177826931091
 21
124.4653226872472
 31
0.0
  0
LINE
  5
4B2
330
E3
100
AcDbEntity
  8
0
  6
Continuous
100
AcDbLine
 10
135.2177826931091
 20
124.4653226872472
 30
0.0
 11
135.176180166401
 21
124.4598525103405
 31
0.0
  0
LINE
  5
4B3
330
E3
100
AcDbEntity
  8
0
  6
Continuous
100
AcDbLine
 10
135.176180166401
 20
124.4598525103405
 30
0.0
 11
135.1358819061518
 21
124.4543823334339
 31
0.0
  0
LINE
  5
4B4
330
E3
100
AcDbEntity
  8
0
  6
Continuous
100
AcDbLine
 10
135.1358819061518
 20
124.4543823334339
 30
0.0
 11
135.0971916456466
 21
124.44890917875
 31
0.0
  0
LINE
  5
4B5
330
E3
100
AcDbEntity
  8
0
  6
Continuous
100
AcDbLine
 10
135.0971916456466
 20
124.44890917875
 30
0.0
 11
135.0604041848384
 21
124.4434390018433
 31
0.0
  0
LINE
  5
4B6
330
E3
100
AcDbEntity
  8
0
  6
Continuous
100
AcDbLine
 10
135.0604041848384
 20
124.4434390018433
 30
0.0
 11
135.0257964570164
 21
124.4379658471593
 31
0.0
  0
LINE
  5
4B7
330
E3
100
AcDbEntity
  8
0
  6
Continuous
100
AcDbLine
 10
135.0257964570164
 20
124.4379658471593
 30
0.0
 11
134.9936364621379
 21
124.4324956702527
 31
0.0
  0
LINE
  5
4B8
330
E3
100
AcDbEntity
  8
0
  6
Continuous
100
AcDbLine
 10
134.9936364621379
 20
124.4324956702527
 30
0.0
 11
134.9641683779418
 21
124.4270254933461
 31
0.0
  0
LINE
  5
4B9
330
E3
100
AcDbEntity
  8
0
  6
Continuous
100
AcDbLine
 10
134.9641683779418
 20
124.4270254933461
 30
0.0
 11
134.9376155377259
 21
124.4215523386621
 31
0.0
  0
LINE
  5
4BA
330
E3
100
AcDbEntity
  8
0
  6
Continuous
100
AcDbLine
 10
134.9376155377259
 20
124.4215523386621
 30
0.0
 11
134.9141774525696
 21
124.4160821617555
 31
0.0
  0
LINE
  5
4BB
330
E3
100
AcDbEntity
  8
0
  6
Continuous
100
AcDbLine
 10
134.9141774525696
 20
124.4160821617555
 30
0.0
 11
134.8940357668882
 21
124.4106090070715
 31
0.0
  0
LINE
  5
4BC
330
E3
100
AcDbEntity
  8
0
  6
Continuous
100
AcDbLine
 10
134.8940357668882
 20
124.4106090070715
 30
0.0
 11
134.8773453251018
 21
124.4051388301649
 31
0.0
  0
LINE
  5
4BD
330
E3
100
AcDbEntity
  8
0
  6
Continuous
100
AcDbLine
 10
134.8773453251018
 20
124.4051388301649
 30
0.0
 11
134.8642282160796
 21
124.3996686532582
 31
0.0
  0
LINE
  5
4BE
330
E3
100
AcDbEntity
  8
0
  6
Continuous
100
AcDbLine
 10
134.8642282160796
 20
124.3996686532582
 30
0.0
 11
134.85478568425
 21
124.3941954985743
 31
0.0
  0
LINE
  5
4BF
330
E3
100
AcDbEntity
  8
0
  6
Continuous
100
AcDbLine
 10
134.85478568425
 20
124.3941954985743
 30
0.0
 11
134.8490936860713
 21
124.3887248035982
 31
0.0
  0
LINE
  5
4C0
330
E3
100
AcDbEntity
  8
0
  6
Continuous
100
AcDbLine
 10
134.8490936860713
 20
124.3887248035982
 30
0.0
 11
134.8471910351172
 21
124.3832534231268
 31
0.0
  0
LINE
  5
4C1
330
E3
100
AcDbEntity
  8
0
  6
Continuous
100
AcDbLine
 10
135.8471910351171
 20
124.1862837261571
 30
0.0
 11
135.845288384163
 21
124.1808123456857
 31
0.0
  0
LINE
  5
4C2
330
E3
100
AcDbEntity
  8
0
  6
Continuous
100
AcDbLine
 10
135.845288384163
 20
124.1808123456857
 30
0.0
 11
135.8395949116234
 21
124.1753409652143
 31
0.0
  0
LINE
  5
4C3
330
E3
100
AcDbEntity
  8
0
  6
Continuous
100
AcDbLine
 10
135.8395949116234
 20
124.1753409652143
 30
0.0
 11
135.8301536622552
 21
124.1698706009649
 31
0.0
  0
LINE
  5
4C4
330
E3
100
AcDbEntity
  8
0
  6
Continuous
100
AcDbLine
 10
135.8301536622552
 20
124.1698706009649
 30
0.0
 11
135.817036553233
 21
124.1643974462809
 31
0.0
  0
LINE
  5
4C5
330
E3
100
AcDbEntity
  8
0
  6
Continuous
100
AcDbLine
 10
135.817036553233
 20
124.1643974462809
 30
0.0
 11
135.8003461114465
 21
124.1589272693742
 31
0.0
  0
LINE
  5
4C6
330
E3
100
AcDbEntity
  8
0
  6
Continuous
100
AcDbLine
 10
135.8003461114465
 20
124.1589272693742
 30
0.0
 11
135.7802044257652
 21
124.1534541146903
 31
0.0
  0
LINE
  5
4C7
330
E3
100
AcDbEntity
  8
0
  6
Continuous
100
AcDbLine
 10
135.7802044257652
 20
124.1534541146903
 30
0.0
 11
135.7567663406088
 21
124.1479839377836
 31
0.0
  0
LINE
  5
4C8
330
E3
100
AcDbEntity
  8
0
  6
Continuous
100
AcDbLine
 10
135.7567663406088
 20
124.1479839377836
 30
0.0
 11
135.7302135003929
 21
124.142513760877
 31
0.0
  0
LINE
  5
4C9
330
E3
100
AcDbEntity
  8
0
  6
Continuous
100
AcDbLine
 10
135.7302135003929
 20
124.142513760877
 30
0.0
 11
135.7007454161969
 21
124.1370406061931
 31
0.0
  0
LINE
  5
4CA
330
E3
100
AcDbEntity
  8
0
  6
Continuous
100
AcDbLine
 10
135.7007454161969
 20
124.1370406061931
 30
0.0
 11
135.6685854213184
 21
124.1315704292864
 31
0.0
  0
LINE
  5
4CB
330
E3
100
AcDbEntity
  8
0
  6
Continuous
100
AcDbLine
 10
135.6685854213184
 20
124.1315704292864
 30
0.0
 11
135.6339806712736
 21
124.1260972746025
 31
0.0
  0
LINE
  5
4CC
330
E3
100
AcDbEntity
  8
0
  6
Continuous
100
AcDbLine
 10
135.6339806712736
 20
124.1260972746025
 30
0.0
 11
135.5971902326881
 21
124.1206270976958
 31
0.0
  0
LINE
  5
4CD
330
E3
100
AcDbEntity
  8
0
  6
Continuous
100
AcDbLine
 10
135.5971902326881
 20
124.1206270976958
 30
0.0
 11
135.5584999721829
 21
124.1151569207892
 31
0.0
  0
LINE
  5
4CE
330
E3
100
AcDbEntity
  8
0
  6
Continuous
100
AcDbLine
 10
135.5584999721829
 20
124.1151569207892
 30
0.0
 11
135.5182017119337
 21
124.1096837661052
 31
0.0
  0
LINE
  5
4CF
330
E3
100
AcDbEntity
  8
0
  6
Continuous
100
AcDbLine
 10
135.5182017119337
 20
124.1096837661052
 30
0.0
 11
135.4765991852256
 21
124.1042135891986
 31
0.0
  0
LINE
  5
4D0
330
E3
100
AcDbEntity
  8
0
  6
Continuous
100
AcDbLine
 10
135.4765991852256
 20
124.1042135891986
 30
0.0
 11
135.4340139920074
 21
124.0987404345146
 31
0.0
  0
LINE
  5
4D1
330
E3
100
AcDbEntity
  8
0
  6
Continuous
100
AcDbLine
 10
135.4340139920074
 20
124.0987404345146
 30
0.0
 11
135.3907677322277
 21
124.093270257608
 31
0.0
  0
LINE
  5
4D2
330
E3
100
AcDbEntity
  8
0
  6
Continuous
100
AcDbLine
 10
135.3907677322277
 20
124.093270257608
 30
0.0
 11
135.3471909391673
 21
124.0878000807013
 31
0.0
  0
LINE
  5
4D3
330
E3
100
AcDbEntity
  8
0
  6
Continuous
100
AcDbLine
 10
135.3471909391673
 20
124.0878000807013
 30
0.0
 11
135.303614146107
 21
124.0823269260174
 31
0.0
  0
LINE
  5
4D4
330
E3
100
AcDbEntity
  8
0
  6
Continuous
100
AcDbLine
 10
135.303614146107
 20
124.0823269260174
 30
0.0
 11
135.2603678863273
 21
124.0768567491107
 31
0.0
  0
LINE
  5
4D5
330
E3
100
AcDbEntity
  8
0
  6
Continuous
100
AcDbLine
 10
135.2603678863273
 20
124.0768567491107
 30
0.0
 11
135.2177826931091
 21
124.0713835944267
 31
0.0
  0
LINE
  5
4D6
330
E3
100
AcDbEntity
  8
0
  6
Continuous
100
AcDbLine
 10
135.2177826931091
 20
124.0713835944267
 30
0.0
 11
135.176180166401
 21
124.0659134175201
 31
0.0
  0
LINE
  5
4D7
330
E3
100
AcDbEntity
  8
0
  6
Continuous
100
AcDbLine
 10
135.176180166401
 20
124.0659134175201
 30
0.0
 11
135.1358819061518
 21
124.0604432406135
 31
0.0
  0
LINE
  5
4D8
330
E3
100
AcDbEntity
  8
0
  6
Continuous
100
AcDbLine
 10
135.1358819061518
 20
124.0604432406135
 30
0.0
 11
135.0971916456466
 21
124.0549700859295
 31
0.0
  0
LINE
  5
4D9
330
E3
100
AcDbEntity
  8
0
  6
Continuous
100
AcDbLine
 10
135.0971916456466
 20
124.0549700859295
 30
0.0
 11
135.0604041848384
 21
124.0494999090229
 31
0.0
  0
LINE
  5
4DA
330
E3
100
AcDbEntity
  8
0
  6
Continuous
100
AcDbLine
 10
135.0604041848384
 20
124.0494999090229
 30
0.0
 11
135.0257964570164
 21
124.0440267543389
 31
0.0
  0
LINE
  5
4DB
330
E3
100
AcDbEntity
  8
0
  6
Continuous
100
AcDbLine
 10
135.0257964570164
 20
124.0440267543389
 30
0.0
 11
134.9936364621379
 21
124.0385565774323
 31
0.0
  0
LINE
  5
4DC
330
E3
100
AcDbEntity
  8
0
  6
Continuous
100
AcDbLine
 10
134.9936364621379
 20
124.0385565774323
 30
0.0
 11
134.9641683779418
 21
124.0330864005256
 31
0.0
  0
LINE
  5
4DD
330
E3
100
AcDbEntity
  8
0
  6
Continuous
100
AcDbLine
 10
134.9641683779418
 20
124.0330864005256
 30
0.0
 11
134.9376155377259
 21
124.0276132458417
 31
0.0
  0
LINE
  5
4DE
330
E3
100
AcDbEntity
  8
0
  6
Continuous
100
AcDbLine
 10
134.9376155377259
 20
124.0276132458417
 30
0.0
 11
134.9141774525696
 21
124.022143068935
 31
0.0
  0
LINE
  5
4DF
330
E3
100
AcDbEntity
  8
0
  6
Continuous
100
AcDbLine
 10
134.9141774525696
 20
124.022143068935
 30
0.0
 11
134.8940357668882
 21
124.0166699142511
 31
0.0
  0
LINE
  5
4E0
330
E3
100
AcDbEntity
  8
0
  6
Continuous
100
AcDbLine
 10
134.8940357668882
 20
124.0166699142511
 30
0.0
 11
134.8773453251018
 21
124.0111997373444
 31
0.0
  0
LINE
  5
4E1
330
E3
100
AcDbEntity
  8
0
  6
Continuous
100
AcDbLine
 10
134.8773453251018
 20
124.0111997373444
 30
0.0
 11
134.8642282160796
 21
124.0057295604378
 31
0.0
  0
LINE
  5
4E2
330
E3
100
AcDbEntity
  8
0
  6
Continuous
100
AcDbLine
 10
134.8642282160796
 20
124.0057295604378
 30
0.0
 11
134.85478568425
 21
124.0002564057538
 31
0.0
  0
LINE
  5
4E3
330
E3
100
AcDbEntity
  8
0
  6
Continuous
100
AcDbLine
 10
134.85478568425
 20
124.0002564057538
 30
0.0
 11
134.8490936860713
 21
123.9947854096588
 31
0.0
  0
LINE
  5
4E4
330
E3
100
AcDbEntity
  8
0
  6
Continuous
100
AcDbLine
 10
134.8490936860713
 20
123.9947854096588
 30
0.0
 11
134.8471910351172
 21
123.9893140291874
 31
0.0
  0
LINE
  5
4E5
330
E3
100
AcDbEntity
  8
0
  6
Continuous
100
AcDbLine
 10
135.8471910351171
 20
123.7923443322177
 30
0.0
 11
135.845288384163
 21
123.7868729517463
 31
0.0
  0
LINE
  5
4E6
330
E3
100
AcDbEntity
  8
0
  6
Continuous
100
AcDbLine
 10
135.845288384163
 20
123.7868729517463
 30
0.0
 11
135.8395949116234
 21
123.7814015712749
 31
0.0
  0
LINE
  5
4E7
330
E3
100
AcDbEntity
  8
0
  6
Continuous
100
AcDbLine
 10
135.8395949116234
 20
123.7814015712749
 30
0.0
 11
135.8301536622552
 21
123.7759315081444
 31
0.0
  0
LINE
  5
4E8
330
E3
100
AcDbEntity
  8
0
  6
Continuous
100
AcDbLine
 10
135.8301536622552
 20
123.7759315081444
 30
0.0
 11
135.817036553233
 21
123.7704583534605
 31
0.0
  0
LINE
  5
4E9
330
E3
100
AcDbEntity
  8
0
  6
Continuous
100
AcDbLine
 10
135.817036553233
 20
123.7704583534605
 30
0.0
 11
135.8003461114465
 21
123.7649881765538
 31
0.0
  0
LINE
  5
4EA
330
E3
100
AcDbEntity
  8
0
  6
Continuous
100
AcDbLine
 10
135.8003461114465
 20
123.7649881765538
 30
0.0
 11
135.7802044257652
 21
123.7595150218699
 31
0.0
  0
LINE
  5
4EB
330
E3
100
AcDbEntity
  8
0
  6
Continuous
100
AcDbLine
 10
135.7802044257652
 20
123.7595150218699
 30
0.0
 11
135.7567663406088
 21
123.7540448449632
 31
0.0
  0
LINE
  5
4EC
330
E3
100
AcDbEntity
  8
0
  6
Continuous
100
AcDbLine
 10
135.7567663406088
 20
123.7540448449632
 30
0.0
 11
135.7302135003929
 21
123.7485746680566
 31
0.0
  0
LINE
  5
4ED
330
E3
100
AcDbEntity
  8
0
  6
Continuous
100
AcDbLine
 10
135.7302135003929
 20
123.7485746680566
 30
0.0
 11
135.7007454161969
 21
123.7431015133726
 31
0.0
  0
LINE
  5
4EE
330
E3
100
AcDbEntity
  8
0
  6
Continuous
100
AcDbLine
 10
135.7007454161969
 20
123.7431015133726
 30
0.0
 11
135.6685854213184
 21
123.737631336466
 31
0.0
  0
LINE
  5
4EF
330
E3
100
AcDbEntity
  8
0
  6
Continuous
100
AcDbLine
 10
135.6685854213184
 20
123.737631336466
 30
0.0
 11
135.6339806712736
 21
123.732158181782
 31
0.0
  0
LINE
  5
4F0
330
E3
100
AcDbEntity
  8
0
  6
Continuous
100
AcDbLine
 10
135.6339806712736
 20
123.732158181782
 30
0.0
 11
135.5971902326881
 21
123.7266880048754
 31
0.0
  0
LINE
  5
4F1
330
E3
100
AcDbEntity
  8
0
  6
Continuous
100
AcDbLine
 10
135.5971902326881
 20
123.7266880048754
 30
0.0
 11
135.5584999721829
 21
123.7212178279687
 31
0.0
  0
LINE
  5
4F2
330
E3
100
AcDbEntity
  8
0
  6
Continuous
100
AcDbLine
 10
135.5584999721829
 20
123.7212178279687
 30
0.0
 11
135.5182017119337
 21
123.7157446732848
 31
0.0
  0
LINE
  5
4F3
330
E3
100
AcDbEntity
  8
0
  6
Continuous
100
AcDbLine
 10
135.5182017119337
 20
123.7157446732848
 30
0.0
 11
135.4765991852256
 21
123.7102744963781
 31
0.0
  0
LINE
  5
4F4
330
E3
100
AcDbEntity
  8
0
  6
Continuous
100
AcDbLine
 10
135.4765991852256
 20
123.7102744963781
 30
0.0
 11
135.4340139920074
 21
123.7048013416942
 31
0.0
  0
LINE
  5
4F5
330
E3
100
AcDbEntity
  8
0
  6
Continuous
100
AcDbLine
 10
135.4340139920074
 20
123.7048013416942
 30
0.0
 11
135.3907677322277
 21
123.6993311647875
 31
0.0
  0
LINE
  5
4F6
330
E3
100
AcDbEntity
  8
0
  6
Continuous
100
AcDbLine
 10
135.3907677322277
 20
123.6993311647875
 30
0.0
 11
135.3471909391673
 21
123.6938580101036
 31
0.0
  0
LINE
  5
4F7
330
E3
100
AcDbEntity
  8
0
  6
Continuous
100
AcDbLine
 10
135.3471909391673
 20
123.6938580101036
 30
0.0
 11
135.303614146107
 21
123.6883878331969
 31
0.0
  0
LINE
  5
4F8
330
E3
100
AcDbEntity
  8
0
  6
Continuous
100
AcDbLine
 10
135.303614146107
 20
123.6883878331969
 30
0.0
 11
135.2603678863273
 21
123.6829176562903
 31
0.0
  0
LINE
  5
4F9
330
E3
100
AcDbEntity
  8
0
  6
Continuous
100
AcDbLine
 10
135.2603678863273
 20
123.6829176562903
 30
0.0
 11
135.2177826931091
 21
123.6774445016063
 31
0.0
  0
LINE
  5
4FA
330
E3
100
AcDbEntity
  8
0
  6
Continuous
100
AcDbLine
 10
135.2177826931091
 20
123.6774445016063
 30
0.0
 11
135.176180166401
 21
123.6719743246997
 31
0.0
  0
LINE
  5
4FB
330
E3
100
AcDbEntity
  8
0
  6
Continuous
100
AcDbLine
 10
135.176180166401
 20
123.6719743246997
 30
0.0
 11
135.1358819061518
 21
123.6665011700157
 31
0.0
  0
LINE
  5
4FC
330
E3
100
AcDbEntity
  8
0
  6
Continuous
100
AcDbLine
 10
135.1358819061518
 20
123.6665011700157
 30
0.0
 11
135.0971916456466
 21
123.6610309931091
 31
0.0
  0
LINE
  5
4FD
330
E3
100
AcDbEntity
  8
0
  6
Continuous
100
AcDbLine
 10
135.0971916456466
 20
123.6610309931091
 30
0.0
 11
135.0604041848384
 21
123.6555608162024
 31
0.0
  0
LINE
  5
4FE
330
E3
100
AcDbEntity
  8
0
  6
Continuous
100
AcDbLine
 10
135.0604041848384
 20
123.6555608162024
 30
0.0
 11
135.0257964570164
 21
123.6500876615185
 31
0.0
  0
LINE
  5
4FF
330
E3
100
AcDbEntity
  8
0
  6
Continuous
100
AcDbLine
 10
135.0257964570164
 20
123.6500876615185
 30
0.0
 11
134.9936364621379
 21
123.6446174846118
 31
0.0
  0
LINE
  5
500
330
E3
100
AcDbEntity
  8
0
  6
Continuous
100
AcDbLine
 10
134.9936364621379
 20
123.6446174846118
 30
0.0
 11
134.9641683779418
 21
123.6391443299279
 31
0.0
  0
LINE
  5
501
330
E3
100
AcDbEntity
  8
0
  6
Continuous
100
AcDbLine
 10
134.9641683779418
 20
123.6391443299279
 30
0.0
 11
134.9376155377259
 21
123.6336741530212
 31
0.0
  0
LINE
  5
502
330
E3
100
AcDbEntity
  8
0
  6
Continuous
100
AcDbLine
 10
134.9376155377259
 20
123.6336741530212
 30
0.0
 11
134.9141774525696
 21
123.6282039761146
 31
0.0
  0
LINE
  5
503
330
E3
100
AcDbEntity
  8
0
  6
Continuous
100
AcDbLine
 10
134.9141774525696
 20
123.6282039761146
 30
0.0
 11
134.8940357668882
 21
123.6227308214307
 31
0.0
  0
LINE
  5
504
330
E3
100
AcDbEntity
  8
0
  6
Continuous
100
AcDbLine
 10
134.8940357668882
 20
123.6227308214307
 30
0.0
 11
134.8773453251018
 21
123.617260644524
 31
0.0
  0
LINE
  5
505
330
E3
100
AcDbEntity
  8
0
  6
Continuous
100
AcDbLine
 10
134.8773453251018
 20
123.617260644524
 30
0.0
 11
134.8642282160796
 21
123.61178748984
 31
0.0
  0
LINE
  5
506
330
E3
100
AcDbEntity
  8
0
  6
Continuous
100
AcDbLine
 10
134.8642282160796
 20
123.61178748984
 30
0.0
 11
134.85478568425
 21
123.6063173129334
 31
0.0
  0
LINE
  5
507
330
E3
100
AcDbEntity
  8
0
  6
Continuous
100
AcDbLine
 10
134.85478568425
 20
123.6063173129334
 30
0.0
 11
134.8490936860713
 21
123.6008460157194
 31
0.0
  0
LINE
  5
508
330
E3
100
AcDbEntity
  8
0
  6
Continuous
100
AcDbLine
 10
134.8490936860713
 20
123.6008460157194
 30
0.0
 11
134.8471910351172
 21
123.595374635248
 31
0.0
  0
LINE
  5
509
330
E3
100
AcDbEntity
  8
0
  6
Continuous
100
AcDbLine
 10
135.8471910351171
 20
123.3984049382783
 30
0.0
 11
135.845288384163
 21
123.3929335578069
 31
0.0
  0
LINE
  5
50A
330
E3
100
AcDbEntity
  8
0
  6
Continuous
100
AcDbLine
 10
135.845288384163
 20
123.3929335578069
 30
0.0
 11
135.8395949116234
 21
123.3874621773355
 31
0.0
  0
LINE
  5
50B
330
E3
100
AcDbEntity
  8
0
  6
Continuous
100
AcDbLine
 10
135.8395949116234
 20
123.3874621773355
 30
0.0
 11
135.8301536622552
 21
123.3819894375467
 31
0.0
  0
LINE
  5
50C
330
E3
100
AcDbEntity
  8
0
  6
Continuous
100
AcDbLine
 10
135.8301536622552
 20
123.3819894375467
 30
0.0
 11
135.817036553233
 21
123.37651926064
 31
0.0
  0
LINE
  5
50D
330
E3
100
AcDbEntity
  8
0
  6
Continuous
100
AcDbLine
 10
135.817036553233
 20
123.37651926064
 30
0.0
 11
135.8003461114465
 21
123.3710490837334
 31
0.0
  0
LINE
  5
50E
330
E3
100
AcDbEntity
  8
0
  6
Continuous
100
AcDbLine
 10
135.8003461114465
 20
123.3710490837334
 30
0.0
 11
135.7802044257652
 21
123.3655759290494
 31
0.0
  0
LINE
  5
50F
330
E3
100
AcDbEntity
  8
0
  6
Continuous
100
AcDbLine
 10
135.7802044257652
 20
123.3655759290494
 30
0.0
 11
135.7567663406088
 21
123.3601057521428
 31
0.0
  0
LINE
  5
510
330
E3
100
AcDbEntity
  8
0
  6
Continuous
100
AcDbLine
 10
135.7567663406088
 20
123.3601057521428
 30
0.0
 11
135.7302135003929
 21
123.3546325974588
 31
0.0
  0
LINE
  5
511
330
E3
100
AcDbEntity
  8
0
  6
Continuous
100
AcDbLine
 10
135.7302135003929
 20
123.3546325974588
 30
0.0
 11
135.7007454161969
 21
123.3491624205522
 31
0.0
  0
LINE
  5
512
330
E3
100
AcDbEntity
  8
0
  6
Continuous
100
AcDbLine
 10
135.7007454161969
 20
123.3491624205522
 30
0.0
 11
135.6685854213184
 21
123.3436922436455
 31
0.0
  0
LINE
  5
513
330
E3
100
AcDbEntity
  8
0
  6
Continuous
100
AcDbLine
 10
135.6685854213184
 20
123.3436922436455
 30
0.0
 11
135.6339806712736
 21
123.3382190889616
 31
0.0
  0
LINE
  5
514
330
E3
100
AcDbEntity
  8
0
  6
Continuous
100
AcDbLine
 10
135.6339806712736
 20
123.3382190889616
 30
0.0
 11
135.5971902326881
 21
123.3327489120549
 31
0.0
  0
LINE
  5
515
330
E3
100
AcDbEntity
  8
0
  6
Continuous
100
AcDbLine
 10
135.5971902326881
 20
123.3327489120549
 30
0.0
 11
135.5584999721829
 21
123.327275757371
 31
0.0
  0
LINE
  5
516
330
E3
100
AcDbEntity
  8
0
  6
Continuous
100
AcDbLine
 10
135.5584999721829
 20
123.327275757371
 30
0.0
 11
135.5182017119337
 21
123.3218055804643
 31
0.0
  0
LINE
  5
517
330
E3
100
AcDbEntity
  8
0
  6
Continuous
100
AcDbLine
 10
135.5182017119337
 20
123.3218055804643
 30
0.0
 11
135.4765991852256
 21
123.3163354035577
 31
0.0
  0
LINE
  5
518
330
E3
100
AcDbEntity
  8
0
  6
Continuous
100
AcDbLine
 10
135.4765991852256
 20
123.3163354035577
 30
0.0
 11
135.4340139920074
 21
123.3108622488737
 31
0.0
  0
LINE
  5
519
330
E3
100
AcDbEntity
  8
0
  6
Continuous
100
AcDbLine
 10
135.4340139920074
 20
123.3108622488737
 30
0.0
 11
135.3907677322277
 21
123.3053920719671
 31
0.0
  0
LINE
  5
51A
330
E3
100
AcDbEntity
  8
0
  6
Continuous
100
AcDbLine
 10
135.3907677322277
 20
123.3053920719671
 30
0.0
 11
135.3471909391673
 21
123.2999189172831
 31
0.0
  0
LINE
  5
51B
330
E3
100
AcDbEntity
  8
0
  6
Continuous
100
AcDbLine
 10
135.3471909391673
 20
123.2999189172831
 30
0.0
 11
135.303614146107
 21
123.2944487403765
 31
0.0
  0
LINE
  5
51C
330
E3
100
AcDbEntity
  8
0
  6
Continuous
100
AcDbLine
 10
135.303614146107
 20
123.2944487403765
 30
0.0
 11
135.2603678863273
 21
123.2889785634698
 31
0.0
  0
LINE
  5
51D
330
E3
100
AcDbEntity
  8
0
  6
Continuous
100
AcDbLine
 10
135.2603678863273
 20
123.2889785634698
 30
0.0
 11
135.2177826931091
 21
123.2835054087859
 31
0.0
  0
LINE
  5
51E
330
E3
100
AcDbEntity
  8
0
  6
Continuous
100
AcDbLine
 10
135.2177826931091
 20
123.2835054087859
 30
0.0
 11
135.176180166401
 21
123.2780352318792
 31
0.0
  0
LINE
  5
51F
330
E3
100
AcDbEntity
  8
0
  6
Continuous
100
AcDbLine
 10
135.176180166401
 20
123.2780352318792
 30
0.0
 11
135.1358819061518
 21
123.2725620771953
 31
0.0
  0
LINE
  5
520
330
E3
100
AcDbEntity
  8
0
  6
Continuous
100
AcDbLine
 10
135.1358819061518
 20
123.2725620771953
 30
0.0
 11
135.0971916456466
 21
123.2670919002886
 31
0.0
  0
LINE
  5
521
330
E3
100
AcDbEntity
  8
0
  6
Continuous
100
AcDbLine
 10
135.0971916456466
 20
123.2670919002886
 30
0.0
 11
135.0604041848384
 21
123.261621723382
 31
0.0
  0
LINE
  5
522
330
E3
100
AcDbEntity
  8
0
  6
Continuous
100
AcDbLine
 10
135.0604041848384
 20
123.261621723382
 30
0.0
 11
135.0257964570164
 21
123.2561485686981
 31
0.0
  0
LINE
  5
523
330
E3
100
AcDbEntity
  8
0
  6
Continuous
100
AcDbLine
 10
135.0257964570164
 20
123.2561485686981
 30
0.0
 11
134.9936364621379
 21
123.2506783917914
 31
0.0
  0
LINE
  5
524
330
E3
100
AcDbEntity
  8
0
  6
Continuous
100
AcDbLine
 10
134.9936364621379
 20
123.2506783917914
 30
0.0
 11
134.9641683779418
 21
123.2452052371075
 31
0.0
  0
LINE
  5
525
330
E3
100
AcDbEntity
  8
0
  6
Continuous
100
AcDbLine
 10
134.9641683779418
 20
123.2452052371075
 30
0.0
 11
134.9376155377259
 21
123.2397350602008
 31
0.0
  0
LINE
  5
526
330
E3
100
AcDbEntity
  8
0
  6
Continuous
100
AcDbLine
 10
134.9376155377259
 20
123.2397350602008
 30
0.0
 11
134.9141774525696
 21
123.2342648832942
 31
0.0
  0
LINE
  5
527
330
E3
100
AcDbEntity
  8
0
  6
Continuous
100
AcDbLine
 10
134.9141774525696
 20
123.2342648832942
 30
0.0
 11
134.8940357668882
 21
123.2287917286102
 31
0.0
  0
LINE
  5
528
330
E3
100
AcDbEntity
  8
0
  6
Continuous
100
AcDbLine
 10
134.8940357668882
 20
123.2287917286102
 30
0.0
 11
134.8773453251018
 21
123.2233215517035
 31
0.0
  0
LINE
  5
529
330
E3
100
AcDbEntity
  8
0
  6
Continuous
100
AcDbLine
 10
134.8773453251018
 20
123.2233215517035
 30
0.0
 11
134.8642282160796
 21
123.2178483970196
 31
0.0
  0
LINE
  5
52A
330
E3
100
AcDbEntity
  8
0
  6
Continuous
100
AcDbLine
 10
134.8642282160796
 20
123.2178483970196
 30
0.0
 11
134.85478568425
 21
123.212378220113
 31
0.0
  0
LINE
  5
52B
330
E3
100
AcDbEntity
  8
0
  6
Continuous
100
AcDbLine
 10
134.85478568425
 20
123.212378220113
 30
0.0
 11
134.8490936860713
 21
123.20690662178
 31
0.0
  0
LINE
  5
52C
330
E3
100
AcDbEntity
  8
0
  6
Continuous
100
AcDbLine
 10
134.8490936860713
 20
123.20690662178
 30
0.0
 11
134.8471910351172
 21
123.2014352413086
 31
0.0
  0
LINE
  5
52D
330
E3
100
AcDbEntity
  8
0
  6
Continuous
100
AcDbLine
 10
135.8471910351171
 20
123.0044655443389
 30
0.0
 11
135.845288384163
 21
122.9989941638675
 31
0.0
  0
LINE
  5
52E
330
E3
100
AcDbEntity
  8
0
  6
Continuous
100
AcDbLine
 10
135.845288384163
 20
122.9989941638675
 30
0.0
 11
135.8395949116234
 21
122.9935227833961
 31
0.0
  0
LINE
  5
52F
330
E3
100
AcDbEntity
  8
0
  6
Continuous
100
AcDbLine
 10
135.8395949116234
 20
122.9935227833961
 30
0.0
 11
135.8301536622552
 21
122.9880503447262
 31
0.0
  0
LINE
  5
530
330
E3
100
AcDbEntity
  8
0
  6
Continuous
100
AcDbLine
 10
135.8301536622552
 20
122.9880503447262
 30
0.0
 11
135.817036553233
 21
122.9825801678196
 31
0.0
  0
LINE
  5
531
330
E3
100
AcDbEntity
  8
0
  6
Continuous
100
AcDbLine
 10
135.817036553233
 20
122.9825801678196
 30
0.0
 11
135.8003461114465
 21
122.977109990913
 31
0.0
  0
LINE
  5
532
330
E3
100
AcDbEntity
  8
0
  6
Continuous
100
AcDbLine
 10
135.8003461114465
 20
122.977109990913
 30
0.0
 11
135.7802044257652
 21
122.971636836229
 31
0.0
  0
LINE
  5
533
330
E3
100
AcDbEntity
  8
0
  6
Continuous
100
AcDbLine
 10
135.7802044257652
 20
122.971636836229
 30
0.0
 11
135.7567663406088
 21
122.9661666593224
 31
0.0
  0
LINE
  5
534
330
E3
100
AcDbEntity
  8
0
  6
Continuous
100
AcDbLine
 10
135.7567663406088
 20
122.9661666593224
 30
0.0
 11
135.7302135003929
 21
122.9606935046384
 31
0.0
  0
LINE
  5
535
330
E3
100
AcDbEntity
  8
0
  6
Continuous
100
AcDbLine
 10
135.7302135003929
 20
122.9606935046384
 30
0.0
 11
135.7007454161969
 21
122.9552233277317
 31
0.0
  0
LINE
  5
536
330
E3
100
AcDbEntity
  8
0
  6
Continuous
100
AcDbLine
 10
135.7007454161969
 20
122.9552233277317
 30
0.0
 11
135.6685854213184
 21
122.9497531508251
 31
0.0
  0
LINE
  5
537
330
E3
100
AcDbEntity
  8
0
  6
Continuous
100
AcDbLine
 10
135.6685854213184
 20
122.9497531508251
 30
0.0
 11
135.6339806712736
 21
122.9442799961411
 31
0.0
  0
LINE
  5
538
330
E3
100
AcDbEntity
  8
0
  6
Continuous
100
AcDbLine
 10
135.6339806712736
 20
122.9442799961411
 30
0.0
 11
135.5971902326881
 21
122.9388098192345
 31
0.0
  0
LINE
  5
539
330
E3
100
AcDbEntity
  8
0
  6
Continuous
100
AcDbLine
 10
135.5971902326881
 20
122.9388098192345
 30
0.0
 11
135.5584999721829
 21
122.9333366645505
 31
0.0
  0
LINE
  5
53A
330
E3
100
AcDbEntity
  8
0
  6
Continuous
100
AcDbLine
 10
135.5584999721829
 20
122.9333366645505
 30
0.0
 11
135.5182017119337
 21
122.9278664876439
 31
0.0
  0
LINE
  5
53B
330
E3
100
AcDbEntity
  8
0
  6
Continuous
100
AcDbLine
 10
135.5182017119337
 20
122.9278664876439
 30
0.0
 11
135.4765991852256
 21
122.9223963107372
 31
0.0
  0
LINE
  5
53C
330
E3
100
AcDbEntity
  8
0
  6
Continuous
100
AcDbLine
 10
135.4765991852256
 20
122.9223963107372
 30
0.0
 11
135.4340139920074
 21
122.9169231560533
 31
0.0
  0
LINE
  5
53D
330
E3
100
AcDbEntity
  8
0
  6
Continuous
100
AcDbLine
 10
135.4340139920074
 20
122.9169231560533
 30
0.0
 11
135.3907677322277
 21
122.9114529791466
 31
0.0
  0
LINE
  5
53E
330
E3
100
AcDbEntity
  8
0
  6
Continuous
100
AcDbLine
 10
135.3907677322277
 20
122.9114529791466
 30
0.0
 11
135.3471909391673
 21
122.9059798244627
 31
0.0
  0
LINE
  5
53F
330
E3
100
AcDbEntity
  8
0
  6
Continuous
100
AcDbLine
 10
135.3471909391673
 20
122.9059798244627
 30
0.0
 11
135.303614146107
 21
122.900509647556
 31
0.0
  0
LINE
  5
540
330
E3
100
AcDbEntity
  8
0
  6
Continuous
100
AcDbLine
 10
135.303614146107
 20
122.900509647556
 30
0.0
 11
135.2603678863273
 21
122.8950364928721
 31
0.0
  0
LINE
  5
541
330
E3
100
AcDbEntity
  8
0
  6
Continuous
100
AcDbLine
 10
135.2603678863273
 20
122.8950364928721
 30
0.0
 11
135.2177826931091
 21
122.8895663159655
 31
0.0
  0
LINE
  5
542
330
E3
100
AcDbEntity
  8
0
  6
Continuous
100
AcDbLine
 10
135.2177826931091
 20
122.8895663159655
 30
0.0
 11
135.176180166401
 21
122.8840961390588
 31
0.0
  0
LINE
  5
543
330
E3
100
AcDbEntity
  8
0
  6
Continuous
100
AcDbLine
 10
135.176180166401
 20
122.8840961390588
 30
0.0
 11
135.1358819061518
 21
122.8786229843749
 31
0.0
  0
LINE
  5
544
330
E3
100
AcDbEntity
  8
0
  6
Continuous
100
AcDbLine
 10
135.1358819061518
 20
122.8786229843749
 30
0.0
 11
135.0971916456466
 21
122.8731528074682
 31
0.0
  0
LINE
  5
545
330
E3
100
AcDbEntity
  8
0
  6
Continuous
100
AcDbLine
 10
135.0971916456466
 20
122.8731528074682
 30
0.0
 11
135.0604041848384
 21
122.8676796527843
 31
0.0
  0
LINE
  5
546
330
E3
100
AcDbEntity
  8
0
  6
Continuous
100
AcDbLine
 10
135.0604041848384
 20
122.8676796527843
 30
0.0
 11
135.0257964570164
 21
122.8622094758776
 31
0.0
  0
LINE
  5
547
330
E3
100
AcDbEntity
  8
0
  6
Continuous
100
AcDbLine
 10
135.0257964570164
 20
122.8622094758776
 30
0.0
 11
134.9936364621379
 21
122.856739298971
 31
0.0
  0
LINE
  5
548
330
E3
100
AcDbEntity
  8
0
  6
Continuous
100
AcDbLine
 10
134.9936364621379
 20
122.856739298971
 30
0.0
 11
134.9641683779418
 21
122.851266144287
 31
0.0
  0
LINE
  5
549
330
E3
100
AcDbEntity
  8
0
  6
Continuous
100
AcDbLine
 10
134.9641683779418
 20
122.851266144287
 30
0.0
 11
134.9376155377259
 21
122.8457959673804
 31
0.0
  0
LINE
  5
54A
330
E3
100
AcDbEntity
  8
0
  6
Continuous
100
AcDbLine
 10
134.9376155377259
 20
122.8457959673804
 30
0.0
 11
134.9141774525696
 21
122.8403228126964
 31
0.0
  0
LINE
  5
54B
330
E3
100
AcDbEntity
  8
0
  6
Continuous
100
AcDbLine
 10
134.9141774525696
 20
122.8403228126964
 30
0.0
 11
134.8940357668882
 21
122.8348526357898
 31
0.0
  0
LINE
  5
54C
330
E3
100
AcDbEntity
  8
0
  6
Continuous
100
AcDbLine
 10
134.8940357668882
 20
122.8348526357898
 30
0.0
 11
134.8773453251018
 21
122.8293824588831
 31
0.0
  0
LINE
  5
54D
330
E3
100
AcDbEntity
  8
0
  6
Continuous
100
AcDbLine
 10
134.8773453251018
 20
122.8293824588831
 30
0.0
 11
134.8642282160796
 21
122.8239093041992
 31
0.0
  0
LINE
  5
54E
330
E3
100
AcDbEntity
  8
0
  6
Continuous
100
AcDbLine
 10
134.8642282160796
 20
122.8239093041992
 30
0.0
 11
134.85478568425
 21
122.8184391272925
 31
0.0
  0
LINE
  5
54F
330
E3
100
AcDbEntity
  8
0
  6
Continuous
100
AcDbLine
 10
134.85478568425
 20
122.8184391272925
 30
0.0
 11
134.8490936860713
 21
122.8129672278406
 31
0.0
  0
LINE
  5
550
330
E3
100
AcDbEntity
  8
0
  6
Continuous
100
AcDbLine
 10
134.8490936860713
 20
122.8129672278406
 30
0.0
 11
134.8471910351172
 21
122.8074958473692
 31
0.0
  0
LINE
  5
551
330
E3
100
AcDbEntity
  8
0
  6
Continuous
100
AcDbLine
 10
135.8471910351171
 20
122.6105261503995
 30
0.0
 11
135.845288384163
 21
122.6050547699281
 31
0.0
  0
LINE
  5
552
330
E3
100
AcDbEntity
  8
0
  6
Continuous
100
AcDbLine
 10
135.845288384163
 20
122.6050547699281
 30
0.0
 11
135.8395949116234
 21
122.5995833894568
 31
0.0
  0
LINE
  5
553
330
E3
100
AcDbEntity
  8
0
  6
Continuous
100
AcDbLine
 10
135.8395949116234
 20
122.5995833894568
 30
0.0
 11
135.8301536622552
 21
122.5941112519058
 31
0.0
  0
LINE
  5
554
330
E3
100
AcDbEntity
  8
0
  6
Continuous
100
AcDbLine
 10
135.8301536622552
 20
122.5941112519058
 30
0.0
 11
135.817036553233
 21
122.5886410749992
 31
0.0
  0
LINE
  5
555
330
E3
100
AcDbEntity
  8
0
  6
Continuous
100
AcDbLine
 10
135.817036553233
 20
122.5886410749992
 30
0.0
 11
135.8003461114465
 21
122.5831679203152
 31
0.0
  0
LINE
  5
556
330
E3
100
AcDbEntity
  8
0
  6
Continuous
100
AcDbLine
 10
135.8003461114465
 20
122.5831679203152
 30
0.0
 11
135.7802044257652
 21
122.5776977434085
 31
0.0
  0
LINE
  5
557
330
E3
100
AcDbEntity
  8
0
  6
Continuous
100
AcDbLine
 10
135.7802044257652
 20
122.5776977434085
 30
0.0
 11
135.7567663406088
 21
122.5722275665019
 31
0.0
  0
LINE
  5
558
330
E3
100
AcDbEntity
  8
0
  6
Continuous
100
AcDbLine
 10
135.7567663406088
 20
122.5722275665019
 30
0.0
 11
135.7302135003929
 21
122.566754411818
 31
0.0
  0
LINE
  5
559
330
E3
100
AcDbEntity
  8
0
  6
Continuous
100
AcDbLine
 10
135.7302135003929
 20
122.566754411818
 30
0.0
 11
135.7007454161969
 21
122.5612842349113
 31
0.0
  0
LINE
  5
55A
330
E3
100
AcDbEntity
  8
0
  6
Continuous
100
AcDbLine
 10
135.7007454161969
 20
122.5612842349113
 30
0.0
 11
135.6685854213184
 21
122.5558110802274
 31
0.0
  0
LINE
  5
55B
330
E3
100
AcDbEntity
  8
0
  6
Continuous
100
AcDbLine
 10
135.6685854213184
 20
122.5558110802274
 30
0.0
 11
135.6339806712736
 21
122.5503409033207
 31
0.0
  0
LINE
  5
55C
330
E3
100
AcDbEntity
  8
0
  6
Continuous
100
AcDbLine
 10
135.6339806712736
 20
122.5503409033207
 30
0.0
 11
135.5971902326881
 21
122.5448707264141
 31
0.0
  0
LINE
  5
55D
330
E3
100
AcDbEntity
  8
0
  6
Continuous
100
AcDbLine
 10
135.5971902326881
 20
122.5448707264141
 30
0.0
 11
135.5584999721829
 21
122.5393975717301
 31
0.0
  0
LINE
  5
55E
330
E3
100
AcDbEntity
  8
0
  6
Continuous
100
AcDbLine
 10
135.5584999721829
 20
122.5393975717301
 30
0.0
 11
135.5182017119337
 21
122.5339273948235
 31
0.0
  0
LINE
  5
55F
330
E3
100
AcDbEntity
  8
0
  6
Continuous
100
AcDbLine
 10
135.5182017119337
 20
122.5339273948235
 30
0.0
 11
135.4765991852256
 21
122.5284542401395
 31
0.0
  0
LINE
  5
560
330
E3
100
AcDbEntity
  8
0
  6
Continuous
100
AcDbLine
 10
135.4765991852256
 20
122.5284542401395
 30
0.0
 11
135.4340139920074
 21
122.5229840632329
 31
0.0
  0
LINE
  5
561
330
E3
100
AcDbEntity
  8
0
  6
Continuous
100
AcDbLine
 10
135.4340139920074
 20
122.5229840632329
 30
0.0
 11
135.3907677322277
 21
122.5175138863262
 31
0.0
  0
LINE
  5
562
330
E3
100
AcDbEntity
  8
0
  6
Continuous
100
AcDbLine
 10
135.3907677322277
 20
122.5175138863262
 30
0.0
 11
135.3471909391673
 21
122.5120407316423
 31
0.0
  0
LINE
  5
563
330
E3
100
AcDbEntity
  8
0
  6
Continuous
100
AcDbLine
 10
135.3471909391673
 20
122.5120407316423
 30
0.0
 11
135.303614146107
 21
122.5065705547356
 31
0.0
  0
LINE
  5
564
330
E3
100
AcDbEntity
  8
0
  6
Continuous
100
AcDbLine
 10
135.303614146107
 20
122.5065705547356
 30
0.0
 11
135.2603678863273
 21
122.5010974000517
 31
0.0
  0
LINE
  5
565
330
E3
100
AcDbEntity
  8
0
  6
Continuous
100
AcDbLine
 10
135.2603678863273
 20
122.5010974000517
 30
0.0
 11
135.2177826931091
 21
122.495627223145
 31
0.0
  0
LINE
  5
566
330
E3
100
AcDbEntity
  8
0
  6
Continuous
100
AcDbLine
 10
135.2177826931091
 20
122.495627223145
 30
0.0
 11
135.176180166401
 21
122.4901570462384
 31
0.0
  0
LINE
  5
567
330
E3
100
AcDbEntity
  8
0
  6
Continuous
100
AcDbLine
 10
135.176180166401
 20
122.4901570462384
 30
0.0
 11
135.1358819061518
 21
122.4846838915544
 31
0.0
  0
LINE
  5
568
330
E3
100
AcDbEntity
  8
0
  6
Continuous
100
AcDbLine
 10
135.1358819061518
 20
122.4846838915544
 30
0.0
 11
135.0971916456466
 21
122.4792137146478
 31
0.0
  0
LINE
  5
569
330
E3
100
AcDbEntity
  8
0
  6
Continuous
100
AcDbLine
 10
135.0971916456466
 20
122.4792137146478
 30
0.0
 11
135.0604041848384
 21
122.4737405599638
 31
0.0
  0
LINE
  5
56A
330
E3
100
AcDbEntity
  8
0
  6
Continuous
100
AcDbLine
 10
135.0604041848384
 20
122.4737405599638
 30
0.0
 11
135.0257964570164
 21
122.4682703830572
 31
0.0
  0
LINE
  5
56B
330
E3
100
AcDbEntity
  8
0
  6
Continuous
100
AcDbLine
 10
135.0257964570164
 20
122.4682703830572
 30
0.0
 11
134.9936364621379
 21
122.4628002061505
 31
0.0
  0
LINE
  5
56C
330
E3
100
AcDbEntity
  8
0
  6
Continuous
100
AcDbLine
 10
134.9936364621379
 20
122.4628002061505
 30
0.0
 11
134.9641683779418
 21
122.4573270514666
 31
0.0
  0
LINE
  5
56D
330
E3
100
AcDbEntity
  8
0
  6
Continuous
100
AcDbLine
 10
134.9641683779418
 20
122.4573270514666
 30
0.0
 11
134.9376155377259
 21
122.4518568745599
 31
0.0
  0
LINE
  5
56E
330
E3
100
AcDbEntity
  8
0
  6
Continuous
100
AcDbLine
 10
134.9376155377259
 20
122.4518568745599
 30
0.0
 11
134.9141774525696
 21
122.446383719876
 31
0.0
  0
LINE
  5
56F
330
E3
100
AcDbEntity
  8
0
  6
Continuous
100
AcDbLine
 10
134.9141774525696
 20
122.446383719876
 30
0.0
 11
134.8940357668882
 21
122.4409135429693
 31
0.0
  0
LINE
  5
570
330
E3
100
AcDbEntity
  8
0
  6
Continuous
100
AcDbLine
 10
134.8940357668882
 20
122.4409135429693
 30
0.0
 11
134.8773453251018
 21
122.4354433660627
 31
0.0
  0
LINE
  5
571
330
E3
100
AcDbEntity
  8
0
  6
Continuous
100
AcDbLine
 10
134.8773453251018
 20
122.4354433660627
 30
0.0
 11
134.8642282160796
 21
122.4299702113787
 31
0.0
  0
LINE
  5
572
330
E3
100
AcDbEntity
  8
0
  6
Continuous
100
AcDbLine
 10
134.8642282160796
 20
122.4299702113787
 30
0.0
 11
134.85478568425
 21
122.4245000344721
 31
0.0
  0
LINE
  5
573
330
E3
100
AcDbEntity
  8
0
  6
Continuous
100
AcDbLine
 10
134.85478568425
 20
122.4245000344721
 30
0.0
 11
134.8490936860713
 21
122.4190278339012
 31
0.0
  0
LINE
  5
574
330
E3
100
AcDbEntity
  8
0
  6
Continuous
100
AcDbLine
 10
134.8490936860713
 20
122.4190278339012
 30
0.0
 11
134.8471910351172
 21
122.4135564534298
 31
0.0
  0
LINE
  5
575
330
E3
100
AcDbEntity
  8
0
  6
Continuous
100
AcDbLine
 10
135.8471910351171
 20
122.2165867564601
 30
0.0
 11
135.845288384163
 21
122.2111153759888
 31
0.0
  0
LINE
  5
576
330
E3
100
AcDbEntity
  8
0
  6
Continuous
100
AcDbLine
 10
135.845288384163
 20
122.2111153759888
 30
0.0
 11
135.8395949116234
 21
122.2056439955174
 31
0.0
  0
LINE
  5
577
330
E3
100
AcDbEntity
  8
0
  6
Continuous
100
AcDbLine
 10
135.8395949116234
 20
122.2056439955174
 30
0.0
 11
135.8301536622552
 21
122.2001721590854
 31
0.0
  0
LINE
  5
578
330
E3
100
AcDbEntity
  8
0
  6
Continuous
100
AcDbLine
 10
135.8301536622552
 20
122.2001721590854
 30
0.0
 11
135.817036553233
 21
122.1947019821787
 31
0.0
  0
LINE
  5
579
330
E3
100
AcDbEntity
  8
0
  6
Continuous
100
AcDbLine
 10
135.817036553233
 20
122.1947019821787
 30
0.0
 11
135.8003461114465
 21
122.1892288274948
 31
0.0
  0
LINE
  5
57A
330
E3
100
AcDbEntity
  8
0
  6
Continuous
100
AcDbLine
 10
135.8003461114465
 20
122.1892288274948
 30
0.0
 11
135.7802044257652
 21
122.1837586505881
 31
0.0
  0
LINE
  5
57B
330
E3
100
AcDbEntity
  8
0
  6
Continuous
100
AcDbLine
 10
135.7802044257652
 20
122.1837586505881
 30
0.0
 11
135.7567663406088
 21
122.1782884736815
 31
0.0
  0
LINE
  5
57C
330
E3
100
AcDbEntity
  8
0
  6
Continuous
100
AcDbLine
 10
135.7567663406088
 20
122.1782884736815
 30
0.0
 11
135.7302135003929
 21
122.1728153189975
 31
0.0
  0
LINE
  5
57D
330
E3
100
AcDbEntity
  8
0
  6
Continuous
100
AcDbLine
 10
135.7302135003929
 20
122.1728153189975
 30
0.0
 11
135.7007454161969
 21
122.1673451420909
 31
0.0
  0
LINE
  5
57E
330
E3
100
AcDbEntity
  8
0
  6
Continuous
100
AcDbLine
 10
135.7007454161969
 20
122.1673451420909
 30
0.0
 11
135.6685854213184
 21
122.1618719874069
 31
0.0
  0
LINE
  5
57F
330
E3
100
AcDbEntity
  8
0
  6
Continuous
100
AcDbLine
 10
135.6685854213184
 20
122.1618719874069
 30
0.0
 11
135.6339806712736
 21
122.1564018105003
 31
0.0
  0
LINE
  5
580
330
E3
100
AcDbEntity
  8
0
  6
Continuous
100
AcDbLine
 10
135.6339806712736
 20
122.1564018105003
 30
0.0
 11
135.5971902326881
 21
122.1509316335936
 31
0.0
  0
LINE
  5
581
330
E3
100
AcDbEntity
  8
0
  6
Continuous
100
AcDbLine
 10
135.5971902326881
 20
122.1509316335936
 30
0.0
 11
135.5584999721829
 21
122.1454584789097
 31
0.0
  0
LINE
  5
582
330
E3
100
AcDbEntity
  8
0
  6
Continuous
100
AcDbLine
 10
135.5584999721829
 20
122.1454584789097
 30
0.0
 11
135.5182017119337
 21
122.139988302003
 31
0.0
  0
LINE
  5
583
330
E3
100
AcDbEntity
  8
0
  6
Continuous
100
AcDbLine
 10
135.5182017119337
 20
122.139988302003
 30
0.0
 11
135.4765991852256
 21
122.1345151473191
 31
0.0
  0
LINE
  5
584
330
E3
100
AcDbEntity
  8
0
  6
Continuous
100
AcDbLine
 10
135.4765991852256
 20
122.1345151473191
 30
0.0
 11
135.4340139920074
 21
122.1290449704124
 31
0.0
  0
LINE
  5
585
330
E3
100
AcDbEntity
  8
0
  6
Continuous
100
AcDbLine
 10
135.4340139920074
 20
122.1290449704124
 30
0.0
 11
135.3907677322277
 21
122.1235718157285
 31
0.0
  0
LINE
  5
586
330
E3
100
AcDbEntity
  8
0
  6
Continuous
100
AcDbLine
 10
135.3907677322277
 20
122.1235718157285
 30
0.0
 11
135.3471909391673
 21
122.1181016388218
 31
0.0
  0
LINE
  5
587
330
E3
100
AcDbEntity
  8
0
  6
Continuous
100
AcDbLine
 10
135.3471909391673
 20
122.1181016388218
 30
0.0
 11
135.303614146107
 21
122.1126314619152
 31
0.0
  0
LINE
  5
588
330
E3
100
AcDbEntity
  8
0
  6
Continuous
100
AcDbLine
 10
135.303614146107
 20
122.1126314619152
 30
0.0
 11
135.2603678863273
 21
122.1071583072312
 31
0.0
  0
LINE
  5
589
330
E3
100
AcDbEntity
  8
0
  6
Continuous
100
AcDbLine
 10
135.2603678863273
 20
122.1071583072312
 30
0.0
 11
135.2177826931091
 21
122.1016881303246
 31
0.0
  0
LINE
  5
58A
330
E3
100
AcDbEntity
  8
0
  6
Continuous
100
AcDbLine
 10
135.2177826931091
 20
122.1016881303246
 30
0.0
 11
135.176180166401
 21
122.0962149756406
 31
0.0
  0
LINE
  5
58B
330
E3
100
AcDbEntity
  8
0
  6
Continuous
100
AcDbLine
 10
135.176180166401
 20
122.0962149756406
 30
0.0
 11
135.1358819061518
 21
122.090744798734
 31
0.0
  0
LINE
  5
58C
330
E3
100
AcDbEntity
  8
0
  6
Continuous
100
AcDbLine
 10
135.1358819061518
 20
122.090744798734
 30
0.0
 11
135.0971916456466
 21
122.0852746218274
 31
0.0
  0
LINE
  5
58D
330
E3
100
AcDbEntity
  8
0
  6
Continuous
100
AcDbLine
 10
135.0971916456466
 20
122.0852746218274
 30
0.0
 11
135.0604041848384
 21
122.0798014671434
 31
0.0
  0
LINE
  5
58E
330
E3
100
AcDbEntity
  8
0
  6
Continuous
100
AcDbLine
 10
135.0604041848384
 20
122.0798014671434
 30
0.0
 11
135.0257964570164
 21
122.0743312902367
 31
0.0
  0
LINE
  5
58F
330
E3
100
AcDbEntity
  8
0
  6
Continuous
100
AcDbLine
 10
135.0257964570164
 20
122.0743312902367
 30
0.0
 11
134.9936364621379
 21
122.0688581355528
 31
0.0
  0
LINE
  5
590
330
E3
100
AcDbEntity
  8
0
  6
Continuous
100
AcDbLine
 10
134.9936364621379
 20
122.0688581355528
 30
0.0
 11
134.9641683779418
 21
122.0633879586461
 31
0.0
  0
LINE
  5
591
330
E3
100
AcDbEntity
  8
0
  6
Continuous
100
AcDbLine
 10
134.9641683779418
 20
122.0633879586461
 30
0.0
 11
134.9376155377259
 21
122.0579177817395
 31
0.0
  0
LINE
  5
592
330
E3
100
AcDbEntity
  8
0
  6
Continuous
100
AcDbLine
 10
134.9376155377259
 20
122.0579177817395
 30
0.0
 11
134.9141774525696
 21
122.0524446270555
 31
0.0
  0
LINE
  5
593
330
E3
100
AcDbEntity
  8
0
  6
Continuous
100
AcDbLine
 10
134.9141774525696
 20
122.0524446270555
 30
0.0
 11
134.8940357668882
 21
122.0469744501489
 31
0.0
  0
LINE
  5
594
330
E3
100
AcDbEntity
  8
0
  6
Continuous
100
AcDbLine
 10
134.8940357668882
 20
122.0469744501489
 30
0.0
 11
134.8773453251018
 21
122.0415012954649
 31
0.0
  0
LINE
  5
595
330
E3
100
AcDbEntity
  8
0
  6
Continuous
100
AcDbLine
 10
134.8773453251018
 20
122.0415012954649
 30
0.0
 11
134.8642282160796
 21
122.0360311185583
 31
0.0
  0
LINE
  5
596
330
E3
100
AcDbEntity
  8
0
  6
Continuous
100
AcDbLine
 10
134.8642282160796
 20
122.0360311185583
 30
0.0
 11
134.85478568425
 21
122.0305609416516
 31
0.0
  0
LINE
  5
597
330
E3
100
AcDbEntity
  8
0
  6
Continuous
100
AcDbLine
 10
134.85478568425
 20
122.0305609416516
 30
0.0
 11
134.8490936860713
 21
122.0250884399618
 31
0.0
  0
LINE
  5
598
330
E3
100
AcDbEntity
  8
0
  6
Continuous
100
AcDbLine
 10
134.8490936860713
 20
122.0250884399618
 30
0.0
 11
134.8471910351172
 21
122.0196170594904
 31
0.0
  0
LINE
  5
599
330
E3
100
AcDbEntity
  8
0
  6
Continuous
100
AcDbLine
 10
135.8471910351171
 20
121.8226473625207
 30
0.0
 11
135.845288384163
 21
121.8171759820494
 31
0.0
  0
LINE
  5
59A
330
E3
100
AcDbEntity
  8
0
  6
Continuous
100
AcDbLine
 10
135.845288384163
 20
121.8171759820494
 30
0.0
 11
135.8395949116234
 21
121.811704601578
 31
0.0
  0
LINE
  5
59B
330
E3
100
AcDbEntity
  8
0
  6
Continuous
100
AcDbLine
 10
135.8395949116234
 20
121.811704601578
 30
0.0
 11
135.8301536622552
 21
121.8062330662649
 31
0.0
  0
LINE
  5
59C
330
E3
100
AcDbEntity
  8
0
  6
Continuous
100
AcDbLine
 10
135.8301536622552
 20
121.8062330662649
 30
0.0
 11
135.817036553233
 21
121.8007628893583
 31
0.0
  0
LINE
  5
59D
330
E3
100
AcDbEntity
  8
0
  6
Continuous
100
AcDbLine
 10
135.817036553233
 20
121.8007628893583
 30
0.0
 11
135.8003461114465
 21
121.7952897346743
 31
0.0
  0
LINE
  5
59E
330
E3
100
AcDbEntity
  8
0
  6
Continuous
100
AcDbLine
 10
135.8003461114465
 20
121.7952897346743
 30
0.0
 11
135.7802044257652
 21
121.7898195577677
 31
0.0
  0
LINE
  5
59F
330
E3
100
AcDbEntity
  8
0
  6
Continuous
100
AcDbLine
 10
135.7802044257652
 20
121.7898195577677
 30
0.0
 11
135.7567663406088
 21
121.7843464030837
 31
0.0
  0
LINE
  5
5A0
330
E3
100
AcDbEntity
  8
0
  6
Continuous
100
AcDbLine
 10
135.7567663406088
 20
121.7843464030837
 30
0.0
 11
135.7302135003929
 21
121.7788762261771
 31
0.0
  0
LINE
  5
5A1
330
E3
100
AcDbEntity
  8
0
  6
Continuous
100
AcDbLine
 10
135.7302135003929
 20
121.7788762261771
 30
0.0
 11
135.7007454161969
 21
121.7734060492704
 31
0.0
  0
LINE
  5
5A2
330
E3
100
AcDbEntity
  8
0
  6
Continuous
100
AcDbLine
 10
135.7007454161969
 20
121.7734060492704
 30
0.0
 11
135.6685854213184
 21
121.7679328945865
 31
0.0
  0
LINE
  5
5A3
330
E3
100
AcDbEntity
  8
0
  6
Continuous
100
AcDbLine
 10
135.6685854213184
 20
121.7679328945865
 30
0.0
 11
135.6339806712736
 21
121.7624627176798
 31
0.0
  0
LINE
  5
5A4
330
E3
100
AcDbEntity
  8
0
  6
Continuous
100
AcDbLine
 10
135.6339806712736
 20
121.7624627176798
 30
0.0
 11
135.5971902326881
 21
121.7569895629959
 31
0.0
  0
LINE
  5
5A5
330
E3
100
AcDbEntity
  8
0
  6
Continuous
100
AcDbLine
 10
135.5971902326881
 20
121.7569895629959
 30
0.0
 11
135.5584999721829
 21
121.7515193860892
 31
0.0
  0
LINE
  5
5A6
330
E3
100
AcDbEntity
  8
0
  6
Continuous
100
AcDbLine
 10
135.5584999721829
 20
121.7515193860892
 30
0.0
 11
135.5182017119337
 21
121.7460492091826
 31
0.0
  0
LINE
  5
5A7
330
E3
100
AcDbEntity
  8
0
  6
Continuous
100
AcDbLine
 10
135.5182017119337
 20
121.7460492091826
 30
0.0
 11
135.4765991852256
 21
121.7405760544986
 31
0.0
  0
LINE
  5
5A8
330
E3
100
AcDbEntity
  8
0
  6
Continuous
100
AcDbLine
 10
135.4765991852256
 20
121.7405760544986
 30
0.0
 11
135.4340139920074
 21
121.735105877592
 31
0.0
  0
LINE
  5
5A9
330
E3
100
AcDbEntity
  8
0
  6
Continuous
100
AcDbLine
 10
135.4340139920074
 20
121.735105877592
 30
0.0
 11
135.3907677322277
 21
121.729632722908
 31
0.0
  0
LINE
  5
5AA
330
E3
100
AcDbEntity
  8
0
  6
Continuous
100
AcDbLine
 10
135.3907677322277
 20
121.729632722908
 30
0.0
 11
135.3471909391673
 21
121.7241625460014
 31
0.0
  0
LINE
  5
5AB
330
E3
100
AcDbEntity
  8
0
  6
Continuous
100
AcDbLine
 10
135.3471909391673
 20
121.7241625460014
 30
0.0
 11
135.303614146107
 21
121.7186923690948
 31
0.0
  0
LINE
  5
5AC
330
E3
100
AcDbEntity
  8
0
  6
Continuous
100
AcDbLine
 10
135.303614146107
 20
121.7186923690948
 30
0.0
 11
135.2603678863273
 21
121.7132192144108
 31
0.0
  0
LINE
  5
5AD
330
E3
100
AcDbEntity
  8
0
  6
Continuous
100
AcDbLine
 10
135.2603678863273
 20
121.7132192144108
 30
0.0
 11
135.2177826931091
 21
121.7077490375042
 31
0.0
  0
LINE
  5
5AE
330
E3
100
AcDbEntity
  8
0
  6
Continuous
100
AcDbLine
 10
135.2177826931091
 20
121.7077490375042
 30
0.0
 11
135.176180166401
 21
121.7022758828202
 31
0.0
  0
LINE
  5
5AF
330
E3
100
AcDbEntity
  8
0
  6
Continuous
100
AcDbLine
 10
135.176180166401
 20
121.7022758828202
 30
0.0
 11
135.1358819061518
 21
121.6968057059136
 31
0.0
  0
LINE
  5
5B0
330
E3
100
AcDbEntity
  8
0
  6
Continuous
100
AcDbLine
 10
135.1358819061518
 20
121.6968057059136
 30
0.0
 11
135.0971916456466
 21
121.6913355290069
 31
0.0
  0
LINE
  5
5B1
330
E3
100
AcDbEntity
  8
0
  6
Continuous
100
AcDbLine
 10
135.0971916456466
 20
121.6913355290069
 30
0.0
 11
135.0604041848384
 21
121.685862374323
 31
0.0
  0
LINE
  5
5B2
330
E3
100
AcDbEntity
  8
0
  6
Continuous
100
AcDbLine
 10
135.0604041848384
 20
121.685862374323
 30
0.0
 11
135.0257964570164
 21
121.6803921974163
 31
0.0
  0
LINE
  5
5B3
330
E3
100
AcDbEntity
  8
0
  6
Continuous
100
AcDbLine
 10
135.0257964570164
 20
121.6803921974163
 30
0.0
 11
134.9936364621379
 21
121.6749190427324
 31
0.0
  0
LINE
  5
5B4
330
E3
100
AcDbEntity
  8
0
  6
Continuous
100
AcDbLine
 10
134.9936364621379
 20
121.6749190427324
 30
0.0
 11
134.9641683779418
 21
121.6694488658257
 31
0.0
  0
LINE
  5
5B5
330
E3
100
AcDbEntity
  8
0
  6
Continuous
100
AcDbLine
 10
134.9641683779418
 20
121.6694488658257
 30
0.0
 11
134.9376155377259
 21
121.6639786889191
 31
0.0
  0
LINE
  5
5B6
330
E3
100
AcDbEntity
  8
0
  6
Continuous
100
AcDbLine
 10
134.9376155377259
 20
121.6639786889191
 30
0.0
 11
134.9141774525696
 21
121.6585055342351
 31
0.0
  0
LINE
  5
5B7
330
E3
100
AcDbEntity
  8
0
  6
Continuous
100
AcDbLine
 10
134.9141774525696
 20
121.6585055342351
 30
0.0
 11
134.8940357668882
 21
121.6530353573284
 31
0.0
  0
LINE
  5
5B8
330
E3
100
AcDbEntity
  8
0
  6
Continuous
100
AcDbLine
 10
134.8940357668882
 20
121.6530353573284
 30
0.0
 11
134.8773453251018
 21
121.6475622026445
 31
0.0
  0
LINE
  5
5B9
330
E3
100
AcDbEntity
  8
0
  6
Continuous
100
AcDbLine
 10
134.8773453251018
 20
121.6475622026445
 30
0.0
 11
134.8642282160796
 21
121.6420920257379
 31
0.0
  0
LINE
  5
5BA
330
E3
100
AcDbEntity
  8
0
  6
Continuous
100
AcDbLine
 10
134.8642282160796
 20
121.6420920257379
 30
0.0
 11
134.85478568425
 21
121.6366218488312
 31
0.0
  0
LINE
  5
5BB
330
E3
100
AcDbEntity
  8
0
  6
Continuous
100
AcDbLine
 10
134.85478568425
 20
121.6366218488312
 30
0.0
 11
134.8490936860713
 21
121.6311490460224
 31
0.0
  0
LINE
  5
5BC
330
E3
100
AcDbEntity
  8
0
  6
Continuous
100
AcDbLine
 10
134.8490936860713
 20
121.6311490460224
 30
0.0
 11
134.8471910351172
 21
121.625677665551
 31
0.0
  0
LINE
  5
5BD
330
E3
100
AcDbEntity
  8
0
  6
Continuous
100
AcDbLine
 10
135.8471910351171
 20
121.4287079685813
 30
0.0
 11
135.845288384163
 21
121.4232365881099
 31
0.0
  0
LINE
  5
5BE
330
E3
100
AcDbEntity
  8
0
  6
Continuous
100
AcDbLine
 10
135.845288384163
 20
121.4232365881099
 30
0.0
 11
135.8395949116234
 21
121.4177652076386
 31
0.0
  0
LINE
  5
5BF
330
E3
100
AcDbEntity
  8
0
  6
Continuous
100
AcDbLine
 10
135.8395949116234
 20
121.4177652076386
 30
0.0
 11
135.8301536622552
 21
121.4122939734445
 31
0.0
  0
LINE
  5
5C0
330
E3
100
AcDbEntity
  8
0
  6
Continuous
100
AcDbLine
 10
135.8301536622552
 20
121.4122939734445
 30
0.0
 11
135.817036553233
 21
121.4068237965379
 31
0.0
  0
LINE
  5
5C1
330
E3
100
AcDbEntity
  8
0
  6
Continuous
100
AcDbLine
 10
135.817036553233
 20
121.4068237965379
 30
0.0
 11
135.8003461114465
 21
121.4013506418539
 31
0.0
  0
LINE
  5
5C2
330
E3
100
AcDbEntity
  8
0
  6
Continuous
100
AcDbLine
 10
135.8003461114465
 20
121.4013506418539
 30
0.0
 11
135.7802044257652
 21
121.3958804649472
 31
0.0
  0
LINE
  5
5C3
330
E3
100
AcDbEntity
  8
0
  6
Continuous
100
AcDbLine
 10
135.7802044257652
 20
121.3958804649472
 30
0.0
 11
135.7567663406088
 21
121.3904073102633
 31
0.0
  0
LINE
  5
5C4
330
E3
100
AcDbEntity
  8
0
  6
Continuous
100
AcDbLine
 10
135.7567663406088
 20
121.3904073102633
 30
0.0
 11
135.7302135003929
 21
121.3849371333566
 31
0.0
  0
LINE
  5
5C5
330
E3
100
AcDbEntity
  8
0
  6
Continuous
100
AcDbLine
 10
135.7302135003929
 20
121.3849371333566
 30
0.0
 11
135.7007454161969
 21
121.37946695645
 31
0.0
  0
LINE
  5
5C6
330
E3
100
AcDbEntity
  8
0
  6
Continuous
100
AcDbLine
 10
135.7007454161969
 20
121.37946695645
 30
0.0
 11
135.6685854213184
 21
121.3739938017661
 31
0.0
  0
LINE
  5
5C7
330
E3
100
AcDbEntity
  8
0
  6
Continuous
100
AcDbLine
 10
135.6685854213184
 20
121.3739938017661
 30
0.0
 11
135.6339806712736
 21
121.3685236248594
 31
0.0
  0
LINE
  5
5C8
330
E3
100
AcDbEntity
  8
0
  6
Continuous
100
AcDbLine
 10
135.6339806712736
 20
121.3685236248594
 30
0.0
 11
135.5971902326881
 21
121.3630504701755
 31
0.0
  0
LINE
  5
5C9
330
E3
100
AcDbEntity
  8
0
  6
Continuous
100
AcDbLine
 10
135.5971902326881
 20
121.3630504701755
 30
0.0
 11
135.5584999721829
 21
121.3575802932688
 31
0.0
  0
LINE
  5
5CA
330
E3
100
AcDbEntity
  8
0
  6
Continuous
100
AcDbLine
 10
135.5584999721829
 20
121.3575802932688
 30
0.0
 11
135.5182017119337
 21
121.3521101163622
 31
0.0
  0
LINE
  5
5CB
330
E3
100
AcDbEntity
  8
0
  6
Continuous
100
AcDbLine
 10
135.5182017119337
 20
121.3521101163622
 30
0.0
 11
135.4765991852256
 21
121.3466369616782
 31
0.0
  0
LINE
  5
5CC
330
E3
100
AcDbEntity
  8
0
  6
Continuous
100
AcDbLine
 10
135.4765991852256
 20
121.3466369616782
 30
0.0
 11
135.4340139920074
 21
121.3411667847716
 31
0.0
  0
LINE
  5
5CD
330
E3
100
AcDbEntity
  8
0
  6
Continuous
100
AcDbLine
 10
135.4340139920074
 20
121.3411667847716
 30
0.0
 11
135.3907677322277
 21
121.3356936300876
 31
0.0
  0
LINE
  5
5CE
330
E3
100
AcDbEntity
  8
0
  6
Continuous
100
AcDbLine
 10
135.3907677322277
 20
121.3356936300876
 30
0.0
 11
135.3471909391673
 21
121.330223453181
 31
0.0
  0
LINE
  5
5CF
330
E3
100
AcDbEntity
  8
0
  6
Continuous
100
AcDbLine
 10
135.3471909391673
 20
121.330223453181
 30
0.0
 11
135.303614146107
 21
121.324750298497
 31
0.0
  0
LINE
  5
5D0
330
E3
100
AcDbEntity
  8
0
  6
Continuous
100
AcDbLine
 10
135.303614146107
 20
121.324750298497
 30
0.0
 11
135.2603678863273
 21
121.3192801215904
 31
0.0
  0
LINE
  5
5D1
330
E3
100
AcDbEntity
  8
0
  6
Continuous
100
AcDbLine
 10
135.2603678863273
 20
121.3192801215904
 30
0.0
 11
135.2177826931091
 21
121.3138099446837
 31
0.0
  0
LINE
  5
5D2
330
E3
100
AcDbEntity
  8
0
  6
Continuous
100
AcDbLine
 10
135.2177826931091
 20
121.3138099446837
 30
0.0
 11
135.176180166401
 21
121.3083367899998
 31
0.0
  0
LINE
  5
5D3
330
E3
100
AcDbEntity
  8
0
  6
Continuous
100
AcDbLine
 10
135.176180166401
 20
121.3083367899998
 30
0.0
 11
135.1358819061518
 21
121.3028666130931
 31
0.0
  0
LINE
  5
5D4
330
E3
100
AcDbEntity
  8
0
  6
Continuous
100
AcDbLine
 10
135.1358819061518
 20
121.3028666130931
 30
0.0
 11
135.0971916456466
 21
121.2973934584092
 31
0.0
  0
LINE
  5
5D5
330
E3
100
AcDbEntity
  8
0
  6
Continuous
100
AcDbLine
 10
135.0971916456466
 20
121.2973934584092
 30
0.0
 11
135.0604041848384
 21
121.2919232815025
 31
0.0
  0
LINE
  5
5D6
330
E3
100
AcDbEntity
  8
0
  6
Continuous
100
AcDbLine
 10
135.0604041848384
 20
121.2919232815025
 30
0.0
 11
135.0257964570164
 21
121.2864531045959
 31
0.0
  0
LINE
  5
5D7
330
E3
100
AcDbEntity
  8
0
  6
Continuous
100
AcDbLine
 10
135.0257964570164
 20
121.2864531045959
 30
0.0
 11
134.9936364621379
 21
121.2809799499119
 31
0.0
  0
LINE
  5
5D8
330
E3
100
AcDbEntity
  8
0
  6
Continuous
100
AcDbLine
 10
134.9936364621379
 20
121.2809799499119
 30
0.0
 11
134.9641683779418
 21
121.2755097730053
 31
0.0
  0
LINE
  5
5D9
330
E3
100
AcDbEntity
  8
0
  6
Continuous
100
AcDbLine
 10
134.9641683779418
 20
121.2755097730053
 30
0.0
 11
134.9376155377259
 21
121.2700366183213
 31
0.0
  0
LINE
  5
5DA
330
E3
100
AcDbEntity
  8
0
  6
Continuous
100
AcDbLine
 10
134.9376155377259
 20
121.2700366183213
 30
0.0
 11
134.9141774525696
 21
121.2645664414147
 31
0.0
  0
LINE
  5
5DB
330
E3
100
AcDbEntity
  8
0
  6
Continuous
100
AcDbLine
 10
134.9141774525696
 20
121.2645664414147
 30
0.0
 11
134.8940357668882
 21
121.259096264508
 31
0.0
  0
LINE
  5
5DC
330
E3
100
AcDbEntity
  8
0
  6
Continuous
100
AcDbLine
 10
134.8940357668882
 20
121.259096264508
 30
0.0
 11
134.8773453251018
 21
121.2536231098241
 31
0.0
  0
LINE
  5
5DD
330
E3
100
AcDbEntity
  8
0
  6
Continuous
100
AcDbLine
 10
134.8773453251018
 20
121.2536231098241
 30
0.0
 11
134.8642282160796
 21
121.2481529329174
 31
0.0
  0
LINE
  5
5DE
330
E3
100
AcDbEntity
  8
0
  6
Continuous
100
AcDbLine
 10
134.8642282160796
 20
121.2481529329174
 30
0.0
 11
134.85478568425
 21
121.2426797782335
 31
0.0
  0
LINE
  5
5DF
330
E3
100
AcDbEntity
  8
0
  6
Continuous
100
AcDbLine
 10
134.85478568425
 20
121.2426797782335
 30
0.0
 11
134.8490936860713
 21
121.237209652083
 31
0.0
  0
LINE
  5
5E0
330
E3
100
AcDbEntity
  8
0
  6
Continuous
100
AcDbLine
 10
134.8490936860713
 20
121.237209652083
 30
0.0
 11
134.8471910351172
 21
121.2317382716116
 31
0.0
  0
LINE
  5
5E1
330
E3
100
AcDbEntity
  8
0
  6
Continuous
100
AcDbLine
 10
135.8471910351171
 20
121.0347685746419
 30
0.0
 11
135.845288384163
 21
121.0292971941706
 31
0.0
  0
LINE
  5
5E2
330
E3
100
AcDbEntity
  8
0
  6
Continuous
100
AcDbLine
 10
135.845288384163
 20
121.0292971941706
 30
0.0
 11
135.8395949116234
 21
121.0238258136992
 31
0.0
  0
LINE
  5
5E3
330
E3
100
AcDbEntity
  8
0
  6
Continuous
100
AcDbLine
 10
135.8395949116234
 20
121.0238258136992
 30
0.0
 11
135.8301536622552
 21
121.0183548806241
 31
0.0
  0
LINE
  5
5E4
330
E3
100
AcDbEntity
  8
0
  6
Continuous
100
AcDbLine
 10
135.8301536622552
 20
121.0183548806241
 30
0.0
 11
135.817036553233
 21
121.0128817259401
 31
0.0
  0
LINE
  5
5E5
330
E3
100
AcDbEntity
  8
0
  6
Continuous
100
AcDbLine
 10
135.817036553233
 20
121.0128817259401
 30
0.0
 11
135.8003461114465
 21
121.0074115490334
 31
0.0
  0
LINE
  5
5E6
330
E3
100
AcDbEntity
  8
0
  6
Continuous
100
AcDbLine
 10
135.8003461114465
 20
121.0074115490334
 30
0.0
 11
135.7802044257652
 21
121.0019413721268
 31
0.0
  0
LINE
  5
5E7
330
E3
100
AcDbEntity
  8
0
  6
Continuous
100
AcDbLine
 10
135.7802044257652
 20
121.0019413721268
 30
0.0
 11
135.7567663406088
 21
120.9964682174429
 31
0.0
  0
LINE
  5
5E8
330
E3
100
AcDbEntity
  8
0
  6
Continuous
100
AcDbLine
 10
135.7567663406088
 20
120.9964682174429
 30
0.0
 11
135.7302135003929
 21
120.9909980405362
 31
0.0
  0
LINE
  5
5E9
330
E3
100
AcDbEntity
  8
0
  6
Continuous
100
AcDbLine
 10
135.7302135003929
 20
120.9909980405362
 30
0.0
 11
135.7007454161969
 21
120.9855248858523
 31
0.0
  0
LINE
  5
5EA
330
E3
100
AcDbEntity
  8
0
  6
Continuous
100
AcDbLine
 10
135.7007454161969
 20
120.9855248858523
 30
0.0
 11
135.6685854213184
 21
120.9800547089456
 31
0.0
  0
LINE
  5
5EB
330
E3
100
AcDbEntity
  8
0
  6
Continuous
100
AcDbLine
 10
135.6685854213184
 20
120.9800547089456
 30
0.0
 11
135.6339806712736
 21
120.974584532039
 31
0.0
  0
LINE
  5
5EC
330
E3
100
AcDbEntity
  8
0
  6
Continuous
100
AcDbLine
 10
135.6339806712736
 20
120.974584532039
 30
0.0
 11
135.5971902326881
 21
120.969111377355
 31
0.0
  0
LINE
  5
5ED
330
E3
100
AcDbEntity
  8
0
  6
Continuous
100
AcDbLine
 10
135.5971902326881
 20
120.969111377355
 30
0.0
 11
135.5584999721829
 21
120.9636412004484
 31
0.0
  0
LINE
  5
5EE
330
E3
100
AcDbEntity
  8
0
  6
Continuous
100
AcDbLine
 10
135.5584999721829
 20
120.9636412004484
 30
0.0
 11
135.5182017119337
 21
120.9581680457644
 31
0.0
  0
LINE
  5
5EF
330
E3
100
AcDbEntity
  8
0
  6
Continuous
100
AcDbLine
 10
135.5182017119337
 20
120.9581680457644
 30
0.0
 11
135.4765991852256
 21
120.9526978688578
 31
0.0
  0
LINE
  5
5F0
330
E3
100
AcDbEntity
  8
0
  6
Continuous
100
AcDbLine
 10
135.4765991852256
 20
120.9526978688578
 30
0.0
 11
135.4340139920074
 21
120.9472276919511
 31
0.0
  0
LINE
  5
5F1
330
E3
100
AcDbEntity
  8
0
  6
Continuous
100
AcDbLine
 10
135.4340139920074
 20
120.9472276919511
 30
0.0
 11
135.3907677322277
 21
120.9417545372672
 31
0.0
  0
LINE
  5
5F2
330
E3
100
AcDbEntity
  8
0
  6
Continuous
100
AcDbLine
 10
135.3907677322277
 20
120.9417545372672
 30
0.0
 11
135.3471909391673
 21
120.9362843603605
 31
0.0
  0
LINE
  5
5F3
330
E3
100
AcDbEntity
  8
0
  6
Continuous
100
AcDbLine
 10
135.3471909391673
 20
120.9362843603605
 30
0.0
 11
135.303614146107
 21
120.9308112056766
 31
0.0
  0
LINE
  5
5F4
330
E3
100
AcDbEntity
  8
0
  6
Continuous
100
AcDbLine
 10
135.303614146107
 20
120.9308112056766
 30
0.0
 11
135.2603678863273
 21
120.9253410287699
 31
0.0
  0
LINE
  5
5F5
330
E3
100
AcDbEntity
  8
0
  6
Continuous
100
AcDbLine
 10
135.2603678863273
 20
120.9253410287699
 30
0.0
 11
135.2177826931091
 21
120.9198708518633
 31
0.0
  0
LINE
  5
5F6
330
E3
100
AcDbEntity
  8
0
  6
Continuous
100
AcDbLine
 10
135.2177826931091
 20
120.9198708518633
 30
0.0
 11
135.176180166401
 21
120.9143976971793
 31
0.0
  0
LINE
  5
5F7
330
E3
100
AcDbEntity
  8
0
  6
Continuous
100
AcDbLine
 10
135.176180166401
 20
120.9143976971793
 30
0.0
 11
135.1358819061518
 21
120.9089275202727
 31
0.0
  0
LINE
  5
5F8
330
E3
100
AcDbEntity
  8
0
  6
Continuous
100
AcDbLine
 10
135.1358819061518
 20
120.9089275202727
 30
0.0
 11
135.0971916456466
 21
120.9034543655887
 31
0.0
  0
LINE
  5
5F9
330
E3
100
AcDbEntity
  8
0
  6
Continuous
100
AcDbLine
 10
135.0971916456466
 20
120.9034543655887
 30
0.0
 11
135.0604041848384
 21
120.8979841886821
 31
0.0
  0
LINE
  5
5FA
330
E3
100
AcDbEntity
  8
0
  6
Continuous
100
AcDbLine
 10
135.0604041848384
 20
120.8979841886821
 30
0.0
 11
135.0257964570164
 21
120.8925140117754
 31
0.0
  0
LINE
  5
5FB
330
E3
100
AcDbEntity
  8
0
  6
Continuous
100
AcDbLine
 10
135.0257964570164
 20
120.8925140117754
 30
0.0
 11
134.9936364621379
 21
120.8870408570915
 31
0.0
  0
LINE
  5
5FC
330
E3
100
AcDbEntity
  8
0
  6
Continuous
100
AcDbLine
 10
134.9936364621379
 20
120.8870408570915
 30
0.0
 11
134.9641683779418
 21
120.8815706801848
 31
0.0
  0
LINE
  5
5FD
330
E3
100
AcDbEntity
  8
0
  6
Continuous
100
AcDbLine
 10
134.9641683779418
 20
120.8815706801848
 30
0.0
 11
134.9376155377259
 21
120.8760975255009
 31
0.0
  0
LINE
  5
5FE
330
E3
100
AcDbEntity
  8
0
  6
Continuous
100
AcDbLine
 10
134.9376155377259
 20
120.8760975255009
 30
0.0
 11
134.9141774525696
 21
120.8706273485942
 31
0.0
  0
LINE
  5
5FF
330
E3
100
AcDbEntity
  8
0
  6
Continuous
100
AcDbLine
 10
134.9141774525696
 20
120.8706273485942
 30
0.0
 11
134.8940357668882
 21
120.8651571716876
 31
0.0
  0
LINE
  5
600
330
E3
100
AcDbEntity
  8
0
  6
Continuous
100
AcDbLine
 10
134.8940357668882
 20
120.8651571716876
 30
0.0
 11
134.8773453251018
 21
120.8596840170036
 31
0.0
  0
LINE
  5
601
330
E3
100
AcDbEntity
  8
0
  6
Continuous
100
AcDbLine
 10
134.8773453251018
 20
120.8596840170036
 30
0.0
 11
134.8642282160796
 21
120.854213840097
 31
0.0
  0
LINE
  5
602
330
E3
100
AcDbEntity
  8
0
  6
Continuous
100
AcDbLine
 10
134.8642282160796
 20
120.854213840097
 30
0.0
 11
134.85478568425
 21
120.848740685413
 31
0.0
  0
LINE
  5
603
330
E3
100
AcDbEntity
  8
0
  6
Continuous
100
AcDbLine
 10
134.85478568425
 20
120.848740685413
 30
0.0
 11
134.8490936860713
 21
120.8432702581436
 31
0.0
  0
LINE
  5
604
330
E3
100
AcDbEntity
  8
0
  6
Continuous
100
AcDbLine
 10
134.8490936860713
 20
120.8432702581436
 30
0.0
 11
134.8471910351172
 21
120.8377988776722
 31
0.0
  0
LINE
  5
605
330
E3
100
AcDbEntity
  8
0
  6
Continuous
100
AcDbLine
 10
135.8471910351171
 20
120.6408291807025
 30
0.0
 11
135.845288384163
 21
120.6353578002312
 31
0.0
  0
LINE
  5
606
330
E3
100
AcDbEntity
  8
0
  6
Continuous
100
AcDbLine
 10
135.845288384163
 20
120.6353578002312
 30
0.0
 11
135.8395949116234
 21
120.6298864197598
 31
0.0
  0
LINE
  5
607
330
E3
100
AcDbEntity
  8
0
  6
Continuous
100
AcDbLine
 10
135.8395949116234
 20
120.6298864197598
 30
0.0
 11
135.8301536622552
 21
120.6244157878036
 31
0.0
  0
LINE
  5
608
330
E3
100
AcDbEntity
  8
0
  6
Continuous
100
AcDbLine
 10
135.8301536622552
 20
120.6244157878036
 30
0.0
 11
135.817036553233
 21
120.6189426331197
 31
0.0
  0
LINE
  5
609
330
E3
100
AcDbEntity
  8
0
  6
Continuous
100
AcDbLine
 10
135.817036553233
 20
120.6189426331197
 30
0.0
 11
135.8003461114465
 21
120.613472456213
 31
0.0
  0
LINE
  5
60A
330
E3
100
AcDbEntity
  8
0
  6
Continuous
100
AcDbLine
 10
135.8003461114465
 20
120.613472456213
 30
0.0
 11
135.7802044257652
 21
120.6080022793064
 31
0.0
  0
LINE
  5
60B
330
E3
100
AcDbEntity
  8
0
  6
Continuous
100
AcDbLine
 10
135.7802044257652
 20
120.6080022793064
 30
0.0
 11
135.7567663406088
 21
120.6025291246224
 31
0.0
  0
LINE
  5
60C
330
E3
100
AcDbEntity
  8
0
  6
Continuous
100
AcDbLine
 10
135.7567663406088
 20
120.6025291246224
 30
0.0
 11
135.7302135003929
 21
120.5970589477158
 31
0.0
  0
LINE
  5
60D
330
E3
100
AcDbEntity
  8
0
  6
Continuous
100
AcDbLine
 10
135.7302135003929
 20
120.5970589477158
 30
0.0
 11
135.7007454161969
 21
120.5915857930318
 31
0.0
  0
LINE
  5
60E
330
E3
100
AcDbEntity
  8
0
  6
Continuous
100
AcDbLine
 10
135.7007454161969
 20
120.5915857930318
 30
0.0
 11
135.6685854213184
 21
120.5861156161252
 31
0.0
  0
LINE
  5
60F
330
E3
100
AcDbEntity
  8
0
  6
Continuous
100
AcDbLine
 10
135.6685854213184
 20
120.5861156161252
 30
0.0
 11
135.6339806712736
 21
120.5806454392185
 31
0.0
  0
LINE
  5
610
330
E3
100
AcDbEntity
  8
0
  6
Continuous
100
AcDbLine
 10
135.6339806712736
 20
120.5806454392185
 30
0.0
 11
135.5971902326881
 21
120.5751722845346
 31
0.0
  0
LINE
  5
611
330
E3
100
AcDbEntity
  8
0
  6
Continuous
100
AcDbLine
 10
135.5971902326881
 20
120.5751722845346
 30
0.0
 11
135.5584999721829
 21
120.5697021076279
 31
0.0
  0
LINE
  5
612
330
E3
100
AcDbEntity
  8
0
  6
Continuous
100
AcDbLine
 10
135.5584999721829
 20
120.5697021076279
 30
0.0
 11
135.5182017119337
 21
120.564228952944
 31
0.0
  0
LINE
  5
613
330
E3
100
AcDbEntity
  8
0
  6
Continuous
100
AcDbLine
 10
135.5182017119337
 20
120.564228952944
 30
0.0
 11
135.4765991852256
 21
120.5587587760374
 31
0.0
  0
LINE
  5
614
330
E3
100
AcDbEntity
  8
0
  6
Continuous
100
AcDbLine
 10
135.4765991852256
 20
120.5587587760374
 30
0.0
 11
135.4340139920074
 21
120.5532856213534
 31
0.0
  0
LINE
  5
615
330
E3
100
AcDbEntity
  8
0
  6
Continuous
100
AcDbLine
 10
135.4340139920074
 20
120.5532856213534
 30
0.0
 11
135.3907677322277
 21
120.5478154444467
 31
0.0
  0
LINE
  5
616
330
E3
100
AcDbEntity
  8
0
  6
Continuous
100
AcDbLine
 10
135.3907677322277
 20
120.5478154444467
 30
0.0
 11
135.3471909391673
 21
120.5423452675401
 31
0.0
  0
LINE
  5
617
330
E3
100
AcDbEntity
  8
0
  6
Continuous
100
AcDbLine
 10
135.3471909391673
 20
120.5423452675401
 30
0.0
 11
135.303614146107
 21
120.5368721128561
 31
0.0
  0
LINE
  5
618
330
E3
100
AcDbEntity
  8
0
  6
Continuous
100
AcDbLine
 10
135.303614146107
 20
120.5368721128561
 30
0.0
 11
135.2603678863273
 21
120.5314019359495
 31
0.0
  0
LINE
  5
619
330
E3
100
AcDbEntity
  8
0
  6
Continuous
100
AcDbLine
 10
135.2603678863273
 20
120.5314019359495
 30
0.0
 11
135.2177826931091
 21
120.5259287812655
 31
0.0
  0
LINE
  5
61A
330
E3
100
AcDbEntity
  8
0
  6
Continuous
100
AcDbLine
 10
135.2177826931091
 20
120.5259287812655
 30
0.0
 11
135.176180166401
 21
120.5204586043589
 31
0.0
  0
LINE
  5
61B
330
E3
100
AcDbEntity
  8
0
  6
Continuous
100
AcDbLine
 10
135.176180166401
 20
120.5204586043589
 30
0.0
 11
135.1358819061518
 21
120.5149884274522
 31
0.0
  0
LINE
  5
61C
330
E3
100
AcDbEntity
  8
0
  6
Continuous
100
AcDbLine
 10
135.1358819061518
 20
120.5149884274522
 30
0.0
 11
135.0971916456466
 21
120.5095152727683
 31
0.0
  0
LINE
  5
61D
330
E3
100
AcDbEntity
  8
0
  6
Continuous
100
AcDbLine
 10
135.0971916456466
 20
120.5095152727683
 30
0.0
 11
135.0604041848384
 21
120.5040450958616
 31
0.0
  0
LINE
  5
61E
330
E3
100
AcDbEntity
  8
0
  6
Continuous
100
AcDbLine
 10
135.0604041848384
 20
120.5040450958616
 30
0.0
 11
135.0257964570164
 21
120.4985719411777
 31
0.0
  0
LINE
  5
61F
330
E3
100
AcDbEntity
  8
0
  6
Continuous
100
AcDbLine
 10
135.0257964570164
 20
120.4985719411777
 30
0.0
 11
134.9936364621379
 21
120.493101764271
 31
0.0
  0
LINE
  5
620
330
E3
100
AcDbEntity
  8
0
  6
Continuous
100
AcDbLine
 10
134.9936364621379
 20
120.493101764271
 30
0.0
 11
134.9641683779418
 21
120.4876315873644
 31
0.0
  0
LINE
  5
621
330
E3
100
AcDbEntity
  8
0
  6
Continuous
100
AcDbLine
 10
134.9641683779418
 20
120.4876315873644
 30
0.0
 11
134.9376155377259
 21
120.4821584326804
 31
0.0
  0
LINE
  5
622
330
E3
100
AcDbEntity
  8
0
  6
Continuous
100
AcDbLine
 10
134.9376155377259
 20
120.4821584326804
 30
0.0
 11
134.9141774525696
 21
120.4766882557738
 31
0.0
  0
LINE
  5
623
330
E3
100
AcDbEntity
  8
0
  6
Continuous
100
AcDbLine
 10
134.9141774525696
 20
120.4766882557738
 30
0.0
 11
134.8940357668882
 21
120.4712151010899
 31
0.0
  0
LINE
  5
624
330
E3
100
AcDbEntity
  8
0
  6
Continuous
100
AcDbLine
 10
134.8940357668882
 20
120.4712151010899
 30
0.0
 11
134.8773453251018
 21
120.4657449241832
 31
0.0
  0
LINE
  5
625
330
E3
100
AcDbEntity
  8
0
  6
Continuous
100
AcDbLine
 10
134.8773453251018
 20
120.4657449241832
 30
0.0
 11
134.8642282160796
 21
120.4602747472766
 31
0.0
  0
LINE
  5
626
330
E3
100
AcDbEntity
  8
0
  6
Continuous
100
AcDbLine
 10
134.8642282160796
 20
120.4602747472766
 30
0.0
 11
134.85478568425
 21
120.4548015925926
 31
0.0
  0
MTEXT
  5
627
330
E3
100
AcDbEntity
  8
Doc_ Floor
  6
Continuous
100
AcDbMText
 10
100.5528247465177
 20
117.0986402158567
 30
0.0
 40
2.5
 41
0.0
 71
     6
 72
     1
  1
{ROOF FIXING}
  7
GENERATED_STYLE_1
 73
     1
 44
1.0
  0
LINE
  5
628
330
E3
100
AcDbEntity
  8
Doc_ Floor
  6
Continuous
100
AcDbLine
 10
121.6962766241977
 20
120.5674419746545
 30
0.0
 11
118.4877483796028
 21
118.4148752507859
 31
0.0
  0
LINE
  5
629
330
E3
100
AcDbEntity
  8
Doc_ Floor
  6
Continuous
100
AcDbLine
 10
121.6962766241977
 20
120.5674419746545
 30
0.0
 11
117.8413265269905
 21
120.3075296604902
 31
0.0
  0
LINE
  5
62A
330
E3
100
AcDbEntity
  8
Doc_ Floor
  6
Continuous
100
AcDbLine
 10
118.4877483796028
 20
118.4148752507859
 30
0.0
 11
117.8413265269905
 21
120.3075296604902
 31
0.0
  0
LWPOLYLINE
  5
62B
330
E3
100
AcDbEntity
  8
Doc_ Floor
  6
Continuous
100
AcDbPolyline
 90
        5
 70
   128
 43
0.0
 10
118.1645364162677
 20
119.3612028493952
 10
114.255609476759
 20
118.311505371597
 10
110.3605713617633
 20
117.6178801861039
 10
106.2145878565824
 20
117.2349683209307
 10
101.5528247465178
 20
117.117410804092
  0
ENDBLK
  5
E5
330
E3
100
AcDbEntity
  8
0
100
AcDbBlockEnd
  0
BLOCK
  5
631
330
630
100
AcDbEntity
  8
0
100
AcDbBlockBegin
  2
R-TRS9-09 APRON DETAIL - SIDE_STORY_MARKER
 70
     0
 10
0.0
 20
0.0
 30
0.0
  3
R-TRS9-09 APRON DETAIL - SIDE_STORY_MARKER
  1

  0
ENDBLK
  5
632
330
630
100
AcDbEntity
  8
0
100
AcDbBlockEnd
  0
ENDSEC
  0
SECTION
  2
ENTITIES
  0
HATCH
  5
3F
330
1F
100
AcDbEntity
  8
Doc_ Finishes
  6
Continuous
100
AcDbHatch
 10
0.0
 20
0.0
 30
0.0
210
0.0
220
0.0
230
1.0
  2
SOLID
 70
     1
 71
     0
 91
        1
 92
        3
 72
     0
 73
     1
 93
       54
 10
27.4117749414874
 20
16.87044408857867
 10
26.89356552397386
 20
16.5825499677378
 10
26.5480925789648
 20
16.29465584689693
 10
26.12584786839819
 20
16.02595466744544
 10
25.76118198199976
 20
15.60370995687884
 10
25.39651609560134
 20
15.33500877742737
 10
25.07023609198168
 20
14.89357112547136
 10
24.49444785029994
 20
14.45213347351537
 10
23.93785255000758
 20
14.02988876294876
 10
23.43883607388344
 20
13.81876640766546
 10
22.74789018386533
 20
13.39652169709885
 10
22.09533017662603
 20
12.99346992792163
 10
21.63469958328064
 20
12.55203227596564
 10
20.90536781048376
 20
12.12978756539902
 10
20.59828074825351
 20
11.7459287376112
 10
20.04168544796116
 20
11.28529814426581
 10
19.36993249933246
 20
10.8630534336992
 10
18.73656543348255
 20
10.42161578174319
 10
18.04561954346447
 20
10.15291460229172
 10
17.1051654153843
 20
9.692284008946325
 10
16.39502658397681
 20
9.020531060317637
 10
15.83843128368446
 20
8.598286349751023
 10
15.12829245227699
 20
8.137655756405634
 10
14.84039833143612
 20
7.98411222529051
 10
14.37976773809073
 20
7.81137575278599
 10
14.07268067586046
 20
7.523481631945121
 10
14.0151018516923
 20
7.216394569714853
 10
14.14945244141803
 20
6.890114566095209
 10
14.4373465622589
 20
6.563834562475543
 10
14.8787842142149
 20
6.659799269422514
 10
15.51215128006482
 20
7.06285103859973
 10
16.01116775618899
 20
7.389131042219374
 10
16.33744775980864
 20
7.696218104449641
 10
16.51018423231316
 20
7.907340459732938
 10
17.01303929671522
 20
8.421711288968723
 10
17.33548071205699
 20
8.652026585641417
 10
17.75004824606785
 20
8.99749953065046
 10
18.14158425041142
 20
9.204783297655894
 10
19.24709767444037
 20
9.75754000967037
 10
20.23745345013295
 20
10.47151742935572
 10
21.4120614631637
 20
11.1624633193738
 10
21.84966052684182
 20
11.64612544238645
 10
22.49454335752537
 20
12.06069297639732
 10
23.78430901889248
 20
12.9819541630881
 10
24.3600972605742
 20
13.25833251909534
 10
25.6498629219413
 20
14.24868829478776
 10
25.85714668894673
 20
14.64022429913134
 10
26.68628175696843
 20
15.23904407048036
 10
27.28510152831745
 20
15.72270619349301
 10
27.81482671066464
 20
16.1142421978366
 10
28.27545730401003
 20
16.52880973184745
 10
28.22939424467549
 20
16.7821565581874
 10
28.09120506667188
 20
16.89731420652375
 10
27.56147988432467
 20
16.89731420652375
 97
        0
 75
     0
 76
     1
 98
        0
  0
LINE
  5
41
330
1F
100
AcDbEntity
  8
Doc_ Finishes
  6
Continuous
100
AcDbLine
 10
27.41177566876475
 20
16.87044600708104
 30
0.0
 11
26.89356756490952
 21
16.58254868214004
 31
0.0
  0
LINE
  5
42
330
1F
100
AcDbEntity
  8
Doc_ Finishes
  6
Continuous
100
AcDbLine
 10
26.89356756490952
 20
16.58254868214004
 30
0.0
 11
26.54809254523997
 21
16.29465578284815
 31
0.0
  0
LINE
  5
43
330
1F
100
AcDbEntity
  8
Doc_ Finishes
  6
Continuous
100
AcDbLine
 10
26.54809254523997
 20
16.29465578284815
 30
0.0
 11
26.12584579071597
 21
16.02595249803305
 31
0.0
  0
LINE
  5
44
330
1F
100
AcDbEntity
  8
Doc_ Finishes
  6
Continuous
100
AcDbLine
 10
26.12584579071597
 20
16.02595249803305
 30
0.0
 11
25.76118115656963
 21
15.60371016915814
 31
0.0
  0
LINE
  5
45
330
1F
100
AcDbEntity
  8
Doc_ Finishes
  6
Continuous
100
AcDbLine
 10
25.76118115656963
 20
15.60371016915814
 30
0.0
 11
25.39651652242329
 21
15.33500688434304
 31
0.0
  0
LINE
  5
46
330
1F
100
AcDbEntity
  8
Doc_ Finishes
  6
Continuous
100
AcDbLine
 10
25.39651652242329
 20
15.33500688434304
 30
0.0
 11
25.07023554287962
 21
14.89357051534225
 31
0.0
  0
LINE
  5
47
330
1F
100
AcDbEntity
  8
Doc_ Finishes
  6
Continuous
100
AcDbLine
 10
25.07023554287962
 20
14.89357051534225
 30
0.0
 11
24.49444974429583
 21
14.45213414634146
 31
0.0
  0
LINE
  5
48
330
1F
100
AcDbEntity
  8
Doc_ Finishes
  6
Continuous
100
AcDbLine
 10
24.49444974429583
 20
14.45213414634146
 30
0.0
 11
23.93785356018882
 21
14.02988739181747
 31
0.0
  0
LINE
  5
49
330
1F
100
AcDbEntity
  8
Doc_ Finishes
  6
Continuous
100
AcDbLine
 10
23.93785356018882
 20
14.02988739181747
 30
0.0
 11
23.43883507081038
 21
13.81876622738001
 31
0.0
  0
LINE
  5
4A
330
1F
100
AcDbEntity
  8
Doc_ Finishes
  6
Continuous
100
AcDbLine
 10
23.43883507081038
 20
13.81876622738001
 30
0.0
 11
22.74788945712038
 21
13.39652389850511
 31
0.0
  0
LINE
  5
4B
330
1F
100
AcDbEntity
  8
Doc_ Finishes
  6
Continuous
100
AcDbLine
 10
22.74788945712038
 20
13.39652389850511
 30
0.0
 11
22.09533192368214
 21
12.993471184107
 31
0.0
  0
LINE
  5
4C
330
1F
100
AcDbEntity
  8
Doc_ Finishes
  6
Continuous
100
AcDbLine
 10
22.09533192368214
 20
12.993471184107
 30
0.0
 11
21.63470151455547
 21
12.55203038945712
 31
0.0
  0
LINE
  5
4D
330
1F
100
AcDbEntity
  8
Doc_ Finishes
  6
Continuous
100
AcDbLine
 10
21.63470151455547
 20
12.55203038945712
 30
0.0
 11
20.90536782061369
 21
12.12978806058222
 31
0.0
  0
LINE
  5
4E
330
1F
100
AcDbEntity
  8
Doc_ Finishes
  6
Continuous
100
AcDbLine
 10
20.90536782061369
 20
12.12978806058222
 30
0.0
 11
20.59828088119591
 21
11.74592938630999
 31
0.0
  0
LINE
  5
4F
330
1F
100
AcDbEntity
  8
Doc_ Finishes
  6
Continuous
100
AcDbLine
 10
20.59828088119591
 20
11.74592938630999
 30
0.0
 11
20.0416846970889
 21
11.28529897718332
 31
0.0
  0
LINE
  5
50
330
1F
100
AcDbEntity
  8
Doc_ Finishes
  6
Continuous
100
AcDbLine
 10
20.0416846970889
 20
11.28529897718332
 30
0.0
 11
19.36993312352478
 21
10.86305222265932
 31
0.0
  0
LINE
  5
51
330
1F
100
AcDbEntity
  8
Doc_ Finishes
  6
Continuous
100
AcDbLine
 10
19.36993312352478
 20
10.86305222265932
 30
0.0
 11
18.73656520456333
 21
10.42161585365854
 31
0.0
  0
LINE
  5
52
330
1F
100
AcDbEntity
  8
Doc_ Finishes
  6
Continuous
100
AcDbLine
 10
18.73656520456333
 20
10.42161585365854
 30
0.0
 11
18.04561959087333
 21
10.15291256884343
 31
0.0
  0
LINE
  5
53
330
1F
100
AcDbEntity
  8
Doc_ Finishes
  6
Continuous
100
AcDbLine
 10
18.04561959087333
 20
10.15291256884343
 30
0.0
 11
17.1051647324941
 21
9.692282159716758
 31
0.0
  0
LINE
  5
54
330
1F
100
AcDbEntity
  8
Doc_ Finishes
  6
Continuous
100
AcDbLine
 10
17.1051647324941
 20
9.692282159716758
 30
0.0
 11
16.3950250786782
 21
9.020530586152635
 31
0.0
  0
LINE
  5
55
330
1F
100
AcDbEntity
  8
Doc_ Finishes
  6
Continuous
100
AcDbLine
 10
16.3950250786782
 20
9.020530586152635
 30
0.0
 11
15.8384333202203
 21
8.598288257277733
 31
0.0
  0
LINE
  5
56
330
1F
100
AcDbEntity
  8
Doc_ Finishes
  6
Continuous
100
AcDbLine
 10
15.8384333202203
 20
8.598288257277733
 30
0.0
 11
15.1282936664044
 21
8.137657848151063
 31
0.0
  0
LINE
  5
57
330
1F
100
AcDbEntity
  8
Doc_ Finishes
  6
Continuous
100
AcDbLine
 10
15.1282936664044
 20
8.137657848151063
 30
0.0
 11
14.84039634146341
 21
7.984114378442171
 31
0.0
  0
LINE
  5
58
330
1F
100
AcDbEntity
  8
Doc_ Finishes
  6
Continuous
100
AcDbLine
 10
14.84039634146341
 20
7.984114378442171
 30
0.0
 11
14.37976593233674
 21
7.811376868607396
 31
0.0
  0
LINE
  5
59
330
1F
100
AcDbEntity
  8
Doc_ Finishes
  6
Continuous
100
AcDbLine
 10
14.37976593233674
 20
7.811376868607396
 30
0.0
 11
14.07267899291896
 21
7.523479543666405
 31
0.0
  0
LINE
  5
5A
330
1F
100
AcDbEntity
  8
Doc_ Finishes
  6
Continuous
100
AcDbLine
 10
14.07267899291896
 20
7.523479543666405
 30
0.0
 11
14.0151012981904
 21
7.216392604248622
 31
0.0
  0
LINE
  5
5B
330
1F
100
AcDbEntity
  8
Doc_ Finishes
  6
Continuous
100
AcDbLine
 10
14.0151012981904
 20
7.216392604248622
 30
0.0
 11
14.14945072777341
 21
6.890116050354051
 31
0.0
  0
LINE
  5
5C
330
1F
100
AcDbEntity
  8
Doc_ Finishes
  6
Continuous
100
AcDbLine
 10
14.14945072777341
 20
6.890116050354051
 30
0.0
 11
14.4373480527144
 21
6.563835070810386
 31
0.0
  0
LINE
  5
5D
330
1F
100
AcDbEntity
  8
Doc_ Finishes
  6
Continuous
100
AcDbLine
 10
14.4373480527144
 20
6.563835070810386
 30
0.0
 11
14.87878442171519
 21
6.659800845790715
 31
0.0
  0
LINE
  5
5E
330
1F
100
AcDbEntity
  8
Doc_ Finishes
  6
Continuous
100
AcDbLine
 10
14.87878442171519
 20
6.659800845790715
 30
0.0
 11
15.51215234067663
 21
7.062849134539732
 31
0.0
  0
LINE
  5
5F
330
1F
100
AcDbEntity
  8
Doc_ Finishes
  6
Continuous
100
AcDbLine
 10
15.51215234067663
 20
7.062849134539732
 30
0.0
 11
16.01116640440598
 21
7.389130114083398
 31
0.0
  0
LINE
  5
60
330
1F
100
AcDbEntity
  8
Doc_ Finishes
  6
Continuous
100
AcDbLine
 10
16.01116640440598
 20
7.389130114083398
 30
0.0
 11
16.33744738394964
 21
7.69621705350118
 31
0.0
  0
LINE
  5
61
330
1F
100
AcDbEntity
  8
Doc_ Finishes
  6
Continuous
100
AcDbLine
 10
16.33744738394964
 20
7.69621705350118
 30
0.0
 11
16.51018489378442
 21
7.907342643587726
 31
0.0
  0
LINE
  5
62
330
1F
100
AcDbEntity
  8
Doc_ Finishes
  6
Continuous
100
AcDbLine
 10
16.51018489378442
 20
7.907342643587726
 30
0.0
 11
17.0130404209284
 21
8.421709284028323
 31
0.0
  0
LINE
  5
63
330
1F
100
AcDbEntity
  8
Doc_ Finishes
  6
Continuous
100
AcDbLine
 10
17.0130404209284
 20
8.421709284028323
 30
0.0
 11
17.33547993705743
 21
8.65202448859166
 31
0.0
  0
LINE
  5
64
330
1F
100
AcDbEntity
  8
Doc_ Finishes
  6
Continuous
100
AcDbLine
 10
17.33547993705743
 20
8.65202448859166
 30
0.0
 11
17.75004819040126
 21
8.997499508261212
 31
0.0
  0
LINE
  5
65
330
1F
100
AcDbEntity
  8
Doc_ Finishes
  6
Continuous
100
AcDbLine
 10
17.75004819040126
 20
8.997499508261212
 30
0.0
 11
18.14158536585366
 21
9.204783634933122
 31
0.0
  0
LINE
  5
66
330
1F
100
AcDbEntity
  8
Doc_ Finishes
  6
Continuous
100
AcDbLine
 10
18.14158536585366
 20
9.204783634933122
 30
0.0
 11
19.24709923288749
 21
9.75753835562549
 31
0.0
  0
LINE
  5
67
330
1F
100
AcDbEntity
  8
Doc_ Finishes
  6
Continuous
100
AcDbLine
 10
19.24709923288749
 20
9.75753835562549
 30
0.0
 11
20.23745328481511
 21
10.47151947285602
 31
0.0
  0
LINE
  5
68
330
1F
100
AcDbEntity
  8
Doc_ Finishes
  6
Continuous
100
AcDbLine
 10
20.23745328481511
 20
10.47151947285602
 30
0.0
 11
21.41206038552321
 21
11.16246508654602
 31
0.0
  0
LINE
  5
69
330
1F
100
AcDbEntity
  8
Doc_ Finishes
  6
Continuous
100
AcDbLine
 10
21.41206038552321
 20
11.16246508654602
 30
0.0
 11
21.84965971675846
 21
11.64612657356412
 31
0.0
  0
LINE
  5
6A
330
1F
100
AcDbEntity
  8
Doc_ Finishes
  6
Continuous
100
AcDbLine
 10
21.84965971675846
 20
11.64612657356412
 30
0.0
 11
22.49454317466562
 21
12.06069482690795
 31
0.0
  0
LINE
  5
6B
330
1F
100
AcDbEntity
  8
Doc_ Finishes
  6
Continuous
100
AcDbLine
 10
22.49454317466562
 20
12.06069482690795
 30
0.0
 11
23.78431009047993
 21
12.98195564516129
 31
0.0
  0
LINE
  5
6C
330
1F
100
AcDbEntity
  8
Doc_ Finishes
  6
Continuous
100
AcDbLine
 10
23.78431009047993
 20
12.98195564516129
 30
0.0
 11
24.36009588906373
 21
13.25833300550747
 31
0.0
  0
LINE
  5
6D
330
1F
100
AcDbEntity
  8
Doc_ Finishes
  6
Continuous
100
AcDbLine
 10
24.36009588906373
 20
13.25833300550747
 30
0.0
 11
25.64986280487805
 21
14.24868705743509
 31
0.0
  0
LINE
  5
6E
330
1F
100
AcDbEntity
  8
Doc_ Finishes
  6
Continuous
100
AcDbLine
 10
25.64986280487805
 20
14.24868705743509
 30
0.0
 11
25.85714693154996
 21
14.64022423288749
 31
0.0
  0
LINE
  5
6F
330
1F
100
AcDbEntity
  8
Doc_ Finishes
  6
Continuous
100
AcDbLine
 10
25.85714693154996
 20
14.64022423288749
 30
0.0
 11
26.68628343823761
 21
15.2390455350118
 31
0.0
  0
LINE
  5
70
330
1F
100
AcDbEntity
  8
Doc_ Finishes
  6
Continuous
100
AcDbLine
 10
26.68628343823761
 20
15.2390455350118
 30
0.0
 11
27.28510031471282
 21
15.7227070220299
 31
0.0
  0
LINE
  5
71
330
1F
100
AcDbEntity
  8
Doc_ Finishes
  6
Continuous
100
AcDbLine
 10
27.28510031471282
 20
15.7227070220299
 30
0.0
 11
27.81482838316287
 21
16.1142441974823
 31
0.0
  0
LINE
  5
72
330
1F
100
AcDbEntity
  8
Doc_ Finishes
  6
Continuous
100
AcDbLine
 10
27.81482838316287
 20
16.1142441974823
 30
0.0
 11
28.27545879228953
 21
16.52880802517702
 31
0.0
  0
LINE
  5
73
330
1F
100
AcDbEntity
  8
Doc_ Finishes
  6
Continuous
100
AcDbLine
 10
28.27545879228953
 20
16.52880802517702
 30
0.0
 11
28.22939221085759
 21
16.78215873328088
 31
0.0
  0
LINE
  5
74
330
1F
100
AcDbEntity
  8
Doc_ Finishes
  6
Continuous
100
AcDbLine
 10
28.22939221085759
 20
16.78215873328088
 30
0.0
 11
28.09120574350905
 21
16.897314122738
 31
0.0
  0
LINE
  5
75
330
1F
100
AcDbEntity
  8
Doc_ Finishes
  6
Continuous
100
AcDbLine
 10
28.09120574350905
 20
16.897314122738
 30
0.0
 11
27.56147767505901
 21
16.897314122738
 31
0.0
  0
LINE
  5
76
330
1F
100
AcDbEntity
  8
Doc_ Finishes
  6
Continuous
100
AcDbLine
 10
27.56147767505901
 20
16.897314122738
 30
0.0
 11
27.41177566876475
 21
16.87044600708104
 31
0.0
  0
HATCH
  5
77
330
1F
100
AcDbEntity
  8
Doc_ Finishes
  6
Continuous
100
AcDbHatch
 10
0.0
 20
0.0
 30
0.0
210
0.0
220
0.0
230
1.0
  2
SOLID
 70
     1
 71
     0
 91
        1
 92
        3
 72
     0
 73
     1
 93
       39
 10
27.65360600299377
 20
13.12014334109181
 10
27.21600693931564
 20
12.77467039608275
 10
26.54809257896482
 20
12.24494521373555
 10
25.92624127794851
 20
11.85340920939199
 10
25.32742150659951
 20
11.32368402704478
 10
24.72860173525052
 20
11.04730567103754
 10
24.08371890456698
 20
10.56364354802488
 10
23.62308831122158
 20
10.33332825135219
 10
23.231552306878
 20
10.03391836567767
 10
22.81698477286715
 20
9.619350831666825
 10
22.40241723885631
 20
9.38903553499415
 10
21.91875511584363
 20
9.043562589985086
 10
21.66540828950367
 20
8.859310352646935
 10
21.25084075549282
 20
8.582931996639696
 10
20.09926427212933
 20
7.753796928618002
 10
19.75379132712029
 20
7.477418572610764
 10
19.2931607337749
 20
7.316197864939873
 10
19.22406614477309
 20
6.993756449598113
 10
19.3622553227767
 20
6.717378093590874
 10
19.63863367878394
 20
6.602220445254527
 10
20.00713815346026
 20
6.8325357419272
 10
20.26048497980021
 20
7.131945627601722
 10
20.55989486547472
 20
7.362260924274415
 10
21.31993534449462
 20
7.707733869283458
 10
21.84966052684182
 20
8.122301403294307
 10
22.88607936186895
 20
8.882341882314256
 10
23.20852077721072
 20
9.342972475659646
 10
24.01462431556515
 20
9.734508480003234
 10
24.5673810275796
 20
10.05694989534501
 10
25.46561068460312
 20
10.60970660735953
 10
25.88017821861399
 20
11.07033720070492
 10
26.31777728229212
 20
11.34671555671216
 10
26.70931328663569
 20
11.30065249737762
 10
27.21600693931562
 20
11.55399932371759
 10
28.0681735370046
 20
12.17585062473387
 10
28.41364648201364
 20
12.49829204007566
 10
28.39061495234636
 20
12.77467039608289
 10
28.22939424467547
 20
13.00498569275559
 10
28.04514200733732
 20
13.05104875209013
 97
        0
 75
     0
 76
     1
 98
        0
  0
LINE
  5
78
330
1F
100
AcDbEntity
  8
Doc_ Finishes
  6
Continuous
100
AcDbLine
 10
27.6536064122738
 20
13.12014211250983
 30
0.0
 11
27.21600708103855
 21
12.77467151848938
 31
0.0
  0
LINE
  5
79
330
1F
100
AcDbEntity
  8
Doc_ Finishes
  6
Continuous
100
AcDbLine
 10
27.21600708103855
 20
12.77467151848938
 30
0.0
 11
26.54809254523997
 21
12.24494345003934
 31
0.0
  0
LINE
  5
7A
330
1F
100
AcDbEntity
  8
Doc_ Finishes
  6
Continuous
100
AcDbLine
 10
26.54809254523997
 20
12.24494345003934
 30
0.0
 11
25.92624016522423
 21
11.85341070023603
 31
0.0
  0
LINE
  5
7B
330
1F
100
AcDbEntity
  8
Doc_ Finishes
  6
Continuous
100
AcDbLine
 10
25.92624016522423
 20
11.85341070023603
 30
0.0
 11
25.32742328874902
 21
11.32368263178599
 31
0.0
  0
LINE
  5
7C
330
1F
100
AcDbEntity
  8
Doc_ Finishes
  6
Continuous
100
AcDbLine
 10
25.32742328874902
 20
11.32368263178599
 30
0.0
 11
24.72860198662471
 21
11.04730527143981
 31
0.0
  0
LINE
  5
7D
330
1F
100
AcDbEntity
  8
Doc_ Finishes
  6
Continuous
100
AcDbLine
 10
24.72860198662471
 20
11.04730527143981
 30
0.0
 11
24.08371852871754
 21
10.56364378442171
 31
0.0
  0
LINE
  5
7E
330
1F
100
AcDbEntity
  8
Doc_ Finishes
  6
Continuous
100
AcDbLine
 10
24.08371852871754
 20
10.56364378442171
 30
0.0
 11
23.62308811959087
 21
10.33332857985838
 31
0.0
  0
LINE
  5
7F
330
1F
100
AcDbEntity
  8
Doc_ Finishes
  6
Continuous
100
AcDbLine
 10
23.62308811959087
 20
10.33332857985838
 30
0.0
 11
23.23155094413847
 21
10.03392014162077
 31
0.0
  0
LINE
  5
80
330
1F
100
AcDbEntity
  8
Doc_ Finishes
  6
Continuous
100
AcDbLine
 10
23.23155094413847
 20
10.03392014162077
 30
0.0
 11
22.81698269079465
 21
9.619351888276947
 31
0.0
  0
LINE
  5
81
330
1F
100
AcDbEntity
  8
Doc_ Finishes
  6
Continuous
100
AcDbLine
 10
22.81698269079465
 20
9.619351888276947
 30
0.0
 11
22.40241886309992
 21
9.389036683713611
 31
0.0
  0
LINE
  5
82
330
1F
100
AcDbEntity
  8
Doc_ Finishes
  6
Continuous
100
AcDbLine
 10
22.40241886309992
 20
9.389036683713611
 30
0.0
 11
21.91875295043273
 21
9.04356166404406
 31
0.0
  0
LINE
  5
83
330
1F
100
AcDbEntity
  8
Doc_ Finishes
  6
Continuous
100
AcDbLine
 10
21.91875295043273
 20
9.04356166404406
 30
0.0
 11
21.66540666797797
 21
8.859308615263572
 31
0.0
  0
LINE
  5
84
330
1F
100
AcDbEntity
  8
Doc_ Finishes
  6
Continuous
100
AcDbLine
 10
21.66540666797797
 20
8.859308615263572
 30
0.0
 11
21.25084284028324
 21
8.582931254917387
 31
0.0
  0
LINE
  5
85
330
1F
100
AcDbEntity
  8
Doc_ Finishes
  6
Continuous
100
AcDbLine
 10
21.25084284028324
 20
8.582931254917387
 30
0.0
 11
20.09926239181747
 21
7.75379474822974
 31
0.0
  0
LINE
  5
86
330
1F
100
AcDbEntity
  8
Doc_ Finishes
  6
Continuous
100
AcDbLine
 10
20.09926239181747
 20
7.75379474822974
 30
0.0
 11
19.75379179779701
 21
7.477417387883556
 31
0.0
  0
LINE
  5
87
330
1F
100
AcDbEntity
  8
Doc_ Finishes
  6
Continuous
100
AcDbLine
 10
19.75379179779701
 20
7.477417387883556
 30
0.0
 11
19.29316138867033
 21
7.316199842643588
 31
0.0
  0
LINE
  5
88
330
1F
100
AcDbEntity
  8
Doc_ Finishes
  6
Continuous
100
AcDbLine
 10
19.29316138867033
 20
7.316199842643588
 30
0.0
 11
19.22406815499606
 21
6.993755900865461
 31
0.0
  0
LINE
  5
89
330
1F
100
AcDbEntity
  8
Doc_ Finishes
  6
Continuous
100
AcDbLine
 10
19.22406815499606
 20
6.993755900865461
 30
0.0
 11
19.36225462234461
 21
6.717378540519276
 31
0.0
  0
LINE
  5
8A
330
1F
100
AcDbEntity
  8
Doc_ Finishes
  6
Continuous
100
AcDbLine
 10
19.36225462234461
 20
6.717378540519276
 30
0.0
 11
19.63863198269079
 21
6.602218725413059
 31
0.0
  0
LINE
  5
8B
330
1F
100
AcDbEntity
  8
Doc_ Finishes
  6
Continuous
100
AcDbLine
 10
19.63863198269079
 20
6.602218725413059
 30
0.0
 11
20.00713808025177
 21
6.832533929976396
 31
0.0
  0
LINE
  5
8C
330
1F
100
AcDbEntity
  8
Doc_ Finishes
  6
Continuous
100
AcDbLine
 10
20.00713808025177
 20
6.832533929976396
 30
0.0
 11
20.26048436270653
 21
7.1319467938631
 31
0.0
  0
LINE
  5
8D
330
1F
100
AcDbEntity
  8
Doc_ Finishes
  6
Continuous
100
AcDbLine
 10
20.26048436270653
 20
7.1319467938631
 30
0.0
 11
20.55989280094414
 21
7.362261998426435
 31
0.0
  0
LINE
  5
8E
330
1F
100
AcDbEntity
  8
Doc_ Finishes
  6
Continuous
100
AcDbLine
 10
20.55989280094414
 20
7.362261998426435
 30
0.0
 11
21.31993607395751
 21
7.707732592446892
 31
0.0
  0
LINE
  5
8F
330
1F
100
AcDbEntity
  8
Doc_ Finishes
  6
Continuous
100
AcDbLine
 10
21.31993607395751
 20
7.707732592446892
 30
0.0
 11
21.84965971675846
 21
8.122300845790717
 31
0.0
  0
LINE
  5
90
330
1F
100
AcDbEntity
  8
Doc_ Finishes
  6
Continuous
100
AcDbLine
 10
21.84965971675846
 20
8.122300845790717
 30
0.0
 11
22.88608035011802
 21
8.882339693154996
 31
0.0
  0
LINE
  5
91
330
1F
100
AcDbEntity
  8
Doc_ Finishes
  6
Continuous
100
AcDbLine
 10
22.88608035011802
 20
8.882339693154996
 30
0.0
 11
23.20851986624705
 21
9.342974527930762
 31
0.0
  0
LINE
  5
92
330
1F
100
AcDbEntity
  8
Doc_ Finishes
  6
Continuous
100
AcDbLine
 10
23.20851986624705
 20
9.342974527930762
 30
0.0
 11
24.01462529504327
 21
9.734507277734066
 31
0.0
  0
LINE
  5
93
330
1F
100
AcDbEntity
  8
Doc_ Finishes
  6
Continuous
100
AcDbLine
 10
24.01462529504327
 20
9.734507277734066
 30
0.0
 11
24.56738001573564
 21
10.05695121951219
 31
0.0
  0
LINE
  5
94
330
1F
100
AcDbEntity
  8
Doc_ Finishes
  6
Continuous
100
AcDbLine
 10
24.56738001573564
 20
10.05695121951219
 30
0.0
 11
25.46560975609756
 21
10.60970594020456
 31
0.0
  0
LINE
  5
95
330
1F
100
AcDbEntity
  8
Doc_ Finishes
  6
Continuous
100
AcDbLine
 10
25.46560975609756
 20
10.60970594020456
 30
0.0
 11
25.88017800944139
 21
11.07033634933124
 31
0.0
  0
LINE
  5
96
330
1F
100
AcDbEntity
  8
Doc_ Finishes
  6
Continuous
100
AcDbLine
 10
25.88017800944139
 20
11.07033634933124
 30
0.0
 11
26.31777734067663
 21
11.34671370967742
 31
0.0
  0
LINE
  5
97
330
1F
100
AcDbEntity
  8
Doc_ Finishes
  6
Continuous
100
AcDbLine
 10
26.31777734067663
 20
11.34671370967742
 30
0.0
 11
26.70931451612903
 21
11.30065155389457
 31
0.0
  0
LINE
  5
98
330
1F
100
AcDbEntity
  8
Doc_ Finishes
  6
Continuous
100
AcDbLine
 10
26.70931451612903
 20
11.30065155389457
 30
0.0
 11
27.21600708103855
 21
11.55399783634933
 31
0.0
  0
LINE
  5
99
330
1F
100
AcDbEntity
  8
Doc_ Finishes
  6
Continuous
100
AcDbLine
 10
27.21600708103855
 20
11.55399783634933
 30
0.0
 11
28.06817466561763
 21
12.17585021636507
 31
0.0
  0
LINE
  5
9A
330
1F
100
AcDbEntity
  8
Doc_ Finishes
  6
Continuous
100
AcDbLine
 10
28.06817466561763
 20
12.17585021636507
 30
0.0
 11
28.41364525963808
 21
12.49829415814319
 31
0.0
  0
LINE
  5
9B
330
1F
100
AcDbEntity
  8
Doc_ Finishes
  6
Continuous
100
AcDbLine
 10
28.41364525963808
 20
12.49829415814319
 30
0.0
 11
28.39061418174666
 21
12.77467151848938
 31
0.0
  0
LINE
  5
9C
330
1F
100
AcDbEntity
  8
Doc_ Finishes
  6
Continuous
100
AcDbLine
 10
28.39061418174666
 20
12.77467151848938
 30
0.0
 11
28.22939221085759
 21
13.00498672305271
 31
0.0
  0
LINE
  5
9D
330
1F
100
AcDbEntity
  8
Doc_ Finishes
  6
Continuous
100
AcDbLine
 10
28.22939221085759
 20
13.00498672305271
 30
0.0
 11
28.04514358772619
 21
13.05104887883556
 31
0.0
  0
LINE
  5
9E
330
1F
100
AcDbEntity
  8
Doc_ Finishes
  6
Continuous
100
AcDbLine
 10
28.04514358772619
 20
13.05104887883556
 30
0.0
 11
27.6536064122738
 21
13.12014211250983
 31
0.0
  0
HATCH
  5
9F
330
1F
100
AcDbEntity
  8
Doc_ Finishes
  6
Continuous
100
AcDbHatch
 10
0.0
 20
0.0
 30
0.0
210
0.0
220
0.0
230
1.0
  2
SOLID
 70
     1
 71
     0
 91
        1
 92
        3
 72
     0
 73
     1
 93
       47
 10
28.06817353700456
 20
15.74573772316067
 10
28.30309513961077
 20
15.62136746295728
 10
28.4412843176144
 20
15.4002647781515
 10
28.93876535842742
 20
15.17916209334572
 10
29.82317609765057
 20
14.40530269652538
 10
30.92868952167951
 20
13.74199464210799
 10
31.59199757609689
 20
13.3827027792986
 10
32.20002995931279
 20
13.07868658769064
 10
33.55428390374828
 20
12.08372450606458
 10
34.07940278016201
 20
11.69679480765445
 10
34.88090001258301
 20
11.08876242443854
 10
35.59948373820179
 20
10.50836787682334
 10
36.5668079842271
 20
9.817421986805197
 10
37.06428902504012
 20
9.458130123995785
 10
37.81051058625966
 20
8.933011247582023
 10
38.61200781868061
 20
8.407892371168286
 10
38.77783483228498
 20
8.186789686362482
 10
39.38586721550092
 20
7.744584316750918
 10
40.18736444792187
 20
6.915449248729224
 10
40.7953968311378
 20
6.44560604351692
 10
41.56925622795804
 20
6.169227687509681
 10
42.23256428237543
 20
6.086314180707507
 10
42.48130480278193
 20
6.30741686551329
 10
42.14965077557326
 20
6.611433057121246
 10
41.48634272115586
 20
6.998362755531397
 10
40.76775899553709
 20
7.357654618340788
 10
40.18736444792187
 20
8.048600508358874
 10
38.99893751709079
 20
8.822459905179112
 10
38.47381864067705
 20
9.319940945992132
 10
38.22507812027052
 20
9.734508480003
 10
37.17484036744301
 20
10.31490302761817
 10
36.73263499783144
 20
10.78474623283046
 10
36.2351539570184
 20
11.17167593124059
 10
35.48893239579888
 20
11.61388130085215
 10
34.85326217698223
 20
12.16663801286669
 10
34.35578113616919
 20
12.58120554687754
 10
33.69247308175183
 20
12.99577308088841
 10
33.22262987653953
 20
13.32742710809708
 10
32.7251488357265
 20
13.5761676285036
 10
31.93747052110588
 20
14.06443605744977
 10
31.43077686842594
 20
14.38687747279155
 10
30.92408321574601
 20
14.70931888813342
 10
30.62467333007151
 20
15.100854892477
 10
29.95675896972068
 20
15.67664313415887
 10
29.47309684670803
 20
15.9530214901661
 10
28.82821401602447
 20
16.36758902417695
 10
28.50577260068269
 20
16.22939984617334
 97
        0
 75
     0
 76
     1
 98
        0
  0
LINE
  5
A0
330
1F
100
AcDbEntity
  8
Doc_ Finishes
  6
Continuous
100
AcDbLine
 10
28.30309697088906
 20
15.62136850904799
 30
0.0
 11
28.06817466561763
 21
15.74573809992132
 31
0.0
  0
LINE
  5
A1
330
1F
100
AcDbEntity
  8
Doc_ Finishes
  6
Continuous
100
AcDbLine
 10
28.44128343823761
 20
15.40026308025177
 30
0.0
 11
28.30309697088906
 21
15.62136850904799
 31
0.0
  0
LINE
  5
A2
330
1F
100
AcDbEntity
  8
Doc_ Finishes
  6
Continuous
100
AcDbLine
 10
28.93876622738001
 20
15.17916207710464
 30
0.0
 11
28.44128343823761
 21
15.40026308025177
 31
0.0
  0
LINE
  5
A3
330
1F
100
AcDbEntity
  8
Doc_ Finishes
  6
Continuous
100
AcDbLine
 10
29.82317466561762
 20
14.40530192761605
 30
0.0
 11
28.93876622738001
 21
15.17916207710464
 31
0.0
  0
LINE
  5
A4
330
1F
100
AcDbEntity
  8
Doc_ Finishes
  6
Continuous
100
AcDbLine
 10
30.92868853265146
 20
13.74199449252557
 30
0.0
 11
29.82317466561762
 21
14.40530192761605
 31
0.0
  0
LINE
  5
A5
330
1F
100
AcDbEntity
  8
Doc_ Finishes
  6
Continuous
100
AcDbLine
 10
31.59199596774193
 20
13.3827025963808
 30
0.0
 11
30.92868853265146
 21
13.74199449252557
 31
0.0
  0
LINE
  5
A6
330
1F
100
AcDbEntity
  8
Doc_ Finishes
  6
Continuous
100
AcDbLine
 10
32.20003147128246
 20
13.07868705743509
 30
0.0
 11
31.59199596774193
 21
13.3827025963808
 31
0.0
  0
LINE
  5
A7
330
1F
100
AcDbEntity
  8
Doc_ Finishes
  6
Continuous
100
AcDbLine
 10
33.55428452006294
 20
12.08372590479937
 30
0.0
 11
32.20003147128246
 21
13.07868705743509
 31
0.0
  0
LINE
  5
A8
330
1F
100
AcDbEntity
  8
Doc_ Finishes
  6
Continuous
100
AcDbLine
 10
34.07940106215578
 20
11.69679583005508
 30
0.0
 11
33.55428452006294
 21
12.08372590479937
 31
0.0
  0
LINE
  5
A9
330
1F
100
AcDbEntity
  8
Doc_ Finishes
  6
Continuous
100
AcDbLine
 10
34.8808993902439
 20
11.08876032651456
 30
0.0
 11
34.07940106215578
 21
11.69679583005508
 31
0.0
  0
LINE
  5
AA
330
1F
100
AcDbEntity
  8
Doc_ Finishes
  6
Continuous
100
AcDbLine
 10
35.59948318253343
 20
10.50836742722266
 30
0.0
 11
34.8808993902439
 21
11.08876032651456
 31
0.0
  0
LINE
  5
AB
330
1F
100
AcDbEntity
  8
Doc_ Finishes
  6
Continuous
100
AcDbLine
 10
36.56680615656963
 20
9.817421813532652
 30
0.0
 11
35.59948318253343
 21
10.50836742722266
 31
0.0
  0
LINE
  5
AC
330
1F
100
AcDbEntity
  8
Doc_ Finishes
  6
Continuous
100
AcDbLine
 10
37.06428894571204
 20
9.458129917387884
 30
0.0
 11
36.56680615656963
 21
9.817421813532652
 31
0.0
  0
LINE
  5
AD
330
1F
100
AcDbEntity
  8
Doc_ Finishes
  6
Continuous
100
AcDbLine
 10
37.8105109166011
 20
8.933013375295044
 30
0.0
 11
37.06428894571204
 21
9.458129917387884
 31
0.0
  0
LINE
  5
AE
330
1F
100
AcDbEntity
  8
Doc_ Finishes
  6
Continuous
100
AcDbLine
 10
38.61200924468922
 20
8.407892407553108
 30
0.0
 11
37.8105109166011
 21
8.933013375295044
 31
0.0
  0
LINE
  5
AF
330
1F
100
AcDbEntity
  8
Doc_ Finishes
  6
Continuous
100
AcDbLine
 10
38.77783389063729
 20
8.18679140440598
 30
0.0
 11
38.61200924468922
 21
8.407892407553108
 31
0.0
  0
LINE
  5
B0
330
1F
100
AcDbEntity
  8
Doc_ Finishes
  6
Continuous
100
AcDbLine
 10
39.3858693941778
 20
7.744584972462627
 30
0.0
 11
38.77783389063729
 21
8.18679140440598
 31
0.0
  0
LINE
  5
B1
330
1F
100
AcDbEntity
  8
Doc_ Finishes
  6
Continuous
100
AcDbLine
 10
40.18736329661684
 20
6.915448465774981
 30
0.0
 11
39.3858693941778
 21
7.744584972462627
 31
0.0
  0
LINE
  5
B2
330
1F
100
AcDbEntity
  8
Doc_ Finishes
  6
Continuous
100
AcDbLine
 10
40.79539880015735
 20
6.4456038552321
 30
0.0
 11
40.18736329661684
 21
6.915448465774981
 31
0.0
  0
LINE
  5
B3
330
1F
100
AcDbEntity
  8
Doc_ Finishes
  6
Continuous
100
AcDbLine
 10
41.56925452399685
 20
6.169226494885916
 30
0.0
 11
40.79539880015735
 21
6.4456038552321
 31
0.0
  0
LINE
  5
B4
330
1F
100
AcDbEntity
  8
Doc_ Finishes
  6
Continuous
100
AcDbLine
 10
42.23256638473643
 20
6.086316384736428
 30
0.0
 11
41.56925452399685
 21
6.169226494885916
 31
0.0
  0
LINE
  5
B5
330
1F
100
AcDbEntity
  8
Doc_ Finishes
  6
Continuous
100
AcDbLine
 10
42.48130556648308
 20
6.307417387883556
 30
0.0
 11
42.23256638473643
 21
6.086316384736428
 31
0.0
  0
LINE
  5
B6
330
1F
100
AcDbEntity
  8
Doc_ Finishes
  6
Continuous
100
AcDbLine
 10
42.14965184893784
 20
6.611432926829268
 30
0.0
 11
42.48130556648308
 21
6.307417387883556
 31
0.0
  0
LINE
  5
B7
330
1F
100
AcDbEntity
  8
Doc_ Finishes
  6
Continuous
100
AcDbLine
 10
41.48634441384736
 20
6.998363001573564
 30
0.0
 11
42.14965184893784
 21
6.611432926829268
 31
0.0
  0
LINE
  5
B8
330
1F
100
AcDbEntity
  8
Doc_ Finishes
  6
Continuous
100
AcDbLine
 10
40.76776062155783
 20
7.357654897718332
 30
0.0
 11
41.48634441384736
 21
6.998363001573564
 31
0.0
  0
LINE
  5
B9
330
1F
100
AcDbEntity
  8
Doc_ Finishes
  6
Continuous
100
AcDbLine
 10
40.18736329661684
 20
8.048600511408338
 30
0.0
 11
40.76776062155783
 21
7.357654897718332
 31
0.0
  0
LINE
  5
BA
330
1F
100
AcDbEntity
  8
Doc_ Finishes
  6
Continuous
100
AcDbLine
 10
38.99893931943352
 20
8.822460660896931
 30
0.0
 11
40.18736329661684
 21
8.048600511408338
 31
0.0
  0
LINE
  5
BB
330
1F
100
AcDbEntity
  8
Doc_ Finishes
  6
Continuous
100
AcDbLine
 10
38.47381835169158
 20
9.319939024390242
 30
0.0
 11
38.99893931943352
 21
8.822460660896931
 31
0.0
  0
LINE
  5
BC
330
1F
100
AcDbEntity
  8
Doc_ Finishes
  6
Continuous
100
AcDbLine
 10
38.22507916994492
 20
9.734507277734066
 30
0.0
 11
38.47381835169158
 21
9.319939024390242
 31
0.0
  0
LINE
  5
BD
330
1F
100
AcDbEntity
  8
Doc_ Finishes
  6
Continuous
100
AcDbLine
 10
37.17484166011014
 20
10.31490460267506
 30
0.0
 11
38.22507916994492
 21
9.734507277734066
 31
0.0
  0
LINE
  5
BE
330
1F
100
AcDbEntity
  8
Doc_ Finishes
  6
Continuous
100
AcDbLine
 10
36.7326352281668
 20
10.78474478756884
 30
0.0
 11
37.17484166011014
 21
10.31490460267506
 31
0.0
  0
LINE
  5
BF
330
1F
100
AcDbEntity
  8
Doc_ Finishes
  6
Continuous
100
AcDbLine
 10
36.23515243902439
 20
11.17167486231314
 30
0.0
 11
36.7326352281668
 21
10.78474478756884
 31
0.0
  0
LINE
  5
C0
330
1F
100
AcDbEntity
  8
Doc_ Finishes
  6
Continuous
100
AcDbLine
 10
35.48893046813532
 20
11.61388129425649
 30
0.0
 11
36.23515243902439
 21
11.17167486231314
 31
0.0
  0
LINE
  5
C1
330
1F
100
AcDbEntity
  8
Doc_ Finishes
  6
Continuous
100
AcDbLine
 10
34.85326121164437
 20
12.16663601494886
 30
0.0
 11
35.48893046813532
 21
11.61388129425649
 31
0.0
  0
LINE
  5
C2
330
1F
100
AcDbEntity
  8
Doc_ Finishes
  6
Continuous
100
AcDbLine
 10
34.35578284815106
 20
12.58120426829268
 30
0.0
 11
34.85326121164437
 21
12.16663601494886
 31
0.0
  0
LINE
  5
C3
330
1F
100
AcDbEntity
  8
Doc_ Finishes
  6
Continuous
100
AcDbLine
 10
33.69247098741149
 20
12.99577252163651
 30
0.0
 11
34.35578284815106
 21
12.58120426829268
 31
0.0
  0
LINE
  5
C4
330
1F
100
AcDbEntity
  8
Doc_ Finishes
  6
Continuous
100
AcDbLine
 10
33.2226308025177
 20
13.32742623918175
 30
0.0
 11
33.69247098741149
 21
12.99577252163651
 31
0.0
  0
LINE
  5
C5
330
1F
100
AcDbEntity
  8
Doc_ Finishes
  6
Continuous
100
AcDbLine
 10
32.7251480133753
 20
13.5761654209284
 30
0.0
 11
33.2226308025177
 21
13.32742623918175
 31
0.0
  0
LINE
  5
C6
330
1F
100
AcDbEntity
  8
Doc_ Finishes
  6
Continuous
100
AcDbLine
 10
31.93747098741148
 20
14.0644340086546
 30
0.0
 11
32.7251480133753
 21
13.5761654209284
 31
0.0
  0
LINE
  5
C7
330
1F
100
AcDbEntity
  8
Doc_ Finishes
  6
Continuous
100
AcDbLine
 10
31.43077842250197
 20
14.38687795043273
 30
0.0
 11
31.93747098741148
 21
14.0644340086546
 31
0.0
  0
LINE
  5
C8
330
1F
100
AcDbEntity
  8
Doc_ Finishes
  6
Continuous
100
AcDbLine
 10
30.92408143194335
 20
14.70931746656176
 30
0.0
 11
31.43077842250197
 21
14.38687795043273
 31
0.0
  0
LINE
  5
C9
330
1F
100
AcDbEntity
  8
Doc_ Finishes
  6
Continuous
100
AcDbLine
 10
30.62467299370574
 20
15.10085464201416
 30
0.0
 11
30.92408143194335
 21
14.70931746656176
 31
0.0
  0
LINE
  5
CA
330
1F
100
AcDbEntity
  8
Doc_ Finishes
  6
Continuous
100
AcDbLine
 10
29.95675845790716
 20
15.67664486624705
 30
0.0
 11
30.62467299370574
 21
15.10085464201416
 31
0.0
  0
LINE
  5
CB
330
1F
100
AcDbEntity
  8
Doc_ Finishes
  6
Continuous
100
AcDbLine
 10
29.47309697088906
 20
15.95302222659323
 30
0.0
 11
29.95675845790716
 21
15.67664486624705
 31
0.0
  0
LINE
  5
CC
330
1F
100
AcDbEntity
  8
Doc_ Finishes
  6
Continuous
100
AcDbLine
 10
28.8282135129819
 20
16.36759047993706
 30
0.0
 11
29.47309697088906
 21
15.95302222659323
 31
0.0
  0
LINE
  5
CD
330
1F
100
AcDbEntity
  8
Doc_ Finishes
  6
Continuous
100
AcDbLine
 10
28.50577399685287
 20
16.22939958693942
 30
0.0
 11
28.8282135129819
 21
16.36759047993706
 31
0.0
  0
LINE
  5
CE
330
1F
100
AcDbEntity
  8
Doc_ Finishes
  6
Continuous
100
AcDbLine
 10
28.06817466561763
 20
15.74573809992132
 30
0.0
 11
28.50577399685287
 21
16.22939958693942
 31
0.0
  0
LINE
  5
CF
330
1F
100
AcDbEntity
  8
Doc_ Finishes
  6
Continuous
 62
   254
370
    18
100
AcDbLine
 10
97.43333792289535
 20
5.093360051140834
 30
0.0
 11
97.43333792289535
 21
20.69901750590086
 31
0.0
  0
LINE
  5
D0
330
1F
100
AcDbEntity
  8
Doc_ Finishes
  6
Continuous
 62
   254
370
    18
100
AcDbLine
 10
7.000000491738787
 20
20.69901750590086
 30
0.0
 11
290.2406840086546
 21
20.69901750590086
 31
0.0
  0
LINE
  5
D1
330
1F
100
AcDbEntity
  8
Doc_ Finishes
  6
Continuous
 62
   254
370
    18
100
AcDbLine
 10
290.2406840086546
 20
20.69901750590086
 30
0.0
 11
290.2406840086546
 21
5.000000983477577
 31
0.0
  0
LINE
  5
D2
330
1F
100
AcDbEntity
  8
Doc_ Finishes
  6
Continuous
 62
   254
370
    18
100
AcDbLine
 10
290.2406840086546
 20
5.000000983477577
 30
0.0
 11
7.000000491738787
 21
5.000000983477577
 31
0.0
  0
LINE
  5
D3
330
1F
100
AcDbEntity
  8
Doc_ Finishes
  6
Continuous
 62
   254
370
    18
100
AcDbLine
 10
7.000000491738787
 20
20.69901750590086
 30
0.0
 11
7.000000491738787
 21
5.000000983477577
 31
0.0
  0
LINE
  5
D4
330
1F
100
AcDbEntity
  8
Doc_ Finishes
  6
Continuous
 62
   254
370
    18
100
AcDbLine
 10
190.2919443351691
 20
5.093360051140834
 30
0.0
 11
190.2919443351691
 21
20.69901750590086
 31
0.0
  0
LINE
  5
D5
330
1F
100
AcDbEntity
  8
Doc_ Finishes
  6
Continuous
 62
   254
370
    18
100
AcDbLine
 10
190.2919443351691
 20
12.8961909913454
 30
0.0
 11
290.2406840086546
 21
12.8961909913454
 31
0.0
  0
MTEXT
  5
D7
330
1F
100
AcDbEntity
  8
0
  6
Continuous
100
AcDbMText
 10
210.3494767103412
 20
15.00228492609298
 30
0.0
 40
2.25
 41
0.0
 71
     7
 72
     1
  1
{R-TRS9-09}
  7
GENERATED_STYLE_1
 73
     1
 44
1.0
  0
MTEXT
  5
D8
330
1F
100
AcDbEntity
  8
0
  6
Continuous
100
AcDbMText
 10
210.3494767103412
 20
11.03300550383743
 30
0.0
 40
3.0
 41
0.0
 71
     1
 72
     1
  1
{APRON DETAIL - SIDE}
  7
GENERATED_STYLE_1
 73
     1
 44
1.0
  0
MTEXT
  5
DA
330
1F
100
AcDbEntity
  8
Doc_ Floor
  6
Continuous
100
AcDbMText
 10
29.78353726544612
 20
13.33283672870609
 30
0.0
 40
5.603347280334726
 41
0.0
 71
     1
 72
     1
  1
{The Roofing Store}
  7
GENERATED_STYLE_2
 73
     1
 44
1.0
  0
MTEXT
  5
DC
102
{ACAD_XDICTIONARY
360
65E
102
}
330
1F
100
AcDbEntity
  8
0
  6
Continuous
100
AcDbMText
 10
102.7389238446655
 20
6.378784417288159
 30
0.0
 40
1.5
 41
0.0
 71
     7
 72
     1
  1
{P: HEAD OFFICE              09 277 2717\P    ALBANY             09 972 0060\P    KATIKAIT            07 549 5190\P    WELLINGTON              04 974 5792\P    CHRISTCHURCH          03 348 6528}
  7
GENERATED_STYLE_1
 73
     1
 44
1.062946161486498
  0
MTEXT
  5
DD
330
1F
100
AcDbEntity
  8
0
  6
Continuous
100
AcDbMText
 10
149.4184566143587
 20
9.199084231526156
 30
0.0
 40
1.5
 41
0.0
 71
     7
 72
     1
  1
{WEB: www.theroofingstore.co.nz}
  7
GENERATED_STYLE_1
 73
     1
 44
1.0
  0
MTEXT
  5
DE
330
1F
100
AcDbEntity
  8
0
  6
Continuous
100
AcDbMText
 10
149.4184566143587
 20
6.620946023411263
 30
0.0
 40
1.5
 41
0.0
 71
     7
 72
     1
  1
{Copyright \U+00A9 The Roofing Store 2013}
  7
GENERATED_STYLE_1
 73
     1
 44
1.0
  0
MTEXT
  5
DF
330
1F
100
AcDbEntity
  8
0
  6
Continuous
100
AcDbMText
 10
273.9546684065315
 20
15.01595325993831
 30
0.0
 40
2.25
 41
0.0
 71
     7
 72
     1
  1
{1:5}
  7
GENERATED_STYLE_1
 73
     1
 44
1.0
  0
MTEXT
  5
E0
330
1F
100
AcDbEntity
  8
0
  6
Continuous
100
AcDbMText
 10
264.8396605309016
 20
15.51746459162148
 30
0.0
 40
1.5
 41
0.0
 71
     7
 72
     1
  1
{SCALE:}
  7
GENERATED_STYLE_1
 73
     1
 44
1.0
  0
MTEXT
  5
E1
330
1F
100
AcDbEntity
  8
0
  6
Continuous
100
AcDbMText
 10
191.5066235617487
 20
15.48695559872207
 30
0.0
 40
1.5
 41
0.0
 71
     7
 72
     1
  1
{DETAIL NUMBER:}
  7
GENERATED_STYLE_1
 73
     1
 44
1.0
  0
MTEXT
  5
E2
330
1F
100
AcDbEntity
  8
0
  6
Continuous
100
AcDbMText
 10
191.5066235617487
 20
9.005462392315325
 30
0.0
 40
1.5
 41
0.0
 71
     7
 72
     1
  1
{TITLE:}
  7
GENERATED_STYLE_1
 73
     1
 44
1.0
  0
INSERT
  5
62C
102
{ACAD_XDICTIONARY
360
62D
102
}
330
1F
100
AcDbEntity
  8
0
  6
Continuous
100
AcDbBlockReference
  2
Drawing_1_2
 10
-1488.68793027213
 20
350.9956652514564
 30
0.0
  0
ENDSEC
  0
SECTION
  2
OBJECTS
  0
DICTIONARY
  5
C
330
0
100
AcDbDictionary
281
     1
  3
ACAD_GROUP
350
D
  3
ACAD_LAYOUT
350
1A
  3
ACAD_MATERIAL
350
3B
  3
ACAD_MLEADERSTYLE
350
659
  3
ACAD_MLINESTYLE
350
17
  3
ACAD_PLOTSETTINGS
350
19
  3
ACAD_PLOTSTYLENAME
350
E
  3
ACAD_SCALELIST
350
633
  3
ACAD_VISUALSTYLE
350
2A
  3
AcDbVariableDictionary
350
657
  3
WATERMARKS
350
655
  0
DICTIONARY
  5
65E
330
DC
100
AcDbDictionary
280
     1
281
     1
  3
ACAD_MTEXT_RT
360
65F
  0
DICTIONARY
  5
62D
330
62C
100
AcDbDictionary
280
     1
281
     1
  3
ACAD_FILTER
360
62E
  0
DICTIONARY
  5
D
102
{ACAD_REACTORS
330
C
102
}
330
C
100
AcDbDictionary
281
     1
  0
DICTIONARY
  5
1A
102
{ACAD_REACTORS
330
C
102
}
330
C
100
AcDbDictionary
281
     1
  3
Layout1
350
1E
  3
Model
350
22
  0
DICTIONARY
  5
3B
102
{ACAD_REACTORS
330
C
102
}
330
C
100
AcDbDictionary
281
     1
  3
ByBlock
350
3D
  3
ByLayer
350
3C
  3
Global
350
3E
  0
DICTIONARY
  5
659
102
{ACAD_REACTORS
330
C
102
}
330
C
100
AcDbDictionary
281
     1
  0
DICTIONARY
  5
17
102
{ACAD_REACTORS
330
C
102
}
330
C
100
AcDbDictionary
281
     1
  3
Standard
350
18
  0
DICTIONARY
  5
19
102
{ACAD_REACTORS
330
C
102
}
330
C
100
AcDbDictionary
281
     1
  0
ACDBDICTIONARYWDFLT
  5
E
102
{ACAD_REACTORS
330
C
102
}
330
C
100
AcDbDictionary
281
     1
  3
Normal
350
F
100
AcDbDictionaryWithDefault
340
F
  0
DICTIONARY
  5
633
102
{ACAD_REACTORS
330
C
102
}
330
C
100
AcDbDictionary
281
     1
  3
A0
350
634
  3
A1
350
635
  3
A2
350
636
  3
A3
350
637
  3
A4
350
638
  3
A5
350
639
  3
A6
350
63A
  3
A7
350
63B
  3
A8
350
63C
  3
A9
350
63D
  3
B0
350
63E
  3
B1
350
63F
  3
B2
350
640
  3
B3
350
641
  3
B4
350
642
  3
B5
350
643
  3
B6
350
644
  3
B7
350
645
  3
B8
350
646
  3
B9
350
647
  3
C0
350
648
  3
C1
350
649
  3
C2
350
64A
  3
C3
350
64B
  3
C4
350
64C
  3
C5
350
64D
  3
C6
350
64E
  3
C7
350
64F
  3
C8
350
650
  3
C9
350
651
  3
D0
350
652
  3
D1
350
653
  3
D2
350
654
  0
DICTIONARY
  5
2A
102
{ACAD_REACTORS
330
C
102
}
330
C
100
AcDbDictionary
281
     1
  3
2dWireframe
350
2F
  3
3D Hidden
350
31
  3
3dWireframe
350
30
  3
Basic
350
32
  3
Brighten
350
36
  3
ColorChange
350
3A
  3
Conceptual
350
34
  3
Dim
350
35
  3
Facepattern
350
39
  3
Flat
350
2B
  3
FlatWithEdges
350
2C
  3
Gouraud
350
2D
  3
GouraudWithEdges
350
2E
  3
Linepattern
350
38
  3
Realistic
350
33
  3
Thicken
350
37
  0
DICTIONARY
  5
657
102
{ACAD_REACTORS
330
C
102
}
330
C
100
AcDbDictionary
281
     1
  3
CANNOSCALE
350
65B
  3
DIMASSOC
350
65C
  3
HIDETEXT
350
65D
  3
XCLIPFRAME
350
65A
  0
DICTIONARY
  5
655
102
{ACAD_REACTORS
330
C
102
}
330
C
100
AcDbDictionary
281
     1
  3
AC_WATERMARK
350
656
  0
XRECORD
  5
65F
102
{ACAD_REACTORS
330
65E
102
}
330
65E
100
AcDbXrecord
280
     1
 40
956118.0
  1
{P: HEAD OFFICE ^I^I09 277 2717\P    ALBANY ^I^I09 972 0060\P    KATIKAIT^I^I07 549 5190\P    WELLINGTON^I^I04 974 5792\P    CHRISTCHURCH^I^I03 348 6528}
  0
DICTIONARY
  5
62E
102
{ACAD_REACTORS
330
62D
102
}
330
62D
100
AcDbDictionary
280
     1
281
     1
  3
SPATIAL
360
62F
  0
LAYOUT
  5
1E
102
{ACAD_REACTORS
330
1A
102
}
330
1A
100
AcDbPlotSettings
  1

  2
none_device
  4

  6

 40
0.0
 41
0.0
 42
0.0
 43
0.0
 44
0.0
 45
0.0
 46
0.0
 47
0.0
 48
0.0
 49
0.0
140
0.0
141
0.0
142
1.0
143
1.0
 70
   688
 72
     0
 73
     0
 74
     5
  7

 75
    16
147
1.0
148
0.0
149
0.0
100
AcDbLayout
  1
Layout1
 70
     1
 71
     1
 10
0.0
 20
0.0
 11
12.0
 21
9.0
 12
0.0
 22
0.0
 32
0.0
 14
1.000000000000000E+20
 24
1.000000000000000E+20
 34
1.000000000000000E+20
 15
-1.000000000000000E+20
 25
-1.000000000000000E+20
 35
-1.000000000000000E+20
146
0.0
 13
0.0
 23
0.0
 33
0.0
 16
1.0
 26
0.0
 36
0.0
 17
0.0
 27
1.0
 37
0.0
 76
     0
330
1B
  0
LAYOUT
  5
22
102
{ACAD_REACTORS
330
1A
102
}
330
1A
100
AcDbPlotSettings
  1

  2
none_device
  4

  6

 40
0.0
 41
0.0
 42
0.0
 43
0.0
 44
0.0
 45
0.0
 46
0.0
 47
0.0
 48
0.0
 49
0.0
140
0.0
141
0.0
142
1.0
143
1.0
 70
  1712
 72
     0
 73
     0
 74
     0
  7

 75
     0
147
1.0
148
0.0
149
0.0
100
AcDbLayout
  1
Model
 70
     1
 71
     0
 10
0.0
 20
0.0
 11
12.0
 21
9.0
 12
0.0
 22
0.0
 32
0.0
 14
1.000000000000000E+20
 24
1.000000000000000E+20
 34
1.000000000000000E+20
 15
-1.000000000000000E+20
 25
-1.000000000000000E+20
 35
-1.000000000000000E+20
146
0.0
 13
0.0
 23
0.0
 33
0.0
 16
1.0
 26
0.0
 36
0.0
 17
0.0
 27
1.0
 37
0.0
 76
     0
330
1F
331
29
  0
MATERIAL
  5
3D
102
{ACAD_REACTORS
330
3B
102
}
102
{ACAD_XDICTIONARY
360
682
102
}
330
3B
100
AcDbMaterial
  1
ByBlock
  0
MATERIAL
  5
3C
102
{ACAD_REACTORS
330
3B
102
}
102
{ACAD_XDICTIONARY
360
680
102
}
330
3B
100
AcDbMaterial
  1
ByLayer
  0
MATERIAL
  5
3E
102
{ACAD_REACTORS
330
3B
102
}
102
{ACAD_XDICTIONARY
360
684
102
}
330
3B
100
AcDbMaterial
  1
Global
  0
MLINESTYLE
  5
18
102
{ACAD_REACTORS
330
17
102
}
330
17
100
AcDbMlineStyle
  2
Standard
 70
     0
  3

 62
   256
 51
90.0
 52
90.0
 71
     2
 49
0.5
 62
   256
  6
BYLAYER
 49
-0.5
 62
   256
  6
BYLAYER
  0
ACDBPLACEHOLDER
  5
F
102
{ACAD_REACTORS
330
E
102
}
330
E
  0
SCALE
  5
634
102
{ACAD_REACTORS
330
633
102
}
330
633
100
AcDbScale
 70
     0
300
1:1
140
1.0
141
1.0
290
     1
  0
SCALE
  5
635
102
{ACAD_REACTORS
330
633
102
}
330
633
100
AcDbScale
 70
     0
300
1:2
140
1.0
141
2.0
290
     0
  0
SCALE
  5
636
102
{ACAD_REACTORS
330
633
102
}
330
633
100
AcDbScale
 70
     0
300
1:4
140
1.0
141
4.0
290
     0
  0
SCALE
  5
637
102
{ACAD_REACTORS
330
633
102
}
330
633
100
AcDbScale
 70
     0
300
1:5
140
1.0
141
5.0
290
     0
  0
SCALE
  5
638
102
{ACAD_REACTORS
330
633
102
}
330
633
100
AcDbScale
 70
     0
300
1:8
140
1.0
141
8.0
290
     0
  0
SCALE
  5
639
102
{ACAD_REACTORS
330
633
102
}
330
633
100
AcDbScale
 70
     0
300
1:10
140
1.0
141
10.0
290
     0
  0
SCALE
  5
63A
102
{ACAD_REACTORS
330
633
102
}
330
633
100
AcDbScale
 70
     0
300
1:16
140
1.0
141
16.0
290
     0
  0
SCALE
  5
63B
102
{ACAD_REACTORS
330
633
102
}
330
633
100
AcDbScale
 70
     0
300
1:20
140
1.0
141
20.0
290
     0
  0
SCALE
  5
63C
102
{ACAD_REACTORS
330
633
102
}
330
633
100
AcDbScale
 70
     0
300
1:30
140
1.0
141
30.0
290
     0
  0
SCALE
  5
63D
102
{ACAD_REACTORS
330
633
102
}
330
633
100
AcDbScale
 70
     0
300
1:40
140
1.0
141
40.0
290
     0
  0
SCALE
  5
63E
102
{ACAD_REACTORS
330
633
102
}
330
633
100
AcDbScale
 70
     0
300
1:50
140
1.0
141
50.0
290
     0
  0
SCALE
  5
63F
102
{ACAD_REACTORS
330
633
102
}
330
633
100
AcDbScale
 70
     0
300
1:100
140
1.0
141
100.0
290
     0
  0
SCALE
  5
640
102
{ACAD_REACTORS
330
633
102
}
330
633
100
AcDbScale
 70
     0
300
2:1
140
2.0
141
1.0
290
     0
  0
SCALE
  5
641
102
{ACAD_REACTORS
330
633
102
}
330
633
100
AcDbScale
 70
     0
300
4:1
140
4.0
141
1.0
290
     0
  0
SCALE
  5
642
102
{ACAD_REACTORS
330
633
102
}
330
633
100
AcDbScale
 70
     0
300
8:1
140
8.0
141
1.0
290
     0
  0
SCALE
  5
643
102
{ACAD_REACTORS
330
633
102
}
330
633
100
AcDbScale
 70
     0
300
10:1
140
10.0
141
1.0
290
     0
  0
SCALE
  5
644
102
{ACAD_REACTORS
330
633
102
}
330
633
100
AcDbScale
 70
     0
300
100:1
140
100.0
141
1.0
290
     0
  0
SCALE
  5
645
102
{ACAD_REACTORS
330
633
102
}
330
633
100
AcDbScale
 70
     0
300
1/128" = 1'-0"
140
0.0078125
141
12.0
290
     0
  0
SCALE
  5
646
102
{ACAD_REACTORS
330
633
102
}
330
633
100
AcDbScale
 70
     0
300
1/64" = 1'-0"
140
0.015625
141
12.0
290
     0
  0
SCALE
  5
647
102
{ACAD_REACTORS
330
633
102
}
330
633
100
AcDbScale
 70
     0
300
1/32" = 1'-0"
140
0.03125
141
12.0
290
     0
  0
SCALE
  5
648
102
{ACAD_REACTORS
330
633
102
}
330
633
100
AcDbScale
 70
     0
300
1/16" = 1'-0"
140
0.0625
141
12.0
290
     0
  0
SCALE
  5
649
102
{ACAD_REACTORS
330
633
102
}
330
633
100
AcDbScale
 70
     0
300
3/32" = 1'-0"
140
0.09375
141
12.0
290
     0
  0
SCALE
  5
64A
102
{ACAD_REACTORS
330
633
102
}
330
633
100
AcDbScale
 70
     0
300
1/8" = 1'-0"
140
0.125
141
12.0
290
     0
  0
SCALE
  5
64B
102
{ACAD_REACTORS
330
633
102
}
330
633
100
AcDbScale
 70
     0
300
3/16" = 1'-0"
140
0.1875
141
12.0
290
     0
  0
SCALE
  5
64C
102
{ACAD_REACTORS
330
633
102
}
330
633
100
AcDbScale
 70
     0
300
1/4" = 1'-0"
140
0.25
141
12.0
290
     0
  0
SCALE
  5
64D
102
{ACAD_REACTORS
330
633
102
}
330
633
100
AcDbScale
 70
     0
300
3/8" = 1'-0"
140
0.375
141
12.0
290
     0
  0
SCALE
  5
64E
102
{ACAD_REACTORS
330
633
102
}
330
633
100
AcDbScale
 70
     0
300
1/2" = 1'-0"
140
0.5
141
12.0
290
     0
  0
SCALE
  5
64F
102
{ACAD_REACTORS
330
633
102
}
330
633
100
AcDbScale
 70
     0
300
3/4" = 1'-0"
140
0.75
141
12.0
290
     0
  0
SCALE
  5
650
102
{ACAD_REACTORS
330
633
102
}
330
633
100
AcDbScale
 70
     0
300
1" = 1'-0"
140
1.0
141
12.0
290
     0
  0
SCALE
  5
651
102
{ACAD_REACTORS
330
633
102
}
330
633
100
AcDbScale
 70
     0
300
1-1/2" = 1'-0"
140
1.5
141
12.0
290
     0
  0
SCALE
  5
652
102
{ACAD_REACTORS
330
633
102
}
330
633
100
AcDbScale
 70
     0
300
3" = 1'-0"
140
3.0
141
12.0
290
     0
  0
SCALE
  5
653
102
{ACAD_REACTORS
330
633
102
}
330
633
100
AcDbScale
 70
     0
300
6" = 1'-0"
140
6.0
141
12.0
290
     0
  0
SCALE
  5
654
102
{ACAD_REACTORS
330
633
102
}
330
633
100
AcDbScale
 70
     0
300
1'-0" = 1'-0"
140
12.0
141
12.0
290
     0
  0
VISUALSTYLE
  5
2F
102
{ACAD_REACTORS
330
2A
102
}
102
{ACAD_XDICTIONARY
360
668
102
}
330
2A
100
AcDbVisualStyle
  2
2dWireframe
 70
     4
 71
     0
 72
     2
 73
     0
 90
        0
 40
-0.6
 41
-30.0
 62
     5
 63
     7
 74
     1
 91
        4
 64
     7
 65
   257
 75
     1
175
     1
 42
1.0
 92
        0
 66
   257
 43
1.0
 76
     1
 77
     6
 78
     2
 67
     7
 79
     5
170
     0
171
     0
290
     0
174
     0
 93
        1
 44
0.0
173
     0
291
     0
 45
0.0
1001
ACAD
1000
AcDbSavedByObjectVersion
1070
     0
  0
VISUALSTYLE
  5
31
102
{ACAD_REACTORS
330
2A
102
}
102
{ACAD_XDICTIONARY
360
66C
102
}
330
2A
100
AcDbVisualStyle
  2
3D Hidden
 70
     6
 71
     1
 72
     2
 73
     2
 90
        0
 40
-0.6
 41
-30.0
 62
     5
 63
     7
 74
     2
 91
        2
 64
     7
 65
   257
 75
     2
175
     1
 42
40.0
 92
        0
 66
   257
 43
1.0
 76
     1
 77
     6
 78
     2
 67
     7
 79
     3
170
     0
171
     0
290
     0
174
     0
 93
        1
 44
0.0
173
     0
291
     0
 45
0.0
1001
ACAD
1000
AcDbSavedByObjectVersion
1070
     0
  0
VISUALSTYLE
  5
30
102
{ACAD_REACTORS
330
2A
102
}
102
{ACAD_XDICTIONARY
360
66A
102
}
330
2A
100
AcDbVisualStyle
  2
3dWireframe
 70
     5
 71
     0
 72
     2
 73
     0
 90
        0
 40
-0.6
 41
-30.0
 62
     5
 63
     7
 74
     1
 91
        4
 64
     7
 65
   257
 75
     1
175
     1
 42
1.0
 92
        0
 66
   257
 43
1.0
 76
     1
 77
     6
 78
     2
 67
     7
 79
     5
170
     0
171
     0
290
     0
174
     0
 93
        1
 44
0.0
173
     0
291
     0
 45
0.0
1001
ACAD
1000
AcDbSavedByObjectVersion
1070
     0
  0
VISUALSTYLE
  5
32
102
{ACAD_REACTORS
330
2A
102
}
102
{ACAD_XDICTIONARY
360
66E
102
}
330
2A
100
AcDbVisualStyle
  2
Basic
 70
     7
 71
     1
 72
     0
 73
     1
 90
        0
 40
-0.6
 41
-30.0
 62
     5
 63
     7
 74
     0
 91
        4
 64
     7
 65
   257
 75
     1
175
     1
 42
1.0
 92
        8
 66
     7
 43
1.0
 76
     1
 77
     6
 78
     2
 67
     7
 79
     5
170
     0
171
     0
290
     0
174
     0
 93
        1
 44
0.0
173
     0
291
     1
 45
0.0
1001
ACAD
1000
AcDbSavedByObjectVersion
1070
     0
  0
VISUALSTYLE
  5
36
102
{ACAD_REACTORS
330
2A
102
}
102
{ACAD_XDICTIONARY
360
676
102
}
330
2A
100
AcDbVisualStyle
  2
Brighten
 70
    12
 71
     2
 72
     2
 73
     0
 90
        0
 40
-0.6
 41
-30.0
 62
     5
 63
     7
 74
     1
 91
        4
 64
     7
 65
   257
 75
     1
175
     1
 42
1.0
 92
        8
 66
     7
 43
1.0
 76
     1
 77
     6
 78
     2
 67
     7
 79
     5
170
     0
171
     0
290
     0
174
     0
 93
        1
 44
50.0
173
     0
291
     1
 45
0.0
1001
ACAD
1000
AcDbSavedByObjectVersion
1070
     0
  0
VISUALSTYLE
  5
3A
102
{ACAD_REACTORS
330
2A
102
}
102
{ACAD_XDICTIONARY
360
67E
102
}
330
2A
100
AcDbVisualStyle
  2
ColorChange
 70
    16
 71
     2
 72
     2
 73
     3
 90
        0
 40
-0.6
 41
-30.0
 62
     5
 63
     8
 74
     1
 91
        4
 64
     7
 65
   257
 75
     1
175
     1
 42
1.0
 92
        8
 66
     8
 43
1.0
 76
     1
 77
     6
 78
     2
 67
     7
 79
     5
170
     0
171
     0
290
     0
174
     0
 93
        1
 44
0.0
173
     0
291
     1
 45
0.0
1001
ACAD
1000
AcDbSavedByObjectVersion
1070
     0
  0
VISUALSTYLE
  5
34
102
{ACAD_REACTORS
330
2A
102
}
102
{ACAD_XDICTIONARY
360
672
102
}
330
2A
100
AcDbVisualStyle
  2
Conceptual
 70
     9
 71
     3
 72
     2
 73
     0
 90
        0
 40
-0.6
 41
-30.0
 62
     5
 63
     7
 74
     2
 91
        2
 64
     7
 65
   257
 75
     1
175
     1
 42
40.0
 92
        8
 66
     7
 43
1.0
 76
     1
 77
     6
 78
     2
 67
     7
 79
     3
170
     0
171
     0
290
     0
174
     0
 93
        1
 44
0.0
173
     0
291
     0
 45
0.0
1001
ACAD
1000
AcDbSavedByObjectVersion
1070
     0
  0
VISUALSTYLE
  5
35
102
{ACAD_REACTORS
330
2A
102
}
102
{ACAD_XDICTIONARY
360
674
102
}
330
2A
100
AcDbVisualStyle
  2
Dim
 70
    11
 71
     2
 72
     2
 73
     0
 90
        0
 40
-0.6
 41
-30.0
 62
     5
 63
     7
 74
     1
 91
        4
 64
     7
 65
   257
 75
     1
175
     1
 42
1.0
 92
        8
 66
     7
 43
1.0
 76
     1
 77
     6
 78
     2
 67
     7
 79
     5
170
     0
171
     0
290
     0
174
     0
 93
        1
 44
-50.0
173
     0
291
     1
 45
0.0
1001
ACAD
1000
AcDbSavedByObjectVersion
1070
     0
  0
VISUALSTYLE
  5
39
102
{ACAD_REACTORS
330
2A
102
}
102
{ACAD_XDICTIONARY
360
67C
102
}
330
2A
100
AcDbVisualStyle
  2
Facepattern
 70
    15
 71
     2
 72
     2
 73
     0
 90
        0
 40
-0.6
 41
-30.0
 62
     5
 63
     7
 74
     1
 91
        4
 64
     7
 65
   257
 75
     1
175
     1
 42
1.0
 92
        8
 66
     7
 43
1.0
 76
     1
 77
     6
 78
     2
 67
     7
 79
     5
170
     0
171
     0
290
     0
174
     0
 93
        1
 44
0.0
173
     0
291
     1
 45
0.0
1001
ACAD
1000
AcDbSavedByObjectVersion
1070
     0
  0
VISUALSTYLE
  5
2B
102
{ACAD_REACTORS
330
2A
102
}
102
{ACAD_XDICTIONARY
360
660
102
}
330
2A
100
AcDbVisualStyle
  2
Flat
 70
     0
 71
     2
 72
     1
 73
     1
 90
        2
 40
-0.6
 41
30.0
 62
     5
 63
     7
 74
     0
 91
        4
 64
     7
 65
   257
 75
     1
175
     1
 42
1.0
 92
        8
 66
     7
 43
1.0
 76
     1
 77
     6
 78
     2
 67
     7
 79
     5
170
     0
171
     0
290
     0
174
     0
 93
       13
 44
0.0
173
     0
291
     1
 45
0.0
1001
ACAD
1000
AcDbSavedByObjectVersion
1070
     0
  0
VISUALSTYLE
  5
2C
102
{ACAD_REACTORS
330
2A
102
}
102
{ACAD_XDICTIONARY
360
662
102
}
330
2A
100
AcDbVisualStyle
  2
FlatWithEdges
 70
     1
 71
     2
 72
     1
 73
     1
 90
        2
 40
-0.6
 41
30.0
 62
     5
 63
     7
 74
     1
 91
        4
 64
     7
 65
   257
 75
     1
175
     1
 42
1.0
 92
        0
 66
   257
 43
1.0
 76
     1
 77
     6
 78
     2
 67
     7
 79
     5
170
     0
171
     0
290
     0
174
     0
 93
       13
 44
0.0
173
     0
291
     1
 45
0.0
1001
ACAD
1000
AcDbSavedByObjectVersion
1070
     0
  0
VISUALSTYLE
  5
2D
102
{ACAD_REACTORS
330
2A
102
}
102
{ACAD_XDICTIONARY
360
664
102
}
330
2A
100
AcDbVisualStyle
  2
Gouraud
 70
     2
 71
     2
 72
     2
 73
     1
 90
        2
 40
-0.6
 41
30.0
 62
     5
 63
     7
 74
     0
 91
        4
 64
     7
 65
   257
 75
     1
175
     1
 42
1.0
 92
        0
 66
     7
 43
1.0
 76
     1
 77
     6
 78
     2
 67
     7
 79
     5
170
     0
171
     0
290
     0
174
     0
 93
       13
 44
0.0
173
     0
291
     1
 45
0.0
1001
ACAD
1000
AcDbSavedByObjectVersion
1070
     0
  0
VISUALSTYLE
  5
2E
102
{ACAD_REACTORS
330
2A
102
}
102
{ACAD_XDICTIONARY
360
666
102
}
330
2A
100
AcDbVisualStyle
  2
GouraudWithEdges
 70
     3
 71
     2
 72
     2
 73
     1
 90
        2
 40
-0.6
 41
30.0
 62
     5
 63
     7
 74
     1
 91
        4
 64
     7
 65
   257
 75
     1
175
     1
 42
1.0
 92
        0
 66
   257
 43
1.0
 76
     1
 77
     6
 78
     2
 67
     7
 79
     5
170
     0
171
     0
290
     0
174
     0
 93
       13
 44
0.0
173
     0
291
     1
 45
0.0
1001
ACAD
1000
AcDbSavedByObjectVersion
1070
     0
  0
VISUALSTYLE
  5
38
102
{ACAD_REACTORS
330
2A
102
}
102
{ACAD_XDICTIONARY
360
67A
102
}
330
2A
100
AcDbVisualStyle
  2
Linepattern
 70
    14
 71
     2
 72
     2
 73
     0
 90
        0
 40
-0.6
 41
-30.0
 62
     5
 63
     7
 74
     1
 91
        4
 64
     7
 65
   257
 75
     7
175
     7
 42
1.0
 92
        8
 66
     7
 43
1.0
 76
     1
 77
     6
 78
     2
 67
     7
 79
     5
170
     0
171
     0
290
     0
174
     0
 93
        1
 44
0.0
173
     0
291
     1
 45
0.0
1001
ACAD
1000
AcDbSavedByObjectVersion
1070
     0
  0
VISUALSTYLE
  5
33
102
{ACAD_REACTORS
330
2A
102
}
102
{ACAD_XDICTIONARY
360
670
102
}
330
2A
100
AcDbVisualStyle
  2
Realistic
 70
     8
 71
     2
 72
     2
 73
     0
 90
        0
 40
-0.6
 41
-30.0
 62
     5
 63
     7
 74
     1
 91
        0
 64
     7
 65
   257
 75
     1
175
     1
 42
1.0
 92
        8
 66
     8
 43
1.0
 76
     1
 77
     6
 78
     2
 67
     7
 79
     5
170
     0
171
     0
290
     0
174
     0
 93
       13
 44
0.0
173
     0
291
     0
 45
0.0
1001
ACAD
1000
AcDbSavedByObjectVersion
1070
     0
  0
VISUALSTYLE
  5
37
102
{ACAD_REACTORS
330
2A
102
}
102
{ACAD_XDICTIONARY
360
678
102
}
330
2A
100
AcDbVisualStyle
  2
Thicken
 70
    13
 71
     2
 72
     2
 73
     0
 90
        0
 40
-0.6
 41
-30.0
 62
     5
 63
     7
 74
     1
 91
        4
 64
     7
 65
   257
 75
     1
175
     1
 42
1.0
 92
       12
 66
     7
 43
1.0
 76
     1
 77
     6
 78
     2
 67
     7
 79
     5
170
     0
171
     0
290
     0
174
     0
 93
        1
 44
0.0
173
     0
291
     1
 45
0.0
1001
ACAD
1000
AcDbSavedByObjectVersion
1070
     0
  0
DICTIONARYVAR
  5
65B
102
{ACAD_REACTORS
330
657
102
}
330
657
100
DictionaryVariables
280
     0
  1
1:1
  0
DICTIONARYVAR
  5
65C
102
{ACAD_REACTORS
330
657
102
}
330
657
100
DictionaryVariables
280
     0
  1
2
  0
DICTIONARYVAR
  5
65D
102
{ACAD_REACTORS
330
657
102
}
330
657
100
DictionaryVariables
280
     0
  1
1
  0
DICTIONARYVAR
  5
65A
102
{ACAD_REACTORS
330
657
102
}
330
657
100
DictionaryVariables
280
     0
  1
0
  0
XRECORD
  5
656
102
{ACAD_REACTORS
330
655
102
}
330
655
100
AcDbXrecord
280
     1
1000
This DWG file was created in ArchiCAD(TM)®
  0
SPATIAL_FILTER
  5
62F
102
{ACAD_REACTORS
330
62E
102
}
330
62E
100
AcDbFilter
100
AcDbSpatialFilter
 70
     4
 10
46.3773244410241
 20
23.56187964509124
 10
246.2123859504618
 20
23.56187964509124
 10
246.2123859504618
 20
198.9052447763431
 10
46.3773244410241
 20
198.9052447763431
210
0.0
220
0.0
230
1.0
 11
0.0
 21
0.0
 31
0.0
 71
     1
 72
     0
 73
     0
 40
1.0
 40
0.0
 40
0.0
 40
0.0
 40
0.0
 40
1.0
 40
0.0
 40
0.0
 40
0.0
 40
0.0
 40
1.0
 40
0.0
 40
1.0
 40
0.0
 40
0.0
 40
0.0
 40
0.0
 40
1.0
 40
0.0
 40
0.0
 40
0.0
 40
0.0
 40
1.0
 40
0.0
  0
DICTIONARY
  5
682
330
3D
100
AcDbDictionary
280
     1
281
     1
  3
ACAD_XREC_ROUNDTRIP
360
683
  0
DICTIONARY
  5
680
330
3C
100
AcDbDictionary
280
     1
281
     1
  3
ACAD_XREC_ROUNDTRIP
360
681
  0
DICTIONARY
  5
684
330
3E
100
AcDbDictionary
280
     1
281
     1
  3
ACAD_XREC_ROUNDTRIP
360
685
  0
DICTIONARY
  5
668
330
2F
100
AcDbDictionary
280
     1
281
     1
  3
ACAD_XREC_ROUNDTRIP
360
669
  0
DICTIONARY
  5
66C
330
31
100
AcDbDictionary
280
     1
281
     1
  3
ACAD_XREC_ROUNDTRIP
360
66D
  0
DICTIONARY
  5
66A
330
30
100
AcDbDictionary
280
     1
281
     1
  3
ACAD_XREC_ROUNDTRIP
360
66B
  0
DICTIONARY
  5
66E
330
32
100
AcDbDictionary
280
     1
281
     1
  3
ACAD_XREC_ROUNDTRIP
360
66F
  0
DICTIONARY
  5
676
330
36
100
AcDbDictionary
280
     1
281
     1
  3
ACAD_XREC_ROUNDTRIP
360
677
  0
DICTIONARY
  5
67E
330
3A
100
AcDbDictionary
280
     1
281
     1
  3
ACAD_XREC_ROUNDTRIP
360
67F
  0
DICTIONARY
  5
672
330
34
100
AcDbDictionary
280
     1
281
     1
  3
ACAD_XREC_ROUNDTRIP
360
673
  0
DICTIONARY
  5
674
330
35
100
AcDbDictionary
280
     1
281
     1
  3
ACAD_XREC_ROUNDTRIP
360
675
  0
DICTIONARY
  5
67C
330
39
100
AcDbDictionary
280
     1
281
     1
  3
ACAD_XREC_ROUNDTRIP
360
67D
  0
DICTIONARY
  5
660
330
2B
100
AcDbDictionary
280
     1
281
     1
  3
ACAD_XREC_ROUNDTRIP
360
661
  0
DICTIONARY
  5
662
330
2C
100
AcDbDictionary
280
     1
281
     1
  3
ACAD_XREC_ROUNDTRIP
360
663
  0
DICTIONARY
  5
664
330
2D
100
AcDbDictionary
280
     1
281
     1
  3
ACAD_XREC_ROUNDTRIP
360
665
  0
DICTIONARY
  5
666
330
2E
100
AcDbDictionary
280
     1
281
     1
  3
ACAD_XREC_ROUNDTRIP
360
667
  0
DICTIONARY
  5
67A
330
38
100
AcDbDictionary
280
     1
281
     1
  3
ACAD_XREC_ROUNDTRIP
360
67B
  0
DICTIONARY
  5
670
330
33
100
AcDbDictionary
280
     1
281
     1
  3
ACAD_XREC_ROUNDTRIP
360
671
  0
DICTIONARY
  5
678
330
37
100
AcDbDictionary
280
     1
281
     1
  3
ACAD_XREC_ROUNDTRIP
360
679
  0
XRECORD
  5
683
102
{ACAD_REACTORS
330
682
102
}
330
682
100
AcDbXrecord
280
     1
102
MATERIAL
148
0.0
149
0.0
149
0.0
 93
        0
 94
      127
282
     0
 72
     1
 77
     1
171
     1
175
     1
179
     1
273
     0
  0
XRECORD
  5
681
102
{ACAD_REACTORS
330
680
102
}
330
680
100
AcDbXrecord
280
     1
102
MATERIAL
148
0.0
149
0.0
149
0.0
 93
        0
 94
      127
282
     0
 72
     1
 77
     1
171
     1
175
     1
179
     1
273
     0
  0
XRECORD
  5
685
102
{ACAD_REACTORS
330
684
102
}
330
684
100
AcDbXrecord
280
     1
102
MATERIAL
148
0.0
149
0.0
149
0.0
 93
        0
 94
      127
282
     0
 72
     1
 77
     1
171
     1
175
     1
179
     1
273
     0
  0
XRECORD
  5
669
102
{ACAD_REACTORS
330
668
102
}
330
668
100
AcDbXrecord
280
     1
102
RTVSPropertyOp0
 70
     1
102
RTVSPropertyOp1
 70
     1
102
RTVSPropertyOp2
 70
     1
102
RTVSPropertyOp3
 70
     1
102
RTVSPropertyOp4
 70
     1
102
RTVSPropertyOp5
 70
     1
102
RTVSPropertyOp6
 70
     1
102
RTVSPropertyOp7
 70
     1
102
RTVSPropertyOp8
 70
     1
102
RTVSPropertyOp9
 70
     1
102
RTVSPropertyOp10
 70
     1
102
RTVSPropertyOp11
 70
     1
102
RTVSPropertyOp12
 70
     1
102
RTVSPropertyOp13
 70
     1
102
RTVSPropertyOp14
 70
     1
102
RTVSPropertyOp15
 70
     1
102
RTVSPropertyOp16
 70
     1
102
RTVSPropertyOp17
 70
     1
102
RTVSPropertyOp18
 70
     1
102
RTVSPropertyOp19
 70
     1
102
RTVSPropertyOp20
 70
     1
102
RTVSPropertyOp21
 70
     1
102
RTVSPropertyOp22
 70
     1
102
RTVSPropertyOp23
 70
     1
102
RTVSPropertyOp24
 70
     1
102
RTVSPropertyOp25
 70
     1
102
RTVSPropertyOp26
 70
     1
102
RTVSPropertyOp27
 70
     1
102
RTVSPropertyOp28
 70
     1
102
RTVSPropertyOp29
 70
     1
102
RTVSPropertyOp30
 70
     1
102
RTVSPropertyOp31
 70
     1
102
RTVSPropertyOp32
 70
     1
  0
XRECORD
  5
66D
102
{ACAD_REACTORS
330
66C
102
}
330
66C
100
AcDbXrecord
280
     1
102
RTVSPropertyOp0
 70
     1
102
RTVSPropertyOp1
 70
     1
102
RTVSPropertyOp2
 70
     1
102
RTVSPropertyOp3
 70
     1
102
RTVSPropertyOp4
 70
     1
102
RTVSPropertyOp5
 70
     1
102
RTVSPropertyOp6
 70
     1
102
RTVSPropertyOp7
 70
     1
102
RTVSPropertyOp8
 70
     1
102
RTVSPropertyOp9
 70
     1
102
RTVSPropertyOp10
 70
     1
102
RTVSPropertyOp11
 70
     1
102
RTVSPropertyOp12
 70
     1
102
RTVSPropertyOp13
 70
     1
102
RTVSPropertyOp14
 70
     1
102
RTVSPropertyOp15
 70
     1
102
RTVSPropertyOp16
 70
     1
102
RTVSPropertyOp17
 70
     1
102
RTVSPropertyOp18
 70
     1
102
RTVSPropertyOp19
 70
     1
102
RTVSPropertyOp20
 70
     1
102
RTVSPropertyOp21
 70
     1
102
RTVSPropertyOp22
 70
     1
102
RTVSPropertyOp23
 70
     1
102
RTVSPropertyOp24
 70
     1
102
RTVSPropertyOp25
 70
     1
102
RTVSPropertyOp26
 70
     1
102
RTVSPropertyOp27
 70
     1
102
RTVSPropertyOp28
 70
     1
102
RTVSPropertyOp29
 70
     1
102
RTVSPropertyOp30
 70
     1
102
RTVSPropertyOp31
 70
     1
102
RTVSPropertyOp32
 70
     1
  0
XRECORD
  5
66B
102
{ACAD_REACTORS
330
66A
102
}
330
66A
100
AcDbXrecord
280
     1
102
RTVSPropertyOp0
 70
     1
102
RTVSPropertyOp1
 70
     1
102
RTVSPropertyOp2
 70
     1
102
RTVSPropertyOp3
 70
     1
102
RTVSPropertyOp4
 70
     1
102
RTVSPropertyOp5
 70
     1
102
RTVSPropertyOp6
 70
     1
102
RTVSPropertyOp7
 70
     1
102
RTVSPropertyOp8
 70
     1
102
RTVSPropertyOp9
 70
     1
102
RTVSPropertyOp10
 70
     1
102
RTVSPropertyOp11
 70
     1
102
RTVSPropertyOp12
 70
     1
102
RTVSPropertyOp13
 70
     1
102
RTVSPropertyOp14
 70
     1
102
RTVSPropertyOp15
 70
     1
102
RTVSPropertyOp16
 70
     1
102
RTVSPropertyOp17
 70
     1
102
RTVSPropertyOp18
 70
     1
102
RTVSPropertyOp19
 70
     1
102
RTVSPropertyOp20
 70
     1
102
RTVSPropertyOp21
 70
     1
102
RTVSPropertyOp22
 70
     1
102
RTVSPropertyOp23
 70
     1
102
RTVSPropertyOp24
 70
     1
102
RTVSPropertyOp25
 70
     1
102
RTVSPropertyOp26
 70
     1
102
RTVSPropertyOp27
 70
     1
102
RTVSPropertyOp28
 70
     1
102
RTVSPropertyOp29
 70
     1
102
RTVSPropertyOp30
 70
     1
102
RTVSPropertyOp31
 70
     1
102
RTVSPropertyOp32
 70
     1
  0
XRECORD
  5
66F
102
{ACAD_REACTORS
330
66E
102
}
330
66E
100
AcDbXrecord
280
     1
102
RTVSPropertyOp0
 70
     1
102
RTVSPropertyOp1
 70
     1
102
RTVSPropertyOp2
 70
     1
102
RTVSPropertyOp3
 70
     1
102
RTVSPropertyOp4
 70
     1
102
RTVSPropertyOp5
 70
     1
102
RTVSPropertyOp6
 70
     1
102
RTVSPropertyOp7
 70
     1
102
RTVSPropertyOp8
 70
     1
102
RTVSPropertyOp9
 70
     1
102
RTVSPropertyOp10
 70
     1
102
RTVSPropertyOp11
 70
     1
102
RTVSPropertyOp12
 70
     1
102
RTVSPropertyOp13
 70
     1
102
RTVSPropertyOp14
 70
     1
102
RTVSPropertyOp15
 70
     1
102
RTVSPropertyOp16
 70
     1
102
RTVSPropertyOp17
 70
     1
102
RTVSPropertyOp18
 70
     1
102
RTVSPropertyOp19
 70
     1
102
RTVSPropertyOp20
 70
     1
102
RTVSPropertyOp21
 70
     1
102
RTVSPropertyOp22
 70
     1
102
RTVSPropertyOp23
 70
     1
102
RTVSPropertyOp24
 70
     1
102
RTVSPropertyOp25
 70
     1
102
RTVSPropertyOp26
 70
     1
102
RTVSPropertyOp27
 70
     1
102
RTVSPropertyOp28
 70
     1
102
RTVSPropertyOp29
 70
     1
102
RTVSPropertyOp30
 70
     1
102
RTVSPropertyOp31
 70
     1
102
RTVSPropertyOp32
 70
     1
  0
XRECORD
  5
677
102
{ACAD_REACTORS
330
676
102
}
330
676
100
AcDbXrecord
280
     1
102
RTVSPropertyOp0
 70
     1
102
RTVSPropertyOp1
 70
     1
102
RTVSPropertyOp2
 70
     1
102
RTVSPropertyOp3
 70
     1
102
RTVSPropertyOp4
 70
     1
102
RTVSPropertyOp5
 70
     1
102
RTVSPropertyOp6
 70
     1
102
RTVSPropertyOp7
 70
     1
102
RTVSPropertyOp8
 70
     1
102
RTVSPropertyOp9
 70
     1
102
RTVSPropertyOp10
 70
     1
102
RTVSPropertyOp11
 70
     1
102
RTVSPropertyOp12
 70
     1
102
RTVSPropertyOp13
 70
     1
102
RTVSPropertyOp14
 70
     1
102
RTVSPropertyOp15
 70
     1
102
RTVSPropertyOp16
 70
     1
102
RTVSPropertyOp17
 70
     1
102
RTVSPropertyOp18
 70
     1
102
RTVSPropertyOp19
 70
     1
102
RTVSPropertyOp20
 70
     1
102
RTVSPropertyOp21
 70
     1
102
RTVSPropertyOp22
 70
     1
102
RTVSPropertyOp23
 70
     1
102
RTVSPropertyOp24
 70
     1
102
RTVSPropertyOp25
 70
     1
102
RTVSPropertyOp26
 70
     1
102
RTVSPropertyOp27
 70
     1
102
RTVSPropertyOp28
 70
     1
102
RTVSPropertyOp29
 70
     1
102
RTVSPropertyOp30
 70
     1
102
RTVSPropertyOp31
 70
     1
102
RTVSPropertyOp32
 70
     1
  0
XRECORD
  5
67F
102
{ACAD_REACTORS
330
67E
102
}
330
67E
100
AcDbXrecord
280
     1
102
RTVSPropertyOp0
 70
     1
102
RTVSPropertyOp1
 70
     1
102
RTVSPropertyOp2
 70
     1
102
RTVSPropertyOp3
 70
     1
102
RTVSPropertyOp4
 70
     1
102
RTVSPropertyOp5
 70
     1
102
RTVSPropertyOp6
 70
     1
102
RTVSPropertyOp7
 70
     1
102
RTVSPropertyOp8
 70
     1
102
RTVSPropertyOp9
 70
     1
102
RTVSPropertyOp10
 70
     1
102
RTVSPropertyOp11
 70
     1
102
RTVSPropertyOp12
 70
     1
102
RTVSPropertyOp13
 70
     1
102
RTVSPropertyOp14
 70
     1
102
RTVSPropertyOp15
 70
     1
102
RTVSPropertyOp16
 70
     1
102
RTVSPropertyOp17
 70
     1
102
RTVSPropertyOp18
 70
     1
102
RTVSPropertyOp19
 70
     1
102
RTVSPropertyOp20
 70
     1
102
RTVSPropertyOp21
 70
     1
102
RTVSPropertyOp22
 70
     1
102
RTVSPropertyOp23
 70
     1
102
RTVSPropertyOp24
 70
     1
102
RTVSPropertyOp25
 70
     1
102
RTVSPropertyOp26
 70
     1
102
RTVSPropertyOp27
 70
     1
102
RTVSPropertyOp28
 70
     1
102
RTVSPropertyOp29
 70
     1
102
RTVSPropertyOp30
 70
     1
102
RTVSPropertyOp31
 70
     1
102
RTVSPropertyOp32
 70
     1
  0
XRECORD
  5
673
102
{ACAD_REACTORS
330
672
102
}
330
672
100
AcDbXrecord
280
     1
102
RTVSPropertyOp0
 70
     1
102
RTVSPropertyOp1
 70
     1
102
RTVSPropertyOp2
 70
     1
102
RTVSPropertyOp3
 70
     1
102
RTVSPropertyOp4
 70
     1
102
RTVSPropertyOp5
 70
     1
102
RTVSPropertyOp6
 70
     1
102
RTVSPropertyOp7
 70
     1
102
RTVSPropertyOp8
 70
     1
102
RTVSPropertyOp9
 70
     1
102
RTVSPropertyOp10
 70
     1
102
RTVSPropertyOp11
 70
     1
102
RTVSPropertyOp12
 70
     1
102
RTVSPropertyOp13
 70
     1
102
RTVSPropertyOp14
 70
     1
102
RTVSPropertyOp15
 70
     1
102
RTVSPropertyOp16
 70
     1
102
RTVSPropertyOp17
 70
     1
102
RTVSPropertyOp18
 70
     1
102
RTVSPropertyOp19
 70
     1
102
RTVSPropertyOp20
 70
     1
102
RTVSPropertyOp21
 70
     1
102
RTVSPropertyOp22
 70
     1
102
RTVSPropertyOp23
 70
     1
102
RTVSPropertyOp24
 70
     1
102
RTVSPropertyOp25
 70
     1
102
RTVSPropertyOp26
 70
     1
102
RTVSPropertyOp27
 70
     1
102
RTVSPropertyOp28
 70
     1
102
RTVSPropertyOp29
 70
     1
102
RTVSPropertyOp30
 70
     1
102
RTVSPropertyOp31
 70
     1
102
RTVSPropertyOp32
 70
     1
  0
XRECORD
  5
675
102
{ACAD_REACTORS
330
674
102
}
330
674
100
AcDbXrecord
280
     1
102
RTVSPropertyOp0
 70
     1
102
RTVSPropertyOp1
 70
     1
102
RTVSPropertyOp2
 70
     1
102
RTVSPropertyOp3
 70
     1
102
RTVSPropertyOp4
 70
     1
102
RTVSPropertyOp5
 70
     1
102
RTVSPropertyOp6
 70
     1
102
RTVSPropertyOp7
 70
     1
102
RTVSPropertyOp8
 70
     1
102
RTVSPropertyOp9
 70
     1
102
RTVSPropertyOp10
 70
     1
102
RTVSPropertyOp11
 70
     1
102
RTVSPropertyOp12
 70
     1
102
RTVSPropertyOp13
 70
     1
102
RTVSPropertyOp14
 70
     1
102
RTVSPropertyOp15
 70
     1
102
RTVSPropertyOp16
 70
     1
102
RTVSPropertyOp17
 70
     1
102
RTVSPropertyOp18
 70
     1
102
RTVSPropertyOp19
 70
     1
102
RTVSPropertyOp20
 70
     1
102
RTVSPropertyOp21
 70
     1
102
RTVSPropertyOp22
 70
     1
102
RTVSPropertyOp23
 70
     1
102
RTVSPropertyOp24
 70
     1
102
RTVSPropertyOp25
 70
     1
102
RTVSPropertyOp26
 70
     1
102
RTVSPropertyOp27
 70
     1
102
RTVSPropertyOp28
 70
     1
102
RTVSPropertyOp29
 70
     1
102
RTVSPropertyOp30
 70
     1
102
RTVSPropertyOp31
 70
     1
102
RTVSPropertyOp32
 70
     1
  0
XRECORD
  5
67D
102
{ACAD_REACTORS
330
67C
102
}
330
67C
100
AcDbXrecord
280
     1
102
RTVSPropertyOp0
 70
     1
102
RTVSPropertyOp1
 70
     1
102
RTVSPropertyOp2
 70
     1
102
RTVSPropertyOp3
 70
     1
102
RTVSPropertyOp4
 70
     1
102
RTVSPropertyOp5
 70
     1
102
RTVSPropertyOp6
 70
     1
102
RTVSPropertyOp7
 70
     1
102
RTVSPropertyOp8
 70
     1
102
RTVSPropertyOp9
 70
     1
102
RTVSPropertyOp10
 70
     1
102
RTVSPropertyOp11
 70
     1
102
RTVSPropertyOp12
 70
     1
102
RTVSPropertyOp13
 70
     1
102
RTVSPropertyOp14
 70
     1
102
RTVSPropertyOp15
 70
     1
102
RTVSPropertyOp16
 70
     1
102
RTVSPropertyOp17
 70
     1
102
RTVSPropertyOp18
 70
     1
102
RTVSPropertyOp19
 70
     1
102
RTVSPropertyOp20
 70
     1
102
RTVSPropertyOp21
 70
     1
102
RTVSPropertyOp22
 70
     1
102
RTVSPropertyOp23
 70
     1
102
RTVSPropertyOp24
 70
     1
102
RTVSPropertyOp25
 70
     1
102
RTVSPropertyOp26
 70
     1
102
RTVSPropertyOp27
 70
     1
102
RTVSPropertyOp28
 70
     1
102
RTVSPropertyOp29
 70
     1
102
RTVSPropertyOp30
 70
     1
102
RTVSPropertyOp31
 70
     1
102
RTVSPropertyOp32
 70
     1
  0
XRECORD
  5
661
102
{ACAD_REACTORS
330
660
102
}
330
660
100
AcDbXrecord
280
     1
102
RTVSPropertyOp0
 70
     1
102
RTVSPropertyOp1
 70
     1
102
RTVSPropertyOp2
 70
     1
102
RTVSPropertyOp3
 70
     1
102
RTVSPropertyOp4
 70
     1
102
RTVSPropertyOp5
 70
     1
102
RTVSPropertyOp6
 70
     1
102
RTVSPropertyOp7
 70
     1
102
RTVSPropertyOp8
 70
     1
102
RTVSPropertyOp9
 70
     1
102
RTVSPropertyOp10
 70
     1
102
RTVSPropertyOp11
 70
     1
102
RTVSPropertyOp12
 70
     1
102
RTVSPropertyOp13
 70
     1
102
RTVSPropertyOp14
 70
     1
102
RTVSPropertyOp15
 70
     1
102
RTVSPropertyOp16
 70
     1
102
RTVSPropertyOp17
 70
     1
102
RTVSPropertyOp18
 70
     1
102
RTVSPropertyOp19
 70
     1
102
RTVSPropertyOp20
 70
     1
102
RTVSPropertyOp21
 70
     1
102
RTVSPropertyOp22
 70
     1
102
RTVSPropertyOp23
 70
     1
102
RTVSPropertyOp24
 70
     1
102
RTVSPropertyOp25
 70
     1
102
RTVSPropertyOp26
 70
     1
102
RTVSPropertyOp27
 70
     1
102
RTVSPropertyOp28
 70
     1
102
RTVSPropertyOp29
 70
     1
102
RTVSPropertyOp30
 70
     1
102
RTVSPropertyOp31
 70
     1
102
RTVSPropertyOp32
 70
     1
  0
XRECORD
  5
663
102
{ACAD_REACTORS
330
662
102
}
330
662
100
AcDbXrecord
280
     1
102
RTVSPropertyOp0
 70
     1
102
RTVSPropertyOp1
 70
     1
102
RTVSPropertyOp2
 70
     1
102
RTVSPropertyOp3
 70
     1
102
RTVSPropertyOp4
 70
     1
102
RTVSPropertyOp5
 70
     1
102
RTVSPropertyOp6
 70
     1
102
RTVSPropertyOp7
 70
     1
102
RTVSPropertyOp8
 70
     1
102
RTVSPropertyOp9
 70
     1
102
RTVSPropertyOp10
 70
     1
102
RTVSPropertyOp11
 70
     1
102
RTVSPropertyOp12
 70
     1
102
RTVSPropertyOp13
 70
     1
102
RTVSPropertyOp14
 70
     1
102
RTVSPropertyOp15
 70
     1
102
RTVSPropertyOp16
 70
     1
102
RTVSPropertyOp17
 70
     1
102
RTVSPropertyOp18
 70
     1
102
RTVSPropertyOp19
 70
     1
102
RTVSPropertyOp20
 70
     1
102
RTVSPropertyOp21
 70
     1
102
RTVSPropertyOp22
 70
     1
102
RTVSPropertyOp23
 70
     1
102
RTVSPropertyOp24
 70
     1
102
RTVSPropertyOp25
 70
     1
102
RTVSPropertyOp26
 70
     1
102
RTVSPropertyOp27
 70
     1
102
RTVSPropertyOp28
 70
     1
102
RTVSPropertyOp29
 70
     1
102
RTVSPropertyOp30
 70
     1
102
RTVSPropertyOp31
 70
     1
102
RTVSPropertyOp32
 70
     1
  0
XRECORD
  5
665
102
{ACAD_REACTORS
330
664
102
}
330
664
100
AcDbXrecord
280
     1
102
RTVSPropertyOp0
 70
     1
102
RTVSPropertyOp1
 70
     1
102
RTVSPropertyOp2
 70
     1
102
RTVSPropertyOp3
 70
     1
102
RTVSPropertyOp4
 70
     1
102
RTVSPropertyOp5
 70
     1
102
RTVSPropertyOp6
 70
     1
102
RTVSPropertyOp7
 70
     1
102
RTVSPropertyOp8
 70
     1
102
RTVSPropertyOp9
 70
     1
102
RTVSPropertyOp10
 70
     1
102
RTVSPropertyOp11
 70
     1
102
RTVSPropertyOp12
 70
     1
102
RTVSPropertyOp13
 70
     1
102
RTVSPropertyOp14
 70
     1
102
RTVSPropertyOp15
 70
     1
102
RTVSPropertyOp16
 70
     1
102
RTVSPropertyOp17
 70
     1
102
RTVSPropertyOp18
 70
     1
102
RTVSPropertyOp19
 70
     1
102
RTVSPropertyOp20
 70
     1
102
RTVSPropertyOp21
 70
     1
102
RTVSPropertyOp22
 70
     1
102
RTVSPropertyOp23
 70
     1
102
RTVSPropertyOp24
 70
     1
102
RTVSPropertyOp25
 70
     1
102
RTVSPropertyOp26
 70
     1
102
RTVSPropertyOp27
 70
     1
102
RTVSPropertyOp28
 70
     1
102
RTVSPropertyOp29
 70
     1
102
RTVSPropertyOp30
 70
     1
102
RTVSPropertyOp31
 70
     1
102
RTVSPropertyOp32
 70
     1
  0
XRECORD
  5
667
102
{ACAD_REACTORS
330
666
102
}
330
666
100
AcDbXrecord
280
     1
102
RTVSPropertyOp0
 70
     1
102
RTVSPropertyOp1
 70
     1
102
RTVSPropertyOp2
 70
     1
102
RTVSPropertyOp3
 70
     1
102
RTVSPropertyOp4
 70
     1
102
RTVSPropertyOp5
 70
     1
102
RTVSPropertyOp6
 70
     1
102
RTVSPropertyOp7
 70
     1
102
RTVSPropertyOp8
 70
     1
102
RTVSPropertyOp9
 70
     1
102
RTVSPropertyOp10
 70
     1
102
RTVSPropertyOp11
 70
     1
102
RTVSPropertyOp12
 70
     1
102
RTVSPropertyOp13
 70
     1
102
RTVSPropertyOp14
 70
     1
102
RTVSPropertyOp15
 70
     1
102
RTVSPropertyOp16
 70
     1
102
RTVSPropertyOp17
 70
     1
102
RTVSPropertyOp18
 70
     1
102
RTVSPropertyOp19
 70
     1
102
RTVSPropertyOp20
 70
     1
102
RTVSPropertyOp21
 70
     1
102
RTVSPropertyOp22
 70
     1
102
RTVSPropertyOp23
 70
     1
102
RTVSPropertyOp24
 70
     1
102
RTVSPropertyOp25
 70
     1
102
RTVSPropertyOp26
 70
     1
102
RTVSPropertyOp27
 70
     1
102
RTVSPropertyOp28
 70
     1
102
RTVSPropertyOp29
 70
     1
102
RTVSPropertyOp30
 70
     1
102
RTVSPropertyOp31
 70
     1
102
RTVSPropertyOp32
 70
     1
  0
XRECORD
  5
67B
102
{ACAD_REACTORS
330
67A
102
}
330
67A
100
AcDbXrecord
280
     1
102
RTVSPropertyOp0
 70
     1
102
RTVSPropertyOp1
 70
     1
102
RTVSPropertyOp2
 70
     1
102
RTVSPropertyOp3
 70
     1
102
RTVSPropertyOp4
 70
     1
102
RTVSPropertyOp5
 70
     1
102
RTVSPropertyOp6
 70
     1
102
RTVSPropertyOp7
 70
     1
102
RTVSPropertyOp8
 70
     1
102
RTVSPropertyOp9
 70
     1
102
RTVSPropertyOp10
 70
     1
102
RTVSPropertyOp11
 70
     1
102
RTVSPropertyOp12
 70
     1
102
RTVSPropertyOp13
 70
     1
102
RTVSPropertyOp14
 70
     1
102
RTVSPropertyOp15
 70
     1
102
RTVSPropertyOp16
 70
     1
102
RTVSPropertyOp17
 70
     1
102
RTVSPropertyOp18
 70
     1
102
RTVSPropertyOp19
 70
     1
102
RTVSPropertyOp20
 70
     1
102
RTVSPropertyOp21
 70
     1
102
RTVSPropertyOp22
 70
     1
102
RTVSPropertyOp23
 70
     1
102
RTVSPropertyOp24
 70
     1
102
RTVSPropertyOp25
 70
     1
102
RTVSPropertyOp26
 70
     1
102
RTVSPropertyOp27
 70
     1
102
RTVSPropertyOp28
 70
     1
102
RTVSPropertyOp29
 70
     1
102
RTVSPropertyOp30
 70
     1
102
RTVSPropertyOp31
 70
     1
102
RTVSPropertyOp32
 70
     1
  0
XRECORD
  5
671
102
{ACAD_REACTORS
330
670
102
}
330
670
100
AcDbXrecord
280
     1
102
RTVSPropertyOp0
 70
     1
102
RTVSPropertyOp1
 70
     1
102
RTVSPropertyOp2
 70
     1
102
RTVSPropertyOp3
 70
     1
102
RTVSPropertyOp4
 70
     1
102
RTVSPropertyOp5
 70
     1
102
RTVSPropertyOp6
 70
     1
102
RTVSPropertyOp7
 70
     1
102
RTVSPropertyOp8
 70
     1
102
RTVSPropertyOp9
 70
     1
102
RTVSPropertyOp10
 70
     1
102
RTVSPropertyOp11
 70
     1
102
RTVSPropertyOp12
 70
     1
102
RTVSPropertyOp13
 70
     1
102
RTVSPropertyOp14
 70
     1
102
RTVSPropertyOp15
 70
     1
102
RTVSPropertyOp16
 70
     1
102
RTVSPropertyOp17
 70
     1
102
RTVSPropertyOp18
 70
     1
102
RTVSPropertyOp19
 70
     1
102
RTVSPropertyOp20
 70
     1
102
RTVSPropertyOp21
 70
     1
102
RTVSPropertyOp22
 70
     1
102
RTVSPropertyOp23
 70
     1
102
RTVSPropertyOp24
 70
     1
102
RTVSPropertyOp25
 70
     1
102
RTVSPropertyOp26
 70
     1
102
RTVSPropertyOp27
 70
     1
102
RTVSPropertyOp28
 70
     1
102
RTVSPropertyOp29
 70
     1
102
RTVSPropertyOp30
 70
     1
102
RTVSPropertyOp31
 70
     1
102
RTVSPropertyOp32
 70
     1
  0
XRECORD
  5
679
102
{ACAD_REACTORS
330
678
102
}
330
678
100
AcDbXrecord
280
     1
102
RTVSPropertyOp0
 70
     1
102
RTVSPropertyOp1
 70
     1
102
RTVSPropertyOp2
 70
     1
102
RTVSPropertyOp3
 70
     1
102
RTVSPropertyOp4
 70
     1
102
RTVSPropertyOp5
 70
     1
102
RTVSPropertyOp6
 70
     1
102
RTVSPropertyOp7
 70
     1
102
RTVSPropertyOp8
 70
     1
102
RTVSPropertyOp9
 70
     1
102
RTVSPropertyOp10
 70
     1
102
RTVSPropertyOp11
 70
     1
102
RTVSPropertyOp12
 70
     1
102
RTVSPropertyOp13
 70
     1
102
RTVSPropertyOp14
 70
     1
102
RTVSPropertyOp15
 70
     1
102
RTVSPropertyOp16
 70
     1
102
RTVSPropertyOp17
 70
     1
102
RTVSPropertyOp18
 70
     1
102
RTVSPropertyOp19
 70
     1
102
RTVSPropertyOp20
 70
     1
102
RTVSPropertyOp21
 70
     1
102
RTVSPropertyOp22
 70
     1
102
RTVSPropertyOp23
 70
     1
102
RTVSPropertyOp24
 70
     1
102
RTVSPropertyOp25
 70
     1
102
RTVSPropertyOp26
 70
     1
102
RTVSPropertyOp27
 70
     1
102
RTVSPropertyOp28
 70
     1
102
RTVSPropertyOp29
 70
     1
102
RTVSPropertyOp30
 70
     1
102
RTVSPropertyOp31
 70
     1
102
RTVSPropertyOp32
 70
     1
  0
ENDSEC
  0
EOF
