  0
SECTION
  2
HEADER
  9
$ACADVER
  1
AC1015
  9
$ACADMAINTVER
 70
     6
  9
$DWGCODEPAGE
  3
ANSI_949
  9
$INSBASE
 10
0.0
 20
0.0
 30
0.0
  9
$EXTMIN
 10
1.000000000000000E+20
 20
1.000000000000000E+20
 30
1.000000000000000E+20
  9
$EXTMAX
 10
-1.000000000000000E+20
 20
-1.000000000000000E+20
 30
-1.000000000000000E+20
  9
$LIMMIN
 10
0.0
 20
0.0
  9
$LIMMAX
 10
12.0
 20
9.0
  9
$ORTHOMODE
 70
     0
  9
$REGENMODE
 70
     1
  9
$FILLMODE
 70
     1
  9
$QTEXTMODE
 70
     0
  9
$MIRRTEXT
 70
     1
  9
$LTSCALE
 40
1.0
  9
$ATTMODE
 70
     1
  9
$TEXTSIZE
 40
0.2
  9
$TRACEWID
 40
0.05
  9
$TEXTSTYLE
  7
Standard
  9
$CLAYER
  8
0
  9
$CELTYPE
  6
ByLayer
  9
$CECOLOR
 62
   256
  9
$CELTSCALE
 40
1.0
  9
$DISPSILH
 70
     0
  9
$DIMSCALE
 40
1.0
  9
$DIMASZ
 40
0.18
  9
$DIMEXO
 40
0.0625
  9
$DIMDLI
 40
0.38
  9
$DIMRND
 40
0.0
  9
$DIMDLE
 40
0.0
  9
$DIMEXE
 40
0.18
  9
$DIMTP
 40
0.0
  9
$DIMTM
 40
0.0
  9
$DIMTXT
 40
0.18
  9
$DIMCEN
 40
0.09
  9
$DIMTSZ
 40
0.0
  9
$DIMTOL
 70
     0
  9
$DIMLIM
 70
     0
  9
$DIMTIH
 70
     1
  9
$DIMTOH
 70
     1
  9
$DIMSE1
 70
     0
  9
$DIMSE2
 70
     0
  9
$DIMTAD
 70
     0
  9
$DIMZIN
 70
     0
  9
$DIMBLK
  1

  9
$DIMASO
 70
     1
  9
$DIMSHO
 70
     1
  9
$DIMPOST
  1

  9
$DIMAPOST
  1

  9
$DIMALT
 70
     0
  9
$DIMALTD
 70
     2
  9
$DIMALTF
 40
25.4
  9
$DIMLFAC
 40
1.0
  9
$DIMTOFL
 70
     0
  9
$DIMTVP
 40
0.0
  9
$DIMTIX
 70
     0
  9
$DIMSOXD
 70
     0
  9
$DIMSAH
 70
     0
  9
$DIMBLK1
  1

  9
$DIMBLK2
  1

  9
$DIMSTYLE
  2
Standard
  9
$DIMCLRD
 70
     0
  9
$DIMCLRE
 70
     0
  9
$DIMCLRT
 70
     0
  9
$DIMTFAC
 40
1.0
  9
$DIMGAP
 40
0.09
  9
$DIMJUST
 70
     0
  9
$DIMSD1
 70
     0
  9
$DIMSD2
 70
     0
  9
$DIMTOLJ
 70
     1
  9
$DIMTZIN
 70
     0
  9
$DIMALTZ
 70
     0
  9
$DIMALTTZ
 70
     0
  9
$DIMUPT
 70
     0
  9
$DIMDEC
 70
     4
  9
$DIMTDEC
 70
     4
  9
$DIMALTU
 70
     2
  9
$DIMALTTD
 70
     2
  9
$DIMTXSTY
  7
Standard
  9
$DIMAUNIT
 70
     0
  9
$DIMADEC
 70
     0
  9
$DIMALTRND
 40
0.0
  9
$DIMAZIN
 70
     0
  9
$DIMDSEP
 70
    46
  9
$DIMATFIT
 70
     3
  9
$DIMFRAC
 70
     0
  9
$DIMLDRBLK
  1

  9
$DIMLUNIT
 70
     2
  9
$DIMLWD
 70
    -2
  9
$DIMLWE
 70
    -2
  9
$DIMTMOVE
 70
     0
  9
$LUNITS
 70
     2
  9
$LUPREC
 70
     4
  9
$SKETCHINC
 40
0.1
  9
$FILLETRAD
 40
0.5
  9
$AUNITS
 70
     0
  9
$AUPREC
 70
     0
  9
$MENU
  1
.
  9
$ELEVATION
 40
0.0
  9
$PELEVATION
 40
0.0
  9
$THICKNESS
 40
0.0
  9
$LIMCHECK
 70
     0
  9
$CHAMFERA
 40
0.5
  9
$CHAMFERB
 40
0.5
  9
$CHAMFERC
 40
1.0
  9
$CHAMFERD
 40
0.0
  9
$SKPOLY
 70
     0
  9
$TDCREATE
 40
2456522.588322211
  9
$TDUCREATE
 40
2456522.088322211
  9
$TDUPDATE
 40
2456522.588350683
  9
$TDUUPDATE
 40
2456522.088350683
  9
$TDINDWG
 40
0.0000000116
  9
$TDUSRTIMER
 40
0.0000000116
  9
$USRTIMER
 70
     1
  9
$ANGBASE
 50
0.0
  9
$ANGDIR
 70
     0
  9
$PDMODE
 70
     0
  9
$PDSIZE
 40
0.0
  9
$PLINEWID
 40
0.0
  9
$SPLFRAME
 70
     0
  9
$SPLINETYPE
 70
     6
  9
$SPLINESEGS
 70
     8
  9
$HANDSEED
  5
687
  9
$SURFTAB1
 70
     6
  9
$SURFTAB2
 70
     6
  9
$SURFTYPE
 70
     6
  9
$SURFU
 70
     6
  9
$SURFV
 70
     6
  9
$UCSBASE
  2

  9
$UCSNAME
  2

  9
$UCSORG
 10
0.0
 20
0.0
 30
0.0
  9
$UCSXDIR
 10
1.0
 20
0.0
 30
0.0
  9
$UCSYDIR
 10
0.0
 20
1.0
 30
0.0
  9
$UCSORTHOREF
  2

  9
$UCSORTHOVIEW
 70
     0
  9
$UCSORGTOP
 10
0.0
 20
0.0
 30
0.0
  9
$UCSORGBOTTOM
 10
0.0
 20
0.0
 30
0.0
  9
$UCSORGLEFT
 10
0.0
 20
0.0
 30
0.0
  9
$UCSORGRIGHT
 10
0.0
 20
0.0
 30
0.0
  9
$UCSORGFRONT
 10
0.0
 20
0.0
 30
0.0
  9
$UCSORGBACK
 10
0.0
 20
0.0
 30
0.0
  9
$PUCSBASE
  2

  9
$PUCSNAME
  2

  9
$PUCSORG
 10
0.0
 20
0.0
 30
0.0
  9
$PUCSXDIR
 10
1.0
 20
0.0
 30
0.0
  9
$PUCSYDIR
 10
0.0
 20
1.0
 30
0.0
  9
$PUCSORTHOREF
  2

  9
$PUCSORTHOVIEW
 70
     0
  9
$PUCSORGTOP
 10
0.0
 20
0.0
 30
0.0
  9
$PUCSORGBOTTOM
 10
0.0
 20
0.0
 30
0.0
  9
$PUCSORGLEFT
 10
0.0
 20
0.0
 30
0.0
  9
$PUCSORGRIGHT
 10
0.0
 20
0.0
 30
0.0
  9
$PUCSORGFRONT
 10
0.0
 20
0.0
 30
0.0
  9
$PUCSORGBACK
 10
0.0
 20
0.0
 30
0.0
  9
$USERI1
 70
     0
  9
$USERI2
 70
     0
  9
$USERI3
 70
     0
  9
$USERI4
 70
     0
  9
$USERI5
 70
     0
  9
$USERR1
 40
0.0
  9
$USERR2
 40
0.0
  9
$USERR3
 40
0.0
  9
$USERR4
 40
0.0
  9
$USERR5
 40
0.0
  9
$WORLDVIEW
 70
     1
  9
$SHADEDGE
 70
     3
  9
$SHADEDIF
 70
    70
  9
$TILEMODE
 70
     1
  9
$MAXACTVP
 70
    64
  9
$PINSBASE
 10
0.0
 20
0.0
 30
0.0
  9
$PLIMCHECK
 70
     0
  9
$PEXTMIN
 10
1.000000000000000E+20
 20
1.000000000000000E+20
 30
1.000000000000000E+20
  9
$PEXTMAX
 10
-1.000000000000000E+20
 20
-1.000000000000000E+20
 30
-1.000000000000000E+20
  9
$PLIMMIN
 10
0.0
 20
0.0
  9
$PLIMMAX
 10
12.0
 20
9.0
  9
$UNITMODE
 70
     0
  9
$VISRETAIN
 70
     1
  9
$PLINEGEN
 70
     0
  9
$PSLTSCALE
 70
     1
  9
$TREEDEPTH
 70
  3020
  9
$CMLSTYLE
  2
Standard
  9
$CMLJUST
 70
     0
  9
$CMLSCALE
 40
1.0
  9
$PROXYGRAPHICS
 70
     1
  9
$MEASUREMENT
 70
     0
  9
$CELWEIGHT
370
    -1
  9
$ENDCAPS
280
     0
  9
$JOINSTYLE
280
     0
  9
$LWDISPLAY
290
     1
  9
$INSUNITS
 70
     4
  9
$HYPERLINKBASE
  1

  9
$STYLESHEET
  1

  9
$XEDIT
290
     1
  9
$CEPSNTYPE
380
     0
  9
$PSTYLEMODE
290
     1
  9
$FINGERPRINTGUID
  2
{D60D0AF8-DAA7-470E-82C7-BCD3918050DC}
  9
$VERSIONGUID
  2
{FAEB1C32-E019-11D5-929B-00C0DF256EC4}
  9
$EXTNAMES
290
     1
  9
$PSVPSCALE
 40
0.0
  9
$OLESTARTUP
290
     0
  0
ENDSEC
  0
SECTION
  2
CLASSES
  0
CLASS
  1
ACDBDICTIONARYWDFLT
  2
AcDbDictionaryWithDefault
  3
ObjectDBX Classes
 90
        0
280
     0
281
     0
  0
CLASS
  1
VISUALSTYLE
  2
AcDbVisualStyle
  3
ObjectDBX Classes
 90
     4095
280
     0
281
     0
  0
CLASS
  1
MATERIAL
  2
AcDbMaterial
  3
ObjectDBX Classes
 90
     1153
280
     0
281
     0
  0
CLASS
  1
SPATIAL_FILTER
  2
AcDbSpatialFilter
  3
ObjectDBX Classes
 90
        0
280
     0
281
     0
  0
CLASS
  1
SCALE
  2
AcDbScale
  3
ObjectDBX Classes
 90
     1153
280
     0
281
     0
  0
CLASS
  1
DICTIONARYVAR
  2
AcDbDictionaryVar
  3
ObjectDBX Classes
 90
        0
280
     0
281
     0
  0
CLASS
  1
ACDBPLACEHOLDER
  2
AcDbPlaceHolder
  3
ObjectDBX Classes
 90
        0
280
     0
281
     0
  0
CLASS
  1
LAYOUT
  2
AcDbLayout
  3
ObjectDBX Classes
 90
        0
280
     0
281
     0
  0
ENDSEC
  0
SECTION
  2
TABLES
  0
TABLE
  2
VPORT
  5
8
330
0
100
AcDbSymbolTable
 70
     1
  0
VPORT
  5
29
330
8
100
AcDbSymbolTableRecord
100
AcDbViewportTableRecord
  2
*Active
 70
     0
 10
0.0
 20
0.0
 11
1.0
 21
1.0
 12
148.6203422501967
 22
97.01054600287482
 13
0.0
 23
0.0
 14
0.5
 24
0.5
 15
0.5
 25
0.5
 16
0.0
 26
0.0
 36
1.0
 17
0.0
 27
0.0
 37
0.0
 40
193.7666017324761
 41
1.490997388632183
 42
50.0
 43
0.0
 44
0.0
 50
0.0
 51
0.0
 71
     0
 72
   100
 73
     1
 74
     3
 75
     0
 76
     0
 77
     0
 78
     0
281
     0
 65
     1
110
0.0
120
0.0
130
0.0
111
1.0
121
0.0
131
0.0
112
0.0
122
1.0
132
0.0
 79
     0
146
0.0
  0
ENDTAB
  0
TABLE
  2
LTYPE
  5
5
330
0
100
AcDbSymbolTable
 70
     2
  0
LTYPE
  5
14
330
5
100
AcDbSymbolTableRecord
100
AcDbLinetypeTableRecord
  2
ByBlock
 70
     0
  3

 72
    65
 73
     0
 40
0.0
  0
LTYPE
  5
15
330
5
100
AcDbSymbolTableRecord
100
AcDbLinetypeTableRecord
  2
ByLayer
 70
     0
  3

 72
    65
 73
     0
 40
0.0
  0
LTYPE
  5
16
330
5
100
AcDbSymbolTableRecord
100
AcDbLinetypeTableRecord
  2
Continuous
 70
     0
  3
Solid line
 72
    65
 73
     0
 40
0.0
  0
LTYPE
  5
11E
330
5
100
AcDbSymbolTableRecord
100
AcDbLinetypeTableRecord
  2
Dashed
 70
     0
  3
- - - - - 
 72
    65
 73
     2
 40
5.644444465637207
 49
2.822222232818604
 74
     0
 49
-2.822222232818603
 74
     0
  0
ENDTAB
  0
TABLE
  2
LAYER
  5
2
330
0
100
AcDbSymbolTable
 70
     3
  0
LAYER
  5
10
330
2
100
AcDbSymbolTableRecord
100
AcDbLayerTableRecord
  2
0
 70
     0
 62
     7
  6
Continuous
370
    -3
390
F
  0
LAYER
  5
40
330
2
100
AcDbSymbolTableRecord
100
AcDbLayerTableRecord
  2
Doc_ Finishes
 70
     0
 62
     7
  6
Continuous
370
    -3
390
F
  0
LAYER
  5
DB
330
2
100
AcDbSymbolTableRecord
100
AcDbLayerTableRecord
  2
Doc_ Floor
 70
     0
 62
     7
  6
Continuous
370
    -3
390
F
  0
ENDTAB
  0
TABLE
  2
STYLE
  5
3
330
0
100
AcDbSymbolTable
 70
     4
  0
STYLE
  5
11
330
3
100
AcDbSymbolTableRecord
100
AcDbTextStyleTableRecord
  2
Standard
 70
     0
 40
0.0
 41
1.0
 50
0.0
 71
     0
 42
0.2
  3
txt
  4

  0
STYLE
  5
D6
330
3
100
AcDbSymbolTableRecord
100
AcDbTextStyleTableRecord
  2
GENERATED_STYLE_1
 70
     0
 40
0.0
 41
1.0
 50
0.0
 71
     0
 42
0.2
  3

  4

1001
ACAD
1000
Century Gothic
1071
       34
  0
STYLE
  5
D9
330
3
100
AcDbSymbolTableRecord
100
AcDbTextStyleTableRecord
  2
GENERATED_STYLE_2
 70
     0
 40
0.0
 41
1.0
 50
0.0
 71
     0
 42
0.2
  3

  4

1001
ACAD
1000
DilleniaUPC
1071
 33554450
  0
STYLE
  5
141
330
3
100
AcDbSymbolTableRecord
100
AcDbTextStyleTableRecord
  2
GENERATED_STYLE_3
 70
     0
 40
0.0
 41
1.0
 50
0.0
 71
     0
 42
0.2
  3

  4

1001
ACAD
1000
Arial
1071
       34
  0
ENDTAB
  0
TABLE
  2
VIEW
  5
6
330
0
100
AcDbSymbolTable
 70
     0
  0
ENDTAB
  0
TABLE
  2
UCS
  5
7
330
0
100
AcDbSymbolTable
 70
     0
  0
ENDTAB
  0
TABLE
  2
APPID
  5
9
330
0
100
AcDbSymbolTable
 70
     1
  0
APPID
  5
12
330
9
100
AcDbSymbolTableRecord
100
AcDbRegAppTableRecord
  2
ACAD
 70
     0
  0
ENDTAB
  0
TABLE
  2
DIMSTYLE
  5
A
330
0
100
AcDbSymbolTable
 70
     1
100
AcDbDimStyleTable
  0
DIMSTYLE
105
27
330
A
100
AcDbSymbolTableRecord
100
AcDbDimStyleTableRecord
  2
Standard
 70
     0
178
     0
340
11
  0
ENDTAB
  0
TABLE
  2
BLOCK_RECORD
  5
1
330
0
100
AcDbSymbolTable
 70
     3
  0
BLOCK_RECORD
  5
1F
330
1
100
AcDbSymbolTableRecord
100
AcDbBlockTableRecord
  2
*Model_Space
340
22
  0
BLOCK_RECORD
  5
1B
330
1
100
AcDbSymbolTableRecord
100
AcDbBlockTableRecord
  2
*Paper_Space
340
1E
  0
BLOCK_RECORD
  5
E3
330
1
100
AcDbSymbolTableRecord
100
AcDbBlockTableRecord
  2
Drawing_1_2
340
0
102
{BLKREFS
331
62D
102
}
  0
BLOCK_RECORD
  5
631
330
1
100
AcDbSymbolTableRecord
100
AcDbBlockTableRecord
  2
R-TRS9-06 BARGE DETAIL - HEAD_STORY_MARKER
340
0
  0
ENDTAB
  0
ENDSEC
  0
SECTION
  2
BLOCKS
  0
BLOCK
  5
20
330
1F
100
AcDbEntity
  8
0
100
AcDbBlockBegin
  2
*Model_Space
 70
     0
 10
0.0
 20
0.0
 30
0.0
  3
*Model_Space
  1

  0
ENDBLK
  5
21
330
1F
100
AcDbEntity
  8
0
100
AcDbBlockEnd
  0
BLOCK
  5
1C
330
1B
100
AcDbEntity
 67
     1
  8
0
100
AcDbBlockBegin
  2
*Paper_Space
 70
     0
 10
0.0
 20
0.0
 30
0.0
  3
*Paper_Space
  1

  0
ENDBLK
  5
1D
330
1B
100
AcDbEntity
 67
     1
  8
0
100
AcDbBlockEnd
  0
BLOCK
  5
E4
330
E3
100
AcDbEntity
  8
0
100
AcDbBlockBegin
  2
Drawing_1_2
 70
     0
 10
107.2260115974659
 20
-35.16744529250214
 30
0.0
  3
Drawing_1_2
  1

  0
HATCH
  5
E6
330
E3
100
AcDbEntity
  8
0
  6
Continuous
 62
   255
370
     0
100
AcDbHatch
 10
0.0
 20
0.0
 30
0.0
210
0.0
220
0.0
230
1.0
  2
SOLID
 70
     1
 71
     0
 91
        1
 92
        3
 72
     0
 73
     1
 93
        4
 10
139.5725703313196
 20
32.4027868319835
 10
268.2951204155992
 20
32.4027868319835
 10
268.2951204155992
 20
105.2866077618993
 10
139.5725703313196
 20
127.9838673464639
 97
        0
 75
     0
 76
     1
 98
        0
  0
HATCH
  5
E7
330
E3
100
AcDbEntity
  8
0
  6
Continuous
 62
   255
370
     0
100
AcDbHatch
 10
0.0
 20
0.0
 30
0.0
210
0.0
220
0.0
230
1.0
  2
SOLID
 70
     1
 71
     0
 91
        1
 92
        3
 72
     0
 73
     1
 93
        4
 10
139.5725642695223
 20
127.9838682952208
 10
268.2951251912679
 20
105.2866110479837
 10
268.2951251912679
 20
123.564288958505
 10
139.5725642695223
 20
146.2615462057422
 97
        0
 75
     0
 76
     1
 98
        0
  0
LINE
  5
E8
330
E3
100
AcDbEntity
  8
0
  6
Continuous
100
AcDbLine
 10
139.5725642695223
 20
146.2615473091642
 30
0.0
 11
268.2951251912679
 21
123.5642900619271
 31
0.0
  0
LINE
  5
E9
330
E3
100
AcDbEntity
  8
0
  6
Continuous
100
AcDbLine
 10
139.572569603554
 20
127.9838711399741
 30
0.0
 11
139.572569603554
 21
146.2615502536416
 31
0.0
  0
LINE
  5
EA
330
E3
100
AcDbEntity
  8
0
  6
Continuous
100
AcDbLine
 10
268.2951204155992
 20
105.2866077618993
 30
0.0
 11
139.5725703313196
 21
127.9838673464639
 31
0.0
  0
HATCH
  5
EB
330
E3
100
AcDbEntity
  8
0
  6
Continuous
 62
   255
370
     0
100
AcDbHatch
 10
0.0
 20
0.0
 30
0.0
210
0.0
220
0.0
230
1.0
  2
SOLID
 70
     1
 71
     0
 91
        1
 92
        3
 72
     0
 73
     1
 93
        4
 10
268.2951204155992
 20
40.18768148619853
 10
139.5725703313196
 20
40.18768148619853
 10
139.5725703313196
 20
32.4027868319835
 10
268.2951204155992
 20
32.4027868319835
 97
        0
 75
     0
 76
     1
 98
        0
  0
LINE
  5
EC
330
E3
100
AcDbEntity
  8
0
  6
Continuous
100
AcDbLine
 10
139.5725662413803
 20
40.18768275541628
 30
0.0
 11
268.2951239349237
 21
40.18768275541628
 31
0.0
  0
LINE
  5
ED
330
E3
100
AcDbEntity
  8
0
  6
Continuous
100
AcDbLine
 10
139.572569603554
 20
32.40279198529486
 30
0.0
 11
139.572569603554
 21
40.18768229263806
 31
0.0
  0
HATCH
  5
EE
330
E3
100
AcDbEntity
  8
0
  6
Continuous
 62
   255
370
     0
100
AcDbHatch
 10
0.0
 20
0.0
 30
0.0
210
0.0
220
0.0
230
1.0
  2
SOLID
 70
     1
 71
     0
 91
        1
 92
        3
 72
     0
 73
     1
 93
        4
 10
149.572568411742
 20
40.18768281630238
 10
149.572568411742
 20
126.2206014342968
 10
139.572568411742
 20
127.9838712413814
 10
139.572568411742
 20
40.18768281630238
 97
        0
 75
     0
 76
     1
 98
        0
  0
LINE
  5
EF
330
E3
100
AcDbEntity
  8
0
  6
Continuous
100
AcDbLine
 10
149.5725681187243
 20
126.2205998912586
 30
0.0
 11
149.5725681187243
 21
40.18768165454389
 31
0.0
  0
LINE
  5
F0
330
E3
100
AcDbEntity
  8
0
  6
Continuous
100
AcDbLine
 10
139.572569603554
 20
127.9838711399741
 30
0.0
 11
149.5725681187243
 21
126.2205998912586
 31
0.0
  0
LINE
  5
F1
330
E3
100
AcDbEntity
  8
0
  6
Continuous
100
AcDbLine
 10
139.572569603554
 20
40.18768165454389
 30
0.0
 11
139.572569603554
 21
127.9838711399741
 31
0.0
  0
LINE
  5
F2
330
E3
100
AcDbEntity
  8
0
  6
Continuous
100
AcDbLine
 10
149.5725681187243
 20
40.18768165454389
 30
0.0
 11
139.572569603554
 21
40.18768165454389
 31
0.0
  0
HATCH
  5
F3
330
E3
100
AcDbEntity
  8
0
  6
Continuous
 62
   255
370
     0
100
AcDbHatch
 10
0.0
 20
0.0
 30
0.0
210
0.0
220
0.0
230
1.0
  2
SOLID
 70
     1
 71
     0
 91
        1
 92
        3
 72
     0
 73
     1
 93
        5
 10
149.5725673034869
 20
40.1876810653721
 10
163.416589144229
 20
40.1876810653721
 10
268.2951211393186
 20
80.80814944083514
 10
268.2951211393186
 20
91.53199399575237
 10
149.5725673034869
 20
45.54960538638562
 97
        0
 75
     0
 76
     1
 98
        0
  0
LINE
  5
F4
330
E3
100
AcDbEntity
  8
0
  6
Continuous
100
AcDbLine
 10
268.2951211393186
 20
80.80814944083514
 30
0.0
 11
163.416589144229
 21
40.1876810653721
 31
0.0
  0
LINE
  5
F5
330
E3
100
AcDbEntity
  8
0
  6
Continuous
100
AcDbLine
 10
149.5725684897948
 20
45.54960536250537
 30
0.0
 11
268.2951213141043
 21
91.53200008395777
 31
0.0
  0
LINE
  5
F6
330
E3
100
AcDbEntity
  8
0
  6
Continuous
100
AcDbLine
 10
149.5725681187243
 20
40.18768165454389
 30
0.0
 11
149.5725681187243
 21
45.54960607359671
 31
0.0
  0
LINE
  5
F7
330
E3
100
AcDbEntity
  8
0
  6
Continuous
100
AcDbLine
 10
163.4165887883929
 20
40.18768165454389
 30
0.0
 11
149.5725681187243
 21
40.18768165454389
 31
0.0
  0
HATCH
  5
F8
330
E3
100
AcDbEntity
  8
0
  6
Continuous
 62
   253
370
    25
100
AcDbHatch
 10
0.0
 20
0.0
 30
0.0
210
0.0
220
0.0
230
1.0
  2
SOLID
 70
     1
 71
     0
 91
        1
 92
        3
 72
     0
 73
     1
 93
        4
 10
132.7797202068282
 20
158.6985152161107
 10
237.7892622935412
 20
140.182499714382
 10
239.1089884438099
 20
147.6670386372748
 10
134.0994463570968
 20
166.1830541390035
 97
        0
 75
     0
 76
     1
 98
        0
  0
LINE
  5
F9
330
E3
100
AcDbEntity
  8
0
  6
Continuous
100
AcDbLine
 10
132.7797212928099
 20
158.6985155819714
 30
0.0
 11
237.7892617183556
 21
140.182498391157
 31
0.0
  0
LINE
  5
FA
330
E3
100
AcDbEntity
  8
0
  6
Continuous
100
AcDbLine
 10
237.7892617183556
 20
140.182498391157
 30
0.0
 11
239.1089876787378
 21
147.667040385421
 31
0.0
  0
LINE
  5
FB
330
E3
100
AcDbEntity
  8
0
  6
Continuous
100
AcDbLine
 10
239.1089876787378
 20
147.667040385421
 30
0.0
 11
134.0994472531921
 21
166.1830539945201
 31
0.0
  0
LINE
  5
FC
330
E3
100
AcDbEntity
  8
0
  6
Continuous
100
AcDbLine
 10
134.0994472531921
 20
166.1830539945201
 30
0.0
 11
132.7797212928099
 21
158.6985155819714
 31
0.0
  0
HATCH
  5
FD
330
E3
100
AcDbEntity
  8
0
  6
Continuous
 62
   255
370
     0
100
AcDbHatch
 10
0.0
 20
0.0
 30
0.0
210
0.0
220
0.0
230
1.0
  2
SOLID
 70
     1
 71
     0
 91
        1
 92
        3
 72
     0
 73
     1
 93
        4
 10
142.7663338758
 20
154.8372427409282
 10
141.2035002767976
 20
145.9739729638183
 10
154.9908088189685
 20
143.5428984764813
 10
156.5536424179709
 20
152.4061682535911
 97
        0
 75
     0
 76
     1
 98
        0
  0
LINE
  5
FE
330
E3
100
AcDbEntity
  8
0
  6
Continuous
100
AcDbLine
 10
141.2035000559048
 20
145.9739743371046
 30
0.0
 11
156.5536427287069
 21
152.4061689952908
 31
0.0
  0
LINE
  5
FF
330
E3
100
AcDbEntity
  8
0
  6
Continuous
100
AcDbLine
 10
142.7663349381322
 20
154.8372438868822
 30
0.0
 11
154.9908078464794
 21
143.5428994455131
 31
0.0
  0
LINE
  5
100
330
E3
100
AcDbEntity
  8
0
  6
Continuous
100
AcDbLine
 10
142.7663349381322
 20
154.8372438868822
 30
0.0
 11
141.2035000559048
 21
145.9739743371046
 31
0.0
  0
LINE
  5
101
330
E3
100
AcDbEntity
  8
0
  6
Continuous
100
AcDbLine
 10
141.2035000559048
 20
145.9739743371046
 30
0.0
 11
154.9908078464794
 21
143.5428994455131
 31
0.0
  0
LINE
  5
102
330
E3
100
AcDbEntity
  8
0
  6
Continuous
100
AcDbLine
 10
154.9908078464794
 20
143.5428994455131
 30
0.0
 11
156.5536427287069
 21
152.4061689952908
 31
0.0
  0
LINE
  5
103
330
E3
100
AcDbEntity
  8
0
  6
Continuous
100
AcDbLine
 10
156.5536427287069
 20
152.4061689952908
 30
0.0
 11
142.7663349381322
 21
154.8372438868822
 31
0.0
  0
HATCH
  5
104
330
E3
100
AcDbEntity
  8
0
  6
Continuous
 62
   255
370
     0
100
AcDbHatch
 10
0.0
 20
0.0
 30
0.0
210
0.0
220
0.0
230
1.0
  2
SOLID
 70
     1
 71
     0
 91
        1
 92
        3
 72
     0
 73
     1
 93
       12
 10
131.3943280739767
 20
132.5773569609295
 10
131.3943280739767
 20
134.5773569609295
 10
129.7943280739767
 20
134.5773569609295
 10
129.7943280739767
 20
135.5773569609295
 10
131.3943280739767
 20
135.5773569609295
 10
131.3943280739767
 20
159.5773569609296
 10
129.7943280739767
 20
159.5773569609296
 10
129.7943280739767
 20
160.5773569609296
 10
131.3943280739767
 20
160.5773569609296
 10
131.3943280739767
 20
162.5773569609296
 10
127.3943280739767
 20
162.5773569609296
 10
127.3943280739767
 20
132.5773569609295
 97
        0
 75
     0
 76
     1
 98
        0
  0
HATCH
  5
105
330
E3
100
AcDbEntity
  8
0
  6
Continuous
100
AcDbHatch
 10
0.0
 20
0.0
 30
0.0
210
0.0
220
0.0
230
1.0
  2
Wood_0002
 70
     0
 71
     0
 91
        1
 92
        3
 72
     0
 73
     1
 93
       12
 10
131.3943280739767
 20
132.5773569609295
 10
131.3943280739767
 20
134.5773569609295
 10
129.7943280739767
 20
134.5773569609295
 10
129.7943280739767
 20
135.5773569609295
 10
131.3943280739767
 20
135.5773569609295
 10
131.3943280739767
 20
159.5773569609296
 10
129.7943280739767
 20
159.5773569609296
 10
129.7943280739767
 20
160.5773569609296
 10
131.3943280739767
 20
160.5773569609296
 10
131.3943280739767
 20
162.5773569609296
 10
127.3943280739767
 20
162.5773569609296
 10
127.3943280739767
 20
132.5773569609295
 97
        0
 75
     0
 76
     2
 52
0.0
 41
1.0
 77
     0
 78
     1
 53
9.999999999999996
 43
107.2260115974659
 44
-35.16744529250214
 45
-0.1562833557601421
 46
0.8863269542313407
 79
     0
 98
        0
  0
LINE
  5
106
330
E3
100
AcDbEntity
  8
0
  6
Continuous
100
AcDbLine
 10
131.3943281652364
 20
132.5773564630817
 30
0.0
 11
131.3943281652364
 21
134.5773575988018
 31
0.0
  0
LINE
  5
107
330
E3
100
AcDbEntity
  8
0
  6
Continuous
100
AcDbLine
 10
131.3943281652364
 20
134.5773575988018
 30
0.0
 11
129.7943294056894
 21
134.5773575988018
 31
0.0
  0
LINE
  5
108
330
E3
100
AcDbEntity
  8
0
  6
Continuous
100
AcDbLine
 10
129.7943294056894
 20
134.5773575988018
 30
0.0
 11
129.7943294056894
 21
135.5773581666619
 31
0.0
  0
LINE
  5
109
330
E3
100
AcDbEntity
  8
0
  6
Continuous
100
AcDbLine
 10
129.7943294056894
 20
135.5773581666619
 30
0.0
 11
131.3943281652364
 21
135.5773581666619
 31
0.0
  0
LINE
  5
10A
330
E3
100
AcDbEntity
  8
0
  6
Continuous
100
AcDbLine
 10
131.3943281652364
 20
135.5773581666619
 30
0.0
 11
131.3943281652364
 21
159.5773574684428
 31
0.0
  0
LINE
  5
10B
330
E3
100
AcDbEntity
  8
0
  6
Continuous
100
AcDbLine
 10
131.3943281652364
 20
159.5773574684428
 30
0.0
 11
129.7943294056894
 21
159.5773574684428
 31
0.0
  0
LINE
  5
10C
330
E3
100
AcDbEntity
  8
0
  6
Continuous
100
AcDbLine
 10
129.7943294056894
 20
159.5773574684428
 30
0.0
 11
129.7943294056894
 21
160.5773580363029
 31
0.0
  0
LINE
  5
10D
330
E3
100
AcDbEntity
  8
0
  6
Continuous
100
AcDbLine
 10
129.7943294056894
 20
160.5773580363029
 30
0.0
 11
131.3943281652364
 21
160.5773580363029
 31
0.0
  0
LINE
  5
10E
330
E3
100
AcDbEntity
  8
0
  6
Continuous
100
AcDbLine
 10
131.3943281652364
 20
160.5773580363029
 30
0.0
 11
131.3943281652364
 21
162.5773555903078
 31
0.0
  0
LINE
  5
10F
330
E3
100
AcDbEntity
  8
0
  6
Continuous
100
AcDbLine
 10
131.3943281652364
 20
162.5773555903078
 30
0.0
 11
127.3943294755114
 21
162.5773555903078
 31
0.0
  0
LINE
  5
110
330
E3
100
AcDbEntity
  8
0
  6
Continuous
100
AcDbLine
 10
127.3943294755114
 20
162.5773555903078
 30
0.0
 11
127.3943294755114
 21
132.5773564630817
 31
0.0
  0
LINE
  5
111
330
E3
100
AcDbEntity
  8
0
  6
Continuous
100
AcDbLine
 10
127.3943294755114
 20
132.5773564630817
 30
0.0
 11
131.3943281652364
 21
132.5773564630817
 31
0.0
  0
HATCH
  5
112
330
E3
100
AcDbEntity
  8
0
  6
Continuous
 62
   255
370
     0
100
AcDbHatch
 10
0.0
 20
0.0
 30
0.0
210
0.0
220
0.0
230
1.0
  2
SOLID
 70
     1
 71
     0
 91
        1
 92
        3
 72
     0
 73
     1
 93
        4
 10
134.2636554386134
 20
132.5087844611539
 10
138.2636554386133
 20
132.5087844611539
 10
138.2636554386133
 20
141.5087844611539
 10
134.2636554386133
 20
141.5087844611539
 97
        0
 75
     0
 76
     1
 98
        0
  0
LINE
  5
113
330
E3
100
AcDbEntity
  8
0
  6
Continuous
100
AcDbLine
 10
134.263654570038
 20
132.5087845248316
 30
0.0
 11
138.2636568414783
 21
141.508786053857
 31
0.0
  0
LINE
  5
114
330
E3
100
AcDbEntity
  8
0
  6
Continuous
100
AcDbLine
 10
134.263654570038
 20
132.5087845248316
 30
0.0
 11
138.2636568414783
 21
132.5087845248316
 31
0.0
  0
LINE
  5
115
330
E3
100
AcDbEntity
  8
0
  6
Continuous
100
AcDbLine
 10
138.2636568414783
 20
132.5087845248316
 30
0.0
 11
138.2636568414783
 21
141.508786053857
 31
0.0
  0
LINE
  5
116
330
E3
100
AcDbEntity
  8
0
  6
Continuous
100
AcDbLine
 10
138.2636568414783
 20
141.508786053857
 30
0.0
 11
134.263654570038
 21
141.508786053857
 31
0.0
  0
LINE
  5
117
330
E3
100
AcDbEntity
  8
0
  6
Continuous
100
AcDbLine
 10
134.263654570038
 20
141.508786053857
 30
0.0
 11
134.263654570038
 21
132.5087845248316
 31
0.0
  0
HATCH
  5
118
330
E3
100
AcDbEntity
  8
0
  6
Continuous
 62
   255
370
     0
100
AcDbHatch
 10
0.0
 20
0.0
 30
0.0
210
0.0
220
0.0
230
1.0
  2
SOLID
 70
     1
 71
     0
 91
        1
 92
        3
 72
     0
 73
     1
 93
        4
 10
132.4636554386134
 20
156.9195308765072
 10
132.4636554386134
 20
60.04973053735953
 10
134.2636554386134
 20
60.04973053735953
 10
134.2636554386134
 20
156.9195308765072
 97
        0
 75
     0
 76
     1
 98
        0
  0
HATCH
  5
119
330
E3
100
AcDbEntity
  8
0
  6
Continuous
100
AcDbHatch
 10
0.0
 20
0.0
 30
0.0
210
0.0
220
0.0
230
1.0
  2
Plaster_0002
 70
     0
 71
     0
 91
        1
 92
        3
 72
     0
 73
     1
 93
        4
 10
132.4636554386134
 20
156.9195308765072
 10
132.4636554386134
 20
60.04973053735953
 10
134.2636554386134
 20
60.04973053735953
 10
134.2636554386134
 20
156.9195308765072
 97
        0
 75
     0
 76
     2
 52
0.0
 41
1.0
 77
     0
 78
     2
 53
0.0
 43
107.2260115974659
 44
-35.16744529250214
 45
0.0
 46
1.732050807568877
 79
     2
 49
0.0
 49
-1.0
 53
0.0
 43
107.7260115974659
 44
-34.30141990426132
 45
0.0
 46
1.732050807568877
 79
     2
 49
0.0
 49
-1.0
 98
        0
  0
LINE
  5
11A
330
E3
100
AcDbEntity
  8
0
  6
Continuous
100
AcDbLine
 10
132.463656413262
 20
156.9195313485025
 30
0.0
 11
132.463656413262
 21
60.04972892245548
 31
0.0
  0
LINE
  5
11B
330
E3
100
AcDbEntity
  8
0
  6
Continuous
100
AcDbLine
 10
132.463656413262
 20
60.04972892245548
 30
0.0
 11
134.263654570038
 21
60.04972892245548
 31
0.0
  0
LINE
  5
11C
330
E3
100
AcDbEntity
  8
0
  6
Continuous
100
AcDbLine
 10
134.263654570038
 20
60.04972892245548
 30
0.0
 11
134.263654570038
 21
156.9195313485025
 31
0.0
  0
LINE
  5
11D
330
E3
100
AcDbEntity
  8
0
  6
Continuous
100
AcDbLine
 10
134.263654570038
 20
156.9195313485025
 30
0.0
 11
132.463656413262
 21
156.9195313485025
 31
0.0
  0
LINE
  5
11F
330
E3
100
AcDbEntity
  8
0
  6
Dashed
100
AcDbLine
 10
138.3875841887468
 20
156.9366877644972
 30
0.0
 11
235.76737272081
 21
139.7660057980236
 31
0.0
  0
LINE
  5
120
330
E3
100
AcDbEntity
  8
0
  6
Dashed
100
AcDbLine
 10
150.4334763569941
 20
164.4559079257049
 30
0.0
 11
153.1001493135747
 21
163.9857003491326
 31
0.0
  0
LINE
  5
121
330
E3
100
AcDbEntity
  8
0
  6
Dashed
100
AcDbLine
 10
139.1104853571437
 20
155.8703072681133
 30
0.0
 11
139.1104853571437
 21
49.31458693620137
 31
0.0
  0
LINE
  5
122
330
E3
100
AcDbEntity
  8
0
  6
Continuous
 62
     9
370
    18
100
AcDbLine
 10
134.0299870495627
 20
165.7891297891075
 30
0.0
 11
134.7114549360753
 21
158.3578980444604
 31
0.0
  0
LINE
  5
123
330
E3
100
AcDbEntity
  8
0
  6
Dashed
100
AcDbLine
 10
138.3875841887468
 20
142.7041548611421
 30
0.0
 11
138.3875841887468
 21
156.9366877644972
 31
0.0
  0
LWPOLYLINE
  5
124
330
E3
100
AcDbEntity
  8
0
  6
Continuous
100
AcDbPolyline
 90
        6
 70
   128
 43
0.0
 10
158.5240249097286
 20
155.6384098462596
 10
158.1846005069315
 20
162.5302442180418
 10
126.6377320917205
 20
168.0928082771125
 10
126.6377320917205
 20
150.704504766932
 10
124.6369367122487
 20
149.3936388286574
 10
126.6032356196606
 20
147.4273399212454
  0
HATCH
  5
125
330
E3
100
AcDbEntity
  8
0
  6
Continuous
 62
   255
370
     0
100
AcDbHatch
 10
0.0
 20
0.0
 30
0.0
210
0.0
220
0.0
230
1.0
  2
SOLID
 70
     1
 71
     0
 91
        1
 92
        3
 72
     0
 73
     1
 93
        8
 10
202.2660422139567
 20
130.3929326260704
 10
196.0345127398982
 20
129.0798542986855
 10
207.8029801946164
 20
127.7667798986749
 10
201.5714507205579
 20
126.45370157129
 10
196.776813976436
 20
99.26197176422622
 10
268.2951210143314
 20
99.26197176422622
 10
268.2951210143314
 20
157.5846624331342
 10
207.0606789580786
 20
157.5846624331342
 97
        0
 75
     0
 76
     1
 98
        0
  0
LINE
  5
126
330
E3
100
AcDbEntity
  8
0
  6
Continuous
100
AcDbLine
 10
207.0606772406483
 20
157.5846594500949
 30
0.0
 11
202.26604278972
 21
130.3929328097068
 31
0.0
  0
LINE
  5
127
330
E3
100
AcDbEntity
  8
0
  6
Continuous
100
AcDbLine
 10
201.5714514985719
 20
126.4537015007262
 30
0.0
 11
196.7768134659285
 21
99.26197127862282
 31
0.0
  0
LINE
  5
128
330
E3
100
AcDbEntity
  8
0
  6
Continuous
100
AcDbLine
 10
201.5714514985719
 20
126.4537015007262
 30
0.0
 11
207.8029805604947
 21
127.7667797976248
 31
0.0
  0
LINE
  5
129
330
E3
100
AcDbEntity
  8
0
  6
Continuous
100
AcDbLine
 10
207.8029805604947
 20
127.7667797976248
 30
0.0
 11
196.0345101460819
 21
129.0798545128082
 31
0.0
  0
LINE
  5
12A
330
E3
100
AcDbEntity
  8
0
  6
Continuous
100
AcDbLine
 10
196.0345101460819
 20
129.0798545128082
 30
0.0
 11
202.26604278972
 21
130.3929328097068
 31
0.0
  0
HATCH
  5
12B
330
E3
100
AcDbEntity
  8
0
  6
Continuous
 62
   255
370
     0
100
AcDbHatch
 10
0.0
 20
0.0
 30
0.0
210
0.0
220
0.0
230
1.0
  2
SOLID
 70
     1
 71
     0
 91
        1
 92
        3
 72
     0
 73
     1
 93
        8
 10
141.7463269089472
 20
99.19453332372244
 10
114.5545966868439
 20
103.9891677746506
 10
114.5545966868439
 20
32.40278992681966
 10
172.8772848583159
 20
32.40278992681966
 10
172.8772848583159
 20
93.70530399993083
 10
145.6855582179279
 20
98.49993845085902
 10
144.3724799210292
 20
104.7314710944971
 10
143.0594052058458
 20
92.96300068008432
 97
        0
 75
     0
 76
     1
 98
        0
  0
LINE
  5
12C
330
E3
100
AcDbEntity
  8
0
  6
Continuous
100
AcDbLine
 10
172.8772848583159
 20
93.70530542031189
 30
0.0
 11
145.6855582179279
 21
98.49993987124006
 31
0.0
  0
LINE
  5
12D
330
E3
100
AcDbEntity
  8
0
  6
Continuous
100
AcDbLine
 10
141.7463269089472
 20
99.19453116238824
 30
0.0
 11
114.5545966868439
 21
103.9891691950317
 31
0.0
  0
LINE
  5
12E
330
E3
100
AcDbEntity
  8
0
  6
Continuous
100
AcDbLine
 10
141.7463269089472
 20
99.19453116238824
 30
0.0
 11
143.0594052058458
 21
92.96300210046537
 31
0.0
  0
LINE
  5
12F
330
E3
100
AcDbEntity
  8
0
  6
Continuous
100
AcDbLine
 10
143.0594052058458
 20
92.96300210046537
 30
0.0
 11
144.3724799210292
 21
104.7314689331629
 31
0.0
  0
LINE
  5
130
330
E3
100
AcDbEntity
  8
0
  6
Continuous
100
AcDbLine
 10
144.3724799210292
 20
104.7314689331629
 30
0.0
 11
145.6855582179279
 21
98.49993987124006
 31
0.0
  0
LINE
  5
131
330
E3
100
AcDbEntity
  8
Doc_ Floor
  6
Continuous
100
AcDbLine
 10
119.9680942236226
 20
149.7265051575386
 30
0.0
 11
119.9680942236226
 21
150.7045032486856
 31
0.0
  0
LINE
  5
132
330
E3
100
AcDbEntity
  8
Doc_ Floor
  6
Continuous
100
AcDbLine
 10
119.9680942236226
 20
150.7045032486856
 30
0.0
 11
119.9680942236226
 21
162.5773555903078
 31
0.0
  0
LINE
  5
133
330
E3
100
AcDbEntity
  8
Doc_ Floor
  6
Continuous
100
AcDbLine
 10
118.9680936557626
 20
151.2818542549165
 30
0.0
 11
120.9680912097675
 21
150.12715582417
 31
0.0
  0
LINE
  5
134
330
E3
100
AcDbEntity
  8
Doc_ Floor
  6
Continuous
100
AcDbLine
 10
120.9680912097675
 20
162.0000081657922
 30
0.0
 11
118.9680936557626
 21
163.1547065965387
 31
0.0
  0
LINE
  5
135
330
E3
100
AcDbEntity
  8
Doc_ Floor
  6
Continuous
100
AcDbLine
 10
119.9680942236226
 20
162.5773555903078
 30
0.0
 11
119.9680942236226
 21
163.5553572631701
 31
0.0
  0
LINE
  5
136
330
E3
100
AcDbEntity
  8
Doc_ Floor
  6
Continuous
100
AcDbLine
 10
121.4680914936975
 20
150.7045032486856
 30
0.0
 11
118.4680933718325
 21
150.7045032486856
 31
0.0
  0
LINE
  5
137
330
E3
100
AcDbEntity
  8
Doc_ Floor
  6
Continuous
100
AcDbLine
 10
121.4680914936975
 20
162.5773555903078
 30
0.0
 11
118.4680933718325
 21
162.5773555903078
 31
0.0
  0
MTEXT
  5
138
330
E3
100
AcDbEntity
  8
Doc_ Floor
  6
Continuous
100
AcDbMText
 10
119.4680925578211
 20
155.3115183663507
 30
0.0
 40
2.5
 41
0.0
 71
     7
 72
     1
  1
{A}
  7
GENERATED_STYLE_1
 11
6.123233995736766E-17
 21
1.0
 31
0.0
 73
     1
 44
1.0
  0
LINE
  5
139
330
E3
100
AcDbEntity
  8
Doc_ Floor
  6
Continuous
100
AcDbLine
 10
160.8851291637988
 20
172.21362375953
 30
0.0
 11
159.921988027463
 21
172.3834507875858
 31
0.0
  0
LINE
  5
13A
330
E3
100
AcDbEntity
  8
Doc_ Floor
  6
Continuous
100
AcDbLine
 10
159.921988027463
 20
172.3834507875858
 30
0.0
 11
135.9384216351985
 21
176.6123998788165
 31
0.0
  0
LINE
  5
13B
330
E3
100
AcDbEntity
  8
Doc_ Floor
  6
Continuous
100
AcDbLine
 10
159.1797599236365
 20
171.4988996470236
 30
0.0
 11
160.6642125495742
 21
173.2680019281482
 31
0.0
  0
LINE
  5
13C
330
E3
100
AcDbEntity
  8
Doc_ Floor
  6
Continuous
100
AcDbLine
 10
136.680649739025
 20
177.4969510193788
 30
0.0
 11
135.196193531372
 21
175.7278487382542
 31
0.0
  0
LINE
  5
13D
330
E3
100
AcDbEntity
  8
Doc_ Floor
  6
Continuous
100
AcDbLine
 10
135.9384216351985
 20
176.6123998788165
 30
0.0
 11
134.9752804988627
 21
176.7822269068724
 31
0.0
  0
LINE
  5
13E
330
E3
100
AcDbEntity
  8
Doc_ Floor
  6
Continuous
100
AcDbLine
 10
160.1824575230715
 20
173.8606611853104
 30
0.0
 11
159.6615149501392
 21
170.9062368081461
 31
0.0
  0
LINE
  5
13F
330
E3
100
AcDbEntity
  8
Doc_ Floor
  6
Continuous
100
AcDbLine
 10
136.1988947125223
 20
178.089610276541
 30
0.0
 11
135.6779485578747
 21
175.135189481092
 31
0.0
  0
MTEXT
  5
140
330
E3
100
AcDbEntity
  8
Doc_ Floor
  6
Continuous
100
AcDbMText
 10
147.0206340353308
 20
175.1660199547803
 30
0.0
 40
2.5
 41
0.0
 71
     7
 72
     1
  1
{B}
  7
GENERATED_STYLE_1
 11
0.9848077530089556
 21
-0.1736481776853757
 31
0.0
 73
     1
 44
1.0
  0
MTEXT
  5
142
330
E3
100
AcDbEntity
  8
Doc_ Floor
  6
Continuous
100
AcDbMText
 10
210.596909450934
 20
163.3970212377463
 30
0.0
 40
2.5
 41
56.6835322004004
 71
     4
 72
     1
  1
\A1;{\fCentury Gothic|b0|i0|c0|p34;TRS 9\PMIN. ROOF PITCH 3\fArial|b0|i0|c0|p34;\H1.029412x;\U+00B0}
  7
GENERATED_STYLE_1
 73
     1
 44
1.056356172275314
  0
LINE
  5
143
330
E3
100
AcDbEntity
  8
Doc_ Floor
  6
Continuous
100
AcDbLine
 10
188.0970423512738
 20
156.661819773628
 30
0.0
 11
190.9888977449284
 21
159.2241179664296
 31
0.0
  0
LINE
  5
144
330
E3
100
AcDbEntity
  8
Doc_ Floor
  6
Continuous
100
AcDbLine
 10
188.0970423512738
 20
156.661819773628
 30
0.0
 11
191.8826109130721
 21
157.4349043542382
 31
0.0
  0
LINE
  5
145
330
E3
100
AcDbEntity
  8
Doc_ Floor
  6
Continuous
100
AcDbLine
 10
190.9888977449284
 20
159.2241179664296
 30
0.0
 11
191.8826109130721
 21
157.4349043542382
 31
0.0
  0
LWPOLYLINE
  5
146
330
E3
100
AcDbEntity
  8
Doc_ Floor
  6
Continuous
100
AcDbPolyline
 90
        9
 70
   128
 43
0.0
 10
191.4357559863639
 20
158.3295116202888
 10
194.2332787165468
 20
159.6321202614867
 10
196.7939781246567
 20
160.7171481572399
 10
199.1609260792857
 20
161.5981260041089
 10
201.3771944490257
 20
162.288584498654
 10
203.4858551024685
 20
162.8020543374357
 10
205.5299799082063
 20
163.1520662170145
 10
207.5526407348308
 20
163.3521508339508
 10
209.596909450934
 20
163.4158388848051
  0
MTEXT
  5
147
330
E3
100
AcDbEntity
  8
Doc_ Floor
  6
Continuous
100
AcDbMText
 10
217.7652934107131
 20
135.8151137183091
 30
0.0
 40
2.5
 41
0.0
 71
     4
 72
     1
  1
{UNDERLAY}
  7
GENERATED_STYLE_1
 73
     1
 44
1.0
  0
LINE
  5
148
330
E3
100
AcDbEntity
  8
Doc_ Floor
  6
Continuous
100
AcDbLine
 10
190.3055351310545
 20
147.7821531314863
 30
0.0
 11
193.3591407849012
 21
145.414943804321
 31
0.0
  0
LINE
  5
149
330
E3
100
AcDbEntity
  8
Doc_ Floor
  6
Continuous
100
AcDbLine
 10
190.3055351310545
 20
147.7821531314863
 30
0.0
 11
191.7664308158655
 21
144.2052839532325
 31
0.0
  0
LINE
  5
14A
330
E3
100
AcDbEntity
  8
Doc_ Floor
  6
Continuous
100
AcDbLine
 10
193.3591407849012
 20
145.414943804321
 30
0.0
 11
191.7664308158655
 21
144.2052839532325
 31
0.0
  0
LWPOLYLINE
  5
14B
330
E3
100
AcDbEntity
  8
Doc_ Floor
  6
Continuous
100
AcDbPolyline
 90
       11
 70
   128
 43
0.0
 10
192.5627848521073
 20
144.8101141336437
 10
194.7186386754931
 20
142.5196592464375
 10
197.0173643686526
 20
140.6117085419212
 10
198.2367956039972
 20
139.79374512012
 10
199.5117345319048
 20
139.0624951783292
 10
200.8487777274152
 20
138.4149878613279
 10
202.2545217655684
 20
137.8482523138954
 10
205.2984986699622
 20
136.9452131068541
 10
208.6964378454051
 20
136.3296107154394
 10
212.5011118922158
 20
135.9776782978856
 10
216.7652934107131
 20
135.8656490124267
  0
MTEXT
  5
14C
330
E3
100
AcDbEntity
  8
Doc_ Floor
  6
Continuous
100
AcDbMText
 10
108.0339098253378
 20
181.72615262139
 30
0.0
 40
2.5
 41
0.0
 71
     6
 72
     1
  1
{ROOF FIXING}
  7
GENERATED_STYLE_1
 73
     1
 44
1.0
  0
LINE
  5
14D
330
E3
100
AcDbEntity
  8
Doc_ Floor
  6
Continuous
100
AcDbLine
 10
150.3596464607732
 20
163.3831448127651
 30
0.0
 11
146.6062918458342
 21
164.2999528807696
 31
0.0
  0
LINE
  5
14E
330
E3
100
AcDbEntity
  8
Doc_ Floor
  6
Continuous
100
AcDbLine
 10
150.3596464607732
 20
163.3831448127651
 30
0.0
 11
147.5675489999544
 21
166.0538006366913
 31
0.0
  0
LINE
  5
14F
330
E3
100
AcDbEntity
  8
Doc_ Floor
  6
Continuous
100
AcDbLine
 10
146.6062918458342
 20
164.2999528807696
 30
0.0
 11
147.5675489999544
 21
166.0538006366913
 31
0.0
  0
LWPOLYLINE
  5
150
330
E3
100
AcDbEntity
  8
Doc_ Floor
  6
Continuous
100
AcDbPolyline
 90
        9
 70
   128
 43
0.0
 10
147.0869196211911
 20
165.1768763987975
 10
139.17479810923
 20
169.4429635719829
 10
132.3753205526409
 20
172.9881006854046
 10
126.5829500148065
 20
175.8591797229686
 10
121.6921495591089
 20
178.1030926685806
 10
117.5973822489309
 20
179.7667315061464
 10
114.1931111476547
 20
180.8969882195719
 10
111.3737993186628
 20
181.5407547927629
 10
109.0339098253378
 20
181.7449232096253
  0
MTEXT
  5
151
330
E3
100
AcDbEntity
  8
Doc_ Floor
  6
Continuous
100
AcDbMText
 10
177.6480029686301
 20
188.0355984963774
 30
0.0
 40
2.499999999999999
 41
0.0
 71
     4
 72
     1
  1
{PURLIN}
  7
GENERATED_STYLE_1
 73
     1
 44
1.0
  0
LINE
  5
152
330
E3
100
AcDbEntity
  8
Doc_ Floor
  6
Continuous
100
AcDbLine
 10
152.8732082543182
 20
150.5063806702419
 30
0.0
 11
153.3582835308474
 21
154.3395108286985
 31
0.0
  0
LINE
  5
153
330
E3
100
AcDbEntity
  8
Doc_ Floor
  6
Continuous
100
AcDbLine
 10
152.8732082543182
 20
150.5063806702419
 30
0.0
 11
155.2098619687798
 21
153.5834322320429
 31
0.0
  0
LINE
  5
154
330
E3
100
AcDbEntity
  8
Doc_ Floor
  6
Continuous
100
AcDbLine
 10
153.3582835308474
 20
154.3395108286985
 30
0.0
 11
155.2098619687798
 21
153.5834322320429
 31
0.0
  0
LWPOLYLINE
  5
155
330
E3
100
AcDbEntity
  8
Doc_ Floor
  6
Continuous
100
AcDbPolyline
 90
       14
 70
   128
 43
0.0
 10
154.2840741126332
 20
153.9614718991056
 10
158.0090126297231
 20
162.7498874274614
 10
161.3459271242157
 20
170.0524859383113
 10
164.356051405968
 20
175.9660569701324
 10
165.7577027826471
 20
178.4322039121811
 10
167.1006192848375
 20
180.5873900614014
 10
168.3924551387715
 20
182.4437141101029
 10
169.6408645706812
 20
184.0132747505952
 10
170.8535018067988
 20
185.308170675188
 10
172.0380210733564
 20
186.3405005761908
 10
173.2020765965862
 20
187.1223631459133
 10
174.3533226027203
 20
187.6658570766651
 10
175.4994133179909
 20
187.9830810607558
 10
176.6480029686301
 20
188.086133790495
  0
MTEXT
  5
156
330
E3
100
AcDbEntity
  8
Doc_ Floor
  6
Continuous
100
AcDbMText
 10
108.0339098253378
 20
109.9747713303125
 30
0.0
 40
2.5
 41
39.1484652691462
 71
     6
 72
     1
  1
{CLADDING ON CAVITY BATTENS WITH BUILDING WRAP }
  7
GENERATED_STYLE_1
 73
     1
 44
1.081394112015884
  0
LINE
  5
157
330
E3
100
AcDbEntity
  8
Doc_ Floor
  6
Continuous
100
AcDbLine
 10
132.5155339767833
 20
106.8748389664687
 30
0.0
 11
128.6545774726351
 21
106.7292458237197
 31
0.0
  0
LINE
  5
158
330
E3
100
AcDbEntity
  8
Doc_ Floor
  6
Continuous
100
AcDbLine
 10
132.5155339767833
 20
106.8748389664687
 30
0.0
 11
129.0990504252154
 21
108.6792318878428
 31
0.0
  0
LINE
  5
159
330
E3
100
AcDbEntity
  8
Doc_ Floor
  6
Continuous
100
AcDbLine
 10
128.6545774726351
 20
106.7292458237197
 30
0.0
 11
129.0990504252154
 21
108.6792318878428
 31
0.0
  0
LWPOLYLINE
  5
15A
330
E3
100
AcDbEntity
  8
Doc_ Floor
  6
Continuous
100
AcDbPolyline
 90
        5
 70
   128
 43
0.0
 10
128.8768139823939
 20
107.7042399712023
 10
123.4362372838358
 20
108.778239716983
 10
118.5579467362369
 20
109.485596657588
 10
113.8783637724525
 20
109.8745992712483
 10
109.0339098253379
 20
109.9935360361949
  0
MTEXT
  5
15B
330
E3
100
AcDbEntity
  8
Doc_ Floor
  6
Continuous
100
AcDbMText
 10
108.0339098253378
 20
124.960361232442
 30
0.0
 40
2.5
 41
0.0
 71
     6
 72
     1
  1
{FASCIA}
  7
GENERATED_STYLE_1
 73
     1
 44
1.0
  0
LINE
  5
15C
330
E3
100
AcDbEntity
  8
Doc_ Floor
  6
Continuous
100
AcDbLine
 10
127.9988871906975
 20
135.8141238708189
 30
0.0
 11
126.353332595026
 21
132.3183626341516
 31
0.0
  0
LINE
  5
15D
330
E3
100
AcDbEntity
  8
Doc_ Floor
  6
Continuous
100
AcDbLine
 10
127.9988871906975
 20
135.8141238708189
 30
0.0
 11
124.8259137130815
 21
133.6094850166353
 31
0.0
  0
LINE
  5
15E
330
E3
100
AcDbEntity
  8
Doc_ Floor
  6
Continuous
100
AcDbLine
 10
126.353332595026
 20
132.3183626341516
 30
0.0
 11
124.8259137130815
 21
133.6094850166353
 31
0.0
  0
LWPOLYLINE
  5
15F
330
E3
100
AcDbEntity
  8
Doc_ Floor
  6
Continuous
100
AcDbPolyline
 90
        9
 70
   128
 43
0.0
 10
125.5896244402762
 20
132.9639245708123
 10
123.6204634313926
 20
130.9203200424862
 10
121.6964454848545
 20
129.2175951226089
 10
119.780670024063
 20
127.8346679261786
 10
117.8362364724189
 20
126.7504565681938
 10
115.8262442533234
 20
125.9438791636529
 10
113.7137927901774
 20
125.3938538275543
 10
111.4619815063819
 20
125.0792986748963
 10
109.0339098253379
 20
124.9791318206773
  0
MTEXT
  5
160
330
E3
100
AcDbEntity
  8
Doc_ Floor
  6
Continuous
100
AcDbMText
 10
164.9235787333881
 20
105.17706211541
 30
0.0
 40
2.5
 41
0.0
 71
     4
 72
     1
  1
{ROOF FRAME}
  7
GENERATED_STYLE_1
 73
     1
 44
1.0
  0
LINE
  5
161
330
E3
100
AcDbEntity
  8
Doc_ Floor
  6
Continuous
100
AcDbLine
 10
152.6041533872818
 20
131.267619906501
 30
0.0
 11
153.88207714911
 21
127.6213729040683
 31
0.0
  0
LINE
  5
162
330
E3
100
AcDbEntity
  8
Doc_ Floor
  6
Continuous
100
AcDbLine
 10
152.6041533872818
 20
131.267619906501
 30
0.0
 11
151.8877422868978
 21
127.47091937374
 31
0.0
  0
LINE
  5
163
330
E3
100
AcDbEntity
  8
Doc_ Floor
  6
Continuous
100
AcDbLine
 10
153.88207714911
 20
127.6213729040683
 30
0.0
 11
151.8877422868978
 21
127.47091937374
 31
0.0
  0
LWPOLYLINE
  5
164
330
E3
100
AcDbEntity
  8
Doc_ Floor
  6
Continuous
100
AcDbPolyline
 90
       15
 70
   128
 43
0.0
 10
152.8849095788885
 20
127.5461462691856
 10
153.4915914543278
 20
121.8000985571859
 10
154.2651929717568
 20
117.0218862506804
 10
154.7230231061241
 20
114.9762913475718
 10
155.2327045628767
 20
113.1493428635373
 10
155.7976111459775
 20
111.5332699878105
 10
156.421116659389
 20
110.1203019096248
 10
157.1065949070739
 20
108.9026678182138
 10
157.8574196929949
 20
107.8725969028111
 10
158.6769648211147
 20
107.0223183526501
 10
159.5686040953959
 20
106.3440613569645
 10
160.5357113198011
 20
105.8300551049876
 10
161.5816602982931
 20
105.4725287859531
 10
162.7098248348345
 20
105.2637115890945
 10
163.9235787333881
 20
105.1958327036453
  0
MTEXT
  5
165
330
E3
100
AcDbEntity
  8
Doc_ Floor
  6
Continuous
100
AcDbMText
 10
108.0339098253378
 20
167.0421997300251
 30
0.0
 40
2.5
 41
0.0
 71
     6
 72
     1
  1
{METAL FLASHING}
  7
GENERATED_STYLE_1
 73
     1
 44
1.0
  0
LINE
  5
166
330
E3
100
AcDbEntity
  8
Doc_ Floor
  6
Continuous
100
AcDbLine
 10
126.6377315301461
 20
160.8400517770748
 30
0.0
 11
123.0718403090997
 21
162.3275416975352
 31
0.0
  0
LINE
  5
167
330
E3
100
AcDbEntity
  8
Doc_ Floor
  6
Continuous
100
AcDbLine
 10
126.6377315301461
 20
160.8400517770748
 30
0.0
 11
124.2933234021921
 21
163.911200672162
 31
0.0
  0
LINE
  5
168
330
E3
100
AcDbEntity
  8
Doc_ Floor
  6
Continuous
100
AcDbLine
 10
123.0718403090997
 20
162.3275416975352
 30
0.0
 11
124.2933234021921
 21
163.911200672162
 31
0.0
  0
LWPOLYLINE
  5
169
330
E3
100
AcDbEntity
  8
Doc_ Floor
  6
Continuous
100
AcDbPolyline
 90
        9
 70
   128
 43
0.0
 10
123.6825828105559
 20
163.1193701917353
 10
122.0880847713312
 20
164.123773623539
 10
120.4818407728519
 20
164.962239531881
 10
118.8359257827555
 20
165.6446361904938
 10
117.1224147686798
 20
166.18083187311
 10
115.3133826982625
 20
166.5806948534622
 10
113.3809045391413
 20
166.8540934052829
 10
111.2970552589538
 20
167.0108958023048
 10
109.0339098253379
 20
167.0609703182604
  0
MTEXT
  5
16A
330
E3
100
AcDbEntity
  8
Doc_ Floor
  6
Continuous
100
AcDbMText
 10
108.0339098253378
 20
139.2806289391384
 30
0.0
 40
2.5
 41
39.1484652691462
 71
     6
 72
     1
  1
{BIRD'S BEAK AT BOTTOM EDGE}
  7
GENERATED_STYLE_1
 73
     1
 44
1.070162922071087
  0
LINE
  5
16B
330
E3
100
AcDbEntity
  8
Doc_ Floor
  6
Continuous
100
AcDbLine
 10
125.0436246921672
 20
145.0048803900416
 30
0.0
 11
122.8617476383273
 21
141.8162118362485
 31
0.0
  0
LINE
  5
16C
330
E3
100
AcDbEntity
  8
Doc_ Floor
  6
Continuous
100
AcDbLine
 10
125.0436246921672
 20
145.0048803900416
 30
0.0
 11
121.5597296780866
 21
143.3343504940087
 31
0.0
  0
LINE
  5
16D
330
E3
100
AcDbEntity
  8
Doc_ Floor
  6
Continuous
100
AcDbLine
 10
122.8617476383273
 20
141.8162118362485
 30
0.0
 11
121.5597296780866
 21
143.3343504940087
 31
0.0
  0
LWPOLYLINE
  5
16E
330
E3
100
AcDbEntity
  8
Doc_ Floor
  6
Continuous
100
AcDbPolyline
 90
        8
 70
   128
 43
0.0
 10
122.2107386989913
 20
142.5752796850201
 10
120.9177043003348
 20
141.742845784936
 10
119.5679416574175
 20
141.0470913315622
 10
118.139233576577
 20
140.4800987105053
 10
116.6093628641507
 20
140.0339503073715
 10
114.9561123264761
 20
139.7007285077674
 10
113.1572647698908
 20
139.4725156972993
 10
109.0339098253378
 20
139.2994465861972
  0
MTEXT
  5
16F
330
E3
100
AcDbEntity
  8
Doc_ Floor
  6
Continuous
100
AcDbMText
 10
188.6636468236601
 20
176.5690386934106
 30
0.0
 40
2.5
 41
70.35717434599542
 71
     4
 72
     1
  1
{NOTCHED TURN-DOWN OVER TRS 9.\P5MM MAX. GAP BETWEEN PAN AND EDGE OF FLASHING}
  7
GENERATED_STYLE_1
 73
     1
 44
1.065340909090909
  0
LINE
  5
170
330
E3
100
AcDbEntity
  8
Doc_ Floor
  6
Continuous
100
AcDbLine
 10
158.4037813171132
 20
157.4107671752428
 30
0.0
 11
160.4920394980369
 21
160.661517599273
 31
0.0
  0
LINE
  5
171
330
E3
100
AcDbEntity
  8
Doc_ Floor
  6
Continuous
100
AcDbLine
 10
158.4037813171132
 20
157.4107671752428
 30
0.0
 11
161.8376397693054
 21
159.1818680534707
 31
0.0
  0
LINE
  5
172
330
E3
100
AcDbEntity
  8
Doc_ Floor
  6
Continuous
100
AcDbLine
 10
160.4920394980369
 20
160.661517599273
 30
0.0
 11
161.8376397693054
 21
159.1818680534707
 31
0.0
  0
LWPOLYLINE
  5
173
330
E3
100
AcDbEntity
  8
Doc_ Floor
  6
Continuous
100
AcDbPolyline
 90
       11
 70
   128
 43
0.0
 10
161.164839481301
 20
159.921692554194
 10
166.025081642311
 20
164.208154551084
 10
170.3009506619634
 20
167.7719863196398
 10
174.0635057904777
 20
170.659760382421
 10
177.3838062780734
 20
172.9180492619871
 10
180.33291137497
 20
174.5934254808978
 10
182.9818803313869
 20
175.7324615617126
 10
184.2160197726091
 20
176.1154059636339
 10
185.4017723975438
 20
176.3817300269911
 10
186.5480206124683
 20
176.5372553171041
 10
187.6636468236601
 20
176.5878033992929
  0
MTEXT
  5
174
330
E3
100
AcDbEntity
  8
Doc_ Floor
  6
Continuous
100
AcDbMText
 10
108.0339098253378
 20
174.9367703809074
 30
0.0
 40
2.500000000000001
 41
0.0
 71
     6
 72
     1
  1
{STOPEND}
  7
GENERATED_STYLE_1
 73
     1
 44
1.0
  0
LINE
  5
175
330
E3
100
AcDbEntity
  8
Doc_ Floor
  6
Continuous
100
AcDbLine
 10
133.6674744867958
 20
160.0543452319624
 30
0.0
 11
130.2064272342246
 21
161.7717132181753
 31
0.0
  0
LINE
  5
176
330
E3
100
AcDbEntity
  8
Doc_ Floor
  6
Continuous
100
AcDbLine
 10
133.6674744867958
 20
160.0543452319624
 30
0.0
 11
131.5288036638837
 21
163.2721546209398
 31
0.0
  0
LINE
  5
177
330
E3
100
AcDbEntity
  8
Doc_ Floor
  6
Continuous
100
AcDbLine
 10
130.2064272342246
 20
161.7717132181753
 30
0.0
 11
131.5288036638837
 21
163.2721546209398
 31
0.0
  0
LWPOLYLINE
  5
178
330
E3
100
AcDbEntity
  8
Doc_ Floor
  6
Continuous
100
AcDbPolyline
 90
        9
 70
   128
 43
0.0
 10
130.8676151700328
 20
162.5219346490566
 10
127.0919861873974
 20
165.715898837504
 10
123.7286247139161
 20
168.3728275144363
 10
120.7208849685188
 20
170.5269865215487
 10
118.0121211701354
 20
172.2126417005363
 10
115.5456875376957
 20
173.4640588930943
 10
113.2649382901296
 20
174.315503940918
 10
111.113227646367
 20
174.8012426857024
 10
109.0339098253378
 20
174.9555409691427
  0
HATCH
  5
179
330
E3
100
AcDbEntity
  8
Doc_ Finishes
  6
Continuous
 62
   255
370
    18
100
AcDbHatch
 10
0.0
 20
0.0
 30
0.0
210
0.0
220
0.0
230
1.0
  2
SOLID
 70
     1
 71
     0
 91
        1
 92
        3
 72
     0
 73
     1
 93
        5
 10
160.5563082766261
 20
56.29457709202391
 10
160.5563082766261
 20
32.40279176343062
 10
268.2951197319069
 20
32.40279176343062
 10
268.2951197319069
 20
123.5642900369606
 10
220.3623675821381
 20
103.2850467728525
 97
        0
 75
     0
 76
     1
 98
        0
  0
LINE
  5
17A
330
E3
100
AcDbEntity
  8
Doc_ Finishes
  6
Continuous
 62
   255
370
    18
100
AcDbLine
 10
220.3623653339774
 20
103.2850505413478
 30
0.0
 11
160.556309796285
 21
56.29457628646654
 31
0.0
  0
LINE
  5
17B
330
E3
100
AcDbEntity
  8
Doc_ Finishes
  6
Continuous
 62
   255
370
    18
100
AcDbLine
 10
160.556309796285
 20
56.29457690591958
 30
0.0
 11
160.556309796285
 21
32.40279196665374
 31
0.0
  0
LINE
  5
17C
330
E3
100
AcDbEntity
  8
Doc_ Finishes
  6
Continuous
 62
   255
370
    18
100
AcDbLine
 10
268.2951203660438
 20
123.5642935969986
 30
0.0
 11
220.3623675193274
 21
103.2850486173552
 31
0.0
  0
LINE
  5
17D
330
E3
100
AcDbEntity
  8
0
  6
Continuous
100
AcDbLine
 10
94.7059307070651
 20
67.13021045718048
 30
0.0
 11
219.0690330331912
 21
67.13021045718048
 31
0.0
  0
LINE
  5
17E
330
E3
100
AcDbEntity
  8
0
  6
Continuous
100
AcDbLine
 10
195.0990162696757
 20
75.21657731790322
 30
0.0
 11
195.0990162696757
 21
34.84842949295378
 31
0.0
  0
LINE
  5
17F
330
E3
100
AcDbEntity
  8
0
  6
Continuous
100
AcDbLine
 10
94.7059307070651
 20
34.84842949295378
 30
0.0
 11
94.7059307070651
 21
67.13021045718048
 31
0.0
  0
LINE
  5
180
330
E3
100
AcDbEntity
  8
0
  6
Continuous
100
AcDbLine
 10
171.1289995061602
 20
75.21657731790322
 30
0.0
 11
171.1289995061602
 21
34.84842949295378
 31
0.0
  0
LINE
  5
181
330
E3
100
AcDbEntity
  8
0
  6
Continuous
100
AcDbLine
 10
94.7059307070651
 20
56.36961680243825
 30
0.0
 11
219.0690330331912
 21
56.36961680243825
 31
0.0
  0
LINE
  5
182
330
E3
100
AcDbEntity
  8
0
  6
Continuous
100
AcDbLine
 10
94.7059307070651
 20
45.60902314769601
 30
0.0
 11
219.0690330331912
 21
45.60902314769601
 31
0.0
  0
LINE
  5
183
330
E3
100
AcDbEntity
  8
0
  6
Continuous
100
AcDbLine
 10
171.1289995061602
 20
75.21657731790322
 30
0.0
 11
195.0990162696757
 21
75.21657731790322
 31
0.0
  0
LINE
  5
184
330
E3
100
AcDbEntity
  8
0
  6
Continuous
100
AcDbLine
 10
94.7059307070651
 20
34.84842949295378
 30
0.0
 11
219.0690330331912
 21
34.84842949295378
 31
0.0
  0
LINE
  5
185
330
E3
100
AcDbEntity
  8
0
  6
Continuous
100
AcDbLine
 10
219.0690330331912
 20
75.21657731790322
 30
0.0
 11
219.0690330331912
 21
34.84842949295378
 31
0.0
  0
LINE
  5
186
330
E3
100
AcDbEntity
  8
0
  6
Continuous
100
AcDbLine
 10
195.0990162696757
 20
75.21657731790322
 30
0.0
 11
219.0690330331912
 21
75.21657731790322
 31
0.0
  0
MTEXT
  5
187
330
E3
100
AcDbEntity
  8
0
  6
Continuous
100
AcDbMText
 10
98.261856873839
 20
58.28656778696154
 30
0.0
 40
2.499999999999999
 41
69.01187578516154
 71
     7
 72
     1
  1
\A1;{\fCentury Gothic|b0|i0|c0|p34;LOW, MEDIUM OR HIGH WIND ZONE.\P ROOF PITCH \fArial|b0|i0|c0|p34;\H1.029412x;\U+2265\fCentury Gothic|b0|i0|c0|p34;\H0.971429x; 10\fArial|b0|i0|c0|p34;\H1.029412x;\U+00B0}
  7
GENERATED_STYLE_1
 73
     1
 44
1.056355725756043
  0
MTEXT
  5
188
330
E3
100
AcDbEntity
  8
0
  6
Continuous
100
AcDbMText
 10
98.261856873839
 20
47.86372317897222
 30
0.0
 40
2.5
 41
69.01187578516154
 71
     7
 72
     1
  1
\A1;{\fCentury Gothic|b0|i0|c0|p34;VERY HIGH WIND ZONE.\P ROOF PITCH \fArial|b0|i0|c0|p34;\H1.029412x;<\fCentury Gothic|b0|i0|c0|p34;\H0.971429x; 10\fArial|b0|i0|c0|p34;\H1.029412x;\U+00B0}
  7
GENERATED_STYLE_1
 73
     1
 44
1.056355725756043
  0
MTEXT
  5
189
330
E3
100
AcDbEntity
  8
0
  6
Continuous
100
AcDbMText
 10
182.7611909304271
 20
60.32639526062167
 30
0.0
 40
2.499999999999999
 41
0.0
 71
     8
 72
     1
  1
{50MM}
  7
GENERATED_STYLE_1
 73
     1
 44
1.0
  0
MTEXT
  5
18A
330
E3
100
AcDbEntity
  8
0
  6
Continuous
100
AcDbMText
 10
182.7611909304271
 20
49.08761573916392
 30
0.0
 40
2.499999999999999
 41
0.0
 71
     8
 72
     1
  1
{75MM}
  7
GENERATED_STYLE_1
 73
     1
 44
1.0
  0
MTEXT
  5
18B
330
E3
100
AcDbEntity
  8
0
  6
Continuous
100
AcDbMText
 10
182.7611909304271
 20
70.20845958382333
 30
0.0
 40
2.499999999999999
 41
0.0
 71
     8
 72
     1
  1
{A}
  7
GENERATED_STYLE_1
 73
     1
 44
1.0
  0
MTEXT
  5
18C
330
E3
100
AcDbEntity
  8
0
  6
Continuous
100
AcDbMText
 10
98.261856873839
 20
39.3921518697125
 30
0.0
 40
2.5
 41
0.0
 71
     7
 72
     1
  1
{EXTRA WIND ZONE.}
  7
GENERATED_STYLE_1
 73
     1
 44
1.0
  0
MTEXT
  5
18D
330
E3
100
AcDbEntity
  8
0
  6
Continuous
100
AcDbMText
 10
182.7611909304271
 20
38.32702237368838
 30
0.0
 40
2.499999999999999
 41
0.0
 71
     8
 72
     1
  1
{90MM}
  7
GENERATED_STYLE_1
 73
     1
 44
1.0
  0
MTEXT
  5
18E
330
E3
100
AcDbEntity
  8
0
  6
Continuous
100
AcDbMText
 10
206.7312077672151
 20
60.32640241381011
 30
0.0
 40
2.499999999999999
 41
0.0
 71
     8
 72
     1
  1
{150MM}
  7
GENERATED_STYLE_1
 73
     1
 44
1.0
  0
MTEXT
  5
18F
330
E3
100
AcDbEntity
  8
0
  6
Continuous
100
AcDbMText
 10
206.7312077672151
 20
49.08762289235236
 30
0.0
 40
2.499999999999999
 41
0.0
 71
     8
 72
     1
  1
{200MM}
  7
GENERATED_STYLE_1
 73
     1
 44
1.0
  0
MTEXT
  5
190
330
E3
100
AcDbEntity
  8
0
  6
Continuous
100
AcDbMText
 10
206.7312077672151
 20
70.20846009875902
 30
0.0
 40
2.499999999999999
 41
0.0
 71
     8
 72
     1
  1
{B}
  7
GENERATED_STYLE_1
 73
     1
 44
1.0
  0
MTEXT
  5
191
330
E3
100
AcDbEntity
  8
0
  6
Continuous
100
AcDbMText
 10
206.7312077672151
 20
38.32702038669159
 30
0.0
 40
2.499999999999999
 41
0.0
 71
     8
 72
     1
  1
{200MM}
  7
GENERATED_STYLE_1
 73
     1
 44
1.0
  0
HATCH
  5
192
330
E3
100
AcDbEntity
  8
0
  6
Continuous
 62
   255
370
     0
100
AcDbHatch
 10
0.0
 20
0.0
 30
0.0
210
0.0
220
0.0
230
1.0
  2
SOLID
 70
     1
 71
     0
 91
        1
 92
        3
 72
     0
 73
     1
 93
        4
 10
152.6678836839164
 20
164.9049539401049
 10
151.1906720543981
 20
165.1654262066052
 10
151.1038479655646
 20
164.6730223300991
 10
152.5810595950829
 20
164.4125500635987
 97
        0
 75
     0
 76
     1
 98
        0
  0
HATCH
  5
193
330
E3
100
AcDbEntity
  8
0
  6
Continuous
 62
   255
370
     0
100
AcDbHatch
 10
0.0
 20
0.0
 30
0.0
210
0.0
220
0.0
230
1.0
  2
SOLID
 70
     1
 71
     0
 91
        1
 92
        3
 72
     1
 73
     1
 93
        4
 10
152.4072110641911
 20
164.8662986717706
 42
0.1666666666666667
 10
151.4224033111789
 20
165.0399468494375
 42
0.0
 10
151.3645205852899
 20
164.7116775984334
 42
0.1666666666666667
 10
152.3493283383021
 20
164.5380294207665
 42
0.0
 97
        0
 75
     0
 76
     1
 98
        0
  0
ARC
  5
194
330
E3
100
AcDbEntity
  8
0
  6
Continuous
100
AcDbCircle
 10
151.6615702619207
 20
163.5169447874611
 30
0.0
 40
1.541666666666723
100
AcDbArc
 50
61.07535558394979
 51
98.92464441605102
  0
LINE
  5
195
330
E3
100
AcDbEntity
  8
0
  6
Continuous
100
AcDbLine
 10
151.4224022613353
 20
165.0399459942869
 30
0.0
 11
151.3645217430735
 21
164.7116782109199
 31
0.0
  0
ARC
  5
196
330
E3
100
AcDbEntity
  8
0
  6
Continuous
100
AcDbCircle
 10
152.1101613875602
 20
166.0610314827428
 30
0.0
 40
1.54166666666671
100
AcDbArc
 50
241.0753555839507
 51
278.9246444160531
  0
LINE
  5
197
330
E3
100
AcDbEntity
  8
0
  6
Continuous
100
AcDbLine
 10
152.3493286748899
 20
164.538029492704
 30
0.0
 11
152.4072127748669
 21
164.8662972760711
 31
0.0
  0
HATCH
  5
198
330
E3
100
AcDbEntity
  8
0
  6
Continuous
 62
   255
370
     0
100
AcDbHatch
 10
0.0
 20
0.0
 30
0.0
210
0.0
220
0.0
230
1.0
  2
SOLID
 70
     1
 71
     0
 91
        1
 92
        3
 72
     1
 73
     1
 93
        4
 10
152.8996149406972
 20
164.7794745829371
 42
0.3333333333333333
 10
152.4072110641911
 20
164.8662986717706
 42
0.0
 10
152.3493283383021
 20
164.5380294207665
 42
0.3333333333333333
 10
152.8417322148082
 20
164.451205331933
 42
0.0
 97
        0
 75
     0
 76
     1
 98
        0
  0
ARC
  5
199
330
E3
100
AcDbEntity
  8
0
  6
Continuous
100
AcDbCircle
 10
152.5955302765551
 20
164.4946173763497
 30
0.0
 40
0.4166666666666826
100
AcDbArc
 50
43.13010235415265
 51
116.8698976458385
  0
LINE
  5
19A
330
E3
100
AcDbEntity
  8
0
  6
Continuous
100
AcDbLine
 10
152.4072127748669
 20
164.8662972760711
 30
0.0
 11
152.3493286748899
 21
164.538029492704
 31
0.0
  0
ARC
  5
19B
330
E3
100
AcDbEntity
  8
0
  6
Continuous
100
AcDbCircle
 10
152.6534130024441
 20
164.8228866273538
 30
0.0
 40
0.4166666666666231
100
AcDbArc
 50
223.1301023541551
 51
296.8698976458471
  0
LINE
  5
19C
330
E3
100
AcDbEntity
  8
0
  6
Continuous
100
AcDbLine
 10
152.8417321407981
 20
164.4512051335961
 30
0.0
 11
152.8996162407751
 21
164.7794729169632
 31
0.0
  0
HATCH
  5
19D
330
E3
100
AcDbEntity
  8
0
  6
Continuous
 62
   255
370
     0
100
AcDbHatch
 10
0.0
 20
0.0
 30
0.0
210
0.0
220
0.0
230
1.0
  2
SOLID
 70
     1
 71
     0
 91
        1
 92
        3
 72
     1
 73
     1
 93
        4
 10
150.9299994346728
 20
165.1267709382709
 42
0.0
 10
150.8721167087838
 20
164.7985016872669
 42
0.3333333333333333
 10
151.3645205852899
 20
164.7116775984334
 42
0.0
 10
151.4224033111789
 20
165.0399468494375
 42
0.3333333333333333
 97
        0
 75
     0
 76
     1
 98
        0
  0
LINE
  5
19E
330
E3
100
AcDbEntity
  8
0
  6
Continuous
100
AcDbLine
 10
150.8721182771654
 20
164.7985025700278
 30
0.0
 11
150.9299987954271
 21
165.1267703533948
 31
0.0
  0
ARC
  5
19F
330
E3
100
AcDbEntity
  8
0
  6
Continuous
100
AcDbCircle
 10
151.1762013729258
 20
165.0833588938542
 30
0.0
 40
0.4166666666666826
100
AcDbArc
 50
223.1301023541527
 51
296.8698976458385
  0
LINE
  5
1A0
330
E3
100
AcDbEntity
  8
0
  6
Continuous
100
AcDbLine
 10
151.4224022613353
 20
165.0399459942869
 30
0.0
 11
151.3645217430735
 21
164.7116782109199
 31
0.0
  0
ARC
  5
1A1
330
E3
100
AcDbEntity
  8
0
  6
Continuous
100
AcDbCircle
 10
151.1183186470368
 20
164.7550896428501
 30
0.0
 40
0.4166666666666826
100
AcDbArc
 50
43.13010235415265
 51
116.8698976458385
  0
HATCH
  5
1A2
330
E3
100
AcDbEntity
  8
0
  6
Continuous
 62
   255
370
     0
100
AcDbHatch
 10
0.0
 20
0.0
 30
0.0
210
0.0
220
0.0
230
1.0
  2
SOLID
 70
     1
 71
     0
 91
        1
 92
        3
 72
     0
 73
     1
 93
        4
 10
151.5141848575889
 20
164.6006688648552
 10
151.2363477733219
 20
163.0249764600357
 10
151.8928856187915
 20
162.9092111240231
 10
152.1707227030586
 20
164.4849035288427
 97
        0
 75
     0
 76
     1
 98
        0
  0
LINE
  5
1A3
330
E3
100
AcDbEntity
  8
0
  6
Continuous
100
AcDbLine
 10
151.514183714334
 20
164.6006701105184
 30
0.0
 11
151.2363464815317
 21
163.0249768705831
 31
0.0
  0
LINE
  5
1A4
330
E3
100
AcDbEntity
  8
0
  6
Continuous
100
AcDbLine
 10
151.2363464815317
 20
163.0249768705831
 30
0.0
 11
151.892885629981
 21
162.9092122523443
 31
0.0
  0
LINE
  5
1A5
330
E3
100
AcDbEntity
  8
0
  6
Continuous
100
AcDbLine
 10
151.892885629981
 20
162.9092122523443
 30
0.0
 11
152.1707228627833
 21
164.4849019105644
 31
0.0
  0
LINE
  5
1A6
330
E3
100
AcDbEntity
  8
0
  6
Continuous
100
AcDbLine
 10
152.1707228627833
 20
164.4849019105644
 30
0.0
 11
151.514183714334
 21
164.6006701105184
 31
0.0
  0
HATCH
  5
1A7
330
E3
100
AcDbEntity
  8
0
  6
Continuous
 62
   255
370
     0
100
AcDbHatch
 10
0.0
 20
0.0
 30
0.0
210
0.0
220
0.0
230
1.0
  2
SOLID
 70
     1
 71
     0
 91
        1
 92
        3
 72
     0
 73
     1
 93
        5
 10
151.269174370153
 20
163.0191882453295
 10
149.115936967083
 20
150.8075721079781
 10
149.3071903863865
 20
150.1645930028707
 10
149.7068216188904
 20
150.7033832013779
 10
151.8600590219603
 20
162.9149993387293
 97
        0
 75
     0
 76
     1
 98
        0
  0
LINE
  5
1A8
330
E3
100
AcDbEntity
  8
0
  6
Continuous
100
AcDbLine
 10
151.2691729016969
 20
163.0191888187569
 30
0.0
 11
149.1159352429077
 21
150.8075706864023
 31
0.0
  0
LINE
  5
1A9
330
E3
100
AcDbEntity
  8
0
  6
Continuous
100
AcDbLine
 10
149.1159352429077
 20
150.8075706864023
 30
0.0
 11
149.3071916732384
 21
150.1645919118477
 31
0.0
  0
LINE
  5
1AA
330
E3
100
AcDbEntity
  8
0
  6
Continuous
100
AcDbLine
 10
149.3071916732384
 20
150.1645919118477
 30
0.0
 11
149.7068215510267
 21
150.7033821718158
 31
0.0
  0
LINE
  5
1AB
330
E3
100
AcDbEntity
  8
0
  6
Continuous
100
AcDbLine
 10
149.7068215510267
 20
150.7033821718158
 30
0.0
 11
151.8600592098158
 21
162.9150003041704
 31
0.0
  0
LINE
  5
1AC
330
E3
100
AcDbEntity
  8
0
  6
Continuous
100
AcDbLine
 10
151.8600592098158
 20
162.9150003041704
 30
0.0
 11
151.2691729016969
 21
163.0191888187569
 31
0.0
  0
LINE
  5
1AD
330
E3
100
AcDbEntity
  8
0
  6
Continuous
100
AcDbLine
 10
152.6678828465288
 20
164.9049547286453
 30
0.0
 11
151.1906724488043
 21
165.1654278059691
 31
0.0
  0
LINE
  5
1AE
330
E3
100
AcDbEntity
  8
0
  6
Continuous
100
AcDbLine
 10
151.1038480896964
 20
164.6730207583456
 30
0.0
 11
152.5810584874209
 21
164.4125512627371
 31
0.0
  0
LINE
  5
1AF
330
E3
100
AcDbEntity
  8
0
  6
Continuous
100
AcDbLine
 10
152.0570205725627
 20
162.8802697031959
 30
0.0
 11
152.0541967319037
 21
162.875211837159
 31
0.0
  0
LINE
  5
1B0
330
E3
100
AcDbEntity
  8
0
  6
Continuous
100
AcDbLine
 10
152.0541967319037
 20
162.875211837159
 30
0.0
 11
152.0476396607568
 21
162.8708122403822
 31
0.0
  0
LINE
  5
1B1
330
E3
100
AcDbEntity
  8
0
  6
Continuous
100
AcDbLine
 10
152.0476396607568
 20
162.8708122403822
 30
0.0
 11
152.0373935130126
 21
162.8670626274121
 31
0.0
  0
LINE
  5
1B2
330
E3
100
AcDbEntity
  8
0
  6
Continuous
100
AcDbLine
 10
152.0373935130126
 20
162.8670626274121
 30
0.0
 11
152.0235251116073
 21
162.8639536985846
 31
0.0
  0
LINE
  5
1B3
330
E3
100
AcDbEntity
  8
0
  6
Continuous
100
AcDbLine
 10
152.0235251116073
 20
162.8639536985846
 30
0.0
 11
152.006135884122
 21
162.8614644064935
 31
0.0
  0
LINE
  5
1B4
330
E3
100
AcDbEntity
  8
0
  6
Continuous
100
AcDbLine
 10
152.006135884122
 20
162.8614644064935
 30
0.0
 11
151.9853511905903
 21
162.8595732608474
 31
0.0
  0
LINE
  5
1B5
330
E3
100
AcDbEntity
  8
0
  6
Continuous
100
AcDbLine
 10
151.9853511905903
 20
162.8595732608474
 30
0.0
 11
151.9613178813368
 21
162.8582551896394
 31
0.0
  0
LINE
  5
1B6
330
E3
100
AcDbEntity
  8
0
  6
Continuous
100
AcDbLine
 10
151.9613178813368
 20
162.8582551896394
 30
0.0
 11
151.9342186238387
 21
162.8574779574325
 31
0.0
  0
LINE
  5
1B7
330
E3
100
AcDbEntity
  8
0
  6
Continuous
100
AcDbLine
 10
151.9342186238387
 20
162.8574779574325
 30
0.0
 11
151.904246830719
 21
162.8572057470744
 31
0.0
  0
LINE
  5
1B8
330
E3
100
AcDbEntity
  8
0
  6
Continuous
100
AcDbLine
 10
151.904246830719
 20
162.8572057470744
 30
0.0
 11
151.8716281500377
 21
162.8574027414125
 31
0.0
  0
LINE
  5
1B9
330
E3
100
AcDbEntity
  8
0
  6
Continuous
100
AcDbLine
 10
151.8716281500377
 20
162.8574027414125
 30
0.0
 11
151.8365953932853
 21
162.8580223781489
 31
0.0
  0
LINE
  5
1BA
330
E3
100
AcDbEntity
  8
0
  6
Continuous
100
AcDbLine
 10
151.8365953932853
 20
162.8580223781489
 30
0.0
 11
151.7994171891048
 21
162.8590216767005
 31
0.0
  0
LINE
  5
1BB
330
E3
100
AcDbEntity
  8
0
  6
Continuous
100
AcDbLine
 10
151.7994171891048
 20
162.8590216767005
 30
0.0
 11
151.7603657478542
 21
162.8603540747694
 31
0.0
  0
LINE
  5
1BC
330
E3
100
AcDbEntity
  8
0
  6
Continuous
100
AcDbLine
 10
151.7603657478542
 20
162.8603540747694
 30
0.0
 11
151.7197276067529
 21
162.8619622649118
 31
0.0
  0
LINE
  5
1BD
330
E3
100
AcDbEntity
  8
0
  6
Continuous
100
AcDbLine
 10
151.7197276067529
 20
162.8619622649118
 30
0.0
 11
151.677807211596
 21
162.8637996848293
 31
0.0
  0
LINE
  5
1BE
330
E3
100
AcDbEntity
  8
0
  6
Continuous
100
AcDbLine
 10
151.677807211596
 20
162.8637996848293
 30
0.0
 11
151.6349197533245
 21
162.8658054453632
 31
0.0
  0
LINE
  5
1BF
330
E3
100
AcDbEntity
  8
0
  6
Continuous
100
AcDbLine
 10
151.6349197533245
 20
162.8658054453632
 30
0.0
 11
151.5913804228796
 21
162.8679258207846
 31
0.0
  0
LINE
  5
1C0
330
E3
100
AcDbEntity
  8
0
  6
Continuous
100
AcDbLine
 10
151.5913804228796
 20
162.8679258207846
 30
0.0
 11
151.5475151563479
 21
162.8701035036499
 31
0.0
  0
LINE
  5
1C1
330
E3
100
AcDbEntity
  8
0
  6
Continuous
100
AcDbLine
 10
151.5475151563479
 20
162.8701035036499
 30
0.0
 11
151.5036498898162
 21
162.8722847682305
 31
0.0
  0
LINE
  5
1C2
330
E3
100
AcDbEntity
  8
0
  6
Continuous
100
AcDbLine
 10
151.5036498898162
 20
162.8722847682305
 30
0.0
 11
151.4601105593712
 21
162.874405143652
 31
0.0
  0
LINE
  5
1C3
330
E3
100
AcDbEntity
  8
0
  6
Continuous
100
AcDbLine
 10
151.4601105593712
 20
162.874405143652
 30
0.0
 11
151.4172195193845
 21
162.8764109041858
 31
0.0
  0
LINE
  5
1C4
330
E3
100
AcDbEntity
  8
0
  6
Continuous
100
AcDbLine
 10
151.4172195193845
 20
162.8764109041858
 30
0.0
 11
151.3753027059428
 21
162.8782483241034
 31
0.0
  0
LINE
  5
1C5
330
E3
100
AcDbEntity
  8
0
  6
Continuous
100
AcDbLine
 10
151.3753027059428
 20
162.8782483241034
 30
0.0
 11
151.3346645648415
 21
162.8798565142457
 31
0.0
  0
LINE
  5
1C6
330
E3
100
AcDbEntity
  8
0
  6
Continuous
100
AcDbLine
 10
151.3346645648415
 20
162.8798565142457
 30
0.0
 11
151.2956131235909
 21
162.8811889123146
 31
0.0
  0
LINE
  5
1C7
330
E3
100
AcDbEntity
  8
0
  6
Continuous
100
AcDbLine
 10
151.2956131235909
 20
162.8811889123146
 30
0.0
 11
151.2584313376952
 21
162.8821882108662
 31
0.0
  0
LINE
  5
1C8
330
E3
100
AcDbEntity
  8
0
  6
Continuous
100
AcDbLine
 10
151.2584313376952
 20
162.8821882108662
 30
0.0
 11
151.223402162658
 21
162.8828078476025
 31
0.0
  0
LINE
  5
1C9
330
E3
100
AcDbEntity
  8
0
  6
Continuous
100
AcDbLine
 10
151.223402162658
 20
162.8828078476025
 30
0.0
 11
151.1907834819767
 21
162.8830048419407
 31
0.0
  0
LINE
  5
1CA
330
E3
100
AcDbEntity
  8
0
  6
Continuous
100
AcDbLine
 10
151.1907834819767
 20
162.8830048419407
 30
0.0
 11
151.160811688857
 21
162.8827326315826
 31
0.0
  0
LINE
  5
1CB
330
E3
100
AcDbEntity
  8
0
  6
Continuous
100
AcDbLine
 10
151.160811688857
 20
162.8827326315826
 30
0.0
 11
151.1337088496437
 21
162.8819553993757
 31
0.0
  0
LINE
  5
1CC
330
E3
100
AcDbEntity
  8
0
  6
Continuous
100
AcDbLine
 10
151.1337088496437
 20
162.8819553993757
 30
0.0
 11
151.1096791221054
 21
162.8806373281678
 31
0.0
  0
LINE
  5
1CD
330
E3
100
AcDbEntity
  8
0
  6
Continuous
100
AcDbLine
 10
151.1096791221054
 20
162.8806373281678
 30
0.0
 11
151.0888944285736
 21
162.8787461825216
 31
0.0
  0
LINE
  5
1CE
330
E3
100
AcDbEntity
  8
0
  6
Continuous
100
AcDbLine
 10
151.0888944285736
 20
162.8787461825216
 30
0.0
 11
151.0715052010885
 21
162.8762568904305
 31
0.0
  0
LINE
  5
1CF
330
E3
100
AcDbEntity
  8
0
  6
Continuous
100
AcDbLine
 10
151.0715052010885
 20
162.8762568904305
 30
0.0
 11
151.0576367996831
 21
162.8731479616031
 31
0.0
  0
LINE
  5
1D0
330
E3
100
AcDbEntity
  8
0
  6
Continuous
100
AcDbLine
 10
151.0576367996831
 20
162.8731479616031
 30
0.0
 11
151.0473895123845
 21
162.8693979057479
 31
0.0
  0
LINE
  5
1D1
330
E3
100
AcDbEntity
  8
0
  6
Continuous
100
AcDbLine
 10
151.0473895123845
 20
162.8693979057479
 30
0.0
 11
151.0408332312752
 21
162.8649984622156
 31
0.0
  0
LINE
  5
1D2
330
E3
100
AcDbEntity
  8
0
  6
Continuous
100
AcDbLine
 10
151.0408332312752
 20
162.8649984622156
 30
0.0
 11
151.0380093906161
 21
162.8599405961786
 31
0.0
  0
LINE
  5
1D3
330
E3
100
AcDbEntity
  8
0
  6
Continuous
100
AcDbLine
 10
151.988613714694
 20
162.4923151338275
 30
0.0
 11
151.9857898740349
 21
162.4872572677905
 31
0.0
  0
LINE
  5
1D4
330
E3
100
AcDbEntity
  8
0
  6
Continuous
100
AcDbLine
 10
151.9857898740349
 20
162.4872572677905
 30
0.0
 11
151.979232802888
 21
162.4828576710138
 31
0.0
  0
LINE
  5
1D5
330
E3
100
AcDbEntity
  8
0
  6
Continuous
100
AcDbLine
 10
151.979232802888
 20
162.4828576710138
 30
0.0
 11
151.9689863336634
 21
162.4791091413028
 31
0.0
  0
LINE
  5
1D6
330
E3
100
AcDbEntity
  8
0
  6
Continuous
100
AcDbLine
 10
151.9689863336634
 20
162.4791091413028
 30
0.0
 11
151.9551179322581
 21
162.4759966307601
 31
0.0
  0
LINE
  5
1D7
330
E3
100
AcDbEntity
  8
0
  6
Continuous
100
AcDbLine
 10
151.9551179322581
 20
162.4759966307601
 30
0.0
 11
151.9377287047729
 21
162.473507338669
 31
0.0
  0
LINE
  5
1D8
330
E3
100
AcDbEntity
  8
0
  6
Continuous
100
AcDbLine
 10
151.9377287047729
 20
162.473507338669
 30
0.0
 11
151.9169440112412
 21
162.4716161930229
 31
0.0
  0
LINE
  5
1D9
330
E3
100
AcDbEntity
  8
0
  6
Continuous
100
AcDbLine
 10
151.9169440112412
 20
162.4716161930229
 30
0.0
 11
151.8929142837029
 21
162.4702981218149
 31
0.0
  0
LINE
  5
1DA
330
E3
100
AcDbEntity
  8
0
  6
Continuous
100
AcDbLine
 10
151.8929142837029
 20
162.4702981218149
 30
0.0
 11
151.8658114444896
 21
162.469520889608
 31
0.0
  0
LINE
  5
1DB
330
E3
100
AcDbEntity
  8
0
  6
Continuous
100
AcDbLine
 10
151.8658114444896
 20
162.469520889608
 30
0.0
 11
151.8358396513699
 21
162.4692522609651
 31
0.0
  0
LINE
  5
1DC
330
E3
100
AcDbEntity
  8
0
  6
Continuous
100
AcDbLine
 10
151.8358396513699
 20
162.4692522609651
 30
0.0
 11
151.8032209706886
 21
162.469445673588
 31
0.0
  0
LINE
  5
1DD
330
E3
100
AcDbEntity
  8
0
  6
Continuous
100
AcDbLine
 10
151.8032209706886
 20
162.469445673588
 30
0.0
 11
151.7681917956514
 21
162.4700688920396
 31
0.0
  0
LINE
  5
1DE
330
E3
100
AcDbEntity
  8
0
  6
Continuous
100
AcDbLine
 10
151.7681917956514
 20
162.4700688920396
 30
0.0
 11
151.7310100097556
 21
162.4710681905913
 31
0.0
  0
LINE
  5
1DF
330
E3
100
AcDbEntity
  8
0
  6
Continuous
100
AcDbLine
 10
151.7310100097556
 20
162.4710681905913
 30
0.0
 11
151.6919585685051
 21
162.4723970069449
 31
0.0
  0
LINE
  5
1E0
330
E3
100
AcDbEntity
  8
0
  6
Continuous
100
AcDbLine
 10
151.6919585685051
 20
162.4723970069449
 30
0.0
 11
151.6513204274038
 21
162.4740087788025
 31
0.0
  0
LINE
  5
1E1
330
E3
100
AcDbEntity
  8
0
  6
Continuous
100
AcDbLine
 10
151.6513204274038
 20
162.4740087788025
 30
0.0
 11
151.6094036139621
 21
162.4758426170048
 31
0.0
  0
LINE
  5
1E2
330
E3
100
AcDbEntity
  8
0
  6
Continuous
100
AcDbLine
 10
151.6094036139621
 20
162.4758426170048
 30
0.0
 11
151.5665125739754
 21
162.4778519592539
 31
0.0
  0
LINE
  5
1E3
330
E3
100
AcDbEntity
  8
0
  6
Continuous
100
AcDbLine
 10
151.5665125739754
 20
162.4778519592539
 30
0.0
 11
151.5229732435304
 21
162.4799723346754
 31
0.0
  0
LINE
  5
1E4
330
E3
100
AcDbEntity
  8
0
  6
Continuous
100
AcDbLine
 10
151.5229732435304
 20
162.4799723346754
 30
0.0
 11
151.4791079769987
 21
162.4821500175406
 31
0.0
  0
LINE
  5
1E5
330
E3
100
AcDbEntity
  8
0
  6
Continuous
100
AcDbLine
 10
151.4791079769987
 20
162.4821500175406
 30
0.0
 11
151.435242710467
 21
162.4843312821212
 31
0.0
  0
LINE
  5
1E6
330
E3
100
AcDbEntity
  8
0
  6
Continuous
100
AcDbLine
 10
151.435242710467
 20
162.4843312821212
 30
0.0
 11
151.3917033800221
 21
162.4864516575427
 31
0.0
  0
LINE
  5
1E7
330
E3
100
AcDbEntity
  8
0
  6
Continuous
100
AcDbLine
 10
151.3917033800221
 20
162.4864516575427
 30
0.0
 11
151.3488159217507
 21
162.4884574180765
 31
0.0
  0
LINE
  5
1E8
330
E3
100
AcDbEntity
  8
0
  6
Continuous
100
AcDbLine
 10
151.3488159217507
 20
162.4884574180765
 30
0.0
 11
151.3068955265937
 21
162.4902948379941
 31
0.0
  0
LINE
  5
1E9
330
E3
100
AcDbEntity
  8
0
  6
Continuous
100
AcDbLine
 10
151.3068955265937
 20
162.4902948379941
 30
0.0
 11
151.2662573854923
 21
162.4919030281364
 31
0.0
  0
LINE
  5
1EA
330
E3
100
AcDbEntity
  8
0
  6
Continuous
100
AcDbLine
 10
151.2662573854923
 20
162.4919030281364
 30
0.0
 11
151.2272059442418
 21
162.4932318444901
 31
0.0
  0
LINE
  5
1EB
330
E3
100
AcDbEntity
  8
0
  6
Continuous
100
AcDbLine
 10
151.2272059442418
 20
162.4932318444901
 30
0.0
 11
151.1900277400613
 21
162.494234724757
 31
0.0
  0
LINE
  5
1EC
330
E3
100
AcDbEntity
  8
0
  6
Continuous
100
AcDbLine
 10
151.1900277400613
 20
162.494234724757
 30
0.0
 11
151.1549949833089
 21
162.4948543614933
 31
0.0
  0
LINE
  5
1ED
330
E3
100
AcDbEntity
  8
0
  6
Continuous
100
AcDbLine
 10
151.1549949833089
 20
162.4948543614933
 30
0.0
 11
151.1223763026276
 21
162.4950513558314
 31
0.0
  0
LINE
  5
1EE
330
E3
100
AcDbEntity
  8
0
  6
Continuous
100
AcDbLine
 10
151.1223763026276
 20
162.4950513558314
 30
0.0
 11
151.0924045095079
 21
162.4947791454733
 31
0.0
  0
LINE
  5
1EF
330
E3
100
AcDbEntity
  8
0
  6
Continuous
100
AcDbLine
 10
151.0924045095079
 20
162.4947791454733
 30
0.0
 11
151.0653016702946
 21
162.4940019132664
 31
0.0
  0
LINE
  5
1F0
330
E3
100
AcDbEntity
  8
0
  6
Continuous
100
AcDbLine
 10
151.0653016702946
 20
162.4940019132664
 30
0.0
 11
151.0412719427563
 21
162.4926838420585
 31
0.0
  0
LINE
  5
1F1
330
E3
100
AcDbEntity
  8
0
  6
Continuous
100
AcDbLine
 10
151.0412719427563
 20
162.4926838420585
 30
0.0
 11
151.0204872492245
 21
162.4907926964123
 31
0.0
  0
LINE
  5
1F2
330
E3
100
AcDbEntity
  8
0
  6
Continuous
100
AcDbLine
 10
151.0204872492245
 20
162.4907926964123
 30
0.0
 11
151.0030980217393
 21
162.4883034043212
 31
0.0
  0
LINE
  5
1F3
330
E3
100
AcDbEntity
  8
0
  6
Continuous
100
AcDbLine
 10
151.0030980217393
 20
162.4883034043212
 30
0.0
 11
150.989229620334
 21
162.4851908937786
 31
0.0
  0
LINE
  5
1F4
330
E3
100
AcDbEntity
  8
0
  6
Continuous
100
AcDbLine
 10
150.989229620334
 20
162.4851908937786
 30
0.0
 11
150.9789823330353
 21
162.4814444196386
 31
0.0
  0
LINE
  5
1F5
330
E3
100
AcDbEntity
  8
0
  6
Continuous
100
AcDbLine
 10
150.9789823330353
 20
162.4814444196386
 30
0.0
 11
150.9724263734064
 21
162.4770438928472
 31
0.0
  0
LINE
  5
1F6
330
E3
100
AcDbEntity
  8
0
  6
Continuous
100
AcDbLine
 10
150.9724263734064
 20
162.4770438928472
 30
0.0
 11
150.9696025327474
 21
162.4719860268102
 31
0.0
  0
LINE
  5
1F7
330
E3
100
AcDbEntity
  8
0
  6
Continuous
100
AcDbLine
 10
151.9202068568252
 20
162.104360564459
 30
0.0
 11
151.9173830161661
 21
162.0993026984221
 31
0.0
  0
LINE
  5
1F8
330
E3
100
AcDbEntity
  8
0
  6
Continuous
100
AcDbLine
 10
151.9173830161661
 20
162.0993026984221
 30
0.0
 11
151.9108259450192
 21
162.0949031016453
 31
0.0
  0
LINE
  5
1F9
330
E3
100
AcDbEntity
  8
0
  6
Continuous
100
AcDbLine
 10
151.9108259450192
 20
162.0949031016453
 30
0.0
 11
151.9005791543143
 21
162.0911556551935
 31
0.0
  0
LINE
  5
1FA
330
E3
100
AcDbEntity
  8
0
  6
Continuous
100
AcDbLine
 10
151.9005791543143
 20
162.0911556551935
 30
0.0
 11
151.886710752909
 21
162.0880431446508
 31
0.0
  0
LINE
  5
1FB
330
E3
100
AcDbEntity
  8
0
  6
Continuous
100
AcDbLine
 10
151.886710752909
 20
162.0880431446508
 30
0.0
 11
151.8693215254238
 21
162.0855538525598
 31
0.0
  0
LINE
  5
1FC
330
E3
100
AcDbEntity
  8
0
  6
Continuous
100
AcDbLine
 10
151.8693215254238
 20
162.0855538525598
 30
0.0
 11
151.848536831892
 21
162.0836627069136
 31
0.0
  0
LINE
  5
1FD
330
E3
100
AcDbEntity
  8
0
  6
Continuous
100
AcDbLine
 10
151.848536831892
 20
162.0836627069136
 30
0.0
 11
151.8245071043538
 21
162.0823446357057
 31
0.0
  0
LINE
  5
1FE
330
E3
100
AcDbEntity
  8
0
  6
Continuous
100
AcDbLine
 10
151.8245071043538
 20
162.0823446357057
 30
0.0
 11
151.7974042651405
 21
162.0815674034988
 31
0.0
  0
LINE
  5
1FF
330
E3
100
AcDbEntity
  8
0
  6
Continuous
100
AcDbLine
 10
151.7974042651405
 20
162.0815674034988
 30
0.0
 11
151.7674324720208
 21
162.0812951931406
 31
0.0
  0
LINE
  5
200
330
E3
100
AcDbEntity
  8
0
  6
Continuous
100
AcDbLine
 10
151.7674324720208
 20
162.0812951931406
 30
0.0
 11
151.7348137913394
 21
162.0814921874788
 31
0.0
  0
LINE
  5
201
330
E3
100
AcDbEntity
  8
0
  6
Continuous
100
AcDbLine
 10
151.7348137913394
 20
162.0814921874788
 30
0.0
 11
151.6997846163023
 21
162.0821118242151
 31
0.0
  0
LINE
  5
202
330
E3
100
AcDbEntity
  8
0
  6
Continuous
100
AcDbLine
 10
151.6997846163023
 20
162.0821118242151
 30
0.0
 11
151.6626028304065
 21
162.083114704482
 31
0.0
  0
LINE
  5
203
330
E3
100
AcDbEntity
  8
0
  6
Continuous
100
AcDbLine
 10
151.6626028304065
 20
162.083114704482
 30
0.0
 11
151.623551389156
 21
162.0844435208357
 31
0.0
  0
LINE
  5
204
330
E3
100
AcDbEntity
  8
0
  6
Continuous
100
AcDbLine
 10
151.623551389156
 20
162.0844435208357
 30
0.0
 11
151.5829132480546
 21
162.086051710978
 31
0.0
  0
LINE
  5
205
330
E3
100
AcDbEntity
  8
0
  6
Continuous
100
AcDbLine
 10
151.5829132480546
 20
162.086051710978
 30
0.0
 11
151.5409964346129
 21
162.0878891308955
 31
0.0
  0
LINE
  5
206
330
E3
100
AcDbEntity
  8
0
  6
Continuous
100
AcDbLine
 10
151.5409964346129
 20
162.0878891308955
 30
0.0
 11
151.4981053946262
 21
162.0898948914294
 31
0.0
  0
LINE
  5
207
330
E3
100
AcDbEntity
  8
0
  6
Continuous
100
AcDbLine
 10
151.4981053946262
 20
162.0898948914294
 30
0.0
 11
151.4545660641813
 21
162.0920152668509
 31
0.0
  0
LINE
  5
208
330
E3
100
AcDbEntity
  8
0
  6
Continuous
100
AcDbLine
 10
151.4545660641813
 20
162.0920152668509
 30
0.0
 11
151.4107007976496
 21
162.0941965314314
 31
0.0
  0
LINE
  5
209
330
E3
100
AcDbEntity
  8
0
  6
Continuous
100
AcDbLine
 10
151.4107007976496
 20
162.0941965314314
 30
0.0
 11
151.3668355311179
 21
162.0963742142967
 31
0.0
  0
LINE
  5
20A
330
E3
100
AcDbEntity
  8
0
  6
Continuous
100
AcDbLine
 10
151.3668355311179
 20
162.0963742142967
 30
0.0
 11
151.323296200673
 21
162.0984945897181
 31
0.0
  0
LINE
  5
20B
330
E3
100
AcDbEntity
  8
0
  6
Continuous
100
AcDbLine
 10
151.323296200673
 20
162.0984945897181
 30
0.0
 11
151.2804087424015
 21
162.1005039319672
 31
0.0
  0
LINE
  5
20C
330
E3
100
AcDbEntity
  8
0
  6
Continuous
100
AcDbLine
 10
151.2804087424015
 20
162.1005039319672
 30
0.0
 11
151.2384883472446
 21
162.1023377701696
 31
0.0
  0
LINE
  5
20D
330
E3
100
AcDbEntity
  8
0
  6
Continuous
100
AcDbLine
 10
151.2384883472446
 20
162.1023377701696
 30
0.0
 11
151.1978502061432
 21
162.1039495420271
 31
0.0
  0
LINE
  5
20E
330
E3
100
AcDbEntity
  8
0
  6
Continuous
100
AcDbLine
 10
151.1978502061432
 20
162.1039495420271
 30
0.0
 11
151.1587987648927
 21
162.1052783583808
 31
0.0
  0
LINE
  5
20F
330
E3
100
AcDbEntity
  8
0
  6
Continuous
100
AcDbLine
 10
151.1587987648927
 20
162.1052783583808
 30
0.0
 11
151.1216205607122
 21
162.1062776569324
 31
0.0
  0
LINE
  5
210
330
E3
100
AcDbEntity
  8
0
  6
Continuous
100
AcDbLine
 10
151.1216205607122
 20
162.1062776569324
 30
0.0
 11
151.0865878039598
 21
162.106900875384
 31
0.0
  0
LINE
  5
211
330
E3
100
AcDbEntity
  8
0
  6
Continuous
100
AcDbLine
 10
151.0865878039598
 20
162.106900875384
 30
0.0
 11
151.0539691232784
 21
162.1070942880069
 31
0.0
  0
LINE
  5
212
330
E3
100
AcDbEntity
  8
0
  6
Continuous
100
AcDbLine
 10
151.0539691232784
 20
162.1070942880069
 30
0.0
 11
151.0239973301587
 21
162.106825659364
 31
0.0
  0
LINE
  5
213
330
E3
100
AcDbEntity
  8
0
  6
Continuous
100
AcDbLine
 10
151.0239973301587
 20
162.106825659364
 30
0.0
 11
150.9968980726607
 21
162.1060484271571
 31
0.0
  0
LINE
  5
214
330
E3
100
AcDbEntity
  8
0
  6
Continuous
100
AcDbLine
 10
150.9968980726607
 20
162.1060484271571
 30
0.0
 11
150.9728647634072
 21
162.1047303559492
 31
0.0
  0
LINE
  5
215
330
E3
100
AcDbEntity
  8
0
  6
Continuous
100
AcDbLine
 10
150.9728647634072
 20
162.1047303559492
 30
0.0
 11
150.9520800698754
 21
162.102839210303
 31
0.0
  0
LINE
  5
216
330
E3
100
AcDbEntity
  8
0
  6
Continuous
100
AcDbLine
 10
150.9520800698754
 20
162.102839210303
 30
0.0
 11
150.9346908423902
 21
162.1003499182119
 31
0.0
  0
LINE
  5
217
330
E3
100
AcDbEntity
  8
0
  6
Continuous
100
AcDbLine
 10
150.9346908423902
 20
162.1003499182119
 30
0.0
 11
150.9208224409849
 21
162.0972374076693
 31
0.0
  0
LINE
  5
218
330
E3
100
AcDbEntity
  8
0
  6
Continuous
100
AcDbLine
 10
150.9208224409849
 20
162.0972374076693
 30
0.0
 11
150.9105751536862
 21
162.0934873518141
 31
0.0
  0
LINE
  5
219
330
E3
100
AcDbEntity
  8
0
  6
Continuous
100
AcDbLine
 10
150.9105751536862
 20
162.0934873518141
 30
0.0
 11
150.9040195155376
 21
162.0890893234788
 31
0.0
  0
LINE
  5
21A
330
E3
100
AcDbEntity
  8
0
  6
Continuous
100
AcDbLine
 10
150.9040195155376
 20
162.0890893234788
 30
0.0
 11
150.9011956748786
 21
162.0840314574418
 31
0.0
  0
LINE
  5
21B
330
E3
100
AcDbEntity
  8
0
  6
Continuous
100
AcDbLine
 10
151.8517999989564
 20
161.7164059950906
 30
0.0
 11
151.8489761582973
 21
161.7113481290536
 31
0.0
  0
LINE
  5
21C
330
E3
100
AcDbEntity
  8
0
  6
Continuous
100
AcDbLine
 10
151.8489761582973
 20
161.7113481290536
 30
0.0
 11
151.8424190871504
 21
161.7069485322768
 31
0.0
  0
LINE
  5
21D
330
E3
100
AcDbEntity
  8
0
  6
Continuous
100
AcDbLine
 10
151.8424190871504
 20
161.7069485322768
 30
0.0
 11
151.8321719749652
 21
161.703198587369
 31
0.0
  0
LINE
  5
21E
330
E3
100
AcDbEntity
  8
0
  6
Continuous
100
AcDbLine
 10
151.8321719749652
 20
161.703198587369
 30
0.0
 11
151.8183035735599
 21
161.7000896585416
 31
0.0
  0
LINE
  5
21F
330
E3
100
AcDbEntity
  8
0
  6
Continuous
100
AcDbLine
 10
151.8183035735599
 20
161.7000896585416
 30
0.0
 11
151.8009143460747
 21
161.6976003664505
 31
0.0
  0
LINE
  5
220
330
E3
100
AcDbEntity
  8
0
  6
Continuous
100
AcDbLine
 10
151.8009143460747
 20
161.6976003664505
 30
0.0
 11
151.7801296525429
 21
161.6957092208043
 31
0.0
  0
LINE
  5
221
330
E3
100
AcDbEntity
  8
0
  6
Continuous
100
AcDbLine
 10
151.7801296525429
 20
161.6957092208043
 30
0.0
 11
151.7560999250046
 21
161.6943911495964
 31
0.0
  0
LINE
  5
222
330
E3
100
AcDbEntity
  8
0
  6
Continuous
100
AcDbLine
 10
151.7560999250046
 20
161.6943911495964
 30
0.0
 11
151.7289970857913
 21
161.6936139173895
 31
0.0
  0
LINE
  5
223
330
E3
100
AcDbEntity
  8
0
  6
Continuous
100
AcDbLine
 10
151.7289970857913
 20
161.6936139173895
 30
0.0
 11
151.6990288743868
 21
161.6933417070314
 31
0.0
  0
LINE
  5
224
330
E3
100
AcDbEntity
  8
0
  6
Continuous
100
AcDbLine
 10
151.6990288743868
 20
161.6933417070314
 30
0.0
 11
151.6664066119903
 21
161.6935387013695
 31
0.0
  0
LINE
  5
225
330
E3
100
AcDbEntity
  8
0
  6
Continuous
100
AcDbLine
 10
151.6664066119903
 20
161.6935387013695
 30
0.0
 11
151.6313774369532
 21
161.6941583381058
 31
0.0
  0
LINE
  5
226
330
E3
100
AcDbEntity
  8
0
  6
Continuous
100
AcDbLine
 10
151.6313774369532
 20
161.6941583381058
 30
0.0
 11
151.5941956510574
 21
161.6951576366575
 31
0.0
  0
LINE
  5
227
330
E3
100
AcDbEntity
  8
0
  6
Continuous
100
AcDbLine
 10
151.5941956510574
 20
161.6951576366575
 30
0.0
 11
151.5551442098069
 21
161.6964900347264
 31
0.0
  0
LINE
  5
228
330
E3
100
AcDbEntity
  8
0
  6
Continuous
100
AcDbLine
 10
151.5551442098069
 20
161.6964900347264
 30
0.0
 11
151.5145060687055
 21
161.6980982248687
 31
0.0
  0
LINE
  5
229
330
E3
100
AcDbEntity
  8
0
  6
Continuous
100
AcDbLine
 10
151.5145060687055
 20
161.6980982248687
 30
0.0
 11
151.4725892552638
 21
161.6999356447863
 31
0.0
  0
LINE
  5
22A
330
E3
100
AcDbEntity
  8
0
  6
Continuous
100
AcDbLine
 10
151.4725892552638
 20
161.6999356447863
 30
0.0
 11
151.4296982152771
 21
161.7019414053201
 31
0.0
  0
LINE
  5
22B
330
E3
100
AcDbEntity
  8
0
  6
Continuous
100
AcDbLine
 10
151.4296982152771
 20
161.7019414053201
 30
0.0
 11
151.3861588848322
 21
161.7040617807416
 31
0.0
  0
LINE
  5
22C
330
E3
100
AcDbEntity
  8
0
  6
Continuous
100
AcDbLine
 10
151.3861588848322
 20
161.7040617807416
 30
0.0
 11
151.3422936183005
 21
161.7062430453221
 31
0.0
  0
LINE
  5
22D
330
E3
100
AcDbEntity
  8
0
  6
Continuous
100
AcDbLine
 10
151.3422936183005
 20
161.7062430453221
 30
0.0
 11
151.2984283517688
 21
161.7084207281874
 31
0.0
  0
LINE
  5
22E
330
E3
100
AcDbEntity
  8
0
  6
Continuous
100
AcDbLine
 10
151.2984283517688
 20
161.7084207281874
 30
0.0
 11
151.2548890213238
 21
161.7105411036089
 31
0.0
  0
LINE
  5
22F
330
E3
100
AcDbEntity
  8
0
  6
Continuous
100
AcDbLine
 10
151.2548890213238
 20
161.7105411036089
 30
0.0
 11
151.2120015630524
 21
161.7125468641427
 31
0.0
  0
LINE
  5
230
330
E3
100
AcDbEntity
  8
0
  6
Continuous
100
AcDbLine
 10
151.2120015630524
 20
161.7125468641427
 30
0.0
 11
151.1700811678954
 21
161.7143842840603
 31
0.0
  0
LINE
  5
231
330
E3
100
AcDbEntity
  8
0
  6
Continuous
100
AcDbLine
 10
151.1700811678954
 20
161.7143842840603
 30
0.0
 11
151.1294466085093
 21
161.7159924742026
 31
0.0
  0
LINE
  5
232
330
E3
100
AcDbEntity
  8
0
  6
Continuous
100
AcDbLine
 10
151.1294466085093
 20
161.7159924742026
 30
0.0
 11
151.0903915855436
 21
161.7173248722715
 31
0.0
  0
LINE
  5
233
330
E3
100
AcDbEntity
  8
0
  6
Continuous
100
AcDbLine
 10
151.0903915855436
 20
161.7173248722715
 30
0.0
 11
151.053213381363
 21
161.7183241708232
 31
0.0
  0
LINE
  5
234
330
E3
100
AcDbEntity
  8
0
  6
Continuous
100
AcDbLine
 10
151.053213381363
 20
161.7183241708232
 30
0.0
 11
151.0181842063259
 21
161.7189438075595
 31
0.0
  0
LINE
  5
235
330
E3
100
AcDbEntity
  8
0
  6
Continuous
100
AcDbLine
 10
151.0181842063259
 20
161.7189438075595
 30
0.0
 11
150.9855619439293
 21
161.7191408018977
 31
0.0
  0
LINE
  5
236
330
E3
100
AcDbEntity
  8
0
  6
Continuous
100
AcDbLine
 10
150.9855619439293
 20
161.7191408018977
 30
0.0
 11
150.9555901508096
 21
161.7188685915395
 31
0.0
  0
LINE
  5
237
330
E3
100
AcDbEntity
  8
0
  6
Continuous
100
AcDbLine
 10
150.9555901508096
 20
161.7188685915395
 30
0.0
 11
150.9284908933115
 21
161.7180913593326
 31
0.0
  0
LINE
  5
238
330
E3
100
AcDbEntity
  8
0
  6
Continuous
100
AcDbLine
 10
150.9284908933115
 20
161.7180913593326
 30
0.0
 11
150.904457584058
 21
161.7167732881247
 31
0.0
  0
LINE
  5
239
330
E3
100
AcDbEntity
  8
0
  6
Continuous
100
AcDbLine
 10
150.904457584058
 20
161.7167732881247
 30
0.0
 11
150.8836728905263
 21
161.7148821424785
 31
0.0
  0
LINE
  5
23A
330
E3
100
AcDbEntity
  8
0
  6
Continuous
100
AcDbLine
 10
150.8836728905263
 20
161.7148821424785
 30
0.0
 11
150.8662836630411
 21
161.7123928503874
 31
0.0
  0
LINE
  5
23B
330
E3
100
AcDbEntity
  8
0
  6
Continuous
100
AcDbLine
 10
150.8662836630411
 20
161.7123928503874
 30
0.0
 11
150.852418843351
 21
161.70928392156
 31
0.0
  0
LINE
  5
23C
330
E3
100
AcDbEntity
  8
0
  6
Continuous
100
AcDbLine
 10
150.852418843351
 20
161.70928392156
 30
0.0
 11
150.8421679743371
 21
161.7055338657048
 31
0.0
  0
LINE
  5
23D
330
E3
100
AcDbEntity
  8
0
  6
Continuous
100
AcDbLine
 10
150.8421679743371
 20
161.7055338657048
 30
0.0
 11
150.8356126576689
 21
161.7011347541103
 31
0.0
  0
LINE
  5
23E
330
E3
100
AcDbEntity
  8
0
  6
Continuous
100
AcDbLine
 10
150.8356126576689
 20
161.7011347541103
 30
0.0
 11
150.8327888170098
 21
161.6960768880733
 31
0.0
  0
LINE
  5
23F
330
E3
100
AcDbEntity
  8
0
  6
Continuous
100
AcDbLine
 10
151.7833931410876
 20
161.3284514257222
 30
0.0
 11
151.7805693004285
 21
161.3233935596852
 31
0.0
  0
LINE
  5
240
330
E3
100
AcDbEntity
  8
0
  6
Continuous
100
AcDbLine
 10
151.7805693004285
 20
161.3233935596852
 30
0.0
 11
151.7740122292816
 21
161.3189939629084
 31
0.0
  0
LINE
  5
241
330
E3
100
AcDbEntity
  8
0
  6
Continuous
100
AcDbLine
 10
151.7740122292816
 20
161.3189939629084
 30
0.0
 11
151.7637647956161
 21
161.3152451012597
 31
0.0
  0
LINE
  5
242
330
E3
100
AcDbEntity
  8
0
  6
Continuous
100
AcDbLine
 10
151.7637647956161
 20
161.3152451012597
 30
0.0
 11
151.7498963942107
 21
161.3121361724323
 31
0.0
  0
LINE
  5
243
330
E3
100
AcDbEntity
  8
0
  6
Continuous
100
AcDbLine
 10
151.7498963942107
 20
161.3121361724323
 30
0.0
 11
151.7325071667255
 21
161.309643298626
 31
0.0
  0
LINE
  5
244
330
E3
100
AcDbEntity
  8
0
  6
Continuous
100
AcDbLine
 10
151.7325071667255
 20
161.309643298626
 30
0.0
 11
151.7117224731938
 21
161.307755734695
 31
0.0
  0
LINE
  5
245
330
E3
100
AcDbEntity
  8
0
  6
Continuous
100
AcDbLine
 10
151.7117224731938
 20
161.307755734695
 30
0.0
 11
151.6876927456555
 21
161.3064340817718
 31
0.0
  0
LINE
  5
246
330
E3
100
AcDbEntity
  8
0
  6
Continuous
100
AcDbLine
 10
151.6876927456555
 20
161.3064340817718
 30
0.0
 11
151.6605934881574
 21
161.305656849565
 31
0.0
  0
LINE
  5
247
330
E3
100
AcDbEntity
  8
0
  6
Continuous
100
AcDbLine
 10
151.6605934881574
 20
161.305656849565
 30
0.0
 11
151.6306216950377
 21
161.3053882209221
 31
0.0
  0
LINE
  5
248
330
E3
100
AcDbEntity
  8
0
  6
Continuous
100
AcDbLine
 10
151.6306216950377
 20
161.3053882209221
 30
0.0
 11
151.5979994326412
 21
161.3055852152602
 31
0.0
  0
LINE
  5
249
330
E3
100
AcDbEntity
  8
0
  6
Continuous
100
AcDbLine
 10
151.5979994326412
 20
161.3055852152602
 30
0.0
 11
151.562970257604
 21
161.3062048519966
 31
0.0
  0
LINE
  5
24A
330
E3
100
AcDbEntity
  8
0
  6
Continuous
100
AcDbLine
 10
151.562970257604
 20
161.3062048519966
 30
0.0
 11
151.5257884717082
 21
161.3072041505482
 31
0.0
  0
LINE
  5
24B
330
E3
100
AcDbEntity
  8
0
  6
Continuous
100
AcDbLine
 10
151.5257884717082
 20
161.3072041505482
 30
0.0
 11
151.4867370304577
 21
161.3085329669019
 31
0.0
  0
LINE
  5
24C
330
E3
100
AcDbEntity
  8
0
  6
Continuous
100
AcDbLine
 10
151.4867370304577
 20
161.3085329669019
 30
0.0
 11
151.4460988893564
 21
161.3101447387594
 31
0.0
  0
LINE
  5
24D
330
E3
100
AcDbEntity
  8
0
  6
Continuous
100
AcDbLine
 10
151.4460988893564
 20
161.3101447387594
 30
0.0
 11
151.4041820759147
 21
161.3119785769618
 31
0.0
  0
LINE
  5
24E
330
E3
100
AcDbEntity
  8
0
  6
Continuous
100
AcDbLine
 10
151.4041820759147
 20
161.3119785769618
 30
0.0
 11
151.361291035928
 21
161.3139879192108
 31
0.0
  0
LINE
  5
24F
330
E3
100
AcDbEntity
  8
0
  6
Continuous
100
AcDbLine
 10
151.361291035928
 20
161.3139879192108
 30
0.0
 11
151.317751705483
 21
161.3161082946323
 31
0.0
  0
LINE
  5
250
330
E3
100
AcDbEntity
  8
0
  6
Continuous
100
AcDbLine
 10
151.317751705483
 20
161.3161082946323
 30
0.0
 11
151.2738864389513
 21
161.3182859774976
 31
0.0
  0
LINE
  5
251
330
E3
100
AcDbEntity
  8
0
  6
Continuous
100
AcDbLine
 10
151.2738864389513
 20
161.3182859774976
 30
0.0
 11
151.2300211724196
 21
161.3204672420782
 31
0.0
  0
LINE
  5
252
330
E3
100
AcDbEntity
  8
0
  6
Continuous
100
AcDbLine
 10
151.2300211724196
 20
161.3204672420782
 30
0.0
 11
151.1864818419747
 21
161.3225876174996
 31
0.0
  0
LINE
  5
253
330
E3
100
AcDbEntity
  8
0
  6
Continuous
100
AcDbLine
 10
151.1864818419747
 20
161.3225876174996
 30
0.0
 11
151.1435943837032
 21
161.3245933780335
 31
0.0
  0
LINE
  5
254
330
E3
100
AcDbEntity
  8
0
  6
Continuous
100
AcDbLine
 10
151.1435943837032
 20
161.3245933780335
 30
0.0
 11
151.1016739885463
 21
161.326430797951
 31
0.0
  0
LINE
  5
255
330
E3
100
AcDbEntity
  8
0
  6
Continuous
100
AcDbLine
 10
151.1016739885463
 20
161.326430797951
 30
0.0
 11
151.0610394291602
 21
161.3280389880933
 31
0.0
  0
LINE
  5
256
330
E3
100
AcDbEntity
  8
0
  6
Continuous
100
AcDbLine
 10
151.0610394291602
 20
161.3280389880933
 30
0.0
 11
151.0219844061944
 21
161.329367804447
 31
0.0
  0
LINE
  5
257
330
E3
100
AcDbEntity
  8
0
  6
Continuous
100
AcDbLine
 10
151.0219844061944
 20
161.329367804447
 30
0.0
 11
150.9848062020139
 21
161.3303706847139
 31
0.0
  0
LINE
  5
258
330
E3
100
AcDbEntity
  8
0
  6
Continuous
100
AcDbLine
 10
150.9848062020139
 20
161.3303706847139
 30
0.0
 11
150.9497770269768
 21
161.3309903214502
 31
0.0
  0
LINE
  5
259
330
E3
100
AcDbEntity
  8
0
  6
Continuous
100
AcDbLine
 10
150.9497770269768
 20
161.3309903214502
 30
0.0
 11
150.9171547645802
 21
161.3311873157884
 31
0.0
  0
LINE
  5
25A
330
E3
100
AcDbEntity
  8
0
  6
Continuous
100
AcDbLine
 10
150.9171547645802
 20
161.3311873157884
 30
0.0
 11
150.8871829714605
 21
161.3309151054302
 31
0.0
  0
LINE
  5
25B
330
E3
100
AcDbEntity
  8
0
  6
Continuous
100
AcDbLine
 10
150.8871829714605
 20
161.3309151054302
 30
0.0
 11
150.8600837139624
 21
161.3301378732234
 31
0.0
  0
LINE
  5
25C
330
E3
100
AcDbEntity
  8
0
  6
Continuous
100
AcDbLine
 10
150.8600837139624
 20
161.3301378732234
 30
0.0
 11
150.8360504047089
 21
161.3288198020154
 31
0.0
  0
LINE
  5
25D
330
E3
100
AcDbEntity
  8
0
  6
Continuous
100
AcDbLine
 10
150.8360504047089
 20
161.3288198020154
 30
0.0
 11
150.8152657111771
 21
161.3269286563692
 31
0.0
  0
LINE
  5
25E
330
E3
100
AcDbEntity
  8
0
  6
Continuous
100
AcDbLine
 10
150.8152657111771
 20
161.3269286563692
 30
0.0
 11
150.7978764836919
 21
161.3244393642782
 31
0.0
  0
LINE
  5
25F
330
E3
100
AcDbEntity
  8
0
  6
Continuous
100
AcDbLine
 10
150.7978764836919
 20
161.3244393642782
 30
0.0
 11
150.7840116640019
 21
161.3213268537355
 31
0.0
  0
LINE
  5
260
330
E3
100
AcDbEntity
  8
0
  6
Continuous
100
AcDbLine
 10
150.7840116640019
 20
161.3213268537355
 30
0.0
 11
150.7737643767032
 21
161.3175803795955
 31
0.0
  0
LINE
  5
261
330
E3
100
AcDbEntity
  8
0
  6
Continuous
100
AcDbLine
 10
150.7737643767032
 20
161.3175803795955
 30
0.0
 11
150.7672057998001
 21
161.3131801847418
 31
0.0
  0
LINE
  5
262
330
E3
100
AcDbEntity
  8
0
  6
Continuous
100
AcDbLine
 10
150.7672057998001
 20
161.3131801847418
 30
0.0
 11
150.764381959141
 21
161.3081223187048
 31
0.0
  0
LINE
  5
263
330
E3
100
AcDbEntity
  8
0
  6
Continuous
100
AcDbLine
 10
151.7149862832188
 20
160.9404968563537
 30
0.0
 11
151.7121624425597
 21
160.9354389903167
 31
0.0
  0
LINE
  5
264
330
E3
100
AcDbEntity
  8
0
  6
Continuous
100
AcDbLine
 10
151.7121624425597
 20
160.9354389903167
 30
0.0
 11
151.7056053714128
 21
160.93103939354
 31
0.0
  0
LINE
  5
265
330
E3
100
AcDbEntity
  8
0
  6
Continuous
100
AcDbLine
 10
151.7056053714128
 20
160.93103939354
 30
0.0
 11
151.6953576162669
 21
160.9272916151504
 31
0.0
  0
LINE
  5
266
330
E3
100
AcDbEntity
  8
0
  6
Continuous
100
AcDbLine
 10
151.6953576162669
 20
160.9272916151504
 30
0.0
 11
151.6814892148616
 21
160.9241791046078
 31
0.0
  0
LINE
  5
267
330
E3
100
AcDbEntity
  8
0
  6
Continuous
100
AcDbLine
 10
151.6814892148616
 20
160.9241791046078
 30
0.0
 11
151.6640999873764
 21
160.9216898125167
 31
0.0
  0
LINE
  5
268
330
E3
100
AcDbEntity
  8
0
  6
Continuous
100
AcDbLine
 10
151.6640999873764
 20
160.9216898125167
 30
0.0
 11
151.6433152938446
 21
160.9197986668705
 31
0.0
  0
LINE
  5
269
330
E3
100
AcDbEntity
  8
0
  6
Continuous
100
AcDbLine
 10
151.6433152938446
 20
160.9197986668705
 30
0.0
 11
151.6192855663064
 21
160.9184805956626
 31
0.0
  0
LINE
  5
26A
330
E3
100
AcDbEntity
  8
0
  6
Continuous
100
AcDbLine
 10
151.6192855663064
 20
160.9184805956626
 30
0.0
 11
151.5921863088083
 21
160.9177033634557
 31
0.0
  0
LINE
  5
26B
330
E3
100
AcDbEntity
  8
0
  6
Continuous
100
AcDbLine
 10
151.5921863088083
 20
160.9177033634557
 30
0.0
 11
151.5622145156886
 21
160.9174311530976
 31
0.0
  0
LINE
  5
26C
330
E3
100
AcDbEntity
  8
0
  6
Continuous
100
AcDbLine
 10
151.5622145156886
 20
160.9174311530976
 30
0.0
 11
151.529592253292
 21
160.9176281474357
 31
0.0
  0
LINE
  5
26D
330
E3
100
AcDbEntity
  8
0
  6
Continuous
100
AcDbLine
 10
151.529592253292
 20
160.9176281474357
 30
0.0
 11
151.4945630782549
 21
160.9182513658873
 31
0.0
  0
LINE
  5
26E
330
E3
100
AcDbEntity
  8
0
  6
Continuous
100
AcDbLine
 10
151.4945630782549
 20
160.9182513658873
 30
0.0
 11
151.4573848740743
 21
160.9192506644389
 31
0.0
  0
LINE
  5
26F
330
E3
100
AcDbEntity
  8
0
  6
Continuous
100
AcDbLine
 10
151.4573848740743
 20
160.9192506644389
 30
0.0
 11
151.4183298511086
 21
160.9205794807926
 31
0.0
  0
LINE
  5
270
330
E3
100
AcDbEntity
  8
0
  6
Continuous
100
AcDbLine
 10
151.4183298511086
 20
160.9205794807926
 30
0.0
 11
151.3776917100072
 21
160.9221912526502
 31
0.0
  0
LINE
  5
271
330
E3
100
AcDbEntity
  8
0
  6
Continuous
100
AcDbLine
 10
151.3776917100072
 20
160.9221912526502
 30
0.0
 11
151.3357748965655
 21
160.9240250908525
 31
0.0
  0
LINE
  5
272
330
E3
100
AcDbEntity
  8
0
  6
Continuous
100
AcDbLine
 10
151.3357748965655
 20
160.9240250908525
 30
0.0
 11
151.2928874382941
 21
160.9260308513863
 31
0.0
  0
LINE
  5
273
330
E3
100
AcDbEntity
  8
0
  6
Continuous
100
AcDbLine
 10
151.2928874382941
 20
160.9260308513863
 30
0.0
 11
151.2493481078491
 21
160.928154808523
 31
0.0
  0
LINE
  5
274
330
E3
100
AcDbEntity
  8
0
  6
Continuous
100
AcDbLine
 10
151.2493481078491
 20
160.928154808523
 30
0.0
 11
151.2054792596022
 21
160.9303324913883
 31
0.0
  0
LINE
  5
275
330
E3
100
AcDbEntity
  8
0
  6
Continuous
100
AcDbLine
 10
151.2054792596022
 20
160.9303324913883
 30
0.0
 11
151.1616139930705
 21
160.9325101742536
 31
0.0
  0
LINE
  5
276
330
E3
100
AcDbEntity
  8
0
  6
Continuous
100
AcDbLine
 10
151.1616139930705
 20
160.9325101742536
 30
0.0
 11
151.1180746626256
 21
160.9346341313904
 31
0.0
  0
LINE
  5
277
330
E3
100
AcDbEntity
  8
0
  6
Continuous
100
AcDbLine
 10
151.1180746626256
 20
160.9346341313904
 30
0.0
 11
151.0751872043541
 21
160.9366398919242
 31
0.0
  0
LINE
  5
278
330
E3
100
AcDbEntity
  8
0
  6
Continuous
100
AcDbLine
 10
151.0751872043541
 20
160.9366398919242
 30
0.0
 11
151.0332668091972
 21
160.9384737301265
 31
0.0
  0
LINE
  5
279
330
E3
100
AcDbEntity
  8
0
  6
Continuous
100
AcDbLine
 10
151.0332668091972
 20
160.9384737301265
 30
0.0
 11
150.992632249811
 21
160.9400855019841
 31
0.0
  0
LINE
  5
27A
330
E3
100
AcDbEntity
  8
0
  6
Continuous
100
AcDbLine
 10
150.992632249811
 20
160.9400855019841
 30
0.0
 11
150.9535772268453
 21
160.9414143183377
 31
0.0
  0
LINE
  5
27B
330
E3
100
AcDbEntity
  8
0
  6
Continuous
100
AcDbLine
 10
150.9535772268453
 20
160.9414143183377
 30
0.0
 11
150.9163990226648
 21
160.9424136168894
 31
0.0
  0
LINE
  5
27C
330
E3
100
AcDbEntity
  8
0
  6
Continuous
100
AcDbLine
 10
150.9163990226648
 20
160.9424136168894
 30
0.0
 11
150.8813698476276
 21
160.943036835341
 31
0.0
  0
LINE
  5
27D
330
E3
100
AcDbEntity
  8
0
  6
Continuous
100
AcDbLine
 10
150.8813698476276
 20
160.943036835341
 30
0.0
 11
150.848747585231
 21
160.9432302479639
 31
0.0
  0
LINE
  5
27E
330
E3
100
AcDbEntity
  8
0
  6
Continuous
100
AcDbLine
 10
150.848747585231
 20
160.9432302479639
 30
0.0
 11
150.8187757921113
 21
160.942961619321
 31
0.0
  0
LINE
  5
27F
330
E3
100
AcDbEntity
  8
0
  6
Continuous
100
AcDbLine
 10
150.8187757921113
 20
160.942961619321
 30
0.0
 11
150.7916765346133
 21
160.9421843871141
 31
0.0
  0
LINE
  5
280
330
E3
100
AcDbEntity
  8
0
  6
Continuous
100
AcDbLine
 10
150.7916765346133
 20
160.9421843871141
 30
0.0
 11
150.767646807075
 21
160.9408663159062
 31
0.0
  0
LINE
  5
281
330
E3
100
AcDbEntity
  8
0
  6
Continuous
100
AcDbLine
 10
150.767646807075
 20
160.9408663159062
 30
0.0
 11
150.746858531828
 21
160.93897517026
 31
0.0
  0
LINE
  5
282
330
E3
100
AcDbEntity
  8
0
  6
Continuous
100
AcDbLine
 10
150.746858531828
 20
160.93897517026
 30
0.0
 11
150.7294693043428
 21
160.9364858781689
 31
0.0
  0
LINE
  5
283
330
E3
100
AcDbEntity
  8
0
  6
Continuous
100
AcDbLine
 10
150.7294693043428
 20
160.9364858781689
 30
0.0
 11
150.7156044846528
 21
160.9333733676262
 31
0.0
  0
LINE
  5
284
330
E3
100
AcDbEntity
  8
0
  6
Continuous
100
AcDbLine
 10
150.7156044846528
 20
160.9333733676262
 30
0.0
 11
150.705357197354
 21
160.9296268934862
 31
0.0
  0
LINE
  5
285
330
E3
100
AcDbEntity
  8
0
  6
Continuous
100
AcDbLine
 10
150.705357197354
 20
160.9296268934862
 30
0.0
 11
150.6987989419313
 21
160.9252256153734
 31
0.0
  0
LINE
  5
286
330
E3
100
AcDbEntity
  8
0
  6
Continuous
100
AcDbLine
 10
150.6987989419313
 20
160.9252256153734
 30
0.0
 11
150.6959751012722
 21
160.9201677493364
 31
0.0
  0
LINE
  5
287
330
E3
100
AcDbEntity
  8
0
  6
Continuous
100
AcDbLine
 10
151.64657942535
 20
160.5525422869852
 30
0.0
 11
151.6437555846909
 21
160.5474844209483
 31
0.0
  0
LINE
  5
288
330
E3
100
AcDbEntity
  8
0
  6
Continuous
100
AcDbLine
 10
151.6437555846909
 20
160.5474844209483
 30
0.0
 11
151.637198513544
 21
160.5430848241715
 31
0.0
  0
LINE
  5
289
330
E3
100
AcDbEntity
  8
0
  6
Continuous
100
AcDbLine
 10
151.637198513544
 20
160.5430848241715
 30
0.0
 11
151.6269504369178
 21
160.539334547326
 31
0.0
  0
LINE
  5
28A
330
E3
100
AcDbEntity
  8
0
  6
Continuous
100
AcDbLine
 10
151.6269504369178
 20
160.539334547326
 30
0.0
 11
151.6130820355125
 21
160.5362256184985
 31
0.0
  0
LINE
  5
28B
330
E3
100
AcDbEntity
  8
0
  6
Continuous
100
AcDbLine
 10
151.6130820355125
 20
160.5362256184985
 30
0.0
 11
151.5956928080273
 21
160.5337363264074
 31
0.0
  0
LINE
  5
28C
330
E3
100
AcDbEntity
  8
0
  6
Continuous
100
AcDbLine
 10
151.5956928080273
 20
160.5337363264074
 30
0.0
 11
151.5749081144955
 21
160.5318451807613
 31
0.0
  0
LINE
  5
28D
330
E3
100
AcDbEntity
  8
0
  6
Continuous
100
AcDbLine
 10
151.5749081144955
 20
160.5318451807613
 30
0.0
 11
151.5508783869572
 21
160.5305271095533
 31
0.0
  0
LINE
  5
28E
330
E3
100
AcDbEntity
  8
0
  6
Continuous
100
AcDbLine
 10
151.5508783869572
 20
160.5305271095533
 30
0.0
 11
151.5237791294592
 21
160.5297498773464
 31
0.0
  0
LINE
  5
28F
330
E3
100
AcDbEntity
  8
0
  6
Continuous
100
AcDbLine
 10
151.5237791294592
 20
160.5297498773464
 30
0.0
 11
151.4938073363395
 21
160.5294776669883
 31
0.0
  0
LINE
  5
290
330
E3
100
AcDbEntity
  8
0
  6
Continuous
100
AcDbLine
 10
151.4938073363395
 20
160.5294776669883
 30
0.0
 11
151.4611850739429
 21
160.5296746613265
 31
0.0
  0
LINE
  5
291
330
E3
100
AcDbEntity
  8
0
  6
Continuous
100
AcDbLine
 10
151.4611850739429
 20
160.5296746613265
 30
0.0
 11
151.4261558989058
 21
160.5302942980628
 31
0.0
  0
LINE
  5
292
330
E3
100
AcDbEntity
  8
0
  6
Continuous
100
AcDbLine
 10
151.4261558989058
 20
160.5302942980628
 30
0.0
 11
151.3889776947253
 21
160.5312935966144
 31
0.0
  0
LINE
  5
293
330
E3
100
AcDbEntity
  8
0
  6
Continuous
100
AcDbLine
 10
151.3889776947253
 20
160.5312935966144
 30
0.0
 11
151.3499226717595
 21
160.5326259946833
 31
0.0
  0
LINE
  5
294
330
E3
100
AcDbEntity
  8
0
  6
Continuous
100
AcDbLine
 10
151.3499226717595
 20
160.5326259946833
 30
0.0
 11
151.3092845306581
 21
160.5342341848257
 31
0.0
  0
LINE
  5
295
330
E3
100
AcDbEntity
  8
0
  6
Continuous
100
AcDbLine
 10
151.3092845306581
 20
160.5342341848257
 30
0.0
 11
151.2673677172164
 21
160.5360716047432
 31
0.0
  0
LINE
  5
296
330
E3
100
AcDbEntity
  8
0
  6
Continuous
100
AcDbLine
 10
151.2673677172164
 20
160.5360716047432
 30
0.0
 11
151.224480258945
 21
160.538077365277
 31
0.0
  0
LINE
  5
297
330
E3
100
AcDbEntity
  8
0
  6
Continuous
100
AcDbLine
 10
151.224480258945
 20
160.538077365277
 30
0.0
 11
151.1809409285
 21
160.5401977406985
 31
0.0
  0
LINE
  5
298
330
E3
100
AcDbEntity
  8
0
  6
Continuous
100
AcDbLine
 10
151.1809409285
 20
160.5401977406985
 30
0.0
 11
151.1370720802531
 21
160.5423790052791
 31
0.0
  0
LINE
  5
299
330
E3
100
AcDbEntity
  8
0
  6
Continuous
100
AcDbLine
 10
151.1370720802531
 20
160.5423790052791
 30
0.0
 11
151.0932068137214
 21
160.5445566881444
 31
0.0
  0
LINE
  5
29A
330
E3
100
AcDbEntity
  8
0
  6
Continuous
100
AcDbLine
 10
151.0932068137214
 20
160.5445566881444
 30
0.0
 11
151.0496674832764
 21
160.5466770635658
 31
0.0
  0
LINE
  5
29B
330
E3
100
AcDbEntity
  8
0
  6
Continuous
100
AcDbLine
 10
151.0496674832764
 20
160.5466770635658
 30
0.0
 11
151.006780025005
 21
160.5486864058149
 31
0.0
  0
LINE
  5
29C
330
E3
100
AcDbEntity
  8
0
  6
Continuous
100
AcDbLine
 10
151.006780025005
 20
160.5486864058149
 30
0.0
 11
150.9648596298481
 21
160.5505202440172
 31
0.0
  0
LINE
  5
29D
330
E3
100
AcDbEntity
  8
0
  6
Continuous
100
AcDbLine
 10
150.9648596298481
 20
160.5505202440172
 30
0.0
 11
150.9242250704619
 21
160.5521284341596
 31
0.0
  0
LINE
  5
29E
330
E3
100
AcDbEntity
  8
0
  6
Continuous
100
AcDbLine
 10
150.9242250704619
 20
160.5521284341596
 30
0.0
 11
150.8851700474961
 21
160.5534608322285
 31
0.0
  0
LINE
  5
29F
330
E3
100
AcDbEntity
  8
0
  6
Continuous
100
AcDbLine
 10
150.8851700474961
 20
160.5534608322285
 30
0.0
 11
150.8479918433156
 21
160.5544601307801
 31
0.0
  0
LINE
  5
2A0
330
E3
100
AcDbEntity
  8
0
  6
Continuous
100
AcDbLine
 10
150.8479918433156
 20
160.5544601307801
 30
0.0
 11
150.8129626682785
 21
160.5550797675165
 31
0.0
  0
LINE
  5
2A1
330
E3
100
AcDbEntity
  8
0
  6
Continuous
100
AcDbLine
 10
150.8129626682785
 20
160.5550797675165
 30
0.0
 11
150.7803404058819
 21
160.5552767618546
 31
0.0
  0
LINE
  5
2A2
330
E3
100
AcDbEntity
  8
0
  6
Continuous
100
AcDbLine
 10
150.7803404058819
 20
160.5552767618546
 30
0.0
 11
150.7503686127622
 21
160.5550045514965
 31
0.0
  0
LINE
  5
2A3
330
E3
100
AcDbEntity
  8
0
  6
Continuous
100
AcDbLine
 10
150.7503686127622
 20
160.5550045514965
 30
0.0
 11
150.7232693552641
 21
160.5542273192896
 31
0.0
  0
LINE
  5
2A4
330
E3
100
AcDbEntity
  8
0
  6
Continuous
100
AcDbLine
 10
150.7232693552641
 20
160.5542273192896
 30
0.0
 11
150.6992396277259
 21
160.5529092480816
 31
0.0
  0
LINE
  5
2A5
330
E3
100
AcDbEntity
  8
0
  6
Continuous
100
AcDbLine
 10
150.6992396277259
 20
160.5529092480816
 30
0.0
 11
150.6784513524789
 21
160.5510181024355
 31
0.0
  0
LINE
  5
2A6
330
E3
100
AcDbEntity
  8
0
  6
Continuous
100
AcDbLine
 10
150.6784513524789
 20
160.5510181024355
 30
0.0
 11
150.6610657067089
 21
160.5485288103444
 31
0.0
  0
LINE
  5
2A7
330
E3
100
AcDbEntity
  8
0
  6
Continuous
100
AcDbLine
 10
150.6610657067089
 20
160.5485288103444
 30
0.0
 11
150.6471973053036
 21
160.5454198815169
 31
0.0
  0
LINE
  5
2A8
330
E3
100
AcDbEntity
  8
0
  6
Continuous
100
AcDbLine
 10
150.6471973053036
 20
160.5454198815169
 30
0.0
 11
150.6369500180049
 21
160.5416698256618
 31
0.0
  0
LINE
  5
2A9
330
E3
100
AcDbEntity
  8
0
  6
Continuous
100
AcDbLine
 10
150.6369500180049
 20
160.5416698256618
 30
0.0
 11
150.6303920840625
 21
160.5372710460049
 31
0.0
  0
LINE
  5
2AA
330
E3
100
AcDbEntity
  8
0
  6
Continuous
100
AcDbLine
 10
150.6303920840625
 20
160.5372710460049
 30
0.0
 11
150.6275682434034
 21
160.532213179968
 31
0.0
  0
LINE
  5
2AB
330
E3
100
AcDbEntity
  8
0
  6
Continuous
100
AcDbLine
 10
151.5781725674812
 20
160.1645877176168
 30
0.0
 11
151.5753487268221
 21
160.1595298515798
 31
0.0
  0
LINE
  5
2AC
330
E3
100
AcDbEntity
  8
0
  6
Continuous
100
AcDbLine
 10
151.5753487268221
 20
160.1595298515798
 30
0.0
 11
151.5687916556752
 21
160.1551302548031
 31
0.0
  0
LINE
  5
2AD
330
E3
100
AcDbEntity
  8
0
  6
Continuous
100
AcDbLine
 10
151.5687916556752
 20
160.1551302548031
 30
0.0
 11
151.5585432575686
 21
160.1513810612167
 31
0.0
  0
LINE
  5
2AE
330
E3
100
AcDbEntity
  8
0
  6
Continuous
100
AcDbLine
 10
151.5585432575686
 20
160.1513810612167
 30
0.0
 11
151.5446748561633
 21
160.1482721323893
 31
0.0
  0
LINE
  5
2AF
330
E3
100
AcDbEntity
  8
0
  6
Continuous
100
AcDbLine
 10
151.5446748561633
 20
160.1482721323893
 30
0.0
 11
151.5272892103934
 21
160.1457828402982
 31
0.0
  0
LINE
  5
2B0
330
E3
100
AcDbEntity
  8
0
  6
Continuous
100
AcDbLine
 10
151.5272892103934
 20
160.1457828402982
 30
0.0
 11
151.5065009351464
 21
160.143891694652
 31
0.0
  0
LINE
  5
2B1
330
E3
100
AcDbEntity
  8
0
  6
Continuous
100
AcDbLine
 10
151.5065009351464
 20
160.143891694652
 30
0.0
 11
151.4824712076081
 21
160.1425736234441
 31
0.0
  0
LINE
  5
2B2
330
E3
100
AcDbEntity
  8
0
  6
Continuous
100
AcDbLine
 10
151.4824712076081
 20
160.1425736234441
 30
0.0
 11
151.45537195011
 21
160.1417963912372
 31
0.0
  0
LINE
  5
2B3
330
E3
100
AcDbEntity
  8
0
  6
Continuous
100
AcDbLine
 10
151.45537195011
 20
160.1417963912372
 30
0.0
 11
151.4254001569903
 21
160.141524180879
 31
0.0
  0
LINE
  5
2B4
330
E3
100
AcDbEntity
  8
0
  6
Continuous
100
AcDbLine
 10
151.4254001569903
 20
160.141524180879
 30
0.0
 11
151.3927778945938
 21
160.1417211752172
 31
0.0
  0
LINE
  5
2B5
330
E3
100
AcDbEntity
  8
0
  6
Continuous
100
AcDbLine
 10
151.3927778945938
 20
160.1417211752172
 30
0.0
 11
151.3577487195566
 21
160.1423408119535
 31
0.0
  0
LINE
  5
2B6
330
E3
100
AcDbEntity
  8
0
  6
Continuous
100
AcDbLine
 10
151.3577487195566
 20
160.1423408119535
 30
0.0
 11
151.3205705153761
 21
160.1433401105052
 31
0.0
  0
LINE
  5
2B7
330
E3
100
AcDbEntity
  8
0
  6
Continuous
100
AcDbLine
 10
151.3205705153761
 20
160.1433401105052
 30
0.0
 11
151.2815154924103
 21
160.1446725085741
 31
0.0
  0
LINE
  5
2B8
330
E3
100
AcDbEntity
  8
0
  6
Continuous
100
AcDbLine
 10
151.2815154924103
 20
160.1446725085741
 30
0.0
 11
151.2408809330242
 21
160.1462806987164
 31
0.0
  0
LINE
  5
2B9
330
E3
100
AcDbEntity
  8
0
  6
Continuous
100
AcDbLine
 10
151.2408809330242
 20
160.1462806987164
 30
0.0
 11
151.1989605378673
 21
160.1481145369187
 31
0.0
  0
LINE
  5
2BA
330
E3
100
AcDbEntity
  8
0
  6
Continuous
100
AcDbLine
 10
151.1989605378673
 20
160.1481145369187
 30
0.0
 11
151.1560730795958
 21
160.1501238791678
 31
0.0
  0
LINE
  5
2BB
330
E3
100
AcDbEntity
  8
0
  6
Continuous
100
AcDbLine
 10
151.1560730795958
 20
160.1501238791678
 30
0.0
 11
151.1125337491509
 21
160.1522442545893
 31
0.0
  0
LINE
  5
2BC
330
E3
100
AcDbEntity
  8
0
  6
Continuous
100
AcDbLine
 10
151.1125337491509
 20
160.1522442545893
 30
0.0
 11
151.0686684826192
 21
160.1544219374545
 31
0.0
  0
LINE
  5
2BD
330
E3
100
AcDbEntity
  8
0
  6
Continuous
100
AcDbLine
 10
151.0686684826192
 20
160.1544219374545
 30
0.0
 11
151.0247996343723
 21
160.1566032020351
 31
0.0
  0
LINE
  5
2BE
330
E3
100
AcDbEntity
  8
0
  6
Continuous
100
AcDbLine
 10
151.0247996343723
 20
160.1566032020351
 30
0.0
 11
150.9812603039273
 21
160.1587235774566
 31
0.0
  0
LINE
  5
2BF
330
E3
100
AcDbEntity
  8
0
  6
Continuous
100
AcDbLine
 10
150.9812603039273
 20
160.1587235774566
 30
0.0
 11
150.9383728456559
 21
160.1607293379904
 31
0.0
  0
LINE
  5
2C0
330
E3
100
AcDbEntity
  8
0
  6
Continuous
100
AcDbLine
 10
150.9383728456559
 20
160.1607293379904
 30
0.0
 11
150.8964560322142
 21
160.162566757908
 31
0.0
  0
LINE
  5
2C1
330
E3
100
AcDbEntity
  8
0
  6
Continuous
100
AcDbLine
 10
150.8964560322142
 20
160.162566757908
 30
0.0
 11
150.8558178911128
 21
160.1641749480503
 31
0.0
  0
LINE
  5
2C2
330
E3
100
AcDbEntity
  8
0
  6
Continuous
100
AcDbLine
 10
150.8558178911128
 20
160.1641749480503
 30
0.0
 11
150.816762868147
 21
160.1655073461192
 31
0.0
  0
LINE
  5
2C3
330
E3
100
AcDbEntity
  8
0
  6
Continuous
100
AcDbLine
 10
150.816762868147
 20
160.1655073461192
 30
0.0
 11
150.7795846639665
 21
160.1665066446708
 31
0.0
  0
LINE
  5
2C4
330
E3
100
AcDbEntity
  8
0
  6
Continuous
100
AcDbLine
 10
150.7795846639665
 20
160.1665066446708
 30
0.0
 11
150.7445554889293
 21
160.1671262814072
 31
0.0
  0
LINE
  5
2C5
330
E3
100
AcDbEntity
  8
0
  6
Continuous
100
AcDbLine
 10
150.7445554889293
 20
160.1671262814072
 30
0.0
 11
150.7119332265328
 21
160.1673232757453
 31
0.0
  0
LINE
  5
2C6
330
E3
100
AcDbEntity
  8
0
  6
Continuous
100
AcDbLine
 10
150.7119332265328
 20
160.1673232757453
 30
0.0
 11
150.6819614334131
 21
160.1670510653872
 31
0.0
  0
LINE
  5
2C7
330
E3
100
AcDbEntity
  8
0
  6
Continuous
100
AcDbLine
 10
150.6819614334131
 20
160.1670510653872
 30
0.0
 11
150.654862175915
 21
160.1662738331803
 31
0.0
  0
LINE
  5
2C8
330
E3
100
AcDbEntity
  8
0
  6
Continuous
100
AcDbLine
 10
150.654862175915
 20
160.1662738331803
 30
0.0
 11
150.6308324483768
 21
160.1649557619724
 31
0.0
  0
LINE
  5
2C9
330
E3
100
AcDbEntity
  8
0
  6
Continuous
100
AcDbLine
 10
150.6308324483768
 20
160.1649557619724
 30
0.0
 11
150.610047754845
 21
160.1630646163262
 31
0.0
  0
LINE
  5
2CA
330
E3
100
AcDbEntity
  8
0
  6
Continuous
100
AcDbLine
 10
150.610047754845
 20
160.1630646163262
 30
0.0
 11
150.5926585273598
 21
160.1605753242351
 31
0.0
  0
LINE
  5
2CB
330
E3
100
AcDbEntity
  8
0
  6
Continuous
100
AcDbLine
 10
150.5926585273598
 20
160.1605753242351
 30
0.0
 11
150.5787901259545
 21
160.1574663954077
 31
0.0
  0
LINE
  5
2CC
330
E3
100
AcDbEntity
  8
0
  6
Continuous
100
AcDbLine
 10
150.5787901259545
 20
160.1574663954077
 30
0.0
 11
150.5685428386558
 21
160.1537163395525
 31
0.0
  0
LINE
  5
2CD
330
E3
100
AcDbEntity
  8
0
  6
Continuous
100
AcDbLine
 10
150.5685428386558
 20
160.1537163395525
 30
0.0
 11
150.5619852261937
 21
160.1493164766365
 31
0.0
  0
LINE
  5
2CE
330
E3
100
AcDbEntity
  8
0
  6
Continuous
100
AcDbLine
 10
150.5619852261937
 20
160.1493164766365
 30
0.0
 11
150.5591613855346
 21
160.1442586105996
 31
0.0
  0
LINE
  5
2CF
330
E3
100
AcDbEntity
  8
0
  6
Continuous
100
AcDbLine
 10
151.5097657096124
 20
159.7766331482484
 30
0.0
 11
151.5069418689534
 21
159.7715752822114
 31
0.0
  0
LINE
  5
2D0
330
E3
100
AcDbEntity
  8
0
  6
Continuous
100
AcDbLine
 10
151.5069418689534
 20
159.7715752822114
 30
0.0
 11
151.5003847978064
 21
159.7671756854346
 31
0.0
  0
LINE
  5
2D1
330
E3
100
AcDbEntity
  8
0
  6
Continuous
100
AcDbLine
 10
151.5003847978064
 20
159.7671756854346
 30
0.0
 11
151.4901360782195
 21
159.7634275751074
 31
0.0
  0
LINE
  5
2D2
330
E3
100
AcDbEntity
  8
0
  6
Continuous
100
AcDbLine
 10
151.4901360782195
 20
159.7634275751074
 30
0.0
 11
151.4762712585295
 21
159.7603150645647
 31
0.0
  0
LINE
  5
2D3
330
E3
100
AcDbEntity
  8
0
  6
Continuous
100
AcDbLine
 10
151.4762712585295
 20
159.7603150645647
 30
0.0
 11
151.4588820310442
 21
159.7578257724736
 31
0.0
  0
LINE
  5
2D4
330
E3
100
AcDbEntity
  8
0
  6
Continuous
100
AcDbLine
 10
151.4588820310442
 20
159.7578257724736
 30
0.0
 11
151.4380937557972
 21
159.7559346268275
 31
0.0
  0
LINE
  5
2D5
330
E3
100
AcDbEntity
  8
0
  6
Continuous
100
AcDbLine
 10
151.4380937557972
 20
159.7559346268275
 30
0.0
 11
151.414064028259
 21
159.7546165556195
 31
0.0
  0
LINE
  5
2D6
330
E3
100
AcDbEntity
  8
0
  6
Continuous
100
AcDbLine
 10
151.414064028259
 20
159.7546165556195
 30
0.0
 11
151.3869647707609
 21
159.7538393234127
 31
0.0
  0
LINE
  5
2D7
330
E3
100
AcDbEntity
  8
0
  6
Continuous
100
AcDbLine
 10
151.3869647707609
 20
159.7538393234127
 30
0.0
 11
151.3569929776412
 21
159.7535706947697
 31
0.0
  0
LINE
  5
2D8
330
E3
100
AcDbEntity
  8
0
  6
Continuous
100
AcDbLine
 10
151.3569929776412
 20
159.7535706947697
 30
0.0
 11
151.3243707152446
 21
159.7537641073926
 31
0.0
  0
LINE
  5
2D9
330
E3
100
AcDbEntity
  8
0
  6
Continuous
100
AcDbLine
 10
151.3243707152446
 20
159.7537641073926
 30
0.0
 11
151.2893415402075
 21
159.7543873258442
 31
0.0
  0
LINE
  5
2DA
330
E3
100
AcDbEntity
  8
0
  6
Continuous
100
AcDbLine
 10
151.2893415402075
 20
159.7543873258442
 30
0.0
 11
151.252163336027
 21
159.7553866243959
 31
0.0
  0
LINE
  5
2DB
330
E3
100
AcDbEntity
  8
0
  6
Continuous
100
AcDbLine
 10
151.252163336027
 20
159.7553866243959
 30
0.0
 11
151.2131083130612
 21
159.7567154407495
 31
0.0
  0
LINE
  5
2DC
330
E3
100
AcDbEntity
  8
0
  6
Continuous
100
AcDbLine
 10
151.2131083130612
 20
159.7567154407495
 30
0.0
 11
151.1724737536751
 21
159.7583272126071
 31
0.0
  0
LINE
  5
2DD
330
E3
100
AcDbEntity
  8
0
  6
Continuous
100
AcDbLine
 10
151.1724737536751
 20
159.7583272126071
 30
0.0
 11
151.1305533585182
 21
159.7601610508095
 31
0.0
  0
LINE
  5
2DE
330
E3
100
AcDbEntity
  8
0
  6
Continuous
100
AcDbLine
 10
151.1305533585182
 20
159.7601610508095
 30
0.0
 11
151.0876659002467
 21
159.7621668113433
 31
0.0
  0
LINE
  5
2DF
330
E3
100
AcDbEntity
  8
0
  6
Continuous
100
AcDbLine
 10
151.0876659002467
 20
159.7621668113433
 30
0.0
 11
151.0441265698018
 21
159.76429076848
 31
0.0
  0
LINE
  5
2E0
330
E3
100
AcDbEntity
  8
0
  6
Continuous
100
AcDbLine
 10
151.0441265698018
 20
159.76429076848
 30
0.0
 11
151.00026130327
 21
159.7664684513453
 31
0.0
  0
LINE
  5
2E1
330
E3
100
AcDbEntity
  8
0
  6
Continuous
100
AcDbLine
 10
151.00026130327
 20
159.7664684513453
 30
0.0
 11
150.9563924550231
 21
159.7686461342106
 31
0.0
  0
LINE
  5
2E2
330
E3
100
AcDbEntity
  8
0
  6
Continuous
100
AcDbLine
 10
150.9563924550231
 20
159.7686461342106
 30
0.0
 11
150.9128531245782
 21
159.7707700913473
 31
0.0
  0
LINE
  5
2E3
330
E3
100
AcDbEntity
  8
0
  6
Continuous
100
AcDbLine
 10
150.9128531245782
 20
159.7707700913473
 30
0.0
 11
150.8699656663067
 21
159.7727758518811
 31
0.0
  0
LINE
  5
2E4
330
E3
100
AcDbEntity
  8
0
  6
Continuous
100
AcDbLine
 10
150.8699656663067
 20
159.7727758518811
 30
0.0
 11
150.828048852865
 21
159.7746096900835
 31
0.0
  0
LINE
  5
2E5
330
E3
100
AcDbEntity
  8
0
  6
Continuous
100
AcDbLine
 10
150.828048852865
 20
159.7746096900835
 30
0.0
 11
150.7874107117637
 21
159.776221461941
 31
0.0
  0
LINE
  5
2E6
330
E3
100
AcDbEntity
  8
0
  6
Continuous
100
AcDbLine
 10
150.7874107117637
 20
159.776221461941
 30
0.0
 11
150.7483592705132
 21
159.7775502782947
 31
0.0
  0
LINE
  5
2E7
330
E3
100
AcDbEntity
  8
0
  6
Continuous
100
AcDbLine
 10
150.7483592705132
 20
159.7775502782947
 30
0.0
 11
150.7111774846174
 21
159.7785495768463
 31
0.0
  0
LINE
  5
2E8
330
E3
100
AcDbEntity
  8
0
  6
Continuous
100
AcDbLine
 10
150.7111774846174
 20
159.7785495768463
 30
0.0
 11
150.6761483095802
 21
159.7791727952979
 31
0.0
  0
LINE
  5
2E9
330
E3
100
AcDbEntity
  8
0
  6
Continuous
100
AcDbLine
 10
150.6761483095802
 20
159.7791727952979
 30
0.0
 11
150.6435260471837
 21
159.7793697896361
 31
0.0
  0
LINE
  5
2EA
330
E3
100
AcDbEntity
  8
0
  6
Continuous
100
AcDbLine
 10
150.6435260471837
 20
159.7793697896361
 30
0.0
 11
150.613554254064
 21
159.7790975792779
 31
0.0
  0
LINE
  5
2EB
330
E3
100
AcDbEntity
  8
0
  6
Continuous
100
AcDbLine
 10
150.613554254064
 20
159.7790975792779
 30
0.0
 11
150.5864549965659
 21
159.778320347071
 31
0.0
  0
LINE
  5
2EC
330
E3
100
AcDbEntity
  8
0
  6
Continuous
100
AcDbLine
 10
150.5864549965659
 20
159.778320347071
 30
0.0
 11
150.5624252690276
 21
159.7770022758631
 31
0.0
  0
LINE
  5
2ED
330
E3
100
AcDbEntity
  8
0
  6
Continuous
100
AcDbLine
 10
150.5624252690276
 20
159.7770022758631
 30
0.0
 11
150.5416405754958
 21
159.7751111302169
 31
0.0
  0
LINE
  5
2EE
330
E3
100
AcDbEntity
  8
0
  6
Continuous
100
AcDbLine
 10
150.5416405754958
 20
159.7751111302169
 30
0.0
 11
150.5242513480106
 21
159.7726218381258
 31
0.0
  0
LINE
  5
2EF
330
E3
100
AcDbEntity
  8
0
  6
Continuous
100
AcDbLine
 10
150.5242513480106
 20
159.7726218381258
 30
0.0
 11
150.5103829466053
 21
159.7695093275832
 31
0.0
  0
LINE
  5
2F0
330
E3
100
AcDbEntity
  8
0
  6
Continuous
100
AcDbLine
 10
150.5103829466053
 20
159.7695093275832
 30
0.0
 11
150.5001356593066
 21
159.7657628534432
 31
0.0
  0
LINE
  5
2F1
330
E3
100
AcDbEntity
  8
0
  6
Continuous
100
AcDbLine
 10
150.5001356593066
 20
159.7657628534432
 30
0.0
 11
150.4935783683249
 21
159.7613619072681
 31
0.0
  0
LINE
  5
2F2
330
E3
100
AcDbEntity
  8
0
  6
Continuous
100
AcDbLine
 10
150.4935783683249
 20
159.7613619072681
 30
0.0
 11
150.4907545276658
 21
159.7563040412311
 31
0.0
  0
LINE
  5
2F3
330
E3
100
AcDbEntity
  8
0
  6
Continuous
100
AcDbLine
 10
151.4413588517436
 20
159.38867857888
 30
0.0
 11
151.4385350110846
 21
159.383620712843
 31
0.0
  0
LINE
  5
2F4
330
E3
100
AcDbEntity
  8
0
  6
Continuous
100
AcDbLine
 10
151.4385350110846
 20
159.383620712843
 30
0.0
 11
151.4319779399376
 21
159.3792211160662
 31
0.0
  0
LINE
  5
2F5
330
E3
100
AcDbEntity
  8
0
  6
Continuous
100
AcDbLine
 10
151.4319779399376
 20
159.3792211160662
 30
0.0
 11
151.4217288988704
 21
159.3754705072829
 31
0.0
  0
LINE
  5
2F6
330
E3
100
AcDbEntity
  8
0
  6
Continuous
100
AcDbLine
 10
151.4217288988704
 20
159.3754705072829
 30
0.0
 11
151.4078640791803
 21
159.3723615784554
 31
0.0
  0
LINE
  5
2F7
330
E3
100
AcDbEntity
  8
0
  6
Continuous
100
AcDbLine
 10
151.4078640791803
 20
159.3723615784554
 30
0.0
 11
151.3904748516951
 21
159.3698722863644
 31
0.0
  0
LINE
  5
2F8
330
E3
100
AcDbEntity
  8
0
  6
Continuous
100
AcDbLine
 10
151.3904748516951
 20
159.3698722863644
 30
0.0
 11
151.3696901581634
 21
159.3679811407182
 31
0.0
  0
LINE
  5
2F9
330
E3
100
AcDbEntity
  8
0
  6
Continuous
100
AcDbLine
 10
151.3696901581634
 20
159.3679811407182
 30
0.0
 11
151.3456568489098
 21
159.3666630695103
 31
0.0
  0
LINE
  5
2FA
330
E3
100
AcDbEntity
  8
0
  6
Continuous
100
AcDbLine
 10
151.3456568489098
 20
159.3666630695103
 30
0.0
 11
151.3185575914118
 21
159.3658858373034
 31
0.0
  0
LINE
  5
2FB
330
E3
100
AcDbEntity
  8
0
  6
Continuous
100
AcDbLine
 10
151.3185575914118
 20
159.3658858373034
 30
0.0
 11
151.2885857982921
 21
159.3656136269452
 31
0.0
  0
LINE
  5
2FC
330
E3
100
AcDbEntity
  8
0
  6
Continuous
100
AcDbLine
 10
151.2885857982921
 20
159.3656136269452
 30
0.0
 11
151.2559635358955
 21
159.3658106212834
 31
0.0
  0
LINE
  5
2FD
330
E3
100
AcDbEntity
  8
0
  6
Continuous
100
AcDbLine
 10
151.2559635358955
 20
159.3658106212834
 30
0.0
 11
151.2209343608584
 21
159.3664302580197
 31
0.0
  0
LINE
  5
2FE
330
E3
100
AcDbEntity
  8
0
  6
Continuous
100
AcDbLine
 10
151.2209343608584
 20
159.3664302580197
 30
0.0
 11
151.1837561566778
 21
159.3674331382866
 31
0.0
  0
LINE
  5
2FF
330
E3
100
AcDbEntity
  8
0
  6
Continuous
100
AcDbLine
 10
151.1837561566778
 20
159.3674331382866
 30
0.0
 11
151.1447011337121
 21
159.3687619546403
 31
0.0
  0
LINE
  5
300
330
E3
100
AcDbEntity
  8
0
  6
Continuous
100
AcDbLine
 10
151.1447011337121
 20
159.3687619546403
 30
0.0
 11
151.104066574326
 21
159.3703701447826
 31
0.0
  0
LINE
  5
301
330
E3
100
AcDbEntity
  8
0
  6
Continuous
100
AcDbLine
 10
151.104066574326
 20
159.3703701447826
 30
0.0
 11
151.062146179169
 21
159.3722075647002
 31
0.0
  0
LINE
  5
302
330
E3
100
AcDbEntity
  8
0
  6
Continuous
100
AcDbLine
 10
151.062146179169
 20
159.3722075647002
 30
0.0
 11
151.0192587208975
 21
159.374213325234
 31
0.0
  0
LINE
  5
303
330
E3
100
AcDbEntity
  8
0
  6
Continuous
100
AcDbLine
 10
151.0192587208975
 20
159.374213325234
 30
0.0
 11
150.9757193904526
 21
159.3763337006555
 31
0.0
  0
LINE
  5
304
330
E3
100
AcDbEntity
  8
0
  6
Continuous
100
AcDbLine
 10
150.9757193904526
 20
159.3763337006555
 30
0.0
 11
150.9318541239209
 21
159.378514965236
 31
0.0
  0
LINE
  5
305
330
E3
100
AcDbEntity
  8
0
  6
Continuous
100
AcDbLine
 10
150.9318541239209
 20
159.378514965236
 30
0.0
 11
150.8879888573892
 21
159.3806926481013
 31
0.0
  0
LINE
  5
306
330
E3
100
AcDbEntity
  8
0
  6
Continuous
100
AcDbLine
 10
150.8879888573892
 20
159.3806926481013
 30
0.0
 11
150.8444495269443
 21
159.3828130235228
 31
0.0
  0
LINE
  5
307
330
E3
100
AcDbEntity
  8
0
  6
Continuous
100
AcDbLine
 10
150.8444495269443
 20
159.3828130235228
 30
0.0
 11
150.8015584869576
 21
159.3848223657718
 31
0.0
  0
LINE
  5
308
330
E3
100
AcDbEntity
  8
0
  6
Continuous
100
AcDbLine
 10
150.8015584869576
 20
159.3848223657718
 30
0.0
 11
150.7596416735159
 21
159.3866562039742
 31
0.0
  0
LINE
  5
309
330
E3
100
AcDbEntity
  8
0
  6
Continuous
100
AcDbLine
 10
150.7596416735159
 20
159.3866562039742
 30
0.0
 11
150.7190035324145
 21
159.3882643941165
 31
0.0
  0
LINE
  5
30A
330
E3
100
AcDbEntity
  8
0
  6
Continuous
100
AcDbLine
 10
150.7190035324145
 20
159.3882643941165
 30
0.0
 11
150.679952091164
 21
159.3895967921854
 31
0.0
  0
LINE
  5
30B
330
E3
100
AcDbEntity
  8
0
  6
Continuous
100
AcDbLine
 10
150.679952091164
 20
159.3895967921854
 30
0.0
 11
150.6427703052682
 21
159.3905960907371
 31
0.0
  0
LINE
  5
30C
330
E3
100
AcDbEntity
  8
0
  6
Continuous
100
AcDbLine
 10
150.6427703052682
 20
159.3905960907371
 30
0.0
 11
150.6077411302311
 21
159.3912157274734
 31
0.0
  0
LINE
  5
30D
330
E3
100
AcDbEntity
  8
0
  6
Continuous
100
AcDbLine
 10
150.6077411302311
 20
159.3912157274734
 30
0.0
 11
150.5751188678345
 21
159.3914127218116
 31
0.0
  0
LINE
  5
30E
330
E3
100
AcDbEntity
  8
0
  6
Continuous
100
AcDbLine
 10
150.5751188678345
 20
159.3914127218116
 30
0.0
 11
150.54515065643
 21
159.3911440931686
 31
0.0
  0
LINE
  5
30F
330
E3
100
AcDbEntity
  8
0
  6
Continuous
100
AcDbLine
 10
150.54515065643
 20
159.3911440931686
 30
0.0
 11
150.5180478172168
 21
159.3903668609618
 31
0.0
  0
LINE
  5
310
330
E3
100
AcDbEntity
  8
0
  6
Continuous
100
AcDbLine
 10
150.5180478172168
 20
159.3903668609618
 30
0.0
 11
150.4940180896785
 21
159.3890452080386
 31
0.0
  0
LINE
  5
311
330
E3
100
AcDbEntity
  8
0
  6
Continuous
100
AcDbLine
 10
150.4940180896785
 20
159.3890452080386
 30
0.0
 11
150.4732333961467
 21
159.3871576441076
 31
0.0
  0
LINE
  5
312
330
E3
100
AcDbEntity
  8
0
  6
Continuous
100
AcDbLine
 10
150.4732333961467
 20
159.3871576441076
 30
0.0
 11
150.4558441686615
 21
159.3846647703013
 31
0.0
  0
LINE
  5
313
330
E3
100
AcDbEntity
  8
0
  6
Continuous
100
AcDbLine
 10
150.4558441686615
 20
159.3846647703013
 30
0.0
 11
150.4419757672562
 21
159.3815558414739
 31
0.0
  0
LINE
  5
314
330
E3
100
AcDbEntity
  8
0
  6
Continuous
100
AcDbLine
 10
150.4419757672562
 20
159.3815558414739
 30
0.0
 11
150.4317284799575
 21
159.3778057856187
 31
0.0
  0
LINE
  5
315
330
E3
100
AcDbEntity
  8
0
  6
Continuous
100
AcDbLine
 10
150.4317284799575
 20
159.3778057856187
 30
0.0
 11
150.4251715104561
 21
159.3734073378996
 31
0.0
  0
LINE
  5
316
330
E3
100
AcDbEntity
  8
0
  6
Continuous
100
AcDbLine
 10
150.4251715104561
 20
159.3734073378996
 30
0.0
 11
150.422347669797
 21
159.3683494718626
 31
0.0
  0
LINE
  5
317
330
E3
100
AcDbEntity
  8
0
  6
Continuous
100
AcDbLine
 10
151.3729519938748
 20
159.0007240095115
 30
0.0
 11
151.3701281532158
 21
158.9956661434745
 31
0.0
  0
LINE
  5
318
330
E3
100
AcDbEntity
  8
0
  6
Continuous
100
AcDbLine
 10
151.3701281532158
 20
158.9956661434745
 30
0.0
 11
151.3635710820689
 21
158.9912665466978
 31
0.0
  0
LINE
  5
319
330
E3
100
AcDbEntity
  8
0
  6
Continuous
100
AcDbLine
 10
151.3635710820689
 20
158.9912665466978
 30
0.0
 11
151.3533217195213
 21
158.9875170211736
 31
0.0
  0
LINE
  5
31A
330
E3
100
AcDbEntity
  8
0
  6
Continuous
100
AcDbLine
 10
151.3533217195213
 20
158.9875170211736
 30
0.0
 11
151.3394568998312
 21
158.9844080923462
 31
0.0
  0
LINE
  5
31B
330
E3
100
AcDbEntity
  8
0
  6
Continuous
100
AcDbLine
 10
151.3394568998312
 20
158.9844080923462
 30
0.0
 11
151.322067672346
 21
158.9819188002551
 31
0.0
  0
LINE
  5
31C
330
E3
100
AcDbEntity
  8
0
  6
Continuous
100
AcDbLine
 10
151.322067672346
 20
158.9819188002551
 30
0.0
 11
151.3012829788142
 21
158.9800276546089
 31
0.0
  0
LINE
  5
31D
330
E3
100
AcDbEntity
  8
0
  6
Continuous
100
AcDbLine
 10
151.3012829788142
 20
158.9800276546089
 30
0.0
 11
151.2772496695607
 21
158.978709583401
 31
0.0
  0
LINE
  5
31E
330
E3
100
AcDbEntity
  8
0
  6
Continuous
100
AcDbLine
 10
151.2772496695607
 20
158.978709583401
 30
0.0
 11
151.2501504120627
 21
158.9779323511941
 31
0.0
  0
LINE
  5
31F
330
E3
100
AcDbEntity
  8
0
  6
Continuous
100
AcDbLine
 10
151.2501504120627
 20
158.9779323511941
 30
0.0
 11
151.2201786189429
 21
158.977660140836
 31
0.0
  0
LINE
  5
320
330
E3
100
AcDbEntity
  8
0
  6
Continuous
100
AcDbLine
 10
151.2201786189429
 20
158.977660140836
 30
0.0
 11
151.1875599382616
 21
158.9778571351741
 31
0.0
  0
LINE
  5
321
330
E3
100
AcDbEntity
  8
0
  6
Continuous
100
AcDbLine
 10
151.1875599382616
 20
158.9778571351741
 30
0.0
 11
151.1525271815092
 21
158.9784767719105
 31
0.0
  0
LINE
  5
322
330
E3
100
AcDbEntity
  8
0
  6
Continuous
100
AcDbLine
 10
151.1525271815092
 20
158.9784767719105
 30
0.0
 11
151.1153489773287
 21
158.9794760704621
 31
0.0
  0
LINE
  5
323
330
E3
100
AcDbEntity
  8
0
  6
Continuous
100
AcDbLine
 10
151.1153489773287
 20
158.9794760704621
 30
0.0
 11
151.0762975360782
 21
158.980808468531
 31
0.0
  0
LINE
  5
324
330
E3
100
AcDbEntity
  8
0
  6
Continuous
100
AcDbLine
 10
151.0762975360782
 20
158.980808468531
 30
0.0
 11
151.0356593949768
 21
158.9824166586733
 31
0.0
  0
LINE
  5
325
330
E3
100
AcDbEntity
  8
0
  6
Continuous
100
AcDbLine
 10
151.0356593949768
 20
158.9824166586733
 30
0.0
 11
150.9937389998199
 21
158.9842540785909
 31
0.0
  0
LINE
  5
326
330
E3
100
AcDbEntity
  8
0
  6
Continuous
100
AcDbLine
 10
150.9937389998199
 20
158.9842540785909
 30
0.0
 11
150.9508515415484
 21
158.9862598391247
 31
0.0
  0
LINE
  5
327
330
E3
100
AcDbEntity
  8
0
  6
Continuous
100
AcDbLine
 10
150.9508515415484
 20
158.9862598391247
 30
0.0
 11
150.9073122111035
 21
158.9883802145462
 31
0.0
  0
LINE
  5
328
330
E3
100
AcDbEntity
  8
0
  6
Continuous
100
AcDbLine
 10
150.9073122111035
 20
158.9883802145462
 30
0.0
 11
150.8634469445718
 21
158.9905578974115
 31
0.0
  0
LINE
  5
329
330
E3
100
AcDbEntity
  8
0
  6
Continuous
100
AcDbLine
 10
150.8634469445718
 20
158.9905578974115
 30
0.0
 11
150.8195816780401
 21
158.992739161992
 31
0.0
  0
LINE
  5
32A
330
E3
100
AcDbEntity
  8
0
  6
Continuous
100
AcDbLine
 10
150.8195816780401
 20
158.992739161992
 30
0.0
 11
150.7760423475952
 21
158.9948595374135
 31
0.0
  0
LINE
  5
32B
330
E3
100
AcDbEntity
  8
0
  6
Continuous
100
AcDbLine
 10
150.7760423475952
 20
158.9948595374135
 30
0.0
 11
150.7331513076084
 21
158.9968652979474
 31
0.0
  0
LINE
  5
32C
330
E3
100
AcDbEntity
  8
0
  6
Continuous
100
AcDbLine
 10
150.7331513076084
 20
158.9968652979474
 30
0.0
 11
150.6912344941668
 21
158.9987027178649
 31
0.0
  0
LINE
  5
32D
330
E3
100
AcDbEntity
  8
0
  6
Continuous
100
AcDbLine
 10
150.6912344941668
 20
158.9987027178649
 30
0.0
 11
150.6505963530654
 21
159.0003109080072
 31
0.0
  0
LINE
  5
32E
330
E3
100
AcDbEntity
  8
0
  6
Continuous
100
AcDbLine
 10
150.6505963530654
 20
159.0003109080072
 30
0.0
 11
150.6115449118149
 21
159.0016433060761
 31
0.0
  0
LINE
  5
32F
330
E3
100
AcDbEntity
  8
0
  6
Continuous
100
AcDbLine
 10
150.6115449118149
 20
159.0016433060761
 30
0.0
 11
150.5743631259191
 21
159.0026426046278
 31
0.0
  0
LINE
  5
330
330
E3
100
AcDbEntity
  8
0
  6
Continuous
100
AcDbLine
 10
150.5743631259191
 20
159.0026426046278
 30
0.0
 11
150.539333950882
 21
159.0032622413641
 31
0.0
  0
LINE
  5
331
330
E3
100
AcDbEntity
  8
0
  6
Continuous
100
AcDbLine
 10
150.539333950882
 20
159.0032622413641
 30
0.0
 11
150.5067116884854
 21
159.0034592357023
 31
0.0
  0
LINE
  5
332
330
E3
100
AcDbEntity
  8
0
  6
Continuous
100
AcDbLine
 10
150.5067116884854
 20
159.0034592357023
 30
0.0
 11
150.476743477081
 21
159.0031870253441
 31
0.0
  0
LINE
  5
333
330
E3
100
AcDbEntity
  8
0
  6
Continuous
100
AcDbLine
 10
150.476743477081
 20
159.0031870253441
 30
0.0
 11
150.4496406378676
 21
159.0024097931373
 31
0.0
  0
LINE
  5
334
330
E3
100
AcDbEntity
  8
0
  6
Continuous
100
AcDbLine
 10
150.4496406378676
 20
159.0024097931373
 30
0.0
 11
150.4256109103294
 21
159.0010917219293
 31
0.0
  0
LINE
  5
335
330
E3
100
AcDbEntity
  8
0
  6
Continuous
100
AcDbLine
 10
150.4256109103294
 20
159.0010917219293
 30
0.0
 11
150.4048262167976
 21
158.9992005762831
 31
0.0
  0
LINE
  5
336
330
E3
100
AcDbEntity
  8
0
  6
Continuous
100
AcDbLine
 10
150.4048262167976
 20
158.9992005762831
 30
0.0
 11
150.3874369893124
 21
158.9967112841921
 31
0.0
  0
LINE
  5
337
330
E3
100
AcDbEntity
  8
0
  6
Continuous
100
AcDbLine
 10
150.3874369893124
 20
158.9967112841921
 30
0.0
 11
150.3735685879071
 21
158.9936023553646
 31
0.0
  0
LINE
  5
338
330
E3
100
AcDbEntity
  8
0
  6
Continuous
100
AcDbLine
 10
150.3735685879071
 20
158.9936023553646
 30
0.0
 11
150.3633213006084
 21
158.9898522995094
 31
0.0
  0
LINE
  5
339
330
E3
100
AcDbEntity
  8
0
  6
Continuous
100
AcDbLine
 10
150.3633213006084
 20
158.9898522995094
 30
0.0
 11
150.3567646525873
 21
158.9854527685312
 31
0.0
  0
LINE
  5
33A
330
E3
100
AcDbEntity
  8
0
  6
Continuous
100
AcDbLine
 10
150.3567646525873
 20
158.9854527685312
 30
0.0
 11
150.3539408119282
 21
158.9803949024942
 31
0.0
  0
LINE
  5
33B
330
E3
100
AcDbEntity
  8
0
  6
Continuous
100
AcDbLine
 10
151.3045451360061
 20
158.612769440143
 30
0.0
 11
151.301721295347
 21
158.6077115741061
 31
0.0
  0
LINE
  5
33C
330
E3
100
AcDbEntity
  8
0
  6
Continuous
100
AcDbLine
 10
151.301721295347
 20
158.6077115741061
 30
0.0
 11
151.2951642242001
 21
158.6033119773293
 31
0.0
  0
LINE
  5
33D
330
E3
100
AcDbEntity
  8
0
  6
Continuous
100
AcDbLine
 10
151.2951642242001
 20
158.6033119773293
 30
0.0
 11
151.2849181218874
 21
158.5995635350644
 31
0.0
  0
LINE
  5
33E
330
E3
100
AcDbEntity
  8
0
  6
Continuous
100
AcDbLine
 10
151.2849181218874
 20
158.5995635350644
 30
0.0
 11
151.2710497204821
 21
158.5964510245217
 31
0.0
  0
LINE
  5
33F
330
E3
100
AcDbEntity
  8
0
  6
Continuous
100
AcDbLine
 10
151.2710497204821
 20
158.5964510245217
 30
0.0
 11
151.2536604929969
 21
158.5939617324306
 31
0.0
  0
LINE
  5
340
330
E3
100
AcDbEntity
  8
0
  6
Continuous
100
AcDbLine
 10
151.2536604929969
 20
158.5939617324306
 30
0.0
 11
151.2328757994651
 21
158.5920705867844
 31
0.0
  0
LINE
  5
341
330
E3
100
AcDbEntity
  8
0
  6
Continuous
100
AcDbLine
 10
151.2328757994651
 20
158.5920705867844
 30
0.0
 11
151.2088424902116
 21
158.5907525155765
 31
0.0
  0
LINE
  5
342
330
E3
100
AcDbEntity
  8
0
  6
Continuous
100
AcDbLine
 10
151.2088424902116
 20
158.5907525155765
 30
0.0
 11
151.1817432327136
 21
158.5899752833696
 31
0.0
  0
LINE
  5
343
330
E3
100
AcDbEntity
  8
0
  6
Continuous
100
AcDbLine
 10
151.1817432327136
 20
158.5899752833696
 30
0.0
 11
151.1517714395938
 21
158.5897066547267
 31
0.0
  0
LINE
  5
344
330
E3
100
AcDbEntity
  8
0
  6
Continuous
100
AcDbLine
 10
151.1517714395938
 20
158.5897066547267
 30
0.0
 11
151.1191527589125
 21
158.5899000673496
 31
0.0
  0
LINE
  5
345
330
E3
100
AcDbEntity
  8
0
  6
Continuous
100
AcDbLine
 10
151.1191527589125
 20
158.5899000673496
 30
0.0
 11
151.0841200021601
 21
158.5905232858012
 31
0.0
  0
LINE
  5
346
330
E3
100
AcDbEntity
  8
0
  6
Continuous
100
AcDbLine
 10
151.0841200021601
 20
158.5905232858012
 30
0.0
 11
151.0469417979796
 21
158.5915225843528
 31
0.0
  0
LINE
  5
347
330
E3
100
AcDbEntity
  8
0
  6
Continuous
100
AcDbLine
 10
151.0469417979796
 20
158.5915225843528
 30
0.0
 11
151.0078903567291
 21
158.5928514007065
 31
0.0
  0
LINE
  5
348
330
E3
100
AcDbEntity
  8
0
  6
Continuous
100
AcDbLine
 10
151.0078903567291
 20
158.5928514007065
 30
0.0
 11
150.9672522156277
 21
158.594463172564
 31
0.0
  0
LINE
  5
349
330
E3
100
AcDbEntity
  8
0
  6
Continuous
100
AcDbLine
 10
150.9672522156277
 20
158.594463172564
 30
0.0
 11
150.9253318204707
 21
158.5962970107664
 31
0.0
  0
LINE
  5
34A
330
E3
100
AcDbEntity
  8
0
  6
Continuous
100
AcDbLine
 10
150.9253318204707
 20
158.5962970107664
 30
0.0
 11
150.8824443621993
 21
158.5983027713002
 31
0.0
  0
LINE
  5
34B
330
E3
100
AcDbEntity
  8
0
  6
Continuous
100
AcDbLine
 10
150.8824443621993
 20
158.5983027713002
 30
0.0
 11
150.8389050317543
 21
158.6004267284369
 31
0.0
  0
LINE
  5
34C
330
E3
100
AcDbEntity
  8
0
  6
Continuous
100
AcDbLine
 10
150.8389050317543
 20
158.6004267284369
 30
0.0
 11
150.7950397652227
 21
158.6026044113022
 31
0.0
  0
LINE
  5
34D
330
E3
100
AcDbEntity
  8
0
  6
Continuous
100
AcDbLine
 10
150.7950397652227
 20
158.6026044113022
 30
0.0
 11
150.751174498691
 21
158.6047820941675
 31
0.0
  0
LINE
  5
34E
330
E3
100
AcDbEntity
  8
0
  6
Continuous
100
AcDbLine
 10
150.751174498691
 20
158.6047820941675
 30
0.0
 11
150.707635168246
 21
158.6069060513042
 31
0.0
  0
LINE
  5
34F
330
E3
100
AcDbEntity
  8
0
  6
Continuous
100
AcDbLine
 10
150.707635168246
 20
158.6069060513042
 30
0.0
 11
150.6647441282593
 21
158.6089118118381
 31
0.0
  0
LINE
  5
350
330
E3
100
AcDbEntity
  8
0
  6
Continuous
100
AcDbLine
 10
150.6647441282593
 20
158.6089118118381
 30
0.0
 11
150.6228273148177
 21
158.6107492317556
 31
0.0
  0
LINE
  5
351
330
E3
100
AcDbEntity
  8
0
  6
Continuous
100
AcDbLine
 10
150.6228273148177
 20
158.6107492317556
 30
0.0
 11
150.5821891737163
 21
158.6123574218979
 31
0.0
  0
LINE
  5
352
330
E3
100
AcDbEntity
  8
0
  6
Continuous
100
AcDbLine
 10
150.5821891737163
 20
158.6123574218979
 30
0.0
 11
150.5431377324657
 21
158.6136862382516
 31
0.0
  0
LINE
  5
353
330
E3
100
AcDbEntity
  8
0
  6
Continuous
100
AcDbLine
 10
150.5431377324657
 20
158.6136862382516
 30
0.0
 11
150.50595594657
 21
158.6146891185185
 31
0.0
  0
LINE
  5
354
330
E3
100
AcDbEntity
  8
0
  6
Continuous
100
AcDbLine
 10
150.50595594657
 20
158.6146891185185
 30
0.0
 11
150.4709267715328
 21
158.6153087552549
 31
0.0
  0
LINE
  5
355
330
E3
100
AcDbEntity
  8
0
  6
Continuous
100
AcDbLine
 10
150.4709267715328
 20
158.6153087552549
 30
0.0
 11
150.4383080908515
 21
158.615505749593
 31
0.0
  0
LINE
  5
356
330
E3
100
AcDbEntity
  8
0
  6
Continuous
100
AcDbLine
 10
150.4383080908515
 20
158.615505749593
 30
0.0
 11
150.4083362977318
 21
158.6152335392349
 31
0.0
  0
LINE
  5
357
330
E3
100
AcDbEntity
  8
0
  6
Continuous
100
AcDbLine
 10
150.4083362977318
 20
158.6152335392349
 30
0.0
 11
150.3812334585185
 21
158.614456307028
 31
0.0
  0
LINE
  5
358
330
E3
100
AcDbEntity
  8
0
  6
Continuous
100
AcDbLine
 10
150.3812334585185
 20
158.614456307028
 30
0.0
 11
150.3572037309802
 21
158.61313823582
 31
0.0
  0
LINE
  5
359
330
E3
100
AcDbEntity
  8
0
  6
Continuous
100
AcDbLine
 10
150.3572037309802
 20
158.61313823582
 30
0.0
 11
150.3364190374485
 21
158.6112470901739
 31
0.0
  0
LINE
  5
35A
330
E3
100
AcDbEntity
  8
0
  6
Continuous
100
AcDbLine
 10
150.3364190374485
 20
158.6112470901739
 30
0.0
 11
150.3190298099633
 21
158.6087577980828
 31
0.0
  0
LINE
  5
35B
330
E3
100
AcDbEntity
  8
0
  6
Continuous
100
AcDbLine
 10
150.3190298099633
 20
158.6087577980828
 30
0.0
 11
150.305161408558
 21
158.6056452875401
 31
0.0
  0
LINE
  5
35C
330
E3
100
AcDbEntity
  8
0
  6
Continuous
100
AcDbLine
 10
150.305161408558
 20
158.6056452875401
 30
0.0
 11
150.2949141212593
 21
158.6018988134001
 31
0.0
  0
LINE
  5
35D
330
E3
100
AcDbEntity
  8
0
  6
Continuous
100
AcDbLine
 10
150.2949141212593
 20
158.6018988134001
 30
0.0
 11
150.2883577947185
 21
158.5974981991627
 31
0.0
  0
LINE
  5
35E
330
E3
100
AcDbEntity
  8
0
  6
Continuous
100
AcDbLine
 10
150.2883577947185
 20
158.5974981991627
 30
0.0
 11
150.2855339540594
 21
158.5924403331258
 31
0.0
  0
LINE
  5
35F
330
E3
100
AcDbEntity
  8
0
  6
Continuous
100
AcDbLine
 10
151.2361382781372
 20
158.2248148707746
 30
0.0
 11
151.2333144374782
 21
158.2197570047376
 31
0.0
  0
LINE
  5
360
330
E3
100
AcDbEntity
  8
0
  6
Continuous
100
AcDbLine
 10
151.2333144374782
 20
158.2197570047376
 30
0.0
 11
151.2267573663313
 21
158.2153574079608
 31
0.0
  0
LINE
  5
361
330
E3
100
AcDbEntity
  8
0
  6
Continuous
100
AcDbLine
 10
151.2267573663313
 20
158.2153574079608
 30
0.0
 11
151.2165109425382
 21
158.2116100489551
 31
0.0
  0
LINE
  5
362
330
E3
100
AcDbEntity
  8
0
  6
Continuous
100
AcDbLine
 10
151.2165109425382
 20
158.2116100489551
 30
0.0
 11
151.2026425411329
 21
158.2084975384124
 31
0.0
  0
LINE
  5
363
330
E3
100
AcDbEntity
  8
0
  6
Continuous
100
AcDbLine
 10
151.2026425411329
 20
158.2084975384124
 30
0.0
 11
151.1852533136477
 21
158.2060082463213
 31
0.0
  0
LINE
  5
364
330
E3
100
AcDbEntity
  8
0
  6
Continuous
100
AcDbLine
 10
151.1852533136477
 20
158.2060082463213
 30
0.0
 11
151.164468620116
 21
158.2041171006751
 31
0.0
  0
LINE
  5
365
330
E3
100
AcDbEntity
  8
0
  6
Continuous
100
AcDbLine
 10
151.164468620116
 20
158.2041171006751
 30
0.0
 11
151.1404388925777
 21
158.2027990294672
 31
0.0
  0
LINE
  5
366
330
E3
100
AcDbEntity
  8
0
  6
Continuous
100
AcDbLine
 10
151.1404388925777
 20
158.2027990294672
 30
0.0
 11
151.1133360533644
 21
158.2020217972603
 31
0.0
  0
LINE
  5
367
330
E3
100
AcDbEntity
  8
0
  6
Continuous
100
AcDbLine
 10
151.1133360533644
 20
158.2020217972603
 30
0.0
 11
151.0833642602447
 21
158.2017495869022
 31
0.0
  0
LINE
  5
368
330
E3
100
AcDbEntity
  8
0
  6
Continuous
100
AcDbLine
 10
151.0833642602447
 20
158.2017495869022
 30
0.0
 11
151.0507455795634
 21
158.2019465812403
 31
0.0
  0
LINE
  5
369
330
E3
100
AcDbEntity
  8
0
  6
Continuous
100
AcDbLine
 10
151.0507455795634
 20
158.2019465812403
 30
0.0
 11
151.0157164045262
 21
158.2025662179767
 31
0.0
  0
LINE
  5
36A
330
E3
100
AcDbEntity
  8
0
  6
Continuous
100
AcDbLine
 10
151.0157164045262
 20
158.2025662179767
 30
0.0
 11
150.9785346186305
 21
158.2035690982436
 31
0.0
  0
LINE
  5
36B
330
E3
100
AcDbEntity
  8
0
  6
Continuous
100
AcDbLine
 10
150.9785346186305
 20
158.2035690982436
 30
0.0
 11
150.9394831773799
 21
158.2048979145972
 31
0.0
  0
LINE
  5
36C
330
E3
100
AcDbEntity
  8
0
  6
Continuous
100
AcDbLine
 10
150.9394831773799
 20
158.2048979145972
 30
0.0
 11
150.8988450362785
 21
158.2065061047396
 31
0.0
  0
LINE
  5
36D
330
E3
100
AcDbEntity
  8
0
  6
Continuous
100
AcDbLine
 10
150.8988450362785
 20
158.2065061047396
 30
0.0
 11
150.8569282228369
 21
158.2083435246571
 31
0.0
  0
LINE
  5
36E
330
E3
100
AcDbEntity
  8
0
  6
Continuous
100
AcDbLine
 10
150.8569282228369
 20
158.2083435246571
 30
0.0
 11
150.8140371828502
 21
158.2103492851909
 31
0.0
  0
LINE
  5
36F
330
E3
100
AcDbEntity
  8
0
  6
Continuous
100
AcDbLine
 10
150.8140371828502
 20
158.2103492851909
 30
0.0
 11
150.7704978524053
 21
158.2124696606124
 31
0.0
  0
LINE
  5
370
330
E3
100
AcDbEntity
  8
0
  6
Continuous
100
AcDbLine
 10
150.7704978524053
 20
158.2124696606124
 30
0.0
 11
150.7266325858735
 21
158.214650925193
 31
0.0
  0
LINE
  5
371
330
E3
100
AcDbEntity
  8
0
  6
Continuous
100
AcDbLine
 10
150.7266325858735
 20
158.214650925193
 30
0.0
 11
150.6827673193418
 21
158.2168286080583
 31
0.0
  0
LINE
  5
372
330
E3
100
AcDbEntity
  8
0
  6
Continuous
100
AcDbLine
 10
150.6827673193418
 20
158.2168286080583
 30
0.0
 11
150.6392279888969
 21
158.2189489834797
 31
0.0
  0
LINE
  5
373
330
E3
100
AcDbEntity
  8
0
  6
Continuous
100
AcDbLine
 10
150.6392279888969
 20
158.2189489834797
 30
0.0
 11
150.5963405306255
 21
158.2209583257288
 31
0.0
  0
LINE
  5
374
330
E3
100
AcDbEntity
  8
0
  6
Continuous
100
AcDbLine
 10
150.5963405306255
 20
158.2209583257288
 30
0.0
 11
150.5544201354685
 21
158.2227921639312
 31
0.0
  0
LINE
  5
375
330
E3
100
AcDbEntity
  8
0
  6
Continuous
100
AcDbLine
 10
150.5544201354685
 20
158.2227921639312
 30
0.0
 11
150.5137819943672
 21
158.2244039357887
 31
0.0
  0
LINE
  5
376
330
E3
100
AcDbEntity
  8
0
  6
Continuous
100
AcDbLine
 10
150.5137819943672
 20
158.2244039357887
 30
0.0
 11
150.4747305531166
 21
158.2257327521423
 31
0.0
  0
LINE
  5
377
330
E3
100
AcDbEntity
  8
0
  6
Continuous
100
AcDbLine
 10
150.4747305531166
 20
158.2257327521423
 30
0.0
 11
150.4375523489361
 21
158.226732050694
 31
0.0
  0
LINE
  5
378
330
E3
100
AcDbEntity
  8
0
  6
Continuous
100
AcDbLine
 10
150.4375523489361
 20
158.226732050694
 30
0.0
 11
150.4025195921837
 21
158.2273552691456
 31
0.0
  0
LINE
  5
379
330
E3
100
AcDbEntity
  8
0
  6
Continuous
100
AcDbLine
 10
150.4025195921837
 20
158.2273552691456
 30
0.0
 11
150.3699009115024
 21
158.2275486817685
 31
0.0
  0
LINE
  5
37A
330
E3
100
AcDbEntity
  8
0
  6
Continuous
100
AcDbLine
 10
150.3699009115024
 20
158.2275486817685
 30
0.0
 11
150.3399291183827
 21
158.2272800531256
 31
0.0
  0
LINE
  5
37B
330
E3
100
AcDbEntity
  8
0
  6
Continuous
100
AcDbLine
 10
150.3399291183827
 20
158.2272800531256
 30
0.0
 11
150.3128262791694
 21
158.2265028209187
 31
0.0
  0
LINE
  5
37C
330
E3
100
AcDbEntity
  8
0
  6
Continuous
100
AcDbLine
 10
150.3128262791694
 20
158.2265028209187
 30
0.0
 11
150.2887965516311
 21
158.2251847497108
 31
0.0
  0
LINE
  5
37D
330
E3
100
AcDbEntity
  8
0
  6
Continuous
100
AcDbLine
 10
150.2887965516311
 20
158.2251847497108
 30
0.0
 11
150.2680118580994
 21
158.2232936040646
 31
0.0
  0
LINE
  5
37E
330
E3
100
AcDbEntity
  8
0
  6
Continuous
100
AcDbLine
 10
150.2680118580994
 20
158.2232936040646
 30
0.0
 11
150.2506226306141
 21
158.2208043119735
 31
0.0
  0
LINE
  5
37F
330
E3
100
AcDbEntity
  8
0
  6
Continuous
100
AcDbLine
 10
150.2506226306141
 20
158.2208043119735
 30
0.0
 11
150.2367542292088
 21
158.2176918014308
 31
0.0
  0
LINE
  5
380
330
E3
100
AcDbEntity
  8
0
  6
Continuous
100
AcDbLine
 10
150.2367542292088
 20
158.2176918014308
 30
0.0
 11
150.2265069419101
 21
158.2139417455757
 31
0.0
  0
LINE
  5
381
330
E3
100
AcDbEntity
  8
0
  6
Continuous
100
AcDbLine
 10
150.2265069419101
 20
158.2139417455757
 30
0.0
 11
150.2199509368497
 21
158.2095436297943
 31
0.0
  0
LINE
  5
382
330
E3
100
AcDbEntity
  8
0
  6
Continuous
100
AcDbLine
 10
150.2199509368497
 20
158.2095436297943
 30
0.0
 11
150.2171270961906
 21
158.2044857637573
 31
0.0
  0
LINE
  5
383
330
E3
100
AcDbEntity
  8
0
  6
Continuous
100
AcDbLine
 10
151.1677314202685
 20
157.8368603014061
 30
0.0
 11
151.1649075796094
 21
157.8318024353692
 31
0.0
  0
LINE
  5
384
330
E3
100
AcDbEntity
  8
0
  6
Continuous
100
AcDbLine
 10
151.1649075796094
 20
157.8318024353692
 30
0.0
 11
151.1583505084625
 21
157.8274028385924
 31
0.0
  0
LINE
  5
385
330
E3
100
AcDbEntity
  8
0
  6
Continuous
100
AcDbLine
 10
151.1583505084625
 20
157.8274028385924
 30
0.0
 11
151.1481037631891
 21
157.8236529811306
 31
0.0
  0
LINE
  5
386
330
E3
100
AcDbEntity
  8
0
  6
Continuous
100
AcDbLine
 10
151.1481037631891
 20
157.8236529811306
 30
0.0
 11
151.1342353617838
 21
157.8205440523031
 31
0.0
  0
LINE
  5
387
330
E3
100
AcDbEntity
  8
0
  6
Continuous
100
AcDbLine
 10
151.1342353617838
 20
157.8205440523031
 30
0.0
 11
151.1168461342986
 21
157.818054760212
 31
0.0
  0
LINE
  5
388
330
E3
100
AcDbEntity
  8
0
  6
Continuous
100
AcDbLine
 10
151.1168461342986
 20
157.818054760212
 30
0.0
 11
151.0960614407669
 21
157.8161636145659
 31
0.0
  0
LINE
  5
389
330
E3
100
AcDbEntity
  8
0
  6
Continuous
100
AcDbLine
 10
151.0960614407669
 20
157.8161636145659
 30
0.0
 11
151.0720317132286
 21
157.8148455433579
 31
0.0
  0
LINE
  5
38A
330
E3
100
AcDbEntity
  8
0
  6
Continuous
100
AcDbLine
 10
151.0720317132286
 20
157.8148455433579
 30
0.0
 11
151.0449288740153
 21
157.8140683111511
 31
0.0
  0
LINE
  5
38B
330
E3
100
AcDbEntity
  8
0
  6
Continuous
100
AcDbLine
 10
151.0449288740153
 20
157.8140683111511
 30
0.0
 11
151.0149570808956
 21
157.8137961007929
 31
0.0
  0
LINE
  5
38C
330
E3
100
AcDbEntity
  8
0
  6
Continuous
100
AcDbLine
 10
151.0149570808956
 20
157.8137961007929
 30
0.0
 11
150.9823384002142
 21
157.8139930951311
 31
0.0
  0
LINE
  5
38D
330
E3
100
AcDbEntity
  8
0
  6
Continuous
100
AcDbLine
 10
150.9823384002142
 20
157.8139930951311
 30
0.0
 11
150.9473092251771
 21
157.8146127318674
 31
0.0
  0
LINE
  5
38E
330
E3
100
AcDbEntity
  8
0
  6
Continuous
100
AcDbLine
 10
150.9473092251771
 20
157.8146127318674
 30
0.0
 11
150.9101274392813
 21
157.8156120304191
 31
0.0
  0
LINE
  5
38F
330
E3
100
AcDbEntity
  8
0
  6
Continuous
100
AcDbLine
 10
150.9101274392813
 20
157.8156120304191
 30
0.0
 11
150.8710759980308
 21
157.8169444284879
 31
0.0
  0
LINE
  5
390
330
E3
100
AcDbEntity
  8
0
  6
Continuous
100
AcDbLine
 10
150.8710759980308
 20
157.8169444284879
 30
0.0
 11
150.8304378569294
 21
157.8185526186303
 31
0.0
  0
LINE
  5
391
330
E3
100
AcDbEntity
  8
0
  6
Continuous
100
AcDbLine
 10
150.8304378569294
 20
157.8185526186303
 30
0.0
 11
150.7885210434877
 21
157.8203900385478
 31
0.0
  0
LINE
  5
392
330
E3
100
AcDbEntity
  8
0
  6
Continuous
100
AcDbLine
 10
150.7885210434877
 20
157.8203900385478
 30
0.0
 11
150.745630003501
 21
157.8223957990817
 31
0.0
  0
LINE
  5
393
330
E3
100
AcDbEntity
  8
0
  6
Continuous
100
AcDbLine
 10
150.745630003501
 20
157.8223957990817
 30
0.0
 11
150.7020906730561
 21
157.8245161745032
 31
0.0
  0
LINE
  5
394
330
E3
100
AcDbEntity
  8
0
  6
Continuous
100
AcDbLine
 10
150.7020906730561
 20
157.8245161745032
 30
0.0
 11
150.6582254065244
 21
157.8266974390837
 31
0.0
  0
LINE
  5
395
330
E3
100
AcDbEntity
  8
0
  6
Continuous
100
AcDbLine
 10
150.6582254065244
 20
157.8266974390837
 30
0.0
 11
150.6143601399927
 21
157.828875121949
 31
0.0
  0
LINE
  5
396
330
E3
100
AcDbEntity
  8
0
  6
Continuous
100
AcDbLine
 10
150.6143601399927
 20
157.828875121949
 30
0.0
 11
150.5708208095478
 21
157.8309954973705
 31
0.0
  0
LINE
  5
397
330
E3
100
AcDbEntity
  8
0
  6
Continuous
100
AcDbLine
 10
150.5708208095478
 20
157.8309954973705
 30
0.0
 11
150.5279333512763
 21
157.8330012579043
 31
0.0
  0
LINE
  5
398
330
E3
100
AcDbEntity
  8
0
  6
Continuous
100
AcDbLine
 10
150.5279333512763
 20
157.8330012579043
 30
0.0
 11
150.4860129561194
 21
157.8348386778219
 31
0.0
  0
LINE
  5
399
330
E3
100
AcDbEntity
  8
0
  6
Continuous
100
AcDbLine
 10
150.4860129561194
 20
157.8348386778219
 30
0.0
 11
150.445374815018
 21
157.8364468679642
 31
0.0
  0
LINE
  5
39A
330
E3
100
AcDbEntity
  8
0
  6
Continuous
100
AcDbLine
 10
150.445374815018
 20
157.8364468679642
 30
0.0
 11
150.4063233737675
 21
157.8377792660331
 31
0.0
  0
LINE
  5
39B
330
E3
100
AcDbEntity
  8
0
  6
Continuous
100
AcDbLine
 10
150.4063233737675
 20
157.8377792660331
 30
0.0
 11
150.369145169587
 21
157.8387785645847
 31
0.0
  0
LINE
  5
39C
330
E3
100
AcDbEntity
  8
0
  6
Continuous
100
AcDbLine
 10
150.369145169587
 20
157.8387785645847
 30
0.0
 11
150.3341124128346
 21
157.8393982013211
 31
0.0
  0
LINE
  5
39D
330
E3
100
AcDbEntity
  8
0
  6
Continuous
100
AcDbLine
 10
150.3341124128346
 20
157.8393982013211
 30
0.0
 11
150.3014937321533
 21
157.8395951956592
 31
0.0
  0
LINE
  5
39E
330
E3
100
AcDbEntity
  8
0
  6
Continuous
100
AcDbLine
 10
150.3014937321533
 20
157.8395951956592
 30
0.0
 11
150.2715219390335
 21
157.8393229853011
 31
0.0
  0
LINE
  5
39F
330
E3
100
AcDbEntity
  8
0
  6
Continuous
100
AcDbLine
 10
150.2715219390335
 20
157.8393229853011
 30
0.0
 11
150.2444226815355
 21
157.8385457530942
 31
0.0
  0
LINE
  5
3A0
330
E3
100
AcDbEntity
  8
0
  6
Continuous
100
AcDbLine
 10
150.2444226815355
 20
157.8385457530942
 30
0.0
 11
150.220389372282
 21
157.8372276818863
 31
0.0
  0
LINE
  5
3A1
330
E3
100
AcDbEntity
  8
0
  6
Continuous
100
AcDbLine
 10
150.220389372282
 20
157.8372276818863
 30
0.0
 11
150.1996046787502
 21
157.8353365362401
 31
0.0
  0
LINE
  5
3A2
330
E3
100
AcDbEntity
  8
0
  6
Continuous
100
AcDbLine
 10
150.1996046787502
 20
157.8353365362401
 30
0.0
 11
150.182215451265
 21
157.832847244149
 31
0.0
  0
LINE
  5
3A3
330
E3
100
AcDbEntity
  8
0
  6
Continuous
100
AcDbLine
 10
150.182215451265
 20
157.832847244149
 30
0.0
 11
150.1683470498597
 21
157.8297383153216
 31
0.0
  0
LINE
  5
3A4
330
E3
100
AcDbEntity
  8
0
  6
Continuous
100
AcDbLine
 10
150.1683470498597
 20
157.8297383153216
 30
0.0
 11
150.158099762561
 21
157.8259882594664
 31
0.0
  0
LINE
  5
3A5
330
E3
100
AcDbEntity
  8
0
  6
Continuous
100
AcDbLine
 10
150.158099762561
 20
157.8259882594664
 30
0.0
 11
150.1515440789809
 21
157.8215890604258
 31
0.0
  0
LINE
  5
3A6
330
E3
100
AcDbEntity
  8
0
  6
Continuous
100
AcDbLine
 10
150.1515440789809
 20
157.8215890604258
 30
0.0
 11
150.1487202383219
 21
157.8165311943889
 31
0.0
  0
LINE
  5
3A7
330
E3
100
AcDbEntity
  8
0
  6
Continuous
100
AcDbLine
 10
151.0993245623997
 20
157.4489057320377
 30
0.0
 11
151.0965007217406
 21
157.4438478660007
 31
0.0
  0
LINE
  5
3A8
330
E3
100
AcDbEntity
  8
0
  6
Continuous
100
AcDbLine
 10
151.0965007217406
 20
157.4438478660007
 30
0.0
 11
151.0899436505937
 21
157.439448269224
 31
0.0
  0
LINE
  5
3A9
330
E3
100
AcDbEntity
  8
0
  6
Continuous
100
AcDbLine
 10
151.0899436505937
 20
157.439448269224
 30
0.0
 11
151.07969658384
 21
157.4356994950213
 31
0.0
  0
LINE
  5
3AA
330
E3
100
AcDbEntity
  8
0
  6
Continuous
100
AcDbLine
 10
151.07969658384
 20
157.4356994950213
 30
0.0
 11
151.0658281824347
 21
157.4325905661939
 31
0.0
  0
LINE
  5
3AB
330
E3
100
AcDbEntity
  8
0
  6
Continuous
100
AcDbLine
 10
151.0658281824347
 20
157.4325905661939
 30
0.0
 11
151.0484389549495
 21
157.4300976923875
 31
0.0
  0
LINE
  5
3AC
330
E3
100
AcDbEntity
  8
0
  6
Continuous
100
AcDbLine
 10
151.0484389549495
 20
157.4300976923875
 30
0.0
 11
151.0276542614177
 21
157.4282101284566
 31
0.0
  0
LINE
  5
3AD
330
E3
100
AcDbEntity
  8
0
  6
Continuous
100
AcDbLine
 10
151.0276542614177
 20
157.4282101284566
 30
0.0
 11
151.0036245338794
 21
157.4268884755334
 31
0.0
  0
LINE
  5
3AE
330
E3
100
AcDbEntity
  8
0
  6
Continuous
100
AcDbLine
 10
151.0036245338794
 20
157.4268884755334
 30
0.0
 11
150.9765216946662
 21
157.4261112433266
 31
0.0
  0
LINE
  5
3AF
330
E3
100
AcDbEntity
  8
0
  6
Continuous
100
AcDbLine
 10
150.9765216946662
 20
157.4261112433266
 30
0.0
 11
150.9465534832617
 21
157.4258426146837
 31
0.0
  0
LINE
  5
3B0
330
E3
100
AcDbEntity
  8
0
  6
Continuous
100
AcDbLine
 10
150.9465534832617
 20
157.4258426146837
 30
0.0
 11
150.9139312208651
 21
157.4260360273065
 31
0.0
  0
LINE
  5
3B1
330
E3
100
AcDbEntity
  8
0
  6
Continuous
100
AcDbLine
 10
150.9139312208651
 20
157.4260360273065
 30
0.0
 11
150.8789020458279
 21
157.4266592457581
 31
0.0
  0
LINE
  5
3B2
330
E3
100
AcDbEntity
  8
0
  6
Continuous
100
AcDbLine
 10
150.8789020458279
 20
157.4266592457581
 30
0.0
 11
150.8417202599322
 21
157.4276585443098
 31
0.0
  0
LINE
  5
3B3
330
E3
100
AcDbEntity
  8
0
  6
Continuous
100
AcDbLine
 10
150.8417202599322
 20
157.4276585443098
 30
0.0
 11
150.8026688186817
 21
157.4289873606635
 31
0.0
  0
LINE
  5
3B4
330
E3
100
AcDbEntity
  8
0
  6
Continuous
100
AcDbLine
 10
150.8026688186817
 20
157.4289873606635
 30
0.0
 11
150.7620306775803
 21
157.430599132521
 31
0.0
  0
LINE
  5
3B5
330
E3
100
AcDbEntity
  8
0
  6
Continuous
100
AcDbLine
 10
150.7620306775803
 20
157.430599132521
 30
0.0
 11
150.7201138641386
 21
157.4324329707233
 31
0.0
  0
LINE
  5
3B6
330
E3
100
AcDbEntity
  8
0
  6
Continuous
100
AcDbLine
 10
150.7201138641386
 20
157.4324329707233
 30
0.0
 11
150.6772228241519
 21
157.4344423129724
 31
0.0
  0
LINE
  5
3B7
330
E3
100
AcDbEntity
  8
0
  6
Continuous
100
AcDbLine
 10
150.6772228241519
 20
157.4344423129724
 30
0.0
 11
150.633683493707
 21
157.4365626883939
 31
0.0
  0
LINE
  5
3B8
330
E3
100
AcDbEntity
  8
0
  6
Continuous
100
AcDbLine
 10
150.633683493707
 20
157.4365626883939
 30
0.0
 11
150.5898182271753
 21
157.4387403712591
 31
0.0
  0
LINE
  5
3B9
330
E3
100
AcDbEntity
  8
0
  6
Continuous
100
AcDbLine
 10
150.5898182271753
 20
157.4387403712591
 30
0.0
 11
150.5459529606436
 21
157.4409216358397
 31
0.0
  0
LINE
  5
3BA
330
E3
100
AcDbEntity
  8
0
  6
Continuous
100
AcDbLine
 10
150.5459529606436
 20
157.4409216358397
 30
0.0
 11
150.5024136301986
 21
157.4430420112612
 31
0.0
  0
LINE
  5
3BB
330
E3
100
AcDbEntity
  8
0
  6
Continuous
100
AcDbLine
 10
150.5024136301986
 20
157.4430420112612
 30
0.0
 11
150.4595261719272
 21
157.445047771795
 31
0.0
  0
LINE
  5
3BC
330
E3
100
AcDbEntity
  8
0
  6
Continuous
100
AcDbLine
 10
150.4595261719272
 20
157.445047771795
 30
0.0
 11
150.4176057767703
 21
157.4468851917126
 31
0.0
  0
LINE
  5
3BD
330
E3
100
AcDbEntity
  8
0
  6
Continuous
100
AcDbLine
 10
150.4176057767703
 20
157.4468851917126
 30
0.0
 11
150.3769712173841
 21
157.4484933818549
 31
0.0
  0
LINE
  5
3BE
330
E3
100
AcDbEntity
  8
0
  6
Continuous
100
AcDbLine
 10
150.3769712173841
 20
157.4484933818549
 30
0.0
 11
150.3379161944184
 21
157.4498221982086
 31
0.0
  0
LINE
  5
3BF
330
E3
100
AcDbEntity
  8
0
  6
Continuous
100
AcDbLine
 10
150.3379161944184
 20
157.4498221982086
 30
0.0
 11
150.3007379902378
 21
157.4508250784755
 31
0.0
  0
LINE
  5
3C0
330
E3
100
AcDbEntity
  8
0
  6
Continuous
100
AcDbLine
 10
150.3007379902378
 20
157.4508250784755
 30
0.0
 11
150.2657088152007
 21
157.4514447152118
 31
0.0
  0
LINE
  5
3C1
330
E3
100
AcDbEntity
  8
0
  6
Continuous
100
AcDbLine
 10
150.2657088152007
 20
157.4514447152118
 30
0.0
 11
150.2330865528041
 21
157.45164170955
 31
0.0
  0
LINE
  5
3C2
330
E3
100
AcDbEntity
  8
0
  6
Continuous
100
AcDbLine
 10
150.2330865528041
 20
157.45164170955
 30
0.0
 11
150.2031147596844
 21
157.4513694991918
 31
0.0
  0
LINE
  5
3C3
330
E3
100
AcDbEntity
  8
0
  6
Continuous
100
AcDbLine
 10
150.2031147596844
 20
157.4513694991918
 30
0.0
 11
150.1760155021863
 21
157.4505922669849
 31
0.0
  0
LINE
  5
3C4
330
E3
100
AcDbEntity
  8
0
  6
Continuous
100
AcDbLine
 10
150.1760155021863
 20
157.4505922669849
 30
0.0
 11
150.1519821929328
 21
157.449274195777
 31
0.0
  0
LINE
  5
3C5
330
E3
100
AcDbEntity
  8
0
  6
Continuous
100
AcDbLine
 10
150.1519821929328
 20
157.449274195777
 30
0.0
 11
150.1311974994011
 21
157.4473830501308
 31
0.0
  0
LINE
  5
3C6
330
E3
100
AcDbEntity
  8
0
  6
Continuous
100
AcDbLine
 10
150.1311974994011
 20
157.4473830501308
 30
0.0
 11
150.1138082719159
 21
157.4448937580397
 31
0.0
  0
LINE
  5
3C7
330
E3
100
AcDbEntity
  8
0
  6
Continuous
100
AcDbLine
 10
150.1138082719159
 20
157.4448937580397
 30
0.0
 11
150.0999434522258
 21
157.4417812474971
 31
0.0
  0
LINE
  5
3C8
330
E3
100
AcDbEntity
  8
0
  6
Continuous
100
AcDbLine
 10
150.0999434522258
 20
157.4417812474971
 30
0.0
 11
150.0896925832119
 21
157.4380347733571
 31
0.0
  0
LINE
  5
3C9
330
E3
100
AcDbEntity
  8
0
  6
Continuous
100
AcDbLine
 10
150.0896925832119
 20
157.4380347733571
 30
0.0
 11
150.0831372211121
 21
157.4336344910574
 31
0.0
  0
LINE
  5
3CA
330
E3
100
AcDbEntity
  8
0
  6
Continuous
100
AcDbLine
 10
150.0831372211121
 20
157.4336344910574
 30
0.0
 11
150.0803133804531
 21
157.4285766250204
 31
0.0
  0
LINE
  5
3CB
330
E3
100
AcDbEntity
  8
0
  6
Continuous
100
AcDbLine
 10
151.0309177045309
 20
157.0609511626693
 30
0.0
 11
151.0280938638718
 21
157.0558932966323
 31
0.0
  0
LINE
  5
3CC
330
E3
100
AcDbEntity
  8
0
  6
Continuous
100
AcDbLine
 10
151.0280938638718
 20
157.0558932966323
 30
0.0
 11
151.0215367927249
 21
157.0514936998555
 31
0.0
  0
LINE
  5
3CD
330
E3
100
AcDbEntity
  8
0
  6
Continuous
100
AcDbLine
 10
151.0215367927249
 20
157.0514936998555
 30
0.0
 11
151.0112894044908
 21
157.047746008912
 31
0.0
  0
LINE
  5
3CE
330
E3
100
AcDbEntity
  8
0
  6
Continuous
100
AcDbLine
 10
151.0112894044908
 20
157.047746008912
 30
0.0
 11
150.9974210030855
 21
157.0446334983694
 31
0.0
  0
LINE
  5
3CF
330
E3
100
AcDbEntity
  8
0
  6
Continuous
100
AcDbLine
 10
150.9974210030855
 20
157.0446334983694
 30
0.0
 11
150.9800317756003
 21
157.0421442062783
 31
0.0
  0
LINE
  5
3D0
330
E3
100
AcDbEntity
  8
0
  6
Continuous
100
AcDbLine
 10
150.9800317756003
 20
157.0421442062783
 30
0.0
 11
150.9592470820686
 21
157.0402530606321
 31
0.0
  0
LINE
  5
3D1
330
E3
100
AcDbEntity
  8
0
  6
Continuous
100
AcDbLine
 10
150.9592470820686
 20
157.0402530606321
 30
0.0
 11
150.9352173545303
 21
157.0389349894241
 31
0.0
  0
LINE
  5
3D2
330
E3
100
AcDbEntity
  8
0
  6
Continuous
100
AcDbLine
 10
150.9352173545303
 20
157.0389349894241
 30
0.0
 11
150.9081180970323
 21
157.0381577572173
 31
0.0
  0
LINE
  5
3D3
330
E3
100
AcDbEntity
  8
0
  6
Continuous
100
AcDbLine
 10
150.9081180970323
 20
157.0381577572173
 30
0.0
 11
150.8781463039126
 21
157.0378855468591
 31
0.0
  0
LINE
  5
3D4
330
E3
100
AcDbEntity
  8
0
  6
Continuous
100
AcDbLine
 10
150.8781463039126
 20
157.0378855468591
 30
0.0
 11
150.845524041516
 21
157.0380825411973
 31
0.0
  0
LINE
  5
3D5
330
E3
100
AcDbEntity
  8
0
  6
Continuous
100
AcDbLine
 10
150.845524041516
 20
157.0380825411973
 30
0.0
 11
150.8104948664788
 21
157.0387057596489
 31
0.0
  0
LINE
  5
3D6
330
E3
100
AcDbEntity
  8
0
  6
Continuous
100
AcDbLine
 10
150.8104948664788
 20
157.0387057596489
 30
0.0
 11
150.7733130805831
 21
157.0397050582005
 31
0.0
  0
LINE
  5
3D7
330
E3
100
AcDbEntity
  8
0
  6
Continuous
100
AcDbLine
 10
150.7733130805831
 20
157.0397050582005
 30
0.0
 11
150.7342616393325
 21
157.0410338745542
 31
0.0
  0
LINE
  5
3D8
330
E3
100
AcDbEntity
  8
0
  6
Continuous
100
AcDbLine
 10
150.7342616393325
 20
157.0410338745542
 30
0.0
 11
150.6936234982312
 21
157.0426456464117
 31
0.0
  0
LINE
  5
3D9
330
E3
100
AcDbEntity
  8
0
  6
Continuous
100
AcDbLine
 10
150.6936234982312
 20
157.0426456464117
 30
0.0
 11
150.6517066847895
 21
157.0444794846141
 31
0.0
  0
LINE
  5
3DA
330
E3
100
AcDbEntity
  8
0
  6
Continuous
100
AcDbLine
 10
150.6517066847895
 20
157.0444794846141
 30
0.0
 11
150.6088156448028
 21
157.0464852451479
 31
0.0
  0
LINE
  5
3DB
330
E3
100
AcDbEntity
  8
0
  6
Continuous
100
AcDbLine
 10
150.6088156448028
 20
157.0464852451479
 30
0.0
 11
150.5652763143578
 21
157.0486092022846
 31
0.0
  0
LINE
  5
3DC
330
E3
100
AcDbEntity
  8
0
  6
Continuous
100
AcDbLine
 10
150.5652763143578
 20
157.0486092022846
 30
0.0
 11
150.5214110478261
 21
157.0507868851499
 31
0.0
  0
LINE
  5
3DD
330
E3
100
AcDbEntity
  8
0
  6
Continuous
100
AcDbLine
 10
150.5214110478261
 20
157.0507868851499
 30
0.0
 11
150.4775457812945
 21
157.0529645680152
 31
0.0
  0
LINE
  5
3DE
330
E3
100
AcDbEntity
  8
0
  6
Continuous
100
AcDbLine
 10
150.4775457812945
 20
157.0529645680152
 30
0.0
 11
150.4340064508495
 21
157.0550885251519
 31
0.0
  0
LINE
  5
3DF
330
E3
100
AcDbEntity
  8
0
  6
Continuous
100
AcDbLine
 10
150.4340064508495
 20
157.0550885251519
 30
0.0
 11
150.3911189925781
 21
157.0570942856857
 31
0.0
  0
LINE
  5
3E0
330
E3
100
AcDbEntity
  8
0
  6
Continuous
100
AcDbLine
 10
150.3911189925781
 20
157.0570942856857
 30
0.0
 11
150.3491985974211
 21
157.0589281238881
 31
0.0
  0
LINE
  5
3E1
330
E3
100
AcDbEntity
  8
0
  6
Continuous
100
AcDbLine
 10
150.3491985974211
 20
157.0589281238881
 30
0.0
 11
150.308564038035
 21
157.0605398957456
 31
0.0
  0
LINE
  5
3E2
330
E3
100
AcDbEntity
  8
0
  6
Continuous
100
AcDbLine
 10
150.308564038035
 20
157.0605398957456
 30
0.0
 11
150.2695090150692
 21
157.0618687120993
 31
0.0
  0
LINE
  5
3E3
330
E3
100
AcDbEntity
  8
0
  6
Continuous
100
AcDbLine
 10
150.2695090150692
 20
157.0618687120993
 30
0.0
 11
150.2323308108887
 21
157.062868010651
 31
0.0
  0
LINE
  5
3E4
330
E3
100
AcDbEntity
  8
0
  6
Continuous
100
AcDbLine
 10
150.2323308108887
 20
157.062868010651
 30
0.0
 11
150.1973016358515
 21
157.0634912291025
 31
0.0
  0
LINE
  5
3E5
330
E3
100
AcDbEntity
  8
0
  6
Continuous
100
AcDbLine
 10
150.1973016358515
 20
157.0634912291025
 30
0.0
 11
150.164679373455
 21
157.0636846417255
 31
0.0
  0
LINE
  5
3E6
330
E3
100
AcDbEntity
  8
0
  6
Continuous
100
AcDbLine
 10
150.164679373455
 20
157.0636846417255
 30
0.0
 11
150.1347075803353
 21
157.0634160130826
 31
0.0
  0
LINE
  5
3E7
330
E3
100
AcDbEntity
  8
0
  6
Continuous
100
AcDbLine
 10
150.1347075803353
 20
157.0634160130826
 30
0.0
 11
150.1076083228372
 21
157.0626387808757
 31
0.0
  0
LINE
  5
3E8
330
E3
100
AcDbEntity
  8
0
  6
Continuous
100
AcDbLine
 10
150.1076083228372
 20
157.0626387808757
 30
0.0
 11
150.0835750135837
 21
157.0613207096677
 31
0.0
  0
LINE
  5
3E9
330
E3
100
AcDbEntity
  8
0
  6
Continuous
100
AcDbLine
 10
150.0835750135837
 20
157.0613207096677
 30
0.0
 11
150.0627903200519
 21
157.0594295640215
 31
0.0
  0
LINE
  5
3EA
330
E3
100
AcDbEntity
  8
0
  6
Continuous
100
AcDbLine
 10
150.0627903200519
 20
157.0594295640215
 30
0.0
 11
150.0454010925667
 21
157.0569402719304
 31
0.0
  0
LINE
  5
3EB
330
E3
100
AcDbEntity
  8
0
  6
Continuous
100
AcDbLine
 10
150.0454010925667
 20
157.0569402719304
 30
0.0
 11
150.0315362728767
 21
157.0538277613878
 31
0.0
  0
LINE
  5
3EC
330
E3
100
AcDbEntity
  8
0
  6
Continuous
100
AcDbLine
 10
150.0315362728767
 20
157.0538277613878
 30
0.0
 11
150.021288985578
 21
157.0500812872478
 31
0.0
  0
LINE
  5
3ED
330
E3
100
AcDbEntity
  8
0
  6
Continuous
100
AcDbLine
 10
150.021288985578
 20
157.0500812872478
 30
0.0
 11
150.0147303632434
 21
157.0456799216889
 31
0.0
  0
LINE
  5
3EE
330
E3
100
AcDbEntity
  8
0
  6
Continuous
100
AcDbLine
 10
150.0147303632434
 20
157.0456799216889
 30
0.0
 11
150.0119065225843
 21
157.0406220556519
 31
0.0
  0
LINE
  5
3EF
330
E3
100
AcDbEntity
  8
0
  6
Continuous
100
AcDbLine
 10
150.9625108466621
 20
156.6729965933008
 30
0.0
 11
150.959687006003
 21
156.6679387272638
 31
0.0
  0
LINE
  5
3F0
330
E3
100
AcDbEntity
  8
0
  6
Continuous
100
AcDbLine
 10
150.959687006003
 20
156.6679387272638
 30
0.0
 11
150.9531299348561
 21
156.6635391304871
 31
0.0
  0
LINE
  5
3F1
330
E3
100
AcDbEntity
  8
0
  6
Continuous
100
AcDbLine
 10
150.9531299348561
 20
156.6635391304871
 30
0.0
 11
150.9428822251417
 21
156.6597889410875
 31
0.0
  0
LINE
  5
3F2
330
E3
100
AcDbEntity
  8
0
  6
Continuous
100
AcDbLine
 10
150.9428822251417
 20
156.6597889410875
 30
0.0
 11
150.9290138237364
 21
156.6566800122601
 31
0.0
  0
LINE
  5
3F3
330
E3
100
AcDbEntity
  8
0
  6
Continuous
100
AcDbLine
 10
150.9290138237364
 20
156.6566800122601
 30
0.0
 11
150.9116245962512
 21
156.654190720169
 31
0.0
  0
LINE
  5
3F4
330
E3
100
AcDbEntity
  8
0
  6
Continuous
100
AcDbLine
 10
150.9116245962512
 20
156.654190720169
 30
0.0
 11
150.8908399027194
 21
156.6522995745228
 31
0.0
  0
LINE
  5
3F5
330
E3
100
AcDbEntity
  8
0
  6
Continuous
100
AcDbLine
 10
150.8908399027194
 20
156.6522995745228
 30
0.0
 11
150.8668101751812
 21
156.6509815033149
 31
0.0
  0
LINE
  5
3F6
330
E3
100
AcDbEntity
  8
0
  6
Continuous
100
AcDbLine
 10
150.8668101751812
 20
156.6509815033149
 30
0.0
 11
150.8397109176831
 21
156.650204271108
 31
0.0
  0
LINE
  5
3F7
330
E3
100
AcDbEntity
  8
0
  6
Continuous
100
AcDbLine
 10
150.8397109176831
 20
156.650204271108
 30
0.0
 11
150.8097391245634
 21
156.6499320607499
 31
0.0
  0
LINE
  5
3F8
330
E3
100
AcDbEntity
  8
0
  6
Continuous
100
AcDbLine
 10
150.8097391245634
 20
156.6499320607499
 30
0.0
 11
150.7771168621668
 21
156.650129055088
 31
0.0
  0
LINE
  5
3F9
330
E3
100
AcDbEntity
  8
0
  6
Continuous
100
AcDbLine
 10
150.7771168621668
 20
156.650129055088
 30
0.0
 11
150.7420876871297
 21
156.6507486918244
 31
0.0
  0
LINE
  5
3FA
330
E3
100
AcDbEntity
  8
0
  6
Continuous
100
AcDbLine
 10
150.7420876871297
 20
156.6507486918244
 30
0.0
 11
150.7049094829492
 21
156.651747990376
 31
0.0
  0
LINE
  5
3FB
330
E3
100
AcDbEntity
  8
0
  6
Continuous
100
AcDbLine
 10
150.7049094829492
 20
156.651747990376
 30
0.0
 11
150.6658544599834
 21
156.6530803884449
 31
0.0
  0
LINE
  5
3FC
330
E3
100
AcDbEntity
  8
0
  6
Continuous
100
AcDbLine
 10
150.6658544599834
 20
156.6530803884449
 30
0.0
 11
150.625216318882
 21
156.6546885785872
 31
0.0
  0
LINE
  5
3FD
330
E3
100
AcDbEntity
  8
0
  6
Continuous
100
AcDbLine
 10
150.625216318882
 20
156.6546885785872
 30
0.0
 11
150.5832995054404
 21
156.6565259985048
 31
0.0
  0
LINE
  5
3FE
330
E3
100
AcDbEntity
  8
0
  6
Continuous
100
AcDbLine
 10
150.5832995054404
 20
156.6565259985048
 30
0.0
 11
150.5404120471689
 21
156.6585317590386
 31
0.0
  0
LINE
  5
3FF
330
E3
100
AcDbEntity
  8
0
  6
Continuous
100
AcDbLine
 10
150.5404120471689
 20
156.6585317590386
 30
0.0
 11
150.496872716724
 21
156.6606521344601
 31
0.0
  0
LINE
  5
400
330
E3
100
AcDbEntity
  8
0
  6
Continuous
100
AcDbLine
 10
150.496872716724
 20
156.6606521344601
 30
0.0
 11
150.4530038684771
 21
156.6628333990406
 31
0.0
  0
LINE
  5
401
330
E3
100
AcDbEntity
  8
0
  6
Continuous
100
AcDbLine
 10
150.4530038684771
 20
156.6628333990406
 30
0.0
 11
150.4091386019453
 21
156.6650110819059
 31
0.0
  0
LINE
  5
402
330
E3
100
AcDbEntity
  8
0
  6
Continuous
100
AcDbLine
 10
150.4091386019453
 20
156.6650110819059
 30
0.0
 11
150.3655992715004
 21
156.6671314573274
 31
0.0
  0
LINE
  5
403
330
E3
100
AcDbEntity
  8
0
  6
Continuous
100
AcDbLine
 10
150.3655992715004
 20
156.6671314573274
 30
0.0
 11
150.3227118132289
 21
156.6691372178612
 31
0.0
  0
LINE
  5
404
330
E3
100
AcDbEntity
  8
0
  6
Continuous
100
AcDbLine
 10
150.3227118132289
 20
156.6691372178612
 30
0.0
 11
150.280791418072
 21
156.6709746377788
 31
0.0
  0
LINE
  5
405
330
E3
100
AcDbEntity
  8
0
  6
Continuous
100
AcDbLine
 10
150.280791418072
 20
156.6709746377788
 30
0.0
 11
150.2401568586859
 21
156.6725828279211
 31
0.0
  0
LINE
  5
406
330
E3
100
AcDbEntity
  8
0
  6
Continuous
100
AcDbLine
 10
150.2401568586859
 20
156.6725828279211
 30
0.0
 11
150.2011018357201
 21
156.67391522599
 31
0.0
  0
LINE
  5
407
330
E3
100
AcDbEntity
  8
0
  6
Continuous
100
AcDbLine
 10
150.2011018357201
 20
156.67391522599
 30
0.0
 11
150.1639236315396
 21
156.6749145245417
 31
0.0
  0
LINE
  5
408
330
E3
100
AcDbEntity
  8
0
  6
Continuous
100
AcDbLine
 10
150.1639236315396
 20
156.6749145245417
 30
0.0
 11
150.1288944565024
 21
156.675534161278
 31
0.0
  0
LINE
  5
409
330
E3
100
AcDbEntity
  8
0
  6
Continuous
100
AcDbLine
 10
150.1288944565024
 20
156.675534161278
 30
0.0
 11
150.0962721941059
 21
156.6757311556162
 31
0.0
  0
LINE
  5
40A
330
E3
100
AcDbEntity
  8
0
  6
Continuous
100
AcDbLine
 10
150.0962721941059
 20
156.6757311556162
 30
0.0
 11
150.0663004009862
 21
156.675458945258
 31
0.0
  0
LINE
  5
40B
330
E3
100
AcDbEntity
  8
0
  6
Continuous
100
AcDbLine
 10
150.0663004009862
 20
156.675458945258
 30
0.0
 11
150.0392011434881
 21
156.6746817130511
 31
0.0
  0
LINE
  5
40C
330
E3
100
AcDbEntity
  8
0
  6
Continuous
100
AcDbLine
 10
150.0392011434881
 20
156.6746817130511
 30
0.0
 11
150.0151714159498
 21
156.6733636418432
 31
0.0
  0
LINE
  5
40D
330
E3
100
AcDbEntity
  8
0
  6
Continuous
100
AcDbLine
 10
150.0151714159498
 20
156.6733636418432
 30
0.0
 11
149.9943831407028
 21
156.671472496197
 31
0.0
  0
LINE
  5
40E
330
E3
100
AcDbEntity
  8
0
  6
Continuous
100
AcDbLine
 10
149.9943831407028
 20
156.671472496197
 30
0.0
 11
149.9769939132176
 21
156.6689832041059
 31
0.0
  0
LINE
  5
40F
330
E3
100
AcDbEntity
  8
0
  6
Continuous
100
AcDbLine
 10
149.9769939132176
 20
156.6689832041059
 30
0.0
 11
149.9631290935276
 21
156.6658742752785
 31
0.0
  0
LINE
  5
410
330
E3
100
AcDbEntity
  8
0
  6
Continuous
100
AcDbLine
 10
149.9631290935276
 20
156.6658742752785
 30
0.0
 11
149.9528818062288
 21
156.6621242194233
 31
0.0
  0
LINE
  5
411
330
E3
100
AcDbEntity
  8
0
  6
Continuous
100
AcDbLine
 10
149.9528818062288
 20
156.6621242194233
 30
0.0
 11
149.9463235053746
 21
156.6577253523205
 31
0.0
  0
LINE
  5
412
330
E3
100
AcDbEntity
  8
0
  6
Continuous
100
AcDbLine
 10
149.9463235053746
 20
156.6577253523205
 30
0.0
 11
149.9434996647155
 21
156.6526674862835
 31
0.0
  0
LINE
  5
413
330
E3
100
AcDbEntity
  8
0
  6
Continuous
100
AcDbLine
 10
150.8941039887933
 20
156.2850420239323
 30
0.0
 11
150.8912801481342
 21
156.2799841578954
 31
0.0
  0
LINE
  5
414
330
E3
100
AcDbEntity
  8
0
  6
Continuous
100
AcDbLine
 10
150.8912801481342
 20
156.2799841578954
 30
0.0
 11
150.8847230769873
 21
156.2755845611186
 31
0.0
  0
LINE
  5
415
330
E3
100
AcDbEntity
  8
0
  6
Continuous
100
AcDbLine
 10
150.8847230769873
 20
156.2755845611186
 30
0.0
 11
150.8744750457926
 21
156.2718354549783
 31
0.0
  0
LINE
  5
416
330
E3
100
AcDbEntity
  8
0
  6
Continuous
100
AcDbLine
 10
150.8744750457926
 20
156.2718354549783
 30
0.0
 11
150.8606066443873
 21
156.2687265261508
 31
0.0
  0
LINE
  5
417
330
E3
100
AcDbEntity
  8
0
  6
Continuous
100
AcDbLine
 10
150.8606066443873
 20
156.2687265261508
 30
0.0
 11
150.8432174169021
 21
156.2662372340597
 31
0.0
  0
LINE
  5
418
330
E3
100
AcDbEntity
  8
0
  6
Continuous
100
AcDbLine
 10
150.8432174169021
 20
156.2662372340597
 30
0.0
 11
150.8224327233703
 21
156.2643460884135
 31
0.0
  0
LINE
  5
419
330
E3
100
AcDbEntity
  8
0
  6
Continuous
100
AcDbLine
 10
150.8224327233703
 20
156.2643460884135
 30
0.0
 11
150.7984029958321
 21
156.2630244354904
 31
0.0
  0
LINE
  5
41A
330
E3
100
AcDbEntity
  8
0
  6
Continuous
100
AcDbLine
 10
150.7984029958321
 20
156.2630244354904
 30
0.0
 11
150.771303738334
 21
156.2622472032835
 31
0.0
  0
LINE
  5
41B
330
E3
100
AcDbEntity
  8
0
  6
Continuous
100
AcDbLine
 10
150.771303738334
 20
156.2622472032835
 30
0.0
 11
150.7413319452143
 21
156.2619785746406
 31
0.0
  0
LINE
  5
41C
330
E3
100
AcDbEntity
  8
0
  6
Continuous
100
AcDbLine
 10
150.7413319452143
 20
156.2619785746406
 30
0.0
 11
150.7087096828177
 21
156.2621755689787
 31
0.0
  0
LINE
  5
41D
330
E3
100
AcDbEntity
  8
0
  6
Continuous
100
AcDbLine
 10
150.7087096828177
 20
156.2621755689787
 30
0.0
 11
150.6736805077806
 21
156.2627952057151
 31
0.0
  0
LINE
  5
41E
330
E3
100
AcDbEntity
  8
0
  6
Continuous
100
AcDbLine
 10
150.6736805077806
 20
156.2627952057151
 30
0.0
 11
150.6365023036
 21
156.2637945042667
 31
0.0
  0
LINE
  5
41F
330
E3
100
AcDbEntity
  8
0
  6
Continuous
100
AcDbLine
 10
150.6365023036
 20
156.2637945042667
 30
0.0
 11
150.5974472806343
 21
156.2651269023356
 31
0.0
  0
LINE
  5
420
330
E3
100
AcDbEntity
  8
0
  6
Continuous
100
AcDbLine
 10
150.5974472806343
 20
156.2651269023356
 30
0.0
 11
150.5568091395329
 21
156.2667350924779
 31
0.0
  0
LINE
  5
421
330
E3
100
AcDbEntity
  8
0
  6
Continuous
100
AcDbLine
 10
150.5568091395329
 20
156.2667350924779
 30
0.0
 11
150.5148923260912
 21
156.2685689306803
 31
0.0
  0
LINE
  5
422
330
E3
100
AcDbEntity
  8
0
  6
Continuous
100
AcDbLine
 10
150.5148923260912
 20
156.2685689306803
 30
0.0
 11
150.4720048678197
 21
156.2705782729294
 31
0.0
  0
LINE
  5
423
330
E3
100
AcDbEntity
  8
0
  6
Continuous
100
AcDbLine
 10
150.4720048678197
 20
156.2705782729294
 30
0.0
 11
150.4284655373748
 21
156.2726986483508
 31
0.0
  0
LINE
  5
424
330
E3
100
AcDbEntity
  8
0
  6
Continuous
100
AcDbLine
 10
150.4284655373748
 20
156.2726986483508
 30
0.0
 11
150.3845966891279
 21
156.2748763312161
 31
0.0
  0
LINE
  5
425
330
E3
100
AcDbEntity
  8
0
  6
Continuous
100
AcDbLine
 10
150.3845966891279
 20
156.2748763312161
 30
0.0
 11
150.3407314225962
 21
156.2770575957967
 31
0.0
  0
LINE
  5
426
330
E3
100
AcDbEntity
  8
0
  6
Continuous
100
AcDbLine
 10
150.3407314225962
 20
156.2770575957967
 30
0.0
 11
150.2971920921512
 21
156.2791779712181
 31
0.0
  0
LINE
  5
427
330
E3
100
AcDbEntity
  8
0
  6
Continuous
100
AcDbLine
 10
150.2971920921512
 20
156.2791779712181
 30
0.0
 11
150.2543046338798
 21
156.281183731752
 31
0.0
  0
LINE
  5
428
330
E3
100
AcDbEntity
  8
0
  6
Continuous
100
AcDbLine
 10
150.2543046338798
 20
156.281183731752
 30
0.0
 11
150.2123842387229
 21
156.2830211516696
 31
0.0
  0
LINE
  5
429
330
E3
100
AcDbEntity
  8
0
  6
Continuous
100
AcDbLine
 10
150.2123842387229
 20
156.2830211516696
 30
0.0
 11
150.1717496793367
 21
156.2846293418118
 31
0.0
  0
LINE
  5
42A
330
E3
100
AcDbEntity
  8
0
  6
Continuous
100
AcDbLine
 10
150.1717496793367
 20
156.2846293418118
 30
0.0
 11
150.132694656371
 21
156.2859617398807
 31
0.0
  0
LINE
  5
42B
330
E3
100
AcDbEntity
  8
0
  6
Continuous
100
AcDbLine
 10
150.132694656371
 20
156.2859617398807
 30
0.0
 11
150.0955164521904
 21
156.2869610384324
 31
0.0
  0
LINE
  5
42C
330
E3
100
AcDbEntity
  8
0
  6
Continuous
100
AcDbLine
 10
150.0955164521904
 20
156.2869610384324
 30
0.0
 11
150.0604872771533
 21
156.2875806751688
 31
0.0
  0
LINE
  5
42D
330
E3
100
AcDbEntity
  8
0
  6
Continuous
100
AcDbLine
 10
150.0604872771533
 20
156.2875806751688
 30
0.0
 11
150.0278650147567
 21
156.2877776695069
 31
0.0
  0
LINE
  5
42E
330
E3
100
AcDbEntity
  8
0
  6
Continuous
100
AcDbLine
 10
150.0278650147567
 20
156.2877776695069
 30
0.0
 11
149.997893221637
 21
156.2875054591487
 31
0.0
  0
LINE
  5
42F
330
E3
100
AcDbEntity
  8
0
  6
Continuous
100
AcDbLine
 10
149.997893221637
 20
156.2875054591487
 30
0.0
 11
149.9707939641389
 21
156.2867282269419
 31
0.0
  0
LINE
  5
430
330
E3
100
AcDbEntity
  8
0
  6
Continuous
100
AcDbLine
 10
149.9707939641389
 20
156.2867282269419
 30
0.0
 11
149.9467642366007
 21
156.2854101557339
 31
0.0
  0
LINE
  5
431
330
E3
100
AcDbEntity
  8
0
  6
Continuous
100
AcDbLine
 10
149.9467642366007
 20
156.2854101557339
 30
0.0
 11
149.9259759613537
 21
156.2835190100878
 31
0.0
  0
LINE
  5
432
330
E3
100
AcDbEntity
  8
0
  6
Continuous
100
AcDbLine
 10
149.9259759613537
 20
156.2835190100878
 30
0.0
 11
149.9085903155837
 21
156.2810297179967
 31
0.0
  0
LINE
  5
433
330
E3
100
AcDbEntity
  8
0
  6
Continuous
100
AcDbLine
 10
149.9085903155837
 20
156.2810297179967
 30
0.0
 11
149.8947219141784
 21
156.2779207891693
 31
0.0
  0
LINE
  5
434
330
E3
100
AcDbEntity
  8
0
  6
Continuous
100
AcDbLine
 10
149.8947219141784
 20
156.2779207891693
 30
0.0
 11
149.8844746268797
 21
156.2741707333141
 31
0.0
  0
LINE
  5
435
330
E3
100
AcDbEntity
  8
0
  6
Continuous
100
AcDbLine
 10
149.8844746268797
 20
156.2741707333141
 30
0.0
 11
149.8779166475058
 21
156.2697707829521
 31
0.0
  0
LINE
  5
436
330
E3
100
AcDbEntity
  8
0
  6
Continuous
100
AcDbLine
 10
149.8779166475058
 20
156.2697707829521
 30
0.0
 11
149.8750928068467
 21
156.2647129169151
 31
0.0
  0
LINE
  5
437
330
E3
100
AcDbEntity
  8
0
  6
Continuous
100
AcDbLine
 10
150.8256971309245
 20
155.8970874545639
 30
0.0
 11
150.8228732902654
 21
155.8920295885269
 31
0.0
  0
LINE
  5
438
330
E3
100
AcDbEntity
  8
0
  6
Continuous
100
AcDbLine
 10
150.8228732902654
 20
155.8920295885269
 30
0.0
 11
150.8163162191185
 21
155.8876299917502
 31
0.0
  0
LINE
  5
439
330
E3
100
AcDbEntity
  8
0
  6
Continuous
100
AcDbLine
 10
150.8163162191185
 20
155.8876299917502
 30
0.0
 11
150.8060678664435
 21
155.883881968869
 31
0.0
  0
LINE
  5
43A
330
E3
100
AcDbEntity
  8
0
  6
Continuous
100
AcDbLine
 10
150.8060678664435
 20
155.883881968869
 30
0.0
 11
150.7921994650381
 21
155.8807694583263
 31
0.0
  0
LINE
  5
43B
330
E3
100
AcDbEntity
  8
0
  6
Continuous
100
AcDbLine
 10
150.7921994650381
 20
155.8807694583263
 30
0.0
 11
150.7748138192682
 21
155.8782801662352
 31
0.0
  0
LINE
  5
43C
330
E3
100
AcDbEntity
  8
0
  6
Continuous
100
AcDbLine
 10
150.7748138192682
 20
155.8782801662352
 30
0.0
 11
150.7540255440212
 21
155.876389020589
 31
0.0
  0
LINE
  5
43D
330
E3
100
AcDbEntity
  8
0
  6
Continuous
100
AcDbLine
 10
150.7540255440212
 20
155.876389020589
 30
0.0
 11
150.729995816483
 21
155.8750709493811
 31
0.0
  0
LINE
  5
43E
330
E3
100
AcDbEntity
  8
0
  6
Continuous
100
AcDbLine
 10
150.729995816483
 20
155.8750709493811
 30
0.0
 11
150.7028965589849
 21
155.8742937171742
 31
0.0
  0
LINE
  5
43F
330
E3
100
AcDbEntity
  8
0
  6
Continuous
100
AcDbLine
 10
150.7028965589849
 20
155.8742937171742
 30
0.0
 11
150.6729247658651
 21
155.8740250885313
 31
0.0
  0
LINE
  5
440
330
E3
100
AcDbEntity
  8
0
  6
Continuous
100
AcDbLine
 10
150.6729247658651
 20
155.8740250885313
 30
0.0
 11
150.6403025034686
 21
155.8742185011542
 31
0.0
  0
LINE
  5
441
330
E3
100
AcDbEntity
  8
0
  6
Continuous
100
AcDbLine
 10
150.6403025034686
 20
155.8742185011542
 30
0.0
 11
150.6052733284314
 21
155.8748417196058
 31
0.0
  0
LINE
  5
442
330
E3
100
AcDbEntity
  8
0
  6
Continuous
100
AcDbLine
 10
150.6052733284314
 20
155.8748417196058
 30
0.0
 11
150.5680951242509
 21
155.8758410181575
 31
0.0
  0
LINE
  5
443
330
E3
100
AcDbEntity
  8
0
  6
Continuous
100
AcDbLine
 10
150.5680951242509
 20
155.8758410181575
 30
0.0
 11
150.5290401012851
 21
155.8771698345111
 31
0.0
  0
LINE
  5
444
330
E3
100
AcDbEntity
  8
0
  6
Continuous
100
AcDbLine
 10
150.5290401012851
 20
155.8771698345111
 30
0.0
 11
150.488405541899
 21
155.8787816063687
 31
0.0
  0
LINE
  5
445
330
E3
100
AcDbEntity
  8
0
  6
Continuous
100
AcDbLine
 10
150.488405541899
 20
155.8787816063687
 30
0.0
 11
150.4464851467421
 21
155.880615444571
 31
0.0
  0
LINE
  5
446
330
E3
100
AcDbEntity
  8
0
  6
Continuous
100
AcDbLine
 10
150.4464851467421
 20
155.880615444571
 30
0.0
 11
150.4035976884706
 21
155.8826212051048
 31
0.0
  0
LINE
  5
447
330
E3
100
AcDbEntity
  8
0
  6
Continuous
100
AcDbLine
 10
150.4035976884706
 20
155.8826212051048
 30
0.0
 11
150.3600583580257
 21
155.8847451622416
 31
0.0
  0
LINE
  5
448
330
E3
100
AcDbEntity
  8
0
  6
Continuous
100
AcDbLine
 10
150.3600583580257
 20
155.8847451622416
 30
0.0
 11
150.316193091494
 21
155.8869228451069
 31
0.0
  0
LINE
  5
449
330
E3
100
AcDbEntity
  8
0
  6
Continuous
100
AcDbLine
 10
150.316193091494
 20
155.8869228451069
 30
0.0
 11
150.2723242432471
 21
155.8891005279722
 31
0.0
  0
LINE
  5
44A
330
E3
100
AcDbEntity
  8
0
  6
Continuous
100
AcDbLine
 10
150.2723242432471
 20
155.8891005279722
 30
0.0
 11
150.2287849128021
 21
155.8912244851089
 31
0.0
  0
LINE
  5
44B
330
E3
100
AcDbEntity
  8
0
  6
Continuous
100
AcDbLine
 10
150.2287849128021
 20
155.8912244851089
 30
0.0
 11
150.1858974545307
 21
155.8932302456427
 31
0.0
  0
LINE
  5
44C
330
E3
100
AcDbEntity
  8
0
  6
Continuous
100
AcDbLine
 10
150.1858974545307
 20
155.8932302456427
 30
0.0
 11
150.143980641089
 21
155.895064083845
 31
0.0
  0
LINE
  5
44D
330
E3
100
AcDbEntity
  8
0
  6
Continuous
100
AcDbLine
 10
150.143980641089
 20
155.895064083845
 30
0.0
 11
150.1033424999876
 21
155.8966758557026
 31
0.0
  0
LINE
  5
44E
330
E3
100
AcDbEntity
  8
0
  6
Continuous
100
AcDbLine
 10
150.1033424999876
 20
155.8966758557026
 30
0.0
 11
150.0642874770218
 21
155.8980046720562
 31
0.0
  0
LINE
  5
44F
330
E3
100
AcDbEntity
  8
0
  6
Continuous
100
AcDbLine
 10
150.0642874770218
 20
155.8980046720562
 30
0.0
 11
150.0271092728413
 21
155.8990039706079
 31
0.0
  0
LINE
  5
450
330
E3
100
AcDbEntity
  8
0
  6
Continuous
100
AcDbLine
 10
150.0271092728413
 20
155.8990039706079
 30
0.0
 11
149.9920800978042
 21
155.8996271890595
 31
0.0
  0
LINE
  5
451
330
E3
100
AcDbEntity
  8
0
  6
Continuous
100
AcDbLine
 10
149.9920800978042
 20
155.8996271890595
 30
0.0
 11
149.9594578354076
 21
155.8998241833976
 31
0.0
  0
LINE
  5
452
330
E3
100
AcDbEntity
  8
0
  6
Continuous
100
AcDbLine
 10
149.9594578354076
 20
155.8998241833976
 30
0.0
 11
149.9294860422879
 21
155.8995519730395
 31
0.0
  0
LINE
  5
453
330
E3
100
AcDbEntity
  8
0
  6
Continuous
100
AcDbLine
 10
149.9294860422879
 20
155.8995519730395
 30
0.0
 11
149.9023867847899
 21
155.8987747408326
 31
0.0
  0
LINE
  5
454
330
E3
100
AcDbEntity
  8
0
  6
Continuous
100
AcDbLine
 10
149.9023867847899
 20
155.8987747408326
 30
0.0
 11
149.8783570572515
 21
155.8974566696247
 31
0.0
  0
LINE
  5
455
330
E3
100
AcDbEntity
  8
0
  6
Continuous
100
AcDbLine
 10
149.8783570572515
 20
155.8974566696247
 30
0.0
 11
149.8575723637198
 21
155.8955655239785
 31
0.0
  0
LINE
  5
456
330
E3
100
AcDbEntity
  8
0
  6
Continuous
100
AcDbLine
 10
149.8575723637198
 20
155.8955655239785
 30
0.0
 11
149.8401831362346
 21
155.8930762318874
 31
0.0
  0
LINE
  5
457
330
E3
100
AcDbEntity
  8
0
  6
Continuous
100
AcDbLine
 10
149.8401831362346
 20
155.8930762318874
 30
0.0
 11
149.8263147348293
 21
155.8899637213447
 31
0.0
  0
LINE
  5
458
330
E3
100
AcDbEntity
  8
0
  6
Continuous
100
AcDbLine
 10
149.8263147348293
 20
155.8899637213447
 30
0.0
 11
149.8160674475306
 21
155.8862172472048
 31
0.0
  0
LINE
  5
459
330
E3
100
AcDbEntity
  8
0
  6
Continuous
100
AcDbLine
 10
149.8160674475306
 20
155.8862172472048
 30
0.0
 11
149.809509789637
 21
155.8818162135836
 31
0.0
  0
LINE
  5
45A
330
E3
100
AcDbEntity
  8
0
  6
Continuous
100
AcDbLine
 10
149.809509789637
 20
155.8818162135836
 30
0.0
 11
149.8066859489779
 21
155.8767583475467
 31
0.0
  0
LINE
  5
45B
330
E3
100
AcDbEntity
  8
0
  6
Continuous
100
AcDbLine
 10
150.7572902730557
 20
155.5091328851955
 30
0.0
 11
150.7544664323966
 21
155.5040750191585
 31
0.0
  0
LINE
  5
45C
330
E3
100
AcDbEntity
  8
0
  6
Continuous
100
AcDbLine
 10
150.7544664323966
 20
155.5040750191585
 30
0.0
 11
150.7479093612497
 21
155.4996754223818
 31
0.0
  0
LINE
  5
45D
330
E3
100
AcDbEntity
  8
0
  6
Continuous
100
AcDbLine
 10
150.7479093612497
 20
155.4996754223818
 30
0.0
 11
150.7376606870943
 21
155.4959249010444
 31
0.0
  0
LINE
  5
45E
330
E3
100
AcDbEntity
  8
0
  6
Continuous
100
AcDbLine
 10
150.7376606870943
 20
155.4959249010444
 30
0.0
 11
150.7237958674042
 21
155.492815972217
 31
0.0
  0
LINE
  5
45F
330
E3
100
AcDbEntity
  8
0
  6
Continuous
100
AcDbLine
 10
150.7237958674042
 20
155.492815972217
 30
0.0
 11
150.706406639919
 21
155.4903266801259
 31
0.0
  0
LINE
  5
460
330
E3
100
AcDbEntity
  8
0
  6
Continuous
100
AcDbLine
 10
150.706406639919
 20
155.4903266801259
 30
0.0
 11
150.6856183646721
 21
155.4884355344798
 31
0.0
  0
LINE
  5
461
330
E3
100
AcDbEntity
  8
0
  6
Continuous
100
AcDbLine
 10
150.6856183646721
 20
155.4884355344798
 30
0.0
 11
150.6615886371338
 21
155.4871174632718
 31
0.0
  0
LINE
  5
462
330
E3
100
AcDbEntity
  8
0
  6
Continuous
100
AcDbLine
 10
150.6615886371338
 20
155.4871174632718
 30
0.0
 11
150.6344893796357
 21
155.486340231065
 31
0.0
  0
LINE
  5
463
330
E3
100
AcDbEntity
  8
0
  6
Continuous
100
AcDbLine
 10
150.6344893796357
 20
155.486340231065
 30
0.0
 11
150.604517586516
 21
155.4860680207068
 31
0.0
  0
LINE
  5
464
330
E3
100
AcDbEntity
  8
0
  6
Continuous
100
AcDbLine
 10
150.604517586516
 20
155.4860680207068
 30
0.0
 11
150.5718953241195
 21
155.4862650150449
 31
0.0
  0
LINE
  5
465
330
E3
100
AcDbEntity
  8
0
  6
Continuous
100
AcDbLine
 10
150.5718953241195
 20
155.4862650150449
 30
0.0
 11
150.5368661490823
 21
155.4868846517813
 31
0.0
  0
LINE
  5
466
330
E3
100
AcDbEntity
  8
0
  6
Continuous
100
AcDbLine
 10
150.5368661490823
 20
155.4868846517813
 30
0.0
 11
150.4996879449018
 21
155.4878875320482
 31
0.0
  0
LINE
  5
467
330
E3
100
AcDbEntity
  8
0
  6
Continuous
100
AcDbLine
 10
150.4996879449018
 20
155.4878875320482
 30
0.0
 11
150.460632921936
 21
155.4892163484018
 31
0.0
  0
LINE
  5
468
330
E3
100
AcDbEntity
  8
0
  6
Continuous
100
AcDbLine
 10
150.460632921936
 20
155.4892163484018
 30
0.0
 11
150.4199983625499
 21
155.4908245385442
 31
0.0
  0
LINE
  5
469
330
E3
100
AcDbEntity
  8
0
  6
Continuous
100
AcDbLine
 10
150.4199983625499
 20
155.4908245385442
 30
0.0
 11
150.378077967393
 21
155.4926619584618
 31
0.0
  0
LINE
  5
46A
330
E3
100
AcDbEntity
  8
0
  6
Continuous
100
AcDbLine
 10
150.378077967393
 20
155.4926619584618
 30
0.0
 11
150.3351905091215
 21
155.4946677189956
 31
0.0
  0
LINE
  5
46B
330
E3
100
AcDbEntity
  8
0
  6
Continuous
100
AcDbLine
 10
150.3351905091215
 20
155.4946677189956
 30
0.0
 11
150.2916511786765
 21
155.496788094417
 31
0.0
  0
LINE
  5
46C
330
E3
100
AcDbEntity
  8
0
  6
Continuous
100
AcDbLine
 10
150.2916511786765
 20
155.496788094417
 30
0.0
 11
150.2477859121449
 21
155.4989693589976
 31
0.0
  0
LINE
  5
46D
330
E3
100
AcDbEntity
  8
0
  6
Continuous
100
AcDbLine
 10
150.2477859121449
 20
155.4989693589976
 30
0.0
 11
150.2039170638979
 21
155.5011470418629
 31
0.0
  0
LINE
  5
46E
330
E3
100
AcDbEntity
  8
0
  6
Continuous
100
AcDbLine
 10
150.2039170638979
 20
155.5011470418629
 30
0.0
 11
150.160377733453
 21
155.5032674172843
 31
0.0
  0
LINE
  5
46F
330
E3
100
AcDbEntity
  8
0
  6
Continuous
100
AcDbLine
 10
150.160377733453
 20
155.5032674172843
 30
0.0
 11
150.1174902751815
 21
155.5052767595334
 31
0.0
  0
LINE
  5
470
330
E3
100
AcDbEntity
  8
0
  6
Continuous
100
AcDbLine
 10
150.1174902751815
 20
155.5052767595334
 30
0.0
 11
150.0755734617398
 21
155.5071105977358
 31
0.0
  0
LINE
  5
471
330
E3
100
AcDbEntity
  8
0
  6
Continuous
100
AcDbLine
 10
150.0755734617398
 20
155.5071105977358
 30
0.0
 11
150.0349353206385
 21
155.5087187878781
 31
0.0
  0
LINE
  5
472
330
E3
100
AcDbEntity
  8
0
  6
Continuous
100
AcDbLine
 10
150.0349353206385
 20
155.5087187878781
 30
0.0
 11
149.9958838793879
 21
155.510051185947
 31
0.0
  0
LINE
  5
473
330
E3
100
AcDbEntity
  8
0
  6
Continuous
100
AcDbLine
 10
149.9958838793879
 20
155.510051185947
 30
0.0
 11
149.9587020934922
 21
155.5110504844986
 31
0.0
  0
LINE
  5
474
330
E3
100
AcDbEntity
  8
0
  6
Continuous
100
AcDbLine
 10
149.9587020934922
 20
155.5110504844986
 30
0.0
 11
149.9236729184551
 21
155.511670121235
 31
0.0
  0
LINE
  5
475
330
E3
100
AcDbEntity
  8
0
  6
Continuous
100
AcDbLine
 10
149.9236729184551
 20
155.511670121235
 30
0.0
 11
149.8910506560585
 21
155.5118671155731
 31
0.0
  0
LINE
  5
476
330
E3
100
AcDbEntity
  8
0
  6
Continuous
100
AcDbLine
 10
149.8910506560585
 20
155.5118671155731
 30
0.0
 11
149.8610788629388
 21
155.5115984869302
 31
0.0
  0
LINE
  5
477
330
E3
100
AcDbEntity
  8
0
  6
Continuous
100
AcDbLine
 10
149.8610788629388
 20
155.5115984869302
 30
0.0
 11
149.8339796054407
 21
155.5108212547233
 31
0.0
  0
LINE
  5
478
330
E3
100
AcDbEntity
  8
0
  6
Continuous
100
AcDbLine
 10
149.8339796054407
 20
155.5108212547233
 30
0.0
 11
149.8099498779024
 21
155.5094996018002
 31
0.0
  0
LINE
  5
479
330
E3
100
AcDbEntity
  8
0
  6
Continuous
100
AcDbLine
 10
149.8099498779024
 20
155.5094996018002
 30
0.0
 11
149.7891651843707
 21
155.5076120378692
 31
0.0
  0
LINE
  5
47A
330
E3
100
AcDbEntity
  8
0
  6
Continuous
100
AcDbLine
 10
149.7891651843707
 20
155.5076120378692
 30
0.0
 11
149.7717759568855
 21
155.5051191640629
 31
0.0
  0
LINE
  5
47B
330
E3
100
AcDbEntity
  8
0
  6
Continuous
100
AcDbLine
 10
149.7717759568855
 20
155.5051191640629
 30
0.0
 11
149.7579075554802
 21
155.5020102352355
 31
0.0
  0
LINE
  5
47C
330
E3
100
AcDbEntity
  8
0
  6
Continuous
100
AcDbLine
 10
149.7579075554802
 20
155.5020102352355
 30
0.0
 11
149.7476602681815
 21
155.4982601793803
 31
0.0
  0
LINE
  5
47D
330
E3
100
AcDbEntity
  8
0
  6
Continuous
100
AcDbLine
 10
149.7476602681815
 20
155.4982601793803
 30
0.0
 11
149.7411029317682
 21
155.4938616442152
 31
0.0
  0
LINE
  5
47E
330
E3
100
AcDbEntity
  8
0
  6
Continuous
100
AcDbLine
 10
149.7411029317682
 20
155.4938616442152
 30
0.0
 11
149.7382790911091
 21
155.4888037781782
 31
0.0
  0
LINE
  5
47F
330
E3
100
AcDbEntity
  8
0
  6
Continuous
100
AcDbLine
 10
150.6888834151869
 20
155.1211783158271
 30
0.0
 11
150.6860595745279
 21
155.1161204497901
 31
0.0
  0
LINE
  5
480
330
E3
100
AcDbEntity
  8
0
  6
Continuous
100
AcDbLine
 10
150.6860595745279
 20
155.1161204497901
 30
0.0
 11
150.6795025033809
 21
155.1117208530133
 31
0.0
  0
LINE
  5
481
330
E3
100
AcDbEntity
  8
0
  6
Continuous
100
AcDbLine
 10
150.6795025033809
 20
155.1117208530133
 30
0.0
 11
150.6692535077452
 21
155.1079714149352
 31
0.0
  0
LINE
  5
482
330
E3
100
AcDbEntity
  8
0
  6
Continuous
100
AcDbLine
 10
150.6692535077452
 20
155.1079714149352
 30
0.0
 11
150.6553886880552
 21
155.1048624861077
 31
0.0
  0
LINE
  5
483
330
E3
100
AcDbEntity
  8
0
  6
Continuous
100
AcDbLine
 10
150.6553886880552
 20
155.1048624861077
 30
0.0
 11
150.6379994605699
 21
155.1023731940167
 31
0.0
  0
LINE
  5
484
330
E3
100
AcDbEntity
  8
0
  6
Continuous
100
AcDbLine
 10
150.6379994605699
 20
155.1023731940167
 30
0.0
 11
150.6172147670381
 21
155.1004820483705
 31
0.0
  0
LINE
  5
485
330
E3
100
AcDbEntity
  8
0
  6
Continuous
100
AcDbLine
 10
150.6172147670381
 20
155.1004820483705
 30
0.0
 11
150.5931814577847
 21
155.0991639771626
 31
0.0
  0
LINE
  5
486
330
E3
100
AcDbEntity
  8
0
  6
Continuous
100
AcDbLine
 10
150.5931814577847
 20
155.0991639771626
 30
0.0
 11
150.5660822002866
 21
155.0983867449557
 31
0.0
  0
LINE
  5
487
330
E3
100
AcDbEntity
  8
0
  6
Continuous
100
AcDbLine
 10
150.5660822002866
 20
155.0983867449557
 30
0.0
 11
150.5361104071669
 21
155.0981145345975
 31
0.0
  0
LINE
  5
488
330
E3
100
AcDbEntity
  8
0
  6
Continuous
100
AcDbLine
 10
150.5361104071669
 20
155.0981145345975
 30
0.0
 11
150.5034881447703
 21
155.0983115289357
 31
0.0
  0
LINE
  5
489
330
E3
100
AcDbEntity
  8
0
  6
Continuous
100
AcDbLine
 10
150.5034881447703
 20
155.0983115289357
 30
0.0
 11
150.4684589697332
 21
155.098931165672
 31
0.0
  0
LINE
  5
48A
330
E3
100
AcDbEntity
  8
0
  6
Continuous
100
AcDbLine
 10
150.4684589697332
 20
155.098931165672
 30
0.0
 11
150.4312807655527
 21
155.0999304642237
 31
0.0
  0
LINE
  5
48B
330
E3
100
AcDbEntity
  8
0
  6
Continuous
100
AcDbLine
 10
150.4312807655527
 20
155.0999304642237
 30
0.0
 11
150.3922257425869
 21
155.1012628622926
 31
0.0
  0
LINE
  5
48C
330
E3
100
AcDbEntity
  8
0
  6
Continuous
100
AcDbLine
 10
150.3922257425869
 20
155.1012628622926
 30
0.0
 11
150.3515911832008
 21
155.1028710524349
 31
0.0
  0
LINE
  5
48D
330
E3
100
AcDbEntity
  8
0
  6
Continuous
100
AcDbLine
 10
150.3515911832008
 20
155.1028710524349
 30
0.0
 11
150.3096707880438
 21
155.1047084723525
 31
0.0
  0
LINE
  5
48E
330
E3
100
AcDbEntity
  8
0
  6
Continuous
100
AcDbLine
 10
150.3096707880438
 20
155.1047084723525
 30
0.0
 11
150.2667833297724
 21
155.1067142328863
 31
0.0
  0
LINE
  5
48F
330
E3
100
AcDbEntity
  8
0
  6
Continuous
100
AcDbLine
 10
150.2667833297724
 20
155.1067142328863
 30
0.0
 11
150.2232439993274
 21
155.1088346083078
 31
0.0
  0
LINE
  5
490
330
E3
100
AcDbEntity
  8
0
  6
Continuous
100
AcDbLine
 10
150.2232439993274
 20
155.1088346083078
 30
0.0
 11
150.1793787327958
 21
155.1110122911731
 31
0.0
  0
LINE
  5
491
330
E3
100
AcDbEntity
  8
0
  6
Continuous
100
AcDbLine
 10
150.1793787327958
 20
155.1110122911731
 30
0.0
 11
150.1355134662641
 21
155.1131935557536
 31
0.0
  0
LINE
  5
492
330
E3
100
AcDbEntity
  8
0
  6
Continuous
100
AcDbLine
 10
150.1355134662641
 20
155.1131935557536
 30
0.0
 11
150.0919741358191
 21
155.1153139311751
 31
0.0
  0
LINE
  5
493
330
E3
100
AcDbEntity
  8
0
  6
Continuous
100
AcDbLine
 10
150.0919741358191
 20
155.1153139311751
 30
0.0
 11
150.0490830958324
 21
155.1173196917089
 31
0.0
  0
LINE
  5
494
330
E3
100
AcDbEntity
  8
0
  6
Continuous
100
AcDbLine
 10
150.0490830958324
 20
155.1173196917089
 30
0.0
 11
150.0071662823908
 21
155.1191571116265
 31
0.0
  0
LINE
  5
495
330
E3
100
AcDbEntity
  8
0
  6
Continuous
100
AcDbLine
 10
150.0071662823908
 20
155.1191571116265
 30
0.0
 11
149.9665281412893
 21
155.1207653017688
 31
0.0
  0
LINE
  5
496
330
E3
100
AcDbEntity
  8
0
  6
Continuous
100
AcDbLine
 10
149.9665281412893
 20
155.1207653017688
 30
0.0
 11
149.9274767000388
 21
155.1220976998377
 31
0.0
  0
LINE
  5
497
330
E3
100
AcDbEntity
  8
0
  6
Continuous
100
AcDbLine
 10
149.9274767000388
 20
155.1220976998377
 30
0.0
 11
149.8902949141431
 21
155.1230969983894
 31
0.0
  0
LINE
  5
498
330
E3
100
AcDbEntity
  8
0
  6
Continuous
100
AcDbLine
 10
149.8902949141431
 20
155.1230969983894
 30
0.0
 11
149.8552657391059
 21
155.1237166351257
 31
0.0
  0
LINE
  5
499
330
E3
100
AcDbEntity
  8
0
  6
Continuous
100
AcDbLine
 10
149.8552657391059
 20
155.1237166351257
 30
0.0
 11
149.8226434767093
 21
155.1239136294639
 31
0.0
  0
LINE
  5
49A
330
E3
100
AcDbEntity
  8
0
  6
Continuous
100
AcDbLine
 10
149.8226434767093
 20
155.1239136294639
 30
0.0
 11
149.7926752653049
 21
155.1236414191057
 31
0.0
  0
LINE
  5
49B
330
E3
100
AcDbEntity
  8
0
  6
Continuous
100
AcDbLine
 10
149.7926752653049
 20
155.1236414191057
 30
0.0
 11
149.7655724260916
 21
155.1228641868988
 31
0.0
  0
LINE
  5
49C
330
E3
100
AcDbEntity
  8
0
  6
Continuous
100
AcDbLine
 10
149.7655724260916
 20
155.1228641868988
 30
0.0
 11
149.7415426985533
 21
155.1215461156909
 31
0.0
  0
LINE
  5
49D
330
E3
100
AcDbEntity
  8
0
  6
Continuous
100
AcDbLine
 10
149.7415426985533
 20
155.1215461156909
 30
0.0
 11
149.7207580050215
 21
155.1196549700447
 31
0.0
  0
LINE
  5
49E
330
E3
100
AcDbEntity
  8
0
  6
Continuous
100
AcDbLine
 10
149.7207580050215
 20
155.1196549700447
 30
0.0
 11
149.7033687775363
 21
155.1171656779536
 31
0.0
  0
LINE
  5
49F
330
E3
100
AcDbEntity
  8
0
  6
Continuous
100
AcDbLine
 10
149.7033687775363
 20
155.1171656779536
 30
0.0
 11
149.689500376131
 21
155.1140567491262
 31
0.0
  0
LINE
  5
4A0
330
E3
100
AcDbEntity
  8
0
  6
Continuous
100
AcDbLine
 10
149.689500376131
 20
155.1140567491262
 30
0.0
 11
149.6792530888324
 21
155.110306693271
 31
0.0
  0
LINE
  5
4A1
330
E3
100
AcDbEntity
  8
0
  6
Continuous
100
AcDbLine
 10
149.6792530888324
 20
155.110306693271
 30
0.0
 11
149.6726960738994
 21
155.1059070748467
 31
0.0
  0
LINE
  5
4A2
330
E3
100
AcDbEntity
  8
0
  6
Continuous
100
AcDbLine
 10
149.6726960738994
 20
155.1059070748467
 30
0.0
 11
149.6698722332403
 21
155.1008492088097
 31
0.0
  0
LINE
  5
4A3
330
E3
100
AcDbEntity
  8
0
  6
Continuous
100
AcDbLine
 10
150.6204765573181
 20
154.7332237464586
 30
0.0
 11
150.6176527166591
 21
154.7281658804216
 31
0.0
  0
LINE
  5
4A4
330
E3
100
AcDbEntity
  8
0
  6
Continuous
100
AcDbLine
 10
150.6176527166591
 20
154.7281658804216
 30
0.0
 11
150.6110956455121
 21
154.7237662836448
 31
0.0
  0
LINE
  5
4A5
330
E3
100
AcDbEntity
  8
0
  6
Continuous
100
AcDbLine
 10
150.6110956455121
 20
154.7237662836448
 30
0.0
 11
150.6008463283961
 21
154.7200179288259
 31
0.0
  0
LINE
  5
4A6
330
E3
100
AcDbEntity
  8
0
  6
Continuous
100
AcDbLine
 10
150.6008463283961
 20
154.7200179288259
 30
0.0
 11
150.586981508706
 21
154.7169054182833
 31
0.0
  0
LINE
  5
4A7
330
E3
100
AcDbEntity
  8
0
  6
Continuous
100
AcDbLine
 10
150.586981508706
 20
154.7169054182833
 30
0.0
 11
150.5695922812208
 21
154.7144161261922
 31
0.0
  0
LINE
  5
4A8
330
E3
100
AcDbEntity
  8
0
  6
Continuous
100
AcDbLine
 10
150.5695922812208
 20
154.7144161261922
 30
0.0
 11
150.5488075876891
 21
154.712524980546
 31
0.0
  0
LINE
  5
4A9
330
E3
100
AcDbEntity
  8
0
  6
Continuous
100
AcDbLine
 10
150.5488075876891
 20
154.712524980546
 30
0.0
 11
150.5247742784355
 21
154.711206909338
 31
0.0
  0
LINE
  5
4AA
330
E3
100
AcDbEntity
  8
0
  6
Continuous
100
AcDbLine
 10
150.5247742784355
 20
154.711206909338
 30
0.0
 11
150.4976750209375
 21
154.7104296771312
 31
0.0
  0
LINE
  5
4AB
330
E3
100
AcDbEntity
  8
0
  6
Continuous
100
AcDbLine
 10
150.4976750209375
 20
154.7104296771312
 30
0.0
 11
150.4677032278178
 21
154.7101610484883
 31
0.0
  0
LINE
  5
4AC
330
E3
100
AcDbEntity
  8
0
  6
Continuous
100
AcDbLine
 10
150.4677032278178
 20
154.7101610484883
 30
0.0
 11
150.4350845471365
 21
154.7103544611111
 31
0.0
  0
LINE
  5
4AD
330
E3
100
AcDbEntity
  8
0
  6
Continuous
100
AcDbLine
 10
150.4350845471365
 20
154.7103544611111
 30
0.0
 11
150.4000517903841
 21
154.7109776795627
 31
0.0
  0
LINE
  5
4AE
330
E3
100
AcDbEntity
  8
0
  6
Continuous
100
AcDbLine
 10
150.4000517903841
 20
154.7109776795627
 30
0.0
 11
150.3628735862035
 21
154.7119769781144
 31
0.0
  0
LINE
  5
4AF
330
E3
100
AcDbEntity
  8
0
  6
Continuous
100
AcDbLine
 10
150.3628735862035
 20
154.7119769781144
 30
0.0
 11
150.3238185632378
 21
154.7133057944681
 31
0.0
  0
LINE
  5
4B0
330
E3
100
AcDbEntity
  8
0
  6
Continuous
100
AcDbLine
 10
150.3238185632378
 20
154.7133057944681
 30
0.0
 11
150.2831840038516
 21
154.7149175663256
 31
0.0
  0
LINE
  5
4B1
330
E3
100
AcDbEntity
  8
0
  6
Continuous
100
AcDbLine
 10
150.2831840038516
 20
154.7149175663256
 30
0.0
 11
150.2412636086947
 21
154.716751404528
 31
0.0
  0
LINE
  5
4B2
330
E3
100
AcDbEntity
  8
0
  6
Continuous
100
AcDbLine
 10
150.2412636086947
 20
154.716751404528
 30
0.0
 11
150.1983761504233
 21
154.7187571650618
 31
0.0
  0
LINE
  5
4B3
330
E3
100
AcDbEntity
  8
0
  6
Continuous
100
AcDbLine
 10
150.1983761504233
 20
154.7187571650618
 30
0.0
 11
150.1548368199783
 21
154.7208811221985
 31
0.0
  0
LINE
  5
4B4
330
E3
100
AcDbEntity
  8
0
  6
Continuous
100
AcDbLine
 10
150.1548368199783
 20
154.7208811221985
 30
0.0
 11
150.1109715534466
 21
154.7230588050638
 31
0.0
  0
LINE
  5
4B5
330
E3
100
AcDbEntity
  8
0
  6
Continuous
100
AcDbLine
 10
150.1109715534466
 20
154.7230588050638
 30
0.0
 11
150.0671062869149
 21
154.7252364879291
 31
0.0
  0
LINE
  5
4B6
330
E3
100
AcDbEntity
  8
0
  6
Continuous
100
AcDbLine
 10
150.0671062869149
 20
154.7252364879291
 30
0.0
 11
150.0235669564699
 21
154.7273604450658
 31
0.0
  0
LINE
  5
4B7
330
E3
100
AcDbEntity
  8
0
  6
Continuous
100
AcDbLine
 10
150.0235669564699
 20
154.7273604450658
 30
0.0
 11
149.9806759164833
 21
154.7293662055996
 31
0.0
  0
LINE
  5
4B8
330
E3
100
AcDbEntity
  8
0
  6
Continuous
100
AcDbLine
 10
149.9806759164833
 20
154.7293662055996
 30
0.0
 11
149.9387591030416
 21
154.731200043802
 31
0.0
  0
LINE
  5
4B9
330
E3
100
AcDbEntity
  8
0
  6
Continuous
100
AcDbLine
 10
149.9387591030416
 20
154.731200043802
 30
0.0
 11
149.8981209619402
 21
154.7328118156595
 31
0.0
  0
LINE
  5
4BA
330
E3
100
AcDbEntity
  8
0
  6
Continuous
100
AcDbLine
 10
149.8981209619402
 20
154.7328118156595
 30
0.0
 11
149.8590695206897
 21
154.7341406320132
 31
0.0
  0
LINE
  5
4BB
330
E3
100
AcDbEntity
  8
0
  6
Continuous
100
AcDbLine
 10
149.8590695206897
 20
154.7341406320132
 30
0.0
 11
149.8218877347939
 21
154.7351399305648
 31
0.0
  0
LINE
  5
4BC
330
E3
100
AcDbEntity
  8
0
  6
Continuous
100
AcDbLine
 10
149.8218877347939
 20
154.7351399305648
 30
0.0
 11
149.7868585597568
 21
154.7357631490164
 31
0.0
  0
LINE
  5
4BD
330
E3
100
AcDbEntity
  8
0
  6
Continuous
100
AcDbLine
 10
149.7868585597568
 20
154.7357631490164
 30
0.0
 11
149.7542362973602
 21
154.7359601433546
 31
0.0
  0
LINE
  5
4BE
330
E3
100
AcDbEntity
  8
0
  6
Continuous
100
AcDbLine
 10
149.7542362973602
 20
154.7359601433546
 30
0.0
 11
149.7242680859557
 21
154.7356879329964
 31
0.0
  0
LINE
  5
4BF
330
E3
100
AcDbEntity
  8
0
  6
Continuous
100
AcDbLine
 10
149.7242680859557
 20
154.7356879329964
 30
0.0
 11
149.6971652467424
 21
154.7349107007895
 31
0.0
  0
LINE
  5
4C0
330
E3
100
AcDbEntity
  8
0
  6
Continuous
100
AcDbLine
 10
149.6971652467424
 20
154.7349107007895
 30
0.0
 11
149.6731355192042
 21
154.7335926295816
 31
0.0
  0
LINE
  5
4C1
330
E3
100
AcDbEntity
  8
0
  6
Continuous
100
AcDbLine
 10
149.6731355192042
 20
154.7335926295816
 30
0.0
 11
149.6523508256724
 21
154.7317014839354
 31
0.0
  0
LINE
  5
4C2
330
E3
100
AcDbEntity
  8
0
  6
Continuous
100
AcDbLine
 10
149.6523508256724
 20
154.7317014839354
 30
0.0
 11
149.6349615981872
 21
154.7292121918443
 31
0.0
  0
LINE
  5
4C3
330
E3
100
AcDbEntity
  8
0
  6
Continuous
100
AcDbLine
 10
149.6349615981872
 20
154.7292121918443
 30
0.0
 11
149.6210931967819
 21
154.7260996813017
 31
0.0
  0
LINE
  5
4C4
330
E3
100
AcDbEntity
  8
0
  6
Continuous
100
AcDbLine
 10
149.6210931967819
 20
154.7260996813017
 30
0.0
 11
149.6108459094832
 21
154.7223532071617
 31
0.0
  0
LINE
  5
4C5
330
E3
100
AcDbEntity
  8
0
  6
Continuous
100
AcDbLine
 10
149.6108459094832
 20
154.7223532071617
 30
0.0
 11
149.6042892160306
 21
154.7179525054783
 31
0.0
  0
LINE
  5
4C6
330
E3
100
AcDbEntity
  8
0
  6
Continuous
100
AcDbLine
 10
149.6042892160306
 20
154.7179525054783
 30
0.0
 11
149.6014653753715
 21
154.7128946394413
 31
0.0
  0
LINE
  5
4C7
330
E3
100
AcDbEntity
  8
0
  6
Continuous
100
AcDbLine
 10
150.5520696994493
 20
154.3452691770901
 30
0.0
 11
150.5492458587903
 21
154.3402113110532
 31
0.0
  0
LINE
  5
4C8
330
E3
100
AcDbEntity
  8
0
  6
Continuous
100
AcDbLine
 10
150.5492458587903
 20
154.3402113110532
 30
0.0
 11
150.5426887876434
 21
154.3358117142764
 31
0.0
  0
LINE
  5
4C9
330
E3
100
AcDbEntity
  8
0
  6
Continuous
100
AcDbLine
 10
150.5426887876434
 20
154.3358117142764
 30
0.0
 11
150.5324427307622
 21
154.3320644427167
 31
0.0
  0
LINE
  5
4CA
330
E3
100
AcDbEntity
  8
0
  6
Continuous
100
AcDbLine
 10
150.5324427307622
 20
154.3320644427167
 30
0.0
 11
150.5185743293569
 21
154.328951932174
 31
0.0
  0
LINE
  5
4CB
330
E3
100
AcDbEntity
  8
0
  6
Continuous
100
AcDbLine
 10
150.5185743293569
 20
154.328951932174
 30
0.0
 11
150.5011851018717
 21
154.3264626400829
 31
0.0
  0
LINE
  5
4CC
330
E3
100
AcDbEntity
  8
0
  6
Continuous
100
AcDbLine
 10
150.5011851018717
 20
154.3264626400829
 30
0.0
 11
150.4804004083399
 21
154.3245714944367
 31
0.0
  0
LINE
  5
4CD
330
E3
100
AcDbEntity
  8
0
  6
Continuous
100
AcDbLine
 10
150.4804004083399
 20
154.3245714944367
 30
0.0
 11
150.4563670990864
 21
154.3232534232287
 31
0.0
  0
LINE
  5
4CE
330
E3
100
AcDbEntity
  8
0
  6
Continuous
100
AcDbLine
 10
150.4563670990864
 20
154.3232534232287
 30
0.0
 11
150.4292678415883
 21
154.3224761910219
 31
0.0
  0
LINE
  5
4CF
330
E3
100
AcDbEntity
  8
0
  6
Continuous
100
AcDbLine
 10
150.4292678415883
 20
154.3224761910219
 30
0.0
 11
150.3992960484686
 21
154.3222039806637
 31
0.0
  0
LINE
  5
4D0
330
E3
100
AcDbEntity
  8
0
  6
Continuous
100
AcDbLine
 10
150.3992960484686
 20
154.3222039806637
 30
0.0
 11
150.3666773677873
 21
154.3224009750019
 31
0.0
  0
LINE
  5
4D1
330
E3
100
AcDbEntity
  8
0
  6
Continuous
100
AcDbLine
 10
150.3666773677873
 20
154.3224009750019
 30
0.0
 11
150.3316446110349
 21
154.3230206117382
 31
0.0
  0
LINE
  5
4D2
330
E3
100
AcDbEntity
  8
0
  6
Continuous
100
AcDbLine
 10
150.3316446110349
 20
154.3230206117382
 30
0.0
 11
150.2944664068544
 21
154.3240234920051
 31
0.0
  0
LINE
  5
4D3
330
E3
100
AcDbEntity
  8
0
  6
Continuous
100
AcDbLine
 10
150.2944664068544
 20
154.3240234920051
 30
0.0
 11
150.2554149656039
 21
154.3253523083588
 31
0.0
  0
LINE
  5
4D4
330
E3
100
AcDbEntity
  8
0
  6
Continuous
100
AcDbLine
 10
150.2554149656039
 20
154.3253523083588
 30
0.0
 11
150.2147768245025
 21
154.3269604985011
 31
0.0
  0
LINE
  5
4D5
330
E3
100
AcDbEntity
  8
0
  6
Continuous
100
AcDbLine
 10
150.2147768245025
 20
154.3269604985011
 30
0.0
 11
150.1728564293456
 21
154.3287979184187
 31
0.0
  0
LINE
  5
4D6
330
E3
100
AcDbEntity
  8
0
  6
Continuous
100
AcDbLine
 10
150.1728564293456
 20
154.3287979184187
 30
0.0
 11
150.1299689710741
 21
154.3308036789525
 31
0.0
  0
LINE
  5
4D7
330
E3
100
AcDbEntity
  8
0
  6
Continuous
100
AcDbLine
 10
150.1299689710741
 20
154.3308036789525
 30
0.0
 11
150.0864296406292
 21
154.332924054374
 31
0.0
  0
LINE
  5
4D8
330
E3
100
AcDbEntity
  8
0
  6
Continuous
100
AcDbLine
 10
150.0864296406292
 20
154.332924054374
 30
0.0
 11
150.0425643740975
 21
154.3351053189545
 31
0.0
  0
LINE
  5
4D9
330
E3
100
AcDbEntity
  8
0
  6
Continuous
100
AcDbLine
 10
150.0425643740975
 20
154.3351053189545
 30
0.0
 11
149.9986991075658
 21
154.3372830018199
 31
0.0
  0
LINE
  5
4DA
330
E3
100
AcDbEntity
  8
0
  6
Continuous
100
AcDbLine
 10
149.9986991075658
 20
154.3372830018199
 30
0.0
 11
149.9551597771209
 21
154.3394033772413
 31
0.0
  0
LINE
  5
4DB
330
E3
100
AcDbEntity
  8
0
  6
Continuous
100
AcDbLine
 10
149.9551597771209
 20
154.3394033772413
 30
0.0
 11
149.9122687371342
 21
154.3414127194904
 31
0.0
  0
LINE
  5
4DC
330
E3
100
AcDbEntity
  8
0
  6
Continuous
100
AcDbLine
 10
149.9122687371342
 20
154.3414127194904
 30
0.0
 11
149.8703519236925
 21
154.3432465576927
 31
0.0
  0
LINE
  5
4DD
330
E3
100
AcDbEntity
  8
0
  6
Continuous
100
AcDbLine
 10
149.8703519236925
 20
154.3432465576927
 30
0.0
 11
149.8297137825911
 21
154.3448583295502
 31
0.0
  0
LINE
  5
4DE
330
E3
100
AcDbEntity
  8
0
  6
Continuous
100
AcDbLine
 10
149.8297137825911
 20
154.3448583295502
 30
0.0
 11
149.7906623413405
 21
154.3461871459039
 31
0.0
  0
LINE
  5
4DF
330
E3
100
AcDbEntity
  8
0
  6
Continuous
100
AcDbLine
 10
149.7906623413405
 20
154.3461871459039
 30
0.0
 11
149.7534805554448
 21
154.3471864444556
 31
0.0
  0
LINE
  5
4E0
330
E3
100
AcDbEntity
  8
0
  6
Continuous
100
AcDbLine
 10
149.7534805554448
 20
154.3471864444556
 30
0.0
 11
149.7184513804077
 21
154.3478096629071
 31
0.0
  0
LINE
  5
4E1
330
E3
100
AcDbEntity
  8
0
  6
Continuous
100
AcDbLine
 10
149.7184513804077
 20
154.3478096629071
 30
0.0
 11
149.6858326997263
 21
154.3480030755301
 31
0.0
  0
LINE
  5
4E2
330
E3
100
AcDbEntity
  8
0
  6
Continuous
100
AcDbLine
 10
149.6858326997263
 20
154.3480030755301
 30
0.0
 11
149.6558609066066
 21
154.3477344468872
 31
0.0
  0
LINE
  5
4E3
330
E3
100
AcDbEntity
  8
0
  6
Continuous
100
AcDbLine
 10
149.6558609066066
 20
154.3477344468872
 30
0.0
 11
149.6287580673933
 21
154.3469572146803
 31
0.0
  0
LINE
  5
4E4
330
E3
100
AcDbEntity
  8
0
  6
Continuous
100
AcDbLine
 10
149.6287580673933
 20
154.3469572146803
 30
0.0
 11
149.6047283398551
 21
154.3456391434723
 31
0.0
  0
LINE
  5
4E5
330
E3
100
AcDbEntity
  8
0
  6
Continuous
100
AcDbLine
 10
149.6047283398551
 20
154.3456391434723
 30
0.0
 11
149.5839436463233
 21
154.3437479978262
 31
0.0
  0
LINE
  5
4E6
330
E3
100
AcDbEntity
  8
0
  6
Continuous
100
AcDbLine
 10
149.5839436463233
 20
154.3437479978262
 30
0.0
 11
149.5665544188381
 21
154.3412587057351
 31
0.0
  0
LINE
  5
4E7
330
E3
100
AcDbEntity
  8
0
  6
Continuous
100
AcDbLine
 10
149.5665544188381
 20
154.3412587057351
 30
0.0
 11
149.5526860174328
 21
154.3381461951924
 31
0.0
  0
LINE
  5
4E8
330
E3
100
AcDbEntity
  8
0
  6
Continuous
100
AcDbLine
 10
149.5526860174328
 20
154.3381461951924
 30
0.0
 11
149.5424387301341
 21
154.3343961393372
 31
0.0
  0
LINE
  5
4E9
330
E3
100
AcDbEntity
  8
0
  6
Continuous
100
AcDbLine
 10
149.5424387301341
 20
154.3343961393372
 30
0.0
 11
149.5358823581618
 21
154.3299979361098
 31
0.0
  0
LINE
  5
4EA
330
E3
100
AcDbEntity
  8
0
  6
Continuous
100
AcDbLine
 10
149.5358823581618
 20
154.3299979361098
 30
0.0
 11
149.5330585175027
 21
154.3249400700729
 31
0.0
  0
LINE
  5
4EB
330
E3
100
AcDbEntity
  8
0
  6
Continuous
100
AcDbLine
 10
150.4836628415806
 20
153.9573146077217
 30
0.0
 11
150.4808390009215
 21
153.9522567416847
 31
0.0
  0
LINE
  5
4EC
330
E3
100
AcDbEntity
  8
0
  6
Continuous
100
AcDbLine
 10
150.4808390009215
 20
153.9522567416847
 30
0.0
 11
150.4742819297745
 21
153.9478571449079
 31
0.0
  0
LINE
  5
4ED
330
E3
100
AcDbEntity
  8
0
  6
Continuous
100
AcDbLine
 10
150.4742819297745
 20
153.9478571449079
 30
0.0
 11
150.464035551413
 21
153.9441073748921
 31
0.0
  0
LINE
  5
4EE
330
E3
100
AcDbEntity
  8
0
  6
Continuous
100
AcDbLine
 10
150.464035551413
 20
153.9441073748921
 30
0.0
 11
150.4501671500078
 21
153.9409984460647
 31
0.0
  0
LINE
  5
4EF
330
E3
100
AcDbEntity
  8
0
  6
Continuous
100
AcDbLine
 10
150.4501671500078
 20
153.9409984460647
 30
0.0
 11
150.4327779225225
 21
153.9385091539736
 31
0.0
  0
LINE
  5
4F0
330
E3
100
AcDbEntity
  8
0
  6
Continuous
100
AcDbLine
 10
150.4327779225225
 20
153.9385091539736
 30
0.0
 11
150.4119932289908
 21
153.9366180083275
 31
0.0
  0
LINE
  5
4F1
330
E3
100
AcDbEntity
  8
0
  6
Continuous
100
AcDbLine
 10
150.4119932289908
 20
153.9366180083275
 30
0.0
 11
150.3879635014525
 21
153.9352999371195
 31
0.0
  0
LINE
  5
4F2
330
E3
100
AcDbEntity
  8
0
  6
Continuous
100
AcDbLine
 10
150.3879635014525
 20
153.9352999371195
 30
0.0
 11
150.3608606622392
 21
153.9345227049126
 31
0.0
  0
LINE
  5
4F3
330
E3
100
AcDbEntity
  8
0
  6
Continuous
100
AcDbLine
 10
150.3608606622392
 20
153.9345227049126
 30
0.0
 11
150.3308888691195
 21
153.9342504945545
 31
0.0
  0
LINE
  5
4F4
330
E3
100
AcDbEntity
  8
0
  6
Continuous
100
AcDbLine
 10
150.3308888691195
 20
153.9342504945545
 30
0.0
 11
150.2982701884382
 21
153.9344474888926
 31
0.0
  0
LINE
  5
4F5
330
E3
100
AcDbEntity
  8
0
  6
Continuous
100
AcDbLine
 10
150.2982701884382
 20
153.9344474888926
 30
0.0
 11
150.2632374316858
 21
153.935067125629
 31
0.0
  0
LINE
  5
4F6
330
E3
100
AcDbEntity
  8
0
  6
Continuous
100
AcDbLine
 10
150.2632374316858
 20
153.935067125629
 30
0.0
 11
150.2260592275053
 21
153.9360664241806
 31
0.0
  0
LINE
  5
4F7
330
E3
100
AcDbEntity
  8
0
  6
Continuous
100
AcDbLine
 10
150.2260592275053
 20
153.9360664241806
 30
0.0
 11
150.1870077862548
 21
153.9373988222495
 31
0.0
  0
LINE
  5
4F8
330
E3
100
AcDbEntity
  8
0
  6
Continuous
100
AcDbLine
 10
150.1870077862548
 20
153.9373988222495
 30
0.0
 11
150.1463696451534
 21
153.9390070123918
 31
0.0
  0
LINE
  5
4F9
330
E3
100
AcDbEntity
  8
0
  6
Continuous
100
AcDbLine
 10
150.1463696451534
 20
153.9390070123918
 30
0.0
 11
150.1044492499964
 21
153.9408444323094
 31
0.0
  0
LINE
  5
4FA
330
E3
100
AcDbEntity
  8
0
  6
Continuous
100
AcDbLine
 10
150.1044492499964
 20
153.9408444323094
 30
0.0
 11
150.061561791725
 21
153.9428501928432
 31
0.0
  0
LINE
  5
4FB
330
E3
100
AcDbEntity
  8
0
  6
Continuous
100
AcDbLine
 10
150.061561791725
 20
153.9428501928432
 30
0.0
 11
150.0180224612801
 21
153.9449705682647
 31
0.0
  0
LINE
  5
4FC
330
E3
100
AcDbEntity
  8
0
  6
Continuous
100
AcDbLine
 10
150.0180224612801
 20
153.9449705682647
 30
0.0
 11
149.9741571947483
 21
153.9471518328452
 31
0.0
  0
LINE
  5
4FD
330
E3
100
AcDbEntity
  8
0
  6
Continuous
100
AcDbLine
 10
149.9741571947483
 20
153.9471518328452
 30
0.0
 11
149.9302919282167
 21
153.9493295157105
 31
0.0
  0
LINE
  5
4FE
330
E3
100
AcDbEntity
  8
0
  6
Continuous
100
AcDbLine
 10
149.9302919282167
 20
153.9493295157105
 30
0.0
 11
149.8867525977717
 21
153.9514498911321
 31
0.0
  0
LINE
  5
4FF
330
E3
100
AcDbEntity
  8
0
  6
Continuous
100
AcDbLine
 10
149.8867525977717
 20
153.9514498911321
 30
0.0
 11
149.8438651395003
 21
153.9534556516658
 31
0.0
  0
LINE
  5
500
330
E3
100
AcDbEntity
  8
0
  6
Continuous
100
AcDbLine
 10
149.8438651395003
 20
153.9534556516658
 30
0.0
 11
149.8019447443433
 21
153.9552930715834
 31
0.0
  0
LINE
  5
501
330
E3
100
AcDbEntity
  8
0
  6
Continuous
100
AcDbLine
 10
149.8019447443433
 20
153.9552930715834
 30
0.0
 11
149.7613066032419
 21
153.9569012617257
 31
0.0
  0
LINE
  5
502
330
E3
100
AcDbEntity
  8
0
  6
Continuous
100
AcDbLine
 10
149.7613066032419
 20
153.9569012617257
 30
0.0
 11
149.7222551619915
 21
153.9582336597946
 31
0.0
  0
LINE
  5
503
330
E3
100
AcDbEntity
  8
0
  6
Continuous
100
AcDbLine
 10
149.7222551619915
 20
153.9582336597946
 30
0.0
 11
149.6850769578109
 21
153.9592329583463
 31
0.0
  0
LINE
  5
504
330
E3
100
AcDbEntity
  8
0
  6
Continuous
100
AcDbLine
 10
149.6850769578109
 20
153.9592329583463
 30
0.0
 11
149.6500442010585
 21
153.9598525950827
 31
0.0
  0
LINE
  5
505
330
E3
100
AcDbEntity
  8
0
  6
Continuous
100
AcDbLine
 10
149.6500442010585
 20
153.9598525950827
 30
0.0
 11
149.6174255203772
 21
153.9600495894208
 31
0.0
  0
LINE
  5
506
330
E3
100
AcDbEntity
  8
0
  6
Continuous
100
AcDbLine
 10
149.6174255203772
 20
153.9600495894208
 30
0.0
 11
149.5874537272575
 21
153.9597773790626
 31
0.0
  0
LINE
  5
507
330
E3
100
AcDbEntity
  8
0
  6
Continuous
100
AcDbLine
 10
149.5874537272575
 20
153.9597773790626
 30
0.0
 11
149.5603508880442
 21
153.9590001468558
 31
0.0
  0
LINE
  5
508
330
E3
100
AcDbEntity
  8
0
  6
Continuous
100
AcDbLine
 10
149.5603508880442
 20
153.9590001468558
 30
0.0
 11
149.5363211605059
 21
153.9576820756478
 31
0.0
  0
LINE
  5
509
330
E3
100
AcDbEntity
  8
0
  6
Continuous
100
AcDbLine
 10
149.5363211605059
 20
153.9576820756478
 30
0.0
 11
149.5155364669742
 21
153.9557909300017
 31
0.0
  0
LINE
  5
50A
330
E3
100
AcDbEntity
  8
0
  6
Continuous
100
AcDbLine
 10
149.5155364669742
 20
153.9557909300017
 30
0.0
 11
149.498147239489
 21
153.9533016379106
 31
0.0
  0
LINE
  5
50B
330
E3
100
AcDbEntity
  8
0
  6
Continuous
100
AcDbLine
 10
149.498147239489
 20
153.9533016379106
 30
0.0
 11
149.4842788380837
 21
153.9501927090832
 31
0.0
  0
LINE
  5
50C
330
E3
100
AcDbEntity
  8
0
  6
Continuous
100
AcDbLine
 10
149.4842788380837
 20
153.9501927090832
 30
0.0
 11
149.4740315507849
 21
153.9464426532279
 31
0.0
  0
LINE
  5
50D
330
E3
100
AcDbEntity
  8
0
  6
Continuous
100
AcDbLine
 10
149.4740315507849
 20
153.9464426532279
 30
0.0
 11
149.467475500293
 21
153.9420433667414
 31
0.0
  0
LINE
  5
50E
330
E3
100
AcDbEntity
  8
0
  6
Continuous
100
AcDbLine
 10
149.467475500293
 20
153.9420433667414
 30
0.0
 11
149.4646516596339
 21
153.9369855007044
 31
0.0
  0
LINE
  5
50F
330
E3
100
AcDbEntity
  8
0
  6
Continuous
100
AcDbLine
 10
150.4152559837117
 20
153.5693600383533
 30
0.0
 11
150.4124321430527
 21
153.5643021723162
 31
0.0
  0
LINE
  5
510
330
E3
100
AcDbEntity
  8
0
  6
Continuous
100
AcDbLine
 10
150.4124321430527
 20
153.5643021723162
 30
0.0
 11
150.4058750719058
 21
153.5599025755395
 31
0.0
  0
LINE
  5
511
330
E3
100
AcDbEntity
  8
0
  6
Continuous
100
AcDbLine
 10
150.4058750719058
 20
153.5599025755395
 30
0.0
 11
150.3956283720639
 21
153.5561538887829
 31
0.0
  0
LINE
  5
512
330
E3
100
AcDbEntity
  8
0
  6
Continuous
100
AcDbLine
 10
150.3956283720639
 20
153.5561538887829
 30
0.0
 11
150.3817599706586
 21
153.5530413782402
 31
0.0
  0
LINE
  5
513
330
E3
100
AcDbEntity
  8
0
  6
Continuous
100
AcDbLine
 10
150.3817599706586
 20
153.5530413782402
 30
0.0
 11
150.3643707431734
 21
153.5505520861491
 31
0.0
  0
LINE
  5
514
330
E3
100
AcDbEntity
  8
0
  6
Continuous
100
AcDbLine
 10
150.3643707431734
 20
153.5505520861491
 30
0.0
 11
150.3435860496417
 21
153.5486609405029
 31
0.0
  0
LINE
  5
515
330
E3
100
AcDbEntity
  8
0
  6
Continuous
100
AcDbLine
 10
150.3435860496417
 20
153.5486609405029
 30
0.0
 11
150.3195563221034
 21
153.547342869295
 31
0.0
  0
LINE
  5
516
330
E3
100
AcDbEntity
  8
0
  6
Continuous
100
AcDbLine
 10
150.3195563221034
 20
153.547342869295
 30
0.0
 11
150.2924534828901
 21
153.5465656370881
 31
0.0
  0
LINE
  5
517
330
E3
100
AcDbEntity
  8
0
  6
Continuous
100
AcDbLine
 10
150.2924534828901
 20
153.5465656370881
 30
0.0
 11
150.2624816897704
 21
153.5462970084452
 31
0.0
  0
LINE
  5
518
330
E3
100
AcDbEntity
  8
0
  6
Continuous
100
AcDbLine
 10
150.2624816897704
 20
153.5462970084452
 30
0.0
 11
150.2298630090891
 21
153.5464904210681
 31
0.0
  0
LINE
  5
519
330
E3
100
AcDbEntity
  8
0
  6
Continuous
100
AcDbLine
 10
150.2298630090891
 20
153.5464904210681
 30
0.0
 11
150.1948338340519
 21
153.5471136395197
 31
0.0
  0
LINE
  5
51A
330
E3
100
AcDbEntity
  8
0
  6
Continuous
100
AcDbLine
 10
150.1948338340519
 20
153.5471136395197
 30
0.0
 11
150.1576520481561
 21
153.5481129380714
 31
0.0
  0
LINE
  5
51B
330
E3
100
AcDbEntity
  8
0
  6
Continuous
100
AcDbLine
 10
150.1576520481561
 20
153.5481129380714
 30
0.0
 11
150.1186006069056
 21
153.549441754425
 31
0.0
  0
LINE
  5
51C
330
E3
100
AcDbEntity
  8
0
  6
Continuous
100
AcDbLine
 10
150.1186006069056
 20
153.549441754425
 30
0.0
 11
150.0779624658042
 21
153.5510535262826
 31
0.0
  0
LINE
  5
51D
330
E3
100
AcDbEntity
  8
0
  6
Continuous
100
AcDbLine
 10
150.0779624658042
 20
153.5510535262826
 30
0.0
 11
150.0360456523626
 21
153.5528873644849
 31
0.0
  0
LINE
  5
51E
330
E3
100
AcDbEntity
  8
0
  6
Continuous
100
AcDbLine
 10
150.0360456523626
 20
153.5528873644849
 30
0.0
 11
149.9931546123759
 21
153.554896706734
 31
0.0
  0
LINE
  5
51F
330
E3
100
AcDbEntity
  8
0
  6
Continuous
100
AcDbLine
 10
149.9931546123759
 20
153.554896706734
 30
0.0
 11
149.9496152819309
 21
153.5570170821554
 31
0.0
  0
LINE
  5
520
330
E3
100
AcDbEntity
  8
0
  6
Continuous
100
AcDbLine
 10
149.9496152819309
 20
153.5570170821554
 30
0.0
 11
149.9057500153992
 21
153.5591947650207
 31
0.0
  0
LINE
  5
521
330
E3
100
AcDbEntity
  8
0
  6
Continuous
100
AcDbLine
 10
149.9057500153992
 20
153.5591947650207
 30
0.0
 11
149.8618847488675
 21
153.5613760296013
 31
0.0
  0
LINE
  5
522
330
E3
100
AcDbEntity
  8
0
  6
Continuous
100
AcDbLine
 10
149.8618847488675
 20
153.5613760296013
 30
0.0
 11
149.8183454184226
 21
153.5634964050227
 31
0.0
  0
LINE
  5
523
330
E3
100
AcDbEntity
  8
0
  6
Continuous
100
AcDbLine
 10
149.8183454184226
 20
153.5634964050227
 30
0.0
 11
149.7754579601511
 21
153.5655021655566
 31
0.0
  0
LINE
  5
524
330
E3
100
AcDbEntity
  8
0
  6
Continuous
100
AcDbLine
 10
149.7754579601511
 20
153.5655021655566
 30
0.0
 11
149.7335375649942
 21
153.5673395854742
 31
0.0
  0
LINE
  5
525
330
E3
100
AcDbEntity
  8
0
  6
Continuous
100
AcDbLine
 10
149.7335375649942
 20
153.5673395854742
 30
0.0
 11
149.6928994238928
 21
153.5689477756165
 31
0.0
  0
LINE
  5
526
330
E3
100
AcDbEntity
  8
0
  6
Continuous
100
AcDbLine
 10
149.6928994238928
 20
153.5689477756165
 30
0.0
 11
149.6538479826423
 21
153.5702765919702
 31
0.0
  0
LINE
  5
527
330
E3
100
AcDbEntity
  8
0
  6
Continuous
100
AcDbLine
 10
149.6538479826423
 20
153.5702765919702
 30
0.0
 11
149.6166697784618
 21
153.5712794722371
 31
0.0
  0
LINE
  5
528
330
E3
100
AcDbEntity
  8
0
  6
Continuous
100
AcDbLine
 10
149.6166697784618
 20
153.5712794722371
 30
0.0
 11
149.5816370217094
 21
153.5718991089734
 31
0.0
  0
LINE
  5
529
330
E3
100
AcDbEntity
  8
0
  6
Continuous
100
AcDbLine
 10
149.5816370217094
 20
153.5718991089734
 30
0.0
 11
149.5490183410281
 21
153.5720961033115
 31
0.0
  0
LINE
  5
52A
330
E3
100
AcDbEntity
  8
0
  6
Continuous
100
AcDbLine
 10
149.5490183410281
 20
153.5720961033115
 30
0.0
 11
149.5190465479083
 21
153.5718238929534
 31
0.0
  0
LINE
  5
52B
330
E3
100
AcDbEntity
  8
0
  6
Continuous
100
AcDbLine
 10
149.5190465479083
 20
153.5718238929534
 30
0.0
 11
149.4919472904103
 21
153.5710466607465
 31
0.0
  0
LINE
  5
52C
330
E3
100
AcDbEntity
  8
0
  6
Continuous
100
AcDbLine
 10
149.4919472904103
 20
153.5710466607465
 30
0.0
 11
149.4679139811568
 21
153.5697285895386
 31
0.0
  0
LINE
  5
52D
330
E3
100
AcDbEntity
  8
0
  6
Continuous
100
AcDbLine
 10
149.4679139811568
 20
153.5697285895386
 30
0.0
 11
149.447129287625
 21
153.5678374438924
 31
0.0
  0
LINE
  5
52E
330
E3
100
AcDbEntity
  8
0
  6
Continuous
100
AcDbLine
 10
149.447129287625
 20
153.5678374438924
 30
0.0
 11
149.4297400601398
 21
153.5653481518013
 31
0.0
  0
LINE
  5
52F
330
E3
100
AcDbEntity
  8
0
  6
Continuous
100
AcDbLine
 10
149.4297400601398
 20
153.5653481518013
 30
0.0
 11
149.4158716587345
 21
153.5622356412586
 31
0.0
  0
LINE
  5
530
330
E3
100
AcDbEntity
  8
0
  6
Continuous
100
AcDbLine
 10
149.4158716587345
 20
153.5622356412586
 30
0.0
 11
149.4056243714358
 21
153.5584891671187
 31
0.0
  0
LINE
  5
531
330
E3
100
AcDbEntity
  8
0
  6
Continuous
100
AcDbLine
 10
149.4056243714358
 20
153.5584891671187
 30
0.0
 11
149.3990686424242
 21
153.5540887973729
 31
0.0
  0
LINE
  5
532
330
E3
100
AcDbEntity
  8
0
  6
Continuous
100
AcDbLine
 10
149.3990686424242
 20
153.5540887973729
 30
0.0
 11
149.3962448017651
 21
153.549030931336
 31
0.0
  0
LINE
  5
533
330
E3
100
AcDbEntity
  8
0
  6
Continuous
100
AcDbLine
 10
150.346849125843
 20
153.1814054689848
 30
0.0
 11
150.3440252851839
 21
153.1763476029479
 31
0.0
  0
LINE
  5
534
330
E3
100
AcDbEntity
  8
0
  6
Continuous
100
AcDbLine
 10
150.3440252851839
 20
153.1763476029479
 30
0.0
 11
150.337468214037
 21
153.1719480061711
 31
0.0
  0
LINE
  5
535
330
E3
100
AcDbEntity
  8
0
  6
Continuous
100
AcDbLine
 10
150.337468214037
 20
153.1719480061711
 30
0.0
 11
150.3272211927148
 21
153.1682004026736
 31
0.0
  0
LINE
  5
536
330
E3
100
AcDbEntity
  8
0
  6
Continuous
100
AcDbLine
 10
150.3272211927148
 20
153.1682004026736
 30
0.0
 11
150.3133527913095
 21
153.1650878921309
 31
0.0
  0
LINE
  5
537
330
E3
100
AcDbEntity
  8
0
  6
Continuous
100
AcDbLine
 10
150.3133527913095
 20
153.1650878921309
 30
0.0
 11
150.2959635638243
 21
153.1625986000398
 31
0.0
  0
LINE
  5
538
330
E3
100
AcDbEntity
  8
0
  6
Continuous
100
AcDbLine
 10
150.2959635638243
 20
153.1625986000398
 30
0.0
 11
150.2751788702925
 21
153.1607074543937
 31
0.0
  0
LINE
  5
539
330
E3
100
AcDbEntity
  8
0
  6
Continuous
100
AcDbLine
 10
150.2751788702925
 20
153.1607074543937
 30
0.0
 11
150.2511491427543
 21
153.1593893831857
 31
0.0
  0
LINE
  5
53A
330
E3
100
AcDbEntity
  8
0
  6
Continuous
100
AcDbLine
 10
150.2511491427543
 20
153.1593893831857
 30
0.0
 11
150.224046303541
 21
153.1586121509789
 31
0.0
  0
LINE
  5
53B
330
E3
100
AcDbEntity
  8
0
  6
Continuous
100
AcDbLine
 10
150.224046303541
 20
153.1586121509789
 30
0.0
 11
150.1940780921365
 21
153.1583399406207
 31
0.0
  0
LINE
  5
53C
330
E3
100
AcDbEntity
  8
0
  6
Continuous
100
AcDbLine
 10
150.1940780921365
 20
153.1583399406207
 30
0.0
 11
150.1614558297399
 21
153.1585369349588
 31
0.0
  0
LINE
  5
53D
330
E3
100
AcDbEntity
  8
0
  6
Continuous
100
AcDbLine
 10
150.1614558297399
 20
153.1585369349588
 30
0.0
 11
150.1264266547028
 21
153.1591601534104
 31
0.0
  0
LINE
  5
53E
330
E3
100
AcDbEntity
  8
0
  6
Continuous
100
AcDbLine
 10
150.1264266547028
 20
153.1591601534104
 30
0.0
 11
150.089244868807
 21
153.1601594519621
 31
0.0
  0
LINE
  5
53F
330
E3
100
AcDbEntity
  8
0
  6
Continuous
100
AcDbLine
 10
150.089244868807
 20
153.1601594519621
 30
0.0
 11
150.0501934275565
 21
153.1614882683158
 31
0.0
  0
LINE
  5
540
330
E3
100
AcDbEntity
  8
0
  6
Continuous
100
AcDbLine
 10
150.0501934275565
 20
153.1614882683158
 30
0.0
 11
150.0095552864551
 21
153.1631000401733
 31
0.0
  0
LINE
  5
541
330
E3
100
AcDbEntity
  8
0
  6
Continuous
100
AcDbLine
 10
150.0095552864551
 20
153.1631000401733
 30
0.0
 11
149.9676384730134
 21
153.1649338783756
 31
0.0
  0
LINE
  5
542
330
E3
100
AcDbEntity
  8
0
  6
Continuous
100
AcDbLine
 10
149.9676384730134
 20
153.1649338783756
 30
0.0
 11
149.9247474330267
 21
153.1669396389095
 31
0.0
  0
LINE
  5
543
330
E3
100
AcDbEntity
  8
0
  6
Continuous
100
AcDbLine
 10
149.9247474330267
 20
153.1669396389095
 30
0.0
 11
149.8812081025818
 21
153.1690635960462
 31
0.0
  0
LINE
  5
544
330
E3
100
AcDbEntity
  8
0
  6
Continuous
100
AcDbLine
 10
149.8812081025818
 20
153.1690635960462
 30
0.0
 11
149.8373428360501
 21
153.1712412789115
 31
0.0
  0
LINE
  5
545
330
E3
100
AcDbEntity
  8
0
  6
Continuous
100
AcDbLine
 10
149.8373428360501
 20
153.1712412789115
 30
0.0
 11
149.7934775695184
 21
153.1734189617768
 31
0.0
  0
LINE
  5
546
330
E3
100
AcDbEntity
  8
0
  6
Continuous
100
AcDbLine
 10
149.7934775695184
 20
153.1734189617768
 30
0.0
 11
149.7499382390735
 21
153.1755429189135
 31
0.0
  0
LINE
  5
547
330
E3
100
AcDbEntity
  8
0
  6
Continuous
100
AcDbLine
 10
149.7499382390735
 20
153.1755429189135
 30
0.0
 11
149.707050780802
 21
153.1775486794473
 31
0.0
  0
LINE
  5
548
330
E3
100
AcDbEntity
  8
0
  6
Continuous
100
AcDbLine
 10
149.707050780802
 20
153.1775486794473
 30
0.0
 11
149.6651303856451
 21
153.1793825176497
 31
0.0
  0
LINE
  5
549
330
E3
100
AcDbEntity
  8
0
  6
Continuous
100
AcDbLine
 10
149.6651303856451
 20
153.1793825176497
 30
0.0
 11
149.6244958262589
 21
153.1809942895072
 31
0.0
  0
LINE
  5
54A
330
E3
100
AcDbEntity
  8
0
  6
Continuous
100
AcDbLine
 10
149.6244958262589
 20
153.1809942895072
 30
0.0
 11
149.5854408032932
 21
153.1823231058608
 31
0.0
  0
LINE
  5
54B
330
E3
100
AcDbEntity
  8
0
  6
Continuous
100
AcDbLine
 10
149.5854408032932
 20
153.1823231058608
 30
0.0
 11
149.5482625991126
 21
153.1833224044125
 31
0.0
  0
LINE
  5
54C
330
E3
100
AcDbEntity
  8
0
  6
Continuous
100
AcDbLine
 10
149.5482625991126
 20
153.1833224044125
 30
0.0
 11
149.5132334240755
 21
153.1839456228641
 31
0.0
  0
LINE
  5
54D
330
E3
100
AcDbEntity
  8
0
  6
Continuous
100
AcDbLine
 10
149.5132334240755
 20
153.1839456228641
 30
0.0
 11
149.4806111616789
 21
153.184139035487
 31
0.0
  0
LINE
  5
54E
330
E3
100
AcDbEntity
  8
0
  6
Continuous
100
AcDbLine
 10
149.4806111616789
 20
153.184139035487
 30
0.0
 11
149.4506393685592
 21
153.1838704068441
 31
0.0
  0
LINE
  5
54F
330
E3
100
AcDbEntity
  8
0
  6
Continuous
100
AcDbLine
 10
149.4506393685592
 20
153.1838704068441
 30
0.0
 11
149.4235401110612
 21
153.1830931746372
 31
0.0
  0
LINE
  5
550
330
E3
100
AcDbEntity
  8
0
  6
Continuous
100
AcDbLine
 10
149.4235401110612
 20
153.1830931746372
 30
0.0
 11
149.3995068018076
 21
153.1817751034293
 31
0.0
  0
LINE
  5
551
330
E3
100
AcDbEntity
  8
0
  6
Continuous
100
AcDbLine
 10
149.3995068018076
 20
153.1817751034293
 30
0.0
 11
149.3787221082759
 21
153.1798839577831
 31
0.0
  0
LINE
  5
552
330
E3
100
AcDbEntity
  8
0
  6
Continuous
100
AcDbLine
 10
149.3787221082759
 20
153.1798839577831
 30
0.0
 11
149.3613328807907
 21
153.177394665692
 31
0.0
  0
LINE
  5
553
330
E3
100
AcDbEntity
  8
0
  6
Continuous
100
AcDbLine
 10
149.3613328807907
 20
153.177394665692
 30
0.0
 11
149.3474680611006
 21
153.1742821551494
 31
0.0
  0
LINE
  5
554
330
E3
100
AcDbEntity
  8
0
  6
Continuous
100
AcDbLine
 10
149.3474680611006
 20
153.1742821551494
 30
0.0
 11
149.3372171920867
 21
153.1705320992941
 31
0.0
  0
LINE
  5
555
330
E3
100
AcDbEntity
  8
0
  6
Continuous
100
AcDbLine
 10
149.3372171920867
 20
153.1705320992941
 30
0.0
 11
149.3306617845554
 21
153.1661342280045
 31
0.0
  0
LINE
  5
556
330
E3
100
AcDbEntity
  8
0
  6
Continuous
100
AcDbLine
 10
149.3306617845554
 20
153.1661342280045
 30
0.0
 11
149.3278379438964
 21
153.1610763619675
 31
0.0
  0
LINE
  5
557
330
E3
100
AcDbEntity
  8
0
  6
Continuous
100
AcDbLine
 10
150.2784422679742
 20
152.7934508996164
 30
0.0
 11
150.2756184273151
 21
152.7883930335794
 31
0.0
  0
LINE
  5
558
330
E3
100
AcDbEntity
  8
0
  6
Continuous
100
AcDbLine
 10
150.2756184273151
 20
152.7883930335794
 30
0.0
 11
150.2690613561682
 21
152.7839934368026
 31
0.0
  0
LINE
  5
559
330
E3
100
AcDbEntity
  8
0
  6
Continuous
100
AcDbLine
 10
150.2690613561682
 20
152.7839934368026
 30
0.0
 11
150.2588140133657
 21
152.7802433348491
 31
0.0
  0
LINE
  5
55A
330
E3
100
AcDbEntity
  8
0
  6
Continuous
100
AcDbLine
 10
150.2588140133657
 20
152.7802433348491
 30
0.0
 11
150.2449456119604
 21
152.7771344060217
 31
0.0
  0
LINE
  5
55B
330
E3
100
AcDbEntity
  8
0
  6
Continuous
100
AcDbLine
 10
150.2449456119604
 20
152.7771344060217
 30
0.0
 11
150.2275563844752
 21
152.7746451139305
 31
0.0
  0
LINE
  5
55C
330
E3
100
AcDbEntity
  8
0
  6
Continuous
100
AcDbLine
 10
150.2275563844752
 20
152.7746451139305
 30
0.0
 11
150.2067716909434
 21
152.7727539682844
 31
0.0
  0
LINE
  5
55D
330
E3
100
AcDbEntity
  8
0
  6
Continuous
100
AcDbLine
 10
150.2067716909434
 20
152.7727539682844
 30
0.0
 11
150.1827419634051
 21
152.7714358970764
 31
0.0
  0
LINE
  5
55E
330
E3
100
AcDbEntity
  8
0
  6
Continuous
100
AcDbLine
 10
150.1827419634051
 20
152.7714358970764
 30
0.0
 11
150.1556391241918
 21
152.7706586648696
 31
0.0
  0
LINE
  5
55F
330
E3
100
AcDbEntity
  8
0
  6
Continuous
100
AcDbLine
 10
150.1556391241918
 20
152.7706586648696
 30
0.0
 11
150.1256709127874
 21
152.7703864545114
 31
0.0
  0
LINE
  5
560
330
E3
100
AcDbEntity
  8
0
  6
Continuous
100
AcDbLine
 10
150.1256709127874
 20
152.7703864545114
 30
0.0
 11
150.0930486503908
 21
152.7705834488495
 31
0.0
  0
LINE
  5
561
330
E3
100
AcDbEntity
  8
0
  6
Continuous
100
AcDbLine
 10
150.0930486503908
 20
152.7705834488495
 30
0.0
 11
150.0580194753536
 21
152.7712030855859
 31
0.0
  0
LINE
  5
562
330
E3
100
AcDbEntity
  8
0
  6
Continuous
100
AcDbLine
 10
150.0580194753536
 20
152.7712030855859
 30
0.0
 11
150.0208376894579
 21
152.7722023841376
 31
0.0
  0
LINE
  5
563
330
E3
100
AcDbEntity
  8
0
  6
Continuous
100
AcDbLine
 10
150.0208376894579
 20
152.7722023841376
 30
0.0
 11
149.9817862482074
 21
152.7735347822065
 31
0.0
  0
LINE
  5
564
330
E3
100
AcDbEntity
  8
0
  6
Continuous
100
AcDbLine
 10
149.9817862482074
 20
152.7735347822065
 30
0.0
 11
149.941148107106
 21
152.7751429723488
 31
0.0
  0
LINE
  5
565
330
E3
100
AcDbEntity
  8
0
  6
Continuous
100
AcDbLine
 10
149.941148107106
 20
152.7751429723488
 30
0.0
 11
149.8992312936643
 21
152.7769803922664
 31
0.0
  0
LINE
  5
566
330
E3
100
AcDbEntity
  8
0
  6
Continuous
100
AcDbLine
 10
149.8992312936643
 20
152.7769803922664
 30
0.0
 11
149.8563402536776
 21
152.7789861528002
 31
0.0
  0
LINE
  5
567
330
E3
100
AcDbEntity
  8
0
  6
Continuous
100
AcDbLine
 10
149.8563402536776
 20
152.7789861528002
 30
0.0
 11
149.8128009232327
 21
152.7811065282217
 31
0.0
  0
LINE
  5
568
330
E3
100
AcDbEntity
  8
0
  6
Continuous
100
AcDbLine
 10
149.8128009232327
 20
152.7811065282217
 30
0.0
 11
149.768935656701
 21
152.7832877928022
 31
0.0
  0
LINE
  5
569
330
E3
100
AcDbEntity
  8
0
  6
Continuous
100
AcDbLine
 10
149.768935656701
 20
152.7832877928022
 30
0.0
 11
149.7250703901693
 21
152.7854654756675
 31
0.0
  0
LINE
  5
56A
330
E3
100
AcDbEntity
  8
0
  6
Continuous
100
AcDbLine
 10
149.7250703901693
 20
152.7854654756675
 30
0.0
 11
149.6815310597243
 21
152.787585851089
 31
0.0
  0
LINE
  5
56B
330
E3
100
AcDbEntity
  8
0
  6
Continuous
100
AcDbLine
 10
149.6815310597243
 20
152.787585851089
 30
0.0
 11
149.6386436014529
 21
152.7895916116228
 31
0.0
  0
LINE
  5
56C
330
E3
100
AcDbEntity
  8
0
  6
Continuous
100
AcDbLine
 10
149.6386436014529
 20
152.7895916116228
 30
0.0
 11
149.596723206296
 21
152.7914290315404
 31
0.0
  0
LINE
  5
56D
330
E3
100
AcDbEntity
  8
0
  6
Continuous
100
AcDbLine
 10
149.596723206296
 20
152.7914290315404
 30
0.0
 11
149.5560886469098
 21
152.7930372216827
 31
0.0
  0
LINE
  5
56E
330
E3
100
AcDbEntity
  8
0
  6
Continuous
100
AcDbLine
 10
149.5560886469098
 20
152.7930372216827
 30
0.0
 11
149.5170336239441
 21
152.7943696197516
 31
0.0
  0
LINE
  5
56F
330
E3
100
AcDbEntity
  8
0
  6
Continuous
100
AcDbLine
 10
149.5170336239441
 20
152.7943696197516
 30
0.0
 11
149.4798554197635
 21
152.7953689183033
 31
0.0
  0
LINE
  5
570
330
E3
100
AcDbEntity
  8
0
  6
Continuous
100
AcDbLine
 10
149.4798554197635
 20
152.7953689183033
 30
0.0
 11
149.4448262447264
 21
152.7959885550396
 31
0.0
  0
LINE
  5
571
330
E3
100
AcDbEntity
  8
0
  6
Continuous
100
AcDbLine
 10
149.4448262447264
 20
152.7959885550396
 30
0.0
 11
149.4122039823298
 21
152.7961855493777
 31
0.0
  0
LINE
  5
572
330
E3
100
AcDbEntity
  8
0
  6
Continuous
100
AcDbLine
 10
149.4122039823298
 20
152.7961855493777
 30
0.0
 11
149.3822321892101
 21
152.7959133390196
 31
0.0
  0
LINE
  5
573
330
E3
100
AcDbEntity
  8
0
  6
Continuous
100
AcDbLine
 10
149.3822321892101
 20
152.7959133390196
 30
0.0
 11
149.355132931712
 21
152.7951361068127
 31
0.0
  0
LINE
  5
574
330
E3
100
AcDbEntity
  8
0
  6
Continuous
100
AcDbLine
 10
149.355132931712
 20
152.7951361068127
 30
0.0
 11
149.3310996224585
 21
152.7938180356048
 31
0.0
  0
LINE
  5
575
330
E3
100
AcDbEntity
  8
0
  6
Continuous
100
AcDbLine
 10
149.3310996224585
 20
152.7938180356048
 30
0.0
 11
149.3103149289268
 21
152.7919268899586
 31
0.0
  0
LINE
  5
576
330
E3
100
AcDbEntity
  8
0
  6
Continuous
100
AcDbLine
 10
149.3103149289268
 20
152.7919268899586
 30
0.0
 11
149.2929257014415
 21
152.7894375978675
 31
0.0
  0
LINE
  5
577
330
E3
100
AcDbEntity
  8
0
  6
Continuous
100
AcDbLine
 10
149.2929257014415
 20
152.7894375978675
 30
0.0
 11
149.2790608817515
 21
152.7863286690401
 31
0.0
  0
LINE
  5
578
330
E3
100
AcDbEntity
  8
0
  6
Continuous
100
AcDbLine
 10
149.2790608817515
 20
152.7863286690401
 30
0.0
 11
149.2688135944528
 21
152.7825786131849
 31
0.0
  0
LINE
  5
579
330
E3
100
AcDbEntity
  8
0
  6
Continuous
100
AcDbLine
 10
149.2688135944528
 20
152.7825786131849
 30
0.0
 11
149.2622549266867
 21
152.778179658636
 31
0.0
  0
LINE
  5
57A
330
E3
100
AcDbEntity
  8
0
  6
Continuous
100
AcDbLine
 10
149.2622549266867
 20
152.778179658636
 30
0.0
 11
149.2594310860276
 21
152.7731217925991
 31
0.0
  0
LINE
  5
57B
330
E3
100
AcDbEntity
  8
0
  6
Continuous
100
AcDbLine
 10
150.2100354101053
 20
152.4054963302479
 30
0.0
 11
150.2072115694463
 21
152.4004384642109
 31
0.0
  0
LINE
  5
57C
330
E3
100
AcDbEntity
  8
0
  6
Continuous
100
AcDbLine
 10
150.2072115694463
 20
152.4004384642109
 30
0.0
 11
150.2006544982994
 21
152.3960388674341
 31
0.0
  0
LINE
  5
57D
330
E3
100
AcDbEntity
  8
0
  6
Continuous
100
AcDbLine
 10
150.2006544982994
 20
152.3960388674341
 30
0.0
 11
150.1904068340165
 21
152.3922898487398
 31
0.0
  0
LINE
  5
57E
330
E3
100
AcDbEntity
  8
0
  6
Continuous
100
AcDbLine
 10
150.1904068340165
 20
152.3922898487398
 30
0.0
 11
150.1765384326112
 21
152.3891809199124
 31
0.0
  0
LINE
  5
57F
330
E3
100
AcDbEntity
  8
0
  6
Continuous
100
AcDbLine
 10
150.1765384326112
 20
152.3891809199124
 30
0.0
 11
150.159149205126
 21
152.3866880461061
 31
0.0
  0
LINE
  5
580
330
E3
100
AcDbEntity
  8
0
  6
Continuous
100
AcDbLine
 10
150.159149205126
 20
152.3866880461061
 30
0.0
 11
150.1383645115943
 21
152.3848004821751
 31
0.0
  0
LINE
  5
581
330
E3
100
AcDbEntity
  8
0
  6
Continuous
100
AcDbLine
 10
150.1383645115943
 20
152.3848004821751
 30
0.0
 11
150.114334784056
 21
152.3834788292519
 31
0.0
  0
LINE
  5
582
330
E3
100
AcDbEntity
  8
0
  6
Continuous
100
AcDbLine
 10
150.114334784056
 20
152.3834788292519
 30
0.0
 11
150.0872355265579
 21
152.3827015970451
 31
0.0
  0
LINE
  5
583
330
E3
100
AcDbEntity
  8
0
  6
Continuous
100
AcDbLine
 10
150.0872355265579
 20
152.3827015970451
 30
0.0
 11
150.0572637334382
 21
152.3824329684022
 31
0.0
  0
LINE
  5
584
330
E3
100
AcDbEntity
  8
0
  6
Continuous
100
AcDbLine
 10
150.0572637334382
 20
152.3824329684022
 30
0.0
 11
150.0246414710417
 21
152.3826299627403
 31
0.0
  0
LINE
  5
585
330
E3
100
AcDbEntity
  8
0
  6
Continuous
100
AcDbLine
 10
150.0246414710417
 20
152.3826299627403
 30
0.0
 11
149.9896122960045
 21
152.3832495994766
 31
0.0
  0
LINE
  5
586
330
E3
100
AcDbEntity
  8
0
  6
Continuous
100
AcDbLine
 10
149.9896122960045
 20
152.3832495994766
 30
0.0
 11
149.952434091824
 21
152.3842488980283
 31
0.0
  0
LINE
  5
587
330
E3
100
AcDbEntity
  8
0
  6
Continuous
100
AcDbLine
 10
149.952434091824
 20
152.3842488980283
 30
0.0
 11
149.9133790688582
 21
152.3855812960972
 31
0.0
  0
LINE
  5
588
330
E3
100
AcDbEntity
  8
0
  6
Continuous
100
AcDbLine
 10
149.9133790688582
 20
152.3855812960972
 30
0.0
 11
149.8727409277568
 21
152.3871894862395
 31
0.0
  0
LINE
  5
589
330
E3
100
AcDbEntity
  8
0
  6
Continuous
100
AcDbLine
 10
149.8727409277568
 20
152.3871894862395
 30
0.0
 11
149.8308241143152
 21
152.3890233244419
 31
0.0
  0
LINE
  5
58A
330
E3
100
AcDbEntity
  8
0
  6
Continuous
100
AcDbLine
 10
149.8308241143152
 20
152.3890233244419
 30
0.0
 11
149.7879366560437
 21
152.3910326666909
 31
0.0
  0
LINE
  5
58B
330
E3
100
AcDbEntity
  8
0
  6
Continuous
100
AcDbLine
 10
149.7879366560437
 20
152.3910326666909
 30
0.0
 11
149.7443973255988
 21
152.3931530421124
 31
0.0
  0
LINE
  5
58C
330
E3
100
AcDbEntity
  8
0
  6
Continuous
100
AcDbLine
 10
149.7443973255988
 20
152.3931530421124
 30
0.0
 11
149.7005284773518
 21
152.3953307249777
 31
0.0
  0
LINE
  5
58D
330
E3
100
AcDbEntity
  8
0
  6
Continuous
100
AcDbLine
 10
149.7005284773518
 20
152.3953307249777
 30
0.0
 11
149.6566632108202
 21
152.3975119895582
 31
0.0
  0
LINE
  5
58E
330
E3
100
AcDbEntity
  8
0
  6
Continuous
100
AcDbLine
 10
149.6566632108202
 20
152.3975119895582
 30
0.0
 11
149.6131238803752
 21
152.3996323649797
 31
0.0
  0
LINE
  5
58F
330
E3
100
AcDbEntity
  8
0
  6
Continuous
100
AcDbLine
 10
149.6131238803752
 20
152.3996323649797
 30
0.0
 11
149.5702364221038
 21
152.4016381255135
 31
0.0
  0
LINE
  5
590
330
E3
100
AcDbEntity
  8
0
  6
Continuous
100
AcDbLine
 10
149.5702364221038
 20
152.4016381255135
 30
0.0
 11
149.5283160269468
 21
152.4034755454311
 31
0.0
  0
LINE
  5
591
330
E3
100
AcDbEntity
  8
0
  6
Continuous
100
AcDbLine
 10
149.5283160269468
 20
152.4034755454311
 30
0.0
 11
149.4876814675607
 21
152.4050837355734
 31
0.0
  0
LINE
  5
592
330
E3
100
AcDbEntity
  8
0
  6
Continuous
100
AcDbLine
 10
149.4876814675607
 20
152.4050837355734
 30
0.0
 11
149.4486264445949
 21
152.4064125519271
 31
0.0
  0
LINE
  5
593
330
E3
100
AcDbEntity
  8
0
  6
Continuous
100
AcDbLine
 10
149.4486264445949
 20
152.4064125519271
 30
0.0
 11
149.4114482404144
 21
152.407415432194
 31
0.0
  0
LINE
  5
594
330
E3
100
AcDbEntity
  8
0
  6
Continuous
100
AcDbLine
 10
149.4114482404144
 20
152.407415432194
 30
0.0
 11
149.3764190653772
 21
152.4080350689303
 31
0.0
  0
LINE
  5
595
330
E3
100
AcDbEntity
  8
0
  6
Continuous
100
AcDbLine
 10
149.3764190653772
 20
152.4080350689303
 30
0.0
 11
149.3437968029807
 21
152.4082320632685
 31
0.0
  0
LINE
  5
596
330
E3
100
AcDbEntity
  8
0
  6
Continuous
100
AcDbLine
 10
149.3437968029807
 20
152.4082320632685
 30
0.0
 11
149.3138250098609
 21
152.4079598529103
 31
0.0
  0
LINE
  5
597
330
E3
100
AcDbEntity
  8
0
  6
Continuous
100
AcDbLine
 10
149.3138250098609
 20
152.4079598529103
 30
0.0
 11
149.2867257523629
 21
152.4071826207035
 31
0.0
  0
LINE
  5
598
330
E3
100
AcDbEntity
  8
0
  6
Continuous
100
AcDbLine
 10
149.2867257523629
 20
152.4071826207035
 30
0.0
 11
149.2626960248246
 21
152.4058645494955
 31
0.0
  0
LINE
  5
599
330
E3
100
AcDbEntity
  8
0
  6
Continuous
100
AcDbLine
 10
149.2626960248246
 20
152.4058645494955
 30
0.0
 11
149.2419077495776
 21
152.4039734038493
 31
0.0
  0
LINE
  5
59A
330
E3
100
AcDbEntity
  8
0
  6
Continuous
100
AcDbLine
 10
149.2419077495776
 20
152.4039734038493
 30
0.0
 11
149.2245185220924
 21
152.4014841117582
 31
0.0
  0
LINE
  5
59B
330
E3
100
AcDbEntity
  8
0
  6
Continuous
100
AcDbLine
 10
149.2245185220924
 20
152.4014841117582
 30
0.0
 11
149.2106537024024
 21
152.3983751829308
 31
0.0
  0
LINE
  5
59C
330
E3
100
AcDbEntity
  8
0
  6
Continuous
100
AcDbLine
 10
149.2106537024024
 20
152.3983751829308
 30
0.0
 11
149.2004064151037
 21
152.3946251270756
 31
0.0
  0
LINE
  5
59D
330
E3
100
AcDbEntity
  8
0
  6
Continuous
100
AcDbLine
 10
149.2004064151037
 20
152.3946251270756
 30
0.0
 11
149.1938480688179
 21
152.3902250892676
 31
0.0
  0
LINE
  5
59E
330
E3
100
AcDbEntity
  8
0
  6
Continuous
100
AcDbLine
 10
149.1938480688179
 20
152.3902250892676
 30
0.0
 11
149.1910242281588
 21
152.3851672232306
 31
0.0
  0
LINE
  5
59F
330
E3
100
AcDbEntity
  8
0
  6
Continuous
100
AcDbLine
 10
150.1416285522366
 20
152.0175417608795
 30
0.0
 11
150.1388047115775
 21
152.0124838948425
 31
0.0
  0
LINE
  5
5A0
330
E3
100
AcDbEntity
  8
0
  6
Continuous
100
AcDbLine
 10
150.1388047115775
 20
152.0124838948425
 30
0.0
 11
150.1322476404306
 21
152.0080842980657
 31
0.0
  0
LINE
  5
5A1
330
E3
100
AcDbEntity
  8
0
  6
Continuous
100
AcDbLine
 10
150.1322476404306
 20
152.0080842980657
 30
0.0
 11
150.1219996546674
 21
152.0043363626305
 31
0.0
  0
LINE
  5
5A2
330
E3
100
AcDbEntity
  8
0
  6
Continuous
100
AcDbLine
 10
150.1219996546674
 20
152.0043363626305
 30
0.0
 11
150.1081312532621
 21
152.0012238520879
 31
0.0
  0
LINE
  5
5A3
330
E3
100
AcDbEntity
  8
0
  6
Continuous
100
AcDbLine
 10
150.1081312532621
 20
152.0012238520879
 30
0.0
 11
150.0907420257769
 21
151.9987345599968
 31
0.0
  0
LINE
  5
5A4
330
E3
100
AcDbEntity
  8
0
  6
Continuous
100
AcDbLine
 10
150.0907420257769
 20
151.9987345599968
 30
0.0
 11
150.0699573322451
 21
151.9968434143506
 31
0.0
  0
LINE
  5
5A5
330
E3
100
AcDbEntity
  8
0
  6
Continuous
100
AcDbLine
 10
150.0699573322451
 20
151.9968434143506
 30
0.0
 11
150.0459276047069
 21
151.9955253431427
 31
0.0
  0
LINE
  5
5A6
330
E3
100
AcDbEntity
  8
0
  6
Continuous
100
AcDbLine
 10
150.0459276047069
 20
151.9955253431427
 30
0.0
 11
150.0188283472088
 21
151.9947481109358
 31
0.0
  0
LINE
  5
5A7
330
E3
100
AcDbEntity
  8
0
  6
Continuous
100
AcDbLine
 10
150.0188283472088
 20
151.9947481109358
 30
0.0
 11
149.9888565540891
 21
151.9944759005776
 31
0.0
  0
LINE
  5
5A8
330
E3
100
AcDbEntity
  8
0
  6
Continuous
100
AcDbLine
 10
149.9888565540891
 20
151.9944759005776
 30
0.0
 11
149.9562342916925
 21
151.9946728949158
 31
0.0
  0
LINE
  5
5A9
330
E3
100
AcDbEntity
  8
0
  6
Continuous
100
AcDbLine
 10
149.9562342916925
 20
151.9946728949158
 30
0.0
 11
149.9212051166554
 21
151.9952961133674
 31
0.0
  0
LINE
  5
5AA
330
E3
100
AcDbEntity
  8
0
  6
Continuous
100
AcDbLine
 10
149.9212051166554
 20
151.9952961133674
 30
0.0
 11
149.8840269124748
 21
151.996295411919
 31
0.0
  0
LINE
  5
5AB
330
E3
100
AcDbEntity
  8
0
  6
Continuous
100
AcDbLine
 10
149.8840269124748
 20
151.996295411919
 30
0.0
 11
149.8449718895091
 21
151.9976242282727
 31
0.0
  0
LINE
  5
5AC
330
E3
100
AcDbEntity
  8
0
  6
Continuous
100
AcDbLine
 10
149.8449718895091
 20
151.9976242282727
 30
0.0
 11
149.8043337484077
 21
151.9992360001303
 31
0.0
  0
LINE
  5
5AD
330
E3
100
AcDbEntity
  8
0
  6
Continuous
100
AcDbLine
 10
149.8043337484077
 20
151.9992360001303
 30
0.0
 11
149.762416934966
 21
152.0010698383326
 31
0.0
  0
LINE
  5
5AE
330
E3
100
AcDbEntity
  8
0
  6
Continuous
100
AcDbLine
 10
149.762416934966
 20
152.0010698383326
 30
0.0
 11
149.7195294766946
 21
152.0030755988664
 31
0.0
  0
LINE
  5
5AF
330
E3
100
AcDbEntity
  8
0
  6
Continuous
100
AcDbLine
 10
149.7195294766946
 20
152.0030755988664
 30
0.0
 11
149.6759901462496
 21
152.0051995560031
 31
0.0
  0
LINE
  5
5B0
330
E3
100
AcDbEntity
  8
0
  6
Continuous
100
AcDbLine
 10
149.6759901462496
 20
152.0051995560031
 30
0.0
 11
149.6321212980027
 21
152.0073772388684
 31
0.0
  0
LINE
  5
5B1
330
E3
100
AcDbEntity
  8
0
  6
Continuous
100
AcDbLine
 10
149.6321212980027
 20
152.0073772388684
 30
0.0
 11
149.588256031471
 21
152.0095549217337
 31
0.0
  0
LINE
  5
5B2
330
E3
100
AcDbEntity
  8
0
  6
Continuous
100
AcDbLine
 10
149.588256031471
 20
152.0095549217337
 30
0.0
 11
149.5447167010261
 21
152.0116788788704
 31
0.0
  0
LINE
  5
5B3
330
E3
100
AcDbEntity
  8
0
  6
Continuous
100
AcDbLine
 10
149.5447167010261
 20
152.0116788788704
 30
0.0
 11
149.5018292427546
 21
152.0136846394042
 31
0.0
  0
LINE
  5
5B4
330
E3
100
AcDbEntity
  8
0
  6
Continuous
100
AcDbLine
 10
149.5018292427546
 20
152.0136846394042
 30
0.0
 11
149.4599088475977
 21
152.0155184776066
 31
0.0
  0
LINE
  5
5B5
330
E3
100
AcDbEntity
  8
0
  6
Continuous
100
AcDbLine
 10
149.4599088475977
 20
152.0155184776066
 30
0.0
 11
149.4192742882116
 21
152.0171302494641
 31
0.0
  0
LINE
  5
5B6
330
E3
100
AcDbEntity
  8
0
  6
Continuous
100
AcDbLine
 10
149.4192742882116
 20
152.0171302494641
 30
0.0
 11
149.3802192652458
 21
152.0184590658178
 31
0.0
  0
LINE
  5
5B7
330
E3
100
AcDbEntity
  8
0
  6
Continuous
100
AcDbLine
 10
149.3802192652458
 20
152.0184590658178
 30
0.0
 11
149.3430410610653
 21
152.0194583643695
 31
0.0
  0
LINE
  5
5B8
330
E3
100
AcDbEntity
  8
0
  6
Continuous
100
AcDbLine
 10
149.3430410610653
 20
152.0194583643695
 30
0.0
 11
149.3080118860281
 21
152.020081582821
 31
0.0
  0
LINE
  5
5B9
330
E3
100
AcDbEntity
  8
0
  6
Continuous
100
AcDbLine
 10
149.3080118860281
 20
152.020081582821
 30
0.0
 11
149.2753896236316
 21
152.0202785771592
 31
0.0
  0
LINE
  5
5BA
330
E3
100
AcDbEntity
  8
0
  6
Continuous
100
AcDbLine
 10
149.2753896236316
 20
152.0202785771592
 30
0.0
 11
149.2454178305119
 21
152.020006366801
 31
0.0
  0
LINE
  5
5BB
330
E3
100
AcDbEntity
  8
0
  6
Continuous
100
AcDbLine
 10
149.2454178305119
 20
152.020006366801
 30
0.0
 11
149.2183185730138
 21
152.0192291345942
 31
0.0
  0
LINE
  5
5BC
330
E3
100
AcDbEntity
  8
0
  6
Continuous
100
AcDbLine
 10
149.2183185730138
 20
152.0192291345942
 30
0.0
 11
149.1942888454755
 21
152.0179110633862
 31
0.0
  0
LINE
  5
5BD
330
E3
100
AcDbEntity
  8
0
  6
Continuous
100
AcDbLine
 10
149.1942888454755
 20
152.0179110633862
 30
0.0
 11
149.1735005702285
 21
152.01601991774
 31
0.0
  0
LINE
  5
5BE
330
E3
100
AcDbEntity
  8
0
  6
Continuous
100
AcDbLine
 10
149.1735005702285
 20
152.01601991774
 30
0.0
 11
149.1561149244585
 21
152.013530625649
 31
0.0
  0
LINE
  5
5BF
330
E3
100
AcDbEntity
  8
0
  6
Continuous
100
AcDbLine
 10
149.1561149244585
 20
152.013530625649
 30
0.0
 11
149.1422465230532
 21
152.0104181151063
 31
0.0
  0
LINE
  5
5C0
330
E3
100
AcDbEntity
  8
0
  6
Continuous
100
AcDbLine
 10
149.1422465230532
 20
152.0104181151063
 30
0.0
 11
149.1319992357545
 21
152.0066716409663
 31
0.0
  0
LINE
  5
5C1
330
E3
100
AcDbEntity
  8
0
  6
Continuous
100
AcDbLine
 10
149.1319992357545
 20
152.0066716409663
 30
0.0
 11
149.125441210949
 21
152.0022705198992
 31
0.0
  0
LINE
  5
5C2
330
E3
100
AcDbEntity
  8
0
  6
Continuous
100
AcDbLine
 10
149.125441210949
 20
152.0022705198992
 30
0.0
 11
149.12261737029
 21
151.9972126538622
 31
0.0
  0
LINE
  5
5C3
330
E3
100
AcDbEntity
  8
0
  6
Continuous
100
AcDbLine
 10
150.0732216943678
 20
151.629587191511
 30
0.0
 11
150.0703978537087
 21
151.624529325474
 31
0.0
  0
LINE
  5
5C4
330
E3
100
AcDbEntity
  8
0
  6
Continuous
100
AcDbLine
 10
150.0703978537087
 20
151.624529325474
 30
0.0
 11
150.0638407825618
 21
151.6201297286973
 31
0.0
  0
LINE
  5
5C5
330
E3
100
AcDbEntity
  8
0
  6
Continuous
100
AcDbLine
 10
150.0638407825618
 20
151.6201297286973
 30
0.0
 11
150.0535924753183
 21
151.616379294806
 31
0.0
  0
LINE
  5
5C6
330
E3
100
AcDbEntity
  8
0
  6
Continuous
100
AcDbLine
 10
150.0535924753183
 20
151.616379294806
 30
0.0
 11
150.039724073913
 21
151.6132703659786
 31
0.0
  0
LINE
  5
5C7
330
E3
100
AcDbEntity
  8
0
  6
Continuous
100
AcDbLine
 10
150.039724073913
 20
151.6132703659786
 30
0.0
 11
150.022338428143
 21
151.6107810738875
 31
0.0
  0
LINE
  5
5C8
330
E3
100
AcDbEntity
  8
0
  6
Continuous
100
AcDbLine
 10
150.022338428143
 20
151.6107810738875
 30
0.0
 11
150.001550152896
 21
151.6088899282413
 31
0.0
  0
LINE
  5
5C9
330
E3
100
AcDbEntity
  8
0
  6
Continuous
100
AcDbLine
 10
150.001550152896
 20
151.6088899282413
 30
0.0
 11
149.9775204253577
 21
151.6075718570334
 31
0.0
  0
LINE
  5
5CA
330
E3
100
AcDbEntity
  8
0
  6
Continuous
100
AcDbLine
 10
149.9775204253577
 20
151.6075718570334
 30
0.0
 11
149.9504211678597
 21
151.6067946248265
 31
0.0
  0
LINE
  5
5CB
330
E3
100
AcDbEntity
  8
0
  6
Continuous
100
AcDbLine
 10
149.9504211678597
 20
151.6067946248265
 30
0.0
 11
149.92044937474
 21
151.6065224144684
 31
0.0
  0
LINE
  5
5CC
330
E3
100
AcDbEntity
  8
0
  6
Continuous
100
AcDbLine
 10
149.92044937474
 20
151.6065224144684
 30
0.0
 11
149.8878271123434
 21
151.6067194088065
 31
0.0
  0
LINE
  5
5CD
330
E3
100
AcDbEntity
  8
0
  6
Continuous
100
AcDbLine
 10
149.8878271123434
 20
151.6067194088065
 30
0.0
 11
149.8527979373062
 21
151.6073390455429
 31
0.0
  0
LINE
  5
5CE
330
E3
100
AcDbEntity
  8
0
  6
Continuous
100
AcDbLine
 10
149.8527979373062
 20
151.6073390455429
 30
0.0
 11
149.8156197331257
 21
151.6083419258098
 31
0.0
  0
LINE
  5
5CF
330
E3
100
AcDbEntity
  8
0
  6
Continuous
100
AcDbLine
 10
149.8156197331257
 20
151.6083419258098
 30
0.0
 11
149.77656471016
 21
151.6096707421634
 31
0.0
  0
LINE
  5
5D0
330
E3
100
AcDbEntity
  8
0
  6
Continuous
100
AcDbLine
 10
149.77656471016
 20
151.6096707421634
 30
0.0
 11
149.7359301507738
 21
151.6112789323057
 31
0.0
  0
LINE
  5
5D1
330
E3
100
AcDbEntity
  8
0
  6
Continuous
100
AcDbLine
 10
149.7359301507738
 20
151.6112789323057
 30
0.0
 11
149.6940097556169
 21
151.6131163522233
 31
0.0
  0
LINE
  5
5D2
330
E3
100
AcDbEntity
  8
0
  6
Continuous
100
AcDbLine
 10
149.6940097556169
 20
151.6131163522233
 30
0.0
 11
149.6511222973454
 21
151.6151221127571
 31
0.0
  0
LINE
  5
5D3
330
E3
100
AcDbEntity
  8
0
  6
Continuous
100
AcDbLine
 10
149.6511222973454
 20
151.6151221127571
 30
0.0
 11
149.6075829669005
 21
151.6172424881786
 31
0.0
  0
LINE
  5
5D4
330
E3
100
AcDbEntity
  8
0
  6
Continuous
100
AcDbLine
 10
149.6075829669005
 20
151.6172424881786
 30
0.0
 11
149.5637177003688
 21
151.6194237527591
 31
0.0
  0
LINE
  5
5D5
330
E3
100
AcDbEntity
  8
0
  6
Continuous
100
AcDbLine
 10
149.5637177003688
 20
151.6194237527591
 30
0.0
 11
149.5198488521219
 21
151.6216014356245
 31
0.0
  0
LINE
  5
5D6
330
E3
100
AcDbEntity
  8
0
  6
Continuous
100
AcDbLine
 10
149.5198488521219
 20
151.6216014356245
 30
0.0
 11
149.4763095216769
 21
151.6237218110459
 31
0.0
  0
LINE
  5
5D7
330
E3
100
AcDbEntity
  8
0
  6
Continuous
100
AcDbLine
 10
149.4763095216769
 20
151.6237218110459
 30
0.0
 11
149.4334220634055
 21
151.625731153295
 31
0.0
  0
LINE
  5
5D8
330
E3
100
AcDbEntity
  8
0
  6
Continuous
100
AcDbLine
 10
149.4334220634055
 20
151.625731153295
 30
0.0
 11
149.3915052499638
 21
151.6275649914973
 31
0.0
  0
LINE
  5
5D9
330
E3
100
AcDbEntity
  8
0
  6
Continuous
100
AcDbLine
 10
149.3915052499638
 20
151.6275649914973
 30
0.0
 11
149.3508671088624
 21
151.6291731816396
 31
0.0
  0
LINE
  5
5DA
330
E3
100
AcDbEntity
  8
0
  6
Continuous
100
AcDbLine
 10
149.3508671088624
 20
151.6291731816396
 30
0.0
 11
149.3118120858967
 21
151.6305055797085
 31
0.0
  0
LINE
  5
5DB
330
E3
100
AcDbEntity
  8
0
  6
Continuous
100
AcDbLine
 10
149.3118120858967
 20
151.6305055797085
 30
0.0
 11
149.2746338817161
 21
151.6315048782602
 31
0.0
  0
LINE
  5
5DC
330
E3
100
AcDbEntity
  8
0
  6
Continuous
100
AcDbLine
 10
149.2746338817161
 20
151.6315048782602
 30
0.0
 11
149.239604706679
 21
151.6321245149965
 31
0.0
  0
LINE
  5
5DD
330
E3
100
AcDbEntity
  8
0
  6
Continuous
100
AcDbLine
 10
149.239604706679
 20
151.6321245149965
 30
0.0
 11
149.2069824442824
 21
151.6323215093347
 31
0.0
  0
LINE
  5
5DE
330
E3
100
AcDbEntity
  8
0
  6
Continuous
100
AcDbLine
 10
149.2069824442824
 20
151.6323215093347
 30
0.0
 11
149.1770106511627
 21
151.6320528806918
 31
0.0
  0
LINE
  5
5DF
330
E3
100
AcDbEntity
  8
0
  6
Continuous
100
AcDbLine
 10
149.1770106511627
 20
151.6320528806918
 30
0.0
 11
149.1499113936646
 21
151.6312756484849
 31
0.0
  0
LINE
  5
5E0
330
E3
100
AcDbEntity
  8
0
  6
Continuous
100
AcDbLine
 10
149.1499113936646
 20
151.6312756484849
 30
0.0
 11
149.1258816661264
 21
151.6299539955617
 31
0.0
  0
LINE
  5
5E1
330
E3
100
AcDbEntity
  8
0
  6
Continuous
100
AcDbLine
 10
149.1258816661264
 20
151.6299539955617
 30
0.0
 11
149.1050969725946
 21
151.6280628499156
 31
0.0
  0
LINE
  5
5E2
330
E3
100
AcDbEntity
  8
0
  6
Continuous
100
AcDbLine
 10
149.1050969725946
 20
151.6280628499156
 30
0.0
 11
149.0877077451094
 21
151.6255735578245
 31
0.0
  0
LINE
  5
5E3
330
E3
100
AcDbEntity
  8
0
  6
Continuous
100
AcDbLine
 10
149.0877077451094
 20
151.6255735578245
 30
0.0
 11
149.0738393437041
 21
151.622464628997
 31
0.0
  0
LINE
  5
5E4
330
E3
100
AcDbEntity
  8
0
  6
Continuous
100
AcDbLine
 10
149.0738393437041
 20
151.622464628997
 30
0.0
 11
149.0635920564054
 21
151.6187145731418
 31
0.0
  0
LINE
  5
5E5
330
E3
100
AcDbEntity
  8
0
  6
Continuous
100
AcDbLine
 10
149.0635920564054
 20
151.6187145731418
 30
0.0
 11
149.0570343530803
 21
151.6143159505307
 31
0.0
  0
LINE
  5
5E6
330
E3
100
AcDbEntity
  8
0
  6
Continuous
100
AcDbLine
 10
149.0570343530803
 20
151.6143159505307
 30
0.0
 11
149.0542105124212
 21
151.6092580844937
 31
0.0
  0
LINE
  5
5E7
330
E3
100
AcDbEntity
  8
0
  6
Continuous
100
AcDbLine
 10
150.004814836499
 20
151.2416326221426
 30
0.0
 11
150.0019909958399
 21
151.2365747561056
 31
0.0
  0
LINE
  5
5E8
330
E3
100
AcDbEntity
  8
0
  6
Continuous
100
AcDbLine
 10
150.0019909958399
 20
151.2365747561056
 30
0.0
 11
149.995433924693
 21
151.2321751593288
 31
0.0
  0
LINE
  5
5E9
330
E3
100
AcDbEntity
  8
0
  6
Continuous
100
AcDbLine
 10
149.995433924693
 20
151.2321751593288
 30
0.0
 11
149.9851852959692
 21
151.2284258086968
 31
0.0
  0
LINE
  5
5EA
330
E3
100
AcDbEntity
  8
0
  6
Continuous
100
AcDbLine
 10
149.9851852959692
 20
151.2284258086968
 30
0.0
 11
149.9713204762791
 21
151.2253168798693
 31
0.0
  0
LINE
  5
5EB
330
E3
100
AcDbEntity
  8
0
  6
Continuous
100
AcDbLine
 10
149.9713204762791
 20
151.2253168798693
 30
0.0
 11
149.9539312487939
 21
151.2228275877782
 31
0.0
  0
LINE
  5
5EC
330
E3
100
AcDbEntity
  8
0
  6
Continuous
100
AcDbLine
 10
149.9539312487939
 20
151.2228275877782
 30
0.0
 11
149.9331429735469
 21
151.2209364421321
 31
0.0
  0
LINE
  5
5ED
330
E3
100
AcDbEntity
  8
0
  6
Continuous
100
AcDbLine
 10
149.9331429735469
 20
151.2209364421321
 30
0.0
 11
149.9091132460086
 21
151.2196183709241
 31
0.0
  0
LINE
  5
5EE
330
E3
100
AcDbEntity
  8
0
  6
Continuous
100
AcDbLine
 10
149.9091132460086
 20
151.2196183709241
 30
0.0
 11
149.8820139885105
 21
151.2188411387173
 31
0.0
  0
LINE
  5
5EF
330
E3
100
AcDbEntity
  8
0
  6
Continuous
100
AcDbLine
 10
149.8820139885105
 20
151.2188411387173
 30
0.0
 11
149.8520421953908
 21
151.2185689283591
 31
0.0
  0
LINE
  5
5F0
330
E3
100
AcDbEntity
  8
0
  6
Continuous
100
AcDbLine
 10
149.8520421953908
 20
151.2185689283591
 30
0.0
 11
149.8194199329943
 21
151.2187659226972
 31
0.0
  0
LINE
  5
5F1
330
E3
100
AcDbEntity
  8
0
  6
Continuous
100
AcDbLine
 10
149.8194199329943
 20
151.2187659226972
 30
0.0
 11
149.7843907579571
 21
151.2193855594336
 31
0.0
  0
LINE
  5
5F2
330
E3
100
AcDbEntity
  8
0
  6
Continuous
100
AcDbLine
 10
149.7843907579571
 20
151.2193855594336
 30
0.0
 11
149.7472125537766
 21
151.2203848579852
 31
0.0
  0
LINE
  5
5F3
330
E3
100
AcDbEntity
  8
0
  6
Continuous
100
AcDbLine
 10
149.7472125537766
 20
151.2203848579852
 30
0.0
 11
149.7081575308108
 21
151.2217172560541
 31
0.0
  0
LINE
  5
5F4
330
E3
100
AcDbEntity
  8
0
  6
Continuous
100
AcDbLine
 10
149.7081575308108
 20
151.2217172560541
 30
0.0
 11
149.6675229714247
 21
151.2233254461965
 31
0.0
  0
LINE
  5
5F5
330
E3
100
AcDbEntity
  8
0
  6
Continuous
100
AcDbLine
 10
149.6675229714247
 20
151.2233254461965
 30
0.0
 11
149.6256025762678
 21
151.225162866114
 31
0.0
  0
LINE
  5
5F6
330
E3
100
AcDbEntity
  8
0
  6
Continuous
100
AcDbLine
 10
149.6256025762678
 20
151.225162866114
 30
0.0
 11
149.5827151179963
 21
151.2271686266479
 31
0.0
  0
LINE
  5
5F7
330
E3
100
AcDbEntity
  8
0
  6
Continuous
100
AcDbLine
 10
149.5827151179963
 20
151.2271686266479
 30
0.0
 11
149.5391757875514
 21
151.2292890020693
 31
0.0
  0
LINE
  5
5F8
330
E3
100
AcDbEntity
  8
0
  6
Continuous
100
AcDbLine
 10
149.5391757875514
 20
151.2292890020693
 30
0.0
 11
149.4953105210197
 21
151.2314666849346
 31
0.0
  0
LINE
  5
5F9
330
E3
100
AcDbEntity
  8
0
  6
Continuous
100
AcDbLine
 10
149.4953105210197
 20
151.2314666849346
 30
0.0
 11
149.4514416727727
 21
151.2336479495152
 31
0.0
  0
LINE
  5
5FA
330
E3
100
AcDbEntity
  8
0
  6
Continuous
100
AcDbLine
 10
149.4514416727727
 20
151.2336479495152
 30
0.0
 11
149.4079023423278
 21
151.2357683249367
 31
0.0
  0
LINE
  5
5FB
330
E3
100
AcDbEntity
  8
0
  6
Continuous
100
AcDbLine
 10
149.4079023423278
 20
151.2357683249367
 30
0.0
 11
149.3650148840563
 21
151.2377740854704
 31
0.0
  0
LINE
  5
5FC
330
E3
100
AcDbEntity
  8
0
  6
Continuous
100
AcDbLine
 10
149.3650148840563
 20
151.2377740854704
 30
0.0
 11
149.3230980706147
 21
151.2396115053881
 31
0.0
  0
LINE
  5
5FD
330
E3
100
AcDbEntity
  8
0
  6
Continuous
100
AcDbLine
 10
149.3230980706147
 20
151.2396115053881
 30
0.0
 11
149.2824599295133
 21
151.2412196955303
 31
0.0
  0
LINE
  5
5FE
330
E3
100
AcDbEntity
  8
0
  6
Continuous
100
AcDbLine
 10
149.2824599295133
 20
151.2412196955303
 30
0.0
 11
149.2434084882628
 21
151.2425520935992
 31
0.0
  0
LINE
  5
5FF
330
E3
100
AcDbEntity
  8
0
  6
Continuous
100
AcDbLine
 10
149.2434084882628
 20
151.2425520935992
 30
0.0
 11
149.206226702367
 21
151.2435513921509
 31
0.0
  0
LINE
  5
600
330
E3
100
AcDbEntity
  8
0
  6
Continuous
100
AcDbLine
 10
149.206226702367
 20
151.2435513921509
 30
0.0
 11
149.1711975273298
 21
151.2441710288873
 31
0.0
  0
LINE
  5
601
330
E3
100
AcDbEntity
  8
0
  6
Continuous
100
AcDbLine
 10
149.1711975273298
 20
151.2441710288873
 30
0.0
 11
149.1385752649333
 21
151.2443680232254
 31
0.0
  0
LINE
  5
602
330
E3
100
AcDbEntity
  8
0
  6
Continuous
100
AcDbLine
 10
149.1385752649333
 20
151.2443680232254
 30
0.0
 11
149.1086034718136
 21
151.2440958128673
 31
0.0
  0
LINE
  5
603
330
E3
100
AcDbEntity
  8
0
  6
Continuous
100
AcDbLine
 10
149.1086034718136
 20
151.2440958128673
 30
0.0
 11
149.0815042143155
 21
151.2433185806604
 31
0.0
  0
LINE
  5
604
330
E3
100
AcDbEntity
  8
0
  6
Continuous
100
AcDbLine
 10
149.0815042143155
 20
151.2433185806604
 30
0.0
 11
149.0574744867773
 21
151.2420005094525
 31
0.0
  0
LINE
  5
605
330
E3
100
AcDbEntity
  8
0
  6
Continuous
100
AcDbLine
 10
149.0574744867773
 20
151.2420005094525
 30
0.0
 11
149.0366897932455
 21
151.2401093638063
 31
0.0
  0
LINE
  5
606
330
E3
100
AcDbEntity
  8
0
  6
Continuous
100
AcDbLine
 10
149.0366897932455
 20
151.2401093638063
 30
0.0
 11
149.0193005657603
 21
151.2376200717152
 31
0.0
  0
LINE
  5
607
330
E3
100
AcDbEntity
  8
0
  6
Continuous
100
AcDbLine
 10
149.0193005657603
 20
151.2376200717152
 30
0.0
 11
149.005432164355
 21
151.2345111428878
 31
0.0
  0
LINE
  5
608
330
E3
100
AcDbEntity
  8
0
  6
Continuous
100
AcDbLine
 10
149.005432164355
 20
151.2345111428878
 30
0.0
 11
148.9951848770563
 21
151.2307610870326
 31
0.0
  0
LINE
  5
609
330
E3
100
AcDbEntity
  8
0
  6
Continuous
100
AcDbLine
 10
148.9951848770563
 20
151.2307610870326
 30
0.0
 11
148.9886274952115
 21
151.2263613811622
 31
0.0
  0
LINE
  5
60A
330
E3
100
AcDbEntity
  8
0
  6
Continuous
100
AcDbLine
 10
148.9886274952115
 20
151.2263613811622
 30
0.0
 11
148.9858036545524
 21
151.2213035151253
 31
0.0
  0
LINE
  5
60B
330
E3
100
AcDbEntity
  8
0
  6
Continuous
100
AcDbLine
 10
149.9364079786302
 20
150.8536780527741
 30
0.0
 11
149.9335841379711
 21
150.8486201867372
 31
0.0
  0
LINE
  5
60C
330
E3
100
AcDbEntity
  8
0
  6
Continuous
100
AcDbLine
 10
149.9335841379711
 20
150.8486201867372
 30
0.0
 11
149.9270270668242
 21
150.8442205899604
 31
0.0
  0
LINE
  5
60D
330
E3
100
AcDbEntity
  8
0
  6
Continuous
100
AcDbLine
 10
149.9270270668242
 20
150.8442205899604
 30
0.0
 11
149.91677811662
 21
150.8404723225875
 31
0.0
  0
LINE
  5
60E
330
E3
100
AcDbEntity
  8
0
  6
Continuous
100
AcDbLine
 10
149.91677811662
 20
150.8404723225875
 30
0.0
 11
149.9029132969299
 21
150.8373598120448
 31
0.0
  0
LINE
  5
60F
330
E3
100
AcDbEntity
  8
0
  6
Continuous
100
AcDbLine
 10
149.9029132969299
 20
150.8373598120448
 30
0.0
 11
149.8855240694447
 21
150.8348705199537
 31
0.0
  0
LINE
  5
610
330
E3
100
AcDbEntity
  8
0
  6
Continuous
100
AcDbLine
 10
149.8855240694447
 20
150.8348705199537
 30
0.0
 11
149.864739375913
 21
150.8329793743076
 31
0.0
  0
LINE
  5
611
330
E3
100
AcDbEntity
  8
0
  6
Continuous
100
AcDbLine
 10
149.864739375913
 20
150.8329793743076
 30
0.0
 11
149.8407060666595
 21
150.8316613030996
 31
0.0
  0
LINE
  5
612
330
E3
100
AcDbEntity
  8
0
  6
Continuous
100
AcDbLine
 10
149.8407060666595
 20
150.8316613030996
 30
0.0
 11
149.8136068091614
 21
150.8308840708927
 31
0.0
  0
LINE
  5
613
330
E3
100
AcDbEntity
  8
0
  6
Continuous
100
AcDbLine
 10
149.8136068091614
 20
150.8308840708927
 30
0.0
 11
149.7836350160417
 21
150.8306154422498
 31
0.0
  0
LINE
  5
614
330
E3
100
AcDbEntity
  8
0
  6
Continuous
100
AcDbLine
 10
149.7836350160417
 20
150.8306154422498
 30
0.0
 11
149.7510127536452
 21
150.8308088548727
 31
0.0
  0
LINE
  5
615
330
E3
100
AcDbEntity
  8
0
  6
Continuous
100
AcDbLine
 10
149.7510127536452
 20
150.8308088548727
 30
0.0
 11
149.715983578608
 21
150.8314320733243
 31
0.0
  0
LINE
  5
616
330
E3
100
AcDbEntity
  8
0
  6
Continuous
100
AcDbLine
 10
149.715983578608
 20
150.8314320733243
 30
0.0
 11
149.6788053744275
 21
150.832431371876
 31
0.0
  0
LINE
  5
617
330
E3
100
AcDbEntity
  8
0
  6
Continuous
100
AcDbLine
 10
149.6788053744275
 20
150.832431371876
 30
0.0
 11
149.6397503514617
 21
150.8337601882296
 31
0.0
  0
LINE
  5
618
330
E3
100
AcDbEntity
  8
0
  6
Continuous
100
AcDbLine
 10
149.6397503514617
 20
150.8337601882296
 30
0.0
 11
149.5991157920756
 21
150.8353719600872
 31
0.0
  0
LINE
  5
619
330
E3
100
AcDbEntity
  8
0
  6
Continuous
100
AcDbLine
 10
149.5991157920756
 20
150.8353719600872
 30
0.0
 11
149.5571953969186
 21
150.8372057982895
 31
0.0
  0
LINE
  5
61A
330
E3
100
AcDbEntity
  8
0
  6
Continuous
100
AcDbLine
 10
149.5571953969186
 20
150.8372057982895
 30
0.0
 11
149.5143079386472
 21
150.8392115588233
 31
0.0
  0
LINE
  5
61B
330
E3
100
AcDbEntity
  8
0
  6
Continuous
100
AcDbLine
 10
149.5143079386472
 20
150.8392115588233
 30
0.0
 11
149.4707686082022
 21
150.8413355159601
 31
0.0
  0
LINE
  5
61C
330
E3
100
AcDbEntity
  8
0
  6
Continuous
100
AcDbLine
 10
149.4707686082022
 20
150.8413355159601
 30
0.0
 11
149.4269033416706
 21
150.8435131988253
 31
0.0
  0
LINE
  5
61D
330
E3
100
AcDbEntity
  8
0
  6
Continuous
100
AcDbLine
 10
149.4269033416706
 20
150.8435131988253
 30
0.0
 11
149.3830380751389
 21
150.8456908816906
 31
0.0
  0
LINE
  5
61E
330
E3
100
AcDbEntity
  8
0
  6
Continuous
100
AcDbLine
 10
149.3830380751389
 20
150.8456908816906
 30
0.0
 11
149.3394987446939
 21
150.8478148388274
 31
0.0
  0
LINE
  5
61F
330
E3
100
AcDbEntity
  8
0
  6
Continuous
100
AcDbLine
 10
149.3394987446939
 20
150.8478148388274
 30
0.0
 11
149.2966077047072
 21
150.8498205993612
 31
0.0
  0
LINE
  5
620
330
E3
100
AcDbEntity
  8
0
  6
Continuous
100
AcDbLine
 10
149.2966077047072
 20
150.8498205993612
 30
0.0
 11
149.2546908912655
 21
150.8516544375636
 31
0.0
  0
LINE
  5
621
330
E3
100
AcDbEntity
  8
0
  6
Continuous
100
AcDbLine
 10
149.2546908912655
 20
150.8516544375636
 30
0.0
 11
149.2140527501642
 21
150.8532662094211
 31
0.0
  0
LINE
  5
622
330
E3
100
AcDbEntity
  8
0
  6
Continuous
100
AcDbLine
 10
149.2140527501642
 20
150.8532662094211
 30
0.0
 11
149.1750013089136
 21
150.8545950257748
 31
0.0
  0
LINE
  5
623
330
E3
100
AcDbEntity
  8
0
  6
Continuous
100
AcDbLine
 10
149.1750013089136
 20
150.8545950257748
 30
0.0
 11
149.1378195230179
 21
150.8555943243264
 31
0.0
  0
LINE
  5
624
330
E3
100
AcDbEntity
  8
0
  6
Continuous
100
AcDbLine
 10
149.1378195230179
 20
150.8555943243264
 30
0.0
 11
149.1027903479807
 21
150.856217542778
 31
0.0
  0
LINE
  5
625
330
E3
100
AcDbEntity
  8
0
  6
Continuous
100
AcDbLine
 10
149.1027903479807
 20
150.856217542778
 30
0.0
 11
149.0701680855842
 21
150.8564145371161
 31
0.0
  0
LINE
  5
626
330
E3
100
AcDbEntity
  8
0
  6
Continuous
100
AcDbLine
 10
149.0701680855842
 20
150.8564145371161
 30
0.0
 11
149.0401998741797
 21
150.856142326758
 31
0.0
  0
LINE
  5
627
330
E3
100
AcDbEntity
  8
0
  6
Continuous
100
AcDbLine
 10
149.0401998741797
 20
150.856142326758
 30
0.0
 11
149.0130970349664
 21
150.8553650945511
 31
0.0
  0
LINE
  5
628
330
E3
100
AcDbEntity
  8
0
  6
Continuous
100
AcDbLine
 10
149.0130970349664
 20
150.8553650945511
 30
0.0
 11
148.9890673074281
 21
150.8540470233432
 31
0.0
  0
LINE
  5
629
330
E3
100
AcDbEntity
  8
0
  6
Continuous
100
AcDbLine
 10
148.9890673074281
 20
150.8540470233432
 30
0.0
 11
148.9682826138963
 21
150.852155877697
 31
0.0
  0
LINE
  5
62A
330
E3
100
AcDbEntity
  8
0
  6
Continuous
100
AcDbLine
 10
148.9682826138963
 20
150.852155877697
 30
0.0
 11
148.9508933864112
 21
150.8496665856059
 31
0.0
  0
LINE
  5
62B
330
E3
100
AcDbEntity
  8
0
  6
Continuous
100
AcDbLine
 10
148.9508933864112
 20
150.8496665856059
 30
0.0
 11
148.9370249850058
 21
150.8465540750633
 31
0.0
  0
LINE
  5
62C
330
E3
100
AcDbEntity
  8
0
  6
Continuous
100
AcDbLine
 10
148.9370249850058
 20
150.8465540750633
 30
0.0
 11
148.9267776977072
 21
150.8428076009233
 31
0.0
  0
ENDBLK
  5
E5
330
E3
100
AcDbEntity
  8
0
100
AcDbBlockEnd
  0
BLOCK
  5
632
330
631
100
AcDbEntity
  8
0
100
AcDbBlockBegin
  2
R-TRS9-06 BARGE DETAIL - HEAD_STORY_MARKER
 70
     0
 10
0.0
 20
0.0
 30
0.0
  3
R-TRS9-06 BARGE DETAIL - HEAD_STORY_MARKER
  1

  0
ENDBLK
  5
633
330
631
100
AcDbEntity
  8
0
100
AcDbBlockEnd
  0
ENDSEC
  0
SECTION
  2
ENTITIES
  0
HATCH
  5
3F
330
1F
100
AcDbEntity
  8
Doc_ Finishes
  6
Continuous
100
AcDbHatch
 10
0.0
 20
0.0
 30
0.0
210
0.0
220
0.0
230
1.0
  2
SOLID
 70
     1
 71
     0
 91
        1
 92
        3
 72
     0
 73
     1
 93
       54
 10
27.4117749414874
 20
16.87044408857867
 10
26.89356552397386
 20
16.5825499677378
 10
26.5480925789648
 20
16.29465584689693
 10
26.12584786839819
 20
16.02595466744544
 10
25.76118198199976
 20
15.60370995687884
 10
25.39651609560134
 20
15.33500877742737
 10
25.07023609198168
 20
14.89357112547136
 10
24.49444785029994
 20
14.45213347351537
 10
23.93785255000758
 20
14.02988876294876
 10
23.43883607388344
 20
13.81876640766546
 10
22.74789018386533
 20
13.39652169709885
 10
22.09533017662603
 20
12.99346992792163
 10
21.63469958328064
 20
12.55203227596564
 10
20.90536781048376
 20
12.12978756539902
 10
20.59828074825351
 20
11.7459287376112
 10
20.04168544796116
 20
11.28529814426581
 10
19.36993249933246
 20
10.8630534336992
 10
18.73656543348255
 20
10.42161578174319
 10
18.04561954346447
 20
10.15291460229172
 10
17.1051654153843
 20
9.692284008946325
 10
16.39502658397681
 20
9.020531060317637
 10
15.83843128368446
 20
8.598286349751023
 10
15.12829245227699
 20
8.137655756405634
 10
14.84039833143612
 20
7.98411222529051
 10
14.37976773809073
 20
7.81137575278599
 10
14.07268067586046
 20
7.523481631945121
 10
14.0151018516923
 20
7.216394569714853
 10
14.14945244141803
 20
6.890114566095209
 10
14.4373465622589
 20
6.563834562475543
 10
14.8787842142149
 20
6.659799269422514
 10
15.51215128006482
 20
7.06285103859973
 10
16.01116775618899
 20
7.389131042219374
 10
16.33744775980864
 20
7.696218104449641
 10
16.51018423231316
 20
7.907340459732938
 10
17.01303929671522
 20
8.421711288968723
 10
17.33548071205699
 20
8.652026585641417
 10
17.75004824606785
 20
8.99749953065046
 10
18.14158425041142
 20
9.204783297655894
 10
19.24709767444037
 20
9.75754000967037
 10
20.23745345013295
 20
10.47151742935572
 10
21.4120614631637
 20
11.1624633193738
 10
21.84966052684182
 20
11.64612544238645
 10
22.49454335752537
 20
12.06069297639732
 10
23.78430901889248
 20
12.9819541630881
 10
24.3600972605742
 20
13.25833251909534
 10
25.6498629219413
 20
14.24868829478776
 10
25.85714668894673
 20
14.64022429913134
 10
26.68628175696843
 20
15.23904407048036
 10
27.28510152831745
 20
15.72270619349301
 10
27.81482671066464
 20
16.1142421978366
 10
28.27545730401003
 20
16.52880973184745
 10
28.22939424467549
 20
16.7821565581874
 10
28.09120506667188
 20
16.89731420652375
 10
27.56147988432467
 20
16.89731420652375
 97
        0
 75
     0
 76
     1
 98
        0
  0
LINE
  5
41
330
1F
100
AcDbEntity
  8
Doc_ Finishes
  6
Continuous
100
AcDbLine
 10
27.41177566876475
 20
16.87044600708104
 30
0.0
 11
26.89356756490952
 21
16.58254868214004
 31
0.0
  0
LINE
  5
42
330
1F
100
AcDbEntity
  8
Doc_ Finishes
  6
Continuous
100
AcDbLine
 10
26.89356756490952
 20
16.58254868214004
 30
0.0
 11
26.54809254523997
 21
16.29465578284815
 31
0.0
  0
LINE
  5
43
330
1F
100
AcDbEntity
  8
Doc_ Finishes
  6
Continuous
100
AcDbLine
 10
26.54809254523997
 20
16.29465578284815
 30
0.0
 11
26.12584579071597
 21
16.02595249803305
 31
0.0
  0
LINE
  5
44
330
1F
100
AcDbEntity
  8
Doc_ Finishes
  6
Continuous
100
AcDbLine
 10
26.12584579071597
 20
16.02595249803305
 30
0.0
 11
25.76118115656963
 21
15.60371016915814
 31
0.0
  0
LINE
  5
45
330
1F
100
AcDbEntity
  8
Doc_ Finishes
  6
Continuous
100
AcDbLine
 10
25.76118115656963
 20
15.60371016915814
 30
0.0
 11
25.39651652242329
 21
15.33500688434304
 31
0.0
  0
LINE
  5
46
330
1F
100
AcDbEntity
  8
Doc_ Finishes
  6
Continuous
100
AcDbLine
 10
25.39651652242329
 20
15.33500688434304
 30
0.0
 11
25.07023554287962
 21
14.89357051534225
 31
0.0
  0
LINE
  5
47
330
1F
100
AcDbEntity
  8
Doc_ Finishes
  6
Continuous
100
AcDbLine
 10
25.07023554287962
 20
14.89357051534225
 30
0.0
 11
24.49444974429583
 21
14.45213414634146
 31
0.0
  0
LINE
  5
48
330
1F
100
AcDbEntity
  8
Doc_ Finishes
  6
Continuous
100
AcDbLine
 10
24.49444974429583
 20
14.45213414634146
 30
0.0
 11
23.93785356018882
 21
14.02988739181747
 31
0.0
  0
LINE
  5
49
330
1F
100
AcDbEntity
  8
Doc_ Finishes
  6
Continuous
100
AcDbLine
 10
23.93785356018882
 20
14.02988739181747
 30
0.0
 11
23.43883507081038
 21
13.81876622738001
 31
0.0
  0
LINE
  5
4A
330
1F
100
AcDbEntity
  8
Doc_ Finishes
  6
Continuous
100
AcDbLine
 10
23.43883507081038
 20
13.81876622738001
 30
0.0
 11
22.74788945712038
 21
13.39652389850511
 31
0.0
  0
LINE
  5
4B
330
1F
100
AcDbEntity
  8
Doc_ Finishes
  6
Continuous
100
AcDbLine
 10
22.74788945712038
 20
13.39652389850511
 30
0.0
 11
22.09533192368214
 21
12.993471184107
 31
0.0
  0
LINE
  5
4C
330
1F
100
AcDbEntity
  8
Doc_ Finishes
  6
Continuous
100
AcDbLine
 10
22.09533192368214
 20
12.993471184107
 30
0.0
 11
21.63470151455547
 21
12.55203038945712
 31
0.0
  0
LINE
  5
4D
330
1F
100
AcDbEntity
  8
Doc_ Finishes
  6
Continuous
100
AcDbLine
 10
21.63470151455547
 20
12.55203038945712
 30
0.0
 11
20.90536782061369
 21
12.12978806058222
 31
0.0
  0
LINE
  5
4E
330
1F
100
AcDbEntity
  8
Doc_ Finishes
  6
Continuous
100
AcDbLine
 10
20.90536782061369
 20
12.12978806058222
 30
0.0
 11
20.59828088119591
 21
11.74592938630999
 31
0.0
  0
LINE
  5
4F
330
1F
100
AcDbEntity
  8
Doc_ Finishes
  6
Continuous
100
AcDbLine
 10
20.59828088119591
 20
11.74592938630999
 30
0.0
 11
20.0416846970889
 21
11.28529897718332
 31
0.0
  0
LINE
  5
50
330
1F
100
AcDbEntity
  8
Doc_ Finishes
  6
Continuous
100
AcDbLine
 10
20.0416846970889
 20
11.28529897718332
 30
0.0
 11
19.36993312352478
 21
10.86305222265932
 31
0.0
  0
LINE
  5
51
330
1F
100
AcDbEntity
  8
Doc_ Finishes
  6
Continuous
100
AcDbLine
 10
19.36993312352478
 20
10.86305222265932
 30
0.0
 11
18.73656520456333
 21
10.42161585365854
 31
0.0
  0
LINE
  5
52
330
1F
100
AcDbEntity
  8
Doc_ Finishes
  6
Continuous
100
AcDbLine
 10
18.73656520456333
 20
10.42161585365854
 30
0.0
 11
18.04561959087333
 21
10.15291256884343
 31
0.0
  0
LINE
  5
53
330
1F
100
AcDbEntity
  8
Doc_ Finishes
  6
Continuous
100
AcDbLine
 10
18.04561959087333
 20
10.15291256884343
 30
0.0
 11
17.1051647324941
 21
9.692282159716758
 31
0.0
  0
LINE
  5
54
330
1F
100
AcDbEntity
  8
Doc_ Finishes
  6
Continuous
100
AcDbLine
 10
17.1051647324941
 20
9.692282159716758
 30
0.0
 11
16.3950250786782
 21
9.020530586152635
 31
0.0
  0
LINE
  5
55
330
1F
100
AcDbEntity
  8
Doc_ Finishes
  6
Continuous
100
AcDbLine
 10
16.3950250786782
 20
9.020530586152635
 30
0.0
 11
15.8384333202203
 21
8.598288257277733
 31
0.0
  0
LINE
  5
56
330
1F
100
AcDbEntity
  8
Doc_ Finishes
  6
Continuous
100
AcDbLine
 10
15.8384333202203
 20
8.598288257277733
 30
0.0
 11
15.1282936664044
 21
8.137657848151063
 31
0.0
  0
LINE
  5
57
330
1F
100
AcDbEntity
  8
Doc_ Finishes
  6
Continuous
100
AcDbLine
 10
15.1282936664044
 20
8.137657848151063
 30
0.0
 11
14.84039634146341
 21
7.984114378442171
 31
0.0
  0
LINE
  5
58
330
1F
100
AcDbEntity
  8
Doc_ Finishes
  6
Continuous
100
AcDbLine
 10
14.84039634146341
 20
7.984114378442171
 30
0.0
 11
14.37976593233674
 21
7.811376868607396
 31
0.0
  0
LINE
  5
59
330
1F
100
AcDbEntity
  8
Doc_ Finishes
  6
Continuous
100
AcDbLine
 10
14.37976593233674
 20
7.811376868607396
 30
0.0
 11
14.07267899291896
 21
7.523479543666405
 31
0.0
  0
LINE
  5
5A
330
1F
100
AcDbEntity
  8
Doc_ Finishes
  6
Continuous
100
AcDbLine
 10
14.07267899291896
 20
7.523479543666405
 30
0.0
 11
14.0151012981904
 21
7.216392604248622
 31
0.0
  0
LINE
  5
5B
330
1F
100
AcDbEntity
  8
Doc_ Finishes
  6
Continuous
100
AcDbLine
 10
14.0151012981904
 20
7.216392604248622
 30
0.0
 11
14.14945072777341
 21
6.890116050354051
 31
0.0
  0
LINE
  5
5C
330
1F
100
AcDbEntity
  8
Doc_ Finishes
  6
Continuous
100
AcDbLine
 10
14.14945072777341
 20
6.890116050354051
 30
0.0
 11
14.4373480527144
 21
6.563835070810386
 31
0.0
  0
LINE
  5
5D
330
1F
100
AcDbEntity
  8
Doc_ Finishes
  6
Continuous
100
AcDbLine
 10
14.4373480527144
 20
6.563835070810386
 30
0.0
 11
14.87878442171519
 21
6.659800845790715
 31
0.0
  0
LINE
  5
5E
330
1F
100
AcDbEntity
  8
Doc_ Finishes
  6
Continuous
100
AcDbLine
 10
14.87878442171519
 20
6.659800845790715
 30
0.0
 11
15.51215234067663
 21
7.062849134539732
 31
0.0
  0
LINE
  5
5F
330
1F
100
AcDbEntity
  8
Doc_ Finishes
  6
Continuous
100
AcDbLine
 10
15.51215234067663
 20
7.062849134539732
 30
0.0
 11
16.01116640440598
 21
7.389130114083398
 31
0.0
  0
LINE
  5
60
330
1F
100
AcDbEntity
  8
Doc_ Finishes
  6
Continuous
100
AcDbLine
 10
16.01116640440598
 20
7.389130114083398
 30
0.0
 11
16.33744738394964
 21
7.69621705350118
 31
0.0
  0
LINE
  5
61
330
1F
100
AcDbEntity
  8
Doc_ Finishes
  6
Continuous
100
AcDbLine
 10
16.33744738394964
 20
7.69621705350118
 30
0.0
 11
16.51018489378442
 21
7.907342643587726
 31
0.0
  0
LINE
  5
62
330
1F
100
AcDbEntity
  8
Doc_ Finishes
  6
Continuous
100
AcDbLine
 10
16.51018489378442
 20
7.907342643587726
 30
0.0
 11
17.0130404209284
 21
8.421709284028323
 31
0.0
  0
LINE
  5
63
330
1F
100
AcDbEntity
  8
Doc_ Finishes
  6
Continuous
100
AcDbLine
 10
17.0130404209284
 20
8.421709284028323
 30
0.0
 11
17.33547993705743
 21
8.65202448859166
 31
0.0
  0
LINE
  5
64
330
1F
100
AcDbEntity
  8
Doc_ Finishes
  6
Continuous
100
AcDbLine
 10
17.33547993705743
 20
8.65202448859166
 30
0.0
 11
17.75004819040126
 21
8.997499508261212
 31
0.0
  0
LINE
  5
65
330
1F
100
AcDbEntity
  8
Doc_ Finishes
  6
Continuous
100
AcDbLine
 10
17.75004819040126
 20
8.997499508261212
 30
0.0
 11
18.14158536585366
 21
9.204783634933122
 31
0.0
  0
LINE
  5
66
330
1F
100
AcDbEntity
  8
Doc_ Finishes
  6
Continuous
100
AcDbLine
 10
18.14158536585366
 20
9.204783634933122
 30
0.0
 11
19.24709923288749
 21
9.75753835562549
 31
0.0
  0
LINE
  5
67
330
1F
100
AcDbEntity
  8
Doc_ Finishes
  6
Continuous
100
AcDbLine
 10
19.24709923288749
 20
9.75753835562549
 30
0.0
 11
20.23745328481511
 21
10.47151947285602
 31
0.0
  0
LINE
  5
68
330
1F
100
AcDbEntity
  8
Doc_ Finishes
  6
Continuous
100
AcDbLine
 10
20.23745328481511
 20
10.47151947285602
 30
0.0
 11
21.41206038552321
 21
11.16246508654602
 31
0.0
  0
LINE
  5
69
330
1F
100
AcDbEntity
  8
Doc_ Finishes
  6
Continuous
100
AcDbLine
 10
21.41206038552321
 20
11.16246508654602
 30
0.0
 11
21.84965971675846
 21
11.64612657356412
 31
0.0
  0
LINE
  5
6A
330
1F
100
AcDbEntity
  8
Doc_ Finishes
  6
Continuous
100
AcDbLine
 10
21.84965971675846
 20
11.64612657356412
 30
0.0
 11
22.49454317466562
 21
12.06069482690795
 31
0.0
  0
LINE
  5
6B
330
1F
100
AcDbEntity
  8
Doc_ Finishes
  6
Continuous
100
AcDbLine
 10
22.49454317466562
 20
12.06069482690795
 30
0.0
 11
23.78431009047993
 21
12.98195564516129
 31
0.0
  0
LINE
  5
6C
330
1F
100
AcDbEntity
  8
Doc_ Finishes
  6
Continuous
100
AcDbLine
 10
23.78431009047993
 20
12.98195564516129
 30
0.0
 11
24.36009588906373
 21
13.25833300550747
 31
0.0
  0
LINE
  5
6D
330
1F
100
AcDbEntity
  8
Doc_ Finishes
  6
Continuous
100
AcDbLine
 10
24.36009588906373
 20
13.25833300550747
 30
0.0
 11
25.64986280487805
 21
14.24868705743509
 31
0.0
  0
LINE
  5
6E
330
1F
100
AcDbEntity
  8
Doc_ Finishes
  6
Continuous
100
AcDbLine
 10
25.64986280487805
 20
14.24868705743509
 30
0.0
 11
25.85714693154996
 21
14.64022423288749
 31
0.0
  0
LINE
  5
6F
330
1F
100
AcDbEntity
  8
Doc_ Finishes
  6
Continuous
100
AcDbLine
 10
25.85714693154996
 20
14.64022423288749
 30
0.0
 11
26.68628343823761
 21
15.2390455350118
 31
0.0
  0
LINE
  5
70
330
1F
100
AcDbEntity
  8
Doc_ Finishes
  6
Continuous
100
AcDbLine
 10
26.68628343823761
 20
15.2390455350118
 30
0.0
 11
27.28510031471282
 21
15.7227070220299
 31
0.0
  0
LINE
  5
71
330
1F
100
AcDbEntity
  8
Doc_ Finishes
  6
Continuous
100
AcDbLine
 10
27.28510031471282
 20
15.7227070220299
 30
0.0
 11
27.81482838316287
 21
16.1142441974823
 31
0.0
  0
LINE
  5
72
330
1F
100
AcDbEntity
  8
Doc_ Finishes
  6
Continuous
100
AcDbLine
 10
27.81482838316287
 20
16.1142441974823
 30
0.0
 11
28.27545879228953
 21
16.52880802517702
 31
0.0
  0
LINE
  5
73
330
1F
100
AcDbEntity
  8
Doc_ Finishes
  6
Continuous
100
AcDbLine
 10
28.27545879228953
 20
16.52880802517702
 30
0.0
 11
28.22939221085759
 21
16.78215873328088
 31
0.0
  0
LINE
  5
74
330
1F
100
AcDbEntity
  8
Doc_ Finishes
  6
Continuous
100
AcDbLine
 10
28.22939221085759
 20
16.78215873328088
 30
0.0
 11
28.09120574350905
 21
16.897314122738
 31
0.0
  0
LINE
  5
75
330
1F
100
AcDbEntity
  8
Doc_ Finishes
  6
Continuous
100
AcDbLine
 10
28.09120574350905
 20
16.897314122738
 30
0.0
 11
27.56147767505901
 21
16.897314122738
 31
0.0
  0
LINE
  5
76
330
1F
100
AcDbEntity
  8
Doc_ Finishes
  6
Continuous
100
AcDbLine
 10
27.56147767505901
 20
16.897314122738
 30
0.0
 11
27.41177566876475
 21
16.87044600708104
 31
0.0
  0
HATCH
  5
77
330
1F
100
AcDbEntity
  8
Doc_ Finishes
  6
Continuous
100
AcDbHatch
 10
0.0
 20
0.0
 30
0.0
210
0.0
220
0.0
230
1.0
  2
SOLID
 70
     1
 71
     0
 91
        1
 92
        3
 72
     0
 73
     1
 93
       39
 10
27.65360600299377
 20
13.12014334109181
 10
27.21600693931564
 20
12.77467039608275
 10
26.54809257896482
 20
12.24494521373555
 10
25.92624127794851
 20
11.85340920939199
 10
25.32742150659951
 20
11.32368402704478
 10
24.72860173525052
 20
11.04730567103754
 10
24.08371890456698
 20
10.56364354802488
 10
23.62308831122158
 20
10.33332825135219
 10
23.231552306878
 20
10.03391836567767
 10
22.81698477286715
 20
9.619350831666825
 10
22.40241723885631
 20
9.38903553499415
 10
21.91875511584363
 20
9.043562589985086
 10
21.66540828950367
 20
8.859310352646935
 10
21.25084075549282
 20
8.582931996639696
 10
20.09926427212933
 20
7.753796928618002
 10
19.75379132712029
 20
7.477418572610764
 10
19.2931607337749
 20
7.316197864939873
 10
19.22406614477309
 20
6.993756449598113
 10
19.3622553227767
 20
6.717378093590874
 10
19.63863367878394
 20
6.602220445254527
 10
20.00713815346026
 20
6.8325357419272
 10
20.26048497980021
 20
7.131945627601722
 10
20.55989486547472
 20
7.362260924274415
 10
21.31993534449462
 20
7.707733869283458
 10
21.84966052684182
 20
8.122301403294307
 10
22.88607936186895
 20
8.882341882314256
 10
23.20852077721072
 20
9.342972475659646
 10
24.01462431556515
 20
9.734508480003234
 10
24.5673810275796
 20
10.05694989534501
 10
25.46561068460312
 20
10.60970660735953
 10
25.88017821861399
 20
11.07033720070492
 10
26.31777728229212
 20
11.34671555671216
 10
26.70931328663569
 20
11.30065249737762
 10
27.21600693931562
 20
11.55399932371759
 10
28.0681735370046
 20
12.17585062473387
 10
28.41364648201364
 20
12.49829204007566
 10
28.39061495234636
 20
12.77467039608289
 10
28.22939424467547
 20
13.00498569275559
 10
28.04514200733732
 20
13.05104875209013
 97
        0
 75
     0
 76
     1
 98
        0
  0
LINE
  5
78
330
1F
100
AcDbEntity
  8
Doc_ Finishes
  6
Continuous
100
AcDbLine
 10
27.6536064122738
 20
13.12014211250983
 30
0.0
 11
27.21600708103855
 21
12.77467151848938
 31
0.0
  0
LINE
  5
79
330
1F
100
AcDbEntity
  8
Doc_ Finishes
  6
Continuous
100
AcDbLine
 10
27.21600708103855
 20
12.77467151848938
 30
0.0
 11
26.54809254523997
 21
12.24494345003934
 31
0.0
  0
LINE
  5
7A
330
1F
100
AcDbEntity
  8
Doc_ Finishes
  6
Continuous
100
AcDbLine
 10
26.54809254523997
 20
12.24494345003934
 30
0.0
 11
25.92624016522423
 21
11.85341070023603
 31
0.0
  0
LINE
  5
7B
330
1F
100
AcDbEntity
  8
Doc_ Finishes
  6
Continuous
100
AcDbLine
 10
25.92624016522423
 20
11.85341070023603
 30
0.0
 11
25.32742328874902
 21
11.32368263178599
 31
0.0
  0
LINE
  5
7C
330
1F
100
AcDbEntity
  8
Doc_ Finishes
  6
Continuous
100
AcDbLine
 10
25.32742328874902
 20
11.32368263178599
 30
0.0
 11
24.72860198662471
 21
11.04730527143981
 31
0.0
  0
LINE
  5
7D
330
1F
100
AcDbEntity
  8
Doc_ Finishes
  6
Continuous
100
AcDbLine
 10
24.72860198662471
 20
11.04730527143981
 30
0.0
 11
24.08371852871754
 21
10.56364378442171
 31
0.0
  0
LINE
  5
7E
330
1F
100
AcDbEntity
  8
Doc_ Finishes
  6
Continuous
100
AcDbLine
 10
24.08371852871754
 20
10.56364378442171
 30
0.0
 11
23.62308811959087
 21
10.33332857985838
 31
0.0
  0
LINE
  5
7F
330
1F
100
AcDbEntity
  8
Doc_ Finishes
  6
Continuous
100
AcDbLine
 10
23.62308811959087
 20
10.33332857985838
 30
0.0
 11
23.23155094413847
 21
10.03392014162077
 31
0.0
  0
LINE
  5
80
330
1F
100
AcDbEntity
  8
Doc_ Finishes
  6
Continuous
100
AcDbLine
 10
23.23155094413847
 20
10.03392014162077
 30
0.0
 11
22.81698269079465
 21
9.619351888276947
 31
0.0
  0
LINE
  5
81
330
1F
100
AcDbEntity
  8
Doc_ Finishes
  6
Continuous
100
AcDbLine
 10
22.81698269079465
 20
9.619351888276947
 30
0.0
 11
22.40241886309992
 21
9.389036683713611
 31
0.0
  0
LINE
  5
82
330
1F
100
AcDbEntity
  8
Doc_ Finishes
  6
Continuous
100
AcDbLine
 10
22.40241886309992
 20
9.389036683713611
 30
0.0
 11
21.91875295043273
 21
9.04356166404406
 31
0.0
  0
LINE
  5
83
330
1F
100
AcDbEntity
  8
Doc_ Finishes
  6
Continuous
100
AcDbLine
 10
21.91875295043273
 20
9.04356166404406
 30
0.0
 11
21.66540666797797
 21
8.859308615263572
 31
0.0
  0
LINE
  5
84
330
1F
100
AcDbEntity
  8
Doc_ Finishes
  6
Continuous
100
AcDbLine
 10
21.66540666797797
 20
8.859308615263572
 30
0.0
 11
21.25084284028324
 21
8.582931254917387
 31
0.0
  0
LINE
  5
85
330
1F
100
AcDbEntity
  8
Doc_ Finishes
  6
Continuous
100
AcDbLine
 10
21.25084284028324
 20
8.582931254917387
 30
0.0
 11
20.09926239181747
 21
7.75379474822974
 31
0.0
  0
LINE
  5
86
330
1F
100
AcDbEntity
  8
Doc_ Finishes
  6
Continuous
100
AcDbLine
 10
20.09926239181747
 20
7.75379474822974
 30
0.0
 11
19.75379179779701
 21
7.477417387883556
 31
0.0
  0
LINE
  5
87
330
1F
100
AcDbEntity
  8
Doc_ Finishes
  6
Continuous
100
AcDbLine
 10
19.75379179779701
 20
7.477417387883556
 30
0.0
 11
19.29316138867033
 21
7.316199842643588
 31
0.0
  0
LINE
  5
88
330
1F
100
AcDbEntity
  8
Doc_ Finishes
  6
Continuous
100
AcDbLine
 10
19.29316138867033
 20
7.316199842643588
 30
0.0
 11
19.22406815499606
 21
6.993755900865461
 31
0.0
  0
LINE
  5
89
330
1F
100
AcDbEntity
  8
Doc_ Finishes
  6
Continuous
100
AcDbLine
 10
19.22406815499606
 20
6.993755900865461
 30
0.0
 11
19.36225462234461
 21
6.717378540519276
 31
0.0
  0
LINE
  5
8A
330
1F
100
AcDbEntity
  8
Doc_ Finishes
  6
Continuous
100
AcDbLine
 10
19.36225462234461
 20
6.717378540519276
 30
0.0
 11
19.63863198269079
 21
6.602218725413059
 31
0.0
  0
LINE
  5
8B
330
1F
100
AcDbEntity
  8
Doc_ Finishes
  6
Continuous
100
AcDbLine
 10
19.63863198269079
 20
6.602218725413059
 30
0.0
 11
20.00713808025177
 21
6.832533929976396
 31
0.0
  0
LINE
  5
8C
330
1F
100
AcDbEntity
  8
Doc_ Finishes
  6
Continuous
100
AcDbLine
 10
20.00713808025177
 20
6.832533929976396
 30
0.0
 11
20.26048436270653
 21
7.1319467938631
 31
0.0
  0
LINE
  5
8D
330
1F
100
AcDbEntity
  8
Doc_ Finishes
  6
Continuous
100
AcDbLine
 10
20.26048436270653
 20
7.1319467938631
 30
0.0
 11
20.55989280094414
 21
7.362261998426435
 31
0.0
  0
LINE
  5
8E
330
1F
100
AcDbEntity
  8
Doc_ Finishes
  6
Continuous
100
AcDbLine
 10
20.55989280094414
 20
7.362261998426435
 30
0.0
 11
21.31993607395751
 21
7.707732592446892
 31
0.0
  0
LINE
  5
8F
330
1F
100
AcDbEntity
  8
Doc_ Finishes
  6
Continuous
100
AcDbLine
 10
21.31993607395751
 20
7.707732592446892
 30
0.0
 11
21.84965971675846
 21
8.122300845790717
 31
0.0
  0
LINE
  5
90
330
1F
100
AcDbEntity
  8
Doc_ Finishes
  6
Continuous
100
AcDbLine
 10
21.84965971675846
 20
8.122300845790717
 30
0.0
 11
22.88608035011802
 21
8.882339693154996
 31
0.0
  0
LINE
  5
91
330
1F
100
AcDbEntity
  8
Doc_ Finishes
  6
Continuous
100
AcDbLine
 10
22.88608035011802
 20
8.882339693154996
 30
0.0
 11
23.20851986624705
 21
9.342974527930762
 31
0.0
  0
LINE
  5
92
330
1F
100
AcDbEntity
  8
Doc_ Finishes
  6
Continuous
100
AcDbLine
 10
23.20851986624705
 20
9.342974527930762
 30
0.0
 11
24.01462529504327
 21
9.734507277734066
 31
0.0
  0
LINE
  5
93
330
1F
100
AcDbEntity
  8
Doc_ Finishes
  6
Continuous
100
AcDbLine
 10
24.01462529504327
 20
9.734507277734066
 30
0.0
 11
24.56738001573564
 21
10.05695121951219
 31
0.0
  0
LINE
  5
94
330
1F
100
AcDbEntity
  8
Doc_ Finishes
  6
Continuous
100
AcDbLine
 10
24.56738001573564
 20
10.05695121951219
 30
0.0
 11
25.46560975609756
 21
10.60970594020456
 31
0.0
  0
LINE
  5
95
330
1F
100
AcDbEntity
  8
Doc_ Finishes
  6
Continuous
100
AcDbLine
 10
25.46560975609756
 20
10.60970594020456
 30
0.0
 11
25.88017800944139
 21
11.07033634933124
 31
0.0
  0
LINE
  5
96
330
1F
100
AcDbEntity
  8
Doc_ Finishes
  6
Continuous
100
AcDbLine
 10
25.88017800944139
 20
11.07033634933124
 30
0.0
 11
26.31777734067663
 21
11.34671370967742
 31
0.0
  0
LINE
  5
97
330
1F
100
AcDbEntity
  8
Doc_ Finishes
  6
Continuous
100
AcDbLine
 10
26.31777734067663
 20
11.34671370967742
 30
0.0
 11
26.70931451612903
 21
11.30065155389457
 31
0.0
  0
LINE
  5
98
330
1F
100
AcDbEntity
  8
Doc_ Finishes
  6
Continuous
100
AcDbLine
 10
26.70931451612903
 20
11.30065155389457
 30
0.0
 11
27.21600708103855
 21
11.55399783634933
 31
0.0
  0
LINE
  5
99
330
1F
100
AcDbEntity
  8
Doc_ Finishes
  6
Continuous
100
AcDbLine
 10
27.21600708103855
 20
11.55399783634933
 30
0.0
 11
28.06817466561763
 21
12.17585021636507
 31
0.0
  0
LINE
  5
9A
330
1F
100
AcDbEntity
  8
Doc_ Finishes
  6
Continuous
100
AcDbLine
 10
28.06817466561763
 20
12.17585021636507
 30
0.0
 11
28.41364525963808
 21
12.49829415814319
 31
0.0
  0
LINE
  5
9B
330
1F
100
AcDbEntity
  8
Doc_ Finishes
  6
Continuous
100
AcDbLine
 10
28.41364525963808
 20
12.49829415814319
 30
0.0
 11
28.39061418174666
 21
12.77467151848938
 31
0.0
  0
LINE
  5
9C
330
1F
100
AcDbEntity
  8
Doc_ Finishes
  6
Continuous
100
AcDbLine
 10
28.39061418174666
 20
12.77467151848938
 30
0.0
 11
28.22939221085759
 21
13.00498672305271
 31
0.0
  0
LINE
  5
9D
330
1F
100
AcDbEntity
  8
Doc_ Finishes
  6
Continuous
100
AcDbLine
 10
28.22939221085759
 20
13.00498672305271
 30
0.0
 11
28.04514358772619
 21
13.05104887883556
 31
0.0
  0
LINE
  5
9E
330
1F
100
AcDbEntity
  8
Doc_ Finishes
  6
Continuous
100
AcDbLine
 10
28.04514358772619
 20
13.05104887883556
 30
0.0
 11
27.6536064122738
 21
13.12014211250983
 31
0.0
  0
HATCH
  5
9F
330
1F
100
AcDbEntity
  8
Doc_ Finishes
  6
Continuous
100
AcDbHatch
 10
0.0
 20
0.0
 30
0.0
210
0.0
220
0.0
230
1.0
  2
SOLID
 70
     1
 71
     0
 91
        1
 92
        3
 72
     0
 73
     1
 93
       47
 10
28.06817353700456
 20
15.74573772316067
 10
28.30309513961077
 20
15.62136746295728
 10
28.4412843176144
 20
15.4002647781515
 10
28.93876535842742
 20
15.17916209334572
 10
29.82317609765057
 20
14.40530269652538
 10
30.92868952167951
 20
13.74199464210799
 10
31.59199757609689
 20
13.3827027792986
 10
32.20002995931279
 20
13.07868658769064
 10
33.55428390374828
 20
12.08372450606458
 10
34.07940278016201
 20
11.69679480765445
 10
34.88090001258301
 20
11.08876242443854
 10
35.59948373820179
 20
10.50836787682334
 10
36.5668079842271
 20
9.817421986805197
 10
37.06428902504012
 20
9.458130123995785
 10
37.81051058625966
 20
8.933011247582023
 10
38.61200781868061
 20
8.407892371168286
 10
38.77783483228498
 20
8.186789686362482
 10
39.38586721550092
 20
7.744584316750918
 10
40.18736444792187
 20
6.915449248729224
 10
40.7953968311378
 20
6.44560604351692
 10
41.56925622795804
 20
6.169227687509681
 10
42.23256428237543
 20
6.086314180707507
 10
42.48130480278193
 20
6.30741686551329
 10
42.14965077557326
 20
6.611433057121246
 10
41.48634272115586
 20
6.998362755531397
 10
40.76775899553709
 20
7.357654618340788
 10
40.18736444792187
 20
8.048600508358874
 10
38.99893751709079
 20
8.822459905179112
 10
38.47381864067705
 20
9.319940945992132
 10
38.22507812027052
 20
9.734508480003
 10
37.17484036744301
 20
10.31490302761817
 10
36.73263499783144
 20
10.78474623283046
 10
36.2351539570184
 20
11.17167593124059
 10
35.48893239579888
 20
11.61388130085215
 10
34.85326217698223
 20
12.16663801286669
 10
34.35578113616919
 20
12.58120554687754
 10
33.69247308175183
 20
12.99577308088841
 10
33.22262987653953
 20
13.32742710809708
 10
32.7251488357265
 20
13.5761676285036
 10
31.93747052110588
 20
14.06443605744977
 10
31.43077686842594
 20
14.38687747279155
 10
30.92408321574601
 20
14.70931888813342
 10
30.62467333007151
 20
15.100854892477
 10
29.95675896972068
 20
15.67664313415887
 10
29.47309684670803
 20
15.9530214901661
 10
28.82821401602447
 20
16.36758902417695
 10
28.50577260068269
 20
16.22939984617334
 97
        0
 75
     0
 76
     1
 98
        0
  0
LINE
  5
A0
330
1F
100
AcDbEntity
  8
Doc_ Finishes
  6
Continuous
100
AcDbLine
 10
28.30309697088906
 20
15.62136850904799
 30
0.0
 11
28.06817466561763
 21
15.74573809992132
 31
0.0
  0
LINE
  5
A1
330
1F
100
AcDbEntity
  8
Doc_ Finishes
  6
Continuous
100
AcDbLine
 10
28.44128343823761
 20
15.40026308025177
 30
0.0
 11
28.30309697088906
 21
15.62136850904799
 31
0.0
  0
LINE
  5
A2
330
1F
100
AcDbEntity
  8
Doc_ Finishes
  6
Continuous
100
AcDbLine
 10
28.93876622738001
 20
15.17916207710464
 30
0.0
 11
28.44128343823761
 21
15.40026308025177
 31
0.0
  0
LINE
  5
A3
330
1F
100
AcDbEntity
  8
Doc_ Finishes
  6
Continuous
100
AcDbLine
 10
29.82317466561762
 20
14.40530192761605
 30
0.0
 11
28.93876622738001
 21
15.17916207710464
 31
0.0
  0
LINE
  5
A4
330
1F
100
AcDbEntity
  8
Doc_ Finishes
  6
Continuous
100
AcDbLine
 10
30.92868853265146
 20
13.74199449252557
 30
0.0
 11
29.82317466561762
 21
14.40530192761605
 31
0.0
  0
LINE
  5
A5
330
1F
100
AcDbEntity
  8
Doc_ Finishes
  6
Continuous
100
AcDbLine
 10
31.59199596774193
 20
13.3827025963808
 30
0.0
 11
30.92868853265146
 21
13.74199449252557
 31
0.0
  0
LINE
  5
A6
330
1F
100
AcDbEntity
  8
Doc_ Finishes
  6
Continuous
100
AcDbLine
 10
32.20003147128246
 20
13.07868705743509
 30
0.0
 11
31.59199596774193
 21
13.3827025963808
 31
0.0
  0
LINE
  5
A7
330
1F
100
AcDbEntity
  8
Doc_ Finishes
  6
Continuous
100
AcDbLine
 10
33.55428452006294
 20
12.08372590479937
 30
0.0
 11
32.20003147128246
 21
13.07868705743509
 31
0.0
  0
LINE
  5
A8
330
1F
100
AcDbEntity
  8
Doc_ Finishes
  6
Continuous
100
AcDbLine
 10
34.07940106215578
 20
11.69679583005508
 30
0.0
 11
33.55428452006294
 21
12.08372590479937
 31
0.0
  0
LINE
  5
A9
330
1F
100
AcDbEntity
  8
Doc_ Finishes
  6
Continuous
100
AcDbLine
 10
34.8808993902439
 20
11.08876032651456
 30
0.0
 11
34.07940106215578
 21
11.69679583005508
 31
0.0
  0
LINE
  5
AA
330
1F
100
AcDbEntity
  8
Doc_ Finishes
  6
Continuous
100
AcDbLine
 10
35.59948318253343
 20
10.50836742722266
 30
0.0
 11
34.8808993902439
 21
11.08876032651456
 31
0.0
  0
LINE
  5
AB
330
1F
100
AcDbEntity
  8
Doc_ Finishes
  6
Continuous
100
AcDbLine
 10
36.56680615656963
 20
9.817421813532652
 30
0.0
 11
35.59948318253343
 21
10.50836742722266
 31
0.0
  0
LINE
  5
AC
330
1F
100
AcDbEntity
  8
Doc_ Finishes
  6
Continuous
100
AcDbLine
 10
37.06428894571204
 20
9.458129917387884
 30
0.0
 11
36.56680615656963
 21
9.817421813532652
 31
0.0
  0
LINE
  5
AD
330
1F
100
AcDbEntity
  8
Doc_ Finishes
  6
Continuous
100
AcDbLine
 10
37.8105109166011
 20
8.933013375295044
 30
0.0
 11
37.06428894571204
 21
9.458129917387884
 31
0.0
  0
LINE
  5
AE
330
1F
100
AcDbEntity
  8
Doc_ Finishes
  6
Continuous
100
AcDbLine
 10
38.61200924468922
 20
8.407892407553108
 30
0.0
 11
37.8105109166011
 21
8.933013375295044
 31
0.0
  0
LINE
  5
AF
330
1F
100
AcDbEntity
  8
Doc_ Finishes
  6
Continuous
100
AcDbLine
 10
38.77783389063729
 20
8.18679140440598
 30
0.0
 11
38.61200924468922
 21
8.407892407553108
 31
0.0
  0
LINE
  5
B0
330
1F
100
AcDbEntity
  8
Doc_ Finishes
  6
Continuous
100
AcDbLine
 10
39.3858693941778
 20
7.744584972462627
 30
0.0
 11
38.77783389063729
 21
8.18679140440598
 31
0.0
  0
LINE
  5
B1
330
1F
100
AcDbEntity
  8
Doc_ Finishes
  6
Continuous
100
AcDbLine
 10
40.18736329661684
 20
6.915448465774981
 30
0.0
 11
39.3858693941778
 21
7.744584972462627
 31
0.0
  0
LINE
  5
B2
330
1F
100
AcDbEntity
  8
Doc_ Finishes
  6
Continuous
100
AcDbLine
 10
40.79539880015735
 20
6.4456038552321
 30
0.0
 11
40.18736329661684
 21
6.915448465774981
 31
0.0
  0
LINE
  5
B3
330
1F
100
AcDbEntity
  8
Doc_ Finishes
  6
Continuous
100
AcDbLine
 10
41.56925452399685
 20
6.169226494885916
 30
0.0
 11
40.79539880015735
 21
6.4456038552321
 31
0.0
  0
LINE
  5
B4
330
1F
100
AcDbEntity
  8
Doc_ Finishes
  6
Continuous
100
AcDbLine
 10
42.23256638473643
 20
6.086316384736428
 30
0.0
 11
41.56925452399685
 21
6.169226494885916
 31
0.0
  0
LINE
  5
B5
330
1F
100
AcDbEntity
  8
Doc_ Finishes
  6
Continuous
100
AcDbLine
 10
42.48130556648308
 20
6.307417387883556
 30
0.0
 11
42.23256638473643
 21
6.086316384736428
 31
0.0
  0
LINE
  5
B6
330
1F
100
AcDbEntity
  8
Doc_ Finishes
  6
Continuous
100
AcDbLine
 10
42.14965184893784
 20
6.611432926829268
 30
0.0
 11
42.48130556648308
 21
6.307417387883556
 31
0.0
  0
LINE
  5
B7
330
1F
100
AcDbEntity
  8
Doc_ Finishes
  6
Continuous
100
AcDbLine
 10
41.48634441384736
 20
6.998363001573564
 30
0.0
 11
42.14965184893784
 21
6.611432926829268
 31
0.0
  0
LINE
  5
B8
330
1F
100
AcDbEntity
  8
Doc_ Finishes
  6
Continuous
100
AcDbLine
 10
40.76776062155783
 20
7.357654897718332
 30
0.0
 11
41.48634441384736
 21
6.998363001573564
 31
0.0
  0
LINE
  5
B9
330
1F
100
AcDbEntity
  8
Doc_ Finishes
  6
Continuous
100
AcDbLine
 10
40.18736329661684
 20
8.048600511408338
 30
0.0
 11
40.76776062155783
 21
7.357654897718332
 31
0.0
  0
LINE
  5
BA
330
1F
100
AcDbEntity
  8
Doc_ Finishes
  6
Continuous
100
AcDbLine
 10
38.99893931943352
 20
8.822460660896931
 30
0.0
 11
40.18736329661684
 21
8.048600511408338
 31
0.0
  0
LINE
  5
BB
330
1F
100
AcDbEntity
  8
Doc_ Finishes
  6
Continuous
100
AcDbLine
 10
38.47381835169158
 20
9.319939024390242
 30
0.0
 11
38.99893931943352
 21
8.822460660896931
 31
0.0
  0
LINE
  5
BC
330
1F
100
AcDbEntity
  8
Doc_ Finishes
  6
Continuous
100
AcDbLine
 10
38.22507916994492
 20
9.734507277734066
 30
0.0
 11
38.47381835169158
 21
9.319939024390242
 31
0.0
  0
LINE
  5
BD
330
1F
100
AcDbEntity
  8
Doc_ Finishes
  6
Continuous
100
AcDbLine
 10
37.17484166011014
 20
10.31490460267506
 30
0.0
 11
38.22507916994492
 21
9.734507277734066
 31
0.0
  0
LINE
  5
BE
330
1F
100
AcDbEntity
  8
Doc_ Finishes
  6
Continuous
100
AcDbLine
 10
36.7326352281668
 20
10.78474478756884
 30
0.0
 11
37.17484166011014
 21
10.31490460267506
 31
0.0
  0
LINE
  5
BF
330
1F
100
AcDbEntity
  8
Doc_ Finishes
  6
Continuous
100
AcDbLine
 10
36.23515243902439
 20
11.17167486231314
 30
0.0
 11
36.7326352281668
 21
10.78474478756884
 31
0.0
  0
LINE
  5
C0
330
1F
100
AcDbEntity
  8
Doc_ Finishes
  6
Continuous
100
AcDbLine
 10
35.48893046813532
 20
11.61388129425649
 30
0.0
 11
36.23515243902439
 21
11.17167486231314
 31
0.0
  0
LINE
  5
C1
330
1F
100
AcDbEntity
  8
Doc_ Finishes
  6
Continuous
100
AcDbLine
 10
34.85326121164437
 20
12.16663601494886
 30
0.0
 11
35.48893046813532
 21
11.61388129425649
 31
0.0
  0
LINE
  5
C2
330
1F
100
AcDbEntity
  8
Doc_ Finishes
  6
Continuous
100
AcDbLine
 10
34.35578284815106
 20
12.58120426829268
 30
0.0
 11
34.85326121164437
 21
12.16663601494886
 31
0.0
  0
LINE
  5
C3
330
1F
100
AcDbEntity
  8
Doc_ Finishes
  6
Continuous
100
AcDbLine
 10
33.69247098741149
 20
12.99577252163651
 30
0.0
 11
34.35578284815106
 21
12.58120426829268
 31
0.0
  0
LINE
  5
C4
330
1F
100
AcDbEntity
  8
Doc_ Finishes
  6
Continuous
100
AcDbLine
 10
33.2226308025177
 20
13.32742623918175
 30
0.0
 11
33.69247098741149
 21
12.99577252163651
 31
0.0
  0
LINE
  5
C5
330
1F
100
AcDbEntity
  8
Doc_ Finishes
  6
Continuous
100
AcDbLine
 10
32.7251480133753
 20
13.5761654209284
 30
0.0
 11
33.2226308025177
 21
13.32742623918175
 31
0.0
  0
LINE
  5
C6
330
1F
100
AcDbEntity
  8
Doc_ Finishes
  6
Continuous
100
AcDbLine
 10
31.93747098741148
 20
14.0644340086546
 30
0.0
 11
32.7251480133753
 21
13.5761654209284
 31
0.0
  0
LINE
  5
C7
330
1F
100
AcDbEntity
  8
Doc_ Finishes
  6
Continuous
100
AcDbLine
 10
31.43077842250197
 20
14.38687795043273
 30
0.0
 11
31.93747098741148
 21
14.0644340086546
 31
0.0
  0
LINE
  5
C8
330
1F
100
AcDbEntity
  8
Doc_ Finishes
  6
Continuous
100
AcDbLine
 10
30.92408143194335
 20
14.70931746656176
 30
0.0
 11
31.43077842250197
 21
14.38687795043273
 31
0.0
  0
LINE
  5
C9
330
1F
100
AcDbEntity
  8
Doc_ Finishes
  6
Continuous
100
AcDbLine
 10
30.62467299370574
 20
15.10085464201416
 30
0.0
 11
30.92408143194335
 21
14.70931746656176
 31
0.0
  0
LINE
  5
CA
330
1F
100
AcDbEntity
  8
Doc_ Finishes
  6
Continuous
100
AcDbLine
 10
29.95675845790716
 20
15.67664486624705
 30
0.0
 11
30.62467299370574
 21
15.10085464201416
 31
0.0
  0
LINE
  5
CB
330
1F
100
AcDbEntity
  8
Doc_ Finishes
  6
Continuous
100
AcDbLine
 10
29.47309697088906
 20
15.95302222659323
 30
0.0
 11
29.95675845790716
 21
15.67664486624705
 31
0.0
  0
LINE
  5
CC
330
1F
100
AcDbEntity
  8
Doc_ Finishes
  6
Continuous
100
AcDbLine
 10
28.8282135129819
 20
16.36759047993706
 30
0.0
 11
29.47309697088906
 21
15.95302222659323
 31
0.0
  0
LINE
  5
CD
330
1F
100
AcDbEntity
  8
Doc_ Finishes
  6
Continuous
100
AcDbLine
 10
28.50577399685287
 20
16.22939958693942
 30
0.0
 11
28.8282135129819
 21
16.36759047993706
 31
0.0
  0
LINE
  5
CE
330
1F
100
AcDbEntity
  8
Doc_ Finishes
  6
Continuous
100
AcDbLine
 10
28.06817466561763
 20
15.74573809992132
 30
0.0
 11
28.50577399685287
 21
16.22939958693942
 31
0.0
  0
LINE
  5
CF
330
1F
100
AcDbEntity
  8
Doc_ Finishes
  6
Continuous
 62
   254
370
    18
100
AcDbLine
 10
97.43333792289535
 20
5.093360051140834
 30
0.0
 11
97.43333792289535
 21
20.69901750590086
 31
0.0
  0
LINE
  5
D0
330
1F
100
AcDbEntity
  8
Doc_ Finishes
  6
Continuous
 62
   254
370
    18
100
AcDbLine
 10
7.000000491738787
 20
20.69901750590086
 30
0.0
 11
290.2406840086546
 21
20.69901750590086
 31
0.0
  0
LINE
  5
D1
330
1F
100
AcDbEntity
  8
Doc_ Finishes
  6
Continuous
 62
   254
370
    18
100
AcDbLine
 10
290.2406840086546
 20
20.69901750590086
 30
0.0
 11
290.2406840086546
 21
5.000000983477577
 31
0.0
  0
LINE
  5
D2
330
1F
100
AcDbEntity
  8
Doc_ Finishes
  6
Continuous
 62
   254
370
    18
100
AcDbLine
 10
290.2406840086546
 20
5.000000983477577
 30
0.0
 11
7.000000491738787
 21
5.000000983477577
 31
0.0
  0
LINE
  5
D3
330
1F
100
AcDbEntity
  8
Doc_ Finishes
  6
Continuous
 62
   254
370
    18
100
AcDbLine
 10
7.000000491738787
 20
20.69901750590086
 30
0.0
 11
7.000000491738787
 21
5.000000983477577
 31
0.0
  0
LINE
  5
D4
330
1F
100
AcDbEntity
  8
Doc_ Finishes
  6
Continuous
 62
   254
370
    18
100
AcDbLine
 10
190.2919443351691
 20
5.093360051140834
 30
0.0
 11
190.2919443351691
 21
20.69901750590086
 31
0.0
  0
LINE
  5
D5
330
1F
100
AcDbEntity
  8
Doc_ Finishes
  6
Continuous
 62
   254
370
    18
100
AcDbLine
 10
190.2919443351691
 20
12.8961909913454
 30
0.0
 11
290.2406840086546
 21
12.8961909913454
 31
0.0
  0
MTEXT
  5
D7
330
1F
100
AcDbEntity
  8
0
  6
Continuous
100
AcDbMText
 10
210.3494767103412
 20
15.00228492609298
 30
0.0
 40
2.25
 41
0.0
 71
     7
 72
     1
  1
{R-TRS9-06}
  7
GENERATED_STYLE_1
 73
     1
 44
1.0
  0
MTEXT
  5
D8
330
1F
100
AcDbEntity
  8
0
  6
Continuous
100
AcDbMText
 10
210.3494767103412
 20
11.03300550383743
 30
0.0
 40
3.0
 41
0.0
 71
     1
 72
     1
  1
{BARGE DETAIL - HEAD}
  7
GENERATED_STYLE_1
 73
     1
 44
1.0
  0
MTEXT
  5
DA
330
1F
100
AcDbEntity
  8
Doc_ Floor
  6
Continuous
100
AcDbMText
 10
29.78353726544612
 20
13.33283672870609
 30
0.0
 40
5.603347280334726
 41
0.0
 71
     1
 72
     1
  1
{The Roofing Store}
  7
GENERATED_STYLE_2
 73
     1
 44
1.0
  0
MTEXT
  5
DC
102
{ACAD_XDICTIONARY
360
65F
102
}
330
1F
100
AcDbEntity
  8
0
  6
Continuous
100
AcDbMText
 10
102.7389238446655
 20
6.378784417288159
 30
0.0
 40
1.5
 41
0.0
 71
     7
 72
     1
  1
{P: HEAD OFFICE              09 277 2717\P    ALBANY             09 972 0060\P    KATIKAIT            07 549 5190\P    WELLINGTON              04 974 5792\P    CHRISTCHURCH          03 348 6528}
  7
GENERATED_STYLE_1
 73
     1
 44
1.062946161486498
  0
MTEXT
  5
DD
330
1F
100
AcDbEntity
  8
0
  6
Continuous
100
AcDbMText
 10
149.4184566143587
 20
9.199084231526156
 30
0.0
 40
1.5
 41
0.0
 71
     7
 72
     1
  1
{WEB: www.theroofingstore.co.nz}
  7
GENERATED_STYLE_1
 73
     1
 44
1.0
  0
MTEXT
  5
DE
330
1F
100
AcDbEntity
  8
0
  6
Continuous
100
AcDbMText
 10
149.4184566143587
 20
6.620946023411263
 30
0.0
 40
1.5
 41
0.0
 71
     7
 72
     1
  1
{Copyright \U+00A9 The Roofing Store 2013}
  7
GENERATED_STYLE_1
 73
     1
 44
1.0
  0
MTEXT
  5
DF
330
1F
100
AcDbEntity
  8
0
  6
Continuous
100
AcDbMText
 10
273.9546684065315
 20
15.01595325993831
 30
0.0
 40
2.25
 41
0.0
 71
     7
 72
     1
  1
{1:5}
  7
GENERATED_STYLE_1
 73
     1
 44
1.0
  0
MTEXT
  5
E0
330
1F
100
AcDbEntity
  8
0
  6
Continuous
100
AcDbMText
 10
264.8396605309016
 20
15.51746459162148
 30
0.0
 40
1.5
 41
0.0
 71
     7
 72
     1
  1
{SCALE:}
  7
GENERATED_STYLE_1
 73
     1
 44
1.0
  0
MTEXT
  5
E1
330
1F
100
AcDbEntity
  8
0
  6
Continuous
100
AcDbMText
 10
191.5066235617487
 20
15.48695559872207
 30
0.0
 40
1.5
 41
0.0
 71
     7
 72
     1
  1
{DETAIL NUMBER:}
  7
GENERATED_STYLE_1
 73
     1
 44
1.0
  0
MTEXT
  5
E2
330
1F
100
AcDbEntity
  8
0
  6
Continuous
100
AcDbMText
 10
191.5066235617487
 20
9.005462392315325
 30
0.0
 40
1.5
 41
0.0
 71
     7
 72
     1
  1
{TITLE:}
  7
GENERATED_STYLE_1
 73
     1
 44
1.0
  0
INSERT
  5
62D
102
{ACAD_XDICTIONARY
360
62E
102
}
330
1F
100
AcDbEntity
  8
0
  6
Continuous
100
AcDbBlockReference
  2
Drawing_1_2
 10
107.2260115974659
 20
-35.16744529250214
 30
0.0
  0
ENDSEC
  0
SECTION
  2
OBJECTS
  0
DICTIONARY
  5
C
330
0
100
AcDbDictionary
281
     1
  3
ACAD_GROUP
350
D
  3
ACAD_LAYOUT
350
1A
  3
ACAD_MATERIAL
350
3B
  3
ACAD_MLEADERSTYLE
350
65A
  3
ACAD_MLINESTYLE
350
17
  3
ACAD_PLOTSETTINGS
350
19
  3
ACAD_PLOTSTYLENAME
350
E
  3
ACAD_SCALELIST
350
634
  3
ACAD_VISUALSTYLE
350
2A
  3
AcDbVariableDictionary
350
658
  3
WATERMARKS
350
656
  0
DICTIONARY
  5
65F
330
DC
100
AcDbDictionary
280
     1
281
     1
  3
ACAD_MTEXT_RT
360
660
  0
DICTIONARY
  5
62E
330
62D
100
AcDbDictionary
280
     1
281
     1
  3
ACAD_FILTER
360
62F
  0
DICTIONARY
  5
D
102
{ACAD_REACTORS
330
C
102
}
330
C
100
AcDbDictionary
281
     1
  0
DICTIONARY
  5
1A
102
{ACAD_REACTORS
330
C
102
}
330
C
100
AcDbDictionary
281
     1
  3
Layout1
350
1E
  3
Model
350
22
  0
DICTIONARY
  5
3B
102
{ACAD_REACTORS
330
C
102
}
330
C
100
AcDbDictionary
281
     1
  3
ByBlock
350
3D
  3
ByLayer
350
3C
  3
Global
350
3E
  0
DICTIONARY
  5
65A
102
{ACAD_REACTORS
330
C
102
}
330
C
100
AcDbDictionary
281
     1
  0
DICTIONARY
  5
17
102
{ACAD_REACTORS
330
C
102
}
330
C
100
AcDbDictionary
281
     1
  3
Standard
350
18
  0
DICTIONARY
  5
19
102
{ACAD_REACTORS
330
C
102
}
330
C
100
AcDbDictionary
281
     1
  0
ACDBDICTIONARYWDFLT
  5
E
102
{ACAD_REACTORS
330
C
102
}
330
C
100
AcDbDictionary
281
     1
  3
Normal
350
F
100
AcDbDictionaryWithDefault
340
F
  0
DICTIONARY
  5
634
102
{ACAD_REACTORS
330
C
102
}
330
C
100
AcDbDictionary
281
     1
  3
A0
350
635
  3
A1
350
636
  3
A2
350
637
  3
A3
350
638
  3
A4
350
639
  3
A5
350
63A
  3
A6
350
63B
  3
A7
350
63C
  3
A8
350
63D
  3
A9
350
63E
  3
B0
350
63F
  3
B1
350
640
  3
B2
350
641
  3
B3
350
642
  3
B4
350
643
  3
B5
350
644
  3
B6
350
645
  3
B7
350
646
  3
B8
350
647
  3
B9
350
648
  3
C0
350
649
  3
C1
350
64A
  3
C2
350
64B
  3
C3
350
64C
  3
C4
350
64D
  3
C5
350
64E
  3
C6
350
64F
  3
C7
350
650
  3
C8
350
651
  3
C9
350
652
  3
D0
350
653
  3
D1
350
654
  3
D2
350
655
  0
DICTIONARY
  5
2A
102
{ACAD_REACTORS
330
C
102
}
330
C
100
AcDbDictionary
281
     1
  3
2dWireframe
350
2F
  3
3D Hidden
350
31
  3
3dWireframe
350
30
  3
Basic
350
32
  3
Brighten
350
36
  3
ColorChange
350
3A
  3
Conceptual
350
34
  3
Dim
350
35
  3
Facepattern
350
39
  3
Flat
350
2B
  3
FlatWithEdges
350
2C
  3
Gouraud
350
2D
  3
GouraudWithEdges
350
2E
  3
Linepattern
350
38
  3
Realistic
350
33
  3
Thicken
350
37
  0
DICTIONARY
  5
658
102
{ACAD_REACTORS
330
C
102
}
330
C
100
AcDbDictionary
281
     1
  3
CANNOSCALE
350
65C
  3
DIMASSOC
350
65D
  3
HIDETEXT
350
65E
  3
XCLIPFRAME
350
65B
  0
DICTIONARY
  5
656
102
{ACAD_REACTORS
330
C
102
}
330
C
100
AcDbDictionary
281
     1
  3
AC_WATERMARK
350
657
  0
XRECORD
  5
660
102
{ACAD_REACTORS
330
65F
102
}
330
65F
100
AcDbXrecord
280
     1
 40
956118.0
  1
{P: HEAD OFFICE ^I^I09 277 2717\P    ALBANY ^I^I09 972 0060\P    KATIKAIT^I^I07 549 5190\P    WELLINGTON^I^I04 974 5792\P    CHRISTCHURCH^I^I03 348 6528}
  0
DICTIONARY
  5
62F
102
{ACAD_REACTORS
330
62E
102
}
330
62E
100
AcDbDictionary
280
     1
281
     1
  3
SPATIAL
360
630
  0
LAYOUT
  5
1E
102
{ACAD_REACTORS
330
1A
102
}
330
1A
100
AcDbPlotSettings
  1

  2
none_device
  4

  6

 40
0.0
 41
0.0
 42
0.0
 43
0.0
 44
0.0
 45
0.0
 46
0.0
 47
0.0
 48
0.0
 49
0.0
140
0.0
141
0.0
142
1.0
143
1.0
 70
   688
 72
     0
 73
     0
 74
     5
  7

 75
    16
147
1.0
148
0.0
149
0.0
100
AcDbLayout
  1
Layout1
 70
     1
 71
     1
 10
0.0
 20
0.0
 11
12.0
 21
9.0
 12
0.0
 22
0.0
 32
0.0
 14
1.000000000000000E+20
 24
1.000000000000000E+20
 34
1.000000000000000E+20
 15
-1.000000000000000E+20
 25
-1.000000000000000E+20
 35
-1.000000000000000E+20
146
0.0
 13
0.0
 23
0.0
 33
0.0
 16
1.0
 26
0.0
 36
0.0
 17
0.0
 27
1.0
 37
0.0
 76
     0
330
1B
  0
LAYOUT
  5
22
102
{ACAD_REACTORS
330
1A
102
}
330
1A
100
AcDbPlotSettings
  1

  2
none_device
  4

  6

 40
0.0
 41
0.0
 42
0.0
 43
0.0
 44
0.0
 45
0.0
 46
0.0
 47
0.0
 48
0.0
 49
0.0
140
0.0
141
0.0
142
1.0
143
1.0
 70
  1712
 72
     0
 73
     0
 74
     0
  7

 75
     0
147
1.0
148
0.0
149
0.0
100
AcDbLayout
  1
Model
 70
     1
 71
     0
 10
0.0
 20
0.0
 11
12.0
 21
9.0
 12
0.0
 22
0.0
 32
0.0
 14
1.000000000000000E+20
 24
1.000000000000000E+20
 34
1.000000000000000E+20
 15
-1.000000000000000E+20
 25
-1.000000000000000E+20
 35
-1.000000000000000E+20
146
0.0
 13
0.0
 23
0.0
 33
0.0
 16
1.0
 26
0.0
 36
0.0
 17
0.0
 27
1.0
 37
0.0
 76
     0
330
1F
331
29
  0
MATERIAL
  5
3D
102
{ACAD_REACTORS
330
3B
102
}
102
{ACAD_XDICTIONARY
360
683
102
}
330
3B
100
AcDbMaterial
  1
ByBlock
  0
MATERIAL
  5
3C
102
{ACAD_REACTORS
330
3B
102
}
102
{ACAD_XDICTIONARY
360
681
102
}
330
3B
100
AcDbMaterial
  1
ByLayer
  0
MATERIAL
  5
3E
102
{ACAD_REACTORS
330
3B
102
}
102
{ACAD_XDICTIONARY
360
685
102
}
330
3B
100
AcDbMaterial
  1
Global
  0
MLINESTYLE
  5
18
102
{ACAD_REACTORS
330
17
102
}
330
17
100
AcDbMlineStyle
  2
Standard
 70
     0
  3

 62
   256
 51
90.0
 52
90.0
 71
     2
 49
0.5
 62
   256
  6
BYLAYER
 49
-0.5
 62
   256
  6
BYLAYER
  0
ACDBPLACEHOLDER
  5
F
102
{ACAD_REACTORS
330
E
102
}
330
E
  0
SCALE
  5
635
102
{ACAD_REACTORS
330
634
102
}
330
634
100
AcDbScale
 70
     0
300
1:1
140
1.0
141
1.0
290
     1
  0
SCALE
  5
636
102
{ACAD_REACTORS
330
634
102
}
330
634
100
AcDbScale
 70
     0
300
1:2
140
1.0
141
2.0
290
     0
  0
SCALE
  5
637
102
{ACAD_REACTORS
330
634
102
}
330
634
100
AcDbScale
 70
     0
300
1:4
140
1.0
141
4.0
290
     0
  0
SCALE
  5
638
102
{ACAD_REACTORS
330
634
102
}
330
634
100
AcDbScale
 70
     0
300
1:5
140
1.0
141
5.0
290
     0
  0
SCALE
  5
639
102
{ACAD_REACTORS
330
634
102
}
330
634
100
AcDbScale
 70
     0
300
1:8
140
1.0
141
8.0
290
     0
  0
SCALE
  5
63A
102
{ACAD_REACTORS
330
634
102
}
330
634
100
AcDbScale
 70
     0
300
1:10
140
1.0
141
10.0
290
     0
  0
SCALE
  5
63B
102
{ACAD_REACTORS
330
634
102
}
330
634
100
AcDbScale
 70
     0
300
1:16
140
1.0
141
16.0
290
     0
  0
SCALE
  5
63C
102
{ACAD_REACTORS
330
634
102
}
330
634
100
AcDbScale
 70
     0
300
1:20
140
1.0
141
20.0
290
     0
  0
SCALE
  5
63D
102
{ACAD_REACTORS
330
634
102
}
330
634
100
AcDbScale
 70
     0
300
1:30
140
1.0
141
30.0
290
     0
  0
SCALE
  5
63E
102
{ACAD_REACTORS
330
634
102
}
330
634
100
AcDbScale
 70
     0
300
1:40
140
1.0
141
40.0
290
     0
  0
SCALE
  5
63F
102
{ACAD_REACTORS
330
634
102
}
330
634
100
AcDbScale
 70
     0
300
1:50
140
1.0
141
50.0
290
     0
  0
SCALE
  5
640
102
{ACAD_REACTORS
330
634
102
}
330
634
100
AcDbScale
 70
     0
300
1:100
140
1.0
141
100.0
290
     0
  0
SCALE
  5
641
102
{ACAD_REACTORS
330
634
102
}
330
634
100
AcDbScale
 70
     0
300
2:1
140
2.0
141
1.0
290
     0
  0
SCALE
  5
642
102
{ACAD_REACTORS
330
634
102
}
330
634
100
AcDbScale
 70
     0
300
4:1
140
4.0
141
1.0
290
     0
  0
SCALE
  5
643
102
{ACAD_REACTORS
330
634
102
}
330
634
100
AcDbScale
 70
     0
300
8:1
140
8.0
141
1.0
290
     0
  0
SCALE
  5
644
102
{ACAD_REACTORS
330
634
102
}
330
634
100
AcDbScale
 70
     0
300
10:1
140
10.0
141
1.0
290
     0
  0
SCALE
  5
645
102
{ACAD_REACTORS
330
634
102
}
330
634
100
AcDbScale
 70
     0
300
100:1
140
100.0
141
1.0
290
     0
  0
SCALE
  5
646
102
{ACAD_REACTORS
330
634
102
}
330
634
100
AcDbScale
 70
     0
300
1/128" = 1'-0"
140
0.0078125
141
12.0
290
     0
  0
SCALE
  5
647
102
{ACAD_REACTORS
330
634
102
}
330
634
100
AcDbScale
 70
     0
300
1/64" = 1'-0"
140
0.015625
141
12.0
290
     0
  0
SCALE
  5
648
102
{ACAD_REACTORS
330
634
102
}
330
634
100
AcDbScale
 70
     0
300
1/32" = 1'-0"
140
0.03125
141
12.0
290
     0
  0
SCALE
  5
649
102
{ACAD_REACTORS
330
634
102
}
330
634
100
AcDbScale
 70
     0
300
1/16" = 1'-0"
140
0.0625
141
12.0
290
     0
  0
SCALE
  5
64A
102
{ACAD_REACTORS
330
634
102
}
330
634
100
AcDbScale
 70
     0
300
3/32" = 1'-0"
140
0.09375
141
12.0
290
     0
  0
SCALE
  5
64B
102
{ACAD_REACTORS
330
634
102
}
330
634
100
AcDbScale
 70
     0
300
1/8" = 1'-0"
140
0.125
141
12.0
290
     0
  0
SCALE
  5
64C
102
{ACAD_REACTORS
330
634
102
}
330
634
100
AcDbScale
 70
     0
300
3/16" = 1'-0"
140
0.1875
141
12.0
290
     0
  0
SCALE
  5
64D
102
{ACAD_REACTORS
330
634
102
}
330
634
100
AcDbScale
 70
     0
300
1/4" = 1'-0"
140
0.25
141
12.0
290
     0
  0
SCALE
  5
64E
102
{ACAD_REACTORS
330
634
102
}
330
634
100
AcDbScale
 70
     0
300
3/8" = 1'-0"
140
0.375
141
12.0
290
     0
  0
SCALE
  5
64F
102
{ACAD_REACTORS
330
634
102
}
330
634
100
AcDbScale
 70
     0
300
1/2" = 1'-0"
140
0.5
141
12.0
290
     0
  0
SCALE
  5
650
102
{ACAD_REACTORS
330
634
102
}
330
634
100
AcDbScale
 70
     0
300
3/4" = 1'-0"
140
0.75
141
12.0
290
     0
  0
SCALE
  5
651
102
{ACAD_REACTORS
330
634
102
}
330
634
100
AcDbScale
 70
     0
300
1" = 1'-0"
140
1.0
141
12.0
290
     0
  0
SCALE
  5
652
102
{ACAD_REACTORS
330
634
102
}
330
634
100
AcDbScale
 70
     0
300
1-1/2" = 1'-0"
140
1.5
141
12.0
290
     0
  0
SCALE
  5
653
102
{ACAD_REACTORS
330
634
102
}
330
634
100
AcDbScale
 70
     0
300
3" = 1'-0"
140
3.0
141
12.0
290
     0
  0
SCALE
  5
654
102
{ACAD_REACTORS
330
634
102
}
330
634
100
AcDbScale
 70
     0
300
6" = 1'-0"
140
6.0
141
12.0
290
     0
  0
SCALE
  5
655
102
{ACAD_REACTORS
330
634
102
}
330
634
100
AcDbScale
 70
     0
300
1'-0" = 1'-0"
140
12.0
141
12.0
290
     0
  0
VISUALSTYLE
  5
2F
102
{ACAD_REACTORS
330
2A
102
}
102
{ACAD_XDICTIONARY
360
669
102
}
330
2A
100
AcDbVisualStyle
  2
2dWireframe
 70
     4
 71
     0
 72
     2
 73
     0
 90
        0
 40
-0.6
 41
-30.0
 62
     5
 63
     7
 74
     1
 91
        4
 64
     7
 65
   257
 75
     1
175
     1
 42
1.0
 92
        0
 66
   257
 43
1.0
 76
     1
 77
     6
 78
     2
 67
     7
 79
     5
170
     0
171
     0
290
     0
174
     0
 93
        1
 44
0.0
173
     0
291
     0
 45
0.0
1001
ACAD
1000
AcDbSavedByObjectVersion
1070
     0
  0
VISUALSTYLE
  5
31
102
{ACAD_REACTORS
330
2A
102
}
102
{ACAD_XDICTIONARY
360
66D
102
}
330
2A
100
AcDbVisualStyle
  2
3D Hidden
 70
     6
 71
     1
 72
     2
 73
     2
 90
        0
 40
-0.6
 41
-30.0
 62
     5
 63
     7
 74
     2
 91
        2
 64
     7
 65
   257
 75
     2
175
     1
 42
40.0
 92
        0
 66
   257
 43
1.0
 76
     1
 77
     6
 78
     2
 67
     7
 79
     3
170
     0
171
     0
290
     0
174
     0
 93
        1
 44
0.0
173
     0
291
     0
 45
0.0
1001
ACAD
1000
AcDbSavedByObjectVersion
1070
     0
  0
VISUALSTYLE
  5
30
102
{ACAD_REACTORS
330
2A
102
}
102
{ACAD_XDICTIONARY
360
66B
102
}
330
2A
100
AcDbVisualStyle
  2
3dWireframe
 70
     5
 71
     0
 72
     2
 73
     0
 90
        0
 40
-0.6
 41
-30.0
 62
     5
 63
     7
 74
     1
 91
        4
 64
     7
 65
   257
 75
     1
175
     1
 42
1.0
 92
        0
 66
   257
 43
1.0
 76
     1
 77
     6
 78
     2
 67
     7
 79
     5
170
     0
171
     0
290
     0
174
     0
 93
        1
 44
0.0
173
     0
291
     0
 45
0.0
1001
ACAD
1000
AcDbSavedByObjectVersion
1070
     0
  0
VISUALSTYLE
  5
32
102
{ACAD_REACTORS
330
2A
102
}
102
{ACAD_XDICTIONARY
360
66F
102
}
330
2A
100
AcDbVisualStyle
  2
Basic
 70
     7
 71
     1
 72
     0
 73
     1
 90
        0
 40
-0.6
 41
-30.0
 62
     5
 63
     7
 74
     0
 91
        4
 64
     7
 65
   257
 75
     1
175
     1
 42
1.0
 92
        8
 66
     7
 43
1.0
 76
     1
 77
     6
 78
     2
 67
     7
 79
     5
170
     0
171
     0
290
     0
174
     0
 93
        1
 44
0.0
173
     0
291
     1
 45
0.0
1001
ACAD
1000
AcDbSavedByObjectVersion
1070
     0
  0
VISUALSTYLE
  5
36
102
{ACAD_REACTORS
330
2A
102
}
102
{ACAD_XDICTIONARY
360
677
102
}
330
2A
100
AcDbVisualStyle
  2
Brighten
 70
    12
 71
     2
 72
     2
 73
     0
 90
        0
 40
-0.6
 41
-30.0
 62
     5
 63
     7
 74
     1
 91
        4
 64
     7
 65
   257
 75
     1
175
     1
 42
1.0
 92
        8
 66
     7
 43
1.0
 76
     1
 77
     6
 78
     2
 67
     7
 79
     5
170
     0
171
     0
290
     0
174
     0
 93
        1
 44
50.0
173
     0
291
     1
 45
0.0
1001
ACAD
1000
AcDbSavedByObjectVersion
1070
     0
  0
VISUALSTYLE
  5
3A
102
{ACAD_REACTORS
330
2A
102
}
102
{ACAD_XDICTIONARY
360
67F
102
}
330
2A
100
AcDbVisualStyle
  2
ColorChange
 70
    16
 71
     2
 72
     2
 73
     3
 90
        0
 40
-0.6
 41
-30.0
 62
     5
 63
     8
 74
     1
 91
        4
 64
     7
 65
   257
 75
     1
175
     1
 42
1.0
 92
        8
 66
     8
 43
1.0
 76
     1
 77
     6
 78
     2
 67
     7
 79
     5
170
     0
171
     0
290
     0
174
     0
 93
        1
 44
0.0
173
     0
291
     1
 45
0.0
1001
ACAD
1000
AcDbSavedByObjectVersion
1070
     0
  0
VISUALSTYLE
  5
34
102
{ACAD_REACTORS
330
2A
102
}
102
{ACAD_XDICTIONARY
360
673
102
}
330
2A
100
AcDbVisualStyle
  2
Conceptual
 70
     9
 71
     3
 72
     2
 73
     0
 90
        0
 40
-0.6
 41
-30.0
 62
     5
 63
     7
 74
     2
 91
        2
 64
     7
 65
   257
 75
     1
175
     1
 42
40.0
 92
        8
 66
     7
 43
1.0
 76
     1
 77
     6
 78
     2
 67
     7
 79
     3
170
     0
171
     0
290
     0
174
     0
 93
        1
 44
0.0
173
     0
291
     0
 45
0.0
1001
ACAD
1000
AcDbSavedByObjectVersion
1070
     0
  0
VISUALSTYLE
  5
35
102
{ACAD_REACTORS
330
2A
102
}
102
{ACAD_XDICTIONARY
360
675
102
}
330
2A
100
AcDbVisualStyle
  2
Dim
 70
    11
 71
     2
 72
     2
 73
     0
 90
        0
 40
-0.6
 41
-30.0
 62
     5
 63
     7
 74
     1
 91
        4
 64
     7
 65
   257
 75
     1
175
     1
 42
1.0
 92
        8
 66
     7
 43
1.0
 76
     1
 77
     6
 78
     2
 67
     7
 79
     5
170
     0
171
     0
290
     0
174
     0
 93
        1
 44
-50.0
173
     0
291
     1
 45
0.0
1001
ACAD
1000
AcDbSavedByObjectVersion
1070
     0
  0
VISUALSTYLE
  5
39
102
{ACAD_REACTORS
330
2A
102
}
102
{ACAD_XDICTIONARY
360
67D
102
}
330
2A
100
AcDbVisualStyle
  2
Facepattern
 70
    15
 71
     2
 72
     2
 73
     0
 90
        0
 40
-0.6
 41
-30.0
 62
     5
 63
     7
 74
     1
 91
        4
 64
     7
 65
   257
 75
     1
175
     1
 42
1.0
 92
        8
 66
     7
 43
1.0
 76
     1
 77
     6
 78
     2
 67
     7
 79
     5
170
     0
171
     0
290
     0
174
     0
 93
        1
 44
0.0
173
     0
291
     1
 45
0.0
1001
ACAD
1000
AcDbSavedByObjectVersion
1070
     0
  0
VISUALSTYLE
  5
2B
102
{ACAD_REACTORS
330
2A
102
}
102
{ACAD_XDICTIONARY
360
661
102
}
330
2A
100
AcDbVisualStyle
  2
Flat
 70
     0
 71
     2
 72
     1
 73
     1
 90
        2
 40
-0.6
 41
30.0
 62
     5
 63
     7
 74
     0
 91
        4
 64
     7
 65
   257
 75
     1
175
     1
 42
1.0
 92
        8
 66
     7
 43
1.0
 76
     1
 77
     6
 78
     2
 67
     7
 79
     5
170
     0
171
     0
290
     0
174
     0
 93
       13
 44
0.0
173
     0
291
     1
 45
0.0
1001
ACAD
1000
AcDbSavedByObjectVersion
1070
     0
  0
VISUALSTYLE
  5
2C
102
{ACAD_REACTORS
330
2A
102
}
102
{ACAD_XDICTIONARY
360
663
102
}
330
2A
100
AcDbVisualStyle
  2
FlatWithEdges
 70
     1
 71
     2
 72
     1
 73
     1
 90
        2
 40
-0.6
 41
30.0
 62
     5
 63
     7
 74
     1
 91
        4
 64
     7
 65
   257
 75
     1
175
     1
 42
1.0
 92
        0
 66
   257
 43
1.0
 76
     1
 77
     6
 78
     2
 67
     7
 79
     5
170
     0
171
     0
290
     0
174
     0
 93
       13
 44
0.0
173
     0
291
     1
 45
0.0
1001
ACAD
1000
AcDbSavedByObjectVersion
1070
     0
  0
VISUALSTYLE
  5
2D
102
{ACAD_REACTORS
330
2A
102
}
102
{ACAD_XDICTIONARY
360
665
102
}
330
2A
100
AcDbVisualStyle
  2
Gouraud
 70
     2
 71
     2
 72
     2
 73
     1
 90
        2
 40
-0.6
 41
30.0
 62
     5
 63
     7
 74
     0
 91
        4
 64
     7
 65
   257
 75
     1
175
     1
 42
1.0
 92
        0
 66
     7
 43
1.0
 76
     1
 77
     6
 78
     2
 67
     7
 79
     5
170
     0
171
     0
290
     0
174
     0
 93
       13
 44
0.0
173
     0
291
     1
 45
0.0
1001
ACAD
1000
AcDbSavedByObjectVersion
1070
     0
  0
VISUALSTYLE
  5
2E
102
{ACAD_REACTORS
330
2A
102
}
102
{ACAD_XDICTIONARY
360
667
102
}
330
2A
100
AcDbVisualStyle
  2
GouraudWithEdges
 70
     3
 71
     2
 72
     2
 73
     1
 90
        2
 40
-0.6
 41
30.0
 62
     5
 63
     7
 74
     1
 91
        4
 64
     7
 65
   257
 75
     1
175
     1
 42
1.0
 92
        0
 66
   257
 43
1.0
 76
     1
 77
     6
 78
     2
 67
     7
 79
     5
170
     0
171
     0
290
     0
174
     0
 93
       13
 44
0.0
173
     0
291
     1
 45
0.0
1001
ACAD
1000
AcDbSavedByObjectVersion
1070
     0
  0
VISUALSTYLE
  5
38
102
{ACAD_REACTORS
330
2A
102
}
102
{ACAD_XDICTIONARY
360
67B
102
}
330
2A
100
AcDbVisualStyle
  2
Linepattern
 70
    14
 71
     2
 72
     2
 73
     0
 90
        0
 40
-0.6
 41
-30.0
 62
     5
 63
     7
 74
     1
 91
        4
 64
     7
 65
   257
 75
     7
175
     7
 42
1.0
 92
        8
 66
     7
 43
1.0
 76
     1
 77
     6
 78
     2
 67
     7
 79
     5
170
     0
171
     0
290
     0
174
     0
 93
        1
 44
0.0
173
     0
291
     1
 45
0.0
1001
ACAD
1000
AcDbSavedByObjectVersion
1070
     0
  0
VISUALSTYLE
  5
33
102
{ACAD_REACTORS
330
2A
102
}
102
{ACAD_XDICTIONARY
360
671
102
}
330
2A
100
AcDbVisualStyle
  2
Realistic
 70
     8
 71
     2
 72
     2
 73
     0
 90
        0
 40
-0.6
 41
-30.0
 62
     5
 63
     7
 74
     1
 91
        0
 64
     7
 65
   257
 75
     1
175
     1
 42
1.0
 92
        8
 66
     8
 43
1.0
 76
     1
 77
     6
 78
     2
 67
     7
 79
     5
170
     0
171
     0
290
     0
174
     0
 93
       13
 44
0.0
173
     0
291
     0
 45
0.0
1001
ACAD
1000
AcDbSavedByObjectVersion
1070
     0
  0
VISUALSTYLE
  5
37
102
{ACAD_REACTORS
330
2A
102
}
102
{ACAD_XDICTIONARY
360
679
102
}
330
2A
100
AcDbVisualStyle
  2
Thicken
 70
    13
 71
     2
 72
     2
 73
     0
 90
        0
 40
-0.6
 41
-30.0
 62
     5
 63
     7
 74
     1
 91
        4
 64
     7
 65
   257
 75
     1
175
     1
 42
1.0
 92
       12
 66
     7
 43
1.0
 76
     1
 77
     6
 78
     2
 67
     7
 79
     5
170
     0
171
     0
290
     0
174
     0
 93
        1
 44
0.0
173
     0
291
     1
 45
0.0
1001
ACAD
1000
AcDbSavedByObjectVersion
1070
     0
  0
DICTIONARYVAR
  5
65C
102
{ACAD_REACTORS
330
658
102
}
330
658
100
DictionaryVariables
280
     0
  1
1:1
  0
DICTIONARYVAR
  5
65D
102
{ACAD_REACTORS
330
658
102
}
330
658
100
DictionaryVariables
280
     0
  1
2
  0
DICTIONARYVAR
  5
65E
102
{ACAD_REACTORS
330
658
102
}
330
658
100
DictionaryVariables
280
     0
  1
1
  0
DICTIONARYVAR
  5
65B
102
{ACAD_REACTORS
330
658
102
}
330
658
100
DictionaryVariables
280
     0
  1
0
  0
XRECORD
  5
657
102
{ACAD_REACTORS
330
656
102
}
330
656
100
AcDbXrecord
280
     1
1000
This DWG file was created in ArchiCAD(TM)®
  0
SPATIAL_FILTER
  5
630
102
{ACAD_REACTORS
330
62F
102
}
330
62F
100
AcDbFilter
100
AcDbSpatialFilter
 70
     4
 10
27.93050918650632
 20
32.4027913472007
 10
268.2951208156427
 20
32.4027913472007
 10
268.2951208156427
 20
191.9941743031082
 10
27.93050918650632
 20
191.9941743031082
210
0.0
220
0.0
230
1.0
 11
0.0
 21
0.0
 31
0.0
 71
     1
 72
     0
 73
     0
 40
1.0
 40
0.0
 40
0.0
 40
0.0
 40
0.0
 40
1.0
 40
0.0
 40
0.0
 40
0.0
 40
0.0
 40
1.0
 40
0.0
 40
1.0
 40
0.0
 40
0.0
 40
0.0
 40
0.0
 40
1.0
 40
0.0
 40
0.0
 40
0.0
 40
0.0
 40
1.0
 40
0.0
  0
DICTIONARY
  5
683
330
3D
100
AcDbDictionary
280
     1
281
     1
  3
ACAD_XREC_ROUNDTRIP
360
684
  0
DICTIONARY
  5
681
330
3C
100
AcDbDictionary
280
     1
281
     1
  3
ACAD_XREC_ROUNDTRIP
360
682
  0
DICTIONARY
  5
685
330
3E
100
AcDbDictionary
280
     1
281
     1
  3
ACAD_XREC_ROUNDTRIP
360
686
  0
DICTIONARY
  5
669
330
2F
100
AcDbDictionary
280
     1
281
     1
  3
ACAD_XREC_ROUNDTRIP
360
66A
  0
DICTIONARY
  5
66D
330
31
100
AcDbDictionary
280
     1
281
     1
  3
ACAD_XREC_ROUNDTRIP
360
66E
  0
DICTIONARY
  5
66B
330
30
100
AcDbDictionary
280
     1
281
     1
  3
ACAD_XREC_ROUNDTRIP
360
66C
  0
DICTIONARY
  5
66F
330
32
100
AcDbDictionary
280
     1
281
     1
  3
ACAD_XREC_ROUNDTRIP
360
670
  0
DICTIONARY
  5
677
330
36
100
AcDbDictionary
280
     1
281
     1
  3
ACAD_XREC_ROUNDTRIP
360
678
  0
DICTIONARY
  5
67F
330
3A
100
AcDbDictionary
280
     1
281
     1
  3
ACAD_XREC_ROUNDTRIP
360
680
  0
DICTIONARY
  5
673
330
34
100
AcDbDictionary
280
     1
281
     1
  3
ACAD_XREC_ROUNDTRIP
360
674
  0
DICTIONARY
  5
675
330
35
100
AcDbDictionary
280
     1
281
     1
  3
ACAD_XREC_ROUNDTRIP
360
676
  0
DICTIONARY
  5
67D
330
39
100
AcDbDictionary
280
     1
281
     1
  3
ACAD_XREC_ROUNDTRIP
360
67E
  0
DICTIONARY
  5
661
330
2B
100
AcDbDictionary
280
     1
281
     1
  3
ACAD_XREC_ROUNDTRIP
360
662
  0
DICTIONARY
  5
663
330
2C
100
AcDbDictionary
280
     1
281
     1
  3
ACAD_XREC_ROUNDTRIP
360
664
  0
DICTIONARY
  5
665
330
2D
100
AcDbDictionary
280
     1
281
     1
  3
ACAD_XREC_ROUNDTRIP
360
666
  0
DICTIONARY
  5
667
330
2E
100
AcDbDictionary
280
     1
281
     1
  3
ACAD_XREC_ROUNDTRIP
360
668
  0
DICTIONARY
  5
67B
330
38
100
AcDbDictionary
280
     1
281
     1
  3
ACAD_XREC_ROUNDTRIP
360
67C
  0
DICTIONARY
  5
671
330
33
100
AcDbDictionary
280
     1
281
     1
  3
ACAD_XREC_ROUNDTRIP
360
672
  0
DICTIONARY
  5
679
330
37
100
AcDbDictionary
280
     1
281
     1
  3
ACAD_XREC_ROUNDTRIP
360
67A
  0
XRECORD
  5
684
102
{ACAD_REACTORS
330
683
102
}
330
683
100
AcDbXrecord
280
     1
102
MATERIAL
148
0.0
149
0.0
149
0.0
 93
        0
 94
      127
282
     0
 72
     1
 77
     1
171
     1
175
     1
179
     1
273
     0
  0
XRECORD
  5
682
102
{ACAD_REACTORS
330
681
102
}
330
681
100
AcDbXrecord
280
     1
102
MATERIAL
148
0.0
149
0.0
149
0.0
 93
        0
 94
      127
282
     0
 72
     1
 77
     1
171
     1
175
     1
179
     1
273
     0
  0
XRECORD
  5
686
102
{ACAD_REACTORS
330
685
102
}
330
685
100
AcDbXrecord
280
     1
102
MATERIAL
148
0.0
149
0.0
149
0.0
 93
        0
 94
      127
282
     0
 72
     1
 77
     1
171
     1
175
     1
179
     1
273
     0
  0
XRECORD
  5
66A
102
{ACAD_REACTORS
330
669
102
}
330
669
100
AcDbXrecord
280
     1
102
RTVSPropertyOp0
 70
     1
102
RTVSPropertyOp1
 70
     1
102
RTVSPropertyOp2
 70
     1
102
RTVSPropertyOp3
 70
     1
102
RTVSPropertyOp4
 70
     1
102
RTVSPropertyOp5
 70
     1
102
RTVSPropertyOp6
 70
     1
102
RTVSPropertyOp7
 70
     1
102
RTVSPropertyOp8
 70
     1
102
RTVSPropertyOp9
 70
     1
102
RTVSPropertyOp10
 70
     1
102
RTVSPropertyOp11
 70
     1
102
RTVSPropertyOp12
 70
     1
102
RTVSPropertyOp13
 70
     1
102
RTVSPropertyOp14
 70
     1
102
RTVSPropertyOp15
 70
     1
102
RTVSPropertyOp16
 70
     1
102
RTVSPropertyOp17
 70
     1
102
RTVSPropertyOp18
 70
     1
102
RTVSPropertyOp19
 70
     1
102
RTVSPropertyOp20
 70
     1
102
RTVSPropertyOp21
 70
     1
102
RTVSPropertyOp22
 70
     1
102
RTVSPropertyOp23
 70
     1
102
RTVSPropertyOp24
 70
     1
102
RTVSPropertyOp25
 70
     1
102
RTVSPropertyOp26
 70
     1
102
RTVSPropertyOp27
 70
     1
102
RTVSPropertyOp28
 70
     1
102
RTVSPropertyOp29
 70
     1
102
RTVSPropertyOp30
 70
     1
102
RTVSPropertyOp31
 70
     1
102
RTVSPropertyOp32
 70
     1
  0
XRECORD
  5
66E
102
{ACAD_REACTORS
330
66D
102
}
330
66D
100
AcDbXrecord
280
     1
102
RTVSPropertyOp0
 70
     1
102
RTVSPropertyOp1
 70
     1
102
RTVSPropertyOp2
 70
     1
102
RTVSPropertyOp3
 70
     1
102
RTVSPropertyOp4
 70
     1
102
RTVSPropertyOp5
 70
     1
102
RTVSPropertyOp6
 70
     1
102
RTVSPropertyOp7
 70
     1
102
RTVSPropertyOp8
 70
     1
102
RTVSPropertyOp9
 70
     1
102
RTVSPropertyOp10
 70
     1
102
RTVSPropertyOp11
 70
     1
102
RTVSPropertyOp12
 70
     1
102
RTVSPropertyOp13
 70
     1
102
RTVSPropertyOp14
 70
     1
102
RTVSPropertyOp15
 70
     1
102
RTVSPropertyOp16
 70
     1
102
RTVSPropertyOp17
 70
     1
102
RTVSPropertyOp18
 70
     1
102
RTVSPropertyOp19
 70
     1
102
RTVSPropertyOp20
 70
     1
102
RTVSPropertyOp21
 70
     1
102
RTVSPropertyOp22
 70
     1
102
RTVSPropertyOp23
 70
     1
102
RTVSPropertyOp24
 70
     1
102
RTVSPropertyOp25
 70
     1
102
RTVSPropertyOp26
 70
     1
102
RTVSPropertyOp27
 70
     1
102
RTVSPropertyOp28
 70
     1
102
RTVSPropertyOp29
 70
     1
102
RTVSPropertyOp30
 70
     1
102
RTVSPropertyOp31
 70
     1
102
RTVSPropertyOp32
 70
     1
  0
XRECORD
  5
66C
102
{ACAD_REACTORS
330
66B
102
}
330
66B
100
AcDbXrecord
280
     1
102
RTVSPropertyOp0
 70
     1
102
RTVSPropertyOp1
 70
     1
102
RTVSPropertyOp2
 70
     1
102
RTVSPropertyOp3
 70
     1
102
RTVSPropertyOp4
 70
     1
102
RTVSPropertyOp5
 70
     1
102
RTVSPropertyOp6
 70
     1
102
RTVSPropertyOp7
 70
     1
102
RTVSPropertyOp8
 70
     1
102
RTVSPropertyOp9
 70
     1
102
RTVSPropertyOp10
 70
     1
102
RTVSPropertyOp11
 70
     1
102
RTVSPropertyOp12
 70
     1
102
RTVSPropertyOp13
 70
     1
102
RTVSPropertyOp14
 70
     1
102
RTVSPropertyOp15
 70
     1
102
RTVSPropertyOp16
 70
     1
102
RTVSPropertyOp17
 70
     1
102
RTVSPropertyOp18
 70
     1
102
RTVSPropertyOp19
 70
     1
102
RTVSPropertyOp20
 70
     1
102
RTVSPropertyOp21
 70
     1
102
RTVSPropertyOp22
 70
     1
102
RTVSPropertyOp23
 70
     1
102
RTVSPropertyOp24
 70
     1
102
RTVSPropertyOp25
 70
     1
102
RTVSPropertyOp26
 70
     1
102
RTVSPropertyOp27
 70
     1
102
RTVSPropertyOp28
 70
     1
102
RTVSPropertyOp29
 70
     1
102
RTVSPropertyOp30
 70
     1
102
RTVSPropertyOp31
 70
     1
102
RTVSPropertyOp32
 70
     1
  0
XRECORD
  5
670
102
{ACAD_REACTORS
330
66F
102
}
330
66F
100
AcDbXrecord
280
     1
102
RTVSPropertyOp0
 70
     1
102
RTVSPropertyOp1
 70
     1
102
RTVSPropertyOp2
 70
     1
102
RTVSPropertyOp3
 70
     1
102
RTVSPropertyOp4
 70
     1
102
RTVSPropertyOp5
 70
     1
102
RTVSPropertyOp6
 70
     1
102
RTVSPropertyOp7
 70
     1
102
RTVSPropertyOp8
 70
     1
102
RTVSPropertyOp9
 70
     1
102
RTVSPropertyOp10
 70
     1
102
RTVSPropertyOp11
 70
     1
102
RTVSPropertyOp12
 70
     1
102
RTVSPropertyOp13
 70
     1
102
RTVSPropertyOp14
 70
     1
102
RTVSPropertyOp15
 70
     1
102
RTVSPropertyOp16
 70
     1
102
RTVSPropertyOp17
 70
     1
102
RTVSPropertyOp18
 70
     1
102
RTVSPropertyOp19
 70
     1
102
RTVSPropertyOp20
 70
     1
102
RTVSPropertyOp21
 70
     1
102
RTVSPropertyOp22
 70
     1
102
RTVSPropertyOp23
 70
     1
102
RTVSPropertyOp24
 70
     1
102
RTVSPropertyOp25
 70
     1
102
RTVSPropertyOp26
 70
     1
102
RTVSPropertyOp27
 70
     1
102
RTVSPropertyOp28
 70
     1
102
RTVSPropertyOp29
 70
     1
102
RTVSPropertyOp30
 70
     1
102
RTVSPropertyOp31
 70
     1
102
RTVSPropertyOp32
 70
     1
  0
XRECORD
  5
678
102
{ACAD_REACTORS
330
677
102
}
330
677
100
AcDbXrecord
280
     1
102
RTVSPropertyOp0
 70
     1
102
RTVSPropertyOp1
 70
     1
102
RTVSPropertyOp2
 70
     1
102
RTVSPropertyOp3
 70
     1
102
RTVSPropertyOp4
 70
     1
102
RTVSPropertyOp5
 70
     1
102
RTVSPropertyOp6
 70
     1
102
RTVSPropertyOp7
 70
     1
102
RTVSPropertyOp8
 70
     1
102
RTVSPropertyOp9
 70
     1
102
RTVSPropertyOp10
 70
     1
102
RTVSPropertyOp11
 70
     1
102
RTVSPropertyOp12
 70
     1
102
RTVSPropertyOp13
 70
     1
102
RTVSPropertyOp14
 70
     1
102
RTVSPropertyOp15
 70
     1
102
RTVSPropertyOp16
 70
     1
102
RTVSPropertyOp17
 70
     1
102
RTVSPropertyOp18
 70
     1
102
RTVSPropertyOp19
 70
     1
102
RTVSPropertyOp20
 70
     1
102
RTVSPropertyOp21
 70
     1
102
RTVSPropertyOp22
 70
     1
102
RTVSPropertyOp23
 70
     1
102
RTVSPropertyOp24
 70
     1
102
RTVSPropertyOp25
 70
     1
102
RTVSPropertyOp26
 70
     1
102
RTVSPropertyOp27
 70
     1
102
RTVSPropertyOp28
 70
     1
102
RTVSPropertyOp29
 70
     1
102
RTVSPropertyOp30
 70
     1
102
RTVSPropertyOp31
 70
     1
102
RTVSPropertyOp32
 70
     1
  0
XRECORD
  5
680
102
{ACAD_REACTORS
330
67F
102
}
330
67F
100
AcDbXrecord
280
     1
102
RTVSPropertyOp0
 70
     1
102
RTVSPropertyOp1
 70
     1
102
RTVSPropertyOp2
 70
     1
102
RTVSPropertyOp3
 70
     1
102
RTVSPropertyOp4
 70
     1
102
RTVSPropertyOp5
 70
     1
102
RTVSPropertyOp6
 70
     1
102
RTVSPropertyOp7
 70
     1
102
RTVSPropertyOp8
 70
     1
102
RTVSPropertyOp9
 70
     1
102
RTVSPropertyOp10
 70
     1
102
RTVSPropertyOp11
 70
     1
102
RTVSPropertyOp12
 70
     1
102
RTVSPropertyOp13
 70
     1
102
RTVSPropertyOp14
 70
     1
102
RTVSPropertyOp15
 70
     1
102
RTVSPropertyOp16
 70
     1
102
RTVSPropertyOp17
 70
     1
102
RTVSPropertyOp18
 70
     1
102
RTVSPropertyOp19
 70
     1
102
RTVSPropertyOp20
 70
     1
102
RTVSPropertyOp21
 70
     1
102
RTVSPropertyOp22
 70
     1
102
RTVSPropertyOp23
 70
     1
102
RTVSPropertyOp24
 70
     1
102
RTVSPropertyOp25
 70
     1
102
RTVSPropertyOp26
 70
     1
102
RTVSPropertyOp27
 70
     1
102
RTVSPropertyOp28
 70
     1
102
RTVSPropertyOp29
 70
     1
102
RTVSPropertyOp30
 70
     1
102
RTVSPropertyOp31
 70
     1
102
RTVSPropertyOp32
 70
     1
  0
XRECORD
  5
674
102
{ACAD_REACTORS
330
673
102
}
330
673
100
AcDbXrecord
280
     1
102
RTVSPropertyOp0
 70
     1
102
RTVSPropertyOp1
 70
     1
102
RTVSPropertyOp2
 70
     1
102
RTVSPropertyOp3
 70
     1
102
RTVSPropertyOp4
 70
     1
102
RTVSPropertyOp5
 70
     1
102
RTVSPropertyOp6
 70
     1
102
RTVSPropertyOp7
 70
     1
102
RTVSPropertyOp8
 70
     1
102
RTVSPropertyOp9
 70
     1
102
RTVSPropertyOp10
 70
     1
102
RTVSPropertyOp11
 70
     1
102
RTVSPropertyOp12
 70
     1
102
RTVSPropertyOp13
 70
     1
102
RTVSPropertyOp14
 70
     1
102
RTVSPropertyOp15
 70
     1
102
RTVSPropertyOp16
 70
     1
102
RTVSPropertyOp17
 70
     1
102
RTVSPropertyOp18
 70
     1
102
RTVSPropertyOp19
 70
     1
102
RTVSPropertyOp20
 70
     1
102
RTVSPropertyOp21
 70
     1
102
RTVSPropertyOp22
 70
     1
102
RTVSPropertyOp23
 70
     1
102
RTVSPropertyOp24
 70
     1
102
RTVSPropertyOp25
 70
     1
102
RTVSPropertyOp26
 70
     1
102
RTVSPropertyOp27
 70
     1
102
RTVSPropertyOp28
 70
     1
102
RTVSPropertyOp29
 70
     1
102
RTVSPropertyOp30
 70
     1
102
RTVSPropertyOp31
 70
     1
102
RTVSPropertyOp32
 70
     1
  0
XRECORD
  5
676
102
{ACAD_REACTORS
330
675
102
}
330
675
100
AcDbXrecord
280
     1
102
RTVSPropertyOp0
 70
     1
102
RTVSPropertyOp1
 70
     1
102
RTVSPropertyOp2
 70
     1
102
RTVSPropertyOp3
 70
     1
102
RTVSPropertyOp4
 70
     1
102
RTVSPropertyOp5
 70
     1
102
RTVSPropertyOp6
 70
     1
102
RTVSPropertyOp7
 70
     1
102
RTVSPropertyOp8
 70
     1
102
RTVSPropertyOp9
 70
     1
102
RTVSPropertyOp10
 70
     1
102
RTVSPropertyOp11
 70
     1
102
RTVSPropertyOp12
 70
     1
102
RTVSPropertyOp13
 70
     1
102
RTVSPropertyOp14
 70
     1
102
RTVSPropertyOp15
 70
     1
102
RTVSPropertyOp16
 70
     1
102
RTVSPropertyOp17
 70
     1
102
RTVSPropertyOp18
 70
     1
102
RTVSPropertyOp19
 70
     1
102
RTVSPropertyOp20
 70
     1
102
RTVSPropertyOp21
 70
     1
102
RTVSPropertyOp22
 70
     1
102
RTVSPropertyOp23
 70
     1
102
RTVSPropertyOp24
 70
     1
102
RTVSPropertyOp25
 70
     1
102
RTVSPropertyOp26
 70
     1
102
RTVSPropertyOp27
 70
     1
102
RTVSPropertyOp28
 70
     1
102
RTVSPropertyOp29
 70
     1
102
RTVSPropertyOp30
 70
     1
102
RTVSPropertyOp31
 70
     1
102
RTVSPropertyOp32
 70
     1
  0
XRECORD
  5
67E
102
{ACAD_REACTORS
330
67D
102
}
330
67D
100
AcDbXrecord
280
     1
102
RTVSPropertyOp0
 70
     1
102
RTVSPropertyOp1
 70
     1
102
RTVSPropertyOp2
 70
     1
102
RTVSPropertyOp3
 70
     1
102
RTVSPropertyOp4
 70
     1
102
RTVSPropertyOp5
 70
     1
102
RTVSPropertyOp6
 70
     1
102
RTVSPropertyOp7
 70
     1
102
RTVSPropertyOp8
 70
     1
102
RTVSPropertyOp9
 70
     1
102
RTVSPropertyOp10
 70
     1
102
RTVSPropertyOp11
 70
     1
102
RTVSPropertyOp12
 70
     1
102
RTVSPropertyOp13
 70
     1
102
RTVSPropertyOp14
 70
     1
102
RTVSPropertyOp15
 70
     1
102
RTVSPropertyOp16
 70
     1
102
RTVSPropertyOp17
 70
     1
102
RTVSPropertyOp18
 70
     1
102
RTVSPropertyOp19
 70
     1
102
RTVSPropertyOp20
 70
     1
102
RTVSPropertyOp21
 70
     1
102
RTVSPropertyOp22
 70
     1
102
RTVSPropertyOp23
 70
     1
102
RTVSPropertyOp24
 70
     1
102
RTVSPropertyOp25
 70
     1
102
RTVSPropertyOp26
 70
     1
102
RTVSPropertyOp27
 70
     1
102
RTVSPropertyOp28
 70
     1
102
RTVSPropertyOp29
 70
     1
102
RTVSPropertyOp30
 70
     1
102
RTVSPropertyOp31
 70
     1
102
RTVSPropertyOp32
 70
     1
  0
XRECORD
  5
662
102
{ACAD_REACTORS
330
661
102
}
330
661
100
AcDbXrecord
280
     1
102
RTVSPropertyOp0
 70
     1
102
RTVSPropertyOp1
 70
     1
102
RTVSPropertyOp2
 70
     1
102
RTVSPropertyOp3
 70
     1
102
RTVSPropertyOp4
 70
     1
102
RTVSPropertyOp5
 70
     1
102
RTVSPropertyOp6
 70
     1
102
RTVSPropertyOp7
 70
     1
102
RTVSPropertyOp8
 70
     1
102
RTVSPropertyOp9
 70
     1
102
RTVSPropertyOp10
 70
     1
102
RTVSPropertyOp11
 70
     1
102
RTVSPropertyOp12
 70
     1
102
RTVSPropertyOp13
 70
     1
102
RTVSPropertyOp14
 70
     1
102
RTVSPropertyOp15
 70
     1
102
RTVSPropertyOp16
 70
     1
102
RTVSPropertyOp17
 70
     1
102
RTVSPropertyOp18
 70
     1
102
RTVSPropertyOp19
 70
     1
102
RTVSPropertyOp20
 70
     1
102
RTVSPropertyOp21
 70
     1
102
RTVSPropertyOp22
 70
     1
102
RTVSPropertyOp23
 70
     1
102
RTVSPropertyOp24
 70
     1
102
RTVSPropertyOp25
 70
     1
102
RTVSPropertyOp26
 70
     1
102
RTVSPropertyOp27
 70
     1
102
RTVSPropertyOp28
 70
     1
102
RTVSPropertyOp29
 70
     1
102
RTVSPropertyOp30
 70
     1
102
RTVSPropertyOp31
 70
     1
102
RTVSPropertyOp32
 70
     1
  0
XRECORD
  5
664
102
{ACAD_REACTORS
330
663
102
}
330
663
100
AcDbXrecord
280
     1
102
RTVSPropertyOp0
 70
     1
102
RTVSPropertyOp1
 70
     1
102
RTVSPropertyOp2
 70
     1
102
RTVSPropertyOp3
 70
     1
102
RTVSPropertyOp4
 70
     1
102
RTVSPropertyOp5
 70
     1
102
RTVSPropertyOp6
 70
     1
102
RTVSPropertyOp7
 70
     1
102
RTVSPropertyOp8
 70
     1
102
RTVSPropertyOp9
 70
     1
102
RTVSPropertyOp10
 70
     1
102
RTVSPropertyOp11
 70
     1
102
RTVSPropertyOp12
 70
     1
102
RTVSPropertyOp13
 70
     1
102
RTVSPropertyOp14
 70
     1
102
RTVSPropertyOp15
 70
     1
102
RTVSPropertyOp16
 70
     1
102
RTVSPropertyOp17
 70
     1
102
RTVSPropertyOp18
 70
     1
102
RTVSPropertyOp19
 70
     1
102
RTVSPropertyOp20
 70
     1
102
RTVSPropertyOp21
 70
     1
102
RTVSPropertyOp22
 70
     1
102
RTVSPropertyOp23
 70
     1
102
RTVSPropertyOp24
 70
     1
102
RTVSPropertyOp25
 70
     1
102
RTVSPropertyOp26
 70
     1
102
RTVSPropertyOp27
 70
     1
102
RTVSPropertyOp28
 70
     1
102
RTVSPropertyOp29
 70
     1
102
RTVSPropertyOp30
 70
     1
102
RTVSPropertyOp31
 70
     1
102
RTVSPropertyOp32
 70
     1
  0
XRECORD
  5
666
102
{ACAD_REACTORS
330
665
102
}
330
665
100
AcDbXrecord
280
     1
102
RTVSPropertyOp0
 70
     1
102
RTVSPropertyOp1
 70
     1
102
RTVSPropertyOp2
 70
     1
102
RTVSPropertyOp3
 70
     1
102
RTVSPropertyOp4
 70
     1
102
RTVSPropertyOp5
 70
     1
102
RTVSPropertyOp6
 70
     1
102
RTVSPropertyOp7
 70
     1
102
RTVSPropertyOp8
 70
     1
102
RTVSPropertyOp9
 70
     1
102
RTVSPropertyOp10
 70
     1
102
RTVSPropertyOp11
 70
     1
102
RTVSPropertyOp12
 70
     1
102
RTVSPropertyOp13
 70
     1
102
RTVSPropertyOp14
 70
     1
102
RTVSPropertyOp15
 70
     1
102
RTVSPropertyOp16
 70
     1
102
RTVSPropertyOp17
 70
     1
102
RTVSPropertyOp18
 70
     1
102
RTVSPropertyOp19
 70
     1
102
RTVSPropertyOp20
 70
     1
102
RTVSPropertyOp21
 70
     1
102
RTVSPropertyOp22
 70
     1
102
RTVSPropertyOp23
 70
     1
102
RTVSPropertyOp24
 70
     1
102
RTVSPropertyOp25
 70
     1
102
RTVSPropertyOp26
 70
     1
102
RTVSPropertyOp27
 70
     1
102
RTVSPropertyOp28
 70
     1
102
RTVSPropertyOp29
 70
     1
102
RTVSPropertyOp30
 70
     1
102
RTVSPropertyOp31
 70
     1
102
RTVSPropertyOp32
 70
     1
  0
XRECORD
  5
668
102
{ACAD_REACTORS
330
667
102
}
330
667
100
AcDbXrecord
280
     1
102
RTVSPropertyOp0
 70
     1
102
RTVSPropertyOp1
 70
     1
102
RTVSPropertyOp2
 70
     1
102
RTVSPropertyOp3
 70
     1
102
RTVSPropertyOp4
 70
     1
102
RTVSPropertyOp5
 70
     1
102
RTVSPropertyOp6
 70
     1
102
RTVSPropertyOp7
 70
     1
102
RTVSPropertyOp8
 70
     1
102
RTVSPropertyOp9
 70
     1
102
RTVSPropertyOp10
 70
     1
102
RTVSPropertyOp11
 70
     1
102
RTVSPropertyOp12
 70
     1
102
RTVSPropertyOp13
 70
     1
102
RTVSPropertyOp14
 70
     1
102
RTVSPropertyOp15
 70
     1
102
RTVSPropertyOp16
 70
     1
102
RTVSPropertyOp17
 70
     1
102
RTVSPropertyOp18
 70
     1
102
RTVSPropertyOp19
 70
     1
102
RTVSPropertyOp20
 70
     1
102
RTVSPropertyOp21
 70
     1
102
RTVSPropertyOp22
 70
     1
102
RTVSPropertyOp23
 70
     1
102
RTVSPropertyOp24
 70
     1
102
RTVSPropertyOp25
 70
     1
102
RTVSPropertyOp26
 70
     1
102
RTVSPropertyOp27
 70
     1
102
RTVSPropertyOp28
 70
     1
102
RTVSPropertyOp29
 70
     1
102
RTVSPropertyOp30
 70
     1
102
RTVSPropertyOp31
 70
     1
102
RTVSPropertyOp32
 70
     1
  0
XRECORD
  5
67C
102
{ACAD_REACTORS
330
67B
102
}
330
67B
100
AcDbXrecord
280
     1
102
RTVSPropertyOp0
 70
     1
102
RTVSPropertyOp1
 70
     1
102
RTVSPropertyOp2
 70
     1
102
RTVSPropertyOp3
 70
     1
102
RTVSPropertyOp4
 70
     1
102
RTVSPropertyOp5
 70
     1
102
RTVSPropertyOp6
 70
     1
102
RTVSPropertyOp7
 70
     1
102
RTVSPropertyOp8
 70
     1
102
RTVSPropertyOp9
 70
     1
102
RTVSPropertyOp10
 70
     1
102
RTVSPropertyOp11
 70
     1
102
RTVSPropertyOp12
 70
     1
102
RTVSPropertyOp13
 70
     1
102
RTVSPropertyOp14
 70
     1
102
RTVSPropertyOp15
 70
     1
102
RTVSPropertyOp16
 70
     1
102
RTVSPropertyOp17
 70
     1
102
RTVSPropertyOp18
 70
     1
102
RTVSPropertyOp19
 70
     1
102
RTVSPropertyOp20
 70
     1
102
RTVSPropertyOp21
 70
     1
102
RTVSPropertyOp22
 70
     1
102
RTVSPropertyOp23
 70
     1
102
RTVSPropertyOp24
 70
     1
102
RTVSPropertyOp25
 70
     1
102
RTVSPropertyOp26
 70
     1
102
RTVSPropertyOp27
 70
     1
102
RTVSPropertyOp28
 70
     1
102
RTVSPropertyOp29
 70
     1
102
RTVSPropertyOp30
 70
     1
102
RTVSPropertyOp31
 70
     1
102
RTVSPropertyOp32
 70
     1
  0
XRECORD
  5
672
102
{ACAD_REACTORS
330
671
102
}
330
671
100
AcDbXrecord
280
     1
102
RTVSPropertyOp0
 70
     1
102
RTVSPropertyOp1
 70
     1
102
RTVSPropertyOp2
 70
     1
102
RTVSPropertyOp3
 70
     1
102
RTVSPropertyOp4
 70
     1
102
RTVSPropertyOp5
 70
     1
102
RTVSPropertyOp6
 70
     1
102
RTVSPropertyOp7
 70
     1
102
RTVSPropertyOp8
 70
     1
102
RTVSPropertyOp9
 70
     1
102
RTVSPropertyOp10
 70
     1
102
RTVSPropertyOp11
 70
     1
102
RTVSPropertyOp12
 70
     1
102
RTVSPropertyOp13
 70
     1
102
RTVSPropertyOp14
 70
     1
102
RTVSPropertyOp15
 70
     1
102
RTVSPropertyOp16
 70
     1
102
RTVSPropertyOp17
 70
     1
102
RTVSPropertyOp18
 70
     1
102
RTVSPropertyOp19
 70
     1
102
RTVSPropertyOp20
 70
     1
102
RTVSPropertyOp21
 70
     1
102
RTVSPropertyOp22
 70
     1
102
RTVSPropertyOp23
 70
     1
102
RTVSPropertyOp24
 70
     1
102
RTVSPropertyOp25
 70
     1
102
RTVSPropertyOp26
 70
     1
102
RTVSPropertyOp27
 70
     1
102
RTVSPropertyOp28
 70
     1
102
RTVSPropertyOp29
 70
     1
102
RTVSPropertyOp30
 70
     1
102
RTVSPropertyOp31
 70
     1
102
RTVSPropertyOp32
 70
     1
  0
XRECORD
  5
67A
102
{ACAD_REACTORS
330
679
102
}
330
679
100
AcDbXrecord
280
     1
102
RTVSPropertyOp0
 70
     1
102
RTVSPropertyOp1
 70
     1
102
RTVSPropertyOp2
 70
     1
102
RTVSPropertyOp3
 70
     1
102
RTVSPropertyOp4
 70
     1
102
RTVSPropertyOp5
 70
     1
102
RTVSPropertyOp6
 70
     1
102
RTVSPropertyOp7
 70
     1
102
RTVSPropertyOp8
 70
     1
102
RTVSPropertyOp9
 70
     1
102
RTVSPropertyOp10
 70
     1
102
RTVSPropertyOp11
 70
     1
102
RTVSPropertyOp12
 70
     1
102
RTVSPropertyOp13
 70
     1
102
RTVSPropertyOp14
 70
     1
102
RTVSPropertyOp15
 70
     1
102
RTVSPropertyOp16
 70
     1
102
RTVSPropertyOp17
 70
     1
102
RTVSPropertyOp18
 70
     1
102
RTVSPropertyOp19
 70
     1
102
RTVSPropertyOp20
 70
     1
102
RTVSPropertyOp21
 70
     1
102
RTVSPropertyOp22
 70
     1
102
RTVSPropertyOp23
 70
     1
102
RTVSPropertyOp24
 70
     1
102
RTVSPropertyOp25
 70
     1
102
RTVSPropertyOp26
 70
     1
102
RTVSPropertyOp27
 70
     1
102
RTVSPropertyOp28
 70
     1
102
RTVSPropertyOp29
 70
     1
102
RTVSPropertyOp30
 70
     1
102
RTVSPropertyOp31
 70
     1
102
RTVSPropertyOp32
 70
     1
  0
ENDSEC
  0
EOF
