  0
SECTION
  2
HEADER
  9
$ACADVER
  1
AC1015
  9
$ACADMAINTVER
 70
     6
  9
$DWGCODEPAGE
  3
ANSI_949
  9
$INSBASE
 10
0.0
 20
0.0
 30
0.0
  9
$EXTMIN
 10
1.000000000000000E+20
 20
1.000000000000000E+20
 30
1.000000000000000E+20
  9
$EXTMAX
 10
-1.000000000000000E+20
 20
-1.000000000000000E+20
 30
-1.000000000000000E+20
  9
$LIMMIN
 10
0.0
 20
0.0
  9
$LIMMAX
 10
12.0
 20
9.0
  9
$ORTHOMODE
 70
     0
  9
$REGENMODE
 70
     1
  9
$FILLMODE
 70
     1
  9
$QTEXTMODE
 70
     0
  9
$MIRRTEXT
 70
     1
  9
$LTSCALE
 40
1.0
  9
$ATTMODE
 70
     1
  9
$TEXTSIZE
 40
0.2
  9
$TRACEWID
 40
0.05
  9
$TEXTSTYLE
  7
Standard
  9
$CLAYER
  8
0
  9
$CELTYPE
  6
ByLayer
  9
$CECOLOR
 62
   256
  9
$CELTSCALE
 40
1.0
  9
$DISPSILH
 70
     0
  9
$DIMSCALE
 40
1.0
  9
$DIMASZ
 40
0.18
  9
$DIMEXO
 40
0.0625
  9
$DIMDLI
 40
0.38
  9
$DIMRND
 40
0.0
  9
$DIMDLE
 40
0.0
  9
$DIMEXE
 40
0.18
  9
$DIMTP
 40
0.0
  9
$DIMTM
 40
0.0
  9
$DIMTXT
 40
0.18
  9
$DIMCEN
 40
0.09
  9
$DIMTSZ
 40
0.0
  9
$DIMTOL
 70
     0
  9
$DIMLIM
 70
     0
  9
$DIMTIH
 70
     1
  9
$DIMTOH
 70
     1
  9
$DIMSE1
 70
     0
  9
$DIMSE2
 70
     0
  9
$DIMTAD
 70
     0
  9
$DIMZIN
 70
     0
  9
$DIMBLK
  1

  9
$DIMASO
 70
     1
  9
$DIMSHO
 70
     1
  9
$DIMPOST
  1

  9
$DIMAPOST
  1

  9
$DIMALT
 70
     0
  9
$DIMALTD
 70
     2
  9
$DIMALTF
 40
25.4
  9
$DIMLFAC
 40
1.0
  9
$DIMTOFL
 70
     0
  9
$DIMTVP
 40
0.0
  9
$DIMTIX
 70
     0
  9
$DIMSOXD
 70
     0
  9
$DIMSAH
 70
     0
  9
$DIMBLK1
  1

  9
$DIMBLK2
  1

  9
$DIMSTYLE
  2
Standard
  9
$DIMCLRD
 70
     0
  9
$DIMCLRE
 70
     0
  9
$DIMCLRT
 70
     0
  9
$DIMTFAC
 40
1.0
  9
$DIMGAP
 40
0.09
  9
$DIMJUST
 70
     0
  9
$DIMSD1
 70
     0
  9
$DIMSD2
 70
     0
  9
$DIMTOLJ
 70
     1
  9
$DIMTZIN
 70
     0
  9
$DIMALTZ
 70
     0
  9
$DIMALTTZ
 70
     0
  9
$DIMUPT
 70
     0
  9
$DIMDEC
 70
     4
  9
$DIMTDEC
 70
     4
  9
$DIMALTU
 70
     2
  9
$DIMALTTD
 70
     2
  9
$DIMTXSTY
  7
Standard
  9
$DIMAUNIT
 70
     0
  9
$DIMADEC
 70
     0
  9
$DIMALTRND
 40
0.0
  9
$DIMAZIN
 70
     0
  9
$DIMDSEP
 70
    46
  9
$DIMATFIT
 70
     3
  9
$DIMFRAC
 70
     0
  9
$DIMLDRBLK
  1

  9
$DIMLUNIT
 70
     2
  9
$DIMLWD
 70
    -2
  9
$DIMLWE
 70
    -2
  9
$DIMTMOVE
 70
     0
  9
$LUNITS
 70
     2
  9
$LUPREC
 70
     4
  9
$SKETCHINC
 40
0.1
  9
$FILLETRAD
 40
0.5
  9
$AUNITS
 70
     0
  9
$AUPREC
 70
     0
  9
$MENU
  1
.
  9
$ELEVATION
 40
0.0
  9
$PELEVATION
 40
0.0
  9
$THICKNESS
 40
0.0
  9
$LIMCHECK
 70
     0
  9
$CHAMFERA
 40
0.5
  9
$CHAMFERB
 40
0.5
  9
$CHAMFERC
 40
1.0
  9
$CHAMFERD
 40
0.0
  9
$SKPOLY
 70
     0
  9
$TDCREATE
 40
2456522.588353021
  9
$TDUCREATE
 40
2456522.088353021
  9
$TDUPDATE
 40
2456522.588381505
  9
$TDUUPDATE
 40
2456522.088381505
  9
$TDINDWG
 40
0.0000000116
  9
$TDUSRTIMER
 40
0.0000000116
  9
$USRTIMER
 70
     1
  9
$ANGBASE
 50
0.0
  9
$ANGDIR
 70
     0
  9
$PDMODE
 70
     0
  9
$PDSIZE
 40
0.0
  9
$PLINEWID
 40
0.0
  9
$SPLFRAME
 70
     0
  9
$SPLINETYPE
 70
     6
  9
$SPLINESEGS
 70
     8
  9
$HANDSEED
  5
666
  9
$SURFTAB1
 70
     6
  9
$SURFTAB2
 70
     6
  9
$SURFTYPE
 70
     6
  9
$SURFU
 70
     6
  9
$SURFV
 70
     6
  9
$UCSBASE
  2

  9
$UCSNAME
  2

  9
$UCSORG
 10
0.0
 20
0.0
 30
0.0
  9
$UCSXDIR
 10
1.0
 20
0.0
 30
0.0
  9
$UCSYDIR
 10
0.0
 20
1.0
 30
0.0
  9
$UCSORTHOREF
  2

  9
$UCSORTHOVIEW
 70
     0
  9
$UCSORGTOP
 10
0.0
 20
0.0
 30
0.0
  9
$UCSORGBOTTOM
 10
0.0
 20
0.0
 30
0.0
  9
$UCSORGLEFT
 10
0.0
 20
0.0
 30
0.0
  9
$UCSORGRIGHT
 10
0.0
 20
0.0
 30
0.0
  9
$UCSORGFRONT
 10
0.0
 20
0.0
 30
0.0
  9
$UCSORGBACK
 10
0.0
 20
0.0
 30
0.0
  9
$PUCSBASE
  2

  9
$PUCSNAME
  2

  9
$PUCSORG
 10
0.0
 20
0.0
 30
0.0
  9
$PUCSXDIR
 10
1.0
 20
0.0
 30
0.0
  9
$PUCSYDIR
 10
0.0
 20
1.0
 30
0.0
  9
$PUCSORTHOREF
  2

  9
$PUCSORTHOVIEW
 70
     0
  9
$PUCSORGTOP
 10
0.0
 20
0.0
 30
0.0
  9
$PUCSORGBOTTOM
 10
0.0
 20
0.0
 30
0.0
  9
$PUCSORGLEFT
 10
0.0
 20
0.0
 30
0.0
  9
$PUCSORGRIGHT
 10
0.0
 20
0.0
 30
0.0
  9
$PUCSORGFRONT
 10
0.0
 20
0.0
 30
0.0
  9
$PUCSORGBACK
 10
0.0
 20
0.0
 30
0.0
  9
$USERI1
 70
     0
  9
$USERI2
 70
     0
  9
$USERI3
 70
     0
  9
$USERI4
 70
     0
  9
$USERI5
 70
     0
  9
$USERR1
 40
0.0
  9
$USERR2
 40
0.0
  9
$USERR3
 40
0.0
  9
$USERR4
 40
0.0
  9
$USERR5
 40
0.0
  9
$WORLDVIEW
 70
     1
  9
$SHADEDGE
 70
     3
  9
$SHADEDIF
 70
    70
  9
$TILEMODE
 70
     1
  9
$MAXACTVP
 70
    64
  9
$PINSBASE
 10
0.0
 20
0.0
 30
0.0
  9
$PLIMCHECK
 70
     0
  9
$PEXTMIN
 10
1.000000000000000E+20
 20
1.000000000000000E+20
 30
1.000000000000000E+20
  9
$PEXTMAX
 10
-1.000000000000000E+20
 20
-1.000000000000000E+20
 30
-1.000000000000000E+20
  9
$PLIMMIN
 10
0.0
 20
0.0
  9
$PLIMMAX
 10
12.0
 20
9.0
  9
$UNITMODE
 70
     0
  9
$VISRETAIN
 70
     1
  9
$PLINEGEN
 70
     0
  9
$PSLTSCALE
 70
     1
  9
$TREEDEPTH
 70
  3020
  9
$CMLSTYLE
  2
Standard
  9
$CMLJUST
 70
     0
  9
$CMLSCALE
 40
1.0
  9
$PROXYGRAPHICS
 70
     1
  9
$MEASUREMENT
 70
     0
  9
$CELWEIGHT
370
    -1
  9
$ENDCAPS
280
     0
  9
$JOINSTYLE
280
     0
  9
$LWDISPLAY
290
     1
  9
$INSUNITS
 70
     4
  9
$HYPERLINKBASE
  1

  9
$STYLESHEET
  1

  9
$XEDIT
290
     1
  9
$CEPSNTYPE
380
     0
  9
$PSTYLEMODE
290
     1
  9
$FINGERPRINTGUID
  2
{0EC8F16A-FC79-49E3-B8B6-E476C3315BD0}
  9
$VERSIONGUID
  2
{FAEB1C32-E019-11D5-929B-00C0DF256EC4}
  9
$EXTNAMES
290
     1
  9
$PSVPSCALE
 40
0.0
  9
$OLESTARTUP
290
     0
  0
ENDSEC
  0
SECTION
  2
CLASSES
  0
CLASS
  1
ACDBDICTIONARYWDFLT
  2
AcDbDictionaryWithDefault
  3
ObjectDBX Classes
 90
        0
280
     0
281
     0
  0
CLASS
  1
VISUALSTYLE
  2
AcDbVisualStyle
  3
ObjectDBX Classes
 90
     4095
280
     0
281
     0
  0
CLASS
  1
MATERIAL
  2
AcDbMaterial
  3
ObjectDBX Classes
 90
     1153
280
     0
281
     0
  0
CLASS
  1
SPATIAL_FILTER
  2
AcDbSpatialFilter
  3
ObjectDBX Classes
 90
        0
280
     0
281
     0
  0
CLASS
  1
SCALE
  2
AcDbScale
  3
ObjectDBX Classes
 90
     1153
280
     0
281
     0
  0
CLASS
  1
DICTIONARYVAR
  2
AcDbDictionaryVar
  3
ObjectDBX Classes
 90
        0
280
     0
281
     0
  0
CLASS
  1
ACDBPLACEHOLDER
  2
AcDbPlaceHolder
  3
ObjectDBX Classes
 90
        0
280
     0
281
     0
  0
CLASS
  1
LAYOUT
  2
AcDbLayout
  3
ObjectDBX Classes
 90
        0
280
     0
281
     0
  0
ENDSEC
  0
SECTION
  2
TABLES
  0
TABLE
  2
VPORT
  5
8
330
0
100
AcDbSymbolTable
 70
     1
  0
VPORT
  5
29
330
8
100
AcDbSymbolTableRecord
100
AcDbViewportTableRecord
  2
*Active
 70
     0
 10
0.0
 20
0.0
 11
1.0
 21
1.0
 12
148.6203422501967
 22
90.78379343050779
 13
0.0
 23
0.0
 14
0.5
 24
0.5
 15
0.5
 25
0.5
 16
0.0
 26
0.0
 36
1.0
 17
0.0
 27
0.0
 37
0.0
 40
181.0640264848473
 41
1.595598544868501
 42
50.0
 43
0.0
 44
0.0
 50
0.0
 51
0.0
 71
     0
 72
   100
 73
     1
 74
     3
 75
     0
 76
     0
 77
     0
 78
     0
281
     0
 65
     1
110
0.0
120
0.0
130
0.0
111
1.0
121
0.0
131
0.0
112
0.0
122
1.0
132
0.0
 79
     0
146
0.0
  0
ENDTAB
  0
TABLE
  2
LTYPE
  5
5
330
0
100
AcDbSymbolTable
 70
     2
  0
LTYPE
  5
14
330
5
100
AcDbSymbolTableRecord
100
AcDbLinetypeTableRecord
  2
ByBlock
 70
     0
  3

 72
    65
 73
     0
 40
0.0
  0
LTYPE
  5
15
330
5
100
AcDbSymbolTableRecord
100
AcDbLinetypeTableRecord
  2
ByLayer
 70
     0
  3

 72
    65
 73
     0
 40
0.0
  0
LTYPE
  5
16
330
5
100
AcDbSymbolTableRecord
100
AcDbLinetypeTableRecord
  2
Continuous
 70
     0
  3
Solid line
 72
    65
 73
     0
 40
0.0
  0
LTYPE
  5
10B
330
5
100
AcDbSymbolTableRecord
100
AcDbLinetypeTableRecord
  2
Dashed
 70
     0
  3
- - - - - 
 72
    65
 73
     2
 40
5.644444465637207
 49
2.822222232818604
 74
     0
 49
-2.822222232818603
 74
     0
  0
ENDTAB
  0
TABLE
  2
LAYER
  5
2
330
0
100
AcDbSymbolTable
 70
     3
  0
LAYER
  5
10
330
2
100
AcDbSymbolTableRecord
100
AcDbLayerTableRecord
  2
0
 70
     0
 62
     7
  6
Continuous
370
    -3
390
F
  0
LAYER
  5
40
330
2
100
AcDbSymbolTableRecord
100
AcDbLayerTableRecord
  2
Doc_ Finishes
 70
     0
 62
     7
  6
Continuous
370
    -3
390
F
  0
LAYER
  5
DB
330
2
100
AcDbSymbolTableRecord
100
AcDbLayerTableRecord
  2
Doc_ Floor
 70
     0
 62
     7
  6
Continuous
370
    -3
390
F
  0
ENDTAB
  0
TABLE
  2
STYLE
  5
3
330
0
100
AcDbSymbolTable
 70
     4
  0
STYLE
  5
11
330
3
100
AcDbSymbolTableRecord
100
AcDbTextStyleTableRecord
  2
Standard
 70
     0
 40
0.0
 41
1.0
 50
0.0
 71
     0
 42
0.2
  3
txt
  4

  0
STYLE
  5
D6
330
3
100
AcDbSymbolTableRecord
100
AcDbTextStyleTableRecord
  2
GENERATED_STYLE_1
 70
     0
 40
0.0
 41
1.0
 50
0.0
 71
     0
 42
0.2
  3

  4

1001
ACAD
1000
Century Gothic
1071
       34
  0
STYLE
  5
D9
330
3
100
AcDbSymbolTableRecord
100
AcDbTextStyleTableRecord
  2
GENERATED_STYLE_2
 70
     0
 40
0.0
 41
1.0
 50
0.0
 71
     0
 42
0.2
  3

  4

1001
ACAD
1000
DilleniaUPC
1071
 33554450
  0
STYLE
  5
118
330
3
100
AcDbSymbolTableRecord
100
AcDbTextStyleTableRecord
  2
GENERATED_STYLE_3
 70
     0
 40
0.0
 41
1.0
 50
0.0
 71
     0
 42
0.2
  3

  4

1001
ACAD
1000
Arial
1071
       34
  0
ENDTAB
  0
TABLE
  2
VIEW
  5
6
330
0
100
AcDbSymbolTable
 70
     0
  0
ENDTAB
  0
TABLE
  2
UCS
  5
7
330
0
100
AcDbSymbolTable
 70
     0
  0
ENDTAB
  0
TABLE
  2
APPID
  5
9
330
0
100
AcDbSymbolTable
 70
     1
  0
APPID
  5
12
330
9
100
AcDbSymbolTableRecord
100
AcDbRegAppTableRecord
  2
ACAD
 70
     0
  0
ENDTAB
  0
TABLE
  2
DIMSTYLE
  5
A
330
0
100
AcDbSymbolTable
 70
     1
100
AcDbDimStyleTable
  0
DIMSTYLE
105
27
330
A
100
AcDbSymbolTableRecord
100
AcDbDimStyleTableRecord
  2
Standard
 70
     0
178
     0
340
11
  0
ENDTAB
  0
TABLE
  2
BLOCK_RECORD
  5
1
330
0
100
AcDbSymbolTable
 70
     3
  0
BLOCK_RECORD
  5
1F
330
1
100
AcDbSymbolTableRecord
100
AcDbBlockTableRecord
  2
*Model_Space
340
22
  0
BLOCK_RECORD
  5
1B
330
1
100
AcDbSymbolTableRecord
100
AcDbBlockTableRecord
  2
*Paper_Space
340
1E
  0
BLOCK_RECORD
  5
E3
330
1
100
AcDbSymbolTableRecord
100
AcDbBlockTableRecord
  2
Drawing_1_2
340
0
102
{BLKREFS
331
60C
102
}
  0
BLOCK_RECORD
  5
610
330
1
100
AcDbSymbolTableRecord
100
AcDbBlockTableRecord
  2
R-TRS9-07 BARGE DETAIL - SIDE_STORY_MARKER
340
0
  0
ENDTAB
  0
ENDSEC
  0
SECTION
  2
BLOCKS
  0
BLOCK
  5
20
330
1F
100
AcDbEntity
  8
0
100
AcDbBlockBegin
  2
*Model_Space
 70
     0
 10
0.0
 20
0.0
 30
0.0
  3
*Model_Space
  1

  0
ENDBLK
  5
21
330
1F
100
AcDbEntity
  8
0
100
AcDbBlockEnd
  0
BLOCK
  5
1C
330
1B
100
AcDbEntity
 67
     1
  8
0
100
AcDbBlockBegin
  2
*Paper_Space
 70
     0
 10
0.0
 20
0.0
 30
0.0
  3
*Paper_Space
  1

  0
ENDBLK
  5
1D
330
1B
100
AcDbEntity
 67
     1
  8
0
100
AcDbBlockEnd
  0
BLOCK
  5
E4
330
E3
100
AcDbEntity
  8
0
100
AcDbBlockBegin
  2
Drawing_1_2
 70
     0
 10
114.216861706496
 20
79.33406998313191
 30
0.0
  3
Drawing_1_2
  1

  0
HATCH
  5
E6
330
E3
100
AcDbEntity
  8
0
  6
Continuous
 62
   255
370
     0
100
AcDbHatch
 10
0.0
 20
0.0
 30
0.0
210
0.0
220
0.0
230
1.0
  2
SOLID
 70
     1
 71
     0
 91
        1
 92
        3
 72
     0
 73
     1
 93
        4
 10
128.2042356761273
 20
137.6292955234528
 10
216.8819951833472
 20
137.6292955234528
 10
216.8819951833472
 20
146.6292955234528
 10
128.2042356761273
 20
146.6292955234528
 97
        0
 75
     0
 76
     1
 98
        0
  0
LINE
  5
E7
330
E3
100
AcDbEntity
  8
0
  6
Continuous
100
AcDbLine
 10
128.2042350857282
 20
137.6292965104002
 30
0.0
 11
216.8819955302903
 21
137.6292965104002
 31
0.0
  0
LINE
  5
E8
330
E3
100
AcDbEntity
  8
0
  6
Continuous
100
AcDbLine
 10
216.8819955302903
 20
137.6292965104002
 30
0.0
 11
216.8819955302903
 21
146.6292943119593
 31
0.0
  0
LINE
  5
E9
330
E3
100
AcDbEntity
  8
0
  6
Continuous
100
AcDbLine
 10
216.8819955302903
 20
146.6292943119593
 30
0.0
 11
128.2042350857282
 21
146.6292943119593
 31
0.0
  0
LINE
  5
EA
330
E3
100
AcDbEntity
  8
0
  6
Continuous
100
AcDbLine
 10
128.2042350857282
 20
146.6292943119593
 30
0.0
 11
128.2042350857282
 21
137.6292965104002
 31
0.0
  0
HATCH
  5
EB
330
E3
100
AcDbEntity
  8
0
  6
Continuous
 62
   255
370
     0
100
AcDbHatch
 10
0.0
 20
0.0
 30
0.0
210
0.0
220
0.0
230
1.0
  2
SOLID
 70
     1
 71
     0
 91
        1
 92
        3
 72
     0
 73
     1
 93
        4
 10
128.2042356761273
 20
146.6292955234528
 10
128.2042356761273
 20
137.6292955234528
 10
142.2042356761273
 20
137.6292955234528
 10
142.2042356761273
 20
146.6292955234528
 97
        0
 75
     0
 76
     1
 98
        0
  0
LINE
  5
EC
330
E3
100
AcDbEntity
  8
0
  6
Continuous
100
AcDbLine
 10
128.2042350857282
 20
146.6292943119593
 30
0.0
 11
142.2042368314265
 21
137.6292965104002
 31
0.0
  0
LINE
  5
ED
330
E3
100
AcDbEntity
  8
0
  6
Continuous
100
AcDbLine
 10
128.2042350857282
 20
146.6292943119593
 30
0.0
 11
128.2042350857282
 21
137.6292965104002
 31
0.0
  0
LINE
  5
EE
330
E3
100
AcDbEntity
  8
0
  6
Continuous
100
AcDbLine
 10
128.2042350857282
 20
137.6292965104002
 30
0.0
 11
142.2042368314265
 21
137.6292965104002
 31
0.0
  0
LINE
  5
EF
330
E3
100
AcDbEntity
  8
0
  6
Continuous
100
AcDbLine
 10
142.2042368314265
 20
137.6292965104002
 30
0.0
 11
142.2042368314265
 21
146.6292943119593
 31
0.0
  0
LINE
  5
F0
330
E3
100
AcDbEntity
  8
0
  6
Continuous
100
AcDbLine
 10
142.2042368314265
 20
146.6292943119593
 30
0.0
 11
128.2042350857282
 21
146.6292943119593
 31
0.0
  0
HATCH
  5
F1
330
E3
100
AcDbEntity
  8
0
  6
Continuous
 62
   255
370
     0
100
AcDbHatch
 10
0.0
 20
0.0
 30
0.0
210
0.0
220
0.0
230
1.0
  2
SOLID
 70
     1
 71
     0
 91
        1
 92
        3
 72
     0
 73
     1
 93
        4
 10
128.2042356761273
 20
119.6292955234528
 10
216.8819951833472
 20
119.6292955234528
 10
216.8819951833472
 20
137.6292955234528
 10
128.2042356761273
 20
137.6292955234528
 97
        0
 75
     0
 76
     1
 98
        0
  0
LINE
  5
F2
330
E3
100
AcDbEntity
  8
0
  6
Continuous
100
AcDbLine
 10
128.2042350857282
 20
119.6292954379342
 30
0.0
 11
216.8819955302903
 21
119.6292954379342
 31
0.0
  0
LINE
  5
F3
330
E3
100
AcDbEntity
  8
0
  6
Continuous
100
AcDbLine
 10
216.8819955302903
 20
119.6292954379342
 30
0.0
 11
216.8819955302903
 21
137.6292965104002
 31
0.0
  0
LINE
  5
F4
330
E3
100
AcDbEntity
  8
0
  6
Continuous
100
AcDbLine
 10
216.8819955302903
 20
137.6292965104002
 30
0.0
 11
128.2042350857282
 21
137.6292965104002
 31
0.0
  0
LINE
  5
F5
330
E3
100
AcDbEntity
  8
0
  6
Continuous
100
AcDbLine
 10
128.2042350857282
 20
137.6292965104002
 30
0.0
 11
128.2042350857282
 21
119.6292954379342
 31
0.0
  0
HATCH
  5
F6
330
E3
100
AcDbEntity
  8
0
  6
Continuous
 62
   255
370
     0
100
AcDbHatch
 10
0.0
 20
0.0
 30
0.0
210
0.0
220
0.0
230
1.0
  2
SOLID
 70
     1
 71
     0
 91
        1
 92
        3
 72
     0
 73
     1
 93
       12
 10
128.2042356761273
 20
116.1246949271835
 10
128.2042356761273
 20
118.1246949271835
 10
126.6042356761273
 20
118.1246949271835
 10
126.6042356761273
 20
119.1246949271835
 10
128.2042356761273
 20
119.1246949271835
 10
128.2042356761273
 20
149.1246949271835
 10
126.6042356761273
 20
149.1246949271835
 10
126.6042356761273
 20
150.1246949271835
 10
128.2042356761273
 20
150.1246949271835
 10
128.2042356761273
 20
152.1246949271835
 10
124.2042356761273
 20
152.1246949271835
 10
124.2042356761273
 20
116.1246949271835
 97
        0
 75
     0
 76
     1
 98
        0
  0
HATCH
  5
F7
330
E3
100
AcDbEntity
  8
0
  6
Continuous
100
AcDbHatch
 10
0.0
 20
0.0
 30
0.0
210
0.0
220
0.0
230
1.0
  2
Wood_0002
 70
     0
 71
     0
 91
        1
 92
        3
 72
     0
 73
     1
 93
       12
 10
128.2042356761273
 20
116.1246949271835
 10
128.2042356761273
 20
118.1246949271835
 10
126.6042356761273
 20
118.1246949271835
 10
126.6042356761273
 20
119.1246949271835
 10
128.2042356761273
 20
119.1246949271835
 10
128.2042356761273
 20
149.1246949271835
 10
126.6042356761273
 20
149.1246949271835
 10
126.6042356761273
 20
150.1246949271835
 10
128.2042356761273
 20
150.1246949271835
 10
128.2042356761273
 20
152.1246949271835
 10
124.2042356761273
 20
152.1246949271835
 10
124.2042356761273
 20
116.1246949271835
 97
        0
 75
     0
 76
     2
 52
0.0
 41
1.0
 77
     0
 78
     1
 53
9.999999999999996
 43
114.216861706496
 44
79.33406998313191
 45
-0.1562833557601421
 46
0.8863269542313407
 79
     0
 98
        0
  0
LINE
  5
F8
330
E3
100
AcDbEntity
  8
0
  6
Continuous
100
AcDbLine
 10
128.2042350857282
 20
116.1246959636584
 30
0.0
 11
128.2042350857282
 21
118.1246942597054
 31
0.0
  0
LINE
  5
F9
330
E3
100
AcDbEntity
  8
0
  6
Continuous
100
AcDbLine
 10
128.2042350857282
 20
118.1246942597054
 30
0.0
 11
126.6042348080863
 21
118.1246942597054
 31
0.0
  0
LINE
  5
FA
330
E3
100
AcDbEntity
  8
0
  6
Continuous
100
AcDbLine
 10
126.6042348080863
 20
118.1246942597054
 30
0.0
 11
126.6042348080863
 21
119.1246961424028
 31
0.0
  0
LINE
  5
FB
330
E3
100
AcDbEntity
  8
0
  6
Continuous
100
AcDbLine
 10
126.6042348080863
 20
119.1246961424028
 30
0.0
 11
128.2042350857282
 21
119.1246961424028
 31
0.0
  0
LINE
  5
FC
330
E3
100
AcDbEntity
  8
0
  6
Continuous
100
AcDbLine
 10
128.2042350857282
 20
119.1246961424028
 30
0.0
 11
128.2042350857282
 21
149.1246951951723
 31
0.0
  0
LINE
  5
FD
330
E3
100
AcDbEntity
  8
0
  6
Continuous
100
AcDbLine
 10
128.2042350857282
 20
149.1246951951723
 30
0.0
 11
126.6042348080863
 21
149.1246951951723
 31
0.0
  0
LINE
  5
FE
330
E3
100
AcDbEntity
  8
0
  6
Continuous
100
AcDbLine
 10
126.6042348080863
 20
149.1246951951723
 30
0.0
 11
126.6042348080863
 21
150.1246943431958
 31
0.0
  0
LINE
  5
FF
330
E3
100
AcDbEntity
  8
0
  6
Continuous
100
AcDbLine
 10
126.6042348080863
 20
150.1246943431958
 30
0.0
 11
128.2042350857282
 21
150.1246943431958
 31
0.0
  0
LINE
  5
100
330
E3
100
AcDbEntity
  8
0
  6
Continuous
100
AcDbLine
 10
128.2042350857282
 20
150.1246943431958
 30
0.0
 11
128.2042350857282
 21
152.1246953739166
 31
0.0
  0
LINE
  5
101
330
E3
100
AcDbEntity
  8
0
  6
Continuous
100
AcDbLine
 10
128.2042350857282
 20
152.1246953739166
 30
0.0
 11
124.2042357589604
 21
152.1246953739166
 31
0.0
  0
LINE
  5
102
330
E3
100
AcDbEntity
  8
0
  6
Continuous
100
AcDbLine
 10
124.2042357589604
 20
152.1246953739166
 30
0.0
 11
124.2042357589604
 21
116.1246959636584
 31
0.0
  0
LINE
  5
103
330
E3
100
AcDbEntity
  8
0
  6
Continuous
100
AcDbLine
 10
124.2042357589604
 20
116.1246959636584
 30
0.0
 11
128.2042350857282
 21
116.1246959636584
 31
0.0
  0
HATCH
  5
104
330
E3
100
AcDbEntity
  8
0
  6
Continuous
 62
   255
370
     0
100
AcDbHatch
 10
0.0
 20
0.0
 30
0.0
210
0.0
220
0.0
230
1.0
  2
SOLID
 70
     1
 71
     0
 91
        1
 92
        3
 72
     0
 73
     1
 93
        4
 10
137.2042356761273
 20
137.6292955234528
 10
128.2042356761273
 20
137.6292955234528
 10
128.2042356761273
 20
119.6292955234528
 10
137.2042356761273
 20
119.6292955234528
 97
        0
 75
     0
 76
     1
 98
        0
  0
LINE
  5
105
330
E3
100
AcDbEntity
  8
0
  6
Continuous
100
AcDbLine
 10
128.2042350857282
 20
137.6292965104002
 30
0.0
 11
137.2042356219613
 21
119.6292954379342
 31
0.0
  0
LINE
  5
106
330
E3
100
AcDbEntity
  8
0
  6
Continuous
100
AcDbLine
 10
137.2042356219613
 20
137.6292965104002
 30
0.0
 11
128.2042350857282
 21
119.6292954379342
 31
0.0
  0
LINE
  5
107
330
E3
100
AcDbEntity
  8
0
  6
Continuous
100
AcDbLine
 10
137.2042356219613
 20
137.6292965104002
 30
0.0
 11
128.2042350857282
 21
137.6292965104002
 31
0.0
  0
LINE
  5
108
330
E3
100
AcDbEntity
  8
0
  6
Continuous
100
AcDbLine
 10
128.2042350857282
 20
137.6292965104002
 30
0.0
 11
128.2042350857282
 21
119.6292954379342
 31
0.0
  0
LINE
  5
109
330
E3
100
AcDbEntity
  8
0
  6
Continuous
100
AcDbLine
 10
128.2042350857282
 20
119.6292954379342
 30
0.0
 11
137.2042356219613
 21
119.6292954379342
 31
0.0
  0
LINE
  5
10A
330
E3
100
AcDbEntity
  8
0
  6
Continuous
100
AcDbLine
 10
137.2042356219613
 20
119.6292954379342
 30
0.0
 11
137.2042356219613
 21
137.6292965104002
 31
0.0
  0
LINE
  5
10C
330
E3
100
AcDbEntity
  8
0
  6
Dashed
100
AcDbLine
 10
128.8523856189117
 20
147.5813382182655
 30
0.0
 11
217.562043299981
 21
147.5813382182655
 31
0.0
  0
LINE
  5
10D
330
E3
100
AcDbEntity
  8
0
  6
Dashed
100
AcDbLine
 10
128.8523856189117
 20
147.5813382182655
 30
0.0
 11
128.8523856189117
 21
152.1246953739166
 31
0.0
  0
LWPOLYLINE
  5
10E
330
E3
100
AcDbEntity
  8
0
  6
Continuous
100
AcDbPolyline
 90
        6
 70
   128
 43
0.0
 10
173.9662275071213
 20
151.6157954590889
 10
171.0942884780705
 20
156.6436146985002
 10
123.447639693871
 20
156.6436146985002
 10
123.447639693871
 20
139.2553111883197
 10
121.4468443143992
 20
137.944445250045
 10
123.4131432218112
 20
135.9781463426331
  0
LWPOLYLINE
  5
10F
330
E3
100
AcDbEntity
  8
0
  6
Continuous
100
AcDbPolyline
 90
        3
 70
   128
 43
0.0
 10
204.2565880169395
 20
150.1187399770792
 42
-0.5012060838038215
 10
196.6018122293052
 20
150.3410646480464
 42
0.4736328287552234
 10
189.281511097365
 20
150.2359459029689
  0
LWPOLYLINE
  5
110
330
E3
100
AcDbEntity
  8
0
  6
Continuous
100
AcDbPolyline
 90
       29
 70
   128
 43
0.0
 10
241.0860419195
 20
148.3490964568213
 10
237.2901674929242
 20
148.3490964568213
 10
232.9378807469821
 20
155.9490964568213
 10
225.9901674929242
 20
155.9490964568213
 10
221.6901674929241
 20
148.3490964568213
 10
216.230511448537
 20
148.3490964568213
 10
215.1093508916603
 20
148.9970333642578
 10
212.6197734661343
 20
148.9970333642578
 10
211.4986129092575
 20
148.3490964568213
 10
206.0901674929241
 20
148.3490964568213
 10
201.7901674929242
 20
155.9490964568213
 10
194.7901674929241
 20
155.9490964568213
 10
190.490167492924
 20
148.3490964568213
 10
185.0305114485369
 20
148.3490964568213
 10
183.9093508916602
 20
148.9970333642578
 10
181.4197734661342
 20
148.9970333642578
 10
180.2986129092574
 20
148.3490964568213
 10
174.890167492924
 20
148.3490964568213
 10
170.5901674929241
 20
155.9490964568213
 10
163.590167492924
 20
155.9490964568213
 10
159.2901674929239
 20
148.3490964568213
 10
153.8305114485368
 20
148.3490964568213
 10
152.70935089166
 20
148.9970333642578
 10
150.2197734661341
 20
148.9970333642578
 10
149.0986129092572
 20
148.3490964568213
 10
143.6901674929238
 20
148.3490964568213
 10
139.3901674929239
 20
155.9490964568213
 10
132.3901674929239
 20
155.9490964568213
 10
129.9526133092078
 20
151.6408611553697
  0
LINE
  5
111
330
E3
100
AcDbEntity
  8
Doc_ Floor
  6
Continuous
100
AcDbLine
 10
116.3352279858
 20
138.2773103098881
 30
0.0
 11
116.3352279858
 21
139.2553117409651
 31
0.0
  0
LINE
  5
112
330
E3
100
AcDbEntity
  8
Doc_ Floor
  6
Continuous
100
AcDbLine
 10
116.3352279858
 20
139.2553117409651
 30
0.0
 11
116.3352279858
 21
152.1246953739166
 31
0.0
  0
LINE
  5
113
330
E3
100
AcDbEntity
  8
Doc_ Floor
  6
Continuous
100
AcDbLine
 10
115.3352261031026
 20
139.832661566572
 30
0.0
 11
117.3352271338235
 21
138.6779619153581
 31
0.0
  0
LINE
  5
114
330
E3
100
AcDbEntity
  8
Doc_ Floor
  6
Continuous
100
AcDbLine
 10
117.3352271338235
 20
151.5473455483096
 30
0.0
 11
115.3352261031026
 21
152.7020451995236
 31
0.0
  0
LINE
  5
115
330
E3
100
AcDbEntity
  8
Doc_ Floor
  6
Continuous
100
AcDbLine
 10
116.3352279858
 20
152.1246953739166
 30
0.0
 11
116.3352279858
 21
153.1026940703196
 31
0.0
  0
LINE
  5
116
330
E3
100
AcDbEntity
  8
Doc_ Floor
  6
Continuous
100
AcDbLine
 10
117.8352267078352
 20
139.2553117409651
 30
0.0
 11
114.8352265290909
 21
139.2553117409651
 31
0.0
  0
LINE
  5
117
330
E3
100
AcDbEntity
  8
Doc_ Floor
  6
Continuous
100
AcDbLine
 10
117.8352267078352
 20
152.1246953739166
 30
0.0
 11
114.8352265290909
 21
152.1246953739166
 31
0.0
  0
MTEXT
  5
119
330
E3
100
AcDbEntity
  8
Doc_ Floor
  6
Continuous
100
AcDbMText
 10
115.8352267232405
 20
144.5471454614734
 30
0.0
 40
2.5
 41
0.0
 71
     7
 72
     1
  1
{A}
  7
GENERATED_STYLE_3
 11
6.123233995736766E-17
 21
1.0
 31
0.0
 73
     1
 44
1.0
  0
LINE
  5
11A
330
E3
100
AcDbEntity
  8
Doc_ Floor
  6
Continuous
100
AcDbLine
 10
122.4696403007275
 20
162.2697339584332
 30
0.0
 11
123.4476389971306
 21
162.2697339584332
 31
0.0
  0
LINE
  5
11B
330
E3
100
AcDbEntity
  8
Doc_ Floor
  6
Continuous
100
AcDbLine
 10
123.4476389971306
 20
162.2697339584332
 30
0.0
 11
171.0942891715486
 21
162.2697339584332
 31
0.0
  0
LINE
  5
11C
330
E3
100
AcDbEntity
  8
Doc_ Floor
  6
Continuous
100
AcDbLine
 10
124.0249888227376
 20
163.2697331064567
 30
0.0
 11
122.8702891715236
 21
161.2697348104097
 31
0.0
  0
LINE
  5
11D
330
E3
100
AcDbEntity
  8
Doc_ Floor
  6
Continuous
100
AcDbLine
 10
170.5169393459416
 20
161.2697348104097
 30
0.0
 11
171.6716389971556
 21
163.2697331064567
 31
0.0
  0
LINE
  5
11E
330
E3
100
AcDbEntity
  8
Doc_ Floor
  6
Continuous
100
AcDbLine
 10
171.0942891715486
 20
162.2697339584332
 30
0.0
 11
172.0722878679516
 21
162.2697339584332
 31
0.0
  0
LINE
  5
11F
330
E3
100
AcDbEntity
  8
Doc_ Floor
  6
Continuous
100
AcDbLine
 10
123.4476389971306
 20
160.769735236398
 30
0.0
 11
123.4476389971306
 21
163.7697354151424
 31
0.0
  0
LINE
  5
120
330
E3
100
AcDbEntity
  8
Doc_ Floor
  6
Continuous
100
AcDbLine
 10
171.0942891715486
 20
160.769735236398
 30
0.0
 11
171.0942891715486
 21
163.7697354151424
 31
0.0
  0
MTEXT
  5
121
330
E3
100
AcDbEntity
  8
Doc_ Floor
  6
Continuous
100
AcDbMText
 10
146.1281064896926
 20
162.7697344095955
 30
0.0
 40
2.5
 41
0.0
 71
     7
 72
     1
  1
{B}
  7
GENERATED_STYLE_3
 73
     1
 44
1.0
  0
MTEXT
  5
122
330
E3
100
AcDbEntity
  8
Doc_ Floor
  6
Continuous
100
AcDbMText
 10
131.9087569865483
 20
174.0365515113153
 30
0.0
 40
2.5
 41
56.68353220040039
 71
     6
 72
     1
  1
\A1;{\fCentury Gothic|b0|i0|c0|p34;TRS 9\PMIN. ROOF PITCH 3\fArial|b0|i0|c0|p34;\H1.029412x;\U+00B0}
  7
GENERATED_STYLE_1
 73
     1
 44
1.056356172275314
  0
LINE
  5
123
330
E3
100
AcDbEntity
  8
Doc_ Floor
  6
Continuous
100
AcDbLine
 10
160.3033807718909
 20
150.1398936607975
 30
0.0
 11
158.1225822448392
 21
153.329300089347
 31
0.0
  0
LINE
  5
124
330
E3
100
AcDbEntity
  8
Doc_ Floor
  6
Continuous
100
AcDbLine
 10
160.3033807718909
 20
150.1398936607975
 30
0.0
 11
160.0094580198507
 21
153.9924010848063
 31
0.0
  0
LINE
  5
125
330
E3
100
AcDbEntity
  8
Doc_ Floor
  6
Continuous
100
AcDbLine
 10
158.1225822448392
 20
153.329300089347
 30
0.0
 11
160.0094580198507
 21
153.9924010848063
 31
0.0
  0
LWPOLYLINE
  5
126
330
E3
100
AcDbEntity
  8
Doc_ Floor
  6
Continuous
100
AcDbPolyline
 90
       17
 70
   128
 43
0.0
 10
159.0660200974366
 20
153.6608499482821
 10
157.9849970109946
 20
156.3959290826822
 10
156.8679697673118
 20
158.9032539967286
 10
155.7068305184261
 20
161.1899028323895
 10
154.4934714163748
 20
163.262953731633
 10
153.2197846131957
 20
165.1294848364271
 10
151.8776622609264
 20
166.7965742887399
 10
150.4589965116045
 20
168.2713002305395
 10
148.9556795172676
 20
169.5607408037939
 10
147.3596034299534
 20
170.6719741504713
 10
145.6626604016995
 20
171.6120784125397
 10
143.8567425845434
 20
172.3881317319672
 10
141.9337421305229
 20
173.0072122507219
 10
139.8855511916755
 20
173.4763981107719
 10
137.7040619200388
 20
173.8027674540851
 10
135.3811664676506
 20
173.9933984226299
 10
132.9087569865483
 20
174.0553691583741
  0
MTEXT
  5
127
330
E3
100
AcDbEntity
  8
Doc_ Floor
  6
Continuous
100
AcDbMText
 10
188.9171307510152
 20
159.7814592441181
 30
0.0
 40
2.5
 41
0.0
 71
     4
 72
     1
  1
{UNDERLAY}
  7
GENERATED_STYLE_1
 73
     1
 44
1.0
  0
LINE
  5
128
330
E3
100
AcDbEntity
  8
Doc_ Floor
  6
Continuous
100
AcDbLine
 10
180.3187298650708
 20
147.5813382182655
 30
0.0
 11
179.1102692594248
 21
151.2511913023573
 31
0.0
  0
LINE
  5
129
330
E3
100
AcDbEntity
  8
Doc_ Floor
  6
Continuous
100
AcDbLine
 10
180.3187298650708
 20
147.5813382182655
 30
0.0
 11
181.107098068408
 21
151.3637532152409
 31
0.0
  0
LINE
  5
12A
330
E3
100
AcDbEntity
  8
Doc_ Floor
  6
Continuous
100
AcDbLine
 10
179.1102692594248
 20
151.2511913023573
 30
0.0
 11
181.107098068408
 21
151.3637532152409
 31
0.0
  0
LWPOLYLINE
  5
12B
330
E3
100
AcDbEntity
  8
Doc_ Floor
  6
Continuous
100
AcDbPolyline
 90
        9
 70
   128
 43
0.0
 10
180.1086839358997
 20
151.3074719266342
 10
180.2092395118273
 20
153.4855633782061
 10
180.5325728769616
 20
155.301670272116
 10
181.0923666046939
 20
156.7778525836061
 10
181.9023032684152
 20
157.9361702879186
 10
182.9760654415169
 20
158.7986833602956
 10
184.32733569739
 20
159.3874517759793
 10
185.9697966094257
 20
159.724535510212
 10
187.9171307510152
 20
159.8319945382357
  0
MTEXT
  5
12C
330
E3
100
AcDbEntity
  8
Doc_ Floor
  6
Continuous
100
AcDbMText
 10
97.71382257645644
 20
166.5529901436539
 30
0.0
 40
2.499999999999999
 41
0.0
 71
     6
 72
     1
  1
{PURLIN}
  7
GENERATED_STYLE_1
 73
     1
 44
1.0
  0
LINE
  5
12D
330
E3
100
AcDbEntity
  8
Doc_ Floor
  6
Continuous
100
AcDbLine
 10
134.8789041093231
 20
143.4615738475304
 30
0.0
 11
131.7624806581317
 21
145.7454531730134
 31
0.0
  0
LINE
  5
12E
330
E3
100
AcDbEntity
  8
Doc_ Floor
  6
Continuous
100
AcDbLine
 10
134.8789041093231
 20
143.4615738475304
 30
0.0
 11
133.3219421297051
 21
146.9976849692918
 31
0.0
  0
LINE
  5
12F
330
E3
100
AcDbEntity
  8
Doc_ Floor
  6
Continuous
100
AcDbLine
 10
131.7624806581317
 20
145.7454531730134
 30
0.0
 11
133.3219421297051
 21
146.9976849692918
 31
0.0
  0
LWPOLYLINE
  5
130
330
E3
100
AcDbEntity
  8
Doc_ Floor
  6
Continuous
100
AcDbPolyline
 90
       16
 70
   128
 43
0.0
 10
132.5422112567438
 20
146.3715684126118
 10
128.0515533195526
 20
151.5760884228366
 10
125.9062400328084
 20
153.8456555344208
 10
123.8128484750979
 20
155.9028693241113
 10
121.7603121022706
 20
157.7548112472516
 10
119.7375643701763
 20
159.4085627591853
 10
117.7335387346645
 20
160.8712053152562
 10
115.7371686515849
 20
162.1498203708079
 10
113.7373875767869
 20
163.2514893811841
 10
111.7231289661203
 20
164.1832938017285
 10
109.6833262754347
 20
164.9523150877847
 10
107.6069129605795
 20
165.5656346946964
 10
105.4828224774045
 20
166.0303340778073
 10
103.2999882817593
 20
166.353494692461
 10
101.0473438294934
 20
166.5421979940012
 10
98.71382257645645
 20
166.6035254377715
  0
MTEXT
  5
131
330
E3
100
AcDbEntity
  8
Doc_ Floor
  6
Continuous
100
AcDbMText
 10
80.43918021320361
 20
106.2209020242596
 30
0.0
 40
2.5
 41
0.0
 71
     4
 72
     1
  1
{FASCIA}
  7
GENERATED_STYLE_1
 73
     1
 44
1.0
  0
LINE
  5
132
330
E3
100
AcDbEntity
  8
Doc_ Floor
  6
Continuous
100
AcDbLine
 10
125.6714074553584
 20
124.5183235800585
 30
0.0
 11
124.12971316019
 21
120.9755289152567
 31
0.0
  0
LINE
  5
133
330
E3
100
AcDbEntity
  8
Doc_ Floor
  6
Continuous
100
AcDbLine
 10
125.6714074553584
 20
124.5183235800585
 30
0.0
 11
122.5648671156843
 21
122.2210224750163
 31
0.0
  0
LINE
  5
134
330
E3
100
AcDbEntity
  8
Doc_ Floor
  6
Continuous
100
AcDbLine
 10
124.12971316019
 20
120.9755289152567
 30
0.0
 11
122.5648671156843
 21
122.2210224750163
 31
0.0
  0
LWPOLYLINE
  5
135
330
E3
100
AcDbEntity
  8
Doc_ Floor
  6
Continuous
100
AcDbPolyline
 90
       13
 70
   128
 43
0.0
 10
123.347290179804
 20
121.5982759810595
 10
119.9665178006929
 20
117.6521077519055
 10
116.7970604828684
 20
114.3697506674235
 10
113.7763448283577
 20
111.7087766992894
 10
112.3022109379784
 20
110.5980496250015
 10
110.8417974391876
 20
109.6267578191791
 10
109.3872826572389
 20
108.7895977782817
 10
107.9308449173854
 20
108.0812659987686
 10
106.4646625448807
 20
107.4964589770995
 10
104.9809138649781
 20
107.0298732097338
 10
103.471777202931
 20
106.676205193131
 10
101.9294308839928
 20
106.4301514237506
 10
98.71382257645645
 20
106.2396726124949
  0
MTEXT
  5
136
330
E3
100
AcDbEntity
  8
Doc_ Floor
  6
Continuous
100
AcDbMText
 10
97.71382257645644
 20
156.6883827238835
 30
0.0
 40
2.5
 41
0.0
 71
     6
 72
     1
  1
{METAL FLASHING}
  7
GENERATED_STYLE_1
 73
     1
 44
1.0
  0
LINE
  5
137
330
E3
100
AcDbEntity
  8
Doc_ Floor
  6
Continuous
100
AcDbLine
 10
123.4476389971306
 20
151.0056914212734
 30
0.0
 11
119.605017419313
 21
151.4087468051118
 31
0.0
  0
LINE
  5
138
330
E3
100
AcDbEntity
  8
Doc_ Floor
  6
Continuous
100
AcDbLine
 10
123.4476389971306
 20
151.0056914212734
 30
0.0
 11
120.3213597811611
 21
153.2760587229582
 31
0.0
  0
LINE
  5
139
330
E3
100
AcDbEntity
  8
Doc_ Floor
  6
Continuous
100
AcDbLine
 10
119.605017419313
 20
151.4087468051118
 30
0.0
 11
120.3213597811611
 21
153.2760587229582
 31
0.0
  0
LWPOLYLINE
  5
13A
330
E3
100
AcDbEntity
  8
Doc_ Floor
  6
Continuous
100
AcDbPolyline
 90
        8
 70
   128
 43
0.0
 10
119.9631889125127
 20
152.3424030286796
 10
113.9168595126261
 20
154.392110558966
 10
111.2038380692554
 20
155.1481407339855
 10
108.6300341022107
 20
155.7405251023983
 10
106.1447890904502
 20
156.1809411043112
 10
103.6974445129322
 20
156.4810661798311
 10
101.2373418486149
 20
156.6525777690646
 10
98.71382257645645
 20
156.7071533121188
  0
MTEXT
  5
13B
330
E3
100
AcDbEntity
  8
Doc_ Floor
  6
Continuous
100
AcDbMText
 10
97.7665314305141
 20
130.4356267309858
 30
0.0
 40
2.5
 41
39.14846526914619
 71
     6
 72
     1
  1
{BIRD'S BEAK AT BOTTOM EDGE}
  7
GENERATED_STYLE_1
 73
     1
 44
1.070162922071087
  0
LINE
  5
13C
330
E3
100
AcDbEntity
  8
Doc_ Floor
  6
Continuous
100
AcDbLine
 10
122.2668888422328
 20
136.4908599649397
 30
0.0
 11
119.2572544072972
 21
134.0679881032155
 31
0.0
  0
LINE
  5
13D
330
E3
100
AcDbEntity
  8
Doc_ Floor
  6
Continuous
100
AcDbLine
 10
122.2668888422328
 20
136.4908599649397
 30
0.0
 11
118.4490324713604
 21
135.89740837934
 31
0.0
  0
LINE
  5
13E
330
E3
100
AcDbEntity
  8
Doc_ Floor
  6
Continuous
100
AcDbLine
 10
119.2572544072972
 20
134.0679881032155
 30
0.0
 11
118.4490324713604
 21
135.89740837934
 31
0.0
  0
LWPOLYLINE
  5
13F
330
E3
100
AcDbEntity
  8
Doc_ Floor
  6
Continuous
100
AcDbPolyline
 90
        9
 70
   128
 43
0.0
 10
118.853143955956
 20
134.9826995080923
 10
115.9930420441145
 20
133.8231460155944
 10
113.3263997781219
 20
132.8572298042007
 10
110.8063838130767
 20
132.0729210335364
 10
108.3861608040775
 20
131.458189863227
 10
106.0188974062231
 20
131.0010064528977
 10
103.657760274612
 20
130.689340962174
 10
101.2559160643428
 20
130.5111635506812
 10
98.7665314305141
 20
130.4544443780447
  0
LINE
  5
140
330
E3
100
AcDbEntity
  8
0
  6
Continuous
100
AcDbLine
 10
91.84477919780745
 20
74.28041673247118
 30
0.0
 11
216.2078820029881
 21
74.28041673247118
 31
0.0
  0
LINE
  5
141
330
E3
100
AcDbEntity
  8
0
  6
Continuous
100
AcDbLine
 10
192.2378662724763
 20
82.36678185748927
 30
0.0
 11
192.2378662724763
 21
41.99863584910897
 31
0.0
  0
LINE
  5
142
330
E3
100
AcDbEntity
  8
0
  6
Continuous
100
AcDbLine
 10
91.84477919780745
 20
41.99863584910897
 30
0.0
 11
91.84477919780745
 21
74.28041673247118
 31
0.0
  0
LINE
  5
143
330
E3
100
AcDbEntity
  8
0
  6
Continuous
100
AcDbLine
 10
168.2678478072905
 20
82.36678185748927
 30
0.0
 11
168.2678478072905
 21
41.99863584910897
 31
0.0
  0
LINE
  5
144
330
E3
100
AcDbEntity
  8
0
  6
Continuous
100
AcDbLine
 10
91.84477919780745
 20
63.51982219312581
 30
0.0
 11
216.2078820029881
 21
63.51982219312581
 31
0.0
  0
LINE
  5
145
330
E3
100
AcDbEntity
  8
0
  6
Continuous
100
AcDbLine
 10
91.84477919780745
 20
52.75923038845434
 30
0.0
 11
216.2078820029881
 21
52.75923038845434
 31
0.0
  0
LINE
  5
146
330
E3
100
AcDbEntity
  8
0
  6
Continuous
100
AcDbLine
 10
168.2678478072905
 20
82.36678185748927
 30
0.0
 11
192.2378662724763
 21
82.36678185748927
 31
0.0
  0
LINE
  5
147
330
E3
100
AcDbEntity
  8
0
  6
Continuous
100
AcDbLine
 10
91.84477919780745
 20
41.99863584910897
 30
0.0
 11
216.2078820029881
 21
41.99863584910897
 31
0.0
  0
LINE
  5
148
330
E3
100
AcDbEntity
  8
0
  6
Continuous
100
AcDbLine
 10
216.2078820029881
 20
82.36678185748927
 30
0.0
 11
216.2078820029881
 21
41.99863584910897
 31
0.0
  0
LINE
  5
149
330
E3
100
AcDbEntity
  8
0
  6
Continuous
100
AcDbLine
 10
192.2378662724763
 20
82.36678185748927
 30
0.0
 11
216.2078820029881
 21
82.36678185748927
 31
0.0
  0
MTEXT
  5
14A
330
E3
100
AcDbEntity
  8
0
  6
Continuous
100
AcDbMText
 10
95.40070770960023
 20
65.43677371778317
 30
0.0
 40
2.499999999999999
 41
69.01187578516154
 71
     7
 72
     1
  1
\A1;{\fCentury Gothic|b0|i0|c0|p34;LOW, MEDIUM OR HIGH WIND ZONE.\P ROOF PITCH \fArial|b0|i0|c0|p34;\H1.029412x;\U+2265\fCentury Gothic|b0|i0|c0|p34;\H0.971429x; 10\fArial|b0|i0|c0|p34;\H1.029412x;\U+00B0}
  7
GENERATED_STYLE_1
 73
     1
 44
1.056355725756043
  0
MTEXT
  5
14B
330
E3
100
AcDbEntity
  8
0
  6
Continuous
100
AcDbMText
 10
95.40070770960023
 20
55.01392910979385
 30
0.0
 40
2.5
 41
69.01187578516154
 71
     7
 72
     1
  1
\A1;{\fCentury Gothic|b0|i0|c0|p34;VERY HIGH WIND ZONE.\P ROOF PITCH \fArial|b0|i0|c0|p34;\H1.029412x;<\fCentury Gothic|b0|i0|c0|p34;\H0.971429x; 10\fArial|b0|i0|c0|p34;\H1.029412x;\U+00B0}
  7
GENERATED_STYLE_1
 73
     1
 44
1.056355725756043
  0
MTEXT
  5
14C
330
E3
100
AcDbEntity
  8
0
  6
Continuous
100
AcDbMText
 10
179.9000417661883
 20
67.4766011914433
 30
0.0
 40
2.499999999999999
 41
0.0
 71
     8
 72
     1
  1
{50MM}
  7
GENERATED_STYLE_1
 73
     1
 44
1.0
  0
MTEXT
  5
14D
330
E3
100
AcDbEntity
  8
0
  6
Continuous
100
AcDbMText
 10
179.9000417661883
 20
56.23782166998554
 30
0.0
 40
2.499999999999999
 41
0.0
 71
     8
 72
     1
  1
{75MM}
  7
GENERATED_STYLE_1
 73
     1
 44
1.0
  0
MTEXT
  5
14E
330
E3
100
AcDbEntity
  8
0
  6
Continuous
100
AcDbMText
 10
179.9000417661883
 20
77.35866551464495
 30
0.0
 40
2.499999999999999
 41
0.0
 71
     8
 72
     1
  1
{A}
  7
GENERATED_STYLE_1
 73
     1
 44
1.0
  0
MTEXT
  5
14F
330
E3
100
AcDbEntity
  8
0
  6
Continuous
100
AcDbMText
 10
95.40070770960023
 20
46.54235780053412
 30
0.0
 40
2.5
 41
0.0
 71
     7
 72
     1
  1
{EXTRA WIND ZONE.}
  7
GENERATED_STYLE_1
 73
     1
 44
1.0
  0
MTEXT
  5
150
330
E3
100
AcDbEntity
  8
0
  6
Continuous
100
AcDbMText
 10
179.9000417661883
 20
45.47722830451
 30
0.0
 40
2.499999999999999
 41
0.0
 71
     8
 72
     1
  1
{90MM}
  7
GENERATED_STYLE_1
 73
     1
 44
1.0
  0
MTEXT
  5
151
330
E3
100
AcDbEntity
  8
0
  6
Continuous
100
AcDbMText
 10
203.8700586029764
 20
67.47659859710718
 30
0.0
 40
2.499999999999999
 41
0.0
 71
     8
 72
     1
  1
{2 CRESTS}
  7
GENERATED_STYLE_1
 73
     1
 44
1.0
  0
MTEXT
  5
152
330
E3
100
AcDbEntity
  8
0
  6
Continuous
100
AcDbMText
 10
203.8700586029764
 20
56.23781858932761
 30
0.0
 40
2.499999999999999
 41
0.0
 71
     8
 72
     1
  1
{2 CRESTS}
  7
GENERATED_STYLE_1
 73
     1
 44
1.0
  0
MTEXT
  5
153
330
E3
100
AcDbEntity
  8
0
  6
Continuous
100
AcDbMText
 10
203.8700586029764
 20
77.35866602958063
 30
0.0
 40
2.499999999999999
 41
0.0
 71
     8
 72
     1
  1
{B}
  7
GENERATED_STYLE_1
 73
     1
 44
1.0
  0
MTEXT
  5
154
330
E3
100
AcDbEntity
  8
0
  6
Continuous
100
AcDbMText
 10
203.8700586029764
 20
45.47722522385207
 30
0.0
 40
2.499999999999999
 41
0.0
 71
     8
 72
     1
  1
{2 CRESTS}
  7
GENERATED_STYLE_1
 73
     1
 44
1.0
  0
HATCH
  5
155
330
E3
100
AcDbEntity
  8
0
  6
Continuous
 62
   255
370
     0
100
AcDbHatch
 10
0.0
 20
0.0
 30
0.0
210
0.0
220
0.0
230
1.0
  2
SOLID
 70
     1
 71
     0
 91
        1
 92
        3
 72
     0
 73
     1
 93
        4
 10
126.6042356761273
 20
118.1246949271835
 10
216.8819951833472
 20
118.1246949271835
 10
216.8819951833472
 20
119.0246949271835
 10
126.6042356761273
 20
119.0246949271835
 97
        0
 75
     0
 76
     1
 98
        0
  0
HATCH
  5
156
330
E3
100
AcDbEntity
  8
0
  6
Continuous
100
AcDbHatch
 10
0.0
 20
0.0
 30
0.0
210
0.0
220
0.0
230
1.0
  2
Plaster_0002
 70
     0
 71
     0
 91
        1
 92
        3
 72
     0
 73
     1
 93
        4
 10
126.6042356761273
 20
118.1246949271835
 10
216.8819951833472
 20
118.1246949271835
 10
216.8819951833472
 20
119.0246949271835
 10
126.6042356761273
 20
119.0246949271835
 97
        0
 75
     0
 76
     2
 52
0.0
 41
1.0
 77
     0
 78
     2
 53
0.0
 43
114.216861706496
 44
79.33406998313191
 45
0.0
 46
1.732050807568877
 79
     2
 49
0.0
 49
-1.0
 53
0.0
 43
114.716861706496
 44
80.20009537137273
 45
0.0
 46
1.732050807568877
 79
     2
 49
0.0
 49
-1.0
 98
        0
  0
LINE
  5
157
330
E3
100
AcDbEntity
  8
0
  6
Continuous
100
AcDbLine
 10
126.6042348080863
 20
118.1246942597054
 30
0.0
 11
216.8819955302903
 21
118.1246942597054
 31
0.0
  0
LINE
  5
158
330
E3
100
AcDbEntity
  8
0
  6
Continuous
100
AcDbLine
 10
216.8819955302903
 20
118.1246942597054
 30
0.0
 11
216.8819955302903
 21
119.0246945867961
 31
0.0
  0
LINE
  5
159
330
E3
100
AcDbEntity
  8
0
  6
Continuous
100
AcDbLine
 10
216.8819955302903
 20
119.0246945867961
 30
0.0
 11
126.6042348080863
 21
119.0246945867961
 31
0.0
  0
LINE
  5
15A
330
E3
100
AcDbEntity
  8
0
  6
Continuous
100
AcDbLine
 10
126.6042348080863
 20
119.0246945867961
 30
0.0
 11
126.6042348080863
 21
118.1246942597054
 31
0.0
  0
HATCH
  5
15B
330
E3
100
AcDbEntity
  8
0
  6
Continuous
 62
   255
370
     0
100
AcDbHatch
 10
0.0
 20
0.0
 30
0.0
210
0.0
220
0.0
230
1.0
  2
SOLID
 70
     1
 71
     0
 91
        1
 92
        3
 72
     0
 73
     1
 93
        8
 10
176.3138874284617
 20
134.0414805906478
 10
182.0823576677947
 20
132.7284014599471
 10
178.5138575965864
 20
112.490434413762
 10
241.0860439813292
 20
112.490434413762
 10
241.0860439813292
 20
156.905601725238
 10
186.3454487694325
 20
156.905601725238
 10
182.7769486982243
 20
136.6676346790529
 10
188.5454189375573
 20
135.3545555483523
 97
        0
 75
     0
 76
     1
 98
        0
  0
LINE
  5
15C
330
E3
100
AcDbEntity
  8
0
  6
Continuous
100
AcDbLine
 10
178.5138587566526
 20
112.4904319258547
 30
0.0
 11
182.0823566215514
 21
132.7284026181725
 31
0.0
  0
LINE
  5
15D
330
E3
100
AcDbEntity
  8
0
  6
Continuous
100
AcDbLine
 10
182.776950121779
 20
136.6676320212723
 30
0.0
 11
186.3454507213517
 21
156.9056027135901
 31
0.0
  0
LINE
  5
15E
330
E3
100
AcDbEntity
  8
0
  6
Continuous
100
AcDbLine
 10
182.776950121779
 20
136.6676320212723
 30
0.0
 11
188.5454193125251
 21
135.3545564651304
 31
0.0
  0
LINE
  5
15F
330
E3
100
AcDbEntity
  8
0
  6
Continuous
100
AcDbLine
 10
188.5454193125251
 20
135.3545564651304
 30
0.0
 11
176.3138901654791
 21
134.0414781743145
 31
0.0
  0
LINE
  5
160
330
E3
100
AcDbEntity
  8
0
  6
Continuous
100
AcDbLine
 10
176.3138901654791
 20
134.0414781743145
 30
0.0
 11
182.0823566215514
 21
132.7284026181725
 31
0.0
  0
MTEXT
  5
161
330
E3
100
AcDbEntity
  8
Doc_ Floor
  6
Continuous
100
AcDbMText
 10
187.2599594527306
 20
104.1614268557987
 30
0.0
 40
2.499999999999999
 41
0.0
 71
     4
 72
     1
  1
{ROOF FRAME}
  7
GENERATED_STYLE_1
 73
     1
 44
1.0
  0
LINE
  5
162
330
E3
100
AcDbEntity
  8
Doc_ Floor
  6
Continuous
100
AcDbLine
 10
166.7027447034371
 20
129.7926918884207
 30
0.0
 11
168.9185935460163
 21
126.627536548121
 31
0.0
  0
LINE
  5
163
330
E3
100
AcDbEntity
  8
Doc_ Floor
  6
Continuous
100
AcDbLine
 10
166.7027447034371
 20
129.7926918884207
 30
0.0
 11
167.0391478800232
 21
125.9436629696277
 31
0.0
  0
LINE
  5
164
330
E3
100
AcDbEntity
  8
Doc_ Floor
  6
Continuous
100
AcDbLine
 10
168.9185935460163
 20
126.627536548121
 30
0.0
 11
167.0391478800232
 21
125.9436629696277
 31
0.0
  0
LWPOLYLINE
  5
165
330
E3
100
AcDbEntity
  8
Doc_ Floor
  6
Continuous
100
AcDbPolyline
 90
       15
 70
   128
 43
0.0
 10
167.9788713582348
 20
126.2855999455933
 10
170.2339516920827
 20
120.6013594761087
 10
172.4035050245484
 20
115.8749629513841
 10
173.4709144305666
 20
113.8516977464375
 10
174.5345885246036
 20
112.0447834214379
 10
175.600409452781
 20
110.4465166076375
 10
176.6742593612201
 20
109.0491939362887
 10
177.7620203960423
 20
107.8451120386438
 10
178.8695747033693
 20
106.8265675459551
 10
180.0028044293224
 20
105.985857089475
 10
181.167591720023
 20
105.3152773004558
 10
182.3698187215927
 20
104.8071248101497
 10
183.6153675801529
 20
104.4536962498092
 10
184.910120441825
 20
104.2472882506865
 10
186.2599594527306
 20
104.180197444034
  0
MTEXT
  5
166
330
E3
100
AcDbEntity
  8
Doc_ Floor
  6
Continuous
100
AcDbMText
 10
169.3952209083354
 20
95.43155827011118
 30
0.0
 40
2.5
 41
0.0
 71
     4
 72
     1
  1
{SOFFIT BOARD}
  7
GENERATED_STYLE_1
 73
     1
 44
1.0
  0
LINE
  5
167
330
E3
100
AcDbEntity
  8
Doc_ Floor
  6
Continuous
100
AcDbLine
 10
142.8207171060374
 20
118.1246942597054
 30
0.0
 11
145.6003928117298
 21
115.4411149952737
 31
0.0
  0
LINE
  5
168
330
E3
100
AcDbEntity
  8
Doc_ Floor
  6
Continuous
100
AcDbLine
 10
142.8207171060374
 20
118.1246942597054
 30
0.0
 11
143.886195286205
 21
114.4108101909596
 31
0.0
  0
LINE
  5
169
330
E3
100
AcDbEntity
  8
Doc_ Floor
  6
Continuous
100
AcDbLine
 10
145.6003928117298
 20
115.4411149952737
 30
0.0
 11
143.886195286205
 21
114.4108101909596
 31
0.0
  0
LWPOLYLINE
  5
16A
330
E3
100
AcDbEntity
  8
Doc_ Floor
  6
Continuous
100
AcDbPolyline
 90
       15
 70
   128
 43
0.0
 10
144.7432943666369
 20
114.9259624419595
 10
147.9731657421877
 20
109.9186739336452
 10
151.002648816072
 20
105.754894057799
 10
152.4613509228353
 20
103.972380307798
 10
153.8928833737174
 20
102.3804162568101
 10
155.3048886418967
 20
100.9722260851337
 10
156.7050092005518
 20
99.74103397306767
 10
158.100887522861
 20
98.68006410091051
 10
159.5001660820029
 20
97.78254064896093
 10
160.910487351156
 20
97.04168779751754
 10
162.3394938034987
 20
96.45072972687902
 10
163.7948279122095
 20
96.00289061734401
 10
165.2841321504669
 20
95.69139464921115
 10
166.8150489914494
 20
95.50946600277908
 10
168.3952209083354
 20
95.45032885834648
  0
HATCH
  5
16B
330
E3
100
AcDbEntity
  8
0
  6
Continuous
 62
   255
370
     0
100
AcDbHatch
 10
0.0
 20
0.0
 30
0.0
210
0.0
220
0.0
230
1.0
  2
SOLID
 70
     1
 71
     0
 91
        1
 92
        3
 72
     0
 73
     1
 93
        4
 10
167.6971943987123
 20
158.0490964568213
 10
166.1971943987123
 20
158.0490964568213
 10
166.1971943987123
 20
157.5490964568213
 10
167.6971943987123
 20
157.5490964568213
 97
        0
 75
     0
 76
     1
 98
        0
  0
HATCH
  5
16C
330
E3
100
AcDbEntity
  8
0
  6
Continuous
 62
   255
370
     0
100
AcDbHatch
 10
0.0
 20
0.0
 30
0.0
210
0.0
220
0.0
230
1.0
  2
SOLID
 70
     1
 71
     0
 91
        1
 92
        3
 72
     1
 73
     1
 93
        4
 10
167.4471943987123
 20
157.965763123488
 42
0.1666666666666667
 10
166.4471943987123
 20
157.965763123488
 42
0.0
 10
166.4471943987123
 20
157.6324297901546
 42
0.1666666666666667
 10
167.4471943987123
 20
157.6324297901546
 42
0.0
 97
        0
 75
     0
 76
     1
 98
        0
  0
ARC
  5
16D
330
E3
100
AcDbEntity
  8
0
  6
Continuous
100
AcDbCircle
 10
166.9471943987123
 20
156.5074297901546
 30
0.0
 40
1.541666666666673
100
AcDbArc
 50
71.07535558394882
 51
108.9246444160502
  0
LINE
  5
16E
330
E3
100
AcDbEntity
  8
0
  6
Continuous
100
AcDbLine
 10
166.4471948957272
 20
157.9657619529993
 30
0.0
 11
166.4471948957272
 21
157.6324298152161
 31
0.0
  0
ARC
  5
16F
330
E3
100
AcDbEntity
  8
0
  6
Continuous
100
AcDbCircle
 10
166.9471943987123
 20
159.090763123488
 30
0.0
 40
1.541666666666673
100
AcDbArc
 50
251.0753555839488
 51
288.9246444160512
  0
LINE
  5
170
330
E3
100
AcDbEntity
  8
0
  6
Continuous
100
AcDbLine
 10
167.4471940437507
 20
157.6324298152161
 30
0.0
 11
167.4471940437507
 21
157.9657619529993
 31
0.0
  0
HATCH
  5
171
330
E3
100
AcDbEntity
  8
0
  6
Continuous
 62
   255
370
     0
100
AcDbHatch
 10
0.0
 20
0.0
 30
0.0
210
0.0
220
0.0
230
1.0
  2
SOLID
 70
     1
 71
     0
 91
        1
 92
        3
 72
     1
 73
     1
 93
        4
 10
167.9471943987123
 20
157.965763123488
 42
0.3333333333333333
 10
167.4471943987123
 20
157.965763123488
 42
0.0
 10
167.4471943987123
 20
157.6324297901546
 42
0.3333333333333333
 10
167.9471943987123
 20
157.6324297901546
 42
0.0
 97
        0
 75
     0
 76
     1
 98
        0
  0
ARC
  5
172
330
E3
100
AcDbEntity
  8
0
  6
Continuous
100
AcDbCircle
 10
167.6971943987123
 20
157.6324297901546
 30
0.0
 40
0.4166666666666375
100
AcDbArc
 50
53.13010235415292
 51
126.8698976458448
  0
LINE
  5
173
330
E3
100
AcDbEntity
  8
0
  6
Continuous
100
AcDbLine
 10
167.4471940437507
 20
157.9657619529993
 30
0.0
 11
167.4471940437507
 21
157.6324298152161
 31
0.0
  0
ARC
  5
174
330
E3
100
AcDbEntity
  8
0
  6
Continuous
100
AcDbCircle
 10
167.6971943987123
 20
157.965763123488
 30
0.0
 40
0.4166666666666596
100
AcDbArc
 50
233.1301023541552
 51
306.8698976458448
  0
LINE
  5
175
330
E3
100
AcDbEntity
  8
0
  6
Continuous
100
AcDbLine
 10
167.9471936177625
 20
157.6324298152161
 30
0.0
 11
167.9471936177625
 21
157.9657619529993
 31
0.0
  0
HATCH
  5
176
330
E3
100
AcDbEntity
  8
0
  6
Continuous
 62
   255
370
     0
100
AcDbHatch
 10
0.0
 20
0.0
 30
0.0
210
0.0
220
0.0
230
1.0
  2
SOLID
 70
     1
 71
     0
 91
        1
 92
        3
 72
     1
 73
     1
 93
        4
 10
165.9471943987123
 20
157.965763123488
 42
0.0
 10
165.9471943987123
 20
157.6324297901546
 42
0.3333333333333333
 10
166.4471943987123
 20
157.6324297901546
 42
0.0
 10
166.4471943987123
 20
157.965763123488
 42
0.3333333333333333
 97
        0
 75
     0
 76
     1
 98
        0
  0
LINE
  5
177
330
E3
100
AcDbEntity
  8
0
  6
Continuous
100
AcDbLine
 10
165.9471953217155
 20
157.6324298152161
 30
0.0
 11
165.9471953217155
 21
157.9657619529993
 31
0.0
  0
ARC
  5
178
330
E3
100
AcDbEntity
  8
0
  6
Continuous
100
AcDbCircle
 10
166.1971943987123
 20
157.965763123488
 30
0.0
 40
0.4166666666666596
100
AcDbArc
 50
233.1301023541552
 51
306.8698976458448
  0
LINE
  5
179
330
E3
100
AcDbEntity
  8
0
  6
Continuous
100
AcDbLine
 10
166.4471948957272
 20
157.9657619529993
 30
0.0
 11
166.4471948957272
 21
157.6324298152161
 31
0.0
  0
ARC
  5
17A
330
E3
100
AcDbEntity
  8
0
  6
Continuous
100
AcDbCircle
 10
166.1971943987123
 20
157.6324297901546
 30
0.0
 40
0.4166666666666596
100
AcDbArc
 50
53.13010235415521
 51
126.8698976458448
  0
HATCH
  5
17B
330
E3
100
AcDbEntity
  8
0
  6
Continuous
 62
   255
370
     0
100
AcDbHatch
 10
0.0
 20
0.0
 30
0.0
210
0.0
220
0.0
230
1.0
  2
SOLID
 70
     1
 71
     0
 91
        1
 92
        3
 72
     0
 73
     1
 93
        4
 10
166.6138613987123
 20
157.5490964568213
 10
166.6138613987123
 20
155.9490964568213
 10
167.2805273987123
 20
155.9490964568213
 10
167.2805273987123
 20
157.5490964568213
 97
        0
 75
     0
 76
     1
 98
        0
  0
LINE
  5
17C
330
E3
100
AcDbEntity
  8
0
  6
Continuous
100
AcDbLine
 10
166.6138623319558
 20
157.5490960971018
 30
0.0
 11
166.6138623319558
 21
155.9490958194599
 31
0.0
  0
LINE
  5
17D
330
E3
100
AcDbEntity
  8
0
  6
Continuous
100
AcDbLine
 10
166.6138623319558
 20
155.9490958194599
 30
0.0
 11
167.2805266075221
 21
155.9490958194599
 31
0.0
  0
LINE
  5
17E
330
E3
100
AcDbEntity
  8
0
  6
Continuous
100
AcDbLine
 10
167.2805266075221
 20
155.9490958194599
 30
0.0
 11
167.2805266075221
 21
157.5490960971018
 31
0.0
  0
LINE
  5
17F
330
E3
100
AcDbEntity
  8
0
  6
Continuous
100
AcDbLine
 10
167.2805266075221
 20
157.5490960971018
 30
0.0
 11
166.6138623319558
 21
157.5490960971018
 31
0.0
  0
HATCH
  5
180
330
E3
100
AcDbEntity
  8
0
  6
Continuous
 62
   255
370
     0
100
AcDbHatch
 10
0.0
 20
0.0
 30
0.0
210
0.0
220
0.0
230
1.0
  2
SOLID
 70
     1
 71
     0
 91
        1
 92
        3
 72
     0
 73
     1
 93
        5
 10
166.6471943987123
 20
155.9490964568213
 10
166.6471943987122
 20
143.5490964568213
 10
166.9471943987122
 20
142.9490964568213
 10
167.2471943987122
 20
143.5490964568213
 10
167.2471943987123
 20
155.9490964568213
 97
        0
 75
     0
 76
     1
 98
        0
  0
LINE
  5
181
330
E3
100
AcDbEntity
  8
0
  6
Continuous
100
AcDbLine
 10
166.6471952722667
 20
155.9490958194599
 30
0.0
 11
166.6471952722667
 21
143.5490970860775
 31
0.0
  0
LINE
  5
182
330
E3
100
AcDbEntity
  8
0
  6
Continuous
100
AcDbLine
 10
166.6471952722667
 20
143.5490970860775
 30
0.0
 11
166.947194469739
 21
142.9490959564591
 31
0.0
  0
LINE
  5
183
330
E3
100
AcDbEntity
  8
0
  6
Continuous
100
AcDbLine
 10
166.947194469739
 20
142.9490959564591
 30
0.0
 11
167.2471936672112
 21
143.5490970860775
 31
0.0
  0
LINE
  5
184
330
E3
100
AcDbEntity
  8
0
  6
Continuous
100
AcDbLine
 10
167.2471936672112
 20
143.5490970860775
 30
0.0
 11
167.2471936672112
 21
155.9490958194599
 31
0.0
  0
LINE
  5
185
330
E3
100
AcDbEntity
  8
0
  6
Continuous
100
AcDbLine
 10
167.2471936672112
 20
155.9490958194599
 30
0.0
 11
166.6471952722667
 21
155.9490958194599
 31
0.0
  0
LINE
  5
186
330
E3
100
AcDbEntity
  8
0
  6
Continuous
100
AcDbLine
 10
167.6971951980935
 20
158.0490956711136
 30
0.0
 11
166.1971937413844
 21
158.0490956711136
 31
0.0
  0
LINE
  5
187
330
E3
100
AcDbEntity
  8
0
  6
Continuous
100
AcDbLine
 10
166.1971937413844
 20
157.5490960971018
 30
0.0
 11
167.6971951980935
 21
157.5490960971018
 31
0.0
  0
LINE
  5
188
330
E3
100
AcDbEntity
  8
0
  6
Continuous
100
AcDbLine
 10
167.4471943987123
 20
155.9490964568213
 30
0.0
 11
167.4452917477582
 21
155.9436250763499
 31
0.0
  0
LINE
  5
189
330
E3
100
AcDbEntity
  8
0
  6
Continuous
100
AcDbLine
 10
167.4452917477582
 20
155.9436250763499
 30
0.0
 11
167.4395982752184
 21
155.9381536958786
 31
0.0
  0
LINE
  5
18A
330
E3
100
AcDbEntity
  8
0
  6
Continuous
100
AcDbLine
 10
167.4395982752184
 20
155.9381536958786
 30
0.0
 11
167.4301570252802
 21
155.9326823066413
 31
0.0
  0
LINE
  5
18B
330
E3
100
AcDbEntity
  8
0
  6
Continuous
100
AcDbLine
 10
167.4301570252802
 20
155.9326823066413
 30
0.0
 11
167.4170415291992
 21
155.9272102241438
 31
0.0
  0
LINE
  5
18C
330
E3
100
AcDbEntity
  8
0
  6
Continuous
100
AcDbLine
 10
167.4170415291992
 20
155.9272102241438
 30
0.0
 11
167.4003490796416
 21
155.9217408763202
 31
0.0
  0
LINE
  5
18D
330
E3
100
AcDbEntity
  8
0
  6
Continuous
100
AcDbLine
 10
167.4003490796416
 20
155.9217408763202
 30
0.0
 11
167.3802082062812
 21
155.9162687938227
 31
0.0
  0
LINE
  5
18E
330
E3
100
AcDbEntity
  8
0
  6
Continuous
100
AcDbLine
 10
167.3802082062812
 20
155.9162687938227
 30
0.0
 11
167.3567693161831
 21
155.9107967113252
 31
0.0
  0
LINE
  5
18F
330
E3
100
AcDbEntity
  8
0
  6
Continuous
100
AcDbLine
 10
167.3567693161831
 20
155.9107967113252
 30
0.0
 11
167.3302156324995
 21
155.9053246288277
 31
0.0
  0
LINE
  5
190
330
E3
100
AcDbEntity
  8
0
  6
Continuous
100
AcDbLine
 10
167.3302156324995
 20
155.9053246288277
 30
0.0
 11
167.300746786426
 21
155.8998552810041
 31
0.0
  0
LINE
  5
191
330
E3
100
AcDbEntity
  8
0
  6
Continuous
100
AcDbLine
 10
167.300746786426
 20
155.8998552810041
 30
0.0
 11
167.2685870212232
 21
155.8943831985066
 31
0.0
  0
LINE
  5
192
330
E3
100
AcDbEntity
  8
0
  6
Continuous
100
AcDbLine
 10
167.2685870212232
 20
155.8943831985066
 30
0.0
 11
167.2339824575433
 21
155.888911116009
 31
0.0
  0
LINE
  5
193
330
E3
100
AcDbEntity
  8
0
  6
Continuous
100
AcDbLine
 10
167.2339824575433
 20
155.888911116009
 30
0.0
 11
167.1971956240818
 21
155.8834390335115
 31
0.0
  0
LINE
  5
194
330
E3
100
AcDbEntity
  8
0
  6
Continuous
100
AcDbLine
 10
167.1971956240818
 20
155.8834390335115
 30
0.0
 11
167.1585027229037
 21
155.8779696856879
 31
0.0
  0
LINE
  5
195
330
E3
100
AcDbEntity
  8
0
  6
Continuous
100
AcDbLine
 10
167.1585027229037
 20
155.8779696856879
 30
0.0
 11
167.1182045681394
 21
155.8724976031904
 31
0.0
  0
LINE
  5
196
330
E3
100
AcDbEntity
  8
0
  6
Continuous
100
AcDbLine
 10
167.1182045681394
 20
155.8724976031904
 30
0.0
 11
167.0766047085932
 21
155.8670255206929
 31
0.0
  0
LINE
  5
197
330
E3
100
AcDbEntity
  8
0
  6
Continuous
100
AcDbLine
 10
167.0766047085932
 20
155.8670255206929
 30
0.0
 11
167.0340176317647
 21
155.8615534381954
 31
0.0
  0
LINE
  5
198
330
E3
100
AcDbEntity
  8
0
  6
Continuous
100
AcDbLine
 10
167.0340176317647
 20
155.8615534381954
 30
0.0
 11
166.9907714985235
 21
155.8560840903718
 31
0.0
  0
LINE
  5
199
330
E3
100
AcDbEntity
  8
0
  6
Continuous
100
AcDbLine
 10
166.9907714985235
 20
155.8560840903718
 30
0.0
 11
166.947194469739
 21
155.8506120078743
 31
0.0
  0
LINE
  5
19A
330
E3
100
AcDbEntity
  8
0
  6
Continuous
100
AcDbLine
 10
166.947194469739
 20
155.8506120078743
 30
0.0
 11
166.9036174409544
 21
155.8451399253768
 31
0.0
  0
LINE
  5
19B
330
E3
100
AcDbEntity
  8
0
  6
Continuous
100
AcDbLine
 10
166.9036174409544
 20
155.8451399253768
 30
0.0
 11
166.8603713077133
 21
155.8396678428793
 31
0.0
  0
LINE
  5
19C
330
E3
100
AcDbEntity
  8
0
  6
Continuous
100
AcDbLine
 10
166.8603713077133
 20
155.8396678428793
 30
0.0
 11
166.8177842308848
 21
155.8341984950556
 31
0.0
  0
LINE
  5
19D
330
E3
100
AcDbEntity
  8
0
  6
Continuous
100
AcDbLine
 10
166.8177842308848
 20
155.8341984950556
 30
0.0
 11
166.7761843713384
 21
155.8287264125582
 31
0.0
  0
LINE
  5
19E
330
E3
100
AcDbEntity
  8
0
  6
Continuous
100
AcDbLine
 10
166.7761843713384
 20
155.8287264125582
 30
0.0
 11
166.7358862165742
 21
155.8232543300606
 31
0.0
  0
LINE
  5
19F
330
E3
100
AcDbEntity
  8
0
  6
Continuous
100
AcDbLine
 10
166.7358862165742
 20
155.8232543300606
 30
0.0
 11
166.6971933153961
 21
155.8177822475631
 31
0.0
  0
LINE
  5
1A0
330
E3
100
AcDbEntity
  8
0
  6
Continuous
100
AcDbLine
 10
166.6971933153961
 20
155.8177822475631
 30
0.0
 11
166.6604064819346
 21
155.8123128997395
 31
0.0
  0
LINE
  5
1A1
330
E3
100
AcDbEntity
  8
0
  6
Continuous
100
AcDbLine
 10
166.6604064819346
 20
155.8123128997395
 30
0.0
 11
166.6258019182547
 21
155.806840817242
 31
0.0
  0
LINE
  5
1A2
330
E3
100
AcDbEntity
  8
0
  6
Continuous
100
AcDbLine
 10
166.6258019182547
 20
155.806840817242
 30
0.0
 11
166.5936421530519
 21
155.8013687347445
 31
0.0
  0
LINE
  5
1A3
330
E3
100
AcDbEntity
  8
0
  6
Continuous
100
AcDbLine
 10
166.5936421530519
 20
155.8013687347445
 30
0.0
 11
166.5641733069784
 21
155.795896652247
 31
0.0
  0
LINE
  5
1A4
330
E3
100
AcDbEntity
  8
0
  6
Continuous
100
AcDbLine
 10
166.5641733069784
 20
155.795896652247
 30
0.0
 11
166.5376196232948
 21
155.7904273044234
 31
0.0
  0
LINE
  5
1A5
330
E3
100
AcDbEntity
  8
0
  6
Continuous
100
AcDbLine
 10
166.5376196232948
 20
155.7904273044234
 30
0.0
 11
166.5141807331967
 21
155.7849552219259
 31
0.0
  0
LINE
  5
1A6
330
E3
100
AcDbEntity
  8
0
  6
Continuous
100
AcDbLine
 10
166.5141807331967
 20
155.7849552219259
 30
0.0
 11
166.4940398598364
 21
155.7794831394284
 31
0.0
  0
LINE
  5
1A7
330
E3
100
AcDbEntity
  8
0
  6
Continuous
100
AcDbLine
 10
166.4940398598364
 20
155.7794831394284
 30
0.0
 11
166.4773474102788
 21
155.7740110569309
 31
0.0
  0
LINE
  5
1A8
330
E3
100
AcDbEntity
  8
0
  6
Continuous
100
AcDbLine
 10
166.4773474102788
 20
155.7740110569309
 30
0.0
 11
166.4642319141977
 21
155.7685417091073
 31
0.0
  0
LINE
  5
1A9
330
E3
100
AcDbEntity
  8
0
  6
Continuous
100
AcDbLine
 10
166.4642319141977
 20
155.7685417091073
 30
0.0
 11
166.4547918198542
 21
155.7630696266097
 31
0.0
  0
LINE
  5
1AA
330
E3
100
AcDbEntity
  8
0
  6
Continuous
100
AcDbLine
 10
166.4547918198542
 20
155.7630696266097
 30
0.0
 11
166.4490970496664
 21
155.757598140323
 31
0.0
  0
LINE
  5
1AB
330
E3
100
AcDbEntity
  8
0
  6
Continuous
100
AcDbLine
 10
166.4490970496664
 20
155.757598140323
 30
0.0
 11
166.4471943987123
 21
155.7521267598516
 31
0.0
  0
LINE
  5
1AC
330
E3
100
AcDbEntity
  8
0
  6
Continuous
100
AcDbLine
 10
167.4471943987123
 20
155.5551570628819
 30
0.0
 11
167.4452917477582
 21
155.5496856824105
 31
0.0
  0
LINE
  5
1AD
330
E3
100
AcDbEntity
  8
0
  6
Continuous
100
AcDbLine
 10
167.4452917477582
 20
155.5496856824105
 30
0.0
 11
167.4395982752184
 21
155.5442143019391
 31
0.0
  0
LINE
  5
1AE
330
E3
100
AcDbEntity
  8
0
  6
Continuous
100
AcDbLine
 10
167.4395982752184
 20
155.5442143019391
 30
0.0
 11
167.4301570252802
 21
155.5387415909509
 31
0.0
  0
LINE
  5
1AF
330
E3
100
AcDbEntity
  8
0
  6
Continuous
100
AcDbLine
 10
167.4301570252802
 20
155.5387415909509
 30
0.0
 11
167.4170415291992
 21
155.5332722431273
 31
0.0
  0
LINE
  5
1B0
330
E3
100
AcDbEntity
  8
0
  6
Continuous
100
AcDbLine
 10
167.4170415291992
 20
155.5332722431273
 30
0.0
 11
167.4003490796416
 21
155.5278001606298
 31
0.0
  0
LINE
  5
1B1
330
E3
100
AcDbEntity
  8
0
  6
Continuous
100
AcDbLine
 10
167.4003490796416
 20
155.5278001606298
 30
0.0
 11
167.3802082062812
 21
155.5223280781323
 31
0.0
  0
LINE
  5
1B2
330
E3
100
AcDbEntity
  8
0
  6
Continuous
100
AcDbLine
 10
167.3802082062812
 20
155.5223280781323
 30
0.0
 11
167.3567693161831
 21
155.5168587303087
 31
0.0
  0
LINE
  5
1B3
330
E3
100
AcDbEntity
  8
0
  6
Continuous
100
AcDbLine
 10
167.3567693161831
 20
155.5168587303087
 30
0.0
 11
167.3302156324995
 21
155.5113866478112
 31
0.0
  0
LINE
  5
1B4
330
E3
100
AcDbEntity
  8
0
  6
Continuous
100
AcDbLine
 10
167.3302156324995
 20
155.5113866478112
 30
0.0
 11
167.300746786426
 21
155.5059145653136
 31
0.0
  0
LINE
  5
1B5
330
E3
100
AcDbEntity
  8
0
  6
Continuous
100
AcDbLine
 10
167.300746786426
 20
155.5059145653136
 30
0.0
 11
167.2685870212232
 21
155.5004424828161
 31
0.0
  0
LINE
  5
1B6
330
E3
100
AcDbEntity
  8
0
  6
Continuous
100
AcDbLine
 10
167.2685870212232
 20
155.5004424828161
 30
0.0
 11
167.2339824575433
 21
155.4949731349926
 31
0.0
  0
LINE
  5
1B7
330
E3
100
AcDbEntity
  8
0
  6
Continuous
100
AcDbLine
 10
167.2339824575433
 20
155.4949731349926
 30
0.0
 11
167.1971956240818
 21
155.489501052495
 31
0.0
  0
LINE
  5
1B8
330
E3
100
AcDbEntity
  8
0
  6
Continuous
100
AcDbLine
 10
167.1971956240818
 20
155.489501052495
 30
0.0
 11
167.1585027229037
 21
155.4840289699975
 31
0.0
  0
LINE
  5
1B9
330
E3
100
AcDbEntity
  8
0
  6
Continuous
100
AcDbLine
 10
167.1585027229037
 20
155.4840289699975
 30
0.0
 11
167.1182045681394
 21
155.4785568875
 31
0.0
  0
LINE
  5
1BA
330
E3
100
AcDbEntity
  8
0
  6
Continuous
100
AcDbLine
 10
167.1182045681394
 20
155.4785568875
 30
0.0
 11
167.0766047085932
 21
155.4730875396764
 31
0.0
  0
LINE
  5
1BB
330
E3
100
AcDbEntity
  8
0
  6
Continuous
100
AcDbLine
 10
167.0766047085932
 20
155.4730875396764
 30
0.0
 11
167.0340176317647
 21
155.4676154571789
 31
0.0
  0
LINE
  5
1BC
330
E3
100
AcDbEntity
  8
0
  6
Continuous
100
AcDbLine
 10
167.0340176317647
 20
155.4676154571789
 30
0.0
 11
166.9907714985235
 21
155.4621433746814
 31
0.0
  0
LINE
  5
1BD
330
E3
100
AcDbEntity
  8
0
  6
Continuous
100
AcDbLine
 10
166.9907714985235
 20
155.4621433746814
 30
0.0
 11
166.947194469739
 21
155.4566712921839
 31
0.0
  0
LINE
  5
1BE
330
E3
100
AcDbEntity
  8
0
  6
Continuous
100
AcDbLine
 10
166.947194469739
 20
155.4566712921839
 30
0.0
 11
166.9036174409544
 21
155.4512019443603
 31
0.0
  0
LINE
  5
1BF
330
E3
100
AcDbEntity
  8
0
  6
Continuous
100
AcDbLine
 10
166.9036174409544
 20
155.4512019443603
 30
0.0
 11
166.8603713077133
 21
155.4457298618628
 31
0.0
  0
LINE
  5
1C0
330
E3
100
AcDbEntity
  8
0
  6
Continuous
100
AcDbLine
 10
166.8603713077133
 20
155.4457298618628
 30
0.0
 11
166.8177842308848
 21
155.4402577793653
 31
0.0
  0
LINE
  5
1C1
330
E3
100
AcDbEntity
  8
0
  6
Continuous
100
AcDbLine
 10
166.8177842308848
 20
155.4402577793653
 30
0.0
 11
166.7761843713384
 21
155.4347856968677
 31
0.0
  0
LINE
  5
1C2
330
E3
100
AcDbEntity
  8
0
  6
Continuous
100
AcDbLine
 10
166.7761843713384
 20
155.4347856968677
 30
0.0
 11
166.7358862165742
 21
155.4293163490441
 31
0.0
  0
LINE
  5
1C3
330
E3
100
AcDbEntity
  8
0
  6
Continuous
100
AcDbLine
 10
166.7358862165742
 20
155.4293163490441
 30
0.0
 11
166.6971933153961
 21
155.4238442665466
 31
0.0
  0
LINE
  5
1C4
330
E3
100
AcDbEntity
  8
0
  6
Continuous
100
AcDbLine
 10
166.6971933153961
 20
155.4238442665466
 30
0.0
 11
166.6604064819346
 21
155.4183721840491
 31
0.0
  0
LINE
  5
1C5
330
E3
100
AcDbEntity
  8
0
  6
Continuous
100
AcDbLine
 10
166.6604064819346
 20
155.4183721840491
 30
0.0
 11
166.6258019182547
 21
155.4129001015516
 31
0.0
  0
LINE
  5
1C6
330
E3
100
AcDbEntity
  8
0
  6
Continuous
100
AcDbLine
 10
166.6258019182547
 20
155.4129001015516
 30
0.0
 11
166.5936421530519
 21
155.407430753728
 31
0.0
  0
LINE
  5
1C7
330
E3
100
AcDbEntity
  8
0
  6
Continuous
100
AcDbLine
 10
166.5936421530519
 20
155.407430753728
 30
0.0
 11
166.5641733069784
 21
155.4019586712305
 31
0.0
  0
LINE
  5
1C8
330
E3
100
AcDbEntity
  8
0
  6
Continuous
100
AcDbLine
 10
166.5641733069784
 20
155.4019586712305
 30
0.0
 11
166.5376196232948
 21
155.396486588733
 31
0.0
  0
LINE
  5
1C9
330
E3
100
AcDbEntity
  8
0
  6
Continuous
100
AcDbLine
 10
166.5376196232948
 20
155.396486588733
 30
0.0
 11
166.5141807331967
 21
155.3910145062355
 31
0.0
  0
LINE
  5
1CA
330
E3
100
AcDbEntity
  8
0
  6
Continuous
100
AcDbLine
 10
166.5141807331967
 20
155.3910145062355
 30
0.0
 11
166.4940398598364
 21
155.3855451584118
 31
0.0
  0
LINE
  5
1CB
330
E3
100
AcDbEntity
  8
0
  6
Continuous
100
AcDbLine
 10
166.4940398598364
 20
155.3855451584118
 30
0.0
 11
166.4773474102788
 21
155.3800730759144
 31
0.0
  0
LINE
  5
1CC
330
E3
100
AcDbEntity
  8
0
  6
Continuous
100
AcDbLine
 10
166.4773474102788
 20
155.3800730759144
 30
0.0
 11
166.4642319141977
 21
155.3746009934169
 31
0.0
  0
LINE
  5
1CD
330
E3
100
AcDbEntity
  8
0
  6
Continuous
100
AcDbLine
 10
166.4642319141977
 20
155.3746009934169
 30
0.0
 11
166.4547918198542
 21
155.3691289109194
 31
0.0
  0
LINE
  5
1CE
330
E3
100
AcDbEntity
  8
0
  6
Continuous
100
AcDbLine
 10
166.4547918198542
 20
155.3691289109194
 30
0.0
 11
166.4490970496664
 21
155.3636587463836
 31
0.0
  0
LINE
  5
1CF
330
E3
100
AcDbEntity
  8
0
  6
Continuous
100
AcDbLine
 10
166.4490970496664
 20
155.3636587463836
 30
0.0
 11
166.4471943987123
 21
155.3581873659122
 31
0.0
  0
LINE
  5
1D0
330
E3
100
AcDbEntity
  8
0
  6
Continuous
100
AcDbLine
 10
167.4471943987123
 20
155.1612176689425
 30
0.0
 11
167.4452917477582
 21
155.1557462884711
 31
0.0
  0
LINE
  5
1D1
330
E3
100
AcDbEntity
  8
0
  6
Continuous
100
AcDbLine
 10
167.4452917477582
 20
155.1557462884711
 30
0.0
 11
167.4395982752184
 21
155.1502749079998
 31
0.0
  0
LINE
  5
1D2
330
E3
100
AcDbEntity
  8
0
  6
Continuous
100
AcDbLine
 10
167.4395982752184
 20
155.1502749079998
 30
0.0
 11
167.4301570252802
 21
155.1448036099344
 31
0.0
  0
LINE
  5
1D3
330
E3
100
AcDbEntity
  8
0
  6
Continuous
100
AcDbLine
 10
167.4301570252802
 20
155.1448036099344
 30
0.0
 11
167.4170415291992
 21
155.1393315274369
 31
0.0
  0
LINE
  5
1D4
330
E3
100
AcDbEntity
  8
0
  6
Continuous
100
AcDbLine
 10
167.4170415291992
 20
155.1393315274369
 30
0.0
 11
167.4003490796416
 21
155.1338594449394
 31
0.0
  0
LINE
  5
1D5
330
E3
100
AcDbEntity
  8
0
  6
Continuous
100
AcDbLine
 10
167.4003490796416
 20
155.1338594449394
 30
0.0
 11
167.3802082062812
 21
155.1283900971158
 31
0.0
  0
LINE
  5
1D6
330
E3
100
AcDbEntity
  8
0
  6
Continuous
100
AcDbLine
 10
167.3802082062812
 20
155.1283900971158
 30
0.0
 11
167.3567693161831
 21
155.1229180146183
 31
0.0
  0
LINE
  5
1D7
330
E3
100
AcDbEntity
  8
0
  6
Continuous
100
AcDbLine
 10
167.3567693161831
 20
155.1229180146183
 30
0.0
 11
167.3302156324995
 21
155.1174459321207
 31
0.0
  0
LINE
  5
1D8
330
E3
100
AcDbEntity
  8
0
  6
Continuous
100
AcDbLine
 10
167.3302156324995
 20
155.1174459321207
 30
0.0
 11
167.300746786426
 21
155.1119765842971
 31
0.0
  0
LINE
  5
1D9
330
E3
100
AcDbEntity
  8
0
  6
Continuous
100
AcDbLine
 10
167.300746786426
 20
155.1119765842971
 30
0.0
 11
167.2685870212232
 21
155.1065045017996
 31
0.0
  0
LINE
  5
1DA
330
E3
100
AcDbEntity
  8
0
  6
Continuous
100
AcDbLine
 10
167.2685870212232
 20
155.1065045017996
 30
0.0
 11
167.2339824575433
 21
155.1010324193022
 31
0.0
  0
LINE
  5
1DB
330
E3
100
AcDbEntity
  8
0
  6
Continuous
100
AcDbLine
 10
167.2339824575433
 20
155.1010324193022
 30
0.0
 11
167.1971956240818
 21
155.0955603368046
 31
0.0
  0
LINE
  5
1DC
330
E3
100
AcDbEntity
  8
0
  6
Continuous
100
AcDbLine
 10
167.1971956240818
 20
155.0955603368046
 30
0.0
 11
167.1585027229037
 21
155.090090988981
 31
0.0
  0
LINE
  5
1DD
330
E3
100
AcDbEntity
  8
0
  6
Continuous
100
AcDbLine
 10
167.1585027229037
 20
155.090090988981
 30
0.0
 11
167.1182045681394
 21
155.0846189064835
 31
0.0
  0
LINE
  5
1DE
330
E3
100
AcDbEntity
  8
0
  6
Continuous
100
AcDbLine
 10
167.1182045681394
 20
155.0846189064835
 30
0.0
 11
167.0766047085932
 21
155.079146823986
 31
0.0
  0
LINE
  5
1DF
330
E3
100
AcDbEntity
  8
0
  6
Continuous
100
AcDbLine
 10
167.0766047085932
 20
155.079146823986
 30
0.0
 11
167.0340176317647
 21
155.0736747414885
 31
0.0
  0
LINE
  5
1E0
330
E3
100
AcDbEntity
  8
0
  6
Continuous
100
AcDbLine
 10
167.0340176317647
 20
155.0736747414885
 30
0.0
 11
166.9907714985235
 21
155.0682053936649
 31
0.0
  0
LINE
  5
1E1
330
E3
100
AcDbEntity
  8
0
  6
Continuous
100
AcDbLine
 10
166.9907714985235
 20
155.0682053936649
 30
0.0
 11
166.947194469739
 21
155.0627333111674
 31
0.0
  0
LINE
  5
1E2
330
E3
100
AcDbEntity
  8
0
  6
Continuous
100
AcDbLine
 10
166.947194469739
 20
155.0627333111674
 30
0.0
 11
166.9036174409544
 21
155.0572612286699
 31
0.0
  0
LINE
  5
1E3
330
E3
100
AcDbEntity
  8
0
  6
Continuous
100
AcDbLine
 10
166.9036174409544
 20
155.0572612286699
 30
0.0
 11
166.8603713077133
 21
155.0517891461724
 31
0.0
  0
LINE
  5
1E4
330
E3
100
AcDbEntity
  8
0
  6
Continuous
100
AcDbLine
 10
166.8603713077133
 20
155.0517891461724
 30
0.0
 11
166.8177842308848
 21
155.0463197983488
 31
0.0
  0
LINE
  5
1E5
330
E3
100
AcDbEntity
  8
0
  6
Continuous
100
AcDbLine
 10
166.8177842308848
 20
155.0463197983488
 30
0.0
 11
166.7761843713384
 21
155.0408477158512
 31
0.0
  0
LINE
  5
1E6
330
E3
100
AcDbEntity
  8
0
  6
Continuous
100
AcDbLine
 10
166.7761843713384
 20
155.0408477158512
 30
0.0
 11
166.7358862165742
 21
155.0353756333537
 31
0.0
  0
LINE
  5
1E7
330
E3
100
AcDbEntity
  8
0
  6
Continuous
100
AcDbLine
 10
166.7358862165742
 20
155.0353756333537
 30
0.0
 11
166.6971933153961
 21
155.0299035508562
 31
0.0
  0
LINE
  5
1E8
330
E3
100
AcDbEntity
  8
0
  6
Continuous
100
AcDbLine
 10
166.6971933153961
 20
155.0299035508562
 30
0.0
 11
166.6604064819346
 21
155.0244342030326
 31
0.0
  0
LINE
  5
1E9
330
E3
100
AcDbEntity
  8
0
  6
Continuous
100
AcDbLine
 10
166.6604064819346
 20
155.0244342030326
 30
0.0
 11
166.6258019182547
 21
155.0189621205351
 31
0.0
  0
LINE
  5
1EA
330
E3
100
AcDbEntity
  8
0
  6
Continuous
100
AcDbLine
 10
166.6258019182547
 20
155.0189621205351
 30
0.0
 11
166.5936421530519
 21
155.0134900380376
 31
0.0
  0
LINE
  5
1EB
330
E3
100
AcDbEntity
  8
0
  6
Continuous
100
AcDbLine
 10
166.5936421530519
 20
155.0134900380376
 30
0.0
 11
166.5641733069784
 21
155.0080179555401
 31
0.0
  0
LINE
  5
1EC
330
E3
100
AcDbEntity
  8
0
  6
Continuous
100
AcDbLine
 10
166.5641733069784
 20
155.0080179555401
 30
0.0
 11
166.5376196232948
 21
155.0025486077165
 31
0.0
  0
LINE
  5
1ED
330
E3
100
AcDbEntity
  8
0
  6
Continuous
100
AcDbLine
 10
166.5376196232948
 20
155.0025486077165
 30
0.0
 11
166.5141807331967
 21
154.997076525219
 31
0.0
  0
LINE
  5
1EE
330
E3
100
AcDbEntity
  8
0
  6
Continuous
100
AcDbLine
 10
166.5141807331967
 20
154.997076525219
 30
0.0
 11
166.4940398598364
 21
154.9916044427215
 31
0.0
  0
LINE
  5
1EF
330
E3
100
AcDbEntity
  8
0
  6
Continuous
100
AcDbLine
 10
166.4940398598364
 20
154.9916044427215
 30
0.0
 11
166.4773474102788
 21
154.986132360224
 31
0.0
  0
LINE
  5
1F0
330
E3
100
AcDbEntity
  8
0
  6
Continuous
100
AcDbLine
 10
166.4773474102788
 20
154.986132360224
 30
0.0
 11
166.4642319141977
 21
154.9806630124004
 31
0.0
  0
LINE
  5
1F1
330
E3
100
AcDbEntity
  8
0
  6
Continuous
100
AcDbLine
 10
166.4642319141977
 20
154.9806630124004
 30
0.0
 11
166.4547918198542
 21
154.9751909299029
 31
0.0
  0
LINE
  5
1F2
330
E3
100
AcDbEntity
  8
0
  6
Continuous
100
AcDbLine
 10
166.4547918198542
 20
154.9751909299029
 30
0.0
 11
166.4490970496664
 21
154.9697193524442
 31
0.0
  0
LINE
  5
1F3
330
E3
100
AcDbEntity
  8
0
  6
Continuous
100
AcDbLine
 10
166.4490970496664
 20
154.9697193524442
 30
0.0
 11
166.4471943987123
 21
154.9642479719728
 31
0.0
  0
LINE
  5
1F4
330
E3
100
AcDbEntity
  8
0
  6
Continuous
100
AcDbLine
 10
167.4471943987123
 20
154.7672782750031
 30
0.0
 11
167.4452917477582
 21
154.7618068945317
 31
0.0
  0
LINE
  5
1F5
330
E3
100
AcDbEntity
  8
0
  6
Continuous
100
AcDbLine
 10
167.4452917477582
 20
154.7618068945317
 30
0.0
 11
167.4395982752184
 21
154.7563355140603
 31
0.0
  0
LINE
  5
1F6
330
E3
100
AcDbEntity
  8
0
  6
Continuous
100
AcDbLine
 10
167.4395982752184
 20
154.7563355140603
 30
0.0
 11
167.4301570252802
 21
154.750862894244
 31
0.0
  0
LINE
  5
1F7
330
E3
100
AcDbEntity
  8
0
  6
Continuous
100
AcDbLine
 10
167.4301570252802
 20
154.750862894244
 30
0.0
 11
167.4170415291992
 21
154.7453935464204
 31
0.0
  0
LINE
  5
1F8
330
E3
100
AcDbEntity
  8
0
  6
Continuous
100
AcDbLine
 10
167.4170415291992
 20
154.7453935464204
 30
0.0
 11
167.4003490796416
 21
154.7399214639229
 31
0.0
  0
LINE
  5
1F9
330
E3
100
AcDbEntity
  8
0
  6
Continuous
100
AcDbLine
 10
167.4003490796416
 20
154.7399214639229
 30
0.0
 11
167.3802082062812
 21
154.7344493814254
 31
0.0
  0
LINE
  5
1FA
330
E3
100
AcDbEntity
  8
0
  6
Continuous
100
AcDbLine
 10
167.3802082062812
 20
154.7344493814254
 30
0.0
 11
167.3567693161831
 21
154.7289772989279
 31
0.0
  0
LINE
  5
1FB
330
E3
100
AcDbEntity
  8
0
  6
Continuous
100
AcDbLine
 10
167.3567693161831
 20
154.7289772989279
 30
0.0
 11
167.3302156324995
 21
154.7235079511043
 31
0.0
  0
LINE
  5
1FC
330
E3
100
AcDbEntity
  8
0
  6
Continuous
100
AcDbLine
 10
167.3302156324995
 20
154.7235079511043
 30
0.0
 11
167.300746786426
 21
154.7180358686068
 31
0.0
  0
LINE
  5
1FD
330
E3
100
AcDbEntity
  8
0
  6
Continuous
100
AcDbLine
 10
167.300746786426
 20
154.7180358686068
 30
0.0
 11
167.2685870212232
 21
154.7125637861092
 31
0.0
  0
LINE
  5
1FE
330
E3
100
AcDbEntity
  8
0
  6
Continuous
100
AcDbLine
 10
167.2685870212232
 20
154.7125637861092
 30
0.0
 11
167.2339824575433
 21
154.7070944382857
 31
0.0
  0
LINE
  5
1FF
330
E3
100
AcDbEntity
  8
0
  6
Continuous
100
AcDbLine
 10
167.2339824575433
 20
154.7070944382857
 30
0.0
 11
167.1971956240818
 21
154.7016223557881
 31
0.0
  0
LINE
  5
200
330
E3
100
AcDbEntity
  8
0
  6
Continuous
100
AcDbLine
 10
167.1971956240818
 20
154.7016223557881
 30
0.0
 11
167.1585027229037
 21
154.6961502732906
 31
0.0
  0
LINE
  5
201
330
E3
100
AcDbEntity
  8
0
  6
Continuous
100
AcDbLine
 10
167.1585027229037
 20
154.6961502732906
 30
0.0
 11
167.1182045681394
 21
154.6906781907931
 31
0.0
  0
LINE
  5
202
330
E3
100
AcDbEntity
  8
0
  6
Continuous
100
AcDbLine
 10
167.1182045681394
 20
154.6906781907931
 30
0.0
 11
167.0766047085932
 21
154.6852088429695
 31
0.0
  0
LINE
  5
203
330
E3
100
AcDbEntity
  8
0
  6
Continuous
100
AcDbLine
 10
167.0766047085932
 20
154.6852088429695
 30
0.0
 11
167.0340176317647
 21
154.679736760472
 31
0.0
  0
LINE
  5
204
330
E3
100
AcDbEntity
  8
0
  6
Continuous
100
AcDbLine
 10
167.0340176317647
 20
154.679736760472
 30
0.0
 11
166.9907714985235
 21
154.6742646779745
 31
0.0
  0
LINE
  5
205
330
E3
100
AcDbEntity
  8
0
  6
Continuous
100
AcDbLine
 10
166.9907714985235
 20
154.6742646779745
 30
0.0
 11
166.947194469739
 21
154.668792595477
 31
0.0
  0
LINE
  5
206
330
E3
100
AcDbEntity
  8
0
  6
Continuous
100
AcDbLine
 10
166.947194469739
 20
154.668792595477
 30
0.0
 11
166.9036174409544
 21
154.6633232476534
 31
0.0
  0
LINE
  5
207
330
E3
100
AcDbEntity
  8
0
  6
Continuous
100
AcDbLine
 10
166.9036174409544
 20
154.6633232476534
 30
0.0
 11
166.8603713077133
 21
154.6578511651559
 31
0.0
  0
LINE
  5
208
330
E3
100
AcDbEntity
  8
0
  6
Continuous
100
AcDbLine
 10
166.8603713077133
 20
154.6578511651559
 30
0.0
 11
166.8177842308848
 21
154.6523790826584
 31
0.0
  0
LINE
  5
209
330
E3
100
AcDbEntity
  8
0
  6
Continuous
100
AcDbLine
 10
166.8177842308848
 20
154.6523790826584
 30
0.0
 11
166.7761843713384
 21
154.6469070001608
 31
0.0
  0
LINE
  5
20A
330
E3
100
AcDbEntity
  8
0
  6
Continuous
100
AcDbLine
 10
166.7761843713384
 20
154.6469070001608
 30
0.0
 11
166.7358862165742
 21
154.6414376523372
 31
0.0
  0
LINE
  5
20B
330
E3
100
AcDbEntity
  8
0
  6
Continuous
100
AcDbLine
 10
166.7358862165742
 20
154.6414376523372
 30
0.0
 11
166.6971933153961
 21
154.6359655698397
 31
0.0
  0
LINE
  5
20C
330
E3
100
AcDbEntity
  8
0
  6
Continuous
100
AcDbLine
 10
166.6971933153961
 20
154.6359655698397
 30
0.0
 11
166.6604064819346
 21
154.6304934873422
 31
0.0
  0
LINE
  5
20D
330
E3
100
AcDbEntity
  8
0
  6
Continuous
100
AcDbLine
 10
166.6604064819346
 20
154.6304934873422
 30
0.0
 11
166.6258019182547
 21
154.6250214048447
 31
0.0
  0
LINE
  5
20E
330
E3
100
AcDbEntity
  8
0
  6
Continuous
100
AcDbLine
 10
166.6258019182547
 20
154.6250214048447
 30
0.0
 11
166.5936421530519
 21
154.6195520570211
 31
0.0
  0
LINE
  5
20F
330
E3
100
AcDbEntity
  8
0
  6
Continuous
100
AcDbLine
 10
166.5936421530519
 20
154.6195520570211
 30
0.0
 11
166.5641733069784
 21
154.6140799745236
 31
0.0
  0
LINE
  5
210
330
E3
100
AcDbEntity
  8
0
  6
Continuous
100
AcDbLine
 10
166.5641733069784
 20
154.6140799745236
 30
0.0
 11
166.5376196232948
 21
154.6086078920261
 31
0.0
  0
LINE
  5
211
330
E3
100
AcDbEntity
  8
0
  6
Continuous
100
AcDbLine
 10
166.5376196232948
 20
154.6086078920261
 30
0.0
 11
166.5141807331967
 21
154.6031358095286
 31
0.0
  0
LINE
  5
212
330
E3
100
AcDbEntity
  8
0
  6
Continuous
100
AcDbLine
 10
166.5141807331967
 20
154.6031358095286
 30
0.0
 11
166.4940398598364
 21
154.597666461705
 31
0.0
  0
LINE
  5
213
330
E3
100
AcDbEntity
  8
0
  6
Continuous
100
AcDbLine
 10
166.4940398598364
 20
154.597666461705
 30
0.0
 11
166.4773474102788
 21
154.5921943792075
 31
0.0
  0
LINE
  5
214
330
E3
100
AcDbEntity
  8
0
  6
Continuous
100
AcDbLine
 10
166.4773474102788
 20
154.5921943792075
 30
0.0
 11
166.4642319141977
 21
154.58672229671
 31
0.0
  0
LINE
  5
215
330
E3
100
AcDbEntity
  8
0
  6
Continuous
100
AcDbLine
 10
166.4642319141977
 20
154.58672229671
 30
0.0
 11
166.4547918198542
 21
154.5812502142124
 31
0.0
  0
LINE
  5
216
330
E3
100
AcDbEntity
  8
0
  6
Continuous
100
AcDbLine
 10
166.4547918198542
 20
154.5812502142124
 30
0.0
 11
166.4490970496664
 21
154.5757799585048
 31
0.0
  0
LINE
  5
217
330
E3
100
AcDbEntity
  8
0
  6
Continuous
100
AcDbLine
 10
166.4490970496664
 20
154.5757799585048
 30
0.0
 11
166.4471943987123
 21
154.5703085780334
 31
0.0
  0
LINE
  5
218
330
E3
100
AcDbEntity
  8
0
  6
Continuous
100
AcDbLine
 10
167.4471943987123
 20
154.3733388810637
 30
0.0
 11
167.4452917477581
 21
154.3678675005923
 31
0.0
  0
LINE
  5
219
330
E3
100
AcDbEntity
  8
0
  6
Continuous
100
AcDbLine
 10
167.4452917477581
 20
154.3678675005923
 30
0.0
 11
167.4395982752184
 21
154.362396120121
 31
0.0
  0
LINE
  5
21A
330
E3
100
AcDbEntity
  8
0
  6
Continuous
100
AcDbLine
 10
167.4395982752184
 20
154.362396120121
 30
0.0
 11
167.4301570252802
 21
154.3569249132275
 31
0.0
  0
LINE
  5
21B
330
E3
100
AcDbEntity
  8
0
  6
Continuous
100
AcDbLine
 10
167.4301570252802
 20
154.3569249132275
 30
0.0
 11
167.4170415291992
 21
154.35145283073
 31
0.0
  0
LINE
  5
21C
330
E3
100
AcDbEntity
  8
0
  6
Continuous
100
AcDbLine
 10
167.4170415291992
 20
154.35145283073
 30
0.0
 11
167.4003490796416
 21
154.3459807482325
 31
0.0
  0
LINE
  5
21D
330
E3
100
AcDbEntity
  8
0
  6
Continuous
100
AcDbLine
 10
167.4003490796416
 20
154.3459807482325
 30
0.0
 11
167.3802082062812
 21
154.3405114004089
 31
0.0
  0
LINE
  5
21E
330
E3
100
AcDbEntity
  8
0
  6
Continuous
100
AcDbLine
 10
167.3802082062812
 20
154.3405114004089
 30
0.0
 11
167.3567693161831
 21
154.3350393179114
 31
0.0
  0
LINE
  5
21F
330
E3
100
AcDbEntity
  8
0
  6
Continuous
100
AcDbLine
 10
167.3567693161831
 20
154.3350393179114
 30
0.0
 11
167.3302156324995
 21
154.3295672354139
 31
0.0
  0
LINE
  5
220
330
E3
100
AcDbEntity
  8
0
  6
Continuous
100
AcDbLine
 10
167.3302156324995
 20
154.3295672354139
 30
0.0
 11
167.300746786426
 21
154.3240951529163
 31
0.0
  0
LINE
  5
221
330
E3
100
AcDbEntity
  8
0
  6
Continuous
100
AcDbLine
 10
167.300746786426
 20
154.3240951529163
 30
0.0
 11
167.2685870212232
 21
154.3186258050928
 31
0.0
  0
LINE
  5
222
330
E3
100
AcDbEntity
  8
0
  6
Continuous
100
AcDbLine
 10
167.2685870212232
 20
154.3186258050928
 30
0.0
 11
167.2339824575433
 21
154.3131537225952
 31
0.0
  0
LINE
  5
223
330
E3
100
AcDbEntity
  8
0
  6
Continuous
100
AcDbLine
 10
167.2339824575433
 20
154.3131537225952
 30
0.0
 11
167.1971956240818
 21
154.3076816400977
 31
0.0
  0
LINE
  5
224
330
E3
100
AcDbEntity
  8
0
  6
Continuous
100
AcDbLine
 10
167.1971956240818
 20
154.3076816400977
 30
0.0
 11
167.1585027229037
 21
154.3022122922741
 31
0.0
  0
LINE
  5
225
330
E3
100
AcDbEntity
  8
0
  6
Continuous
100
AcDbLine
 10
167.1585027229037
 20
154.3022122922741
 30
0.0
 11
167.1182045681394
 21
154.2967402097766
 31
0.0
  0
LINE
  5
226
330
E3
100
AcDbEntity
  8
0
  6
Continuous
100
AcDbLine
 10
167.1182045681394
 20
154.2967402097766
 30
0.0
 11
167.0766047085932
 21
154.2912681272791
 31
0.0
  0
LINE
  5
227
330
E3
100
AcDbEntity
  8
0
  6
Continuous
100
AcDbLine
 10
167.0766047085932
 20
154.2912681272791
 30
0.0
 11
167.0340176317647
 21
154.2857960447816
 31
0.0
  0
LINE
  5
228
330
E3
100
AcDbEntity
  8
0
  6
Continuous
100
AcDbLine
 10
167.0340176317647
 20
154.2857960447816
 30
0.0
 11
166.9907714985235
 21
154.280326696958
 31
0.0
  0
LINE
  5
229
330
E3
100
AcDbEntity
  8
0
  6
Continuous
100
AcDbLine
 10
166.9907714985235
 20
154.280326696958
 30
0.0
 11
166.947194469739
 21
154.2748546144605
 31
0.0
  0
LINE
  5
22A
330
E3
100
AcDbEntity
  8
0
  6
Continuous
100
AcDbLine
 10
166.947194469739
 20
154.2748546144605
 30
0.0
 11
166.9036174409544
 21
154.269382531963
 31
0.0
  0
LINE
  5
22B
330
E3
100
AcDbEntity
  8
0
  6
Continuous
100
AcDbLine
 10
166.9036174409544
 20
154.269382531963
 30
0.0
 11
166.8603713077133
 21
154.2639104494655
 31
0.0
  0
LINE
  5
22C
330
E3
100
AcDbEntity
  8
0
  6
Continuous
100
AcDbLine
 10
166.8603713077133
 20
154.2639104494655
 30
0.0
 11
166.8177842308848
 21
154.2584411016419
 31
0.0
  0
LINE
  5
22D
330
E3
100
AcDbEntity
  8
0
  6
Continuous
100
AcDbLine
 10
166.8177842308848
 20
154.2584411016419
 30
0.0
 11
166.7761843713384
 21
154.2529690191444
 31
0.0
  0
LINE
  5
22E
330
E3
100
AcDbEntity
  8
0
  6
Continuous
100
AcDbLine
 10
166.7761843713384
 20
154.2529690191444
 30
0.0
 11
166.7358862165742
 21
154.2474969366469
 31
0.0
  0
LINE
  5
22F
330
E3
100
AcDbEntity
  8
0
  6
Continuous
100
AcDbLine
 10
166.7358862165742
 20
154.2474969366469
 30
0.0
 11
166.6971933153961
 21
154.2420248541493
 31
0.0
  0
LINE
  5
230
330
E3
100
AcDbEntity
  8
0
  6
Continuous
100
AcDbLine
 10
166.6971933153961
 20
154.2420248541493
 30
0.0
 11
166.6604064819346
 21
154.2365555063257
 31
0.0
  0
LINE
  5
231
330
E3
100
AcDbEntity
  8
0
  6
Continuous
100
AcDbLine
 10
166.6604064819346
 20
154.2365555063257
 30
0.0
 11
166.6258019182547
 21
154.2310834238282
 31
0.0
  0
LINE
  5
232
330
E3
100
AcDbEntity
  8
0
  6
Continuous
100
AcDbLine
 10
166.6258019182547
 20
154.2310834238282
 30
0.0
 11
166.5936421530519
 21
154.2256113413307
 31
0.0
  0
LINE
  5
233
330
E3
100
AcDbEntity
  8
0
  6
Continuous
100
AcDbLine
 10
166.5936421530519
 20
154.2256113413307
 30
0.0
 11
166.5641733069784
 21
154.2201392588332
 31
0.0
  0
LINE
  5
234
330
E3
100
AcDbEntity
  8
0
  6
Continuous
100
AcDbLine
 10
166.5641733069784
 20
154.2201392588332
 30
0.0
 11
166.5376196232948
 21
154.2146699110096
 31
0.0
  0
LINE
  5
235
330
E3
100
AcDbEntity
  8
0
  6
Continuous
100
AcDbLine
 10
166.5376196232948
 20
154.2146699110096
 30
0.0
 11
166.5141807331967
 21
154.2091978285121
 31
0.0
  0
LINE
  5
236
330
E3
100
AcDbEntity
  8
0
  6
Continuous
100
AcDbLine
 10
166.5141807331967
 20
154.2091978285121
 30
0.0
 11
166.4940398598364
 21
154.2037257460146
 31
0.0
  0
LINE
  5
237
330
E3
100
AcDbEntity
  8
0
  6
Continuous
100
AcDbLine
 10
166.4940398598364
 20
154.2037257460146
 30
0.0
 11
166.4773474102788
 21
154.1982536635171
 31
0.0
  0
LINE
  5
238
330
E3
100
AcDbEntity
  8
0
  6
Continuous
100
AcDbLine
 10
166.4773474102788
 20
154.1982536635171
 30
0.0
 11
166.4642319141977
 21
154.1927843156934
 31
0.0
  0
LINE
  5
239
330
E3
100
AcDbEntity
  8
0
  6
Continuous
100
AcDbLine
 10
166.4642319141977
 20
154.1927843156934
 30
0.0
 11
166.4547918198542
 21
154.187312233196
 31
0.0
  0
LINE
  5
23A
330
E3
100
AcDbEntity
  8
0
  6
Continuous
100
AcDbLine
 10
166.4547918198542
 20
154.187312233196
 30
0.0
 11
166.4490970496664
 21
154.1818405645654
 31
0.0
  0
LINE
  5
23B
330
E3
100
AcDbEntity
  8
0
  6
Continuous
100
AcDbLine
 10
166.4490970496664
 20
154.1818405645654
 30
0.0
 11
166.4471943987123
 21
154.176369184094
 31
0.0
  0
LINE
  5
23C
330
E3
100
AcDbEntity
  8
0
  6
Continuous
100
AcDbLine
 10
167.4471943987123
 20
153.9793994871243
 30
0.0
 11
167.4452917477581
 21
153.9739281066529
 31
0.0
  0
LINE
  5
23D
330
E3
100
AcDbEntity
  8
0
  6
Continuous
100
AcDbLine
 10
167.4452917477581
 20
153.9739281066529
 30
0.0
 11
167.4395982752184
 21
153.9684567261816
 31
0.0
  0
LINE
  5
23E
330
E3
100
AcDbEntity
  8
0
  6
Continuous
100
AcDbLine
 10
167.4395982752184
 20
153.9684567261816
 30
0.0
 11
167.4301570252802
 21
153.9629841975371
 31
0.0
  0
LINE
  5
23F
330
E3
100
AcDbEntity
  8
0
  6
Continuous
100
AcDbLine
 10
167.4301570252802
 20
153.9629841975371
 30
0.0
 11
167.4170415291992
 21
153.9575148497135
 31
0.0
  0
LINE
  5
240
330
E3
100
AcDbEntity
  8
0
  6
Continuous
100
AcDbLine
 10
167.4170415291992
 20
153.9575148497135
 30
0.0
 11
167.4003490796416
 21
153.952042767216
 31
0.0
  0
LINE
  5
241
330
E3
100
AcDbEntity
  8
0
  6
Continuous
100
AcDbLine
 10
167.4003490796416
 20
153.952042767216
 30
0.0
 11
167.3802082062812
 21
153.9465706847185
 31
0.0
  0
LINE
  5
242
330
E3
100
AcDbEntity
  8
0
  6
Continuous
100
AcDbLine
 10
167.3802082062812
 20
153.9465706847185
 30
0.0
 11
167.3567693161831
 21
153.941098602221
 31
0.0
  0
LINE
  5
243
330
E3
100
AcDbEntity
  8
0
  6
Continuous
100
AcDbLine
 10
167.3567693161831
 20
153.941098602221
 30
0.0
 11
167.3302156324995
 21
153.9356292543974
 31
0.0
  0
LINE
  5
244
330
E3
100
AcDbEntity
  8
0
  6
Continuous
100
AcDbLine
 10
167.3302156324995
 20
153.9356292543974
 30
0.0
 11
167.300746786426
 21
153.9301571718999
 31
0.0
  0
LINE
  5
245
330
E3
100
AcDbEntity
  8
0
  6
Continuous
100
AcDbLine
 10
167.300746786426
 20
153.9301571718999
 30
0.0
 11
167.2685870212232
 21
153.9246850894023
 31
0.0
  0
LINE
  5
246
330
E3
100
AcDbEntity
  8
0
  6
Continuous
100
AcDbLine
 10
167.2685870212232
 20
153.9246850894023
 30
0.0
 11
167.2339824575433
 21
153.9192130069048
 31
0.0
  0
LINE
  5
247
330
E3
100
AcDbEntity
  8
0
  6
Continuous
100
AcDbLine
 10
167.2339824575433
 20
153.9192130069048
 30
0.0
 11
167.1971956240818
 21
153.9137436590812
 31
0.0
  0
LINE
  5
248
330
E3
100
AcDbEntity
  8
0
  6
Continuous
100
AcDbLine
 10
167.1971956240818
 20
153.9137436590812
 30
0.0
 11
167.1585027229037
 21
153.9082715765837
 31
0.0
  0
LINE
  5
249
330
E3
100
AcDbEntity
  8
0
  6
Continuous
100
AcDbLine
 10
167.1585027229037
 20
153.9082715765837
 30
0.0
 11
167.1182045681394
 21
153.9027994940862
 31
0.0
  0
LINE
  5
24A
330
E3
100
AcDbEntity
  8
0
  6
Continuous
100
AcDbLine
 10
167.1182045681394
 20
153.9027994940862
 30
0.0
 11
167.0766047085932
 21
153.8973301462626
 31
0.0
  0
LINE
  5
24B
330
E3
100
AcDbEntity
  8
0
  6
Continuous
100
AcDbLine
 10
167.0766047085932
 20
153.8973301462626
 30
0.0
 11
167.0340176317647
 21
153.8918580637651
 31
0.0
  0
LINE
  5
24C
330
E3
100
AcDbEntity
  8
0
  6
Continuous
100
AcDbLine
 10
167.0340176317647
 20
153.8918580637651
 30
0.0
 11
166.9907714985235
 21
153.8863859812676
 31
0.0
  0
LINE
  5
24D
330
E3
100
AcDbEntity
  8
0
  6
Continuous
100
AcDbLine
 10
166.9907714985235
 20
153.8863859812676
 30
0.0
 11
166.947194469739
 21
153.8809138987701
 31
0.0
  0
LINE
  5
24E
330
E3
100
AcDbEntity
  8
0
  6
Continuous
100
AcDbLine
 10
166.947194469739
 20
153.8809138987701
 30
0.0
 11
166.9036174409544
 21
153.8754445509465
 31
0.0
  0
LINE
  5
24F
330
E3
100
AcDbEntity
  8
0
  6
Continuous
100
AcDbLine
 10
166.9036174409544
 20
153.8754445509465
 30
0.0
 11
166.8603713077133
 21
153.869972468449
 31
0.0
  0
LINE
  5
250
330
E3
100
AcDbEntity
  8
0
  6
Continuous
100
AcDbLine
 10
166.8603713077133
 20
153.869972468449
 30
0.0
 11
166.8177842308848
 21
153.8645003859515
 31
0.0
  0
LINE
  5
251
330
E3
100
AcDbEntity
  8
0
  6
Continuous
100
AcDbLine
 10
166.8177842308848
 20
153.8645003859515
 30
0.0
 11
166.7761843713384
 21
153.8590283034539
 31
0.0
  0
LINE
  5
252
330
E3
100
AcDbEntity
  8
0
  6
Continuous
100
AcDbLine
 10
166.7761843713384
 20
153.8590283034539
 30
0.0
 11
166.7358862165742
 21
153.8535589556303
 31
0.0
  0
LINE
  5
253
330
E3
100
AcDbEntity
  8
0
  6
Continuous
100
AcDbLine
 10
166.7358862165742
 20
153.8535589556303
 30
0.0
 11
166.6971933153961
 21
153.8480868731328
 31
0.0
  0
LINE
  5
254
330
E3
100
AcDbEntity
  8
0
  6
Continuous
100
AcDbLine
 10
166.6971933153961
 20
153.8480868731328
 30
0.0
 11
166.6604064819346
 21
153.8426147906353
 31
0.0
  0
LINE
  5
255
330
E3
100
AcDbEntity
  8
0
  6
Continuous
100
AcDbLine
 10
166.6604064819346
 20
153.8426147906353
 30
0.0
 11
166.6258019182547
 21
153.8371427081378
 31
0.0
  0
LINE
  5
256
330
E3
100
AcDbEntity
  8
0
  6
Continuous
100
AcDbLine
 10
166.6258019182547
 20
153.8371427081378
 30
0.0
 11
166.5936421530519
 21
153.8316733603142
 31
0.0
  0
LINE
  5
257
330
E3
100
AcDbEntity
  8
0
  6
Continuous
100
AcDbLine
 10
166.5936421530519
 20
153.8316733603142
 30
0.0
 11
166.5641733069784
 21
153.8262012778167
 31
0.0
  0
LINE
  5
258
330
E3
100
AcDbEntity
  8
0
  6
Continuous
100
AcDbLine
 10
166.5641733069784
 20
153.8262012778167
 30
0.0
 11
166.5376196232948
 21
153.8207291953192
 31
0.0
  0
LINE
  5
259
330
E3
100
AcDbEntity
  8
0
  6
Continuous
100
AcDbLine
 10
166.5376196232948
 20
153.8207291953192
 30
0.0
 11
166.5141807331967
 21
153.8152571128217
 31
0.0
  0
LINE
  5
25A
330
E3
100
AcDbEntity
  8
0
  6
Continuous
100
AcDbLine
 10
166.5141807331967
 20
153.8152571128217
 30
0.0
 11
166.4940398598364
 21
153.8097877649981
 31
0.0
  0
LINE
  5
25B
330
E3
100
AcDbEntity
  8
0
  6
Continuous
100
AcDbLine
 10
166.4940398598364
 20
153.8097877649981
 30
0.0
 11
166.4773474102788
 21
153.8043156825006
 31
0.0
  0
LINE
  5
25C
330
E3
100
AcDbEntity
  8
0
  6
Continuous
100
AcDbLine
 10
166.4773474102788
 20
153.8043156825006
 30
0.0
 11
166.4642319141977
 21
153.7988436000031
 31
0.0
  0
LINE
  5
25D
330
E3
100
AcDbEntity
  8
0
  6
Continuous
100
AcDbLine
 10
166.4642319141977
 20
153.7988436000031
 30
0.0
 11
166.4547918198542
 21
153.7933715175056
 31
0.0
  0
LINE
  5
25E
330
E3
100
AcDbEntity
  8
0
  6
Continuous
100
AcDbLine
 10
166.4547918198542
 20
153.7933715175056
 30
0.0
 11
166.4490970496664
 21
153.787901170626
 31
0.0
  0
LINE
  5
25F
330
E3
100
AcDbEntity
  8
0
  6
Continuous
100
AcDbLine
 10
166.4490970496664
 20
153.787901170626
 30
0.0
 11
166.4471943987123
 21
153.7824297901546
 31
0.0
  0
LINE
  5
260
330
E3
100
AcDbEntity
  8
0
  6
Continuous
100
AcDbLine
 10
167.4471943987123
 20
153.5854600931849
 30
0.0
 11
167.4452917477581
 21
153.5799887127135
 31
0.0
  0
LINE
  5
261
330
E3
100
AcDbEntity
  8
0
  6
Continuous
100
AcDbLine
 10
167.4452917477581
 20
153.5799887127135
 30
0.0
 11
167.4395982752184
 21
153.5745173322422
 31
0.0
  0
LINE
  5
262
330
E3
100
AcDbEntity
  8
0
  6
Continuous
100
AcDbLine
 10
167.4395982752184
 20
153.5745173322422
 30
0.0
 11
167.4301570252802
 21
153.5690462165206
 31
0.0
  0
LINE
  5
263
330
E3
100
AcDbEntity
  8
0
  6
Continuous
100
AcDbLine
 10
167.4301570252802
 20
153.5690462165206
 30
0.0
 11
167.4170415291992
 21
153.5635741340231
 31
0.0
  0
LINE
  5
264
330
E3
100
AcDbEntity
  8
0
  6
Continuous
100
AcDbLine
 10
167.4170415291992
 20
153.5635741340231
 30
0.0
 11
167.4003490796416
 21
153.5581020515256
 31
0.0
  0
LINE
  5
265
330
E3
100
AcDbEntity
  8
0
  6
Continuous
100
AcDbLine
 10
167.4003490796416
 20
153.5581020515256
 30
0.0
 11
167.3802082062812
 21
153.552632703702
 31
0.0
  0
LINE
  5
266
330
E3
100
AcDbEntity
  8
0
  6
Continuous
100
AcDbLine
 10
167.3802082062812
 20
153.552632703702
 30
0.0
 11
167.3567693161831
 21
153.5471606212045
 31
0.0
  0
LINE
  5
267
330
E3
100
AcDbEntity
  8
0
  6
Continuous
100
AcDbLine
 10
167.3567693161831
 20
153.5471606212045
 30
0.0
 11
167.3302156324995
 21
153.541688538707
 31
0.0
  0
LINE
  5
268
330
E3
100
AcDbEntity
  8
0
  6
Continuous
100
AcDbLine
 10
167.3302156324995
 20
153.541688538707
 30
0.0
 11
167.300746786426
 21
153.5362164562095
 31
0.0
  0
LINE
  5
269
330
E3
100
AcDbEntity
  8
0
  6
Continuous
100
AcDbLine
 10
167.300746786426
 20
153.5362164562095
 30
0.0
 11
167.2685870212232
 21
153.5307471083858
 31
0.0
  0
LINE
  5
26A
330
E3
100
AcDbEntity
  8
0
  6
Continuous
100
AcDbLine
 10
167.2685870212232
 20
153.5307471083858
 30
0.0
 11
167.2339824575433
 21
153.5252750258883
 31
0.0
  0
LINE
  5
26B
330
E3
100
AcDbEntity
  8
0
  6
Continuous
100
AcDbLine
 10
167.2339824575433
 20
153.5252750258883
 30
0.0
 11
167.1971956240818
 21
153.5198029433908
 31
0.0
  0
LINE
  5
26C
330
E3
100
AcDbEntity
  8
0
  6
Continuous
100
AcDbLine
 10
167.1971956240818
 20
153.5198029433908
 30
0.0
 11
167.1585027229037
 21
153.5143308608933
 31
0.0
  0
LINE
  5
26D
330
E3
100
AcDbEntity
  8
0
  6
Continuous
100
AcDbLine
 10
167.1585027229037
 20
153.5143308608933
 30
0.0
 11
167.1182045681394
 21
153.5088615130697
 31
0.0
  0
LINE
  5
26E
330
E3
100
AcDbEntity
  8
0
  6
Continuous
100
AcDbLine
 10
167.1182045681394
 20
153.5088615130697
 30
0.0
 11
167.0766047085932
 21
153.5033894305722
 31
0.0
  0
LINE
  5
26F
330
E3
100
AcDbEntity
  8
0
  6
Continuous
100
AcDbLine
 10
167.0766047085932
 20
153.5033894305722
 30
0.0
 11
167.0340176317647
 21
153.4979173480747
 31
0.0
  0
LINE
  5
270
330
E3
100
AcDbEntity
  8
0
  6
Continuous
100
AcDbLine
 10
167.0340176317647
 20
153.4979173480747
 30
0.0
 11
166.9907714985235
 21
153.4924452655772
 31
0.0
  0
LINE
  5
271
330
E3
100
AcDbEntity
  8
0
  6
Continuous
100
AcDbLine
 10
166.9907714985235
 20
153.4924452655772
 30
0.0
 11
166.947194469739
 21
153.4869759177536
 31
0.0
  0
LINE
  5
272
330
E3
100
AcDbEntity
  8
0
  6
Continuous
100
AcDbLine
 10
166.947194469739
 20
153.4869759177536
 30
0.0
 11
166.9036174409544
 21
153.4815038352561
 31
0.0
  0
LINE
  5
273
330
E3
100
AcDbEntity
  8
0
  6
Continuous
100
AcDbLine
 10
166.9036174409544
 20
153.4815038352561
 30
0.0
 11
166.8603713077133
 21
153.4760317527585
 31
0.0
  0
LINE
  5
274
330
E3
100
AcDbEntity
  8
0
  6
Continuous
100
AcDbLine
 10
166.8603713077133
 20
153.4760317527585
 30
0.0
 11
166.8177842308848
 21
153.470562404935
 31
0.0
  0
LINE
  5
275
330
E3
100
AcDbEntity
  8
0
  6
Continuous
100
AcDbLine
 10
166.8177842308848
 20
153.470562404935
 30
0.0
 11
166.7761843713384
 21
153.4650903224374
 31
0.0
  0
LINE
  5
276
330
E3
100
AcDbEntity
  8
0
  6
Continuous
100
AcDbLine
 10
166.7761843713384
 20
153.4650903224374
 30
0.0
 11
166.7358862165742
 21
153.4596182399399
 31
0.0
  0
LINE
  5
277
330
E3
100
AcDbEntity
  8
0
  6
Continuous
100
AcDbLine
 10
166.7358862165742
 20
153.4596182399399
 30
0.0
 11
166.6971933153961
 21
153.4541461574424
 31
0.0
  0
LINE
  5
278
330
E3
100
AcDbEntity
  8
0
  6
Continuous
100
AcDbLine
 10
166.6971933153961
 20
153.4541461574424
 30
0.0
 11
166.6604064819346
 21
153.4486768096188
 31
0.0
  0
LINE
  5
279
330
E3
100
AcDbEntity
  8
0
  6
Continuous
100
AcDbLine
 10
166.6604064819346
 20
153.4486768096188
 30
0.0
 11
166.6258019182547
 21
153.4432047271213
 31
0.0
  0
LINE
  5
27A
330
E3
100
AcDbEntity
  8
0
  6
Continuous
100
AcDbLine
 10
166.6258019182547
 20
153.4432047271213
 30
0.0
 11
166.5936421530519
 21
153.4377326446238
 31
0.0
  0
LINE
  5
27B
330
E3
100
AcDbEntity
  8
0
  6
Continuous
100
AcDbLine
 10
166.5936421530519
 20
153.4377326446238
 30
0.0
 11
166.5641733069784
 21
153.4322605621263
 31
0.0
  0
LINE
  5
27C
330
E3
100
AcDbEntity
  8
0
  6
Continuous
100
AcDbLine
 10
166.5641733069784
 20
153.4322605621263
 30
0.0
 11
166.5376196232948
 21
153.4267912143027
 31
0.0
  0
LINE
  5
27D
330
E3
100
AcDbEntity
  8
0
  6
Continuous
100
AcDbLine
 10
166.5376196232948
 20
153.4267912143027
 30
0.0
 11
166.5141807331967
 21
153.4213191318052
 31
0.0
  0
LINE
  5
27E
330
E3
100
AcDbEntity
  8
0
  6
Continuous
100
AcDbLine
 10
166.5141807331967
 20
153.4213191318052
 30
0.0
 11
166.4940398598364
 21
153.4158470493077
 31
0.0
  0
LINE
  5
27F
330
E3
100
AcDbEntity
  8
0
  6
Continuous
100
AcDbLine
 10
166.4940398598364
 20
153.4158470493077
 30
0.0
 11
166.4773474102788
 21
153.4103749668101
 31
0.0
  0
LINE
  5
280
330
E3
100
AcDbEntity
  8
0
  6
Continuous
100
AcDbLine
 10
166.4773474102788
 20
153.4103749668101
 30
0.0
 11
166.4642319141977
 21
153.4049056189866
 31
0.0
  0
LINE
  5
281
330
E3
100
AcDbEntity
  8
0
  6
Continuous
100
AcDbLine
 10
166.4642319141977
 20
153.4049056189866
 30
0.0
 11
166.4547918198542
 21
153.3994335364891
 31
0.0
  0
LINE
  5
282
330
E3
100
AcDbEntity
  8
0
  6
Continuous
100
AcDbLine
 10
166.4547918198542
 20
153.3994335364891
 30
0.0
 11
166.4490970496664
 21
153.3939617766866
 31
0.0
  0
LINE
  5
283
330
E3
100
AcDbEntity
  8
0
  6
Continuous
100
AcDbLine
 10
166.4490970496664
 20
153.3939617766866
 30
0.0
 11
166.4471943987123
 21
153.3884903962152
 31
0.0
  0
LINE
  5
284
330
E3
100
AcDbEntity
  8
0
  6
Continuous
100
AcDbLine
 10
167.4471943987123
 20
153.1915206992455
 30
0.0
 11
167.4452917477581
 21
153.1860493187742
 31
0.0
  0
LINE
  5
285
330
E3
100
AcDbEntity
  8
0
  6
Continuous
100
AcDbLine
 10
167.4452917477581
 20
153.1860493187742
 30
0.0
 11
167.4395982752184
 21
153.1805779383027
 31
0.0
  0
LINE
  5
286
330
E3
100
AcDbEntity
  8
0
  6
Continuous
100
AcDbLine
 10
167.4395982752184
 20
153.1805779383027
 30
0.0
 11
167.4301570252802
 21
153.1751055008302
 31
0.0
  0
LINE
  5
287
330
E3
100
AcDbEntity
  8
0
  6
Continuous
100
AcDbLine
 10
167.4301570252802
 20
153.1751055008302
 30
0.0
 11
167.4170415291992
 21
153.1696361530066
 31
0.0
  0
LINE
  5
288
330
E3
100
AcDbEntity
  8
0
  6
Continuous
100
AcDbLine
 10
167.4170415291992
 20
153.1696361530066
 30
0.0
 11
167.4003490796416
 21
153.1641640705091
 31
0.0
  0
LINE
  5
289
330
E3
100
AcDbEntity
  8
0
  6
Continuous
100
AcDbLine
 10
167.4003490796416
 20
153.1641640705091
 30
0.0
 11
167.3802082062812
 21
153.1586919880116
 31
0.0
  0
LINE
  5
28A
330
E3
100
AcDbEntity
  8
0
  6
Continuous
100
AcDbLine
 10
167.3802082062812
 20
153.1586919880116
 30
0.0
 11
167.3567693161831
 21
153.153219905514
 31
0.0
  0
LINE
  5
28B
330
E3
100
AcDbEntity
  8
0
  6
Continuous
100
AcDbLine
 10
167.3567693161831
 20
153.153219905514
 30
0.0
 11
167.3302156324995
 21
153.1477505576904
 31
0.0
  0
LINE
  5
28C
330
E3
100
AcDbEntity
  8
0
  6
Continuous
100
AcDbLine
 10
167.3302156324995
 20
153.1477505576904
 30
0.0
 11
167.300746786426
 21
153.142278475193
 31
0.0
  0
LINE
  5
28D
330
E3
100
AcDbEntity
  8
0
  6
Continuous
100
AcDbLine
 10
167.300746786426
 20
153.142278475193
 30
0.0
 11
167.2685870212232
 21
153.1368063926954
 31
0.0
  0
LINE
  5
28E
330
E3
100
AcDbEntity
  8
0
  6
Continuous
100
AcDbLine
 10
167.2685870212232
 20
153.1368063926954
 30
0.0
 11
167.2339824575433
 21
153.1313343101979
 31
0.0
  0
LINE
  5
28F
330
E3
100
AcDbEntity
  8
0
  6
Continuous
100
AcDbLine
 10
167.2339824575433
 20
153.1313343101979
 30
0.0
 11
167.1971956240818
 21
153.1258649623743
 31
0.0
  0
LINE
  5
290
330
E3
100
AcDbEntity
  8
0
  6
Continuous
100
AcDbLine
 10
167.1971956240818
 20
153.1258649623743
 30
0.0
 11
167.1585027229037
 21
153.1203928798768
 31
0.0
  0
LINE
  5
291
330
E3
100
AcDbEntity
  8
0
  6
Continuous
100
AcDbLine
 10
167.1585027229037
 20
153.1203928798768
 30
0.0
 11
167.1182045681394
 21
153.1149207973793
 31
0.0
  0
LINE
  5
292
330
E3
100
AcDbEntity
  8
0
  6
Continuous
100
AcDbLine
 10
167.1182045681394
 20
153.1149207973793
 30
0.0
 11
167.0766047085932
 21
153.1094487148818
 31
0.0
  0
LINE
  5
293
330
E3
100
AcDbEntity
  8
0
  6
Continuous
100
AcDbLine
 10
167.0766047085932
 20
153.1094487148818
 30
0.0
 11
167.0340176317647
 21
153.1039793670582
 31
0.0
  0
LINE
  5
294
330
E3
100
AcDbEntity
  8
0
  6
Continuous
100
AcDbLine
 10
167.0340176317647
 20
153.1039793670582
 30
0.0
 11
166.9907714985235
 21
153.0985072845607
 31
0.0
  0
LINE
  5
295
330
E3
100
AcDbEntity
  8
0
  6
Continuous
100
AcDbLine
 10
166.9907714985235
 20
153.0985072845607
 30
0.0
 11
166.947194469739
 21
153.0930352020632
 31
0.0
  0
LINE
  5
296
330
E3
100
AcDbEntity
  8
0
  6
Continuous
100
AcDbLine
 10
166.947194469739
 20
153.0930352020632
 30
0.0
 11
166.9036174409544
 21
153.0875631195657
 31
0.0
  0
LINE
  5
297
330
E3
100
AcDbEntity
  8
0
  6
Continuous
100
AcDbLine
 10
166.9036174409544
 20
153.0875631195657
 30
0.0
 11
166.8603713077133
 21
153.0820937717421
 31
0.0
  0
LINE
  5
298
330
E3
100
AcDbEntity
  8
0
  6
Continuous
100
AcDbLine
 10
166.8603713077133
 20
153.0820937717421
 30
0.0
 11
166.8177842308848
 21
153.0766216892445
 31
0.0
  0
LINE
  5
299
330
E3
100
AcDbEntity
  8
0
  6
Continuous
100
AcDbLine
 10
166.8177842308848
 20
153.0766216892445
 30
0.0
 11
166.7761843713384
 21
153.071149606747
 31
0.0
  0
LINE
  5
29A
330
E3
100
AcDbEntity
  8
0
  6
Continuous
100
AcDbLine
 10
166.7761843713384
 20
153.071149606747
 30
0.0
 11
166.7358862165742
 21
153.0656802589234
 31
0.0
  0
LINE
  5
29B
330
E3
100
AcDbEntity
  8
0
  6
Continuous
100
AcDbLine
 10
166.7358862165742
 20
153.0656802589234
 30
0.0
 11
166.6971933153961
 21
153.0602081764259
 31
0.0
  0
LINE
  5
29C
330
E3
100
AcDbEntity
  8
0
  6
Continuous
100
AcDbLine
 10
166.6971933153961
 20
153.0602081764259
 30
0.0
 11
166.6604064819346
 21
153.0547360939284
 31
0.0
  0
LINE
  5
29D
330
E3
100
AcDbEntity
  8
0
  6
Continuous
100
AcDbLine
 10
166.6604064819346
 20
153.0547360939284
 30
0.0
 11
166.6258019182547
 21
153.0492640114309
 31
0.0
  0
LINE
  5
29E
330
E3
100
AcDbEntity
  8
0
  6
Continuous
100
AcDbLine
 10
166.6258019182547
 20
153.0492640114309
 30
0.0
 11
166.5936421530519
 21
153.0437946636073
 31
0.0
  0
LINE
  5
29F
330
E3
100
AcDbEntity
  8
0
  6
Continuous
100
AcDbLine
 10
166.5936421530519
 20
153.0437946636073
 30
0.0
 11
166.5641733069784
 21
153.0383225811098
 31
0.0
  0
LINE
  5
2A0
330
E3
100
AcDbEntity
  8
0
  6
Continuous
100
AcDbLine
 10
166.5641733069784
 20
153.0383225811098
 30
0.0
 11
166.5376196232948
 21
153.0328504986122
 31
0.0
  0
LINE
  5
2A1
330
E3
100
AcDbEntity
  8
0
  6
Continuous
100
AcDbLine
 10
166.5376196232948
 20
153.0328504986122
 30
0.0
 11
166.5141807331967
 21
153.0273784161148
 31
0.0
  0
LINE
  5
2A2
330
E3
100
AcDbEntity
  8
0
  6
Continuous
100
AcDbLine
 10
166.5141807331967
 20
153.0273784161148
 30
0.0
 11
166.4940398598364
 21
153.0219090682912
 31
0.0
  0
LINE
  5
2A3
330
E3
100
AcDbEntity
  8
0
  6
Continuous
100
AcDbLine
 10
166.4940398598364
 20
153.0219090682912
 30
0.0
 11
166.4773474102788
 21
153.0164369857937
 31
0.0
  0
LINE
  5
2A4
330
E3
100
AcDbEntity
  8
0
  6
Continuous
100
AcDbLine
 10
166.4773474102788
 20
153.0164369857937
 30
0.0
 11
166.4642319141977
 21
153.0109649032961
 31
0.0
  0
LINE
  5
2A5
330
E3
100
AcDbEntity
  8
0
  6
Continuous
100
AcDbLine
 10
166.4642319141977
 20
153.0109649032961
 30
0.0
 11
166.4547918198542
 21
153.0054928207986
 31
0.0
  0
LINE
  5
2A6
330
E3
100
AcDbEntity
  8
0
  6
Continuous
100
AcDbLine
 10
166.4547918198542
 20
153.0054928207986
 30
0.0
 11
166.4490970496664
 21
153.0000223827472
 31
0.0
  0
LINE
  5
2A7
330
E3
100
AcDbEntity
  8
0
  6
Continuous
100
AcDbLine
 10
166.4490970496664
 20
153.0000223827472
 30
0.0
 11
166.4471943987123
 21
152.9945510022758
 31
0.0
  0
LINE
  5
2A8
330
E3
100
AcDbEntity
  8
0
  6
Continuous
100
AcDbLine
 10
167.4471943987123
 20
152.7975813053061
 30
0.0
 11
167.4452917477581
 21
152.7921099248348
 31
0.0
  0
LINE
  5
2A9
330
E3
100
AcDbEntity
  8
0
  6
Continuous
100
AcDbLine
 10
167.4452917477581
 20
152.7921099248348
 30
0.0
 11
167.4395982752184
 21
152.7866385443634
 31
0.0
  0
LINE
  5
2AA
330
E3
100
AcDbEntity
  8
0
  6
Continuous
100
AcDbLine
 10
167.4395982752184
 20
152.7866385443634
 30
0.0
 11
167.4301570252802
 21
152.7811675198137
 31
0.0
  0
LINE
  5
2AB
330
E3
100
AcDbEntity
  8
0
  6
Continuous
100
AcDbLine
 10
167.4301570252802
 20
152.7811675198137
 30
0.0
 11
167.4170415291992
 21
152.7756954373162
 31
0.0
  0
LINE
  5
2AC
330
E3
100
AcDbEntity
  8
0
  6
Continuous
100
AcDbLine
 10
167.4170415291992
 20
152.7756954373162
 30
0.0
 11
167.4003490796416
 21
152.7702233548187
 31
0.0
  0
LINE
  5
2AD
330
E3
100
AcDbEntity
  8
0
  6
Continuous
100
AcDbLine
 10
167.4003490796416
 20
152.7702233548187
 30
0.0
 11
167.3802082062812
 21
152.7647540069951
 31
0.0
  0
LINE
  5
2AE
330
E3
100
AcDbEntity
  8
0
  6
Continuous
100
AcDbLine
 10
167.3802082062812
 20
152.7647540069951
 30
0.0
 11
167.3567693161831
 21
152.7592819244976
 31
0.0
  0
LINE
  5
2AF
330
E3
100
AcDbEntity
  8
0
  6
Continuous
100
AcDbLine
 10
167.3567693161831
 20
152.7592819244976
 30
0.0
 11
167.3302156324995
 21
152.753809842
 31
0.0
  0
LINE
  5
2B0
330
E3
100
AcDbEntity
  8
0
  6
Continuous
100
AcDbLine
 10
167.3302156324995
 20
152.753809842
 30
0.0
 11
167.300746786426
 21
152.7483377595026
 31
0.0
  0
LINE
  5
2B1
330
E3
100
AcDbEntity
  8
0
  6
Continuous
100
AcDbLine
 10
167.300746786426
 20
152.7483377595026
 30
0.0
 11
167.2685870212232
 21
152.742868411679
 31
0.0
  0
LINE
  5
2B2
330
E3
100
AcDbEntity
  8
0
  6
Continuous
100
AcDbLine
 10
167.2685870212232
 20
152.742868411679
 30
0.0
 11
167.2339824575433
 21
152.7373963291814
 31
0.0
  0
LINE
  5
2B3
330
E3
100
AcDbEntity
  8
0
  6
Continuous
100
AcDbLine
 10
167.2339824575433
 20
152.7373963291814
 30
0.0
 11
167.1971956240818
 21
152.7319242466839
 31
0.0
  0
LINE
  5
2B4
330
E3
100
AcDbEntity
  8
0
  6
Continuous
100
AcDbLine
 10
167.1971956240818
 20
152.7319242466839
 30
0.0
 11
167.1585027229037
 21
152.7264521641864
 31
0.0
  0
LINE
  5
2B5
330
E3
100
AcDbEntity
  8
0
  6
Continuous
100
AcDbLine
 10
167.1585027229037
 20
152.7264521641864
 30
0.0
 11
167.1182045681394
 21
152.7209828163628
 31
0.0
  0
LINE
  5
2B6
330
E3
100
AcDbEntity
  8
0
  6
Continuous
100
AcDbLine
 10
167.1182045681394
 20
152.7209828163628
 30
0.0
 11
167.0766047085932
 21
152.7155107338653
 31
0.0
  0
LINE
  5
2B7
330
E3
100
AcDbEntity
  8
0
  6
Continuous
100
AcDbLine
 10
167.0766047085932
 20
152.7155107338653
 30
0.0
 11
167.0340176317647
 21
152.7100386513678
 31
0.0
  0
LINE
  5
2B8
330
E3
100
AcDbEntity
  8
0
  6
Continuous
100
AcDbLine
 10
167.0340176317647
 20
152.7100386513678
 30
0.0
 11
166.9907714985235
 21
152.7045665688703
 31
0.0
  0
LINE
  5
2B9
330
E3
100
AcDbEntity
  8
0
  6
Continuous
100
AcDbLine
 10
166.9907714985235
 20
152.7045665688703
 30
0.0
 11
166.947194469739
 21
152.6990972210467
 31
0.0
  0
LINE
  5
2BA
330
E3
100
AcDbEntity
  8
0
  6
Continuous
100
AcDbLine
 10
166.947194469739
 20
152.6990972210467
 30
0.0
 11
166.9036174409544
 21
152.6936251385492
 31
0.0
  0
LINE
  5
2BB
330
E3
100
AcDbEntity
  8
0
  6
Continuous
100
AcDbLine
 10
166.9036174409544
 20
152.6936251385492
 30
0.0
 11
166.8603713077133
 21
152.6881530560516
 31
0.0
  0
LINE
  5
2BC
330
E3
100
AcDbEntity
  8
0
  6
Continuous
100
AcDbLine
 10
166.8603713077133
 20
152.6881530560516
 30
0.0
 11
166.8177842308848
 21
152.6826809735541
 31
0.0
  0
LINE
  5
2BD
330
E3
100
AcDbEntity
  8
0
  6
Continuous
100
AcDbLine
 10
166.8177842308848
 20
152.6826809735541
 30
0.0
 11
166.7761843713384
 21
152.6772116257305
 31
0.0
  0
LINE
  5
2BE
330
E3
100
AcDbEntity
  8
0
  6
Continuous
100
AcDbLine
 10
166.7761843713384
 20
152.6772116257305
 30
0.0
 11
166.7358862165742
 21
152.671739543233
 31
0.0
  0
LINE
  5
2BF
330
E3
100
AcDbEntity
  8
0
  6
Continuous
100
AcDbLine
 10
166.7358862165742
 20
152.671739543233
 30
0.0
 11
166.6971933153961
 21
152.6662674607355
 31
0.0
  0
LINE
  5
2C0
330
E3
100
AcDbEntity
  8
0
  6
Continuous
100
AcDbLine
 10
166.6971933153961
 20
152.6662674607355
 30
0.0
 11
166.6604064819346
 21
152.6607981129119
 31
0.0
  0
LINE
  5
2C1
330
E3
100
AcDbEntity
  8
0
  6
Continuous
100
AcDbLine
 10
166.6604064819346
 20
152.6607981129119
 30
0.0
 11
166.6258019182547
 21
152.6553260304144
 31
0.0
  0
LINE
  5
2C2
330
E3
100
AcDbEntity
  8
0
  6
Continuous
100
AcDbLine
 10
166.6258019182547
 20
152.6553260304144
 30
0.0
 11
166.5936421530519
 21
152.6498539479169
 31
0.0
  0
LINE
  5
2C3
330
E3
100
AcDbEntity
  8
0
  6
Continuous
100
AcDbLine
 10
166.5936421530519
 20
152.6498539479169
 30
0.0
 11
166.5641733069784
 21
152.6443818654194
 31
0.0
  0
LINE
  5
2C4
330
E3
100
AcDbEntity
  8
0
  6
Continuous
100
AcDbLine
 10
166.5641733069784
 20
152.6443818654194
 30
0.0
 11
166.5376196232948
 21
152.6389125175958
 31
0.0
  0
LINE
  5
2C5
330
E3
100
AcDbEntity
  8
0
  6
Continuous
100
AcDbLine
 10
166.5376196232948
 20
152.6389125175958
 30
0.0
 11
166.5141807331967
 21
152.6334404350983
 31
0.0
  0
LINE
  5
2C6
330
E3
100
AcDbEntity
  8
0
  6
Continuous
100
AcDbLine
 10
166.5141807331967
 20
152.6334404350983
 30
0.0
 11
166.4940398598364
 21
152.6279683526008
 31
0.0
  0
LINE
  5
2C7
330
E3
100
AcDbEntity
  8
0
  6
Continuous
100
AcDbLine
 10
166.4940398598364
 20
152.6279683526008
 30
0.0
 11
166.4773474102788
 21
152.6224962701033
 31
0.0
  0
LINE
  5
2C8
330
E3
100
AcDbEntity
  8
0
  6
Continuous
100
AcDbLine
 10
166.4773474102788
 20
152.6224962701033
 30
0.0
 11
166.4642319141977
 21
152.6170269222796
 31
0.0
  0
LINE
  5
2C9
330
E3
100
AcDbEntity
  8
0
  6
Continuous
100
AcDbLine
 10
166.4642319141977
 20
152.6170269222796
 30
0.0
 11
166.4547918198542
 21
152.6115548397822
 31
0.0
  0
LINE
  5
2CA
330
E3
100
AcDbEntity
  8
0
  6
Continuous
100
AcDbLine
 10
166.4547918198542
 20
152.6115548397822
 30
0.0
 11
166.4490970496664
 21
152.6060829888079
 31
0.0
  0
LINE
  5
2CB
330
E3
100
AcDbEntity
  8
0
  6
Continuous
100
AcDbLine
 10
166.4490970496664
 20
152.6060829888079
 30
0.0
 11
166.4471943987123
 21
152.6006116083364
 31
0.0
  0
LINE
  5
2CC
330
E3
100
AcDbEntity
  8
0
  6
Continuous
100
AcDbLine
 10
167.4471943987123
 20
152.4036419113667
 30
0.0
 11
167.4452917477581
 21
152.3981705308954
 31
0.0
  0
LINE
  5
2CD
330
E3
100
AcDbEntity
  8
0
  6
Continuous
100
AcDbLine
 10
167.4452917477581
 20
152.3981705308954
 30
0.0
 11
167.4395982752184
 21
152.392699150424
 31
0.0
  0
LINE
  5
2CE
330
E3
100
AcDbEntity
  8
0
  6
Continuous
100
AcDbLine
 10
167.4395982752184
 20
152.392699150424
 30
0.0
 11
167.4301570252802
 21
152.3872268041233
 31
0.0
  0
LINE
  5
2CF
330
E3
100
AcDbEntity
  8
0
  6
Continuous
100
AcDbLine
 10
167.4301570252802
 20
152.3872268041233
 30
0.0
 11
167.4170415291992
 21
152.3817574562997
 31
0.0
  0
LINE
  5
2D0
330
E3
100
AcDbEntity
  8
0
  6
Continuous
100
AcDbLine
 10
167.4170415291992
 20
152.3817574562997
 30
0.0
 11
167.4003490796416
 21
152.3762853738022
 31
0.0
  0
LINE
  5
2D1
330
E3
100
AcDbEntity
  8
0
  6
Continuous
100
AcDbLine
 10
167.4003490796416
 20
152.3762853738022
 30
0.0
 11
167.3802082062812
 21
152.3708132913047
 31
0.0
  0
LINE
  5
2D2
330
E3
100
AcDbEntity
  8
0
  6
Continuous
100
AcDbLine
 10
167.3802082062812
 20
152.3708132913047
 30
0.0
 11
167.3567693161831
 21
152.3653412088072
 31
0.0
  0
LINE
  5
2D3
330
E3
100
AcDbEntity
  8
0
  6
Continuous
100
AcDbLine
 10
167.3567693161831
 20
152.3653412088072
 30
0.0
 11
167.3302156324995
 21
152.3598718609835
 31
0.0
  0
LINE
  5
2D4
330
E3
100
AcDbEntity
  8
0
  6
Continuous
100
AcDbLine
 10
167.3302156324995
 20
152.3598718609835
 30
0.0
 11
167.300746786426
 21
152.3543997784861
 31
0.0
  0
LINE
  5
2D5
330
E3
100
AcDbEntity
  8
0
  6
Continuous
100
AcDbLine
 10
167.300746786426
 20
152.3543997784861
 30
0.0
 11
167.2685870212232
 21
152.3489276959886
 31
0.0
  0
LINE
  5
2D6
330
E3
100
AcDbEntity
  8
0
  6
Continuous
100
AcDbLine
 10
167.2685870212232
 20
152.3489276959886
 30
0.0
 11
167.2339824575433
 21
152.343455613491
 31
0.0
  0
LINE
  5
2D7
330
E3
100
AcDbEntity
  8
0
  6
Continuous
100
AcDbLine
 10
167.2339824575433
 20
152.343455613491
 30
0.0
 11
167.1971956240818
 21
152.3379862656674
 31
0.0
  0
LINE
  5
2D8
330
E3
100
AcDbEntity
  8
0
  6
Continuous
100
AcDbLine
 10
167.1971956240818
 20
152.3379862656674
 30
0.0
 11
167.1585027229037
 21
152.3325141831699
 31
0.0
  0
LINE
  5
2D9
330
E3
100
AcDbEntity
  8
0
  6
Continuous
100
AcDbLine
 10
167.1585027229037
 20
152.3325141831699
 30
0.0
 11
167.1182045681394
 21
152.3270421006724
 31
0.0
  0
LINE
  5
2DA
330
E3
100
AcDbEntity
  8
0
  6
Continuous
100
AcDbLine
 10
167.1182045681394
 20
152.3270421006724
 30
0.0
 11
167.0766047085932
 21
152.3215700181749
 31
0.0
  0
LINE
  5
2DB
330
E3
100
AcDbEntity
  8
0
  6
Continuous
100
AcDbLine
 10
167.0766047085932
 20
152.3215700181749
 30
0.0
 11
167.0340176317647
 21
152.3161006703513
 31
0.0
  0
LINE
  5
2DC
330
E3
100
AcDbEntity
  8
0
  6
Continuous
100
AcDbLine
 10
167.0340176317647
 20
152.3161006703513
 30
0.0
 11
166.9907714985235
 21
152.3106285878538
 31
0.0
  0
LINE
  5
2DD
330
E3
100
AcDbEntity
  8
0
  6
Continuous
100
AcDbLine
 10
166.9907714985235
 20
152.3106285878538
 30
0.0
 11
166.947194469739
 21
152.3051565053563
 31
0.0
  0
LINE
  5
2DE
330
E3
100
AcDbEntity
  8
0
  6
Continuous
100
AcDbLine
 10
166.947194469739
 20
152.3051565053563
 30
0.0
 11
166.9036174409544
 21
152.2996844228588
 31
0.0
  0
LINE
  5
2DF
330
E3
100
AcDbEntity
  8
0
  6
Continuous
100
AcDbLine
 10
166.9036174409544
 20
152.2996844228588
 30
0.0
 11
166.8603713077133
 21
152.2942150750352
 31
0.0
  0
LINE
  5
2E0
330
E3
100
AcDbEntity
  8
0
  6
Continuous
100
AcDbLine
 10
166.8603713077133
 20
152.2942150750352
 30
0.0
 11
166.8177842308848
 21
152.2887429925376
 31
0.0
  0
LINE
  5
2E1
330
E3
100
AcDbEntity
  8
0
  6
Continuous
100
AcDbLine
 10
166.8177842308848
 20
152.2887429925376
 30
0.0
 11
166.7761843713384
 21
152.2832709100401
 31
0.0
  0
LINE
  5
2E2
330
E3
100
AcDbEntity
  8
0
  6
Continuous
100
AcDbLine
 10
166.7761843713384
 20
152.2832709100401
 30
0.0
 11
166.7358862165742
 21
152.2777988275426
 31
0.0
  0
LINE
  5
2E3
330
E3
100
AcDbEntity
  8
0
  6
Continuous
100
AcDbLine
 10
166.7358862165742
 20
152.2777988275426
 30
0.0
 11
166.6971933153961
 21
152.272329479719
 31
0.0
  0
LINE
  5
2E4
330
E3
100
AcDbEntity
  8
0
  6
Continuous
100
AcDbLine
 10
166.6971933153961
 20
152.272329479719
 30
0.0
 11
166.6604064819346
 21
152.2668573972215
 31
0.0
  0
LINE
  5
2E5
330
E3
100
AcDbEntity
  8
0
  6
Continuous
100
AcDbLine
 10
166.6604064819346
 20
152.2668573972215
 30
0.0
 11
166.6258019182547
 21
152.261385314724
 31
0.0
  0
LINE
  5
2E6
330
E3
100
AcDbEntity
  8
0
  6
Continuous
100
AcDbLine
 10
166.6258019182547
 20
152.261385314724
 30
0.0
 11
166.5936421530519
 21
152.2559159669004
 31
0.0
  0
LINE
  5
2E7
330
E3
100
AcDbEntity
  8
0
  6
Continuous
100
AcDbLine
 10
166.5936421530519
 20
152.2559159669004
 30
0.0
 11
166.5641733069784
 21
152.2504438844029
 31
0.0
  0
LINE
  5
2E8
330
E3
100
AcDbEntity
  8
0
  6
Continuous
100
AcDbLine
 10
166.5641733069784
 20
152.2504438844029
 30
0.0
 11
166.5376196232948
 21
152.2449718019054
 31
0.0
  0
LINE
  5
2E9
330
E3
100
AcDbEntity
  8
0
  6
Continuous
100
AcDbLine
 10
166.5376196232948
 20
152.2449718019054
 30
0.0
 11
166.5141807331967
 21
152.2394997194079
 31
0.0
  0
LINE
  5
2EA
330
E3
100
AcDbEntity
  8
0
  6
Continuous
100
AcDbLine
 10
166.5141807331967
 20
152.2394997194079
 30
0.0
 11
166.4940398598364
 21
152.2340303715843
 31
0.0
  0
LINE
  5
2EB
330
E3
100
AcDbEntity
  8
0
  6
Continuous
100
AcDbLine
 10
166.4940398598364
 20
152.2340303715843
 30
0.0
 11
166.4773474102788
 21
152.2285582890868
 31
0.0
  0
LINE
  5
2EC
330
E3
100
AcDbEntity
  8
0
  6
Continuous
100
AcDbLine
 10
166.4773474102788
 20
152.2285582890868
 30
0.0
 11
166.4642319141977
 21
152.2230862065892
 31
0.0
  0
LINE
  5
2ED
330
E3
100
AcDbEntity
  8
0
  6
Continuous
100
AcDbLine
 10
166.4642319141977
 20
152.2230862065892
 30
0.0
 11
166.4547918198542
 21
152.2176141240917
 31
0.0
  0
LINE
  5
2EE
330
E3
100
AcDbEntity
  8
0
  6
Continuous
100
AcDbLine
 10
166.4547918198542
 20
152.2176141240917
 30
0.0
 11
166.4490970496664
 21
152.2121435948685
 31
0.0
  0
LINE
  5
2EF
330
E3
100
AcDbEntity
  8
0
  6
Continuous
100
AcDbLine
 10
166.4490970496664
 20
152.2121435948685
 30
0.0
 11
166.4471943987123
 21
152.206672214397
 31
0.0
  0
LINE
  5
2F0
330
E3
100
AcDbEntity
  8
0
  6
Continuous
100
AcDbLine
 10
167.4471943987123
 20
152.0097025174273
 30
0.0
 11
167.4452917477581
 21
152.004231136956
 31
0.0
  0
LINE
  5
2F1
330
E3
100
AcDbEntity
  8
0
  6
Continuous
100
AcDbLine
 10
167.4452917477581
 20
152.004231136956
 30
0.0
 11
167.4395982752184
 21
151.9987597564846
 31
0.0
  0
LINE
  5
2F2
330
E3
100
AcDbEntity
  8
0
  6
Continuous
100
AcDbLine
 10
167.4395982752184
 20
151.9987597564846
 30
0.0
 11
167.4301570252802
 21
151.9932888231068
 31
0.0
  0
LINE
  5
2F3
330
E3
100
AcDbEntity
  8
0
  6
Continuous
100
AcDbLine
 10
167.4301570252802
 20
151.9932888231068
 30
0.0
 11
167.4170415291992
 21
151.9878167406093
 31
0.0
  0
LINE
  5
2F4
330
E3
100
AcDbEntity
  8
0
  6
Continuous
100
AcDbLine
 10
167.4170415291992
 20
151.9878167406093
 30
0.0
 11
167.4003490796416
 21
151.9823446581118
 31
0.0
  0
LINE
  5
2F5
330
E3
100
AcDbEntity
  8
0
  6
Continuous
100
AcDbLine
 10
167.4003490796416
 20
151.9823446581118
 30
0.0
 11
167.3802082062812
 21
151.9768753102882
 31
0.0
  0
LINE
  5
2F6
330
E3
100
AcDbEntity
  8
0
  6
Continuous
100
AcDbLine
 10
167.3802082062812
 20
151.9768753102882
 30
0.0
 11
167.3567693161831
 21
151.9714032277907
 31
0.0
  0
LINE
  5
2F7
330
E3
100
AcDbEntity
  8
0
  6
Continuous
100
AcDbLine
 10
167.3567693161831
 20
151.9714032277907
 30
0.0
 11
167.3302156324995
 21
151.9659311452932
 31
0.0
  0
LINE
  5
2F8
330
E3
100
AcDbEntity
  8
0
  6
Continuous
100
AcDbLine
 10
167.3302156324995
 20
151.9659311452932
 30
0.0
 11
167.300746786426
 21
151.9604590627956
 31
0.0
  0
LINE
  5
2F9
330
E3
100
AcDbEntity
  8
0
  6
Continuous
100
AcDbLine
 10
167.300746786426
 20
151.9604590627956
 30
0.0
 11
167.2685870212232
 21
151.954989714972
 31
0.0
  0
LINE
  5
2FA
330
E3
100
AcDbEntity
  8
0
  6
Continuous
100
AcDbLine
 10
167.2685870212232
 20
151.954989714972
 30
0.0
 11
167.2339824575433
 21
151.9495176324745
 31
0.0
  0
LINE
  5
2FB
330
E3
100
AcDbEntity
  8
0
  6
Continuous
100
AcDbLine
 10
167.2339824575433
 20
151.9495176324745
 30
0.0
 11
167.1971956240818
 21
151.944045549977
 31
0.0
  0
LINE
  5
2FC
330
E3
100
AcDbEntity
  8
0
  6
Continuous
100
AcDbLine
 10
167.1971956240818
 20
151.944045549977
 30
0.0
 11
167.1585027229037
 21
151.9385734674795
 31
0.0
  0
LINE
  5
2FD
330
E3
100
AcDbEntity
  8
0
  6
Continuous
100
AcDbLine
 10
167.1585027229037
 20
151.9385734674795
 30
0.0
 11
167.1182045681394
 21
151.9331041196559
 31
0.0
  0
LINE
  5
2FE
330
E3
100
AcDbEntity
  8
0
  6
Continuous
100
AcDbLine
 10
167.1182045681394
 20
151.9331041196559
 30
0.0
 11
167.0766047085932
 21
151.9276320371584
 31
0.0
  0
LINE
  5
2FF
330
E3
100
AcDbEntity
  8
0
  6
Continuous
100
AcDbLine
 10
167.0766047085932
 20
151.9276320371584
 30
0.0
 11
167.0340176317647
 21
151.9221599546609
 31
0.0
  0
LINE
  5
300
330
E3
100
AcDbEntity
  8
0
  6
Continuous
100
AcDbLine
 10
167.0340176317647
 20
151.9221599546609
 30
0.0
 11
166.9907714985235
 21
151.9166878721634
 31
0.0
  0
LINE
  5
301
330
E3
100
AcDbEntity
  8
0
  6
Continuous
100
AcDbLine
 10
166.9907714985235
 20
151.9166878721634
 30
0.0
 11
166.947194469739
 21
151.9112185243397
 31
0.0
  0
LINE
  5
302
330
E3
100
AcDbEntity
  8
0
  6
Continuous
100
AcDbLine
 10
166.947194469739
 20
151.9112185243397
 30
0.0
 11
166.9036174409544
 21
151.9057464418423
 31
0.0
  0
LINE
  5
303
330
E3
100
AcDbEntity
  8
0
  6
Continuous
100
AcDbLine
 10
166.9036174409544
 20
151.9057464418423
 30
0.0
 11
166.8603713077133
 21
151.9002743593448
 31
0.0
  0
LINE
  5
304
330
E3
100
AcDbEntity
  8
0
  6
Continuous
100
AcDbLine
 10
166.8603713077133
 20
151.9002743593448
 30
0.0
 11
166.8177842308848
 21
151.8948022768473
 31
0.0
  0
LINE
  5
305
330
E3
100
AcDbEntity
  8
0
  6
Continuous
100
AcDbLine
 10
166.8177842308848
 20
151.8948022768473
 30
0.0
 11
166.7761843713384
 21
151.8893329290236
 31
0.0
  0
LINE
  5
306
330
E3
100
AcDbEntity
  8
0
  6
Continuous
100
AcDbLine
 10
166.7761843713384
 20
151.8893329290236
 30
0.0
 11
166.7358862165742
 21
151.8838608465261
 31
0.0
  0
LINE
  5
307
330
E3
100
AcDbEntity
  8
0
  6
Continuous
100
AcDbLine
 10
166.7358862165742
 20
151.8838608465261
 30
0.0
 11
166.6971933153961
 21
151.8783887640286
 31
0.0
  0
LINE
  5
308
330
E3
100
AcDbEntity
  8
0
  6
Continuous
100
AcDbLine
 10
166.6971933153961
 20
151.8783887640286
 30
0.0
 11
166.6604064819346
 21
151.8729166815311
 31
0.0
  0
LINE
  5
309
330
E3
100
AcDbEntity
  8
0
  6
Continuous
100
AcDbLine
 10
166.6604064819346
 20
151.8729166815311
 30
0.0
 11
166.6258019182547
 21
151.8674473337075
 31
0.0
  0
LINE
  5
30A
330
E3
100
AcDbEntity
  8
0
  6
Continuous
100
AcDbLine
 10
166.6258019182547
 20
151.8674473337075
 30
0.0
 11
166.5936421530519
 21
151.86197525121
 31
0.0
  0
LINE
  5
30B
330
E3
100
AcDbEntity
  8
0
  6
Continuous
100
AcDbLine
 10
166.5936421530519
 20
151.86197525121
 30
0.0
 11
166.5641733069784
 21
151.8565031687125
 31
0.0
  0
LINE
  5
30C
330
E3
100
AcDbEntity
  8
0
  6
Continuous
100
AcDbLine
 10
166.5641733069784
 20
151.8565031687125
 30
0.0
 11
166.5376196232948
 21
151.8510338208889
 31
0.0
  0
LINE
  5
30D
330
E3
100
AcDbEntity
  8
0
  6
Continuous
100
AcDbLine
 10
166.5376196232948
 20
151.8510338208889
 30
0.0
 11
166.5141807331967
 21
151.8455617383914
 31
0.0
  0
LINE
  5
30E
330
E3
100
AcDbEntity
  8
0
  6
Continuous
100
AcDbLine
 10
166.5141807331967
 20
151.8455617383914
 30
0.0
 11
166.4940398598364
 21
151.8400896558938
 31
0.0
  0
LINE
  5
30F
330
E3
100
AcDbEntity
  8
0
  6
Continuous
100
AcDbLine
 10
166.4940398598364
 20
151.8400896558938
 30
0.0
 11
166.4773474102788
 21
151.8346175733963
 31
0.0
  0
LINE
  5
310
330
E3
100
AcDbEntity
  8
0
  6
Continuous
100
AcDbLine
 10
166.4773474102788
 20
151.8346175733963
 30
0.0
 11
166.4642319141977
 21
151.8291482255728
 31
0.0
  0
LINE
  5
311
330
E3
100
AcDbEntity
  8
0
  6
Continuous
100
AcDbLine
 10
166.4642319141977
 20
151.8291482255728
 30
0.0
 11
166.4547918198542
 21
151.8236761430752
 31
0.0
  0
LINE
  5
312
330
E3
100
AcDbEntity
  8
0
  6
Continuous
100
AcDbLine
 10
166.4547918198542
 20
151.8236761430752
 30
0.0
 11
166.4490970496664
 21
151.8182042009291
 31
0.0
  0
LINE
  5
313
330
E3
100
AcDbEntity
  8
0
  6
Continuous
100
AcDbLine
 10
166.4490970496664
 20
151.8182042009291
 30
0.0
 11
166.4471943987123
 21
151.8127328204577
 31
0.0
  0
LINE
  5
314
330
E3
100
AcDbEntity
  8
0
  6
Continuous
100
AcDbLine
 10
167.4471943987123
 20
151.615763123488
 30
0.0
 11
167.4452917477581
 21
151.6102917430166
 31
0.0
  0
LINE
  5
315
330
E3
100
AcDbEntity
  8
0
  6
Continuous
100
AcDbLine
 10
167.4452917477581
 20
151.6102917430166
 30
0.0
 11
167.4395982752184
 21
151.6048203625452
 31
0.0
  0
LINE
  5
316
330
E3
100
AcDbEntity
  8
0
  6
Continuous
100
AcDbLine
 10
167.4395982752184
 20
151.6048203625452
 30
0.0
 11
167.4301570252802
 21
151.5993481074164
 31
0.0
  0
LINE
  5
317
330
E3
100
AcDbEntity
  8
0
  6
Continuous
100
AcDbLine
 10
167.4301570252802
 20
151.5993481074164
 30
0.0
 11
167.4170415291992
 21
151.5938787595928
 31
0.0
  0
LINE
  5
318
330
E3
100
AcDbEntity
  8
0
  6
Continuous
100
AcDbLine
 10
167.4170415291992
 20
151.5938787595928
 30
0.0
 11
167.4003490796416
 21
151.5884066770953
 31
0.0
  0
LINE
  5
319
330
E3
100
AcDbEntity
  8
0
  6
Continuous
100
AcDbLine
 10
167.4003490796416
 20
151.5884066770953
 30
0.0
 11
167.3802082062812
 21
151.5829345945978
 31
0.0
  0
LINE
  5
31A
330
E3
100
AcDbEntity
  8
0
  6
Continuous
100
AcDbLine
 10
167.3802082062812
 20
151.5829345945978
 30
0.0
 11
167.3567693161831
 21
151.5774625121003
 31
0.0
  0
LINE
  5
31B
330
E3
100
AcDbEntity
  8
0
  6
Continuous
100
AcDbLine
 10
167.3567693161831
 20
151.5774625121003
 30
0.0
 11
167.3302156324995
 21
151.5719931642767
 31
0.0
  0
LINE
  5
31C
330
E3
100
AcDbEntity
  8
0
  6
Continuous
100
AcDbLine
 10
167.3302156324995
 20
151.5719931642767
 30
0.0
 11
167.300746786426
 21
151.5665210817791
 31
0.0
  0
LINE
  5
31D
330
E3
100
AcDbEntity
  8
0
  6
Continuous
100
AcDbLine
 10
167.300746786426
 20
151.5665210817791
 30
0.0
 11
167.2685870212232
 21
151.5610489992816
 31
0.0
  0
LINE
  5
31E
330
E3
100
AcDbEntity
  8
0
  6
Continuous
100
AcDbLine
 10
167.2685870212232
 20
151.5610489992816
 30
0.0
 11
167.2339824575433
 21
151.5555769167841
 31
0.0
  0
LINE
  5
31F
330
E3
100
AcDbEntity
  8
0
  6
Continuous
100
AcDbLine
 10
167.2339824575433
 20
151.5555769167841
 30
0.0
 11
167.1971956240818
 21
151.5501075689605
 31
0.0
  0
LINE
  5
320
330
E3
100
AcDbEntity
  8
0
  6
Continuous
100
AcDbLine
 10
167.1971956240818
 20
151.5501075689605
 30
0.0
 11
167.1585027229037
 21
151.544635486463
 31
0.0
  0
LINE
  5
321
330
E3
100
AcDbEntity
  8
0
  6
Continuous
100
AcDbLine
 10
167.1585027229037
 20
151.544635486463
 30
0.0
 11
167.1182045681394
 21
151.5391634039655
 31
0.0
  0
LINE
  5
322
330
E3
100
AcDbEntity
  8
0
  6
Continuous
100
AcDbLine
 10
167.1182045681394
 20
151.5391634039655
 30
0.0
 11
167.0766047085932
 21
151.533691321468
 31
0.0
  0
LINE
  5
323
330
E3
100
AcDbEntity
  8
0
  6
Continuous
100
AcDbLine
 10
167.0766047085932
 20
151.533691321468
 30
0.0
 11
167.0340176317647
 21
151.5282219736444
 31
0.0
  0
LINE
  5
324
330
E3
100
AcDbEntity
  8
0
  6
Continuous
100
AcDbLine
 10
167.0340176317647
 20
151.5282219736444
 30
0.0
 11
166.9907714985235
 21
151.5227498911469
 31
0.0
  0
LINE
  5
325
330
E3
100
AcDbEntity
  8
0
  6
Continuous
100
AcDbLine
 10
166.9907714985235
 20
151.5227498911469
 30
0.0
 11
166.947194469739
 21
151.5172778086494
 31
0.0
  0
LINE
  5
326
330
E3
100
AcDbEntity
  8
0
  6
Continuous
100
AcDbLine
 10
166.947194469739
 20
151.5172778086494
 30
0.0
 11
166.9036174409544
 21
151.5118057261519
 31
0.0
  0
LINE
  5
327
330
E3
100
AcDbEntity
  8
0
  6
Continuous
100
AcDbLine
 10
166.9036174409544
 20
151.5118057261519
 30
0.0
 11
166.8603713077133
 21
151.5063363783283
 31
0.0
  0
LINE
  5
328
330
E3
100
AcDbEntity
  8
0
  6
Continuous
100
AcDbLine
 10
166.8603713077133
 20
151.5063363783283
 30
0.0
 11
166.8177842308848
 21
151.5008642958308
 31
0.0
  0
LINE
  5
329
330
E3
100
AcDbEntity
  8
0
  6
Continuous
100
AcDbLine
 10
166.8177842308848
 20
151.5008642958308
 30
0.0
 11
166.7761843713384
 21
151.4953922133332
 31
0.0
  0
LINE
  5
32A
330
E3
100
AcDbEntity
  8
0
  6
Continuous
100
AcDbLine
 10
166.7761843713384
 20
151.4953922133332
 30
0.0
 11
166.7358862165742
 21
151.4899201308357
 31
0.0
  0
LINE
  5
32B
330
E3
100
AcDbEntity
  8
0
  6
Continuous
100
AcDbLine
 10
166.7358862165742
 20
151.4899201308357
 30
0.0
 11
166.6971933153961
 21
151.4844507830121
 31
0.0
  0
LINE
  5
32C
330
E3
100
AcDbEntity
  8
0
  6
Continuous
100
AcDbLine
 10
166.6971933153961
 20
151.4844507830121
 30
0.0
 11
166.6604064819346
 21
151.4789787005146
 31
0.0
  0
LINE
  5
32D
330
E3
100
AcDbEntity
  8
0
  6
Continuous
100
AcDbLine
 10
166.6604064819346
 20
151.4789787005146
 30
0.0
 11
166.6258019182547
 21
151.4735066180171
 31
0.0
  0
LINE
  5
32E
330
E3
100
AcDbEntity
  8
0
  6
Continuous
100
AcDbLine
 10
166.6258019182547
 20
151.4735066180171
 30
0.0
 11
166.5936421530519
 21
151.4680345355196
 31
0.0
  0
LINE
  5
32F
330
E3
100
AcDbEntity
  8
0
  6
Continuous
100
AcDbLine
 10
166.5936421530519
 20
151.4680345355196
 30
0.0
 11
166.5641733069784
 21
151.462565187696
 31
0.0
  0
LINE
  5
330
330
E3
100
AcDbEntity
  8
0
  6
Continuous
100
AcDbLine
 10
166.5641733069784
 20
151.462565187696
 30
0.0
 11
166.5376196232948
 21
151.4570931051985
 31
0.0
  0
LINE
  5
331
330
E3
100
AcDbEntity
  8
0
  6
Continuous
100
AcDbLine
 10
166.5376196232948
 20
151.4570931051985
 30
0.0
 11
166.5141807331967
 21
151.451621022701
 31
0.0
  0
LINE
  5
332
330
E3
100
AcDbEntity
  8
0
  6
Continuous
100
AcDbLine
 10
166.5141807331967
 20
151.451621022701
 30
0.0
 11
166.4940398598364
 21
151.4461516748774
 31
0.0
  0
LINE
  5
333
330
E3
100
AcDbEntity
  8
0
  6
Continuous
100
AcDbLine
 10
166.4940398598364
 20
151.4461516748774
 30
0.0
 11
166.4773474102788
 21
151.4406795923798
 31
0.0
  0
LINE
  5
334
330
E3
100
AcDbEntity
  8
0
  6
Continuous
100
AcDbLine
 10
166.4773474102788
 20
151.4406795923798
 30
0.0
 11
166.4642319141977
 21
151.4352075098824
 31
0.0
  0
LINE
  5
335
330
E3
100
AcDbEntity
  8
0
  6
Continuous
100
AcDbLine
 10
166.4642319141977
 20
151.4352075098824
 30
0.0
 11
166.4547918198542
 21
151.4297354273848
 31
0.0
  0
LINE
  5
336
330
E3
100
AcDbEntity
  8
0
  6
Continuous
100
AcDbLine
 10
166.4547918198542
 20
151.4297354273848
 30
0.0
 11
166.4490970496664
 21
151.4242648069896
 31
0.0
  0
LINE
  5
337
330
E3
100
AcDbEntity
  8
0
  6
Continuous
100
AcDbLine
 10
166.4490970496664
 20
151.4242648069896
 30
0.0
 11
166.4471943987123
 21
151.4187934265182
 31
0.0
  0
LINE
  5
338
330
E3
100
AcDbEntity
  8
0
  6
Continuous
100
AcDbLine
 10
167.4471943987122
 20
151.2218237295486
 30
0.0
 11
167.4452917477581
 21
151.2163523490772
 31
0.0
  0
LINE
  5
339
330
E3
100
AcDbEntity
  8
0
  6
Continuous
100
AcDbLine
 10
167.4452917477581
 20
151.2163523490772
 30
0.0
 11
167.4395982752184
 21
151.2108809686058
 31
0.0
  0
LINE
  5
33A
330
E3
100
AcDbEntity
  8
0
  6
Continuous
100
AcDbLine
 10
167.4395982752184
 20
151.2108809686058
 30
0.0
 11
167.4301570252802
 21
151.2054101263999
 31
0.0
  0
LINE
  5
33B
330
E3
100
AcDbEntity
  8
0
  6
Continuous
100
AcDbLine
 10
167.4301570252802
 20
151.2054101263999
 30
0.0
 11
167.4170415291992
 21
151.1999380439024
 31
0.0
  0
LINE
  5
33C
330
E3
100
AcDbEntity
  8
0
  6
Continuous
100
AcDbLine
 10
167.4170415291992
 20
151.1999380439024
 30
0.0
 11
167.4003490796416
 21
151.1944659614049
 31
0.0
  0
LINE
  5
33D
330
E3
100
AcDbEntity
  8
0
  6
Continuous
100
AcDbLine
 10
167.4003490796416
 20
151.1944659614049
 30
0.0
 11
167.3802082062812
 21
151.1889966135813
 31
0.0
  0
LINE
  5
33E
330
E3
100
AcDbEntity
  8
0
  6
Continuous
100
AcDbLine
 10
167.3802082062812
 20
151.1889966135813
 30
0.0
 11
167.3567693161831
 21
151.1835245310838
 31
0.0
  0
LINE
  5
33F
330
E3
100
AcDbEntity
  8
0
  6
Continuous
100
AcDbLine
 10
167.3567693161831
 20
151.1835245310838
 30
0.0
 11
167.3302156324995
 21
151.1780524485863
 31
0.0
  0
LINE
  5
340
330
E3
100
AcDbEntity
  8
0
  6
Continuous
100
AcDbLine
 10
167.3302156324995
 20
151.1780524485863
 30
0.0
 11
167.300746786426
 21
151.1725803660887
 31
0.0
  0
LINE
  5
341
330
E3
100
AcDbEntity
  8
0
  6
Continuous
100
AcDbLine
 10
167.300746786426
 20
151.1725803660887
 30
0.0
 11
167.2685870212232
 21
151.1671110182651
 31
0.0
  0
LINE
  5
342
330
E3
100
AcDbEntity
  8
0
  6
Continuous
100
AcDbLine
 10
167.2685870212232
 20
151.1671110182651
 30
0.0
 11
167.2339824575433
 21
151.1616389357676
 31
0.0
  0
LINE
  5
343
330
E3
100
AcDbEntity
  8
0
  6
Continuous
100
AcDbLine
 10
167.2339824575433
 20
151.1616389357676
 30
0.0
 11
167.1971956240818
 21
151.1561668532701
 31
0.0
  0
LINE
  5
344
330
E3
100
AcDbEntity
  8
0
  6
Continuous
100
AcDbLine
 10
167.1971956240818
 20
151.1561668532701
 30
0.0
 11
167.1585027229037
 21
151.1506947707726
 31
0.0
  0
LINE
  5
345
330
E3
100
AcDbEntity
  8
0
  6
Continuous
100
AcDbLine
 10
167.1585027229037
 20
151.1506947707726
 30
0.0
 11
167.1182045681394
 21
151.145225422949
 31
0.0
  0
LINE
  5
346
330
E3
100
AcDbEntity
  8
0
  6
Continuous
100
AcDbLine
 10
167.1182045681394
 20
151.145225422949
 30
0.0
 11
167.0766047085932
 21
151.1397533404515
 31
0.0
  0
LINE
  5
347
330
E3
100
AcDbEntity
  8
0
  6
Continuous
100
AcDbLine
 10
167.0766047085932
 20
151.1397533404515
 30
0.0
 11
167.0340176317647
 21
151.134281257954
 31
0.0
  0
LINE
  5
348
330
E3
100
AcDbEntity
  8
0
  6
Continuous
100
AcDbLine
 10
167.0340176317647
 20
151.134281257954
 30
0.0
 11
166.9907714985235
 21
151.1288091754565
 31
0.0
  0
LINE
  5
349
330
E3
100
AcDbEntity
  8
0
  6
Continuous
100
AcDbLine
 10
166.9907714985235
 20
151.1288091754565
 30
0.0
 11
166.947194469739
 21
151.1233398276329
 31
0.0
  0
LINE
  5
34A
330
E3
100
AcDbEntity
  8
0
  6
Continuous
100
AcDbLine
 10
166.947194469739
 20
151.1233398276329
 30
0.0
 11
166.9036174409544
 21
151.1178677451354
 31
0.0
  0
LINE
  5
34B
330
E3
100
AcDbEntity
  8
0
  6
Continuous
100
AcDbLine
 10
166.9036174409544
 20
151.1178677451354
 30
0.0
 11
166.8603713077133
 21
151.1123956626379
 31
0.0
  0
LINE
  5
34C
330
E3
100
AcDbEntity
  8
0
  6
Continuous
100
AcDbLine
 10
166.8603713077133
 20
151.1123956626379
 30
0.0
 11
166.8177842308848
 21
151.1069235801403
 31
0.0
  0
LINE
  5
34D
330
E3
100
AcDbEntity
  8
0
  6
Continuous
100
AcDbLine
 10
166.8177842308848
 20
151.1069235801403
 30
0.0
 11
166.7761843713384
 21
151.1014542323167
 31
0.0
  0
LINE
  5
34E
330
E3
100
AcDbEntity
  8
0
  6
Continuous
100
AcDbLine
 10
166.7761843713384
 20
151.1014542323167
 30
0.0
 11
166.7358862165742
 21
151.0959821498192
 31
0.0
  0
LINE
  5
34F
330
E3
100
AcDbEntity
  8
0
  6
Continuous
100
AcDbLine
 10
166.7358862165742
 20
151.0959821498192
 30
0.0
 11
166.6971933153961
 21
151.0905100673217
 31
0.0
  0
LINE
  5
350
330
E3
100
AcDbEntity
  8
0
  6
Continuous
100
AcDbLine
 10
166.6971933153961
 20
151.0905100673217
 30
0.0
 11
166.6604064819346
 21
151.0850379848242
 31
0.0
  0
LINE
  5
351
330
E3
100
AcDbEntity
  8
0
  6
Continuous
100
AcDbLine
 10
166.6604064819346
 20
151.0850379848242
 30
0.0
 11
166.6258019182547
 21
151.0795686370006
 31
0.0
  0
LINE
  5
352
330
E3
100
AcDbEntity
  8
0
  6
Continuous
100
AcDbLine
 10
166.6258019182547
 20
151.0795686370006
 30
0.0
 11
166.5936421530519
 21
151.0740965545031
 31
0.0
  0
LINE
  5
353
330
E3
100
AcDbEntity
  8
0
  6
Continuous
100
AcDbLine
 10
166.5936421530519
 20
151.0740965545031
 30
0.0
 11
166.5641733069784
 21
151.0686244720056
 31
0.0
  0
LINE
  5
354
330
E3
100
AcDbEntity
  8
0
  6
Continuous
100
AcDbLine
 10
166.5641733069784
 20
151.0686244720056
 30
0.0
 11
166.5376196232948
 21
151.0631523895081
 31
0.0
  0
LINE
  5
355
330
E3
100
AcDbEntity
  8
0
  6
Continuous
100
AcDbLine
 10
166.5376196232948
 20
151.0631523895081
 30
0.0
 11
166.5141807331967
 21
151.0576830416845
 31
0.0
  0
LINE
  5
356
330
E3
100
AcDbEntity
  8
0
  6
Continuous
100
AcDbLine
 10
166.5141807331967
 20
151.0576830416845
 30
0.0
 11
166.4940398598364
 21
151.052210959187
 31
0.0
  0
LINE
  5
357
330
E3
100
AcDbEntity
  8
0
  6
Continuous
100
AcDbLine
 10
166.4940398598364
 20
151.052210959187
 30
0.0
 11
166.4773474102788
 21
151.0467388766895
 31
0.0
  0
LINE
  5
358
330
E3
100
AcDbEntity
  8
0
  6
Continuous
100
AcDbLine
 10
166.4773474102788
 20
151.0467388766895
 30
0.0
 11
166.4642319141977
 21
151.0412695288659
 31
0.0
  0
LINE
  5
359
330
E3
100
AcDbEntity
  8
0
  6
Continuous
100
AcDbLine
 10
166.4642319141977
 20
151.0412695288659
 30
0.0
 11
166.4547918198542
 21
151.0357974463683
 31
0.0
  0
LINE
  5
35A
330
E3
100
AcDbEntity
  8
0
  6
Continuous
100
AcDbLine
 10
166.4547918198542
 20
151.0357974463683
 30
0.0
 11
166.4490970496664
 21
151.0303254130503
 31
0.0
  0
LINE
  5
35B
330
E3
100
AcDbEntity
  8
0
  6
Continuous
100
AcDbLine
 10
166.4490970496664
 20
151.0303254130503
 30
0.0
 11
166.4471943987122
 21
151.0248540325789
 31
0.0
  0
LINE
  5
35C
330
E3
100
AcDbEntity
  8
0
  6
Continuous
100
AcDbLine
 10
167.4471943987122
 20
150.8278843356092
 30
0.0
 11
167.4452917477581
 21
150.8224129551378
 31
0.0
  0
LINE
  5
35D
330
E3
100
AcDbEntity
  8
0
  6
Continuous
100
AcDbLine
 10
167.4452917477581
 20
150.8224129551378
 30
0.0
 11
167.4395982752184
 21
150.8169415746664
 31
0.0
  0
LINE
  5
35E
330
E3
100
AcDbEntity
  8
0
  6
Continuous
100
AcDbLine
 10
167.4395982752184
 20
150.8169415746664
 30
0.0
 11
167.4301570252802
 21
150.8114694107095
 31
0.0
  0
LINE
  5
35F
330
E3
100
AcDbEntity
  8
0
  6
Continuous
100
AcDbLine
 10
167.4301570252802
 20
150.8114694107095
 30
0.0
 11
167.4170415291992
 21
150.8060000628859
 31
0.0
  0
LINE
  5
360
330
E3
100
AcDbEntity
  8
0
  6
Continuous
100
AcDbLine
 10
167.4170415291992
 20
150.8060000628859
 30
0.0
 11
167.4003490796416
 21
150.8005279803884
 31
0.0
  0
LINE
  5
361
330
E3
100
AcDbEntity
  8
0
  6
Continuous
100
AcDbLine
 10
167.4003490796416
 20
150.8005279803884
 30
0.0
 11
167.3802082062812
 21
150.7950558978908
 31
0.0
  0
LINE
  5
362
330
E3
100
AcDbEntity
  8
0
  6
Continuous
100
AcDbLine
 10
167.3802082062812
 20
150.7950558978908
 30
0.0
 11
167.3567693161831
 21
150.7895838153934
 31
0.0
  0
LINE
  5
363
330
E3
100
AcDbEntity
  8
0
  6
Continuous
100
AcDbLine
 10
167.3567693161831
 20
150.7895838153934
 30
0.0
 11
167.3302156324995
 21
150.7841144675698
 31
0.0
  0
LINE
  5
364
330
E3
100
AcDbEntity
  8
0
  6
Continuous
100
AcDbLine
 10
167.3302156324995
 20
150.7841144675698
 30
0.0
 11
167.300746786426
 21
150.7786423850723
 31
0.0
  0
LINE
  5
365
330
E3
100
AcDbEntity
  8
0
  6
Continuous
100
AcDbLine
 10
167.300746786426
 20
150.7786423850723
 30
0.0
 11
167.2685870212232
 21
150.7731703025747
 31
0.0
  0
LINE
  5
366
330
E3
100
AcDbEntity
  8
0
  6
Continuous
100
AcDbLine
 10
167.2685870212232
 20
150.7731703025747
 30
0.0
 11
167.2339824575433
 21
150.7676982200772
 31
0.0
  0
LINE
  5
367
330
E3
100
AcDbEntity
  8
0
  6
Continuous
100
AcDbLine
 10
167.2339824575433
 20
150.7676982200772
 30
0.0
 11
167.1971956240818
 21
150.7622288722536
 31
0.0
  0
LINE
  5
368
330
E3
100
AcDbEntity
  8
0
  6
Continuous
100
AcDbLine
 10
167.1971956240818
 20
150.7622288722536
 30
0.0
 11
167.1585027229037
 21
150.7567567897561
 31
0.0
  0
LINE
  5
369
330
E3
100
AcDbEntity
  8
0
  6
Continuous
100
AcDbLine
 10
167.1585027229037
 20
150.7567567897561
 30
0.0
 11
167.1182045681394
 21
150.7512847072586
 31
0.0
  0
LINE
  5
36A
330
E3
100
AcDbEntity
  8
0
  6
Continuous
100
AcDbLine
 10
167.1182045681394
 20
150.7512847072586
 30
0.0
 11
167.0766047085932
 21
150.7458126247611
 31
0.0
  0
LINE
  5
36B
330
E3
100
AcDbEntity
  8
0
  6
Continuous
100
AcDbLine
 10
167.0766047085932
 20
150.7458126247611
 30
0.0
 11
167.0340176317647
 21
150.7403432769375
 31
0.0
  0
LINE
  5
36C
330
E3
100
AcDbEntity
  8
0
  6
Continuous
100
AcDbLine
 10
167.0340176317647
 20
150.7403432769375
 30
0.0
 11
166.9907714985235
 21
150.73487119444
 31
0.0
  0
LINE
  5
36D
330
E3
100
AcDbEntity
  8
0
  6
Continuous
100
AcDbLine
 10
166.9907714985235
 20
150.73487119444
 30
0.0
 11
166.947194469739
 21
150.7293991119425
 31
0.0
  0
LINE
  5
36E
330
E3
100
AcDbEntity
  8
0
  6
Continuous
100
AcDbLine
 10
166.947194469739
 20
150.7293991119425
 30
0.0
 11
166.9036174409544
 21
150.723927029445
 31
0.0
  0
LINE
  5
36F
330
E3
100
AcDbEntity
  8
0
  6
Continuous
100
AcDbLine
 10
166.9036174409544
 20
150.723927029445
 30
0.0
 11
166.8603713077133
 21
150.7184576816213
 31
0.0
  0
LINE
  5
370
330
E3
100
AcDbEntity
  8
0
  6
Continuous
100
AcDbLine
 10
166.8603713077133
 20
150.7184576816213
 30
0.0
 11
166.8177842308848
 21
150.7129855991238
 31
0.0
  0
LINE
  5
371
330
E3
100
AcDbEntity
  8
0
  6
Continuous
100
AcDbLine
 10
166.8177842308848
 20
150.7129855991238
 30
0.0
 11
166.7761843713384
 21
150.7075135166263
 31
0.0
  0
LINE
  5
372
330
E3
100
AcDbEntity
  8
0
  6
Continuous
100
AcDbLine
 10
166.7761843713384
 20
150.7075135166263
 30
0.0
 11
166.7358862165742
 21
150.7020414341288
 31
0.0
  0
LINE
  5
373
330
E3
100
AcDbEntity
  8
0
  6
Continuous
100
AcDbLine
 10
166.7358862165742
 20
150.7020414341288
 30
0.0
 11
166.6971933153961
 21
150.6965720863052
 31
0.0
  0
LINE
  5
374
330
E3
100
AcDbEntity
  8
0
  6
Continuous
100
AcDbLine
 10
166.6971933153961
 20
150.6965720863052
 30
0.0
 11
166.6604064819346
 21
150.6911000038077
 31
0.0
  0
LINE
  5
375
330
E3
100
AcDbEntity
  8
0
  6
Continuous
100
AcDbLine
 10
166.6604064819346
 20
150.6911000038077
 30
0.0
 11
166.6258019182547
 21
150.6856279213102
 31
0.0
  0
LINE
  5
376
330
E3
100
AcDbEntity
  8
0
  6
Continuous
100
AcDbLine
 10
166.6258019182547
 20
150.6856279213102
 30
0.0
 11
166.5936421530519
 21
150.6801558388127
 31
0.0
  0
LINE
  5
377
330
E3
100
AcDbEntity
  8
0
  6
Continuous
100
AcDbLine
 10
166.5936421530519
 20
150.6801558388127
 30
0.0
 11
166.5641733069784
 21
150.6746864909891
 31
0.0
  0
LINE
  5
378
330
E3
100
AcDbEntity
  8
0
  6
Continuous
100
AcDbLine
 10
166.5641733069784
 20
150.6746864909891
 30
0.0
 11
166.5376196232948
 21
150.6692144084916
 31
0.0
  0
LINE
  5
379
330
E3
100
AcDbEntity
  8
0
  6
Continuous
100
AcDbLine
 10
166.5376196232948
 20
150.6692144084916
 30
0.0
 11
166.5141807331967
 21
150.6637423259941
 31
0.0
  0
LINE
  5
37A
330
E3
100
AcDbEntity
  8
0
  6
Continuous
100
AcDbLine
 10
166.5141807331967
 20
150.6637423259941
 30
0.0
 11
166.4940398598364
 21
150.6582702434965
 31
0.0
  0
LINE
  5
37B
330
E3
100
AcDbEntity
  8
0
  6
Continuous
100
AcDbLine
 10
166.4940398598364
 20
150.6582702434965
 30
0.0
 11
166.4773474102788
 21
150.652800895673
 31
0.0
  0
LINE
  5
37C
330
E3
100
AcDbEntity
  8
0
  6
Continuous
100
AcDbLine
 10
166.4773474102788
 20
150.652800895673
 30
0.0
 11
166.4642319141977
 21
150.6473288131754
 31
0.0
  0
LINE
  5
37D
330
E3
100
AcDbEntity
  8
0
  6
Continuous
100
AcDbLine
 10
166.4642319141977
 20
150.6473288131754
 30
0.0
 11
166.4547918198542
 21
150.6418567306779
 31
0.0
  0
LINE
  5
37E
330
E3
100
AcDbEntity
  8
0
  6
Continuous
100
AcDbLine
 10
166.4547918198542
 20
150.6418567306779
 30
0.0
 11
166.4490970496664
 21
150.6363860191109
 31
0.0
  0
LINE
  5
37F
330
E3
100
AcDbEntity
  8
0
  6
Continuous
100
AcDbLine
 10
166.4490970496664
 20
150.6363860191109
 30
0.0
 11
166.4471943987122
 21
150.6309146386395
 31
0.0
  0
LINE
  5
380
330
E3
100
AcDbEntity
  8
0
  6
Continuous
100
AcDbLine
 10
167.4471943987122
 20
150.4339449416698
 30
0.0
 11
167.4452917477581
 21
150.4284735611984
 31
0.0
  0
LINE
  5
381
330
E3
100
AcDbEntity
  8
0
  6
Continuous
100
AcDbLine
 10
167.4452917477581
 20
150.4284735611984
 30
0.0
 11
167.4395982752184
 21
150.423002180727
 31
0.0
  0
LINE
  5
382
330
E3
100
AcDbEntity
  8
0
  6
Continuous
100
AcDbLine
 10
167.4395982752184
 20
150.423002180727
 30
0.0
 11
167.4301570252802
 21
150.417531429693
 31
0.0
  0
LINE
  5
383
330
E3
100
AcDbEntity
  8
0
  6
Continuous
100
AcDbLine
 10
167.4301570252802
 20
150.417531429693
 30
0.0
 11
167.4170415291992
 21
150.4120593471955
 31
0.0
  0
LINE
  5
384
330
E3
100
AcDbEntity
  8
0
  6
Continuous
100
AcDbLine
 10
167.4170415291992
 20
150.4120593471955
 30
0.0
 11
167.4003490796416
 21
150.406587264698
 31
0.0
  0
LINE
  5
385
330
E3
100
AcDbEntity
  8
0
  6
Continuous
100
AcDbLine
 10
167.4003490796416
 20
150.406587264698
 30
0.0
 11
167.3802082062812
 21
150.4011179168744
 31
0.0
  0
LINE
  5
386
330
E3
100
AcDbEntity
  8
0
  6
Continuous
100
AcDbLine
 10
167.3802082062812
 20
150.4011179168744
 30
0.0
 11
167.3567693161831
 21
150.3956458343769
 31
0.0
  0
LINE
  5
387
330
E3
100
AcDbEntity
  8
0
  6
Continuous
100
AcDbLine
 10
167.3567693161831
 20
150.3956458343769
 30
0.0
 11
167.3302156324995
 21
150.3901737518794
 31
0.0
  0
LINE
  5
388
330
E3
100
AcDbEntity
  8
0
  6
Continuous
100
AcDbLine
 10
167.3302156324995
 20
150.3901737518794
 30
0.0
 11
167.300746786426
 21
150.3847016693818
 31
0.0
  0
LINE
  5
389
330
E3
100
AcDbEntity
  8
0
  6
Continuous
100
AcDbLine
 10
167.300746786426
 20
150.3847016693818
 30
0.0
 11
167.2685870212232
 21
150.3792323215582
 31
0.0
  0
LINE
  5
38A
330
E3
100
AcDbEntity
  8
0
  6
Continuous
100
AcDbLine
 10
167.2685870212232
 20
150.3792323215582
 30
0.0
 11
167.2339824575433
 21
150.3737602390607
 31
0.0
  0
LINE
  5
38B
330
E3
100
AcDbEntity
  8
0
  6
Continuous
100
AcDbLine
 10
167.2339824575433
 20
150.3737602390607
 30
0.0
 11
167.1971956240818
 21
150.3682881565632
 31
0.0
  0
LINE
  5
38C
330
E3
100
AcDbEntity
  8
0
  6
Continuous
100
AcDbLine
 10
167.1971956240818
 20
150.3682881565632
 30
0.0
 11
167.1585027229037
 21
150.3628160740657
 31
0.0
  0
LINE
  5
38D
330
E3
100
AcDbEntity
  8
0
  6
Continuous
100
AcDbLine
 10
167.1585027229037
 20
150.3628160740657
 30
0.0
 11
167.1182045681394
 21
150.3573467262421
 31
0.0
  0
LINE
  5
38E
330
E3
100
AcDbEntity
  8
0
  6
Continuous
100
AcDbLine
 10
167.1182045681394
 20
150.3573467262421
 30
0.0
 11
167.0766047085932
 21
150.3518746437446
 31
0.0
  0
LINE
  5
38F
330
E3
100
AcDbEntity
  8
0
  6
Continuous
100
AcDbLine
 10
167.0766047085932
 20
150.3518746437446
 30
0.0
 11
167.0340176317647
 21
150.3464025612471
 31
0.0
  0
LINE
  5
390
330
E3
100
AcDbEntity
  8
0
  6
Continuous
100
AcDbLine
 10
167.0340176317647
 20
150.3464025612471
 30
0.0
 11
166.9907714985235
 21
150.3409304787496
 31
0.0
  0
LINE
  5
391
330
E3
100
AcDbEntity
  8
0
  6
Continuous
100
AcDbLine
 10
166.9907714985235
 20
150.3409304787496
 30
0.0
 11
166.947194469739
 21
150.335461130926
 31
0.0
  0
LINE
  5
392
330
E3
100
AcDbEntity
  8
0
  6
Continuous
100
AcDbLine
 10
166.947194469739
 20
150.335461130926
 30
0.0
 11
166.9036174409544
 21
150.3299890484285
 31
0.0
  0
LINE
  5
393
330
E3
100
AcDbEntity
  8
0
  6
Continuous
100
AcDbLine
 10
166.9036174409544
 20
150.3299890484285
 30
0.0
 11
166.8603713077133
 21
150.3245169659309
 31
0.0
  0
LINE
  5
394
330
E3
100
AcDbEntity
  8
0
  6
Continuous
100
AcDbLine
 10
166.8603713077133
 20
150.3245169659309
 30
0.0
 11
166.8177842308848
 21
150.3190448834335
 31
0.0
  0
LINE
  5
395
330
E3
100
AcDbEntity
  8
0
  6
Continuous
100
AcDbLine
 10
166.8177842308848
 20
150.3190448834335
 30
0.0
 11
166.7761843713384
 21
150.3135755356098
 31
0.0
  0
LINE
  5
396
330
E3
100
AcDbEntity
  8
0
  6
Continuous
100
AcDbLine
 10
166.7761843713384
 20
150.3135755356098
 30
0.0
 11
166.7358862165742
 21
150.3081034531124
 31
0.0
  0
LINE
  5
397
330
E3
100
AcDbEntity
  8
0
  6
Continuous
100
AcDbLine
 10
166.7358862165742
 20
150.3081034531124
 30
0.0
 11
166.6971933153961
 21
150.3026313706148
 31
0.0
  0
LINE
  5
398
330
E3
100
AcDbEntity
  8
0
  6
Continuous
100
AcDbLine
 10
166.6971933153961
 20
150.3026313706148
 30
0.0
 11
166.6604064819346
 21
150.2971592881173
 31
0.0
  0
LINE
  5
399
330
E3
100
AcDbEntity
  8
0
  6
Continuous
100
AcDbLine
 10
166.6604064819346
 20
150.2971592881173
 30
0.0
 11
166.6258019182547
 21
150.2916899402937
 31
0.0
  0
LINE
  5
39A
330
E3
100
AcDbEntity
  8
0
  6
Continuous
100
AcDbLine
 10
166.6258019182547
 20
150.2916899402937
 30
0.0
 11
166.5936421530519
 21
150.2862178577962
 31
0.0
  0
LINE
  5
39B
330
E3
100
AcDbEntity
  8
0
  6
Continuous
100
AcDbLine
 10
166.5936421530519
 20
150.2862178577962
 30
0.0
 11
166.5641733069784
 21
150.2807457752986
 31
0.0
  0
LINE
  5
39C
330
E3
100
AcDbEntity
  8
0
  6
Continuous
100
AcDbLine
 10
166.5641733069784
 20
150.2807457752986
 30
0.0
 11
166.5376196232948
 21
150.2752736928012
 31
0.0
  0
LINE
  5
39D
330
E3
100
AcDbEntity
  8
0
  6
Continuous
100
AcDbLine
 10
166.5376196232948
 20
150.2752736928012
 30
0.0
 11
166.5141807331967
 21
150.2698043449776
 31
0.0
  0
LINE
  5
39E
330
E3
100
AcDbEntity
  8
0
  6
Continuous
100
AcDbLine
 10
166.5141807331967
 20
150.2698043449776
 30
0.0
 11
166.4940398598364
 21
150.2643322624801
 31
0.0
  0
LINE
  5
39F
330
E3
100
AcDbEntity
  8
0
  6
Continuous
100
AcDbLine
 10
166.4940398598364
 20
150.2643322624801
 30
0.0
 11
166.4773474102788
 21
150.2588601799825
 31
0.0
  0
LINE
  5
3A0
330
E3
100
AcDbEntity
  8
0
  6
Continuous
100
AcDbLine
 10
166.4773474102788
 20
150.2588601799825
 30
0.0
 11
166.4642319141977
 21
150.253388097485
 31
0.0
  0
LINE
  5
3A1
330
E3
100
AcDbEntity
  8
0
  6
Continuous
100
AcDbLine
 10
166.4642319141977
 20
150.253388097485
 30
0.0
 11
166.4547918198542
 21
150.2479187496614
 31
0.0
  0
LINE
  5
3A2
330
E3
100
AcDbEntity
  8
0
  6
Continuous
100
AcDbLine
 10
166.4547918198542
 20
150.2479187496614
 30
0.0
 11
166.4490970496664
 21
150.2424466251715
 31
0.0
  0
LINE
  5
3A3
330
E3
100
AcDbEntity
  8
0
  6
Continuous
100
AcDbLine
 10
166.4490970496664
 20
150.2424466251715
 30
0.0
 11
166.4471943987122
 21
150.2369752447001
 31
0.0
  0
LINE
  5
3A4
330
E3
100
AcDbEntity
  8
0
  6
Continuous
100
AcDbLine
 10
167.4471943987122
 20
150.0400055477304
 30
0.0
 11
167.4452917477581
 21
150.034534167259
 31
0.0
  0
LINE
  5
3A5
330
E3
100
AcDbEntity
  8
0
  6
Continuous
100
AcDbLine
 10
167.4452917477581
 20
150.034534167259
 30
0.0
 11
167.4395982752184
 21
150.0290627867876
 31
0.0
  0
LINE
  5
3A6
330
E3
100
AcDbEntity
  8
0
  6
Continuous
100
AcDbLine
 10
167.4395982752184
 20
150.0290627867876
 30
0.0
 11
167.4301570252802
 21
150.0235907140026
 31
0.0
  0
LINE
  5
3A7
330
E3
100
AcDbEntity
  8
0
  6
Continuous
100
AcDbLine
 10
167.4301570252802
 20
150.0235907140026
 30
0.0
 11
167.4170415291992
 21
150.018121366179
 31
0.0
  0
LINE
  5
3A8
330
E3
100
AcDbEntity
  8
0
  6
Continuous
100
AcDbLine
 10
167.4170415291992
 20
150.018121366179
 30
0.0
 11
167.4003490796416
 21
150.0126492836815
 31
0.0
  0
LINE
  5
3A9
330
E3
100
AcDbEntity
  8
0
  6
Continuous
100
AcDbLine
 10
167.4003490796416
 20
150.0126492836815
 30
0.0
 11
167.3802082062812
 21
150.0071772011839
 31
0.0
  0
LINE
  5
3AA
330
E3
100
AcDbEntity
  8
0
  6
Continuous
100
AcDbLine
 10
167.3802082062812
 20
150.0071772011839
 30
0.0
 11
167.3567693161831
 21
150.0017051186864
 31
0.0
  0
LINE
  5
3AB
330
E3
100
AcDbEntity
  8
0
  6
Continuous
100
AcDbLine
 10
167.3567693161831
 20
150.0017051186864
 30
0.0
 11
167.3302156324995
 21
149.9962357708629
 31
0.0
  0
LINE
  5
3AC
330
E3
100
AcDbEntity
  8
0
  6
Continuous
100
AcDbLine
 10
167.3302156324995
 20
149.9962357708629
 30
0.0
 11
167.300746786426
 21
149.9907636883653
 31
0.0
  0
LINE
  5
3AD
330
E3
100
AcDbEntity
  8
0
  6
Continuous
100
AcDbLine
 10
167.300746786426
 20
149.9907636883653
 30
0.0
 11
167.2685870212232
 21
149.9852916058678
 31
0.0
  0
LINE
  5
3AE
330
E3
100
AcDbEntity
  8
0
  6
Continuous
100
AcDbLine
 10
167.2685870212232
 20
149.9852916058678
 30
0.0
 11
167.2339824575433
 21
149.9798195233703
 31
0.0
  0
LINE
  5
3AF
330
E3
100
AcDbEntity
  8
0
  6
Continuous
100
AcDbLine
 10
167.2339824575433
 20
149.9798195233703
 30
0.0
 11
167.1971956240818
 21
149.9743501755467
 31
0.0
  0
LINE
  5
3B0
330
E3
100
AcDbEntity
  8
0
  6
Continuous
100
AcDbLine
 10
167.1971956240818
 20
149.9743501755467
 30
0.0
 11
167.1585027229037
 21
149.9688780930492
 31
0.0
  0
LINE
  5
3B1
330
E3
100
AcDbEntity
  8
0
  6
Continuous
100
AcDbLine
 10
167.1585027229037
 20
149.9688780930492
 30
0.0
 11
167.1182045681394
 21
149.9634060105517
 31
0.0
  0
LINE
  5
3B2
330
E3
100
AcDbEntity
  8
0
  6
Continuous
100
AcDbLine
 10
167.1182045681394
 20
149.9634060105517
 30
0.0
 11
167.0766047085932
 21
149.9579339280542
 31
0.0
  0
LINE
  5
3B3
330
E3
100
AcDbEntity
  8
0
  6
Continuous
100
AcDbLine
 10
167.0766047085932
 20
149.9579339280542
 30
0.0
 11
167.0340176317647
 21
149.9524645802306
 31
0.0
  0
LINE
  5
3B4
330
E3
100
AcDbEntity
  8
0
  6
Continuous
100
AcDbLine
 10
167.0340176317647
 20
149.9524645802306
 30
0.0
 11
166.9907714985235
 21
149.9469924977331
 31
0.0
  0
LINE
  5
3B5
330
E3
100
AcDbEntity
  8
0
  6
Continuous
100
AcDbLine
 10
166.9907714985235
 20
149.9469924977331
 30
0.0
 11
166.947194469739
 21
149.9415204152356
 31
0.0
  0
LINE
  5
3B6
330
E3
100
AcDbEntity
  8
0
  6
Continuous
100
AcDbLine
 10
166.947194469739
 20
149.9415204152356
 30
0.0
 11
166.9036174409544
 21
149.936048332738
 31
0.0
  0
LINE
  5
3B7
330
E3
100
AcDbEntity
  8
0
  6
Continuous
100
AcDbLine
 10
166.9036174409544
 20
149.936048332738
 30
0.0
 11
166.8603713077133
 21
149.9305789849145
 31
0.0
  0
LINE
  5
3B8
330
E3
100
AcDbEntity
  8
0
  6
Continuous
100
AcDbLine
 10
166.8603713077133
 20
149.9305789849145
 30
0.0
 11
166.8177842308848
 21
149.925106902417
 31
0.0
  0
LINE
  5
3B9
330
E3
100
AcDbEntity
  8
0
  6
Continuous
100
AcDbLine
 10
166.8177842308848
 20
149.925106902417
 30
0.0
 11
166.7761843713384
 21
149.9196348199194
 31
0.0
  0
LINE
  5
3BA
330
E3
100
AcDbEntity
  8
0
  6
Continuous
100
AcDbLine
 10
166.7761843713384
 20
149.9196348199194
 30
0.0
 11
166.7358862165742
 21
149.9141627374219
 31
0.0
  0
LINE
  5
3BB
330
E3
100
AcDbEntity
  8
0
  6
Continuous
100
AcDbLine
 10
166.7358862165742
 20
149.9141627374219
 30
0.0
 11
166.6971933153961
 21
149.9086933895983
 31
0.0
  0
LINE
  5
3BC
330
E3
100
AcDbEntity
  8
0
  6
Continuous
100
AcDbLine
 10
166.6971933153961
 20
149.9086933895983
 30
0.0
 11
166.6604064819346
 21
149.9032213071008
 31
0.0
  0
LINE
  5
3BD
330
E3
100
AcDbEntity
  8
0
  6
Continuous
100
AcDbLine
 10
166.6604064819346
 20
149.9032213071008
 30
0.0
 11
166.6258019182547
 21
149.8977492246033
 31
0.0
  0
LINE
  5
3BE
330
E3
100
AcDbEntity
  8
0
  6
Continuous
100
AcDbLine
 10
166.6258019182547
 20
149.8977492246033
 30
0.0
 11
166.5936421530519
 21
149.8922771421058
 31
0.0
  0
LINE
  5
3BF
330
E3
100
AcDbEntity
  8
0
  6
Continuous
100
AcDbLine
 10
166.5936421530519
 20
149.8922771421058
 30
0.0
 11
166.5641733069784
 21
149.8868077942822
 31
0.0
  0
LINE
  5
3C0
330
E3
100
AcDbEntity
  8
0
  6
Continuous
100
AcDbLine
 10
166.5641733069784
 20
149.8868077942822
 30
0.0
 11
166.5376196232948
 21
149.8813357117847
 31
0.0
  0
LINE
  5
3C1
330
E3
100
AcDbEntity
  8
0
  6
Continuous
100
AcDbLine
 10
166.5376196232948
 20
149.8813357117847
 30
0.0
 11
166.5141807331967
 21
149.8758636292872
 31
0.0
  0
LINE
  5
3C2
330
E3
100
AcDbEntity
  8
0
  6
Continuous
100
AcDbLine
 10
166.5141807331967
 20
149.8758636292872
 30
0.0
 11
166.4940398598364
 21
149.8703915467896
 31
0.0
  0
LINE
  5
3C3
330
E3
100
AcDbEntity
  8
0
  6
Continuous
100
AcDbLine
 10
166.4940398598364
 20
149.8703915467896
 30
0.0
 11
166.4773474102788
 21
149.864922198966
 31
0.0
  0
LINE
  5
3C4
330
E3
100
AcDbEntity
  8
0
  6
Continuous
100
AcDbLine
 10
166.4773474102788
 20
149.864922198966
 30
0.0
 11
166.4642319141977
 21
149.8594501164686
 31
0.0
  0
LINE
  5
3C5
330
E3
100
AcDbEntity
  8
0
  6
Continuous
100
AcDbLine
 10
166.4642319141977
 20
149.8594501164686
 30
0.0
 11
166.4547918198542
 21
149.853978033971
 31
0.0
  0
LINE
  5
3C6
330
E3
100
AcDbEntity
  8
0
  6
Continuous
100
AcDbLine
 10
166.4547918198542
 20
149.853978033971
 30
0.0
 11
166.4490970496664
 21
149.848507231232
 31
0.0
  0
LINE
  5
3C7
330
E3
100
AcDbEntity
  8
0
  6
Continuous
100
AcDbLine
 10
166.4490970496664
 20
149.848507231232
 30
0.0
 11
166.4471943987122
 21
149.8430358507607
 31
0.0
  0
LINE
  5
3C8
330
E3
100
AcDbEntity
  8
0
  6
Continuous
100
AcDbLine
 10
167.4471943987122
 20
149.646066153791
 30
0.0
 11
167.4452917477581
 21
149.6405947733196
 31
0.0
  0
LINE
  5
3C9
330
E3
100
AcDbEntity
  8
0
  6
Continuous
100
AcDbLine
 10
167.4452917477581
 20
149.6405947733196
 30
0.0
 11
167.4395982752184
 21
149.6351233928482
 31
0.0
  0
LINE
  5
3CA
330
E3
100
AcDbEntity
  8
0
  6
Continuous
100
AcDbLine
 10
167.4395982752184
 20
149.6351233928482
 30
0.0
 11
167.4301570252802
 21
149.6296527329861
 31
0.0
  0
LINE
  5
3CB
330
E3
100
AcDbEntity
  8
0
  6
Continuous
100
AcDbLine
 10
167.4301570252802
 20
149.6296527329861
 30
0.0
 11
167.4170415291992
 21
149.6241806504886
 31
0.0
  0
LINE
  5
3CC
330
E3
100
AcDbEntity
  8
0
  6
Continuous
100
AcDbLine
 10
167.4170415291992
 20
149.6241806504886
 30
0.0
 11
167.4003490796416
 21
149.6187085679911
 31
0.0
  0
LINE
  5
3CD
330
E3
100
AcDbEntity
  8
0
  6
Continuous
100
AcDbLine
 10
167.4003490796416
 20
149.6187085679911
 30
0.0
 11
167.3802082062812
 21
149.6132392201675
 31
0.0
  0
LINE
  5
3CE
330
E3
100
AcDbEntity
  8
0
  6
Continuous
100
AcDbLine
 10
167.3802082062812
 20
149.6132392201675
 30
0.0
 11
167.3567693161831
 21
149.6077671376699
 31
0.0
  0
LINE
  5
3CF
330
E3
100
AcDbEntity
  8
0
  6
Continuous
100
AcDbLine
 10
167.3567693161831
 20
149.6077671376699
 30
0.0
 11
167.3302156324995
 21
149.6022950551724
 31
0.0
  0
LINE
  5
3D0
330
E3
100
AcDbEntity
  8
0
  6
Continuous
100
AcDbLine
 10
167.3302156324995
 20
149.6022950551724
 30
0.0
 11
167.300746786426
 21
149.5968229726749
 31
0.0
  0
LINE
  5
3D1
330
E3
100
AcDbEntity
  8
0
  6
Continuous
100
AcDbLine
 10
167.300746786426
 20
149.5968229726749
 30
0.0
 11
167.2685870212232
 21
149.5913536248513
 31
0.0
  0
LINE
  5
3D2
330
E3
100
AcDbEntity
  8
0
  6
Continuous
100
AcDbLine
 10
167.2685870212232
 20
149.5913536248513
 30
0.0
 11
167.2339824575433
 21
149.5858815423538
 31
0.0
  0
LINE
  5
3D3
330
E3
100
AcDbEntity
  8
0
  6
Continuous
100
AcDbLine
 10
167.2339824575433
 20
149.5858815423538
 30
0.0
 11
167.1971956240818
 21
149.5804094598563
 31
0.0
  0
LINE
  5
3D4
330
E3
100
AcDbEntity
  8
0
  6
Continuous
100
AcDbLine
 10
167.1971956240818
 20
149.5804094598563
 30
0.0
 11
167.1585027229037
 21
149.5749373773588
 31
0.0
  0
LINE
  5
3D5
330
E3
100
AcDbEntity
  8
0
  6
Continuous
100
AcDbLine
 10
167.1585027229037
 20
149.5749373773588
 30
0.0
 11
167.1182045681394
 21
149.5694680295352
 31
0.0
  0
LINE
  5
3D6
330
E3
100
AcDbEntity
  8
0
  6
Continuous
100
AcDbLine
 10
167.1182045681394
 20
149.5694680295352
 30
0.0
 11
167.0766047085932
 21
149.5639959470377
 31
0.0
  0
LINE
  5
3D7
330
E3
100
AcDbEntity
  8
0
  6
Continuous
100
AcDbLine
 10
167.0766047085932
 20
149.5639959470377
 30
0.0
 11
167.0340176317647
 21
149.5585238645401
 31
0.0
  0
LINE
  5
3D8
330
E3
100
AcDbEntity
  8
0
  6
Continuous
100
AcDbLine
 10
167.0340176317647
 20
149.5585238645401
 30
0.0
 11
166.9907714985235
 21
149.5530517820427
 31
0.0
  0
LINE
  5
3D9
330
E3
100
AcDbEntity
  8
0
  6
Continuous
100
AcDbLine
 10
166.9907714985235
 20
149.5530517820427
 30
0.0
 11
166.947194469739
 21
149.5475824342191
 31
0.0
  0
LINE
  5
3DA
330
E3
100
AcDbEntity
  8
0
  6
Continuous
100
AcDbLine
 10
166.947194469739
 20
149.5475824342191
 30
0.0
 11
166.9036174409544
 21
149.5421103517216
 31
0.0
  0
LINE
  5
3DB
330
E3
100
AcDbEntity
  8
0
  6
Continuous
100
AcDbLine
 10
166.9036174409544
 20
149.5421103517216
 30
0.0
 11
166.8603713077133
 21
149.536638269224
 31
0.0
  0
LINE
  5
3DC
330
E3
100
AcDbEntity
  8
0
  6
Continuous
100
AcDbLine
 10
166.8603713077133
 20
149.536638269224
 30
0.0
 11
166.8177842308848
 21
149.5311661867265
 31
0.0
  0
LINE
  5
3DD
330
E3
100
AcDbEntity
  8
0
  6
Continuous
100
AcDbLine
 10
166.8177842308848
 20
149.5311661867265
 30
0.0
 11
166.7761843713384
 21
149.5256968389029
 31
0.0
  0
LINE
  5
3DE
330
E3
100
AcDbEntity
  8
0
  6
Continuous
100
AcDbLine
 10
166.7761843713384
 20
149.5256968389029
 30
0.0
 11
166.7358862165742
 21
149.5202247564054
 31
0.0
  0
LINE
  5
3DF
330
E3
100
AcDbEntity
  8
0
  6
Continuous
100
AcDbLine
 10
166.7358862165742
 20
149.5202247564054
 30
0.0
 11
166.6971933153961
 21
149.5147526739079
 31
0.0
  0
LINE
  5
3E0
330
E3
100
AcDbEntity
  8
0
  6
Continuous
100
AcDbLine
 10
166.6971933153961
 20
149.5147526739079
 30
0.0
 11
166.6604064819346
 21
149.5092805914104
 31
0.0
  0
LINE
  5
3E1
330
E3
100
AcDbEntity
  8
0
  6
Continuous
100
AcDbLine
 10
166.6604064819346
 20
149.5092805914104
 30
0.0
 11
166.6258019182547
 21
149.5038112435868
 31
0.0
  0
LINE
  5
3E2
330
E3
100
AcDbEntity
  8
0
  6
Continuous
100
AcDbLine
 10
166.6258019182547
 20
149.5038112435868
 30
0.0
 11
166.5936421530519
 21
149.4983391610893
 31
0.0
  0
LINE
  5
3E3
330
E3
100
AcDbEntity
  8
0
  6
Continuous
100
AcDbLine
 10
166.5936421530519
 20
149.4983391610893
 30
0.0
 11
166.5641733069784
 21
149.4928670785918
 31
0.0
  0
LINE
  5
3E4
330
E3
100
AcDbEntity
  8
0
  6
Continuous
100
AcDbLine
 10
166.5641733069784
 20
149.4928670785918
 30
0.0
 11
166.5376196232948
 21
149.4873949960943
 31
0.0
  0
LINE
  5
3E5
330
E3
100
AcDbEntity
  8
0
  6
Continuous
100
AcDbLine
 10
166.5376196232948
 20
149.4873949960943
 30
0.0
 11
166.5141807331967
 21
149.4819256482707
 31
0.0
  0
LINE
  5
3E6
330
E3
100
AcDbEntity
  8
0
  6
Continuous
100
AcDbLine
 10
166.5141807331967
 20
149.4819256482707
 30
0.0
 11
166.4940398598364
 21
149.4764535657732
 31
0.0
  0
LINE
  5
3E7
330
E3
100
AcDbEntity
  8
0
  6
Continuous
100
AcDbLine
 10
166.4940398598364
 20
149.4764535657732
 30
0.0
 11
166.4773474102788
 21
149.4709814832756
 31
0.0
  0
LINE
  5
3E8
330
E3
100
AcDbEntity
  8
0
  6
Continuous
100
AcDbLine
 10
166.4773474102788
 20
149.4709814832756
 30
0.0
 11
166.4642319141977
 21
149.4655094007781
 31
0.0
  0
LINE
  5
3E9
330
E3
100
AcDbEntity
  8
0
  6
Continuous
100
AcDbLine
 10
166.4642319141977
 20
149.4655094007781
 30
0.0
 11
166.4547918198542
 21
149.4600400529546
 31
0.0
  0
LINE
  5
3EA
330
E3
100
AcDbEntity
  8
0
  6
Continuous
100
AcDbLine
 10
166.4547918198542
 20
149.4600400529546
 30
0.0
 11
166.4490970496664
 21
149.4545678372927
 31
0.0
  0
LINE
  5
3EB
330
E3
100
AcDbEntity
  8
0
  6
Continuous
100
AcDbLine
 10
166.4490970496664
 20
149.4545678372927
 30
0.0
 11
166.4471943987122
 21
149.4490964568213
 31
0.0
  0
LINE
  5
3EC
330
E3
100
AcDbEntity
  8
0
  6
Continuous
100
AcDbLine
 10
167.4471943987122
 20
149.2521267598516
 30
0.0
 11
167.4452917477581
 21
149.2466553793802
 31
0.0
  0
LINE
  5
3ED
330
E3
100
AcDbEntity
  8
0
  6
Continuous
100
AcDbLine
 10
167.4452917477581
 20
149.2466553793802
 30
0.0
 11
167.4395982752184
 21
149.2411839989088
 31
0.0
  0
LINE
  5
3EE
330
E3
100
AcDbEntity
  8
0
  6
Continuous
100
AcDbLine
 10
167.4395982752184
 20
149.2411839989088
 30
0.0
 11
167.4301570252802
 21
149.2357120172957
 31
0.0
  0
LINE
  5
3EF
330
E3
100
AcDbEntity
  8
0
  6
Continuous
100
AcDbLine
 10
167.4301570252802
 20
149.2357120172957
 30
0.0
 11
167.4170415291992
 21
149.2302399347982
 31
0.0
  0
LINE
  5
3F0
330
E3
100
AcDbEntity
  8
0
  6
Continuous
100
AcDbLine
 10
167.4170415291992
 20
149.2302399347982
 30
0.0
 11
167.4003490796416
 21
149.2247705869746
 31
0.0
  0
LINE
  5
3F1
330
E3
100
AcDbEntity
  8
0
  6
Continuous
100
AcDbLine
 10
167.4003490796416
 20
149.2247705869746
 30
0.0
 11
167.3802082062812
 21
149.2192985044771
 31
0.0
  0
LINE
  5
3F2
330
E3
100
AcDbEntity
  8
0
  6
Continuous
100
AcDbLine
 10
167.3802082062812
 20
149.2192985044771
 30
0.0
 11
167.3567693161831
 21
149.2138264219795
 31
0.0
  0
LINE
  5
3F3
330
E3
100
AcDbEntity
  8
0
  6
Continuous
100
AcDbLine
 10
167.3567693161831
 20
149.2138264219795
 30
0.0
 11
167.3302156324995
 21
149.208357074156
 31
0.0
  0
LINE
  5
3F4
330
E3
100
AcDbEntity
  8
0
  6
Continuous
100
AcDbLine
 10
167.3302156324995
 20
149.208357074156
 30
0.0
 11
167.300746786426
 21
149.2028849916584
 31
0.0
  0
LINE
  5
3F5
330
E3
100
AcDbEntity
  8
0
  6
Continuous
100
AcDbLine
 10
167.300746786426
 20
149.2028849916584
 30
0.0
 11
167.2685870212232
 21
149.1974129091609
 31
0.0
  0
LINE
  5
3F6
330
E3
100
AcDbEntity
  8
0
  6
Continuous
100
AcDbLine
 10
167.2685870212232
 20
149.1974129091609
 30
0.0
 11
167.2339824575433
 21
149.1919408266634
 31
0.0
  0
LINE
  5
3F7
330
E3
100
AcDbEntity
  8
0
  6
Continuous
100
AcDbLine
 10
167.2339824575433
 20
149.1919408266634
 30
0.0
 11
167.1971956240818
 21
149.1864714788398
 31
0.0
  0
LINE
  5
3F8
330
E3
100
AcDbEntity
  8
0
  6
Continuous
100
AcDbLine
 10
167.1971956240818
 20
149.1864714788398
 30
0.0
 11
167.1585027229037
 21
149.1809993963423
 31
0.0
  0
LINE
  5
3F9
330
E3
100
AcDbEntity
  8
0
  6
Continuous
100
AcDbLine
 10
167.1585027229037
 20
149.1809993963423
 30
0.0
 11
167.1182045681394
 21
149.1755273138448
 31
0.0
  0
LINE
  5
3FA
330
E3
100
AcDbEntity
  8
0
  6
Continuous
100
AcDbLine
 10
167.1182045681394
 20
149.1755273138448
 30
0.0
 11
167.0766047085932
 21
149.1700552313473
 31
0.0
  0
LINE
  5
3FB
330
E3
100
AcDbEntity
  8
0
  6
Continuous
100
AcDbLine
 10
167.0766047085932
 20
149.1700552313473
 30
0.0
 11
167.0340176317647
 21
149.1645858835237
 31
0.0
  0
LINE
  5
3FC
330
E3
100
AcDbEntity
  8
0
  6
Continuous
100
AcDbLine
 10
167.0340176317647
 20
149.1645858835237
 30
0.0
 11
166.9907714985235
 21
149.1591138010262
 31
0.0
  0
LINE
  5
3FD
330
E3
100
AcDbEntity
  8
0
  6
Continuous
100
AcDbLine
 10
166.9907714985235
 20
149.1591138010262
 30
0.0
 11
166.947194469739
 21
149.1536417185287
 31
0.0
  0
LINE
  5
3FE
330
E3
100
AcDbEntity
  8
0
  6
Continuous
100
AcDbLine
 10
166.947194469739
 20
149.1536417185287
 30
0.0
 11
166.9036174409544
 21
149.1481696360312
 31
0.0
  0
LINE
  5
3FF
330
E3
100
AcDbEntity
  8
0
  6
Continuous
100
AcDbLine
 10
166.9036174409544
 20
149.1481696360312
 30
0.0
 11
166.8603713077133
 21
149.1427002882075
 31
0.0
  0
LINE
  5
400
330
E3
100
AcDbEntity
  8
0
  6
Continuous
100
AcDbLine
 10
166.8603713077133
 20
149.1427002882075
 30
0.0
 11
166.8177842308848
 21
149.13722820571
 31
0.0
  0
LINE
  5
401
330
E3
100
AcDbEntity
  8
0
  6
Continuous
100
AcDbLine
 10
166.8177842308848
 20
149.13722820571
 30
0.0
 11
166.7761843713384
 21
149.1317561232125
 31
0.0
  0
LINE
  5
402
330
E3
100
AcDbEntity
  8
0
  6
Continuous
100
AcDbLine
 10
166.7761843713384
 20
149.1317561232125
 30
0.0
 11
166.7358862165742
 21
149.126284040715
 31
0.0
  0
LINE
  5
403
330
E3
100
AcDbEntity
  8
0
  6
Continuous
100
AcDbLine
 10
166.7358862165742
 20
149.126284040715
 30
0.0
 11
166.6971933153961
 21
149.1208146928914
 31
0.0
  0
LINE
  5
404
330
E3
100
AcDbEntity
  8
0
  6
Continuous
100
AcDbLine
 10
166.6971933153961
 20
149.1208146928914
 30
0.0
 11
166.6604064819346
 21
149.1153426103939
 31
0.0
  0
LINE
  5
405
330
E3
100
AcDbEntity
  8
0
  6
Continuous
100
AcDbLine
 10
166.6604064819346
 20
149.1153426103939
 30
0.0
 11
166.6258019182547
 21
149.1098705278964
 31
0.0
  0
LINE
  5
406
330
E3
100
AcDbEntity
  8
0
  6
Continuous
100
AcDbLine
 10
166.6258019182547
 20
149.1098705278964
 30
0.0
 11
166.5936421530519
 21
149.1043984453989
 31
0.0
  0
LINE
  5
407
330
E3
100
AcDbEntity
  8
0
  6
Continuous
100
AcDbLine
 10
166.5936421530519
 20
149.1043984453989
 30
0.0
 11
166.5641733069784
 21
149.0989290975753
 31
0.0
  0
LINE
  5
408
330
E3
100
AcDbEntity
  8
0
  6
Continuous
100
AcDbLine
 10
166.5641733069784
 20
149.0989290975753
 30
0.0
 11
166.5376196232948
 21
149.0934570150778
 31
0.0
  0
LINE
  5
409
330
E3
100
AcDbEntity
  8
0
  6
Continuous
100
AcDbLine
 10
166.5376196232948
 20
149.0934570150778
 30
0.0
 11
166.5141807331967
 21
149.0879849325802
 31
0.0
  0
LINE
  5
40A
330
E3
100
AcDbEntity
  8
0
  6
Continuous
100
AcDbLine
 10
166.5141807331967
 20
149.0879849325802
 30
0.0
 11
166.4940398598364
 21
149.0825128500828
 31
0.0
  0
LINE
  5
40B
330
E3
100
AcDbEntity
  8
0
  6
Continuous
100
AcDbLine
 10
166.4940398598364
 20
149.0825128500828
 30
0.0
 11
166.4773474102788
 21
149.0770435022591
 31
0.0
  0
LINE
  5
40C
330
E3
100
AcDbEntity
  8
0
  6
Continuous
100
AcDbLine
 10
166.4773474102788
 20
149.0770435022591
 30
0.0
 11
166.4642319141977
 21
149.0715714197616
 31
0.0
  0
LINE
  5
40D
330
E3
100
AcDbEntity
  8
0
  6
Continuous
100
AcDbLine
 10
166.4642319141977
 20
149.0715714197616
 30
0.0
 11
166.4547918198542
 21
149.0660993372641
 31
0.0
  0
LINE
  5
40E
330
E3
100
AcDbEntity
  8
0
  6
Continuous
100
AcDbLine
 10
166.4547918198542
 20
149.0660993372641
 30
0.0
 11
166.4490970496664
 21
149.0606284433533
 31
0.0
  0
LINE
  5
40F
330
E3
100
AcDbEntity
  8
0
  6
Continuous
100
AcDbLine
 10
166.4490970496664
 20
149.0606284433533
 30
0.0
 11
166.4471943987122
 21
149.0551570628819
 31
0.0
  0
LINE
  5
410
330
E3
100
AcDbEntity
  8
0
  6
Continuous
100
AcDbLine
 10
167.4471943987122
 20
148.8581873659122
 30
0.0
 11
167.4452917477581
 21
148.8527159854408
 31
0.0
  0
LINE
  5
411
330
E3
100
AcDbEntity
  8
0
  6
Continuous
100
AcDbLine
 10
167.4452917477581
 20
148.8527159854408
 30
0.0
 11
167.4395982752183
 21
148.8472446049695
 31
0.0
  0
LINE
  5
412
330
E3
100
AcDbEntity
  8
0
  6
Continuous
100
AcDbLine
 10
167.4395982752183
 20
148.8472446049695
 30
0.0
 11
167.4301570252802
 21
148.8417740362792
 31
0.0
  0
LINE
  5
413
330
E3
100
AcDbEntity
  8
0
  6
Continuous
100
AcDbLine
 10
167.4301570252802
 20
148.8417740362792
 30
0.0
 11
167.4170415291992
 21
148.8363019537817
 31
0.0
  0
LINE
  5
414
330
E3
100
AcDbEntity
  8
0
  6
Continuous
100
AcDbLine
 10
167.4170415291992
 20
148.8363019537817
 30
0.0
 11
167.4003490796416
 21
148.8308298712842
 31
0.0
  0
LINE
  5
415
330
E3
100
AcDbEntity
  8
0
  6
Continuous
100
AcDbLine
 10
167.4003490796416
 20
148.8308298712842
 30
0.0
 11
167.3802082062812
 21
148.8253577887867
 31
0.0
  0
LINE
  5
416
330
E3
100
AcDbEntity
  8
0
  6
Continuous
100
AcDbLine
 10
167.3802082062812
 20
148.8253577887867
 30
0.0
 11
167.3567693161831
 21
148.819888440963
 31
0.0
  0
LINE
  5
417
330
E3
100
AcDbEntity
  8
0
  6
Continuous
100
AcDbLine
 10
167.3567693161831
 20
148.819888440963
 30
0.0
 11
167.3302156324995
 21
148.8144163584655
 31
0.0
  0
LINE
  5
418
330
E3
100
AcDbEntity
  8
0
  6
Continuous
100
AcDbLine
 10
167.3302156324995
 20
148.8144163584655
 30
0.0
 11
167.300746786426
 21
148.808944275968
 31
0.0
  0
LINE
  5
419
330
E3
100
AcDbEntity
  8
0
  6
Continuous
100
AcDbLine
 10
167.300746786426
 20
148.808944275968
 30
0.0
 11
167.2685870212232
 21
148.8034749281445
 31
0.0
  0
LINE
  5
41A
330
E3
100
AcDbEntity
  8
0
  6
Continuous
100
AcDbLine
 10
167.2685870212232
 20
148.8034749281445
 30
0.0
 11
167.2339824575433
 21
148.7980028456469
 31
0.0
  0
LINE
  5
41B
330
E3
100
AcDbEntity
  8
0
  6
Continuous
100
AcDbLine
 10
167.2339824575433
 20
148.7980028456469
 30
0.0
 11
167.1971956240818
 21
148.7925307631494
 31
0.0
  0
LINE
  5
41C
330
E3
100
AcDbEntity
  8
0
  6
Continuous
100
AcDbLine
 10
167.1971956240818
 20
148.7925307631494
 30
0.0
 11
167.1585027229037
 21
148.7870586806519
 31
0.0
  0
LINE
  5
41D
330
E3
100
AcDbEntity
  8
0
  6
Continuous
100
AcDbLine
 10
167.1585027229037
 20
148.7870586806519
 30
0.0
 11
167.1182045681394
 21
148.7815893328283
 31
0.0
  0
LINE
  5
41E
330
E3
100
AcDbEntity
  8
0
  6
Continuous
100
AcDbLine
 10
167.1182045681394
 20
148.7815893328283
 30
0.0
 11
167.0766047085932
 21
148.7761172503308
 31
0.0
  0
LINE
  5
41F
330
E3
100
AcDbEntity
  8
0
  6
Continuous
100
AcDbLine
 10
167.0766047085932
 20
148.7761172503308
 30
0.0
 11
167.0340176317647
 21
148.7706451678333
 31
0.0
  0
LINE
  5
420
330
E3
100
AcDbEntity
  8
0
  6
Continuous
100
AcDbLine
 10
167.0340176317647
 20
148.7706451678333
 30
0.0
 11
166.9907714985235
 21
148.7651730853358
 31
0.0
  0
LINE
  5
421
330
E3
100
AcDbEntity
  8
0
  6
Continuous
100
AcDbLine
 10
166.9907714985235
 20
148.7651730853358
 30
0.0
 11
166.947194469739
 21
148.7597037375122
 31
0.0
  0
LINE
  5
422
330
E3
100
AcDbEntity
  8
0
  6
Continuous
100
AcDbLine
 10
166.947194469739
 20
148.7597037375122
 30
0.0
 11
166.9036174409544
 21
148.7542316550147
 31
0.0
  0
LINE
  5
423
330
E3
100
AcDbEntity
  8
0
  6
Continuous
100
AcDbLine
 10
166.9036174409544
 20
148.7542316550147
 30
0.0
 11
166.8603713077133
 21
148.7487595725171
 31
0.0
  0
LINE
  5
424
330
E3
100
AcDbEntity
  8
0
  6
Continuous
100
AcDbLine
 10
166.8603713077133
 20
148.7487595725171
 30
0.0
 11
166.8177842308848
 21
148.7432874900196
 31
0.0
  0
LINE
  5
425
330
E3
100
AcDbEntity
  8
0
  6
Continuous
100
AcDbLine
 10
166.8177842308848
 20
148.7432874900196
 30
0.0
 11
166.7761843713384
 21
148.7378181421961
 31
0.0
  0
LINE
  5
426
330
E3
100
AcDbEntity
  8
0
  6
Continuous
100
AcDbLine
 10
166.7761843713384
 20
148.7378181421961
 30
0.0
 11
166.7358862165742
 21
148.7323460596985
 31
0.0
  0
LINE
  5
427
330
E3
100
AcDbEntity
  8
0
  6
Continuous
100
AcDbLine
 10
166.7358862165742
 20
148.7323460596985
 30
0.0
 11
166.6971933153961
 21
148.726873977201
 31
0.0
  0
LINE
  5
428
330
E3
100
AcDbEntity
  8
0
  6
Continuous
100
AcDbLine
 10
166.6971933153961
 20
148.726873977201
 30
0.0
 11
166.6604064819346
 21
148.7214018947035
 31
0.0
  0
LINE
  5
429
330
E3
100
AcDbEntity
  8
0
  6
Continuous
100
AcDbLine
 10
166.6604064819346
 20
148.7214018947035
 30
0.0
 11
166.6258019182547
 21
148.7159325468799
 31
0.0
  0
LINE
  5
42A
330
E3
100
AcDbEntity
  8
0
  6
Continuous
100
AcDbLine
 10
166.6258019182547
 20
148.7159325468799
 30
0.0
 11
166.5936421530519
 21
148.7104604643824
 31
0.0
  0
LINE
  5
42B
330
E3
100
AcDbEntity
  8
0
  6
Continuous
100
AcDbLine
 10
166.5936421530519
 20
148.7104604643824
 30
0.0
 11
166.5641733069784
 21
148.7049883818849
 31
0.0
  0
LINE
  5
42C
330
E3
100
AcDbEntity
  8
0
  6
Continuous
100
AcDbLine
 10
166.5641733069784
 20
148.7049883818849
 30
0.0
 11
166.5376196232948
 21
148.6995162993874
 31
0.0
  0
LINE
  5
42D
330
E3
100
AcDbEntity
  8
0
  6
Continuous
100
AcDbLine
 10
166.5376196232948
 20
148.6995162993874
 30
0.0
 11
166.5141807331967
 21
148.6940469515638
 31
0.0
  0
LINE
  5
42E
330
E3
100
AcDbEntity
  8
0
  6
Continuous
100
AcDbLine
 10
166.5141807331967
 20
148.6940469515638
 30
0.0
 11
166.4940398598364
 21
148.6885748690662
 31
0.0
  0
LINE
  5
42F
330
E3
100
AcDbEntity
  8
0
  6
Continuous
100
AcDbLine
 10
166.4940398598364
 20
148.6885748690662
 30
0.0
 11
166.4773474102788
 21
148.6831027865687
 31
0.0
  0
LINE
  5
430
330
E3
100
AcDbEntity
  8
0
  6
Continuous
100
AcDbLine
 10
166.4773474102788
 20
148.6831027865687
 30
0.0
 11
166.4642319141977
 21
148.6776307040712
 31
0.0
  0
LINE
  5
431
330
E3
100
AcDbEntity
  8
0
  6
Continuous
100
AcDbLine
 10
166.4642319141977
 20
148.6776307040712
 30
0.0
 11
166.4547918198542
 21
148.6721613562476
 31
0.0
  0
LINE
  5
432
330
E3
100
AcDbEntity
  8
0
  6
Continuous
100
AcDbLine
 10
166.4547918198542
 20
148.6721613562476
 30
0.0
 11
166.4490970496664
 21
148.6666890494139
 31
0.0
  0
LINE
  5
433
330
E3
100
AcDbEntity
  8
0
  6
Continuous
100
AcDbLine
 10
166.4490970496664
 20
148.6666890494139
 30
0.0
 11
166.4471943987122
 21
148.6612176689425
 31
0.0
  0
LINE
  5
434
330
E3
100
AcDbEntity
  8
0
  6
Continuous
100
AcDbLine
 10
167.4471943987122
 20
148.4642479719728
 30
0.0
 11
167.4452917477581
 21
148.4587765915014
 31
0.0
  0
LINE
  5
435
330
E3
100
AcDbEntity
  8
0
  6
Continuous
100
AcDbLine
 10
167.4452917477581
 20
148.4587765915014
 30
0.0
 11
167.4395982752183
 21
148.4533052110301
 31
0.0
  0
LINE
  5
436
330
E3
100
AcDbEntity
  8
0
  6
Continuous
100
AcDbLine
 10
167.4395982752183
 20
148.4533052110301
 30
0.0
 11
167.4301570252802
 21
148.4478333205888
 31
0.0
  0
LINE
  5
437
330
E3
100
AcDbEntity
  8
0
  6
Continuous
100
AcDbLine
 10
167.4301570252802
 20
148.4478333205888
 30
0.0
 11
167.4170415291992
 21
148.4423612380913
 31
0.0
  0
LINE
  5
438
330
E3
100
AcDbEntity
  8
0
  6
Continuous
100
AcDbLine
 10
167.4170415291992
 20
148.4423612380913
 30
0.0
 11
167.4003490796416
 21
148.4368918902676
 31
0.0
  0
LINE
  5
439
330
E3
100
AcDbEntity
  8
0
  6
Continuous
100
AcDbLine
 10
167.4003490796416
 20
148.4368918902676
 30
0.0
 11
167.3802082062812
 21
148.4314198077702
 31
0.0
  0
LINE
  5
43A
330
E3
100
AcDbEntity
  8
0
  6
Continuous
100
AcDbLine
 10
167.3802082062812
 20
148.4314198077702
 30
0.0
 11
167.3567693161831
 21
148.4259477252727
 31
0.0
  0
LINE
  5
43B
330
E3
100
AcDbEntity
  8
0
  6
Continuous
100
AcDbLine
 10
167.3567693161831
 20
148.4259477252727
 30
0.0
 11
167.3302156324995
 21
148.4204756427751
 31
0.0
  0
LINE
  5
43C
330
E3
100
AcDbEntity
  8
0
  6
Continuous
100
AcDbLine
 10
167.3302156324995
 20
148.4204756427751
 30
0.0
 11
167.300746786426
 21
148.4150062949515
 31
0.0
  0
LINE
  5
43D
330
E3
100
AcDbEntity
  8
0
  6
Continuous
100
AcDbLine
 10
167.300746786426
 20
148.4150062949515
 30
0.0
 11
167.2685870212232
 21
148.409534212454
 31
0.0
  0
LINE
  5
43E
330
E3
100
AcDbEntity
  8
0
  6
Continuous
100
AcDbLine
 10
167.2685870212232
 20
148.409534212454
 30
0.0
 11
167.2339824575433
 21
148.4040621299565
 31
0.0
  0
LINE
  5
43F
330
E3
100
AcDbEntity
  8
0
  6
Continuous
100
AcDbLine
 10
167.2339824575433
 20
148.4040621299565
 30
0.0
 11
167.1971956240818
 21
148.398590047459
 31
0.0
  0
LINE
  5
440
330
E3
100
AcDbEntity
  8
0
  6
Continuous
100
AcDbLine
 10
167.1971956240818
 20
148.398590047459
 30
0.0
 11
167.1585027229037
 21
148.3931206996354
 31
0.0
  0
LINE
  5
441
330
E3
100
AcDbEntity
  8
0
  6
Continuous
100
AcDbLine
 10
167.1585027229037
 20
148.3931206996354
 30
0.0
 11
167.1182045681394
 21
148.3876486171379
 31
0.0
  0
LINE
  5
442
330
E3
100
AcDbEntity
  8
0
  6
Continuous
100
AcDbLine
 10
167.1182045681394
 20
148.3876486171379
 30
0.0
 11
167.0766047085932
 21
148.3821765346404
 31
0.0
  0
LINE
  5
443
330
E3
100
AcDbEntity
  8
0
  6
Continuous
100
AcDbLine
 10
167.0766047085932
 20
148.3821765346404
 30
0.0
 11
167.0340176317647
 21
148.3767071868168
 31
0.0
  0
LINE
  5
444
330
E3
100
AcDbEntity
  8
0
  6
Continuous
100
AcDbLine
 10
167.0340176317647
 20
148.3767071868168
 30
0.0
 11
166.9907714985235
 21
148.3712351043193
 31
0.0
  0
LINE
  5
445
330
E3
100
AcDbEntity
  8
0
  6
Continuous
100
AcDbLine
 10
166.9907714985235
 20
148.3712351043193
 30
0.0
 11
166.947194469739
 21
148.3657630218217
 31
0.0
  0
LINE
  5
446
330
E3
100
AcDbEntity
  8
0
  6
Continuous
100
AcDbLine
 10
166.947194469739
 20
148.3657630218217
 30
0.0
 11
166.9036174409544
 21
148.3602909393242
 31
0.0
  0
LINE
  5
447
330
E3
100
AcDbEntity
  8
0
  6
Continuous
100
AcDbLine
 10
166.9036174409544
 20
148.3602909393242
 30
0.0
 11
166.8603713077133
 21
148.3548215915006
 31
0.0
  0
LINE
  5
448
330
E3
100
AcDbEntity
  8
0
  6
Continuous
100
AcDbLine
 10
166.8603713077133
 20
148.3548215915006
 30
0.0
 11
166.8177842308848
 21
148.3493495090031
 31
0.0
  0
LINE
  5
449
330
E3
100
AcDbEntity
  8
0
  6
Continuous
100
AcDbLine
 10
166.8177842308848
 20
148.3493495090031
 30
0.0
 11
166.7761843713384
 21
148.3438774265056
 31
0.0
  0
LINE
  5
44A
330
E3
100
AcDbEntity
  8
0
  6
Continuous
100
AcDbLine
 10
166.7761843713384
 20
148.3438774265056
 30
0.0
 11
166.7358862165742
 21
148.3384053440081
 31
0.0
  0
LINE
  5
44B
330
E3
100
AcDbEntity
  8
0
  6
Continuous
100
AcDbLine
 10
166.7358862165742
 20
148.3384053440081
 30
0.0
 11
166.6971933153961
 21
148.3329359961845
 31
0.0
  0
LINE
  5
44C
330
E3
100
AcDbEntity
  8
0
  6
Continuous
100
AcDbLine
 10
166.6971933153961
 20
148.3329359961845
 30
0.0
 11
166.6604064819346
 21
148.327463913687
 31
0.0
  0
LINE
  5
44D
330
E3
100
AcDbEntity
  8
0
  6
Continuous
100
AcDbLine
 10
166.6604064819346
 20
148.327463913687
 30
0.0
 11
166.6258019182547
 21
148.3219918311895
 31
0.0
  0
LINE
  5
44E
330
E3
100
AcDbEntity
  8
0
  6
Continuous
100
AcDbLine
 10
166.6258019182547
 20
148.3219918311895
 30
0.0
 11
166.5936421530519
 21
148.316519748692
 31
0.0
  0
LINE
  5
44F
330
E3
100
AcDbEntity
  8
0
  6
Continuous
100
AcDbLine
 10
166.5936421530519
 20
148.316519748692
 30
0.0
 11
166.5641733069784
 21
148.3110504008684
 31
0.0
  0
LINE
  5
450
330
E3
100
AcDbEntity
  8
0
  6
Continuous
100
AcDbLine
 10
166.5641733069784
 20
148.3110504008684
 30
0.0
 11
166.5376196232948
 21
148.3055783183709
 31
0.0
  0
LINE
  5
451
330
E3
100
AcDbEntity
  8
0
  6
Continuous
100
AcDbLine
 10
166.5376196232948
 20
148.3055783183709
 30
0.0
 11
166.5141807331967
 21
148.3001062358734
 31
0.0
  0
LINE
  5
452
330
E3
100
AcDbEntity
  8
0
  6
Continuous
100
AcDbLine
 10
166.5141807331967
 20
148.3001062358734
 30
0.0
 11
166.4940398598364
 21
148.2946341533759
 31
0.0
  0
LINE
  5
453
330
E3
100
AcDbEntity
  8
0
  6
Continuous
100
AcDbLine
 10
166.4940398598364
 20
148.2946341533759
 30
0.0
 11
166.4773474102788
 21
148.2891648055523
 31
0.0
  0
LINE
  5
454
330
E3
100
AcDbEntity
  8
0
  6
Continuous
100
AcDbLine
 10
166.4773474102788
 20
148.2891648055523
 30
0.0
 11
166.4642319141977
 21
148.2836927230547
 31
0.0
  0
LINE
  5
455
330
E3
100
AcDbEntity
  8
0
  6
Continuous
100
AcDbLine
 10
166.4642319141977
 20
148.2836927230547
 30
0.0
 11
166.4547918198542
 21
148.2782206405572
 31
0.0
  0
LINE
  5
456
330
E3
100
AcDbEntity
  8
0
  6
Continuous
100
AcDbLine
 10
166.4547918198542
 20
148.2782206405572
 30
0.0
 11
166.4490970496664
 21
148.2727496554745
 31
0.0
  0
LINE
  5
457
330
E3
100
AcDbEntity
  8
0
  6
Continuous
100
AcDbLine
 10
166.4490970496664
 20
148.2727496554745
 30
0.0
 11
166.4471943987122
 21
148.2672782750031
 31
0.0
  0
LINE
  5
458
330
E3
100
AcDbEntity
  8
0
  6
Continuous
100
AcDbLine
 10
167.4471943987122
 20
148.0703085780334
 30
0.0
 11
167.4452917477581
 21
148.064837197562
 31
0.0
  0
LINE
  5
459
330
E3
100
AcDbEntity
  8
0
  6
Continuous
100
AcDbLine
 10
167.4452917477581
 20
148.064837197562
 30
0.0
 11
167.4395982752183
 21
148.0593658170907
 31
0.0
  0
LINE
  5
45A
330
E3
100
AcDbEntity
  8
0
  6
Continuous
100
AcDbLine
 10
167.4395982752183
 20
148.0593658170907
 30
0.0
 11
167.4301570252802
 21
148.0538953395723
 31
0.0
  0
LINE
  5
45B
330
E3
100
AcDbEntity
  8
0
  6
Continuous
100
AcDbLine
 10
167.4301570252802
 20
148.0538953395723
 30
0.0
 11
167.4170415291992
 21
148.0484232570748
 31
0.0
  0
LINE
  5
45C
330
E3
100
AcDbEntity
  8
0
  6
Continuous
100
AcDbLine
 10
167.4170415291992
 20
148.0484232570748
 30
0.0
 11
167.4003490796416
 21
148.0429511745773
 31
0.0
  0
LINE
  5
45D
330
E3
100
AcDbEntity
  8
0
  6
Continuous
100
AcDbLine
 10
167.4003490796416
 20
148.0429511745773
 30
0.0
 11
167.3802082062812
 21
148.0374790920798
 31
0.0
  0
LINE
  5
45E
330
E3
100
AcDbEntity
  8
0
  6
Continuous
100
AcDbLine
 10
167.3802082062812
 20
148.0374790920798
 30
0.0
 11
167.3567693161831
 21
148.0320097442562
 31
0.0
  0
LINE
  5
45F
330
E3
100
AcDbEntity
  8
0
  6
Continuous
100
AcDbLine
 10
167.3567693161831
 20
148.0320097442562
 30
0.0
 11
167.3302156324995
 21
148.0265376617587
 31
0.0
  0
LINE
  5
460
330
E3
100
AcDbEntity
  8
0
  6
Continuous
100
AcDbLine
 10
167.3302156324995
 20
148.0265376617587
 30
0.0
 11
167.300746786426
 21
148.0210655792611
 31
0.0
  0
LINE
  5
461
330
E3
100
AcDbEntity
  8
0
  6
Continuous
100
AcDbLine
 10
167.300746786426
 20
148.0210655792611
 30
0.0
 11
167.2685870212232
 21
148.0155934967636
 31
0.0
  0
LINE
  5
462
330
E3
100
AcDbEntity
  8
0
  6
Continuous
100
AcDbLine
 10
167.2685870212232
 20
148.0155934967636
 30
0.0
 11
167.2339824575433
 21
148.01012414894
 31
0.0
  0
LINE
  5
463
330
E3
100
AcDbEntity
  8
0
  6
Continuous
100
AcDbLine
 10
167.2339824575433
 20
148.01012414894
 30
0.0
 11
167.1971956240818
 21
148.0046520664425
 31
0.0
  0
LINE
  5
464
330
E3
100
AcDbEntity
  8
0
  6
Continuous
100
AcDbLine
 10
167.1971956240818
 20
148.0046520664425
 30
0.0
 11
167.1585027229037
 21
147.999179983945
 31
0.0
  0
LINE
  5
465
330
E3
100
AcDbEntity
  8
0
  6
Continuous
100
AcDbLine
 10
167.1585027229037
 20
147.999179983945
 30
0.0
 11
167.1182045681394
 21
147.9937079014475
 31
0.0
  0
LINE
  5
466
330
E3
100
AcDbEntity
  8
0
  6
Continuous
100
AcDbLine
 10
167.1182045681394
 20
147.9937079014475
 30
0.0
 11
167.0766047085932
 21
147.9882385536239
 31
0.0
  0
LINE
  5
467
330
E3
100
AcDbEntity
  8
0
  6
Continuous
100
AcDbLine
 10
167.0766047085932
 20
147.9882385536239
 30
0.0
 11
167.0340176317647
 21
147.9827664711264
 31
0.0
  0
LINE
  5
468
330
E3
100
AcDbEntity
  8
0
  6
Continuous
100
AcDbLine
 10
167.0340176317647
 20
147.9827664711264
 30
0.0
 11
166.9907714985235
 21
147.9772943886289
 31
0.0
  0
LINE
  5
469
330
E3
100
AcDbEntity
  8
0
  6
Continuous
100
AcDbLine
 10
166.9907714985235
 20
147.9772943886289
 30
0.0
 11
166.947194469739
 21
147.9718250408052
 31
0.0
  0
LINE
  5
46A
330
E3
100
AcDbEntity
  8
0
  6
Continuous
100
AcDbLine
 10
166.947194469739
 20
147.9718250408052
 30
0.0
 11
166.9036174409544
 21
147.9663529583077
 31
0.0
  0
LINE
  5
46B
330
E3
100
AcDbEntity
  8
0
  6
Continuous
100
AcDbLine
 10
166.9036174409544
 20
147.9663529583077
 30
0.0
 11
166.8603713077133
 21
147.9608808758102
 31
0.0
  0
LINE
  5
46C
330
E3
100
AcDbEntity
  8
0
  6
Continuous
100
AcDbLine
 10
166.8603713077133
 20
147.9608808758102
 30
0.0
 11
166.8177842308848
 21
147.9554087933127
 31
0.0
  0
LINE
  5
46D
330
E3
100
AcDbEntity
  8
0
  6
Continuous
100
AcDbLine
 10
166.8177842308848
 20
147.9554087933127
 30
0.0
 11
166.7761843713384
 21
147.9499394454891
 31
0.0
  0
LINE
  5
46E
330
E3
100
AcDbEntity
  8
0
  6
Continuous
100
AcDbLine
 10
166.7761843713384
 20
147.9499394454891
 30
0.0
 11
166.7358862165742
 21
147.9444673629916
 31
0.0
  0
LINE
  5
46F
330
E3
100
AcDbEntity
  8
0
  6
Continuous
100
AcDbLine
 10
166.7358862165742
 20
147.9444673629916
 30
0.0
 11
166.6971933153961
 21
147.9389952804941
 31
0.0
  0
LINE
  5
470
330
E3
100
AcDbEntity
  8
0
  6
Continuous
100
AcDbLine
 10
166.6971933153961
 20
147.9389952804941
 30
0.0
 11
166.6604064819346
 21
147.9335231979966
 31
0.0
  0
LINE
  5
471
330
E3
100
AcDbEntity
  8
0
  6
Continuous
100
AcDbLine
 10
166.6604064819346
 20
147.9335231979966
 30
0.0
 11
166.6258019182547
 21
147.928053850173
 31
0.0
  0
LINE
  5
472
330
E3
100
AcDbEntity
  8
0
  6
Continuous
100
AcDbLine
 10
166.6258019182547
 20
147.928053850173
 30
0.0
 11
166.5936421530519
 21
147.9225817676755
 31
0.0
  0
LINE
  5
473
330
E3
100
AcDbEntity
  8
0
  6
Continuous
100
AcDbLine
 10
166.5936421530519
 20
147.9225817676755
 30
0.0
 11
166.5641733069784
 21
147.917109685178
 31
0.0
  0
LINE
  5
474
330
E3
100
AcDbEntity
  8
0
  6
Continuous
100
AcDbLine
 10
166.5641733069784
 20
147.917109685178
 30
0.0
 11
166.5376196232948
 21
147.9116376026805
 31
0.0
  0
LINE
  5
475
330
E3
100
AcDbEntity
  8
0
  6
Continuous
100
AcDbLine
 10
166.5376196232948
 20
147.9116376026805
 30
0.0
 11
166.5141807331967
 21
147.9061682548569
 31
0.0
  0
LINE
  5
476
330
E3
100
AcDbEntity
  8
0
  6
Continuous
100
AcDbLine
 10
166.5141807331967
 20
147.9061682548569
 30
0.0
 11
166.4940398598364
 21
147.9006961723593
 31
0.0
  0
LINE
  5
477
330
E3
100
AcDbEntity
  8
0
  6
Continuous
100
AcDbLine
 10
166.4940398598364
 20
147.9006961723593
 30
0.0
 11
166.4773474102788
 21
147.8952240898618
 31
0.0
  0
LINE
  5
478
330
E3
100
AcDbEntity
  8
0
  6
Continuous
100
AcDbLine
 10
166.4773474102788
 20
147.8952240898618
 30
0.0
 11
166.4642319141977
 21
147.8897520073643
 31
0.0
  0
LINE
  5
479
330
E3
100
AcDbEntity
  8
0
  6
Continuous
100
AcDbLine
 10
166.4642319141977
 20
147.8897520073643
 30
0.0
 11
166.4547918198542
 21
147.8842826595407
 31
0.0
  0
LINE
  5
47A
330
E3
100
AcDbEntity
  8
0
  6
Continuous
100
AcDbLine
 10
166.4547918198542
 20
147.8842826595407
 30
0.0
 11
166.4490970496664
 21
147.8788102615351
 31
0.0
  0
LINE
  5
47B
330
E3
100
AcDbEntity
  8
0
  6
Continuous
100
AcDbLine
 10
166.4490970496664
 20
147.8788102615351
 30
0.0
 11
166.4471943987122
 21
147.8733388810637
 31
0.0
  0
LINE
  5
47C
330
E3
100
AcDbEntity
  8
0
  6
Continuous
100
AcDbLine
 10
167.4471943987122
 20
147.676369184094
 30
0.0
 11
167.4452917477581
 21
147.6708978036226
 31
0.0
  0
LINE
  5
47D
330
E3
100
AcDbEntity
  8
0
  6
Continuous
100
AcDbLine
 10
167.4452917477581
 20
147.6708978036226
 30
0.0
 11
167.4395982752183
 21
147.6654264231512
 31
0.0
  0
LINE
  5
47E
330
E3
100
AcDbEntity
  8
0
  6
Continuous
100
AcDbLine
 10
167.4395982752183
 20
147.6654264231512
 30
0.0
 11
167.4301570252802
 21
147.6599546238819
 31
0.0
  0
LINE
  5
47F
330
E3
100
AcDbEntity
  8
0
  6
Continuous
100
AcDbLine
 10
167.4301570252802
 20
147.6599546238819
 30
0.0
 11
167.4170415291992
 21
147.6544825413844
 31
0.0
  0
LINE
  5
480
330
E3
100
AcDbEntity
  8
0
  6
Continuous
100
AcDbLine
 10
167.4170415291992
 20
147.6544825413844
 30
0.0
 11
167.4003490796416
 21
147.6490131935608
 31
0.0
  0
LINE
  5
481
330
E3
100
AcDbEntity
  8
0
  6
Continuous
100
AcDbLine
 10
167.4003490796416
 20
147.6490131935608
 30
0.0
 11
167.3802082062812
 21
147.6435411110633
 31
0.0
  0
LINE
  5
482
330
E3
100
AcDbEntity
  8
0
  6
Continuous
100
AcDbLine
 10
167.3802082062812
 20
147.6435411110633
 30
0.0
 11
167.3567693161831
 21
147.6380690285658
 31
0.0
  0
LINE
  5
483
330
E3
100
AcDbEntity
  8
0
  6
Continuous
100
AcDbLine
 10
167.3567693161831
 20
147.6380690285658
 30
0.0
 11
167.3302156324995
 21
147.6325969460682
 31
0.0
  0
LINE
  5
484
330
E3
100
AcDbEntity
  8
0
  6
Continuous
100
AcDbLine
 10
167.3302156324995
 20
147.6325969460682
 30
0.0
 11
167.300746786426
 21
147.6271275982446
 31
0.0
  0
LINE
  5
485
330
E3
100
AcDbEntity
  8
0
  6
Continuous
100
AcDbLine
 10
167.300746786426
 20
147.6271275982446
 30
0.0
 11
167.2685870212232
 21
147.6216555157471
 31
0.0
  0
LINE
  5
486
330
E3
100
AcDbEntity
  8
0
  6
Continuous
100
AcDbLine
 10
167.2685870212232
 20
147.6216555157471
 30
0.0
 11
167.2339824575433
 21
147.6161834332496
 31
0.0
  0
LINE
  5
487
330
E3
100
AcDbEntity
  8
0
  6
Continuous
100
AcDbLine
 10
167.2339824575433
 20
147.6161834332496
 30
0.0
 11
167.1971956240818
 21
147.6107113507521
 31
0.0
  0
LINE
  5
488
330
E3
100
AcDbEntity
  8
0
  6
Continuous
100
AcDbLine
 10
167.1971956240818
 20
147.6107113507521
 30
0.0
 11
167.1585027229037
 21
147.6052420029285
 31
0.0
  0
LINE
  5
489
330
E3
100
AcDbEntity
  8
0
  6
Continuous
100
AcDbLine
 10
167.1585027229037
 20
147.6052420029285
 30
0.0
 11
167.1182045681394
 21
147.599769920431
 31
0.0
  0
LINE
  5
48A
330
E3
100
AcDbEntity
  8
0
  6
Continuous
100
AcDbLine
 10
167.1182045681394
 20
147.599769920431
 30
0.0
 11
167.0766047085932
 21
147.5942978379335
 31
0.0
  0
LINE
  5
48B
330
E3
100
AcDbEntity
  8
0
  6
Continuous
100
AcDbLine
 10
167.0766047085932
 20
147.5942978379335
 30
0.0
 11
167.0340176317647
 21
147.588825755436
 31
0.0
  0
LINE
  5
48C
330
E3
100
AcDbEntity
  8
0
  6
Continuous
100
AcDbLine
 10
167.0340176317647
 20
147.588825755436
 30
0.0
 11
166.9907714985235
 21
147.5833564076124
 31
0.0
  0
LINE
  5
48D
330
E3
100
AcDbEntity
  8
0
  6
Continuous
100
AcDbLine
 10
166.9907714985235
 20
147.5833564076124
 30
0.0
 11
166.947194469739
 21
147.5778843251149
 31
0.0
  0
LINE
  5
48E
330
E3
100
AcDbEntity
  8
0
  6
Continuous
100
AcDbLine
 10
166.947194469739
 20
147.5778843251149
 30
0.0
 11
166.9036174409544
 21
147.5724122426174
 31
0.0
  0
LINE
  5
48F
330
E3
100
AcDbEntity
  8
0
  6
Continuous
100
AcDbLine
 10
166.9036174409544
 20
147.5724122426174
 30
0.0
 11
166.8603713077133
 21
147.5669428947938
 31
0.0
  0
LINE
  5
490
330
E3
100
AcDbEntity
  8
0
  6
Continuous
100
AcDbLine
 10
166.8603713077133
 20
147.5669428947938
 30
0.0
 11
166.8177842308848
 21
147.5614708122962
 31
0.0
  0
LINE
  5
491
330
E3
100
AcDbEntity
  8
0
  6
Continuous
100
AcDbLine
 10
166.8177842308848
 20
147.5614708122962
 30
0.0
 11
166.7761843713384
 21
147.5559987297987
 31
0.0
  0
LINE
  5
492
330
E3
100
AcDbEntity
  8
0
  6
Continuous
100
AcDbLine
 10
166.7761843713384
 20
147.5559987297987
 30
0.0
 11
166.7358862165742
 21
147.5505266473012
 31
0.0
  0
LINE
  5
493
330
E3
100
AcDbEntity
  8
0
  6
Continuous
100
AcDbLine
 10
166.7358862165742
 20
147.5505266473012
 30
0.0
 11
166.6971933153961
 21
147.5450572994776
 31
0.0
  0
LINE
  5
494
330
E3
100
AcDbEntity
  8
0
  6
Continuous
100
AcDbLine
 10
166.6971933153961
 20
147.5450572994776
 30
0.0
 11
166.6604064819346
 21
147.5395852169801
 31
0.0
  0
LINE
  5
495
330
E3
100
AcDbEntity
  8
0
  6
Continuous
100
AcDbLine
 10
166.6604064819346
 20
147.5395852169801
 30
0.0
 11
166.6258019182547
 21
147.5341131344826
 31
0.0
  0
LINE
  5
496
330
E3
100
AcDbEntity
  8
0
  6
Continuous
100
AcDbLine
 10
166.6258019182547
 20
147.5341131344826
 30
0.0
 11
166.5936421530519
 21
147.5286410519851
 31
0.0
  0
LINE
  5
497
330
E3
100
AcDbEntity
  8
0
  6
Continuous
100
AcDbLine
 10
166.5936421530519
 20
147.5286410519851
 30
0.0
 11
166.5641733069784
 21
147.5231717041615
 31
0.0
  0
LINE
  5
498
330
E3
100
AcDbEntity
  8
0
  6
Continuous
100
AcDbLine
 10
166.5641733069784
 20
147.5231717041615
 30
0.0
 11
166.5376196232948
 21
147.517699621664
 31
0.0
  0
LINE
  5
499
330
E3
100
AcDbEntity
  8
0
  6
Continuous
100
AcDbLine
 10
166.5376196232948
 20
147.517699621664
 30
0.0
 11
166.5141807331967
 21
147.5122275391664
 31
0.0
  0
LINE
  5
49A
330
E3
100
AcDbEntity
  8
0
  6
Continuous
100
AcDbLine
 10
166.5141807331967
 20
147.5122275391664
 30
0.0
 11
166.4940398598364
 21
147.506755456669
 31
0.0
  0
LINE
  5
49B
330
E3
100
AcDbEntity
  8
0
  6
Continuous
100
AcDbLine
 10
166.4940398598364
 20
147.506755456669
 30
0.0
 11
166.4773474102788
 21
147.5012861088453
 31
0.0
  0
LINE
  5
49C
330
E3
100
AcDbEntity
  8
0
  6
Continuous
100
AcDbLine
 10
166.4773474102788
 20
147.5012861088453
 30
0.0
 11
166.4642319141977
 21
147.4958140263478
 31
0.0
  0
LINE
  5
49D
330
E3
100
AcDbEntity
  8
0
  6
Continuous
100
AcDbLine
 10
166.4642319141977
 20
147.4958140263478
 30
0.0
 11
166.4547918198542
 21
147.4903419438503
 31
0.0
  0
LINE
  5
49E
330
E3
100
AcDbEntity
  8
0
  6
Continuous
100
AcDbLine
 10
166.4547918198542
 20
147.4903419438503
 30
0.0
 11
166.4490970496664
 21
147.4848708675957
 31
0.0
  0
LINE
  5
49F
330
E3
100
AcDbEntity
  8
0
  6
Continuous
100
AcDbLine
 10
166.4490970496664
 20
147.4848708675957
 30
0.0
 11
166.4471943987122
 21
147.4793994871243
 31
0.0
  0
LINE
  5
4A0
330
E3
100
AcDbEntity
  8
0
  6
Continuous
100
AcDbLine
 10
167.4471943987122
 20
147.2824297901546
 30
0.0
 11
167.4452917477581
 21
147.2769584096832
 31
0.0
  0
LINE
  5
4A1
330
E3
100
AcDbEntity
  8
0
  6
Continuous
100
AcDbLine
 10
167.4452917477581
 20
147.2769584096832
 30
0.0
 11
167.4395982752183
 21
147.2714870292119
 31
0.0
  0
LINE
  5
4A2
330
E3
100
AcDbEntity
  8
0
  6
Continuous
100
AcDbLine
 10
167.4395982752183
 20
147.2714870292119
 30
0.0
 11
167.4301570252802
 21
147.2660166428654
 31
0.0
  0
LINE
  5
4A3
330
E3
100
AcDbEntity
  8
0
  6
Continuous
100
AcDbLine
 10
167.4301570252802
 20
147.2660166428654
 30
0.0
 11
167.4170415291992
 21
147.2605445603679
 31
0.0
  0
LINE
  5
4A4
330
E3
100
AcDbEntity
  8
0
  6
Continuous
100
AcDbLine
 10
167.4170415291992
 20
147.2605445603679
 30
0.0
 11
167.4003490796416
 21
147.2550724778703
 31
0.0
  0
LINE
  5
4A5
330
E3
100
AcDbEntity
  8
0
  6
Continuous
100
AcDbLine
 10
167.4003490796416
 20
147.2550724778703
 30
0.0
 11
167.3802082062812
 21
147.2496003953729
 31
0.0
  0
LINE
  5
4A6
330
E3
100
AcDbEntity
  8
0
  6
Continuous
100
AcDbLine
 10
167.3802082062812
 20
147.2496003953729
 30
0.0
 11
167.3567693161831
 21
147.2441310475492
 31
0.0
  0
LINE
  5
4A7
330
E3
100
AcDbEntity
  8
0
  6
Continuous
100
AcDbLine
 10
167.3567693161831
 20
147.2441310475492
 30
0.0
 11
167.3302156324995
 21
147.2386589650517
 31
0.0
  0
LINE
  5
4A8
330
E3
100
AcDbEntity
  8
0
  6
Continuous
100
AcDbLine
 10
167.3302156324995
 20
147.2386589650517
 30
0.0
 11
167.300746786426
 21
147.2331868825542
 31
0.0
  0
LINE
  5
4A9
330
E3
100
AcDbEntity
  8
0
  6
Continuous
100
AcDbLine
 10
167.300746786426
 20
147.2331868825542
 30
0.0
 11
167.2685870212232
 21
147.2277148000567
 31
0.0
  0
LINE
  5
4AA
330
E3
100
AcDbEntity
  8
0
  6
Continuous
100
AcDbLine
 10
167.2685870212232
 20
147.2277148000567
 30
0.0
 11
167.2339824575433
 21
147.2222454522331
 31
0.0
  0
LINE
  5
4AB
330
E3
100
AcDbEntity
  8
0
  6
Continuous
100
AcDbLine
 10
167.2339824575433
 20
147.2222454522331
 30
0.0
 11
167.1971956240818
 21
147.2167733697356
 31
0.0
  0
LINE
  5
4AC
330
E3
100
AcDbEntity
  8
0
  6
Continuous
100
AcDbLine
 10
167.1971956240818
 20
147.2167733697356
 30
0.0
 11
167.1585027229037
 21
147.2113012872381
 31
0.0
  0
LINE
  5
4AD
330
E3
100
AcDbEntity
  8
0
  6
Continuous
100
AcDbLine
 10
167.1585027229037
 20
147.2113012872381
 30
0.0
 11
167.1182045681394
 21
147.2058292047406
 31
0.0
  0
LINE
  5
4AE
330
E3
100
AcDbEntity
  8
0
  6
Continuous
100
AcDbLine
 10
167.1182045681394
 20
147.2058292047406
 30
0.0
 11
167.0766047085932
 21
147.200359856917
 31
0.0
  0
LINE
  5
4AF
330
E3
100
AcDbEntity
  8
0
  6
Continuous
100
AcDbLine
 10
167.0766047085932
 20
147.200359856917
 30
0.0
 11
167.0340176317647
 21
147.1948877744195
 31
0.0
  0
LINE
  5
4B0
330
E3
100
AcDbEntity
  8
0
  6
Continuous
100
AcDbLine
 10
167.0340176317647
 20
147.1948877744195
 30
0.0
 11
166.9907714985235
 21
147.189415691922
 31
0.0
  0
LINE
  5
4B1
330
E3
100
AcDbEntity
  8
0
  6
Continuous
100
AcDbLine
 10
166.9907714985235
 20
147.189415691922
 30
0.0
 11
166.947194469739
 21
147.1839436094244
 31
0.0
  0
LINE
  5
4B2
330
E3
100
AcDbEntity
  8
0
  6
Continuous
100
AcDbLine
 10
166.947194469739
 20
147.1839436094244
 30
0.0
 11
166.9036174409544
 21
147.1784742616009
 31
0.0
  0
LINE
  5
4B3
330
E3
100
AcDbEntity
  8
0
  6
Continuous
100
AcDbLine
 10
166.9036174409544
 20
147.1784742616009
 30
0.0
 11
166.8603713077133
 21
147.1730021791033
 31
0.0
  0
LINE
  5
4B4
330
E3
100
AcDbEntity
  8
0
  6
Continuous
100
AcDbLine
 10
166.8603713077133
 20
147.1730021791033
 30
0.0
 11
166.8177842308848
 21
147.1675300966058
 31
0.0
  0
LINE
  5
4B5
330
E3
100
AcDbEntity
  8
0
  6
Continuous
100
AcDbLine
 10
166.8177842308848
 20
147.1675300966058
 30
0.0
 11
166.7761843713384
 21
147.1620607487822
 31
0.0
  0
LINE
  5
4B6
330
E3
100
AcDbEntity
  8
0
  6
Continuous
100
AcDbLine
 10
166.7761843713384
 20
147.1620607487822
 30
0.0
 11
166.7358862165742
 21
147.1565886662847
 31
0.0
  0
LINE
  5
4B7
330
E3
100
AcDbEntity
  8
0
  6
Continuous
100
AcDbLine
 10
166.7358862165742
 20
147.1565886662847
 30
0.0
 11
166.6971933153961
 21
147.1511165837872
 31
0.0
  0
LINE
  5
4B8
330
E3
100
AcDbEntity
  8
0
  6
Continuous
100
AcDbLine
 10
166.6971933153961
 20
147.1511165837872
 30
0.0
 11
166.6604064819346
 21
147.1456445012897
 31
0.0
  0
LINE
  5
4B9
330
E3
100
AcDbEntity
  8
0
  6
Continuous
100
AcDbLine
 10
166.6604064819346
 20
147.1456445012897
 30
0.0
 11
166.6258019182547
 21
147.1401751534661
 31
0.0
  0
LINE
  5
4BA
330
E3
100
AcDbEntity
  8
0
  6
Continuous
100
AcDbLine
 10
166.6258019182547
 20
147.1401751534661
 30
0.0
 11
166.5936421530519
 21
147.1347030709686
 31
0.0
  0
LINE
  5
4BB
330
E3
100
AcDbEntity
  8
0
  6
Continuous
100
AcDbLine
 10
166.5936421530519
 20
147.1347030709686
 30
0.0
 11
166.5641733069784
 21
147.1292309884711
 31
0.0
  0
LINE
  5
4BC
330
E3
100
AcDbEntity
  8
0
  6
Continuous
100
AcDbLine
 10
166.5641733069784
 20
147.1292309884711
 30
0.0
 11
166.5376196232948
 21
147.1237589059736
 31
0.0
  0
LINE
  5
4BD
330
E3
100
AcDbEntity
  8
0
  6
Continuous
100
AcDbLine
 10
166.5376196232948
 20
147.1237589059736
 30
0.0
 11
166.5141807331967
 21
147.11828955815
 31
0.0
  0
LINE
  5
4BE
330
E3
100
AcDbEntity
  8
0
  6
Continuous
100
AcDbLine
 10
166.5141807331967
 20
147.11828955815
 30
0.0
 11
166.4940398598364
 21
147.1128174756525
 31
0.0
  0
LINE
  5
4BF
330
E3
100
AcDbEntity
  8
0
  6
Continuous
100
AcDbLine
 10
166.4940398598364
 20
147.1128174756525
 30
0.0
 11
166.4773474102788
 21
147.107345393155
 31
0.0
  0
LINE
  5
4C0
330
E3
100
AcDbEntity
  8
0
  6
Continuous
100
AcDbLine
 10
166.4773474102788
 20
147.107345393155
 30
0.0
 11
166.4642319141977
 21
147.1018733106574
 31
0.0
  0
LINE
  5
4C1
330
E3
100
AcDbEntity
  8
0
  6
Continuous
100
AcDbLine
 10
166.4642319141977
 20
147.1018733106574
 30
0.0
 11
166.4547918198542
 21
147.0964039628338
 31
0.0
  0
LINE
  5
4C2
330
E3
100
AcDbEntity
  8
0
  6
Continuous
100
AcDbLine
 10
166.4547918198542
 20
147.0964039628338
 30
0.0
 11
166.4490970496664
 21
147.0909314736563
 31
0.0
  0
LINE
  5
4C3
330
E3
100
AcDbEntity
  8
0
  6
Continuous
100
AcDbLine
 10
166.4490970496664
 20
147.0909314736563
 30
0.0
 11
166.4471943987122
 21
147.0854600931849
 31
0.0
  0
LINE
  5
4C4
330
E3
100
AcDbEntity
  8
0
  6
Continuous
100
AcDbLine
 10
167.4471943987122
 20
146.8884903962152
 30
0.0
 11
167.4452917477581
 21
146.8830190157439
 31
0.0
  0
LINE
  5
4C5
330
E3
100
AcDbEntity
  8
0
  6
Continuous
100
AcDbLine
 10
167.4452917477581
 20
146.8830190157439
 30
0.0
 11
167.4395982752183
 21
146.8775476352725
 31
0.0
  0
LINE
  5
4C6
330
E3
100
AcDbEntity
  8
0
  6
Continuous
100
AcDbLine
 10
167.4395982752183
 20
146.8775476352725
 30
0.0
 11
167.4301570252802
 21
146.872075927175
 31
0.0
  0
LINE
  5
4C7
330
E3
100
AcDbEntity
  8
0
  6
Continuous
100
AcDbLine
 10
167.4301570252802
 20
146.872075927175
 30
0.0
 11
167.4170415291992
 21
146.8666038446775
 31
0.0
  0
LINE
  5
4C8
330
E3
100
AcDbEntity
  8
0
  6
Continuous
100
AcDbLine
 10
167.4170415291992
 20
146.8666038446775
 30
0.0
 11
167.4003490796416
 21
146.8611344968539
 31
0.0
  0
LINE
  5
4C9
330
E3
100
AcDbEntity
  8
0
  6
Continuous
100
AcDbLine
 10
167.4003490796416
 20
146.8611344968539
 30
0.0
 11
167.3802082062812
 21
146.8556624143564
 31
0.0
  0
LINE
  5
4CA
330
E3
100
AcDbEntity
  8
0
  6
Continuous
100
AcDbLine
 10
167.3802082062812
 20
146.8556624143564
 30
0.0
 11
167.3567693161831
 21
146.8501903318588
 31
0.0
  0
LINE
  5
4CB
330
E3
100
AcDbEntity
  8
0
  6
Continuous
100
AcDbLine
 10
167.3567693161831
 20
146.8501903318588
 30
0.0
 11
167.3302156324995
 21
146.8447182493614
 31
0.0
  0
LINE
  5
4CC
330
E3
100
AcDbEntity
  8
0
  6
Continuous
100
AcDbLine
 10
167.3302156324995
 20
146.8447182493614
 30
0.0
 11
167.300746786426
 21
146.8392489015377
 31
0.0
  0
LINE
  5
4CD
330
E3
100
AcDbEntity
  8
0
  6
Continuous
100
AcDbLine
 10
167.300746786426
 20
146.8392489015377
 30
0.0
 11
167.2685870212232
 21
146.8337768190403
 31
0.0
  0
LINE
  5
4CE
330
E3
100
AcDbEntity
  8
0
  6
Continuous
100
AcDbLine
 10
167.2685870212232
 20
146.8337768190403
 30
0.0
 11
167.2339824575433
 21
146.8283047365427
 31
0.0
  0
LINE
  5
4CF
330
E3
100
AcDbEntity
  8
0
  6
Continuous
100
AcDbLine
 10
167.2339824575433
 20
146.8283047365427
 30
0.0
 11
167.1971956240818
 21
146.8228326540452
 31
0.0
  0
LINE
  5
4D0
330
E3
100
AcDbEntity
  8
0
  6
Continuous
100
AcDbLine
 10
167.1971956240818
 20
146.8228326540452
 30
0.0
 11
167.1585027229037
 21
146.8173633062216
 31
0.0
  0
LINE
  5
4D1
330
E3
100
AcDbEntity
  8
0
  6
Continuous
100
AcDbLine
 10
167.1585027229037
 20
146.8173633062216
 30
0.0
 11
167.1182045681394
 21
146.8118912237241
 31
0.0
  0
LINE
  5
4D2
330
E3
100
AcDbEntity
  8
0
  6
Continuous
100
AcDbLine
 10
167.1182045681394
 20
146.8118912237241
 30
0.0
 11
167.0766047085932
 21
146.8064191412265
 31
0.0
  0
LINE
  5
4D3
330
E3
100
AcDbEntity
  8
0
  6
Continuous
100
AcDbLine
 10
167.0766047085932
 20
146.8064191412265
 30
0.0
 11
167.0340176317647
 21
146.8009470587291
 31
0.0
  0
LINE
  5
4D4
330
E3
100
AcDbEntity
  8
0
  6
Continuous
100
AcDbLine
 10
167.0340176317647
 20
146.8009470587291
 30
0.0
 11
166.9907714985235
 21
146.7954777109055
 31
0.0
  0
LINE
  5
4D5
330
E3
100
AcDbEntity
  8
0
  6
Continuous
100
AcDbLine
 10
166.9907714985235
 20
146.7954777109055
 30
0.0
 11
166.947194469739
 21
146.790005628408
 31
0.0
  0
LINE
  5
4D6
330
E3
100
AcDbEntity
  8
0
  6
Continuous
100
AcDbLine
 10
166.947194469739
 20
146.790005628408
 30
0.0
 11
166.9036174409544
 21
146.7845335459104
 31
0.0
  0
LINE
  5
4D7
330
E3
100
AcDbEntity
  8
0
  6
Continuous
100
AcDbLine
 10
166.9036174409544
 20
146.7845335459104
 30
0.0
 11
166.8603713077133
 21
146.7790614634129
 31
0.0
  0
LINE
  5
4D8
330
E3
100
AcDbEntity
  8
0
  6
Continuous
100
AcDbLine
 10
166.8603713077133
 20
146.7790614634129
 30
0.0
 11
166.8177842308848
 21
146.7735921155893
 31
0.0
  0
LINE
  5
4D9
330
E3
100
AcDbEntity
  8
0
  6
Continuous
100
AcDbLine
 10
166.8177842308848
 20
146.7735921155893
 30
0.0
 11
166.7761843713384
 21
146.7681200330918
 31
0.0
  0
LINE
  5
4DA
330
E3
100
AcDbEntity
  8
0
  6
Continuous
100
AcDbLine
 10
166.7761843713384
 20
146.7681200330918
 30
0.0
 11
166.7358862165742
 21
146.7626479505943
 31
0.0
  0
LINE
  5
4DB
330
E3
100
AcDbEntity
  8
0
  6
Continuous
100
AcDbLine
 10
166.7358862165742
 20
146.7626479505943
 30
0.0
 11
166.6971933153961
 21
146.7571786027707
 31
0.0
  0
LINE
  5
4DC
330
E3
100
AcDbEntity
  8
0
  6
Continuous
100
AcDbLine
 10
166.6971933153961
 20
146.7571786027707
 30
0.0
 11
166.6604064819346
 21
146.7517065202732
 31
0.0
  0
LINE
  5
4DD
330
E3
100
AcDbEntity
  8
0
  6
Continuous
100
AcDbLine
 10
166.6604064819346
 20
146.7517065202732
 30
0.0
 11
166.6258019182547
 21
146.7462344377757
 31
0.0
  0
LINE
  5
4DE
330
E3
100
AcDbEntity
  8
0
  6
Continuous
100
AcDbLine
 10
166.6258019182547
 20
146.7462344377757
 30
0.0
 11
166.5936421530519
 21
146.7407623552782
 31
0.0
  0
LINE
  5
4DF
330
E3
100
AcDbEntity
  8
0
  6
Continuous
100
AcDbLine
 10
166.5936421530519
 20
146.7407623552782
 30
0.0
 11
166.5641733069784
 21
146.7352930074546
 31
0.0
  0
LINE
  5
4E0
330
E3
100
AcDbEntity
  8
0
  6
Continuous
100
AcDbLine
 10
166.5641733069784
 20
146.7352930074546
 30
0.0
 11
166.5376196232948
 21
146.7298209249571
 31
0.0
  0
LINE
  5
4E1
330
E3
100
AcDbEntity
  8
0
  6
Continuous
100
AcDbLine
 10
166.5376196232948
 20
146.7298209249571
 30
0.0
 11
166.5141807331967
 21
146.7243488424596
 31
0.0
  0
LINE
  5
4E2
330
E3
100
AcDbEntity
  8
0
  6
Continuous
100
AcDbLine
 10
166.5141807331967
 20
146.7243488424596
 30
0.0
 11
166.4940398598364
 21
146.718876759962
 31
0.0
  0
LINE
  5
4E3
330
E3
100
AcDbEntity
  8
0
  6
Continuous
100
AcDbLine
 10
166.4940398598364
 20
146.718876759962
 30
0.0
 11
166.4773474102788
 21
146.7134074121385
 31
0.0
  0
LINE
  5
4E4
330
E3
100
AcDbEntity
  8
0
  6
Continuous
100
AcDbLine
 10
166.4773474102788
 20
146.7134074121385
 30
0.0
 11
166.4642319141977
 21
146.7079353296409
 31
0.0
  0
LINE
  5
4E5
330
E3
100
AcDbEntity
  8
0
  6
Continuous
100
AcDbLine
 10
166.4642319141977
 20
146.7079353296409
 30
0.0
 11
166.4547918198542
 21
146.7024632471434
 31
0.0
  0
LINE
  5
4E6
330
E3
100
AcDbEntity
  8
0
  6
Continuous
100
AcDbLine
 10
166.4547918198542
 20
146.7024632471434
 30
0.0
 11
166.4490970496664
 21
146.6969920797169
 31
0.0
  0
LINE
  5
4E7
330
E3
100
AcDbEntity
  8
0
  6
Continuous
100
AcDbLine
 10
166.4490970496664
 20
146.6969920797169
 30
0.0
 11
166.4471943987122
 21
146.6915206992455
 31
0.0
  0
LINE
  5
4E8
330
E3
100
AcDbEntity
  8
0
  6
Continuous
100
AcDbLine
 10
167.4471943987122
 20
146.4945510022758
 30
0.0
 11
167.4452917477581
 21
146.4890796218044
 31
0.0
  0
LINE
  5
4E9
330
E3
100
AcDbEntity
  8
0
  6
Continuous
100
AcDbLine
 10
167.4452917477581
 20
146.4890796218044
 30
0.0
 11
167.4395982752183
 21
146.4836082413331
 31
0.0
  0
LINE
  5
4EA
330
E3
100
AcDbEntity
  8
0
  6
Continuous
100
AcDbLine
 10
167.4395982752183
 20
146.4836082413331
 30
0.0
 11
167.4301570252802
 21
146.4781379461585
 31
0.0
  0
LINE
  5
4EB
330
E3
100
AcDbEntity
  8
0
  6
Continuous
100
AcDbLine
 10
167.4301570252802
 20
146.4781379461585
 30
0.0
 11
167.4170415291992
 21
146.472665863661
 31
0.0
  0
LINE
  5
4EC
330
E3
100
AcDbEntity
  8
0
  6
Continuous
100
AcDbLine
 10
167.4170415291992
 20
146.472665863661
 30
0.0
 11
167.4003490796416
 21
146.4671937811635
 31
0.0
  0
LINE
  5
4ED
330
E3
100
AcDbEntity
  8
0
  6
Continuous
100
AcDbLine
 10
167.4003490796416
 20
146.4671937811635
 30
0.0
 11
167.3802082062812
 21
146.4617216986659
 31
0.0
  0
LINE
  5
4EE
330
E3
100
AcDbEntity
  8
0
  6
Continuous
100
AcDbLine
 10
167.3802082062812
 20
146.4617216986659
 30
0.0
 11
167.3567693161831
 21
146.4562523508424
 31
0.0
  0
LINE
  5
4EF
330
E3
100
AcDbEntity
  8
0
  6
Continuous
100
AcDbLine
 10
167.3567693161831
 20
146.4562523508424
 30
0.0
 11
167.3302156324995
 21
146.4507802683449
 31
0.0
  0
LINE
  5
4F0
330
E3
100
AcDbEntity
  8
0
  6
Continuous
100
AcDbLine
 10
167.3302156324995
 20
146.4507802683449
 30
0.0
 11
167.300746786426
 21
146.4453081858473
 31
0.0
  0
LINE
  5
4F1
330
E3
100
AcDbEntity
  8
0
  6
Continuous
100
AcDbLine
 10
167.300746786426
 20
146.4453081858473
 30
0.0
 11
167.2685870212232
 21
146.4398361033498
 31
0.0
  0
LINE
  5
4F2
330
E3
100
AcDbEntity
  8
0
  6
Continuous
100
AcDbLine
 10
167.2685870212232
 20
146.4398361033498
 30
0.0
 11
167.2339824575433
 21
146.4343667555262
 31
0.0
  0
LINE
  5
4F3
330
E3
100
AcDbEntity
  8
0
  6
Continuous
100
AcDbLine
 10
167.2339824575433
 20
146.4343667555262
 30
0.0
 11
167.1971956240818
 21
146.4288946730287
 31
0.0
  0
LINE
  5
4F4
330
E3
100
AcDbEntity
  8
0
  6
Continuous
100
AcDbLine
 10
167.1971956240818
 20
146.4288946730287
 30
0.0
 11
167.1585027229037
 21
146.4234225905312
 31
0.0
  0
LINE
  5
4F5
330
E3
100
AcDbEntity
  8
0
  6
Continuous
100
AcDbLine
 10
167.1585027229037
 20
146.4234225905312
 30
0.0
 11
167.1182045681394
 21
146.4179505080337
 31
0.0
  0
LINE
  5
4F6
330
E3
100
AcDbEntity
  8
0
  6
Continuous
100
AcDbLine
 10
167.1182045681394
 20
146.4179505080337
 30
0.0
 11
167.0766047085932
 21
146.4124811602101
 31
0.0
  0
LINE
  5
4F7
330
E3
100
AcDbEntity
  8
0
  6
Continuous
100
AcDbLine
 10
167.0766047085932
 20
146.4124811602101
 30
0.0
 11
167.0340176317647
 21
146.4070090777126
 31
0.0
  0
LINE
  5
4F8
330
E3
100
AcDbEntity
  8
0
  6
Continuous
100
AcDbLine
 10
167.0340176317647
 20
146.4070090777126
 30
0.0
 11
166.9907714985235
 21
146.4015369952151
 31
0.0
  0
LINE
  5
4F9
330
E3
100
AcDbEntity
  8
0
  6
Continuous
100
AcDbLine
 10
166.9907714985235
 20
146.4015369952151
 30
0.0
 11
166.947194469739
 21
146.3960649127175
 31
0.0
  0
LINE
  5
4FA
330
E3
100
AcDbEntity
  8
0
  6
Continuous
100
AcDbLine
 10
166.947194469739
 20
146.3960649127175
 30
0.0
 11
166.9036174409544
 21
146.3905955648939
 31
0.0
  0
LINE
  5
4FB
330
E3
100
AcDbEntity
  8
0
  6
Continuous
100
AcDbLine
 10
166.9036174409544
 20
146.3905955648939
 30
0.0
 11
166.8603713077133
 21
146.3851234823965
 31
0.0
  0
LINE
  5
4FC
330
E3
100
AcDbEntity
  8
0
  6
Continuous
100
AcDbLine
 10
166.8603713077133
 20
146.3851234823965
 30
0.0
 11
166.8177842308848
 21
146.3796513998989
 31
0.0
  0
LINE
  5
4FD
330
E3
100
AcDbEntity
  8
0
  6
Continuous
100
AcDbLine
 10
166.8177842308848
 20
146.3796513998989
 30
0.0
 11
166.7761843713384
 21
146.3741793174014
 31
0.0
  0
LINE
  5
4FE
330
E3
100
AcDbEntity
  8
0
  6
Continuous
100
AcDbLine
 10
166.7761843713384
 20
146.3741793174014
 30
0.0
 11
166.7358862165742
 21
146.3687099695778
 31
0.0
  0
LINE
  5
4FF
330
E3
100
AcDbEntity
  8
0
  6
Continuous
100
AcDbLine
 10
166.7358862165742
 20
146.3687099695778
 30
0.0
 11
166.6971933153961
 21
146.3632378870803
 31
0.0
  0
LINE
  5
500
330
E3
100
AcDbEntity
  8
0
  6
Continuous
100
AcDbLine
 10
166.6971933153961
 20
146.3632378870803
 30
0.0
 11
166.6604064819346
 21
146.3577658045828
 31
0.0
  0
LINE
  5
501
330
E3
100
AcDbEntity
  8
0
  6
Continuous
100
AcDbLine
 10
166.6604064819346
 20
146.3577658045828
 30
0.0
 11
166.6258019182547
 21
146.3522964567592
 31
0.0
  0
LINE
  5
502
330
E3
100
AcDbEntity
  8
0
  6
Continuous
100
AcDbLine
 10
166.6258019182547
 20
146.3522964567592
 30
0.0
 11
166.5936421530519
 21
146.3468243742617
 31
0.0
  0
LINE
  5
503
330
E3
100
AcDbEntity
  8
0
  6
Continuous
100
AcDbLine
 10
166.5936421530519
 20
146.3468243742617
 30
0.0
 11
166.5641733069784
 21
146.3413522917642
 31
0.0
  0
LINE
  5
504
330
E3
100
AcDbEntity
  8
0
  6
Continuous
100
AcDbLine
 10
166.5641733069784
 20
146.3413522917642
 30
0.0
 11
166.5376196232948
 21
146.3358802092666
 31
0.0
  0
LINE
  5
505
330
E3
100
AcDbEntity
  8
0
  6
Continuous
100
AcDbLine
 10
166.5376196232948
 20
146.3358802092666
 30
0.0
 11
166.5141807331967
 21
146.3304108614431
 31
0.0
  0
LINE
  5
506
330
E3
100
AcDbEntity
  8
0
  6
Continuous
100
AcDbLine
 10
166.5141807331967
 20
146.3304108614431
 30
0.0
 11
166.4940398598364
 21
146.3249387789455
 31
0.0
  0
LINE
  5
507
330
E3
100
AcDbEntity
  8
0
  6
Continuous
100
AcDbLine
 10
166.4940398598364
 20
146.3249387789455
 30
0.0
 11
166.4773474102788
 21
146.319466696448
 31
0.0
  0
LINE
  5
508
330
E3
100
AcDbEntity
  8
0
  6
Continuous
100
AcDbLine
 10
166.4773474102788
 20
146.319466696448
 30
0.0
 11
166.4642319141977
 21
146.3139946139505
 31
0.0
  0
LINE
  5
509
330
E3
100
AcDbEntity
  8
0
  6
Continuous
100
AcDbLine
 10
166.4642319141977
 20
146.3139946139505
 30
0.0
 11
166.4547918198542
 21
146.3085252661269
 31
0.0
  0
LINE
  5
50A
330
E3
100
AcDbEntity
  8
0
  6
Continuous
100
AcDbLine
 10
166.4547918198542
 20
146.3085252661269
 30
0.0
 11
166.4490970496663
 21
146.3030526857775
 31
0.0
  0
LINE
  5
50B
330
E3
100
AcDbEntity
  8
0
  6
Continuous
100
AcDbLine
 10
166.4490970496663
 20
146.3030526857775
 30
0.0
 11
166.4471943987122
 21
146.2975813053062
 31
0.0
  0
LINE
  5
50C
330
E3
100
AcDbEntity
  8
0
  6
Continuous
100
AcDbLine
 10
167.4471943987122
 20
146.1006116083364
 30
0.0
 11
167.4452917477581
 21
146.0951402278651
 31
0.0
  0
LINE
  5
50D
330
E3
100
AcDbEntity
  8
0
  6
Continuous
100
AcDbLine
 10
167.4452917477581
 20
146.0951402278651
 30
0.0
 11
167.4395982752183
 21
146.0896688473937
 31
0.0
  0
LINE
  5
50E
330
E3
100
AcDbEntity
  8
0
  6
Continuous
100
AcDbLine
 10
167.4395982752183
 20
146.0896688473937
 30
0.0
 11
167.4301570252802
 21
146.084197230468
 31
0.0
  0
LINE
  5
50F
330
E3
100
AcDbEntity
  8
0
  6
Continuous
100
AcDbLine
 10
167.4301570252802
 20
146.084197230468
 30
0.0
 11
167.4170415291992
 21
146.0787251479706
 31
0.0
  0
LINE
  5
510
330
E3
100
AcDbEntity
  8
0
  6
Continuous
100
AcDbLine
 10
167.4170415291992
 20
146.0787251479706
 30
0.0
 11
167.4003490796416
 21
146.073255800147
 31
0.0
  0
LINE
  5
511
330
E3
100
AcDbEntity
  8
0
  6
Continuous
100
AcDbLine
 10
167.4003490796416
 20
146.073255800147
 30
0.0
 11
167.3802082062812
 21
146.0677837176494
 31
0.0
  0
LINE
  5
512
330
E3
100
AcDbEntity
  8
0
  6
Continuous
100
AcDbLine
 10
167.3802082062812
 20
146.0677837176494
 30
0.0
 11
167.3567693161831
 21
146.0623116351519
 31
0.0
  0
LINE
  5
513
330
E3
100
AcDbEntity
  8
0
  6
Continuous
100
AcDbLine
 10
167.3567693161831
 20
146.0623116351519
 30
0.0
 11
167.3302156324995
 21
146.0568395526544
 31
0.0
  0
LINE
  5
514
330
E3
100
AcDbEntity
  8
0
  6
Continuous
100
AcDbLine
 10
167.3302156324995
 20
146.0568395526544
 30
0.0
 11
167.300746786426
 21
146.0513702048308
 31
0.0
  0
LINE
  5
515
330
E3
100
AcDbEntity
  8
0
  6
Continuous
100
AcDbLine
 10
167.300746786426
 20
146.0513702048308
 30
0.0
 11
167.2685870212232
 21
146.0458981223333
 31
0.0
  0
LINE
  5
516
330
E3
100
AcDbEntity
  8
0
  6
Continuous
100
AcDbLine
 10
167.2685870212232
 20
146.0458981223333
 30
0.0
 11
167.2339824575433
 21
146.0404260398358
 31
0.0
  0
LINE
  5
517
330
E3
100
AcDbEntity
  8
0
  6
Continuous
100
AcDbLine
 10
167.2339824575433
 20
146.0404260398358
 30
0.0
 11
167.1971956240818
 21
146.0349539573383
 31
0.0
  0
LINE
  5
518
330
E3
100
AcDbEntity
  8
0
  6
Continuous
100
AcDbLine
 10
167.1971956240818
 20
146.0349539573383
 30
0.0
 11
167.1585027229037
 21
146.0294846095147
 31
0.0
  0
LINE
  5
519
330
E3
100
AcDbEntity
  8
0
  6
Continuous
100
AcDbLine
 10
167.1585027229037
 20
146.0294846095147
 30
0.0
 11
167.1182045681394
 21
146.0240125270172
 31
0.0
  0
LINE
  5
51A
330
E3
100
AcDbEntity
  8
0
  6
Continuous
100
AcDbLine
 10
167.1182045681394
 20
146.0240125270172
 30
0.0
 11
167.0766047085932
 21
146.0185404445197
 31
0.0
  0
LINE
  5
51B
330
E3
100
AcDbEntity
  8
0
  6
Continuous
100
AcDbLine
 10
167.0766047085932
 20
146.0185404445197
 30
0.0
 11
167.0340176317647
 21
146.0130683620222
 31
0.0
  0
LINE
  5
51C
330
E3
100
AcDbEntity
  8
0
  6
Continuous
100
AcDbLine
 10
167.0340176317647
 20
146.0130683620222
 30
0.0
 11
166.9907714985235
 21
146.0075990141986
 31
0.0
  0
LINE
  5
51D
330
E3
100
AcDbEntity
  8
0
  6
Continuous
100
AcDbLine
 10
166.9907714985235
 20
146.0075990141986
 30
0.0
 11
166.947194469739
 21
146.0021269317011
 31
0.0
  0
LINE
  5
51E
330
E3
100
AcDbEntity
  8
0
  6
Continuous
100
AcDbLine
 10
166.947194469739
 20
146.0021269317011
 30
0.0
 11
166.9036174409544
 21
145.9966548492035
 31
0.0
  0
LINE
  5
51F
330
E3
100
AcDbEntity
  8
0
  6
Continuous
100
AcDbLine
 10
166.9036174409544
 20
145.9966548492035
 30
0.0
 11
166.8603713077133
 21
145.991182766706
 31
0.0
  0
LINE
  5
520
330
E3
100
AcDbEntity
  8
0
  6
Continuous
100
AcDbLine
 10
166.8603713077133
 20
145.991182766706
 30
0.0
 11
166.8177842308848
 21
145.9857134188825
 31
0.0
  0
LINE
  5
521
330
E3
100
AcDbEntity
  8
0
  6
Continuous
100
AcDbLine
 10
166.8177842308848
 20
145.9857134188825
 30
0.0
 11
166.7761843713384
 21
145.9802413363849
 31
0.0
  0
LINE
  5
522
330
E3
100
AcDbEntity
  8
0
  6
Continuous
100
AcDbLine
 10
166.7761843713384
 20
145.9802413363849
 30
0.0
 11
166.7358862165742
 21
145.9747692538874
 31
0.0
  0
LINE
  5
523
330
E3
100
AcDbEntity
  8
0
  6
Continuous
100
AcDbLine
 10
166.7358862165742
 20
145.9747692538874
 30
0.0
 11
166.6971933153961
 21
145.9692971713899
 31
0.0
  0
LINE
  5
524
330
E3
100
AcDbEntity
  8
0
  6
Continuous
100
AcDbLine
 10
166.6971933153961
 20
145.9692971713899
 30
0.0
 11
166.6604064819346
 21
145.9638278235663
 31
0.0
  0
LINE
  5
525
330
E3
100
AcDbEntity
  8
0
  6
Continuous
100
AcDbLine
 10
166.6604064819346
 20
145.9638278235663
 30
0.0
 11
166.6258019182547
 21
145.9583557410688
 31
0.0
  0
LINE
  5
526
330
E3
100
AcDbEntity
  8
0
  6
Continuous
100
AcDbLine
 10
166.6258019182547
 20
145.9583557410688
 30
0.0
 11
166.5936421530519
 21
145.9528836585713
 31
0.0
  0
LINE
  5
527
330
E3
100
AcDbEntity
  8
0
  6
Continuous
100
AcDbLine
 10
166.5936421530519
 20
145.9528836585713
 30
0.0
 11
166.5641733069784
 21
145.9474143107477
 31
0.0
  0
LINE
  5
528
330
E3
100
AcDbEntity
  8
0
  6
Continuous
100
AcDbLine
 10
166.5641733069784
 20
145.9474143107477
 30
0.0
 11
166.5376196232948
 21
145.9419422282502
 31
0.0
  0
LINE
  5
529
330
E3
100
AcDbEntity
  8
0
  6
Continuous
100
AcDbLine
 10
166.5376196232948
 20
145.9419422282502
 30
0.0
 11
166.5141807331967
 21
145.9364701457527
 31
0.0
  0
LINE
  5
52A
330
E3
100
AcDbEntity
  8
0
  6
Continuous
100
AcDbLine
 10
166.5141807331967
 20
145.9364701457527
 30
0.0
 11
166.4940398598364
 21
145.9309980632551
 31
0.0
  0
LINE
  5
52B
330
E3
100
AcDbEntity
  8
0
  6
Continuous
100
AcDbLine
 10
166.4940398598364
 20
145.9309980632551
 30
0.0
 11
166.4773474102788
 21
145.9255287154315
 31
0.0
  0
LINE
  5
52C
330
E3
100
AcDbEntity
  8
0
  6
Continuous
100
AcDbLine
 10
166.4773474102788
 20
145.9255287154315
 30
0.0
 11
166.4642319141977
 21
145.920056632934
 31
0.0
  0
LINE
  5
52D
330
E3
100
AcDbEntity
  8
0
  6
Continuous
100
AcDbLine
 10
166.4642319141977
 20
145.920056632934
 30
0.0
 11
166.4547918198542
 21
145.9145845504365
 31
0.0
  0
LINE
  5
52E
330
E3
100
AcDbEntity
  8
0
  6
Continuous
100
AcDbLine
 10
166.4547918198542
 20
145.9145845504365
 30
0.0
 11
166.4490970496663
 21
145.9091132918381
 31
0.0
  0
LINE
  5
52F
330
E3
100
AcDbEntity
  8
0
  6
Continuous
100
AcDbLine
 10
166.4490970496663
 20
145.9091132918381
 30
0.0
 11
166.4471943987122
 21
145.9036419113667
 31
0.0
  0
LINE
  5
530
330
E3
100
AcDbEntity
  8
0
  6
Continuous
100
AcDbLine
 10
167.4471943987122
 20
145.706672214397
 30
0.0
 11
167.4452917477581
 21
145.7012008339257
 31
0.0
  0
LINE
  5
531
330
E3
100
AcDbEntity
  8
0
  6
Continuous
100
AcDbLine
 10
167.4452917477581
 20
145.7012008339257
 30
0.0
 11
167.4395982752183
 21
145.6957294534543
 31
0.0
  0
LINE
  5
532
330
E3
100
AcDbEntity
  8
0
  6
Continuous
100
AcDbLine
 10
167.4395982752183
 20
145.6957294534543
 30
0.0
 11
167.4301570252802
 21
145.6902592494516
 31
0.0
  0
LINE
  5
533
330
E3
100
AcDbEntity
  8
0
  6
Continuous
100
AcDbLine
 10
167.4301570252802
 20
145.6902592494516
 30
0.0
 11
167.4170415291992
 21
145.684787166954
 31
0.0
  0
LINE
  5
534
330
E3
100
AcDbEntity
  8
0
  6
Continuous
100
AcDbLine
 10
167.4170415291992
 20
145.684787166954
 30
0.0
 11
167.4003490796416
 21
145.6793150844566
 31
0.0
  0
LINE
  5
535
330
E3
100
AcDbEntity
  8
0
  6
Continuous
100
AcDbLine
 10
167.4003490796416
 20
145.6793150844566
 30
0.0
 11
167.3802082062812
 21
145.6738430019591
 31
0.0
  0
LINE
  5
536
330
E3
100
AcDbEntity
  8
0
  6
Continuous
100
AcDbLine
 10
167.3802082062812
 20
145.6738430019591
 30
0.0
 11
167.3567693161831
 21
145.6683736541355
 31
0.0
  0
LINE
  5
537
330
E3
100
AcDbEntity
  8
0
  6
Continuous
100
AcDbLine
 10
167.3567693161831
 20
145.6683736541355
 30
0.0
 11
167.3302156324995
 21
145.6629015716379
 31
0.0
  0
LINE
  5
538
330
E3
100
AcDbEntity
  8
0
  6
Continuous
100
AcDbLine
 10
167.3302156324995
 20
145.6629015716379
 30
0.0
 11
167.300746786426
 21
145.6574294891404
 31
0.0
  0
LINE
  5
539
330
E3
100
AcDbEntity
  8
0
  6
Continuous
100
AcDbLine
 10
167.300746786426
 20
145.6574294891404
 30
0.0
 11
167.2685870212232
 21
145.6519574066429
 31
0.0
  0
LINE
  5
53A
330
E3
100
AcDbEntity
  8
0
  6
Continuous
100
AcDbLine
 10
167.2685870212232
 20
145.6519574066429
 30
0.0
 11
167.2339824575433
 21
145.6464880588193
 31
0.0
  0
LINE
  5
53B
330
E3
100
AcDbEntity
  8
0
  6
Continuous
100
AcDbLine
 10
167.2339824575433
 20
145.6464880588193
 30
0.0
 11
167.1971956240818
 21
145.6410159763218
 31
0.0
  0
LINE
  5
53C
330
E3
100
AcDbEntity
  8
0
  6
Continuous
100
AcDbLine
 10
167.1971956240818
 20
145.6410159763218
 30
0.0
 11
167.1585027229037
 21
145.6355438938243
 31
0.0
  0
LINE
  5
53D
330
E3
100
AcDbEntity
  8
0
  6
Continuous
100
AcDbLine
 10
167.1585027229037
 20
145.6355438938243
 30
0.0
 11
167.1182045681394
 21
145.6300718113268
 31
0.0
  0
LINE
  5
53E
330
E3
100
AcDbEntity
  8
0
  6
Continuous
100
AcDbLine
 10
167.1182045681394
 20
145.6300718113268
 30
0.0
 11
167.0766047085932
 21
145.6246024635032
 31
0.0
  0
LINE
  5
53F
330
E3
100
AcDbEntity
  8
0
  6
Continuous
100
AcDbLine
 10
167.0766047085932
 20
145.6246024635032
 30
0.0
 11
167.0340176317647
 21
145.6191303810056
 31
0.0
  0
LINE
  5
540
330
E3
100
AcDbEntity
  8
0
  6
Continuous
100
AcDbLine
 10
167.0340176317647
 20
145.6191303810056
 30
0.0
 11
166.9907714985235
 21
145.6136582985081
 31
0.0
  0
LINE
  5
541
330
E3
100
AcDbEntity
  8
0
  6
Continuous
100
AcDbLine
 10
166.9907714985235
 20
145.6136582985081
 30
0.0
 11
166.947194469739
 21
145.6081862160107
 31
0.0
  0
LINE
  5
542
330
E3
100
AcDbEntity
  8
0
  6
Continuous
100
AcDbLine
 10
166.947194469739
 20
145.6081862160107
 30
0.0
 11
166.9036174409544
 21
145.602716868187
 31
0.0
  0
LINE
  5
543
330
E3
100
AcDbEntity
  8
0
  6
Continuous
100
AcDbLine
 10
166.9036174409544
 20
145.602716868187
 30
0.0
 11
166.8603713077133
 21
145.5972447856895
 31
0.0
  0
LINE
  5
544
330
E3
100
AcDbEntity
  8
0
  6
Continuous
100
AcDbLine
 10
166.8603713077133
 20
145.5972447856895
 30
0.0
 11
166.8177842308848
 21
145.591772703192
 31
0.0
  0
LINE
  5
545
330
E3
100
AcDbEntity
  8
0
  6
Continuous
100
AcDbLine
 10
166.8177842308848
 20
145.591772703192
 30
0.0
 11
166.7761843713384
 21
145.5863006206945
 31
0.0
  0
LINE
  5
546
330
E3
100
AcDbEntity
  8
0
  6
Continuous
100
AcDbLine
 10
166.7761843713384
 20
145.5863006206945
 30
0.0
 11
166.7358862165742
 21
145.5808312728709
 31
0.0
  0
LINE
  5
547
330
E3
100
AcDbEntity
  8
0
  6
Continuous
100
AcDbLine
 10
166.7358862165742
 20
145.5808312728709
 30
0.0
 11
166.6971933153961
 21
145.5753591903734
 31
0.0
  0
LINE
  5
548
330
E3
100
AcDbEntity
  8
0
  6
Continuous
100
AcDbLine
 10
166.6971933153961
 20
145.5753591903734
 30
0.0
 11
166.6604064819346
 21
145.5698871078759
 31
0.0
  0
LINE
  5
549
330
E3
100
AcDbEntity
  8
0
  6
Continuous
100
AcDbLine
 10
166.6604064819346
 20
145.5698871078759
 30
0.0
 11
166.6258019182547
 21
145.5644150253784
 31
0.0
  0
LINE
  5
54A
330
E3
100
AcDbEntity
  8
0
  6
Continuous
100
AcDbLine
 10
166.6258019182547
 20
145.5644150253784
 30
0.0
 11
166.5936421530519
 21
145.5589456775548
 31
0.0
  0
LINE
  5
54B
330
E3
100
AcDbEntity
  8
0
  6
Continuous
100
AcDbLine
 10
166.5936421530519
 20
145.5589456775548
 30
0.0
 11
166.5641733069784
 21
145.5534735950573
 31
0.0
  0
LINE
  5
54C
330
E3
100
AcDbEntity
  8
0
  6
Continuous
100
AcDbLine
 10
166.5641733069784
 20
145.5534735950573
 30
0.0
 11
166.5376196232948
 21
145.5480015125598
 31
0.0
  0
LINE
  5
54D
330
E3
100
AcDbEntity
  8
0
  6
Continuous
100
AcDbLine
 10
166.5376196232948
 20
145.5480015125598
 30
0.0
 11
166.5141807331967
 21
145.5425321647362
 31
0.0
  0
LINE
  5
54E
330
E3
100
AcDbEntity
  8
0
  6
Continuous
100
AcDbLine
 10
166.5141807331967
 20
145.5425321647362
 30
0.0
 11
166.4940398598364
 21
145.5370600822387
 31
0.0
  0
LINE
  5
54F
330
E3
100
AcDbEntity
  8
0
  6
Continuous
100
AcDbLine
 10
166.4940398598364
 20
145.5370600822387
 30
0.0
 11
166.4773474102788
 21
145.5315879997411
 31
0.0
  0
LINE
  5
550
330
E3
100
AcDbEntity
  8
0
  6
Continuous
100
AcDbLine
 10
166.4773474102788
 20
145.5315879997411
 30
0.0
 11
166.4642319141977
 21
145.5261159172436
 31
0.0
  0
LINE
  5
551
330
E3
100
AcDbEntity
  8
0
  6
Continuous
100
AcDbLine
 10
166.4642319141977
 20
145.5261159172436
 30
0.0
 11
166.4547918198542
 21
145.5206465694201
 31
0.0
  0
LINE
  5
552
330
E3
100
AcDbEntity
  8
0
  6
Continuous
100
AcDbLine
 10
166.4547918198542
 20
145.5206465694201
 30
0.0
 11
166.4490970496663
 21
145.5151738978988
 31
0.0
  0
LINE
  5
553
330
E3
100
AcDbEntity
  8
0
  6
Continuous
100
AcDbLine
 10
166.4490970496663
 20
145.5151738978988
 30
0.0
 11
166.4471943987122
 21
145.5097025174273
 31
0.0
  0
LINE
  5
554
330
E3
100
AcDbEntity
  8
0
  6
Continuous
100
AcDbLine
 10
167.4471943987122
 20
145.3127328204577
 30
0.0
 11
167.4452917477581
 21
145.3072614399863
 31
0.0
  0
LINE
  5
555
330
E3
100
AcDbEntity
  8
0
  6
Continuous
100
AcDbLine
 10
167.4452917477581
 20
145.3072614399863
 30
0.0
 11
167.4395982752183
 21
145.3017900595149
 31
0.0
  0
LINE
  5
556
330
E3
100
AcDbEntity
  8
0
  6
Continuous
100
AcDbLine
 10
167.4395982752183
 20
145.3017900595149
 30
0.0
 11
167.4301570252802
 21
145.2963185337612
 31
0.0
  0
LINE
  5
557
330
E3
100
AcDbEntity
  8
0
  6
Continuous
100
AcDbLine
 10
167.4301570252802
 20
145.2963185337612
 30
0.0
 11
167.4170415291992
 21
145.2908464512637
 31
0.0
  0
LINE
  5
558
330
E3
100
AcDbEntity
  8
0
  6
Continuous
100
AcDbLine
 10
167.4170415291992
 20
145.2908464512637
 30
0.0
 11
167.4003490796416
 21
145.2853771034401
 31
0.0
  0
LINE
  5
559
330
E3
100
AcDbEntity
  8
0
  6
Continuous
100
AcDbLine
 10
167.4003490796416
 20
145.2853771034401
 30
0.0
 11
167.3802082062812
 21
145.2799050209426
 31
0.0
  0
LINE
  5
55A
330
E3
100
AcDbEntity
  8
0
  6
Continuous
100
AcDbLine
 10
167.3802082062812
 20
145.2799050209426
 30
0.0
 11
167.3567693161831
 21
145.274432938445
 31
0.0
  0
LINE
  5
55B
330
E3
100
AcDbEntity
  8
0
  6
Continuous
100
AcDbLine
 10
167.3567693161831
 20
145.274432938445
 30
0.0
 11
167.3302156324995
 21
145.2689608559475
 31
0.0
  0
LINE
  5
55C
330
E3
100
AcDbEntity
  8
0
  6
Continuous
100
AcDbLine
 10
167.3302156324995
 20
145.2689608559475
 30
0.0
 11
167.300746786426
 21
145.263491508124
 31
0.0
  0
LINE
  5
55D
330
E3
100
AcDbEntity
  8
0
  6
Continuous
100
AcDbLine
 10
167.300746786426
 20
145.263491508124
 30
0.0
 11
167.2685870212232
 21
145.2580194256264
 31
0.0
  0
LINE
  5
55E
330
E3
100
AcDbEntity
  8
0
  6
Continuous
100
AcDbLine
 10
167.2685870212232
 20
145.2580194256264
 30
0.0
 11
167.2339824575433
 21
145.2525473431289
 31
0.0
  0
LINE
  5
55F
330
E3
100
AcDbEntity
  8
0
  6
Continuous
100
AcDbLine
 10
167.2339824575433
 20
145.2525473431289
 30
0.0
 11
167.1971956240818
 21
145.2470752606314
 31
0.0
  0
LINE
  5
560
330
E3
100
AcDbEntity
  8
0
  6
Continuous
100
AcDbLine
 10
167.1971956240818
 20
145.2470752606314
 30
0.0
 11
167.1585027229037
 21
145.2416059128078
 31
0.0
  0
LINE
  5
561
330
E3
100
AcDbEntity
  8
0
  6
Continuous
100
AcDbLine
 10
167.1585027229037
 20
145.2416059128078
 30
0.0
 11
167.1182045681394
 21
145.2361338303103
 31
0.0
  0
LINE
  5
562
330
E3
100
AcDbEntity
  8
0
  6
Continuous
100
AcDbLine
 10
167.1182045681394
 20
145.2361338303103
 30
0.0
 11
167.0766047085932
 21
145.2306617478128
 31
0.0
  0
LINE
  5
563
330
E3
100
AcDbEntity
  8
0
  6
Continuous
100
AcDbLine
 10
167.0766047085932
 20
145.2306617478128
 30
0.0
 11
167.0340176317647
 21
145.2251896653153
 31
0.0
  0
LINE
  5
564
330
E3
100
AcDbEntity
  8
0
  6
Continuous
100
AcDbLine
 10
167.0340176317647
 20
145.2251896653153
 30
0.0
 11
166.9907714985235
 21
145.2197203174917
 31
0.0
  0
LINE
  5
565
330
E3
100
AcDbEntity
  8
0
  6
Continuous
100
AcDbLine
 10
166.9907714985235
 20
145.2197203174917
 30
0.0
 11
166.947194469739
 21
145.2142482349941
 31
0.0
  0
LINE
  5
566
330
E3
100
AcDbEntity
  8
0
  6
Continuous
100
AcDbLine
 10
166.947194469739
 20
145.2142482349941
 30
0.0
 11
166.9036174409544
 21
145.2087761524966
 31
0.0
  0
LINE
  5
567
330
E3
100
AcDbEntity
  8
0
  6
Continuous
100
AcDbLine
 10
166.9036174409544
 20
145.2087761524966
 30
0.0
 11
166.8603713077133
 21
145.2033040699991
 31
0.0
  0
LINE
  5
568
330
E3
100
AcDbEntity
  8
0
  6
Continuous
100
AcDbLine
 10
166.8603713077133
 20
145.2033040699991
 30
0.0
 11
166.8177842308848
 21
145.1978347221755
 31
0.0
  0
LINE
  5
569
330
E3
100
AcDbEntity
  8
0
  6
Continuous
100
AcDbLine
 10
166.8177842308848
 20
145.1978347221755
 30
0.0
 11
166.7761843713384
 21
145.192362639678
 31
0.0
  0
LINE
  5
56A
330
E3
100
AcDbEntity
  8
0
  6
Continuous
100
AcDbLine
 10
166.7761843713384
 20
145.192362639678
 30
0.0
 11
166.7358862165742
 21
145.1868905571805
 31
0.0
  0
LINE
  5
56B
330
E3
100
AcDbEntity
  8
0
  6
Continuous
100
AcDbLine
 10
166.7358862165742
 20
145.1868905571805
 30
0.0
 11
166.6971933153961
 21
145.181418474683
 31
0.0
  0
LINE
  5
56C
330
E3
100
AcDbEntity
  8
0
  6
Continuous
100
AcDbLine
 10
166.6971933153961
 20
145.181418474683
 30
0.0
 11
166.6604064819346
 21
145.1759491268594
 31
0.0
  0
LINE
  5
56D
330
E3
100
AcDbEntity
  8
0
  6
Continuous
100
AcDbLine
 10
166.6604064819346
 20
145.1759491268594
 30
0.0
 11
166.6258019182547
 21
145.1704770443619
 31
0.0
  0
LINE
  5
56E
330
E3
100
AcDbEntity
  8
0
  6
Continuous
100
AcDbLine
 10
166.6258019182547
 20
145.1704770443619
 30
0.0
 11
166.5936421530519
 21
145.1650049618644
 31
0.0
  0
LINE
  5
56F
330
E3
100
AcDbEntity
  8
0
  6
Continuous
100
AcDbLine
 10
166.5936421530519
 20
145.1650049618644
 30
0.0
 11
166.5641733069784
 21
145.1595328793669
 31
0.0
  0
LINE
  5
570
330
E3
100
AcDbEntity
  8
0
  6
Continuous
100
AcDbLine
 10
166.5641733069784
 20
145.1595328793669
 30
0.0
 11
166.5376196232948
 21
145.1540635315432
 31
0.0
  0
LINE
  5
571
330
E3
100
AcDbEntity
  8
0
  6
Continuous
100
AcDbLine
 10
166.5376196232948
 20
145.1540635315432
 30
0.0
 11
166.5141807331967
 21
145.1485914490457
 31
0.0
  0
LINE
  5
572
330
E3
100
AcDbEntity
  8
0
  6
Continuous
100
AcDbLine
 10
166.5141807331967
 20
145.1485914490457
 30
0.0
 11
166.4940398598364
 21
145.1431193665482
 31
0.0
  0
LINE
  5
573
330
E3
100
AcDbEntity
  8
0
  6
Continuous
100
AcDbLine
 10
166.4940398598364
 20
145.1431193665482
 30
0.0
 11
166.4773474102788
 21
145.1376472840507
 31
0.0
  0
LINE
  5
574
330
E3
100
AcDbEntity
  8
0
  6
Continuous
100
AcDbLine
 10
166.4773474102788
 20
145.1376472840507
 30
0.0
 11
166.4642319141977
 21
145.1321779362271
 31
0.0
  0
LINE
  5
575
330
E3
100
AcDbEntity
  8
0
  6
Continuous
100
AcDbLine
 10
166.4642319141977
 20
145.1321779362271
 30
0.0
 11
166.4547918198542
 21
145.1267058537296
 31
0.0
  0
LINE
  5
576
330
E3
100
AcDbEntity
  8
0
  6
Continuous
100
AcDbLine
 10
166.4547918198542
 20
145.1267058537296
 30
0.0
 11
166.4490970496663
 21
145.1212345039594
 31
0.0
  0
LINE
  5
577
330
E3
100
AcDbEntity
  8
0
  6
Continuous
100
AcDbLine
 10
166.4490970496663
 20
145.1212345039594
 30
0.0
 11
166.4471943987122
 21
145.1157631234879
 31
0.0
  0
LINE
  5
578
330
E3
100
AcDbEntity
  8
0
  6
Continuous
100
AcDbLine
 10
167.4471943987122
 20
144.9187934265182
 30
0.0
 11
167.4452917477581
 21
144.9133220460469
 31
0.0
  0
LINE
  5
579
330
E3
100
AcDbEntity
  8
0
  6
Continuous
100
AcDbLine
 10
167.4452917477581
 20
144.9133220460469
 30
0.0
 11
167.4395982752183
 21
144.9078506655755
 31
0.0
  0
LINE
  5
57A
330
E3
100
AcDbEntity
  8
0
  6
Continuous
100
AcDbLine
 10
167.4395982752183
 20
144.9078506655755
 30
0.0
 11
167.4301570252802
 21
144.9023805527447
 31
0.0
  0
LINE
  5
57B
330
E3
100
AcDbEntity
  8
0
  6
Continuous
100
AcDbLine
 10
167.4301570252802
 20
144.9023805527447
 30
0.0
 11
167.4170415291992
 21
144.8969084702472
 31
0.0
  0
LINE
  5
57C
330
E3
100
AcDbEntity
  8
0
  6
Continuous
100
AcDbLine
 10
167.4170415291992
 20
144.8969084702472
 30
0.0
 11
167.4003490796416
 21
144.8914363877496
 31
0.0
  0
LINE
  5
57D
330
E3
100
AcDbEntity
  8
0
  6
Continuous
100
AcDbLine
 10
167.4003490796416
 20
144.8914363877496
 30
0.0
 11
167.3802082062812
 21
144.8859643052521
 31
0.0
  0
LINE
  5
57E
330
E3
100
AcDbEntity
  8
0
  6
Continuous
100
AcDbLine
 10
167.3802082062812
 20
144.8859643052521
 30
0.0
 11
167.3567693161831
 21
144.8804949574285
 31
0.0
  0
LINE
  5
57F
330
E3
100
AcDbEntity
  8
0
  6
Continuous
100
AcDbLine
 10
167.3567693161831
 20
144.8804949574285
 30
0.0
 11
167.3302156324995
 21
144.875022874931
 31
0.0
  0
LINE
  5
580
330
E3
100
AcDbEntity
  8
0
  6
Continuous
100
AcDbLine
 10
167.3302156324995
 20
144.875022874931
 30
0.0
 11
167.300746786426
 21
144.8695507924335
 31
0.0
  0
LINE
  5
581
330
E3
100
AcDbEntity
  8
0
  6
Continuous
100
AcDbLine
 10
167.300746786426
 20
144.8695507924335
 30
0.0
 11
167.2685870212232
 21
144.864078709936
 31
0.0
  0
LINE
  5
582
330
E3
100
AcDbEntity
  8
0
  6
Continuous
100
AcDbLine
 10
167.2685870212232
 20
144.864078709936
 30
0.0
 11
167.2339824575433
 21
144.8586093621124
 31
0.0
  0
LINE
  5
583
330
E3
100
AcDbEntity
  8
0
  6
Continuous
100
AcDbLine
 10
167.2339824575433
 20
144.8586093621124
 30
0.0
 11
167.1971956240818
 21
144.8531372796149
 31
0.0
  0
LINE
  5
584
330
E3
100
AcDbEntity
  8
0
  6
Continuous
100
AcDbLine
 10
167.1971956240818
 20
144.8531372796149
 30
0.0
 11
167.1585027229037
 21
144.8476651971174
 31
0.0
  0
LINE
  5
585
330
E3
100
AcDbEntity
  8
0
  6
Continuous
100
AcDbLine
 10
167.1585027229037
 20
144.8476651971174
 30
0.0
 11
167.1182045681394
 21
144.8421931146199
 31
0.0
  0
LINE
  5
586
330
E3
100
AcDbEntity
  8
0
  6
Continuous
100
AcDbLine
 10
167.1182045681394
 20
144.8421931146199
 30
0.0
 11
167.0766047085932
 21
144.8367237667963
 31
0.0
  0
LINE
  5
587
330
E3
100
AcDbEntity
  8
0
  6
Continuous
100
AcDbLine
 10
167.0766047085932
 20
144.8367237667963
 30
0.0
 11
167.0340176317647
 21
144.8312516842988
 31
0.0
  0
LINE
  5
588
330
E3
100
AcDbEntity
  8
0
  6
Continuous
100
AcDbLine
 10
167.0340176317647
 20
144.8312516842988
 30
0.0
 11
166.9907714985235
 21
144.8257796018013
 31
0.0
  0
LINE
  5
589
330
E3
100
AcDbEntity
  8
0
  6
Continuous
100
AcDbLine
 10
166.9907714985235
 20
144.8257796018013
 30
0.0
 11
166.947194469739
 21
144.8203075193038
 31
0.0
  0
LINE
  5
58A
330
E3
100
AcDbEntity
  8
0
  6
Continuous
100
AcDbLine
 10
166.947194469739
 20
144.8203075193038
 30
0.0
 11
166.9036174409544
 21
144.8148381714802
 31
0.0
  0
LINE
  5
58B
330
E3
100
AcDbEntity
  8
0
  6
Continuous
100
AcDbLine
 10
166.9036174409544
 20
144.8148381714802
 30
0.0
 11
166.8603713077133
 21
144.8093660889826
 31
0.0
  0
LINE
  5
58C
330
E3
100
AcDbEntity
  8
0
  6
Continuous
100
AcDbLine
 10
166.8603713077133
 20
144.8093660889826
 30
0.0
 11
166.8177842308848
 21
144.8038940064851
 31
0.0
  0
LINE
  5
58D
330
E3
100
AcDbEntity
  8
0
  6
Continuous
100
AcDbLine
 10
166.8177842308848
 20
144.8038940064851
 30
0.0
 11
166.7761843713384
 21
144.7984219239876
 31
0.0
  0
LINE
  5
58E
330
E3
100
AcDbEntity
  8
0
  6
Continuous
100
AcDbLine
 10
166.7761843713384
 20
144.7984219239876
 30
0.0
 11
166.7358862165742
 21
144.792952576164
 31
0.0
  0
LINE
  5
58F
330
E3
100
AcDbEntity
  8
0
  6
Continuous
100
AcDbLine
 10
166.7358862165742
 20
144.792952576164
 30
0.0
 11
166.6971933153961
 21
144.7874804936665
 31
0.0
  0
LINE
  5
590
330
E3
100
AcDbEntity
  8
0
  6
Continuous
100
AcDbLine
 10
166.6971933153961
 20
144.7874804936665
 30
0.0
 11
166.6604064819346
 21
144.782008411169
 31
0.0
  0
LINE
  5
591
330
E3
100
AcDbEntity
  8
0
  6
Continuous
100
AcDbLine
 10
166.6604064819346
 20
144.782008411169
 30
0.0
 11
166.6258019182547
 21
144.7765363286715
 31
0.0
  0
LINE
  5
592
330
E3
100
AcDbEntity
  8
0
  6
Continuous
100
AcDbLine
 10
166.6258019182547
 20
144.7765363286715
 30
0.0
 11
166.5936421530519
 21
144.7710669808479
 31
0.0
  0
LINE
  5
593
330
E3
100
AcDbEntity
  8
0
  6
Continuous
100
AcDbLine
 10
166.5936421530519
 20
144.7710669808479
 30
0.0
 11
166.5641733069784
 21
144.7655948983504
 31
0.0
  0
LINE
  5
594
330
E3
100
AcDbEntity
  8
0
  6
Continuous
100
AcDbLine
 10
166.5641733069784
 20
144.7655948983504
 30
0.0
 11
166.5376196232948
 21
144.7601228158528
 31
0.0
  0
LINE
  5
595
330
E3
100
AcDbEntity
  8
0
  6
Continuous
100
AcDbLine
 10
166.5376196232948
 20
144.7601228158528
 30
0.0
 11
166.5141807331967
 21
144.7546507333554
 31
0.0
  0
LINE
  5
596
330
E3
100
AcDbEntity
  8
0
  6
Continuous
100
AcDbLine
 10
166.5141807331967
 20
144.7546507333554
 30
0.0
 11
166.4940398598364
 21
144.7491813855318
 31
0.0
  0
LINE
  5
597
330
E3
100
AcDbEntity
  8
0
  6
Continuous
100
AcDbLine
 10
166.4940398598364
 20
144.7491813855318
 30
0.0
 11
166.4773474102788
 21
144.7437093030342
 31
0.0
  0
LINE
  5
598
330
E3
100
AcDbEntity
  8
0
  6
Continuous
100
AcDbLine
 10
166.4773474102788
 20
144.7437093030342
 30
0.0
 11
166.4642319141977
 21
144.7382372205367
 31
0.0
  0
LINE
  5
599
330
E3
100
AcDbEntity
  8
0
  6
Continuous
100
AcDbLine
 10
166.4642319141977
 20
144.7382372205367
 30
0.0
 11
166.4547918198542
 21
144.7327651380392
 31
0.0
  0
LINE
  5
59A
330
E3
100
AcDbEntity
  8
0
  6
Continuous
100
AcDbLine
 10
166.4547918198542
 20
144.7327651380392
 30
0.0
 11
166.4490970496663
 21
144.72729511002
 31
0.0
  0
LINE
  5
59B
330
E3
100
AcDbEntity
  8
0
  6
Continuous
100
AcDbLine
 10
166.4490970496663
 20
144.72729511002
 30
0.0
 11
166.4471943987122
 21
144.7218237295486
 31
0.0
  0
LINE
  5
59C
330
E3
100
AcDbEntity
  8
0
  6
Continuous
100
AcDbLine
 10
167.4471943987122
 20
144.5248540325789
 30
0.0
 11
167.4452917477581
 21
144.5193826521075
 31
0.0
  0
LINE
  5
59D
330
E3
100
AcDbEntity
  8
0
  6
Continuous
100
AcDbLine
 10
167.4452917477581
 20
144.5193826521075
 30
0.0
 11
167.4395982752183
 21
144.5139112716361
 31
0.0
  0
LINE
  5
59E
330
E3
100
AcDbEntity
  8
0
  6
Continuous
100
AcDbLine
 10
167.4395982752183
 20
144.5139112716361
 30
0.0
 11
167.4301570252802
 21
144.5084398370543
 31
0.0
  0
LINE
  5
59F
330
E3
100
AcDbEntity
  8
0
  6
Continuous
100
AcDbLine
 10
167.4301570252802
 20
144.5084398370543
 30
0.0
 11
167.4170415291992
 21
144.5029677545568
 31
0.0
  0
LINE
  5
5A0
330
E3
100
AcDbEntity
  8
0
  6
Continuous
100
AcDbLine
 10
167.4170415291992
 20
144.5029677545568
 30
0.0
 11
167.4003490796416
 21
144.4974984067331
 31
0.0
  0
LINE
  5
5A1
330
E3
100
AcDbEntity
  8
0
  6
Continuous
100
AcDbLine
 10
167.4003490796416
 20
144.4974984067331
 30
0.0
 11
167.3802082062812
 21
144.4920263242356
 31
0.0
  0
LINE
  5
5A2
330
E3
100
AcDbEntity
  8
0
  6
Continuous
100
AcDbLine
 10
167.3802082062812
 20
144.4920263242356
 30
0.0
 11
167.3567693161831
 21
144.4865542417381
 31
0.0
  0
LINE
  5
5A3
330
E3
100
AcDbEntity
  8
0
  6
Continuous
100
AcDbLine
 10
167.3567693161831
 20
144.4865542417381
 30
0.0
 11
167.3302156324995
 21
144.4810821592406
 31
0.0
  0
LINE
  5
5A4
330
E3
100
AcDbEntity
  8
0
  6
Continuous
100
AcDbLine
 10
167.3302156324995
 20
144.4810821592406
 30
0.0
 11
167.300746786426
 21
144.475612811417
 31
0.0
  0
LINE
  5
5A5
330
E3
100
AcDbEntity
  8
0
  6
Continuous
100
AcDbLine
 10
167.300746786426
 20
144.475612811417
 30
0.0
 11
167.2685870212232
 21
144.4701407289195
 31
0.0
  0
LINE
  5
5A6
330
E3
100
AcDbEntity
  8
0
  6
Continuous
100
AcDbLine
 10
167.2685870212232
 20
144.4701407289195
 30
0.0
 11
167.2339824575433
 21
144.464668646422
 31
0.0
  0
LINE
  5
5A7
330
E3
100
AcDbEntity
  8
0
  6
Continuous
100
AcDbLine
 10
167.2339824575433
 20
144.464668646422
 30
0.0
 11
167.1971956240818
 21
144.4591965639245
 31
0.0
  0
LINE
  5
5A8
330
E3
100
AcDbEntity
  8
0
  6
Continuous
100
AcDbLine
 10
167.1971956240818
 20
144.4591965639245
 30
0.0
 11
167.1585027229037
 21
144.4537272161009
 31
0.0
  0
LINE
  5
5A9
330
E3
100
AcDbEntity
  8
0
  6
Continuous
100
AcDbLine
 10
167.1585027229037
 20
144.4537272161009
 30
0.0
 11
167.1182045681394
 21
144.4482551336034
 31
0.0
  0
LINE
  5
5AA
330
E3
100
AcDbEntity
  8
0
  6
Continuous
100
AcDbLine
 10
167.1182045681394
 20
144.4482551336034
 30
0.0
 11
167.0766047085932
 21
144.4427830511059
 31
0.0
  0
LINE
  5
5AB
330
E3
100
AcDbEntity
  8
0
  6
Continuous
100
AcDbLine
 10
167.0766047085932
 20
144.4427830511059
 30
0.0
 11
167.0340176317647
 21
144.4373109686084
 31
0.0
  0
LINE
  5
5AC
330
E3
100
AcDbEntity
  8
0
  6
Continuous
100
AcDbLine
 10
167.0340176317647
 20
144.4373109686084
 30
0.0
 11
166.9907714985235
 21
144.4318416207848
 31
0.0
  0
LINE
  5
5AD
330
E3
100
AcDbEntity
  8
0
  6
Continuous
100
AcDbLine
 10
166.9907714985235
 20
144.4318416207848
 30
0.0
 11
166.947194469739
 21
144.4263695382872
 31
0.0
  0
LINE
  5
5AE
330
E3
100
AcDbEntity
  8
0
  6
Continuous
100
AcDbLine
 10
166.947194469739
 20
144.4263695382872
 30
0.0
 11
166.9036174409544
 21
144.4208974557897
 31
0.0
  0
LINE
  5
5AF
330
E3
100
AcDbEntity
  8
0
  6
Continuous
100
AcDbLine
 10
166.9036174409544
 20
144.4208974557897
 30
0.0
 11
166.8603713077133
 21
144.4154253732922
 31
0.0
  0
LINE
  5
5B0
330
E3
100
AcDbEntity
  8
0
  6
Continuous
100
AcDbLine
 10
166.8603713077133
 20
144.4154253732922
 30
0.0
 11
166.8177842308848
 21
144.4099560254686
 31
0.0
  0
LINE
  5
5B1
330
E3
100
AcDbEntity
  8
0
  6
Continuous
100
AcDbLine
 10
166.8177842308848
 20
144.4099560254686
 30
0.0
 11
166.7761843713384
 21
144.4044839429711
 31
0.0
  0
LINE
  5
5B2
330
E3
100
AcDbEntity
  8
0
  6
Continuous
100
AcDbLine
 10
166.7761843713384
 20
144.4044839429711
 30
0.0
 11
166.7358862165742
 21
144.3990118604736
 31
0.0
  0
LINE
  5
5B3
330
E3
100
AcDbEntity
  8
0
  6
Continuous
100
AcDbLine
 10
166.7358862165742
 20
144.3990118604736
 30
0.0
 11
166.6971933153961
 21
144.3935397779761
 31
0.0
  0
LINE
  5
5B4
330
E3
100
AcDbEntity
  8
0
  6
Continuous
100
AcDbLine
 10
166.6971933153961
 20
144.3935397779761
 30
0.0
 11
166.6604064819346
 21
144.3880704301525
 31
0.0
  0
LINE
  5
5B5
330
E3
100
AcDbEntity
  8
0
  6
Continuous
100
AcDbLine
 10
166.6604064819346
 20
144.3880704301525
 30
0.0
 11
166.6258019182547
 21
144.382598347655
 31
0.0
  0
LINE
  5
5B6
330
E3
100
AcDbEntity
  8
0
  6
Continuous
100
AcDbLine
 10
166.6258019182547
 20
144.382598347655
 30
0.0
 11
166.5936421530519
 21
144.3771262651575
 31
0.0
  0
LINE
  5
5B7
330
E3
100
AcDbEntity
  8
0
  6
Continuous
100
AcDbLine
 10
166.5936421530519
 20
144.3771262651575
 30
0.0
 11
166.5641733069784
 21
144.37165418266
 31
0.0
  0
LINE
  5
5B8
330
E3
100
AcDbEntity
  8
0
  6
Continuous
100
AcDbLine
 10
166.5641733069784
 20
144.37165418266
 30
0.0
 11
166.5376196232948
 21
144.3661848348364
 31
0.0
  0
LINE
  5
5B9
330
E3
100
AcDbEntity
  8
0
  6
Continuous
100
AcDbLine
 10
166.5376196232948
 20
144.3661848348364
 30
0.0
 11
166.5141807331967
 21
144.3607127523389
 31
0.0
  0
LINE
  5
5BA
330
E3
100
AcDbEntity
  8
0
  6
Continuous
100
AcDbLine
 10
166.5141807331967
 20
144.3607127523389
 30
0.0
 11
166.4940398598364
 21
144.3552406698414
 31
0.0
  0
LINE
  5
5BB
330
E3
100
AcDbEntity
  8
0
  6
Continuous
100
AcDbLine
 10
166.4940398598364
 20
144.3552406698414
 30
0.0
 11
166.4773474102788
 21
144.3497685873438
 31
0.0
  0
LINE
  5
5BC
330
E3
100
AcDbEntity
  8
0
  6
Continuous
100
AcDbLine
 10
166.4773474102788
 20
144.3497685873438
 30
0.0
 11
166.4642319141977
 21
144.3442992395202
 31
0.0
  0
LINE
  5
5BD
330
E3
100
AcDbEntity
  8
0
  6
Continuous
100
AcDbLine
 10
166.4642319141977
 20
144.3442992395202
 30
0.0
 11
166.4547918198542
 21
144.3388271570227
 31
0.0
  0
LINE
  5
5BE
330
E3
100
AcDbEntity
  8
0
  6
Continuous
100
AcDbLine
 10
166.4547918198542
 20
144.3388271570227
 30
0.0
 11
166.4490970496663
 21
144.3333557160806
 31
0.0
  0
LINE
  5
5BF
330
E3
100
AcDbEntity
  8
0
  6
Continuous
100
AcDbLine
 10
166.4490970496663
 20
144.3333557160806
 30
0.0
 11
166.4471943987122
 21
144.3278843356092
 31
0.0
  0
LINE
  5
5C0
330
E3
100
AcDbEntity
  8
0
  6
Continuous
100
AcDbLine
 10
167.4471943987122
 20
144.1309146386395
 30
0.0
 11
167.4452917477581
 21
144.1254432581681
 31
0.0
  0
LINE
  5
5C1
330
E3
100
AcDbEntity
  8
0
  6
Continuous
100
AcDbLine
 10
167.4452917477581
 20
144.1254432581681
 30
0.0
 11
167.4395982752183
 21
144.1199718776967
 31
0.0
  0
LINE
  5
5C2
330
E3
100
AcDbEntity
  8
0
  6
Continuous
100
AcDbLine
 10
167.4395982752183
 20
144.1199718776967
 30
0.0
 11
167.4301570252802
 21
144.1145018560378
 31
0.0
  0
LINE
  5
5C3
330
E3
100
AcDbEntity
  8
0
  6
Continuous
100
AcDbLine
 10
167.4301570252802
 20
144.1145018560378
 30
0.0
 11
167.4170415291992
 21
144.1090297735403
 31
0.0
  0
LINE
  5
5C4
330
E3
100
AcDbEntity
  8
0
  6
Continuous
100
AcDbLine
 10
167.4170415291992
 20
144.1090297735403
 30
0.0
 11
167.4003490796416
 21
144.1035576910428
 31
0.0
  0
LINE
  5
5C5
330
E3
100
AcDbEntity
  8
0
  6
Continuous
100
AcDbLine
 10
167.4003490796416
 20
144.1035576910428
 30
0.0
 11
167.3802082062812
 21
144.0980856085453
 31
0.0
  0
LINE
  5
5C6
330
E3
100
AcDbEntity
  8
0
  6
Continuous
100
AcDbLine
 10
167.3802082062812
 20
144.0980856085453
 30
0.0
 11
167.3567693161831
 21
144.0926162607217
 31
0.0
  0
LINE
  5
5C7
330
E3
100
AcDbEntity
  8
0
  6
Continuous
100
AcDbLine
 10
167.3567693161831
 20
144.0926162607217
 30
0.0
 11
167.3302156324995
 21
144.0871441782241
 31
0.0
  0
LINE
  5
5C8
330
E3
100
AcDbEntity
  8
0
  6
Continuous
100
AcDbLine
 10
167.3302156324995
 20
144.0871441782241
 30
0.0
 11
167.300746786426
 21
144.0816720957266
 31
0.0
  0
LINE
  5
5C9
330
E3
100
AcDbEntity
  8
0
  6
Continuous
100
AcDbLine
 10
167.300746786426
 20
144.0816720957266
 30
0.0
 11
167.2685870212232
 21
144.0762000132291
 31
0.0
  0
LINE
  5
5CA
330
E3
100
AcDbEntity
  8
0
  6
Continuous
100
AcDbLine
 10
167.2685870212232
 20
144.0762000132291
 30
0.0
 11
167.2339824575433
 21
144.0707306654055
 31
0.0
  0
LINE
  5
5CB
330
E3
100
AcDbEntity
  8
0
  6
Continuous
100
AcDbLine
 10
167.2339824575433
 20
144.0707306654055
 30
0.0
 11
167.1971956240818
 21
144.065258582908
 31
0.0
  0
LINE
  5
5CC
330
E3
100
AcDbEntity
  8
0
  6
Continuous
100
AcDbLine
 10
167.1971956240818
 20
144.065258582908
 30
0.0
 11
167.1585027229037
 21
144.0597865004105
 31
0.0
  0
LINE
  5
5CD
330
E3
100
AcDbEntity
  8
0
  6
Continuous
100
AcDbLine
 10
167.1585027229037
 20
144.0597865004105
 30
0.0
 11
167.1182045681394
 21
144.054314417913
 31
0.0
  0
LINE
  5
5CE
330
E3
100
AcDbEntity
  8
0
  6
Continuous
100
AcDbLine
 10
167.1182045681394
 20
144.054314417913
 30
0.0
 11
167.0766047085932
 21
144.0488450700894
 31
0.0
  0
LINE
  5
5CF
330
E3
100
AcDbEntity
  8
0
  6
Continuous
100
AcDbLine
 10
167.0766047085932
 20
144.0488450700894
 30
0.0
 11
167.0340176317647
 21
144.0433729875919
 31
0.0
  0
LINE
  5
5D0
330
E3
100
AcDbEntity
  8
0
  6
Continuous
100
AcDbLine
 10
167.0340176317647
 20
144.0433729875919
 30
0.0
 11
166.9907714985235
 21
144.0379009050943
 31
0.0
  0
LINE
  5
5D1
330
E3
100
AcDbEntity
  8
0
  6
Continuous
100
AcDbLine
 10
166.9907714985235
 20
144.0379009050943
 30
0.0
 11
166.947194469739
 21
144.0324288225969
 31
0.0
  0
LINE
  5
5D2
330
E3
100
AcDbEntity
  8
0
  6
Continuous
100
AcDbLine
 10
166.947194469739
 20
144.0324288225969
 30
0.0
 11
166.9036174409544
 21
144.0269594747732
 31
0.0
  0
LINE
  5
5D3
330
E3
100
AcDbEntity
  8
0
  6
Continuous
100
AcDbLine
 10
166.9036174409544
 20
144.0269594747732
 30
0.0
 11
166.8603713077133
 21
144.0214873922757
 31
0.0
  0
LINE
  5
5D4
330
E3
100
AcDbEntity
  8
0
  6
Continuous
100
AcDbLine
 10
166.8603713077133
 20
144.0214873922757
 30
0.0
 11
166.8177842308848
 21
144.0160153097782
 31
0.0
  0
LINE
  5
5D5
330
E3
100
AcDbEntity
  8
0
  6
Continuous
100
AcDbLine
 10
166.8177842308848
 20
144.0160153097782
 30
0.0
 11
166.7761843713384
 21
144.0105432272807
 31
0.0
  0
LINE
  5
5D6
330
E3
100
AcDbEntity
  8
0
  6
Continuous
100
AcDbLine
 10
166.7761843713384
 20
144.0105432272807
 30
0.0
 11
166.7358862165742
 21
144.0050738794571
 31
0.0
  0
LINE
  5
5D7
330
E3
100
AcDbEntity
  8
0
  6
Continuous
100
AcDbLine
 10
166.7358862165742
 20
144.0050738794571
 30
0.0
 11
166.6971933153961
 21
143.9996017969596
 31
0.0
  0
LINE
  5
5D8
330
E3
100
AcDbEntity
  8
0
  6
Continuous
100
AcDbLine
 10
166.6971933153961
 20
143.9996017969596
 30
0.0
 11
166.6604064819346
 21
143.9941297144621
 31
0.0
  0
LINE
  5
5D9
330
E3
100
AcDbEntity
  8
0
  6
Continuous
100
AcDbLine
 10
166.6604064819346
 20
143.9941297144621
 30
0.0
 11
166.6258019182547
 21
143.9886576319646
 31
0.0
  0
LINE
  5
5DA
330
E3
100
AcDbEntity
  8
0
  6
Continuous
100
AcDbLine
 10
166.6258019182547
 20
143.9886576319646
 30
0.0
 11
166.5936421530519
 21
143.983188284141
 31
0.0
  0
LINE
  5
5DB
330
E3
100
AcDbEntity
  8
0
  6
Continuous
100
AcDbLine
 10
166.5936421530519
 20
143.983188284141
 30
0.0
 11
166.5641733069784
 21
143.9777162016435
 31
0.0
  0
LINE
  5
5DC
330
E3
100
AcDbEntity
  8
0
  6
Continuous
100
AcDbLine
 10
166.5641733069784
 20
143.9777162016435
 30
0.0
 11
166.5376196232948
 21
143.972244119146
 31
0.0
  0
LINE
  5
5DD
330
E3
100
AcDbEntity
  8
0
  6
Continuous
100
AcDbLine
 10
166.5376196232948
 20
143.972244119146
 30
0.0
 11
166.5141807331967
 21
143.9667720366485
 31
0.0
  0
LINE
  5
5DE
330
E3
100
AcDbEntity
  8
0
  6
Continuous
100
AcDbLine
 10
166.5141807331967
 20
143.9667720366485
 30
0.0
 11
166.4940398598364
 21
143.9613026888248
 31
0.0
  0
LINE
  5
5DF
330
E3
100
AcDbEntity
  8
0
  6
Continuous
100
AcDbLine
 10
166.4940398598364
 20
143.9613026888248
 30
0.0
 11
166.4773474102788
 21
143.9558306063273
 31
0.0
  0
LINE
  5
5E0
330
E3
100
AcDbEntity
  8
0
  6
Continuous
100
AcDbLine
 10
166.4773474102788
 20
143.9558306063273
 30
0.0
 11
166.4642319141977
 21
143.9503585238298
 31
0.0
  0
LINE
  5
5E1
330
E3
100
AcDbEntity
  8
0
  6
Continuous
100
AcDbLine
 10
166.4642319141977
 20
143.9503585238298
 30
0.0
 11
166.4547918198542
 21
143.9448864413323
 31
0.0
  0
LINE
  5
5E2
330
E3
100
AcDbEntity
  8
0
  6
Continuous
100
AcDbLine
 10
166.4547918198542
 20
143.9448864413323
 30
0.0
 11
166.4490970496663
 21
143.9394163221412
 31
0.0
  0
LINE
  5
5E3
330
E3
100
AcDbEntity
  8
0
  6
Continuous
100
AcDbLine
 10
166.4490970496663
 20
143.9394163221412
 30
0.0
 11
166.4471943987122
 21
143.9339449416698
 31
0.0
  0
LINE
  5
5E4
330
E3
100
AcDbEntity
  8
0
  6
Continuous
100
AcDbLine
 10
167.4471943987122
 20
143.7369752447001
 30
0.0
 11
167.4452917477581
 21
143.7315038642287
 31
0.0
  0
LINE
  5
5E5
330
E3
100
AcDbEntity
  8
0
  6
Continuous
100
AcDbLine
 10
167.4452917477581
 20
143.7315038642287
 30
0.0
 11
167.4395982752183
 21
143.7260324837573
 31
0.0
  0
LINE
  5
5E6
330
E3
100
AcDbEntity
  8
0
  6
Continuous
100
AcDbLine
 10
167.4395982752183
 20
143.7260324837573
 30
0.0
 11
167.4301570252802
 21
143.7205611403474
 31
0.0
  0
LINE
  5
5E7
330
E3
100
AcDbEntity
  8
0
  6
Continuous
100
AcDbLine
 10
167.4301570252802
 20
143.7205611403474
 30
0.0
 11
167.4170415291992
 21
143.7150890578499
 31
0.0
  0
LINE
  5
5E8
330
E3
100
AcDbEntity
  8
0
  6
Continuous
100
AcDbLine
 10
167.4170415291992
 20
143.7150890578499
 30
0.0
 11
167.4003490796416
 21
143.7096169753523
 31
0.0
  0
LINE
  5
5E9
330
E3
100
AcDbEntity
  8
0
  6
Continuous
100
AcDbLine
 10
167.4003490796416
 20
143.7096169753523
 30
0.0
 11
167.3802082062812
 21
143.7041476275288
 31
0.0
  0
LINE
  5
5EA
330
E3
100
AcDbEntity
  8
0
  6
Continuous
100
AcDbLine
 10
167.3802082062812
 20
143.7041476275288
 30
0.0
 11
167.3567693161831
 21
143.6986755450313
 31
0.0
  0
LINE
  5
5EB
330
E3
100
AcDbEntity
  8
0
  6
Continuous
100
AcDbLine
 10
167.3567693161831
 20
143.6986755450313
 30
0.0
 11
167.3302156324995
 21
143.6932034625337
 31
0.0
  0
LINE
  5
5EC
330
E3
100
AcDbEntity
  8
0
  6
Continuous
100
AcDbLine
 10
167.3302156324995
 20
143.6932034625337
 30
0.0
 11
167.300746786426
 21
143.6877341147101
 31
0.0
  0
LINE
  5
5ED
330
E3
100
AcDbEntity
  8
0
  6
Continuous
100
AcDbLine
 10
167.300746786426
 20
143.6877341147101
 30
0.0
 11
167.2685870212232
 21
143.6822620322126
 31
0.0
  0
LINE
  5
5EE
330
E3
100
AcDbEntity
  8
0
  6
Continuous
100
AcDbLine
 10
167.2685870212232
 20
143.6822620322126
 30
0.0
 11
167.2339824575433
 21
143.6767899497151
 31
0.0
  0
LINE
  5
5EF
330
E3
100
AcDbEntity
  8
0
  6
Continuous
100
AcDbLine
 10
167.2339824575433
 20
143.6767899497151
 30
0.0
 11
167.1971956240818
 21
143.6713178672176
 31
0.0
  0
LINE
  5
5F0
330
E3
100
AcDbEntity
  8
0
  6
Continuous
100
AcDbLine
 10
167.1971956240818
 20
143.6713178672176
 30
0.0
 11
167.1585027229037
 21
143.665848519394
 31
0.0
  0
LINE
  5
5F1
330
E3
100
AcDbEntity
  8
0
  6
Continuous
100
AcDbLine
 10
167.1585027229037
 20
143.665848519394
 30
0.0
 11
167.1182045681394
 21
143.6603764368965
 31
0.0
  0
LINE
  5
5F2
330
E3
100
AcDbEntity
  8
0
  6
Continuous
100
AcDbLine
 10
167.1182045681394
 20
143.6603764368965
 30
0.0
 11
167.0766047085932
 21
143.654904354399
 31
0.0
  0
LINE
  5
5F3
330
E3
100
AcDbEntity
  8
0
  6
Continuous
100
AcDbLine
 10
167.0766047085932
 20
143.654904354399
 30
0.0
 11
167.0340176317647
 21
143.6494322719015
 31
0.0
  0
LINE
  5
5F4
330
E3
100
AcDbEntity
  8
0
  6
Continuous
100
AcDbLine
 10
167.0340176317647
 20
143.6494322719015
 30
0.0
 11
166.9907714985235
 21
143.6439629240779
 31
0.0
  0
LINE
  5
5F5
330
E3
100
AcDbEntity
  8
0
  6
Continuous
100
AcDbLine
 10
166.9907714985235
 20
143.6439629240779
 30
0.0
 11
166.947194469739
 21
143.6384908415804
 31
0.0
  0
LINE
  5
5F6
330
E3
100
AcDbEntity
  8
0
  6
Continuous
100
AcDbLine
 10
166.947194469739
 20
143.6384908415804
 30
0.0
 11
166.9036174409544
 21
143.6330187590829
 31
0.0
  0
LINE
  5
5F7
330
E3
100
AcDbEntity
  8
0
  6
Continuous
100
AcDbLine
 10
166.9036174409544
 20
143.6330187590829
 30
0.0
 11
166.8603713077133
 21
143.6275466765853
 31
0.0
  0
LINE
  5
5F8
330
E3
100
AcDbEntity
  8
0
  6
Continuous
100
AcDbLine
 10
166.8603713077133
 20
143.6275466765853
 30
0.0
 11
166.8177842308848
 21
143.6220773287617
 31
0.0
  0
LINE
  5
5F9
330
E3
100
AcDbEntity
  8
0
  6
Continuous
100
AcDbLine
 10
166.8177842308848
 20
143.6220773287617
 30
0.0
 11
166.7761843713384
 21
143.6166052462642
 31
0.0
  0
LINE
  5
5FA
330
E3
100
AcDbEntity
  8
0
  6
Continuous
100
AcDbLine
 10
166.7761843713384
 20
143.6166052462642
 30
0.0
 11
166.7358862165742
 21
143.6111331637667
 31
0.0
  0
LINE
  5
5FB
330
E3
100
AcDbEntity
  8
0
  6
Continuous
100
AcDbLine
 10
166.7358862165742
 20
143.6111331637667
 30
0.0
 11
166.6971933153961
 21
143.6056610812692
 31
0.0
  0
LINE
  5
5FC
330
E3
100
AcDbEntity
  8
0
  6
Continuous
100
AcDbLine
 10
166.6971933153961
 20
143.6056610812692
 30
0.0
 11
166.6604064819346
 21
143.6001917334456
 31
0.0
  0
LINE
  5
5FD
330
E3
100
AcDbEntity
  8
0
  6
Continuous
100
AcDbLine
 10
166.6604064819346
 20
143.6001917334456
 30
0.0
 11
166.6258019182547
 21
143.5947196509481
 31
0.0
  0
LINE
  5
5FE
330
E3
100
AcDbEntity
  8
0
  6
Continuous
100
AcDbLine
 10
166.6258019182547
 20
143.5947196509481
 30
0.0
 11
166.5936421530519
 21
143.5892475684506
 31
0.0
  0
LINE
  5
5FF
330
E3
100
AcDbEntity
  8
0
  6
Continuous
100
AcDbLine
 10
166.5936421530519
 20
143.5892475684506
 30
0.0
 11
166.5641733069784
 21
143.5837754859531
 31
0.0
  0
LINE
  5
600
330
E3
100
AcDbEntity
  8
0
  6
Continuous
100
AcDbLine
 10
166.5641733069784
 20
143.5837754859531
 30
0.0
 11
166.5376196232948
 21
143.5783061381294
 31
0.0
  0
LINE
  5
601
330
E3
100
AcDbEntity
  8
0
  6
Continuous
100
AcDbLine
 10
166.5376196232948
 20
143.5783061381294
 30
0.0
 11
166.5141807331967
 21
143.5728340556319
 31
0.0
  0
LINE
  5
602
330
E3
100
AcDbEntity
  8
0
  6
Continuous
100
AcDbLine
 10
166.5141807331967
 20
143.5728340556319
 30
0.0
 11
166.4940398598364
 21
143.5673619731344
 31
0.0
  0
LINE
  5
603
330
E3
100
AcDbEntity
  8
0
  6
Continuous
100
AcDbLine
 10
166.4940398598364
 20
143.5673619731344
 30
0.0
 11
166.4773474102788
 21
143.561889890637
 31
0.0
  0
LINE
  5
604
330
E3
100
AcDbEntity
  8
0
  6
Continuous
100
AcDbLine
 10
166.4773474102788
 20
143.561889890637
 30
0.0
 11
166.4642319141977
 21
143.5564205428133
 31
0.0
  0
LINE
  5
605
330
E3
100
AcDbEntity
  8
0
  6
Continuous
100
AcDbLine
 10
166.4642319141977
 20
143.5564205428133
 30
0.0
 11
166.4547918198542
 21
143.5509484603158
 31
0.0
  0
LINE
  5
606
330
E3
100
AcDbEntity
  8
0
  6
Dashed
100
AcDbLine
 10
165.6088559959998
 20
157.1310738429441
 30
0.0
 11
168.316667205964
 21
157.1310738429441
 31
0.0
  0
MTEXT
  5
607
330
E3
100
AcDbEntity
  8
Doc_ Floor
  6
Continuous
100
AcDbMText
 10
201.9865495359532
 20
138.8606637955689
 30
0.0
 40
2.5
 41
0.0
 71
     4
 72
     1
  1
{ROOF FIXING}
  7
GENERATED_STYLE_1
 73
     1
 44
1.0
  0
LINE
  5
608
330
E3
100
AcDbEntity
  8
Doc_ Floor
  6
Continuous
100
AcDbLine
 10
174.5692502499682
 20
143.2006285281925
 30
0.0
 11
178.432950694298
 21
143.1961463976511
 31
0.0
  0
LINE
  5
609
330
E3
100
AcDbEntity
  8
Doc_ Floor
  6
Continuous
100
AcDbLine
 10
174.5692502499682
 20
143.2006285281925
 30
0.0
 11
177.9130727756214
 21
141.2648978037468
 31
0.0
  0
LINE
  5
60A
330
E3
100
AcDbEntity
  8
Doc_ Floor
  6
Continuous
100
AcDbLine
 10
178.432950694298
 20
143.1961463976511
 30
0.0
 11
177.9130727756214
 21
141.2648978037468
 31
0.0
  0
LWPOLYLINE
  5
60B
330
E3
100
AcDbEntity
  8
Doc_ Floor
  6
Continuous
100
AcDbPolyline
 90
        6
 70
   128
 43
0.0
 10
178.1730118052008
 20
142.2305224262884
 10
184.7491680556103
 20
140.6563536625198
 10
190.4498479042062
 20
139.621146176486
 10
193.1095225481362
 20
139.28313879904
 10
195.7154941359875
 20
139.0528548047322
 10
200.9865495359532
 20
138.8794343838042
  0
ENDBLK
  5
E5
330
E3
100
AcDbEntity
  8
0
100
AcDbBlockEnd
  0
BLOCK
  5
611
330
610
100
AcDbEntity
  8
0
100
AcDbBlockBegin
  2
R-TRS9-07 BARGE DETAIL - SIDE_STORY_MARKER
 70
     0
 10
0.0
 20
0.0
 30
0.0
  3
R-TRS9-07 BARGE DETAIL - SIDE_STORY_MARKER
  1

  0
ENDBLK
  5
612
330
610
100
AcDbEntity
  8
0
100
AcDbBlockEnd
  0
ENDSEC
  0
SECTION
  2
ENTITIES
  0
HATCH
  5
3F
330
1F
100
AcDbEntity
  8
Doc_ Finishes
  6
Continuous
100
AcDbHatch
 10
0.0
 20
0.0
 30
0.0
210
0.0
220
0.0
230
1.0
  2
SOLID
 70
     1
 71
     0
 91
        1
 92
        3
 72
     0
 73
     1
 93
       54
 10
27.4117749414874
 20
16.87044408857867
 10
26.89356552397386
 20
16.5825499677378
 10
26.5480925789648
 20
16.29465584689693
 10
26.12584786839819
 20
16.02595466744544
 10
25.76118198199976
 20
15.60370995687884
 10
25.39651609560134
 20
15.33500877742737
 10
25.07023609198168
 20
14.89357112547136
 10
24.49444785029994
 20
14.45213347351537
 10
23.93785255000758
 20
14.02988876294876
 10
23.43883607388344
 20
13.81876640766546
 10
22.74789018386533
 20
13.39652169709885
 10
22.09533017662603
 20
12.99346992792163
 10
21.63469958328064
 20
12.55203227596564
 10
20.90536781048376
 20
12.12978756539902
 10
20.59828074825351
 20
11.7459287376112
 10
20.04168544796116
 20
11.28529814426581
 10
19.36993249933246
 20
10.8630534336992
 10
18.73656543348255
 20
10.42161578174319
 10
18.04561954346447
 20
10.15291460229172
 10
17.1051654153843
 20
9.692284008946325
 10
16.39502658397681
 20
9.020531060317637
 10
15.83843128368446
 20
8.598286349751023
 10
15.12829245227699
 20
8.137655756405634
 10
14.84039833143612
 20
7.98411222529051
 10
14.37976773809073
 20
7.81137575278599
 10
14.07268067586046
 20
7.523481631945121
 10
14.0151018516923
 20
7.216394569714853
 10
14.14945244141803
 20
6.890114566095209
 10
14.4373465622589
 20
6.563834562475543
 10
14.8787842142149
 20
6.659799269422514
 10
15.51215128006482
 20
7.06285103859973
 10
16.01116775618899
 20
7.389131042219374
 10
16.33744775980864
 20
7.696218104449641
 10
16.51018423231316
 20
7.907340459732938
 10
17.01303929671522
 20
8.421711288968723
 10
17.33548071205699
 20
8.652026585641417
 10
17.75004824606785
 20
8.99749953065046
 10
18.14158425041142
 20
9.204783297655894
 10
19.24709767444037
 20
9.75754000967037
 10
20.23745345013295
 20
10.47151742935572
 10
21.4120614631637
 20
11.1624633193738
 10
21.84966052684182
 20
11.64612544238645
 10
22.49454335752537
 20
12.06069297639732
 10
23.78430901889248
 20
12.9819541630881
 10
24.3600972605742
 20
13.25833251909534
 10
25.6498629219413
 20
14.24868829478776
 10
25.85714668894673
 20
14.64022429913134
 10
26.68628175696843
 20
15.23904407048036
 10
27.28510152831745
 20
15.72270619349301
 10
27.81482671066464
 20
16.1142421978366
 10
28.27545730401003
 20
16.52880973184745
 10
28.22939424467549
 20
16.7821565581874
 10
28.09120506667188
 20
16.89731420652375
 10
27.56147988432467
 20
16.89731420652375
 97
        0
 75
     0
 76
     1
 98
        0
  0
LINE
  5
41
330
1F
100
AcDbEntity
  8
Doc_ Finishes
  6
Continuous
100
AcDbLine
 10
27.41177566876475
 20
16.87044600708104
 30
0.0
 11
26.89356756490952
 21
16.58254868214004
 31
0.0
  0
LINE
  5
42
330
1F
100
AcDbEntity
  8
Doc_ Finishes
  6
Continuous
100
AcDbLine
 10
26.89356756490952
 20
16.58254868214004
 30
0.0
 11
26.54809254523997
 21
16.29465578284815
 31
0.0
  0
LINE
  5
43
330
1F
100
AcDbEntity
  8
Doc_ Finishes
  6
Continuous
100
AcDbLine
 10
26.54809254523997
 20
16.29465578284815
 30
0.0
 11
26.12584579071597
 21
16.02595249803305
 31
0.0
  0
LINE
  5
44
330
1F
100
AcDbEntity
  8
Doc_ Finishes
  6
Continuous
100
AcDbLine
 10
26.12584579071597
 20
16.02595249803305
 30
0.0
 11
25.76118115656963
 21
15.60371016915814
 31
0.0
  0
LINE
  5
45
330
1F
100
AcDbEntity
  8
Doc_ Finishes
  6
Continuous
100
AcDbLine
 10
25.76118115656963
 20
15.60371016915814
 30
0.0
 11
25.39651652242329
 21
15.33500688434304
 31
0.0
  0
LINE
  5
46
330
1F
100
AcDbEntity
  8
Doc_ Finishes
  6
Continuous
100
AcDbLine
 10
25.39651652242329
 20
15.33500688434304
 30
0.0
 11
25.07023554287962
 21
14.89357051534225
 31
0.0
  0
LINE
  5
47
330
1F
100
AcDbEntity
  8
Doc_ Finishes
  6
Continuous
100
AcDbLine
 10
25.07023554287962
 20
14.89357051534225
 30
0.0
 11
24.49444974429583
 21
14.45213414634146
 31
0.0
  0
LINE
  5
48
330
1F
100
AcDbEntity
  8
Doc_ Finishes
  6
Continuous
100
AcDbLine
 10
24.49444974429583
 20
14.45213414634146
 30
0.0
 11
23.93785356018882
 21
14.02988739181747
 31
0.0
  0
LINE
  5
49
330
1F
100
AcDbEntity
  8
Doc_ Finishes
  6
Continuous
100
AcDbLine
 10
23.93785356018882
 20
14.02988739181747
 30
0.0
 11
23.43883507081038
 21
13.81876622738001
 31
0.0
  0
LINE
  5
4A
330
1F
100
AcDbEntity
  8
Doc_ Finishes
  6
Continuous
100
AcDbLine
 10
23.43883507081038
 20
13.81876622738001
 30
0.0
 11
22.74788945712038
 21
13.39652389850511
 31
0.0
  0
LINE
  5
4B
330
1F
100
AcDbEntity
  8
Doc_ Finishes
  6
Continuous
100
AcDbLine
 10
22.74788945712038
 20
13.39652389850511
 30
0.0
 11
22.09533192368214
 21
12.993471184107
 31
0.0
  0
LINE
  5
4C
330
1F
100
AcDbEntity
  8
Doc_ Finishes
  6
Continuous
100
AcDbLine
 10
22.09533192368214
 20
12.993471184107
 30
0.0
 11
21.63470151455547
 21
12.55203038945712
 31
0.0
  0
LINE
  5
4D
330
1F
100
AcDbEntity
  8
Doc_ Finishes
  6
Continuous
100
AcDbLine
 10
21.63470151455547
 20
12.55203038945712
 30
0.0
 11
20.90536782061369
 21
12.12978806058222
 31
0.0
  0
LINE
  5
4E
330
1F
100
AcDbEntity
  8
Doc_ Finishes
  6
Continuous
100
AcDbLine
 10
20.90536782061369
 20
12.12978806058222
 30
0.0
 11
20.59828088119591
 21
11.74592938630999
 31
0.0
  0
LINE
  5
4F
330
1F
100
AcDbEntity
  8
Doc_ Finishes
  6
Continuous
100
AcDbLine
 10
20.59828088119591
 20
11.74592938630999
 30
0.0
 11
20.0416846970889
 21
11.28529897718332
 31
0.0
  0
LINE
  5
50
330
1F
100
AcDbEntity
  8
Doc_ Finishes
  6
Continuous
100
AcDbLine
 10
20.0416846970889
 20
11.28529897718332
 30
0.0
 11
19.36993312352478
 21
10.86305222265932
 31
0.0
  0
LINE
  5
51
330
1F
100
AcDbEntity
  8
Doc_ Finishes
  6
Continuous
100
AcDbLine
 10
19.36993312352478
 20
10.86305222265932
 30
0.0
 11
18.73656520456333
 21
10.42161585365854
 31
0.0
  0
LINE
  5
52
330
1F
100
AcDbEntity
  8
Doc_ Finishes
  6
Continuous
100
AcDbLine
 10
18.73656520456333
 20
10.42161585365854
 30
0.0
 11
18.04561959087333
 21
10.15291256884343
 31
0.0
  0
LINE
  5
53
330
1F
100
AcDbEntity
  8
Doc_ Finishes
  6
Continuous
100
AcDbLine
 10
18.04561959087333
 20
10.15291256884343
 30
0.0
 11
17.1051647324941
 21
9.692282159716758
 31
0.0
  0
LINE
  5
54
330
1F
100
AcDbEntity
  8
Doc_ Finishes
  6
Continuous
100
AcDbLine
 10
17.1051647324941
 20
9.692282159716758
 30
0.0
 11
16.3950250786782
 21
9.020530586152635
 31
0.0
  0
LINE
  5
55
330
1F
100
AcDbEntity
  8
Doc_ Finishes
  6
Continuous
100
AcDbLine
 10
16.3950250786782
 20
9.020530586152635
 30
0.0
 11
15.8384333202203
 21
8.598288257277733
 31
0.0
  0
LINE
  5
56
330
1F
100
AcDbEntity
  8
Doc_ Finishes
  6
Continuous
100
AcDbLine
 10
15.8384333202203
 20
8.598288257277733
 30
0.0
 11
15.1282936664044
 21
8.137657848151063
 31
0.0
  0
LINE
  5
57
330
1F
100
AcDbEntity
  8
Doc_ Finishes
  6
Continuous
100
AcDbLine
 10
15.1282936664044
 20
8.137657848151063
 30
0.0
 11
14.84039634146341
 21
7.984114378442171
 31
0.0
  0
LINE
  5
58
330
1F
100
AcDbEntity
  8
Doc_ Finishes
  6
Continuous
100
AcDbLine
 10
14.84039634146341
 20
7.984114378442171
 30
0.0
 11
14.37976593233674
 21
7.811376868607396
 31
0.0
  0
LINE
  5
59
330
1F
100
AcDbEntity
  8
Doc_ Finishes
  6
Continuous
100
AcDbLine
 10
14.37976593233674
 20
7.811376868607396
 30
0.0
 11
14.07267899291896
 21
7.523479543666405
 31
0.0
  0
LINE
  5
5A
330
1F
100
AcDbEntity
  8
Doc_ Finishes
  6
Continuous
100
AcDbLine
 10
14.07267899291896
 20
7.523479543666405
 30
0.0
 11
14.0151012981904
 21
7.216392604248622
 31
0.0
  0
LINE
  5
5B
330
1F
100
AcDbEntity
  8
Doc_ Finishes
  6
Continuous
100
AcDbLine
 10
14.0151012981904
 20
7.216392604248622
 30
0.0
 11
14.14945072777341
 21
6.890116050354051
 31
0.0
  0
LINE
  5
5C
330
1F
100
AcDbEntity
  8
Doc_ Finishes
  6
Continuous
100
AcDbLine
 10
14.14945072777341
 20
6.890116050354051
 30
0.0
 11
14.4373480527144
 21
6.563835070810386
 31
0.0
  0
LINE
  5
5D
330
1F
100
AcDbEntity
  8
Doc_ Finishes
  6
Continuous
100
AcDbLine
 10
14.4373480527144
 20
6.563835070810386
 30
0.0
 11
14.87878442171519
 21
6.659800845790715
 31
0.0
  0
LINE
  5
5E
330
1F
100
AcDbEntity
  8
Doc_ Finishes
  6
Continuous
100
AcDbLine
 10
14.87878442171519
 20
6.659800845790715
 30
0.0
 11
15.51215234067663
 21
7.062849134539732
 31
0.0
  0
LINE
  5
5F
330
1F
100
AcDbEntity
  8
Doc_ Finishes
  6
Continuous
100
AcDbLine
 10
15.51215234067663
 20
7.062849134539732
 30
0.0
 11
16.01116640440598
 21
7.389130114083398
 31
0.0
  0
LINE
  5
60
330
1F
100
AcDbEntity
  8
Doc_ Finishes
  6
Continuous
100
AcDbLine
 10
16.01116640440598
 20
7.389130114083398
 30
0.0
 11
16.33744738394964
 21
7.69621705350118
 31
0.0
  0
LINE
  5
61
330
1F
100
AcDbEntity
  8
Doc_ Finishes
  6
Continuous
100
AcDbLine
 10
16.33744738394964
 20
7.69621705350118
 30
0.0
 11
16.51018489378442
 21
7.907342643587726
 31
0.0
  0
LINE
  5
62
330
1F
100
AcDbEntity
  8
Doc_ Finishes
  6
Continuous
100
AcDbLine
 10
16.51018489378442
 20
7.907342643587726
 30
0.0
 11
17.0130404209284
 21
8.421709284028323
 31
0.0
  0
LINE
  5
63
330
1F
100
AcDbEntity
  8
Doc_ Finishes
  6
Continuous
100
AcDbLine
 10
17.0130404209284
 20
8.421709284028323
 30
0.0
 11
17.33547993705743
 21
8.65202448859166
 31
0.0
  0
LINE
  5
64
330
1F
100
AcDbEntity
  8
Doc_ Finishes
  6
Continuous
100
AcDbLine
 10
17.33547993705743
 20
8.65202448859166
 30
0.0
 11
17.75004819040126
 21
8.997499508261212
 31
0.0
  0
LINE
  5
65
330
1F
100
AcDbEntity
  8
Doc_ Finishes
  6
Continuous
100
AcDbLine
 10
17.75004819040126
 20
8.997499508261212
 30
0.0
 11
18.14158536585366
 21
9.204783634933122
 31
0.0
  0
LINE
  5
66
330
1F
100
AcDbEntity
  8
Doc_ Finishes
  6
Continuous
100
AcDbLine
 10
18.14158536585366
 20
9.204783634933122
 30
0.0
 11
19.24709923288749
 21
9.75753835562549
 31
0.0
  0
LINE
  5
67
330
1F
100
AcDbEntity
  8
Doc_ Finishes
  6
Continuous
100
AcDbLine
 10
19.24709923288749
 20
9.75753835562549
 30
0.0
 11
20.23745328481511
 21
10.47151947285602
 31
0.0
  0
LINE
  5
68
330
1F
100
AcDbEntity
  8
Doc_ Finishes
  6
Continuous
100
AcDbLine
 10
20.23745328481511
 20
10.47151947285602
 30
0.0
 11
21.41206038552321
 21
11.16246508654602
 31
0.0
  0
LINE
  5
69
330
1F
100
AcDbEntity
  8
Doc_ Finishes
  6
Continuous
100
AcDbLine
 10
21.41206038552321
 20
11.16246508654602
 30
0.0
 11
21.84965971675846
 21
11.64612657356412
 31
0.0
  0
LINE
  5
6A
330
1F
100
AcDbEntity
  8
Doc_ Finishes
  6
Continuous
100
AcDbLine
 10
21.84965971675846
 20
11.64612657356412
 30
0.0
 11
22.49454317466562
 21
12.06069482690795
 31
0.0
  0
LINE
  5
6B
330
1F
100
AcDbEntity
  8
Doc_ Finishes
  6
Continuous
100
AcDbLine
 10
22.49454317466562
 20
12.06069482690795
 30
0.0
 11
23.78431009047993
 21
12.98195564516129
 31
0.0
  0
LINE
  5
6C
330
1F
100
AcDbEntity
  8
Doc_ Finishes
  6
Continuous
100
AcDbLine
 10
23.78431009047993
 20
12.98195564516129
 30
0.0
 11
24.36009588906373
 21
13.25833300550747
 31
0.0
  0
LINE
  5
6D
330
1F
100
AcDbEntity
  8
Doc_ Finishes
  6
Continuous
100
AcDbLine
 10
24.36009588906373
 20
13.25833300550747
 30
0.0
 11
25.64986280487805
 21
14.24868705743509
 31
0.0
  0
LINE
  5
6E
330
1F
100
AcDbEntity
  8
Doc_ Finishes
  6
Continuous
100
AcDbLine
 10
25.64986280487805
 20
14.24868705743509
 30
0.0
 11
25.85714693154996
 21
14.64022423288749
 31
0.0
  0
LINE
  5
6F
330
1F
100
AcDbEntity
  8
Doc_ Finishes
  6
Continuous
100
AcDbLine
 10
25.85714693154996
 20
14.64022423288749
 30
0.0
 11
26.68628343823761
 21
15.2390455350118
 31
0.0
  0
LINE
  5
70
330
1F
100
AcDbEntity
  8
Doc_ Finishes
  6
Continuous
100
AcDbLine
 10
26.68628343823761
 20
15.2390455350118
 30
0.0
 11
27.28510031471282
 21
15.7227070220299
 31
0.0
  0
LINE
  5
71
330
1F
100
AcDbEntity
  8
Doc_ Finishes
  6
Continuous
100
AcDbLine
 10
27.28510031471282
 20
15.7227070220299
 30
0.0
 11
27.81482838316287
 21
16.1142441974823
 31
0.0
  0
LINE
  5
72
330
1F
100
AcDbEntity
  8
Doc_ Finishes
  6
Continuous
100
AcDbLine
 10
27.81482838316287
 20
16.1142441974823
 30
0.0
 11
28.27545879228953
 21
16.52880802517702
 31
0.0
  0
LINE
  5
73
330
1F
100
AcDbEntity
  8
Doc_ Finishes
  6
Continuous
100
AcDbLine
 10
28.27545879228953
 20
16.52880802517702
 30
0.0
 11
28.22939221085759
 21
16.78215873328088
 31
0.0
  0
LINE
  5
74
330
1F
100
AcDbEntity
  8
Doc_ Finishes
  6
Continuous
100
AcDbLine
 10
28.22939221085759
 20
16.78215873328088
 30
0.0
 11
28.09120574350905
 21
16.897314122738
 31
0.0
  0
LINE
  5
75
330
1F
100
AcDbEntity
  8
Doc_ Finishes
  6
Continuous
100
AcDbLine
 10
28.09120574350905
 20
16.897314122738
 30
0.0
 11
27.56147767505901
 21
16.897314122738
 31
0.0
  0
LINE
  5
76
330
1F
100
AcDbEntity
  8
Doc_ Finishes
  6
Continuous
100
AcDbLine
 10
27.56147767505901
 20
16.897314122738
 30
0.0
 11
27.41177566876475
 21
16.87044600708104
 31
0.0
  0
HATCH
  5
77
330
1F
100
AcDbEntity
  8
Doc_ Finishes
  6
Continuous
100
AcDbHatch
 10
0.0
 20
0.0
 30
0.0
210
0.0
220
0.0
230
1.0
  2
SOLID
 70
     1
 71
     0
 91
        1
 92
        3
 72
     0
 73
     1
 93
       39
 10
27.65360600299377
 20
13.12014334109181
 10
27.21600693931564
 20
12.77467039608275
 10
26.54809257896482
 20
12.24494521373555
 10
25.92624127794851
 20
11.85340920939199
 10
25.32742150659951
 20
11.32368402704478
 10
24.72860173525052
 20
11.04730567103754
 10
24.08371890456698
 20
10.56364354802488
 10
23.62308831122158
 20
10.33332825135219
 10
23.231552306878
 20
10.03391836567767
 10
22.81698477286715
 20
9.619350831666825
 10
22.40241723885631
 20
9.38903553499415
 10
21.91875511584363
 20
9.043562589985086
 10
21.66540828950367
 20
8.859310352646935
 10
21.25084075549282
 20
8.582931996639696
 10
20.09926427212933
 20
7.753796928618002
 10
19.75379132712029
 20
7.477418572610764
 10
19.2931607337749
 20
7.316197864939873
 10
19.22406614477309
 20
6.993756449598113
 10
19.3622553227767
 20
6.717378093590874
 10
19.63863367878394
 20
6.602220445254527
 10
20.00713815346026
 20
6.8325357419272
 10
20.26048497980021
 20
7.131945627601722
 10
20.55989486547472
 20
7.362260924274415
 10
21.31993534449462
 20
7.707733869283458
 10
21.84966052684182
 20
8.122301403294307
 10
22.88607936186895
 20
8.882341882314256
 10
23.20852077721072
 20
9.342972475659646
 10
24.01462431556515
 20
9.734508480003234
 10
24.5673810275796
 20
10.05694989534501
 10
25.46561068460312
 20
10.60970660735953
 10
25.88017821861399
 20
11.07033720070492
 10
26.31777728229212
 20
11.34671555671216
 10
26.70931328663569
 20
11.30065249737762
 10
27.21600693931562
 20
11.55399932371759
 10
28.0681735370046
 20
12.17585062473387
 10
28.41364648201364
 20
12.49829204007566
 10
28.39061495234636
 20
12.77467039608289
 10
28.22939424467547
 20
13.00498569275559
 10
28.04514200733732
 20
13.05104875209013
 97
        0
 75
     0
 76
     1
 98
        0
  0
LINE
  5
78
330
1F
100
AcDbEntity
  8
Doc_ Finishes
  6
Continuous
100
AcDbLine
 10
27.6536064122738
 20
13.12014211250983
 30
0.0
 11
27.21600708103855
 21
12.77467151848938
 31
0.0
  0
LINE
  5
79
330
1F
100
AcDbEntity
  8
Doc_ Finishes
  6
Continuous
100
AcDbLine
 10
27.21600708103855
 20
12.77467151848938
 30
0.0
 11
26.54809254523997
 21
12.24494345003934
 31
0.0
  0
LINE
  5
7A
330
1F
100
AcDbEntity
  8
Doc_ Finishes
  6
Continuous
100
AcDbLine
 10
26.54809254523997
 20
12.24494345003934
 30
0.0
 11
25.92624016522423
 21
11.85341070023603
 31
0.0
  0
LINE
  5
7B
330
1F
100
AcDbEntity
  8
Doc_ Finishes
  6
Continuous
100
AcDbLine
 10
25.92624016522423
 20
11.85341070023603
 30
0.0
 11
25.32742328874902
 21
11.32368263178599
 31
0.0
  0
LINE
  5
7C
330
1F
100
AcDbEntity
  8
Doc_ Finishes
  6
Continuous
100
AcDbLine
 10
25.32742328874902
 20
11.32368263178599
 30
0.0
 11
24.72860198662471
 21
11.04730527143981
 31
0.0
  0
LINE
  5
7D
330
1F
100
AcDbEntity
  8
Doc_ Finishes
  6
Continuous
100
AcDbLine
 10
24.72860198662471
 20
11.04730527143981
 30
0.0
 11
24.08371852871754
 21
10.56364378442171
 31
0.0
  0
LINE
  5
7E
330
1F
100
AcDbEntity
  8
Doc_ Finishes
  6
Continuous
100
AcDbLine
 10
24.08371852871754
 20
10.56364378442171
 30
0.0
 11
23.62308811959087
 21
10.33332857985838
 31
0.0
  0
LINE
  5
7F
330
1F
100
AcDbEntity
  8
Doc_ Finishes
  6
Continuous
100
AcDbLine
 10
23.62308811959087
 20
10.33332857985838
 30
0.0
 11
23.23155094413847
 21
10.03392014162077
 31
0.0
  0
LINE
  5
80
330
1F
100
AcDbEntity
  8
Doc_ Finishes
  6
Continuous
100
AcDbLine
 10
23.23155094413847
 20
10.03392014162077
 30
0.0
 11
22.81698269079465
 21
9.619351888276947
 31
0.0
  0
LINE
  5
81
330
1F
100
AcDbEntity
  8
Doc_ Finishes
  6
Continuous
100
AcDbLine
 10
22.81698269079465
 20
9.619351888276947
 30
0.0
 11
22.40241886309992
 21
9.389036683713611
 31
0.0
  0
LINE
  5
82
330
1F
100
AcDbEntity
  8
Doc_ Finishes
  6
Continuous
100
AcDbLine
 10
22.40241886309992
 20
9.389036683713611
 30
0.0
 11
21.91875295043273
 21
9.04356166404406
 31
0.0
  0
LINE
  5
83
330
1F
100
AcDbEntity
  8
Doc_ Finishes
  6
Continuous
100
AcDbLine
 10
21.91875295043273
 20
9.04356166404406
 30
0.0
 11
21.66540666797797
 21
8.859308615263572
 31
0.0
  0
LINE
  5
84
330
1F
100
AcDbEntity
  8
Doc_ Finishes
  6
Continuous
100
AcDbLine
 10
21.66540666797797
 20
8.859308615263572
 30
0.0
 11
21.25084284028324
 21
8.582931254917387
 31
0.0
  0
LINE
  5
85
330
1F
100
AcDbEntity
  8
Doc_ Finishes
  6
Continuous
100
AcDbLine
 10
21.25084284028324
 20
8.582931254917387
 30
0.0
 11
20.09926239181747
 21
7.75379474822974
 31
0.0
  0
LINE
  5
86
330
1F
100
AcDbEntity
  8
Doc_ Finishes
  6
Continuous
100
AcDbLine
 10
20.09926239181747
 20
7.75379474822974
 30
0.0
 11
19.75379179779701
 21
7.477417387883556
 31
0.0
  0
LINE
  5
87
330
1F
100
AcDbEntity
  8
Doc_ Finishes
  6
Continuous
100
AcDbLine
 10
19.75379179779701
 20
7.477417387883556
 30
0.0
 11
19.29316138867033
 21
7.316199842643588
 31
0.0
  0
LINE
  5
88
330
1F
100
AcDbEntity
  8
Doc_ Finishes
  6
Continuous
100
AcDbLine
 10
19.29316138867033
 20
7.316199842643588
 30
0.0
 11
19.22406815499606
 21
6.993755900865461
 31
0.0
  0
LINE
  5
89
330
1F
100
AcDbEntity
  8
Doc_ Finishes
  6
Continuous
100
AcDbLine
 10
19.22406815499606
 20
6.993755900865461
 30
0.0
 11
19.36225462234461
 21
6.717378540519276
 31
0.0
  0
LINE
  5
8A
330
1F
100
AcDbEntity
  8
Doc_ Finishes
  6
Continuous
100
AcDbLine
 10
19.36225462234461
 20
6.717378540519276
 30
0.0
 11
19.63863198269079
 21
6.602218725413059
 31
0.0
  0
LINE
  5
8B
330
1F
100
AcDbEntity
  8
Doc_ Finishes
  6
Continuous
100
AcDbLine
 10
19.63863198269079
 20
6.602218725413059
 30
0.0
 11
20.00713808025177
 21
6.832533929976396
 31
0.0
  0
LINE
  5
8C
330
1F
100
AcDbEntity
  8
Doc_ Finishes
  6
Continuous
100
AcDbLine
 10
20.00713808025177
 20
6.832533929976396
 30
0.0
 11
20.26048436270653
 21
7.1319467938631
 31
0.0
  0
LINE
  5
8D
330
1F
100
AcDbEntity
  8
Doc_ Finishes
  6
Continuous
100
AcDbLine
 10
20.26048436270653
 20
7.1319467938631
 30
0.0
 11
20.55989280094414
 21
7.362261998426435
 31
0.0
  0
LINE
  5
8E
330
1F
100
AcDbEntity
  8
Doc_ Finishes
  6
Continuous
100
AcDbLine
 10
20.55989280094414
 20
7.362261998426435
 30
0.0
 11
21.31993607395751
 21
7.707732592446892
 31
0.0
  0
LINE
  5
8F
330
1F
100
AcDbEntity
  8
Doc_ Finishes
  6
Continuous
100
AcDbLine
 10
21.31993607395751
 20
7.707732592446892
 30
0.0
 11
21.84965971675846
 21
8.122300845790717
 31
0.0
  0
LINE
  5
90
330
1F
100
AcDbEntity
  8
Doc_ Finishes
  6
Continuous
100
AcDbLine
 10
21.84965971675846
 20
8.122300845790717
 30
0.0
 11
22.88608035011802
 21
8.882339693154996
 31
0.0
  0
LINE
  5
91
330
1F
100
AcDbEntity
  8
Doc_ Finishes
  6
Continuous
100
AcDbLine
 10
22.88608035011802
 20
8.882339693154996
 30
0.0
 11
23.20851986624705
 21
9.342974527930762
 31
0.0
  0
LINE
  5
92
330
1F
100
AcDbEntity
  8
Doc_ Finishes
  6
Continuous
100
AcDbLine
 10
23.20851986624705
 20
9.342974527930762
 30
0.0
 11
24.01462529504327
 21
9.734507277734066
 31
0.0
  0
LINE
  5
93
330
1F
100
AcDbEntity
  8
Doc_ Finishes
  6
Continuous
100
AcDbLine
 10
24.01462529504327
 20
9.734507277734066
 30
0.0
 11
24.56738001573564
 21
10.05695121951219
 31
0.0
  0
LINE
  5
94
330
1F
100
AcDbEntity
  8
Doc_ Finishes
  6
Continuous
100
AcDbLine
 10
24.56738001573564
 20
10.05695121951219
 30
0.0
 11
25.46560975609756
 21
10.60970594020456
 31
0.0
  0
LINE
  5
95
330
1F
100
AcDbEntity
  8
Doc_ Finishes
  6
Continuous
100
AcDbLine
 10
25.46560975609756
 20
10.60970594020456
 30
0.0
 11
25.88017800944139
 21
11.07033634933124
 31
0.0
  0
LINE
  5
96
330
1F
100
AcDbEntity
  8
Doc_ Finishes
  6
Continuous
100
AcDbLine
 10
25.88017800944139
 20
11.07033634933124
 30
0.0
 11
26.31777734067663
 21
11.34671370967742
 31
0.0
  0
LINE
  5
97
330
1F
100
AcDbEntity
  8
Doc_ Finishes
  6
Continuous
100
AcDbLine
 10
26.31777734067663
 20
11.34671370967742
 30
0.0
 11
26.70931451612903
 21
11.30065155389457
 31
0.0
  0
LINE
  5
98
330
1F
100
AcDbEntity
  8
Doc_ Finishes
  6
Continuous
100
AcDbLine
 10
26.70931451612903
 20
11.30065155389457
 30
0.0
 11
27.21600708103855
 21
11.55399783634933
 31
0.0
  0
LINE
  5
99
330
1F
100
AcDbEntity
  8
Doc_ Finishes
  6
Continuous
100
AcDbLine
 10
27.21600708103855
 20
11.55399783634933
 30
0.0
 11
28.06817466561763
 21
12.17585021636507
 31
0.0
  0
LINE
  5
9A
330
1F
100
AcDbEntity
  8
Doc_ Finishes
  6
Continuous
100
AcDbLine
 10
28.06817466561763
 20
12.17585021636507
 30
0.0
 11
28.41364525963808
 21
12.49829415814319
 31
0.0
  0
LINE
  5
9B
330
1F
100
AcDbEntity
  8
Doc_ Finishes
  6
Continuous
100
AcDbLine
 10
28.41364525963808
 20
12.49829415814319
 30
0.0
 11
28.39061418174666
 21
12.77467151848938
 31
0.0
  0
LINE
  5
9C
330
1F
100
AcDbEntity
  8
Doc_ Finishes
  6
Continuous
100
AcDbLine
 10
28.39061418174666
 20
12.77467151848938
 30
0.0
 11
28.22939221085759
 21
13.00498672305271
 31
0.0
  0
LINE
  5
9D
330
1F
100
AcDbEntity
  8
Doc_ Finishes
  6
Continuous
100
AcDbLine
 10
28.22939221085759
 20
13.00498672305271
 30
0.0
 11
28.04514358772619
 21
13.05104887883556
 31
0.0
  0
LINE
  5
9E
330
1F
100
AcDbEntity
  8
Doc_ Finishes
  6
Continuous
100
AcDbLine
 10
28.04514358772619
 20
13.05104887883556
 30
0.0
 11
27.6536064122738
 21
13.12014211250983
 31
0.0
  0
HATCH
  5
9F
330
1F
100
AcDbEntity
  8
Doc_ Finishes
  6
Continuous
100
AcDbHatch
 10
0.0
 20
0.0
 30
0.0
210
0.0
220
0.0
230
1.0
  2
SOLID
 70
     1
 71
     0
 91
        1
 92
        3
 72
     0
 73
     1
 93
       47
 10
28.06817353700456
 20
15.74573772316067
 10
28.30309513961077
 20
15.62136746295728
 10
28.4412843176144
 20
15.4002647781515
 10
28.93876535842742
 20
15.17916209334572
 10
29.82317609765057
 20
14.40530269652538
 10
30.92868952167951
 20
13.74199464210799
 10
31.59199757609689
 20
13.3827027792986
 10
32.20002995931279
 20
13.07868658769064
 10
33.55428390374828
 20
12.08372450606458
 10
34.07940278016201
 20
11.69679480765445
 10
34.88090001258301
 20
11.08876242443854
 10
35.59948373820179
 20
10.50836787682334
 10
36.5668079842271
 20
9.817421986805197
 10
37.06428902504012
 20
9.458130123995785
 10
37.81051058625966
 20
8.933011247582023
 10
38.61200781868061
 20
8.407892371168286
 10
38.77783483228498
 20
8.186789686362482
 10
39.38586721550092
 20
7.744584316750918
 10
40.18736444792187
 20
6.915449248729224
 10
40.7953968311378
 20
6.44560604351692
 10
41.56925622795804
 20
6.169227687509681
 10
42.23256428237543
 20
6.086314180707507
 10
42.48130480278193
 20
6.30741686551329
 10
42.14965077557326
 20
6.611433057121246
 10
41.48634272115586
 20
6.998362755531397
 10
40.76775899553709
 20
7.357654618340788
 10
40.18736444792187
 20
8.048600508358874
 10
38.99893751709079
 20
8.822459905179112
 10
38.47381864067705
 20
9.319940945992132
 10
38.22507812027052
 20
9.734508480003
 10
37.17484036744301
 20
10.31490302761817
 10
36.73263499783144
 20
10.78474623283046
 10
36.2351539570184
 20
11.17167593124059
 10
35.48893239579888
 20
11.61388130085215
 10
34.85326217698223
 20
12.16663801286669
 10
34.35578113616919
 20
12.58120554687754
 10
33.69247308175183
 20
12.99577308088841
 10
33.22262987653953
 20
13.32742710809708
 10
32.7251488357265
 20
13.5761676285036
 10
31.93747052110588
 20
14.06443605744977
 10
31.43077686842594
 20
14.38687747279155
 10
30.92408321574601
 20
14.70931888813342
 10
30.62467333007151
 20
15.100854892477
 10
29.95675896972068
 20
15.67664313415887
 10
29.47309684670803
 20
15.9530214901661
 10
28.82821401602447
 20
16.36758902417695
 10
28.50577260068269
 20
16.22939984617334
 97
        0
 75
     0
 76
     1
 98
        0
  0
LINE
  5
A0
330
1F
100
AcDbEntity
  8
Doc_ Finishes
  6
Continuous
100
AcDbLine
 10
28.30309697088906
 20
15.62136850904799
 30
0.0
 11
28.06817466561763
 21
15.74573809992132
 31
0.0
  0
LINE
  5
A1
330
1F
100
AcDbEntity
  8
Doc_ Finishes
  6
Continuous
100
AcDbLine
 10
28.44128343823761
 20
15.40026308025177
 30
0.0
 11
28.30309697088906
 21
15.62136850904799
 31
0.0
  0
LINE
  5
A2
330
1F
100
AcDbEntity
  8
Doc_ Finishes
  6
Continuous
100
AcDbLine
 10
28.93876622738001
 20
15.17916207710464
 30
0.0
 11
28.44128343823761
 21
15.40026308025177
 31
0.0
  0
LINE
  5
A3
330
1F
100
AcDbEntity
  8
Doc_ Finishes
  6
Continuous
100
AcDbLine
 10
29.82317466561762
 20
14.40530192761605
 30
0.0
 11
28.93876622738001
 21
15.17916207710464
 31
0.0
  0
LINE
  5
A4
330
1F
100
AcDbEntity
  8
Doc_ Finishes
  6
Continuous
100
AcDbLine
 10
30.92868853265146
 20
13.74199449252557
 30
0.0
 11
29.82317466561762
 21
14.40530192761605
 31
0.0
  0
LINE
  5
A5
330
1F
100
AcDbEntity
  8
Doc_ Finishes
  6
Continuous
100
AcDbLine
 10
31.59199596774193
 20
13.3827025963808
 30
0.0
 11
30.92868853265146
 21
13.74199449252557
 31
0.0
  0
LINE
  5
A6
330
1F
100
AcDbEntity
  8
Doc_ Finishes
  6
Continuous
100
AcDbLine
 10
32.20003147128246
 20
13.07868705743509
 30
0.0
 11
31.59199596774193
 21
13.3827025963808
 31
0.0
  0
LINE
  5
A7
330
1F
100
AcDbEntity
  8
Doc_ Finishes
  6
Continuous
100
AcDbLine
 10
33.55428452006294
 20
12.08372590479937
 30
0.0
 11
32.20003147128246
 21
13.07868705743509
 31
0.0
  0
LINE
  5
A8
330
1F
100
AcDbEntity
  8
Doc_ Finishes
  6
Continuous
100
AcDbLine
 10
34.07940106215578
 20
11.69679583005508
 30
0.0
 11
33.55428452006294
 21
12.08372590479937
 31
0.0
  0
LINE
  5
A9
330
1F
100
AcDbEntity
  8
Doc_ Finishes
  6
Continuous
100
AcDbLine
 10
34.8808993902439
 20
11.08876032651456
 30
0.0
 11
34.07940106215578
 21
11.69679583005508
 31
0.0
  0
LINE
  5
AA
330
1F
100
AcDbEntity
  8
Doc_ Finishes
  6
Continuous
100
AcDbLine
 10
35.59948318253343
 20
10.50836742722266
 30
0.0
 11
34.8808993902439
 21
11.08876032651456
 31
0.0
  0
LINE
  5
AB
330
1F
100
AcDbEntity
  8
Doc_ Finishes
  6
Continuous
100
AcDbLine
 10
36.56680615656963
 20
9.817421813532652
 30
0.0
 11
35.59948318253343
 21
10.50836742722266
 31
0.0
  0
LINE
  5
AC
330
1F
100
AcDbEntity
  8
Doc_ Finishes
  6
Continuous
100
AcDbLine
 10
37.06428894571204
 20
9.458129917387884
 30
0.0
 11
36.56680615656963
 21
9.817421813532652
 31
0.0
  0
LINE
  5
AD
330
1F
100
AcDbEntity
  8
Doc_ Finishes
  6
Continuous
100
AcDbLine
 10
37.8105109166011
 20
8.933013375295044
 30
0.0
 11
37.06428894571204
 21
9.458129917387884
 31
0.0
  0
LINE
  5
AE
330
1F
100
AcDbEntity
  8
Doc_ Finishes
  6
Continuous
100
AcDbLine
 10
38.61200924468922
 20
8.407892407553108
 30
0.0
 11
37.8105109166011
 21
8.933013375295044
 31
0.0
  0
LINE
  5
AF
330
1F
100
AcDbEntity
  8
Doc_ Finishes
  6
Continuous
100
AcDbLine
 10
38.77783389063729
 20
8.18679140440598
 30
0.0
 11
38.61200924468922
 21
8.407892407553108
 31
0.0
  0
LINE
  5
B0
330
1F
100
AcDbEntity
  8
Doc_ Finishes
  6
Continuous
100
AcDbLine
 10
39.3858693941778
 20
7.744584972462627
 30
0.0
 11
38.77783389063729
 21
8.18679140440598
 31
0.0
  0
LINE
  5
B1
330
1F
100
AcDbEntity
  8
Doc_ Finishes
  6
Continuous
100
AcDbLine
 10
40.18736329661684
 20
6.915448465774981
 30
0.0
 11
39.3858693941778
 21
7.744584972462627
 31
0.0
  0
LINE
  5
B2
330
1F
100
AcDbEntity
  8
Doc_ Finishes
  6
Continuous
100
AcDbLine
 10
40.79539880015735
 20
6.4456038552321
 30
0.0
 11
40.18736329661684
 21
6.915448465774981
 31
0.0
  0
LINE
  5
B3
330
1F
100
AcDbEntity
  8
Doc_ Finishes
  6
Continuous
100
AcDbLine
 10
41.56925452399685
 20
6.169226494885916
 30
0.0
 11
40.79539880015735
 21
6.4456038552321
 31
0.0
  0
LINE
  5
B4
330
1F
100
AcDbEntity
  8
Doc_ Finishes
  6
Continuous
100
AcDbLine
 10
42.23256638473643
 20
6.086316384736428
 30
0.0
 11
41.56925452399685
 21
6.169226494885916
 31
0.0
  0
LINE
  5
B5
330
1F
100
AcDbEntity
  8
Doc_ Finishes
  6
Continuous
100
AcDbLine
 10
42.48130556648308
 20
6.307417387883556
 30
0.0
 11
42.23256638473643
 21
6.086316384736428
 31
0.0
  0
LINE
  5
B6
330
1F
100
AcDbEntity
  8
Doc_ Finishes
  6
Continuous
100
AcDbLine
 10
42.14965184893784
 20
6.611432926829268
 30
0.0
 11
42.48130556648308
 21
6.307417387883556
 31
0.0
  0
LINE
  5
B7
330
1F
100
AcDbEntity
  8
Doc_ Finishes
  6
Continuous
100
AcDbLine
 10
41.48634441384736
 20
6.998363001573564
 30
0.0
 11
42.14965184893784
 21
6.611432926829268
 31
0.0
  0
LINE
  5
B8
330
1F
100
AcDbEntity
  8
Doc_ Finishes
  6
Continuous
100
AcDbLine
 10
40.76776062155783
 20
7.357654897718332
 30
0.0
 11
41.48634441384736
 21
6.998363001573564
 31
0.0
  0
LINE
  5
B9
330
1F
100
AcDbEntity
  8
Doc_ Finishes
  6
Continuous
100
AcDbLine
 10
40.18736329661684
 20
8.048600511408338
 30
0.0
 11
40.76776062155783
 21
7.357654897718332
 31
0.0
  0
LINE
  5
BA
330
1F
100
AcDbEntity
  8
Doc_ Finishes
  6
Continuous
100
AcDbLine
 10
38.99893931943352
 20
8.822460660896931
 30
0.0
 11
40.18736329661684
 21
8.048600511408338
 31
0.0
  0
LINE
  5
BB
330
1F
100
AcDbEntity
  8
Doc_ Finishes
  6
Continuous
100
AcDbLine
 10
38.47381835169158
 20
9.319939024390242
 30
0.0
 11
38.99893931943352
 21
8.822460660896931
 31
0.0
  0
LINE
  5
BC
330
1F
100
AcDbEntity
  8
Doc_ Finishes
  6
Continuous
100
AcDbLine
 10
38.22507916994492
 20
9.734507277734066
 30
0.0
 11
38.47381835169158
 21
9.319939024390242
 31
0.0
  0
LINE
  5
BD
330
1F
100
AcDbEntity
  8
Doc_ Finishes
  6
Continuous
100
AcDbLine
 10
37.17484166011014
 20
10.31490460267506
 30
0.0
 11
38.22507916994492
 21
9.734507277734066
 31
0.0
  0
LINE
  5
BE
330
1F
100
AcDbEntity
  8
Doc_ Finishes
  6
Continuous
100
AcDbLine
 10
36.7326352281668
 20
10.78474478756884
 30
0.0
 11
37.17484166011014
 21
10.31490460267506
 31
0.0
  0
LINE
  5
BF
330
1F
100
AcDbEntity
  8
Doc_ Finishes
  6
Continuous
100
AcDbLine
 10
36.23515243902439
 20
11.17167486231314
 30
0.0
 11
36.7326352281668
 21
10.78474478756884
 31
0.0
  0
LINE
  5
C0
330
1F
100
AcDbEntity
  8
Doc_ Finishes
  6
Continuous
100
AcDbLine
 10
35.48893046813532
 20
11.61388129425649
 30
0.0
 11
36.23515243902439
 21
11.17167486231314
 31
0.0
  0
LINE
  5
C1
330
1F
100
AcDbEntity
  8
Doc_ Finishes
  6
Continuous
100
AcDbLine
 10
34.85326121164437
 20
12.16663601494886
 30
0.0
 11
35.48893046813532
 21
11.61388129425649
 31
0.0
  0
LINE
  5
C2
330
1F
100
AcDbEntity
  8
Doc_ Finishes
  6
Continuous
100
AcDbLine
 10
34.35578284815106
 20
12.58120426829268
 30
0.0
 11
34.85326121164437
 21
12.16663601494886
 31
0.0
  0
LINE
  5
C3
330
1F
100
AcDbEntity
  8
Doc_ Finishes
  6
Continuous
100
AcDbLine
 10
33.69247098741149
 20
12.99577252163651
 30
0.0
 11
34.35578284815106
 21
12.58120426829268
 31
0.0
  0
LINE
  5
C4
330
1F
100
AcDbEntity
  8
Doc_ Finishes
  6
Continuous
100
AcDbLine
 10
33.2226308025177
 20
13.32742623918175
 30
0.0
 11
33.69247098741149
 21
12.99577252163651
 31
0.0
  0
LINE
  5
C5
330
1F
100
AcDbEntity
  8
Doc_ Finishes
  6
Continuous
100
AcDbLine
 10
32.7251480133753
 20
13.5761654209284
 30
0.0
 11
33.2226308025177
 21
13.32742623918175
 31
0.0
  0
LINE
  5
C6
330
1F
100
AcDbEntity
  8
Doc_ Finishes
  6
Continuous
100
AcDbLine
 10
31.93747098741148
 20
14.0644340086546
 30
0.0
 11
32.7251480133753
 21
13.5761654209284
 31
0.0
  0
LINE
  5
C7
330
1F
100
AcDbEntity
  8
Doc_ Finishes
  6
Continuous
100
AcDbLine
 10
31.43077842250197
 20
14.38687795043273
 30
0.0
 11
31.93747098741148
 21
14.0644340086546
 31
0.0
  0
LINE
  5
C8
330
1F
100
AcDbEntity
  8
Doc_ Finishes
  6
Continuous
100
AcDbLine
 10
30.92408143194335
 20
14.70931746656176
 30
0.0
 11
31.43077842250197
 21
14.38687795043273
 31
0.0
  0
LINE
  5
C9
330
1F
100
AcDbEntity
  8
Doc_ Finishes
  6
Continuous
100
AcDbLine
 10
30.62467299370574
 20
15.10085464201416
 30
0.0
 11
30.92408143194335
 21
14.70931746656176
 31
0.0
  0
LINE
  5
CA
330
1F
100
AcDbEntity
  8
Doc_ Finishes
  6
Continuous
100
AcDbLine
 10
29.95675845790716
 20
15.67664486624705
 30
0.0
 11
30.62467299370574
 21
15.10085464201416
 31
0.0
  0
LINE
  5
CB
330
1F
100
AcDbEntity
  8
Doc_ Finishes
  6
Continuous
100
AcDbLine
 10
29.47309697088906
 20
15.95302222659323
 30
0.0
 11
29.95675845790716
 21
15.67664486624705
 31
0.0
  0
LINE
  5
CC
330
1F
100
AcDbEntity
  8
Doc_ Finishes
  6
Continuous
100
AcDbLine
 10
28.8282135129819
 20
16.36759047993706
 30
0.0
 11
29.47309697088906
 21
15.95302222659323
 31
0.0
  0
LINE
  5
CD
330
1F
100
AcDbEntity
  8
Doc_ Finishes
  6
Continuous
100
AcDbLine
 10
28.50577399685287
 20
16.22939958693942
 30
0.0
 11
28.8282135129819
 21
16.36759047993706
 31
0.0
  0
LINE
  5
CE
330
1F
100
AcDbEntity
  8
Doc_ Finishes
  6
Continuous
100
AcDbLine
 10
28.06817466561763
 20
15.74573809992132
 30
0.0
 11
28.50577399685287
 21
16.22939958693942
 31
0.0
  0
LINE
  5
CF
330
1F
100
AcDbEntity
  8
Doc_ Finishes
  6
Continuous
 62
   254
370
    18
100
AcDbLine
 10
97.43333792289535
 20
5.093360051140834
 30
0.0
 11
97.43333792289535
 21
20.69901750590086
 31
0.0
  0
LINE
  5
D0
330
1F
100
AcDbEntity
  8
Doc_ Finishes
  6
Continuous
 62
   254
370
    18
100
AcDbLine
 10
7.000000491738787
 20
20.69901750590086
 30
0.0
 11
290.2406840086546
 21
20.69901750590086
 31
0.0
  0
LINE
  5
D1
330
1F
100
AcDbEntity
  8
Doc_ Finishes
  6
Continuous
 62
   254
370
    18
100
AcDbLine
 10
290.2406840086546
 20
20.69901750590086
 30
0.0
 11
290.2406840086546
 21
5.000000983477577
 31
0.0
  0
LINE
  5
D2
330
1F
100
AcDbEntity
  8
Doc_ Finishes
  6
Continuous
 62
   254
370
    18
100
AcDbLine
 10
290.2406840086546
 20
5.000000983477577
 30
0.0
 11
7.000000491738787
 21
5.000000983477577
 31
0.0
  0
LINE
  5
D3
330
1F
100
AcDbEntity
  8
Doc_ Finishes
  6
Continuous
 62
   254
370
    18
100
AcDbLine
 10
7.000000491738787
 20
20.69901750590086
 30
0.0
 11
7.000000491738787
 21
5.000000983477577
 31
0.0
  0
LINE
  5
D4
330
1F
100
AcDbEntity
  8
Doc_ Finishes
  6
Continuous
 62
   254
370
    18
100
AcDbLine
 10
190.2919443351691
 20
5.093360051140834
 30
0.0
 11
190.2919443351691
 21
20.69901750590086
 31
0.0
  0
LINE
  5
D5
330
1F
100
AcDbEntity
  8
Doc_ Finishes
  6
Continuous
 62
   254
370
    18
100
AcDbLine
 10
190.2919443351691
 20
12.8961909913454
 30
0.0
 11
290.2406840086546
 21
12.8961909913454
 31
0.0
  0
MTEXT
  5
D7
330
1F
100
AcDbEntity
  8
0
  6
Continuous
100
AcDbMText
 10
210.3494767103412
 20
15.00228492609298
 30
0.0
 40
2.25
 41
0.0
 71
     7
 72
     1
  1
{R-TRS9-07}
  7
GENERATED_STYLE_1
 73
     1
 44
1.0
  0
MTEXT
  5
D8
330
1F
100
AcDbEntity
  8
0
  6
Continuous
100
AcDbMText
 10
210.3494767103412
 20
11.03300550383743
 30
0.0
 40
3.0
 41
0.0
 71
     1
 72
     1
  1
{BARGE DETAIL - SIDE}
  7
GENERATED_STYLE_1
 73
     1
 44
1.0
  0
MTEXT
  5
DA
330
1F
100
AcDbEntity
  8
Doc_ Floor
  6
Continuous
100
AcDbMText
 10
29.78353726544612
 20
13.33283672870609
 30
0.0
 40
5.603347280334726
 41
0.0
 71
     1
 72
     1
  1
{The Roofing Store}
  7
GENERATED_STYLE_2
 73
     1
 44
1.0
  0
MTEXT
  5
DC
102
{ACAD_XDICTIONARY
360
63E
102
}
330
1F
100
AcDbEntity
  8
0
  6
Continuous
100
AcDbMText
 10
102.7389238446655
 20
6.378784417288159
 30
0.0
 40
1.5
 41
0.0
 71
     7
 72
     1
  1
{P: HEAD OFFICE              09 277 2717\P    ALBANY             09 972 0060\P    KATIKAIT            07 549 5190\P    WELLINGTON              04 974 5792\P    CHRISTCHURCH          03 348 6528}
  7
GENERATED_STYLE_1
 73
     1
 44
1.062946161486498
  0
MTEXT
  5
DD
330
1F
100
AcDbEntity
  8
0
  6
Continuous
100
AcDbMText
 10
149.4184566143587
 20
9.199084231526156
 30
0.0
 40
1.5
 41
0.0
 71
     7
 72
     1
  1
{WEB: www.theroofingstore.co.nz}
  7
GENERATED_STYLE_1
 73
     1
 44
1.0
  0
MTEXT
  5
DE
330
1F
100
AcDbEntity
  8
0
  6
Continuous
100
AcDbMText
 10
149.4184566143587
 20
6.620946023411263
 30
0.0
 40
1.5
 41
0.0
 71
     7
 72
     1
  1
{Copyright \U+00A9 The Roofing Store 2013}
  7
GENERATED_STYLE_1
 73
     1
 44
1.0
  0
MTEXT
  5
DF
330
1F
100
AcDbEntity
  8
0
  6
Continuous
100
AcDbMText
 10
273.9546684065315
 20
15.01595325993831
 30
0.0
 40
2.25
 41
0.0
 71
     7
 72
     1
  1
{1:5}
  7
GENERATED_STYLE_1
 73
     1
 44
1.0
  0
MTEXT
  5
E0
330
1F
100
AcDbEntity
  8
0
  6
Continuous
100
AcDbMText
 10
264.8396605309016
 20
15.51746459162148
 30
0.0
 40
1.5
 41
0.0
 71
     7
 72
     1
  1
{SCALE:}
  7
GENERATED_STYLE_1
 73
     1
 44
1.0
  0
MTEXT
  5
E1
330
1F
100
AcDbEntity
  8
0
  6
Continuous
100
AcDbMText
 10
191.5066235617487
 20
15.48695559872207
 30
0.0
 40
1.5
 41
0.0
 71
     7
 72
     1
  1
{DETAIL NUMBER:}
  7
GENERATED_STYLE_1
 73
     1
 44
1.0
  0
MTEXT
  5
E2
330
1F
100
AcDbEntity
  8
0
  6
Continuous
100
AcDbMText
 10
191.5066235617487
 20
9.005462392315325
 30
0.0
 40
1.5
 41
0.0
 71
     7
 72
     1
  1
{TITLE:}
  7
GENERATED_STYLE_1
 73
     1
 44
1.0
  0
INSERT
  5
60C
102
{ACAD_XDICTIONARY
360
60D
102
}
330
1F
100
AcDbEntity
  8
0
  6
Continuous
100
AcDbBlockReference
  2
Drawing_1_2
 10
114.216861706496
 20
79.33406998313191
 30
0.0
  0
ENDSEC
  0
SECTION
  2
OBJECTS
  0
DICTIONARY
  5
C
330
0
100
AcDbDictionary
281
     1
  3
ACAD_GROUP
350
D
  3
ACAD_LAYOUT
350
1A
  3
ACAD_MATERIAL
350
3B
  3
ACAD_MLEADERSTYLE
350
639
  3
ACAD_MLINESTYLE
350
17
  3
ACAD_PLOTSETTINGS
350
19
  3
ACAD_PLOTSTYLENAME
350
E
  3
ACAD_SCALELIST
350
613
  3
ACAD_VISUALSTYLE
350
2A
  3
AcDbVariableDictionary
350
637
  3
WATERMARKS
350
635
  0
DICTIONARY
  5
63E
330
DC
100
AcDbDictionary
280
     1
281
     1
  3
ACAD_MTEXT_RT
360
63F
  0
DICTIONARY
  5
60D
330
60C
100
AcDbDictionary
280
     1
281
     1
  3
ACAD_FILTER
360
60E
  0
DICTIONARY
  5
D
102
{ACAD_REACTORS
330
C
102
}
330
C
100
AcDbDictionary
281
     1
  0
DICTIONARY
  5
1A
102
{ACAD_REACTORS
330
C
102
}
330
C
100
AcDbDictionary
281
     1
  3
Layout1
350
1E
  3
Model
350
22
  0
DICTIONARY
  5
3B
102
{ACAD_REACTORS
330
C
102
}
330
C
100
AcDbDictionary
281
     1
  3
ByBlock
350
3D
  3
ByLayer
350
3C
  3
Global
350
3E
  0
DICTIONARY
  5
639
102
{ACAD_REACTORS
330
C
102
}
330
C
100
AcDbDictionary
281
     1
  0
DICTIONARY
  5
17
102
{ACAD_REACTORS
330
C
102
}
330
C
100
AcDbDictionary
281
     1
  3
Standard
350
18
  0
DICTIONARY
  5
19
102
{ACAD_REACTORS
330
C
102
}
330
C
100
AcDbDictionary
281
     1
  0
ACDBDICTIONARYWDFLT
  5
E
102
{ACAD_REACTORS
330
C
102
}
330
C
100
AcDbDictionary
281
     1
  3
Normal
350
F
100
AcDbDictionaryWithDefault
340
F
  0
DICTIONARY
  5
613
102
{ACAD_REACTORS
330
C
102
}
330
C
100
AcDbDictionary
281
     1
  3
A0
350
614
  3
A1
350
615
  3
A2
350
616
  3
A3
350
617
  3
A4
350
618
  3
A5
350
619
  3
A6
350
61A
  3
A7
350
61B
  3
A8
350
61C
  3
A9
350
61D
  3
B0
350
61E
  3
B1
350
61F
  3
B2
350
620
  3
B3
350
621
  3
B4
350
622
  3
B5
350
623
  3
B6
350
624
  3
B7
350
625
  3
B8
350
626
  3
B9
350
627
  3
C0
350
628
  3
C1
350
629
  3
C2
350
62A
  3
C3
350
62B
  3
C4
350
62C
  3
C5
350
62D
  3
C6
350
62E
  3
C7
350
62F
  3
C8
350
630
  3
C9
350
631
  3
D0
350
632
  3
D1
350
633
  3
D2
350
634
  0
DICTIONARY
  5
2A
102
{ACAD_REACTORS
330
C
102
}
330
C
100
AcDbDictionary
281
     1
  3
2dWireframe
350
2F
  3
3D Hidden
350
31
  3
3dWireframe
350
30
  3
Basic
350
32
  3
Brighten
350
36
  3
ColorChange
350
3A
  3
Conceptual
350
34
  3
Dim
350
35
  3
Facepattern
350
39
  3
Flat
350
2B
  3
FlatWithEdges
350
2C
  3
Gouraud
350
2D
  3
GouraudWithEdges
350
2E
  3
Linepattern
350
38
  3
Realistic
350
33
  3
Thicken
350
37
  0
DICTIONARY
  5
637
102
{ACAD_REACTORS
330
C
102
}
330
C
100
AcDbDictionary
281
     1
  3
CANNOSCALE
350
63B
  3
DIMASSOC
350
63C
  3
HIDETEXT
350
63D
  3
XCLIPFRAME
350
63A
  0
DICTIONARY
  5
635
102
{ACAD_REACTORS
330
C
102
}
330
C
100
AcDbDictionary
281
     1
  3
AC_WATERMARK
350
636
  0
XRECORD
  5
63F
102
{ACAD_REACTORS
330
63E
102
}
330
63E
100
AcDbXrecord
280
     1
 40
956118.0
  1
{P: HEAD OFFICE ^I^I09 277 2717\P    ALBANY ^I^I09 972 0060\P    KATIKAIT^I^I07 549 5190\P    WELLINGTON^I^I04 974 5792\P    CHRISTCHURCH^I^I03 348 6528}
  0
DICTIONARY
  5
60E
102
{ACAD_REACTORS
330
60D
102
}
330
60D
100
AcDbDictionary
280
     1
281
     1
  3
SPATIAL
360
60F
  0
LAYOUT
  5
1E
102
{ACAD_REACTORS
330
1A
102
}
330
1A
100
AcDbPlotSettings
  1

  2
none_device
  4

  6

 40
0.0
 41
0.0
 42
0.0
 43
0.0
 44
0.0
 45
0.0
 46
0.0
 47
0.0
 48
0.0
 49
0.0
140
0.0
141
0.0
142
1.0
143
1.0
 70
   688
 72
     0
 73
     0
 74
     5
  7

 75
    16
147
1.0
148
0.0
149
0.0
100
AcDbLayout
  1
Layout1
 70
     1
 71
     1
 10
0.0
 20
0.0
 11
12.0
 21
9.0
 12
0.0
 22
0.0
 32
0.0
 14
1.000000000000000E+20
 24
1.000000000000000E+20
 34
1.000000000000000E+20
 15
-1.000000000000000E+20
 25
-1.000000000000000E+20
 35
-1.000000000000000E+20
146
0.0
 13
0.0
 23
0.0
 33
0.0
 16
1.0
 26
0.0
 36
0.0
 17
0.0
 27
1.0
 37
0.0
 76
     0
330
1B
  0
LAYOUT
  5
22
102
{ACAD_REACTORS
330
1A
102
}
330
1A
100
AcDbPlotSettings
  1

  2
none_device
  4

  6

 40
0.0
 41
0.0
 42
0.0
 43
0.0
 44
0.0
 45
0.0
 46
0.0
 47
0.0
 48
0.0
 49
0.0
140
0.0
141
0.0
142
1.0
143
1.0
 70
  1712
 72
     0
 73
     0
 74
     0
  7

 75
     0
147
1.0
148
0.0
149
0.0
100
AcDbLayout
  1
Model
 70
     1
 71
     0
 10
0.0
 20
0.0
 11
12.0
 21
9.0
 12
0.0
 22
0.0
 32
0.0
 14
1.000000000000000E+20
 24
1.000000000000000E+20
 34
1.000000000000000E+20
 15
-1.000000000000000E+20
 25
-1.000000000000000E+20
 35
-1.000000000000000E+20
146
0.0
 13
0.0
 23
0.0
 33
0.0
 16
1.0
 26
0.0
 36
0.0
 17
0.0
 27
1.0
 37
0.0
 76
     0
330
1F
331
29
  0
MATERIAL
  5
3D
102
{ACAD_REACTORS
330
3B
102
}
102
{ACAD_XDICTIONARY
360
662
102
}
330
3B
100
AcDbMaterial
  1
ByBlock
  0
MATERIAL
  5
3C
102
{ACAD_REACTORS
330
3B
102
}
102
{ACAD_XDICTIONARY
360
660
102
}
330
3B
100
AcDbMaterial
  1
ByLayer
  0
MATERIAL
  5
3E
102
{ACAD_REACTORS
330
3B
102
}
102
{ACAD_XDICTIONARY
360
664
102
}
330
3B
100
AcDbMaterial
  1
Global
  0
MLINESTYLE
  5
18
102
{ACAD_REACTORS
330
17
102
}
330
17
100
AcDbMlineStyle
  2
Standard
 70
     0
  3

 62
   256
 51
90.0
 52
90.0
 71
     2
 49
0.5
 62
   256
  6
BYLAYER
 49
-0.5
 62
   256
  6
BYLAYER
  0
ACDBPLACEHOLDER
  5
F
102
{ACAD_REACTORS
330
E
102
}
330
E
  0
SCALE
  5
614
102
{ACAD_REACTORS
330
613
102
}
330
613
100
AcDbScale
 70
     0
300
1:1
140
1.0
141
1.0
290
     1
  0
SCALE
  5
615
102
{ACAD_REACTORS
330
613
102
}
330
613
100
AcDbScale
 70
     0
300
1:2
140
1.0
141
2.0
290
     0
  0
SCALE
  5
616
102
{ACAD_REACTORS
330
613
102
}
330
613
100
AcDbScale
 70
     0
300
1:4
140
1.0
141
4.0
290
     0
  0
SCALE
  5
617
102
{ACAD_REACTORS
330
613
102
}
330
613
100
AcDbScale
 70
     0
300
1:5
140
1.0
141
5.0
290
     0
  0
SCALE
  5
618
102
{ACAD_REACTORS
330
613
102
}
330
613
100
AcDbScale
 70
     0
300
1:8
140
1.0
141
8.0
290
     0
  0
SCALE
  5
619
102
{ACAD_REACTORS
330
613
102
}
330
613
100
AcDbScale
 70
     0
300
1:10
140
1.0
141
10.0
290
     0
  0
SCALE
  5
61A
102
{ACAD_REACTORS
330
613
102
}
330
613
100
AcDbScale
 70
     0
300
1:16
140
1.0
141
16.0
290
     0
  0
SCALE
  5
61B
102
{ACAD_REACTORS
330
613
102
}
330
613
100
AcDbScale
 70
     0
300
1:20
140
1.0
141
20.0
290
     0
  0
SCALE
  5
61C
102
{ACAD_REACTORS
330
613
102
}
330
613
100
AcDbScale
 70
     0
300
1:30
140
1.0
141
30.0
290
     0
  0
SCALE
  5
61D
102
{ACAD_REACTORS
330
613
102
}
330
613
100
AcDbScale
 70
     0
300
1:40
140
1.0
141
40.0
290
     0
  0
SCALE
  5
61E
102
{ACAD_REACTORS
330
613
102
}
330
613
100
AcDbScale
 70
     0
300
1:50
140
1.0
141
50.0
290
     0
  0
SCALE
  5
61F
102
{ACAD_REACTORS
330
613
102
}
330
613
100
AcDbScale
 70
     0
300
1:100
140
1.0
141
100.0
290
     0
  0
SCALE
  5
620
102
{ACAD_REACTORS
330
613
102
}
330
613
100
AcDbScale
 70
     0
300
2:1
140
2.0
141
1.0
290
     0
  0
SCALE
  5
621
102
{ACAD_REACTORS
330
613
102
}
330
613
100
AcDbScale
 70
     0
300
4:1
140
4.0
141
1.0
290
     0
  0
SCALE
  5
622
102
{ACAD_REACTORS
330
613
102
}
330
613
100
AcDbScale
 70
     0
300
8:1
140
8.0
141
1.0
290
     0
  0
SCALE
  5
623
102
{ACAD_REACTORS
330
613
102
}
330
613
100
AcDbScale
 70
     0
300
10:1
140
10.0
141
1.0
290
     0
  0
SCALE
  5
624
102
{ACAD_REACTORS
330
613
102
}
330
613
100
AcDbScale
 70
     0
300
100:1
140
100.0
141
1.0
290
     0
  0
SCALE
  5
625
102
{ACAD_REACTORS
330
613
102
}
330
613
100
AcDbScale
 70
     0
300
1/128" = 1'-0"
140
0.0078125
141
12.0
290
     0
  0
SCALE
  5
626
102
{ACAD_REACTORS
330
613
102
}
330
613
100
AcDbScale
 70
     0
300
1/64" = 1'-0"
140
0.015625
141
12.0
290
     0
  0
SCALE
  5
627
102
{ACAD_REACTORS
330
613
102
}
330
613
100
AcDbScale
 70
     0
300
1/32" = 1'-0"
140
0.03125
141
12.0
290
     0
  0
SCALE
  5
628
102
{ACAD_REACTORS
330
613
102
}
330
613
100
AcDbScale
 70
     0
300
1/16" = 1'-0"
140
0.0625
141
12.0
290
     0
  0
SCALE
  5
629
102
{ACAD_REACTORS
330
613
102
}
330
613
100
AcDbScale
 70
     0
300
3/32" = 1'-0"
140
0.09375
141
12.0
290
     0
  0
SCALE
  5
62A
102
{ACAD_REACTORS
330
613
102
}
330
613
100
AcDbScale
 70
     0
300
1/8" = 1'-0"
140
0.125
141
12.0
290
     0
  0
SCALE
  5
62B
102
{ACAD_REACTORS
330
613
102
}
330
613
100
AcDbScale
 70
     0
300
3/16" = 1'-0"
140
0.1875
141
12.0
290
     0
  0
SCALE
  5
62C
102
{ACAD_REACTORS
330
613
102
}
330
613
100
AcDbScale
 70
     0
300
1/4" = 1'-0"
140
0.25
141
12.0
290
     0
  0
SCALE
  5
62D
102
{ACAD_REACTORS
330
613
102
}
330
613
100
AcDbScale
 70
     0
300
3/8" = 1'-0"
140
0.375
141
12.0
290
     0
  0
SCALE
  5
62E
102
{ACAD_REACTORS
330
613
102
}
330
613
100
AcDbScale
 70
     0
300
1/2" = 1'-0"
140
0.5
141
12.0
290
     0
  0
SCALE
  5
62F
102
{ACAD_REACTORS
330
613
102
}
330
613
100
AcDbScale
 70
     0
300
3/4" = 1'-0"
140
0.75
141
12.0
290
     0
  0
SCALE
  5
630
102
{ACAD_REACTORS
330
613
102
}
330
613
100
AcDbScale
 70
     0
300
1" = 1'-0"
140
1.0
141
12.0
290
     0
  0
SCALE
  5
631
102
{ACAD_REACTORS
330
613
102
}
330
613
100
AcDbScale
 70
     0
300
1-1/2" = 1'-0"
140
1.5
141
12.0
290
     0
  0
SCALE
  5
632
102
{ACAD_REACTORS
330
613
102
}
330
613
100
AcDbScale
 70
     0
300
3" = 1'-0"
140
3.0
141
12.0
290
     0
  0
SCALE
  5
633
102
{ACAD_REACTORS
330
613
102
}
330
613
100
AcDbScale
 70
     0
300
6" = 1'-0"
140
6.0
141
12.0
290
     0
  0
SCALE
  5
634
102
{ACAD_REACTORS
330
613
102
}
330
613
100
AcDbScale
 70
     0
300
1'-0" = 1'-0"
140
12.0
141
12.0
290
     0
  0
VISUALSTYLE
  5
2F
102
{ACAD_REACTORS
330
2A
102
}
102
{ACAD_XDICTIONARY
360
648
102
}
330
2A
100
AcDbVisualStyle
  2
2dWireframe
 70
     4
 71
     0
 72
     2
 73
     0
 90
        0
 40
-0.6
 41
-30.0
 62
     5
 63
     7
 74
     1
 91
        4
 64
     7
 65
   257
 75
     1
175
     1
 42
1.0
 92
        0
 66
   257
 43
1.0
 76
     1
 77
     6
 78
     2
 67
     7
 79
     5
170
     0
171
     0
290
     0
174
     0
 93
        1
 44
0.0
173
     0
291
     0
 45
0.0
1001
ACAD
1000
AcDbSavedByObjectVersion
1070
     0
  0
VISUALSTYLE
  5
31
102
{ACAD_REACTORS
330
2A
102
}
102
{ACAD_XDICTIONARY
360
64C
102
}
330
2A
100
AcDbVisualStyle
  2
3D Hidden
 70
     6
 71
     1
 72
     2
 73
     2
 90
        0
 40
-0.6
 41
-30.0
 62
     5
 63
     7
 74
     2
 91
        2
 64
     7
 65
   257
 75
     2
175
     1
 42
40.0
 92
        0
 66
   257
 43
1.0
 76
     1
 77
     6
 78
     2
 67
     7
 79
     3
170
     0
171
     0
290
     0
174
     0
 93
        1
 44
0.0
173
     0
291
     0
 45
0.0
1001
ACAD
1000
AcDbSavedByObjectVersion
1070
     0
  0
VISUALSTYLE
  5
30
102
{ACAD_REACTORS
330
2A
102
}
102
{ACAD_XDICTIONARY
360
64A
102
}
330
2A
100
AcDbVisualStyle
  2
3dWireframe
 70
     5
 71
     0
 72
     2
 73
     0
 90
        0
 40
-0.6
 41
-30.0
 62
     5
 63
     7
 74
     1
 91
        4
 64
     7
 65
   257
 75
     1
175
     1
 42
1.0
 92
        0
 66
   257
 43
1.0
 76
     1
 77
     6
 78
     2
 67
     7
 79
     5
170
     0
171
     0
290
     0
174
     0
 93
        1
 44
0.0
173
     0
291
     0
 45
0.0
1001
ACAD
1000
AcDbSavedByObjectVersion
1070
     0
  0
VISUALSTYLE
  5
32
102
{ACAD_REACTORS
330
2A
102
}
102
{ACAD_XDICTIONARY
360
64E
102
}
330
2A
100
AcDbVisualStyle
  2
Basic
 70
     7
 71
     1
 72
     0
 73
     1
 90
        0
 40
-0.6
 41
-30.0
 62
     5
 63
     7
 74
     0
 91
        4
 64
     7
 65
   257
 75
     1
175
     1
 42
1.0
 92
        8
 66
     7
 43
1.0
 76
     1
 77
     6
 78
     2
 67
     7
 79
     5
170
     0
171
     0
290
     0
174
     0
 93
        1
 44
0.0
173
     0
291
     1
 45
0.0
1001
ACAD
1000
AcDbSavedByObjectVersion
1070
     0
  0
VISUALSTYLE
  5
36
102
{ACAD_REACTORS
330
2A
102
}
102
{ACAD_XDICTIONARY
360
656
102
}
330
2A
100
AcDbVisualStyle
  2
Brighten
 70
    12
 71
     2
 72
     2
 73
     0
 90
        0
 40
-0.6
 41
-30.0
 62
     5
 63
     7
 74
     1
 91
        4
 64
     7
 65
   257
 75
     1
175
     1
 42
1.0
 92
        8
 66
     7
 43
1.0
 76
     1
 77
     6
 78
     2
 67
     7
 79
     5
170
     0
171
     0
290
     0
174
     0
 93
        1
 44
50.0
173
     0
291
     1
 45
0.0
1001
ACAD
1000
AcDbSavedByObjectVersion
1070
     0
  0
VISUALSTYLE
  5
3A
102
{ACAD_REACTORS
330
2A
102
}
102
{ACAD_XDICTIONARY
360
65E
102
}
330
2A
100
AcDbVisualStyle
  2
ColorChange
 70
    16
 71
     2
 72
     2
 73
     3
 90
        0
 40
-0.6
 41
-30.0
 62
     5
 63
     8
 74
     1
 91
        4
 64
     7
 65
   257
 75
     1
175
     1
 42
1.0
 92
        8
 66
     8
 43
1.0
 76
     1
 77
     6
 78
     2
 67
     7
 79
     5
170
     0
171
     0
290
     0
174
     0
 93
        1
 44
0.0
173
     0
291
     1
 45
0.0
1001
ACAD
1000
AcDbSavedByObjectVersion
1070
     0
  0
VISUALSTYLE
  5
34
102
{ACAD_REACTORS
330
2A
102
}
102
{ACAD_XDICTIONARY
360
652
102
}
330
2A
100
AcDbVisualStyle
  2
Conceptual
 70
     9
 71
     3
 72
     2
 73
     0
 90
        0
 40
-0.6
 41
-30.0
 62
     5
 63
     7
 74
     2
 91
        2
 64
     7
 65
   257
 75
     1
175
     1
 42
40.0
 92
        8
 66
     7
 43
1.0
 76
     1
 77
     6
 78
     2
 67
     7
 79
     3
170
     0
171
     0
290
     0
174
     0
 93
        1
 44
0.0
173
     0
291
     0
 45
0.0
1001
ACAD
1000
AcDbSavedByObjectVersion
1070
     0
  0
VISUALSTYLE
  5
35
102
{ACAD_REACTORS
330
2A
102
}
102
{ACAD_XDICTIONARY
360
654
102
}
330
2A
100
AcDbVisualStyle
  2
Dim
 70
    11
 71
     2
 72
     2
 73
     0
 90
        0
 40
-0.6
 41
-30.0
 62
     5
 63
     7
 74
     1
 91
        4
 64
     7
 65
   257
 75
     1
175
     1
 42
1.0
 92
        8
 66
     7
 43
1.0
 76
     1
 77
     6
 78
     2
 67
     7
 79
     5
170
     0
171
     0
290
     0
174
     0
 93
        1
 44
-50.0
173
     0
291
     1
 45
0.0
1001
ACAD
1000
AcDbSavedByObjectVersion
1070
     0
  0
VISUALSTYLE
  5
39
102
{ACAD_REACTORS
330
2A
102
}
102
{ACAD_XDICTIONARY
360
65C
102
}
330
2A
100
AcDbVisualStyle
  2
Facepattern
 70
    15
 71
     2
 72
     2
 73
     0
 90
        0
 40
-0.6
 41
-30.0
 62
     5
 63
     7
 74
     1
 91
        4
 64
     7
 65
   257
 75
     1
175
     1
 42
1.0
 92
        8
 66
     7
 43
1.0
 76
     1
 77
     6
 78
     2
 67
     7
 79
     5
170
     0
171
     0
290
     0
174
     0
 93
        1
 44
0.0
173
     0
291
     1
 45
0.0
1001
ACAD
1000
AcDbSavedByObjectVersion
1070
     0
  0
VISUALSTYLE
  5
2B
102
{ACAD_REACTORS
330
2A
102
}
102
{ACAD_XDICTIONARY
360
640
102
}
330
2A
100
AcDbVisualStyle
  2
Flat
 70
     0
 71
     2
 72
     1
 73
     1
 90
        2
 40
-0.6
 41
30.0
 62
     5
 63
     7
 74
     0
 91
        4
 64
     7
 65
   257
 75
     1
175
     1
 42
1.0
 92
        8
 66
     7
 43
1.0
 76
     1
 77
     6
 78
     2
 67
     7
 79
     5
170
     0
171
     0
290
     0
174
     0
 93
       13
 44
0.0
173
     0
291
     1
 45
0.0
1001
ACAD
1000
AcDbSavedByObjectVersion
1070
     0
  0
VISUALSTYLE
  5
2C
102
{ACAD_REACTORS
330
2A
102
}
102
{ACAD_XDICTIONARY
360
642
102
}
330
2A
100
AcDbVisualStyle
  2
FlatWithEdges
 70
     1
 71
     2
 72
     1
 73
     1
 90
        2
 40
-0.6
 41
30.0
 62
     5
 63
     7
 74
     1
 91
        4
 64
     7
 65
   257
 75
     1
175
     1
 42
1.0
 92
        0
 66
   257
 43
1.0
 76
     1
 77
     6
 78
     2
 67
     7
 79
     5
170
     0
171
     0
290
     0
174
     0
 93
       13
 44
0.0
173
     0
291
     1
 45
0.0
1001
ACAD
1000
AcDbSavedByObjectVersion
1070
     0
  0
VISUALSTYLE
  5
2D
102
{ACAD_REACTORS
330
2A
102
}
102
{ACAD_XDICTIONARY
360
644
102
}
330
2A
100
AcDbVisualStyle
  2
Gouraud
 70
     2
 71
     2
 72
     2
 73
     1
 90
        2
 40
-0.6
 41
30.0
 62
     5
 63
     7
 74
     0
 91
        4
 64
     7
 65
   257
 75
     1
175
     1
 42
1.0
 92
        0
 66
     7
 43
1.0
 76
     1
 77
     6
 78
     2
 67
     7
 79
     5
170
     0
171
     0
290
     0
174
     0
 93
       13
 44
0.0
173
     0
291
     1
 45
0.0
1001
ACAD
1000
AcDbSavedByObjectVersion
1070
     0
  0
VISUALSTYLE
  5
2E
102
{ACAD_REACTORS
330
2A
102
}
102
{ACAD_XDICTIONARY
360
646
102
}
330
2A
100
AcDbVisualStyle
  2
GouraudWithEdges
 70
     3
 71
     2
 72
     2
 73
     1
 90
        2
 40
-0.6
 41
30.0
 62
     5
 63
     7
 74
     1
 91
        4
 64
     7
 65
   257
 75
     1
175
     1
 42
1.0
 92
        0
 66
   257
 43
1.0
 76
     1
 77
     6
 78
     2
 67
     7
 79
     5
170
     0
171
     0
290
     0
174
     0
 93
       13
 44
0.0
173
     0
291
     1
 45
0.0
1001
ACAD
1000
AcDbSavedByObjectVersion
1070
     0
  0
VISUALSTYLE
  5
38
102
{ACAD_REACTORS
330
2A
102
}
102
{ACAD_XDICTIONARY
360
65A
102
}
330
2A
100
AcDbVisualStyle
  2
Linepattern
 70
    14
 71
     2
 72
     2
 73
     0
 90
        0
 40
-0.6
 41
-30.0
 62
     5
 63
     7
 74
     1
 91
        4
 64
     7
 65
   257
 75
     7
175
     7
 42
1.0
 92
        8
 66
     7
 43
1.0
 76
     1
 77
     6
 78
     2
 67
     7
 79
     5
170
     0
171
     0
290
     0
174
     0
 93
        1
 44
0.0
173
     0
291
     1
 45
0.0
1001
ACAD
1000
AcDbSavedByObjectVersion
1070
     0
  0
VISUALSTYLE
  5
33
102
{ACAD_REACTORS
330
2A
102
}
102
{ACAD_XDICTIONARY
360
650
102
}
330
2A
100
AcDbVisualStyle
  2
Realistic
 70
     8
 71
     2
 72
     2
 73
     0
 90
        0
 40
-0.6
 41
-30.0
 62
     5
 63
     7
 74
     1
 91
        0
 64
     7
 65
   257
 75
     1
175
     1
 42
1.0
 92
        8
 66
     8
 43
1.0
 76
     1
 77
     6
 78
     2
 67
     7
 79
     5
170
     0
171
     0
290
     0
174
     0
 93
       13
 44
0.0
173
     0
291
     0
 45
0.0
1001
ACAD
1000
AcDbSavedByObjectVersion
1070
     0
  0
VISUALSTYLE
  5
37
102
{ACAD_REACTORS
330
2A
102
}
102
{ACAD_XDICTIONARY
360
658
102
}
330
2A
100
AcDbVisualStyle
  2
Thicken
 70
    13
 71
     2
 72
     2
 73
     0
 90
        0
 40
-0.6
 41
-30.0
 62
     5
 63
     7
 74
     1
 91
        4
 64
     7
 65
   257
 75
     1
175
     1
 42
1.0
 92
       12
 66
     7
 43
1.0
 76
     1
 77
     6
 78
     2
 67
     7
 79
     5
170
     0
171
     0
290
     0
174
     0
 93
        1
 44
0.0
173
     0
291
     1
 45
0.0
1001
ACAD
1000
AcDbSavedByObjectVersion
1070
     0
  0
DICTIONARYVAR
  5
63B
102
{ACAD_REACTORS
330
637
102
}
330
637
100
DictionaryVariables
280
     0
  1
1:1
  0
DICTIONARYVAR
  5
63C
102
{ACAD_REACTORS
330
637
102
}
330
637
100
DictionaryVariables
280
     0
  1
2
  0
DICTIONARYVAR
  5
63D
102
{ACAD_REACTORS
330
637
102
}
330
637
100
DictionaryVariables
280
     0
  1
1
  0
DICTIONARYVAR
  5
63A
102
{ACAD_REACTORS
330
637
102
}
330
637
100
DictionaryVariables
280
     0
  1
0
  0
XRECORD
  5
636
102
{ACAD_REACTORS
330
635
102
}
330
635
100
AcDbXrecord
280
     1
1000
This DWG file was created in ArchiCAD(TM)®
  0
SPATIAL_FILTER
  5
60F
102
{ACAD_REACTORS
330
60E
102
}
330
60E
100
AcDbFilter
100
AcDbSpatialFilter
 70
     4
 10
57.56535730731026
 20
41.99863584910897
 10
241.0860419195
 20
41.99863584910897
 10
241.0860419195
 20
179.5406691583741
 10
57.56535730731026
 20
179.5406691583741
210
0.0
220
0.0
230
1.0
 11
0.0
 21
0.0
 31
0.0
 71
     1
 72
     0
 73
     0
 40
1.0
 40
0.0
 40
0.0
 40
0.0
 40
0.0
 40
1.0
 40
0.0
 40
0.0
 40
0.0
 40
0.0
 40
1.0
 40
0.0
 40
1.0
 40
0.0
 40
0.0
 40
0.0
 40
0.0
 40
1.0
 40
0.0
 40
0.0
 40
0.0
 40
0.0
 40
1.0
 40
0.0
  0
DICTIONARY
  5
662
330
3D
100
AcDbDictionary
280
     1
281
     1
  3
ACAD_XREC_ROUNDTRIP
360
663
  0
DICTIONARY
  5
660
330
3C
100
AcDbDictionary
280
     1
281
     1
  3
ACAD_XREC_ROUNDTRIP
360
661
  0
DICTIONARY
  5
664
330
3E
100
AcDbDictionary
280
     1
281
     1
  3
ACAD_XREC_ROUNDTRIP
360
665
  0
DICTIONARY
  5
648
330
2F
100
AcDbDictionary
280
     1
281
     1
  3
ACAD_XREC_ROUNDTRIP
360
649
  0
DICTIONARY
  5
64C
330
31
100
AcDbDictionary
280
     1
281
     1
  3
ACAD_XREC_ROUNDTRIP
360
64D
  0
DICTIONARY
  5
64A
330
30
100
AcDbDictionary
280
     1
281
     1
  3
ACAD_XREC_ROUNDTRIP
360
64B
  0
DICTIONARY
  5
64E
330
32
100
AcDbDictionary
280
     1
281
     1
  3
ACAD_XREC_ROUNDTRIP
360
64F
  0
DICTIONARY
  5
656
330
36
100
AcDbDictionary
280
     1
281
     1
  3
ACAD_XREC_ROUNDTRIP
360
657
  0
DICTIONARY
  5
65E
330
3A
100
AcDbDictionary
280
     1
281
     1
  3
ACAD_XREC_ROUNDTRIP
360
65F
  0
DICTIONARY
  5
652
330
34
100
AcDbDictionary
280
     1
281
     1
  3
ACAD_XREC_ROUNDTRIP
360
653
  0
DICTIONARY
  5
654
330
35
100
AcDbDictionary
280
     1
281
     1
  3
ACAD_XREC_ROUNDTRIP
360
655
  0
DICTIONARY
  5
65C
330
39
100
AcDbDictionary
280
     1
281
     1
  3
ACAD_XREC_ROUNDTRIP
360
65D
  0
DICTIONARY
  5
640
330
2B
100
AcDbDictionary
280
     1
281
     1
  3
ACAD_XREC_ROUNDTRIP
360
641
  0
DICTIONARY
  5
642
330
2C
100
AcDbDictionary
280
     1
281
     1
  3
ACAD_XREC_ROUNDTRIP
360
643
  0
DICTIONARY
  5
644
330
2D
100
AcDbDictionary
280
     1
281
     1
  3
ACAD_XREC_ROUNDTRIP
360
645
  0
DICTIONARY
  5
646
330
2E
100
AcDbDictionary
280
     1
281
     1
  3
ACAD_XREC_ROUNDTRIP
360
647
  0
DICTIONARY
  5
65A
330
38
100
AcDbDictionary
280
     1
281
     1
  3
ACAD_XREC_ROUNDTRIP
360
65B
  0
DICTIONARY
  5
650
330
33
100
AcDbDictionary
280
     1
281
     1
  3
ACAD_XREC_ROUNDTRIP
360
651
  0
DICTIONARY
  5
658
330
37
100
AcDbDictionary
280
     1
281
     1
  3
ACAD_XREC_ROUNDTRIP
360
659
  0
XRECORD
  5
663
102
{ACAD_REACTORS
330
662
102
}
330
662
100
AcDbXrecord
280
     1
102
MATERIAL
148
0.0
149
0.0
149
0.0
 93
        0
 94
      127
282
     0
 72
     1
 77
     1
171
     1
175
     1
179
     1
273
     0
  0
XRECORD
  5
661
102
{ACAD_REACTORS
330
660
102
}
330
660
100
AcDbXrecord
280
     1
102
MATERIAL
148
0.0
149
0.0
149
0.0
 93
        0
 94
      127
282
     0
 72
     1
 77
     1
171
     1
175
     1
179
     1
273
     0
  0
XRECORD
  5
665
102
{ACAD_REACTORS
330
664
102
}
330
664
100
AcDbXrecord
280
     1
102
MATERIAL
148
0.0
149
0.0
149
0.0
 93
        0
 94
      127
282
     0
 72
     1
 77
     1
171
     1
175
     1
179
     1
273
     0
  0
XRECORD
  5
649
102
{ACAD_REACTORS
330
648
102
}
330
648
100
AcDbXrecord
280
     1
102
RTVSPropertyOp0
 70
     1
102
RTVSPropertyOp1
 70
     1
102
RTVSPropertyOp2
 70
     1
102
RTVSPropertyOp3
 70
     1
102
RTVSPropertyOp4
 70
     1
102
RTVSPropertyOp5
 70
     1
102
RTVSPropertyOp6
 70
     1
102
RTVSPropertyOp7
 70
     1
102
RTVSPropertyOp8
 70
     1
102
RTVSPropertyOp9
 70
     1
102
RTVSPropertyOp10
 70
     1
102
RTVSPropertyOp11
 70
     1
102
RTVSPropertyOp12
 70
     1
102
RTVSPropertyOp13
 70
     1
102
RTVSPropertyOp14
 70
     1
102
RTVSPropertyOp15
 70
     1
102
RTVSPropertyOp16
 70
     1
102
RTVSPropertyOp17
 70
     1
102
RTVSPropertyOp18
 70
     1
102
RTVSPropertyOp19
 70
     1
102
RTVSPropertyOp20
 70
     1
102
RTVSPropertyOp21
 70
     1
102
RTVSPropertyOp22
 70
     1
102
RTVSPropertyOp23
 70
     1
102
RTVSPropertyOp24
 70
     1
102
RTVSPropertyOp25
 70
     1
102
RTVSPropertyOp26
 70
     1
102
RTVSPropertyOp27
 70
     1
102
RTVSPropertyOp28
 70
     1
102
RTVSPropertyOp29
 70
     1
102
RTVSPropertyOp30
 70
     1
102
RTVSPropertyOp31
 70
     1
102
RTVSPropertyOp32
 70
     1
  0
XRECORD
  5
64D
102
{ACAD_REACTORS
330
64C
102
}
330
64C
100
AcDbXrecord
280
     1
102
RTVSPropertyOp0
 70
     1
102
RTVSPropertyOp1
 70
     1
102
RTVSPropertyOp2
 70
     1
102
RTVSPropertyOp3
 70
     1
102
RTVSPropertyOp4
 70
     1
102
RTVSPropertyOp5
 70
     1
102
RTVSPropertyOp6
 70
     1
102
RTVSPropertyOp7
 70
     1
102
RTVSPropertyOp8
 70
     1
102
RTVSPropertyOp9
 70
     1
102
RTVSPropertyOp10
 70
     1
102
RTVSPropertyOp11
 70
     1
102
RTVSPropertyOp12
 70
     1
102
RTVSPropertyOp13
 70
     1
102
RTVSPropertyOp14
 70
     1
102
RTVSPropertyOp15
 70
     1
102
RTVSPropertyOp16
 70
     1
102
RTVSPropertyOp17
 70
     1
102
RTVSPropertyOp18
 70
     1
102
RTVSPropertyOp19
 70
     1
102
RTVSPropertyOp20
 70
     1
102
RTVSPropertyOp21
 70
     1
102
RTVSPropertyOp22
 70
     1
102
RTVSPropertyOp23
 70
     1
102
RTVSPropertyOp24
 70
     1
102
RTVSPropertyOp25
 70
     1
102
RTVSPropertyOp26
 70
     1
102
RTVSPropertyOp27
 70
     1
102
RTVSPropertyOp28
 70
     1
102
RTVSPropertyOp29
 70
     1
102
RTVSPropertyOp30
 70
     1
102
RTVSPropertyOp31
 70
     1
102
RTVSPropertyOp32
 70
     1
  0
XRECORD
  5
64B
102
{ACAD_REACTORS
330
64A
102
}
330
64A
100
AcDbXrecord
280
     1
102
RTVSPropertyOp0
 70
     1
102
RTVSPropertyOp1
 70
     1
102
RTVSPropertyOp2
 70
     1
102
RTVSPropertyOp3
 70
     1
102
RTVSPropertyOp4
 70
     1
102
RTVSPropertyOp5
 70
     1
102
RTVSPropertyOp6
 70
     1
102
RTVSPropertyOp7
 70
     1
102
RTVSPropertyOp8
 70
     1
102
RTVSPropertyOp9
 70
     1
102
RTVSPropertyOp10
 70
     1
102
RTVSPropertyOp11
 70
     1
102
RTVSPropertyOp12
 70
     1
102
RTVSPropertyOp13
 70
     1
102
RTVSPropertyOp14
 70
     1
102
RTVSPropertyOp15
 70
     1
102
RTVSPropertyOp16
 70
     1
102
RTVSPropertyOp17
 70
     1
102
RTVSPropertyOp18
 70
     1
102
RTVSPropertyOp19
 70
     1
102
RTVSPropertyOp20
 70
     1
102
RTVSPropertyOp21
 70
     1
102
RTVSPropertyOp22
 70
     1
102
RTVSPropertyOp23
 70
     1
102
RTVSPropertyOp24
 70
     1
102
RTVSPropertyOp25
 70
     1
102
RTVSPropertyOp26
 70
     1
102
RTVSPropertyOp27
 70
     1
102
RTVSPropertyOp28
 70
     1
102
RTVSPropertyOp29
 70
     1
102
RTVSPropertyOp30
 70
     1
102
RTVSPropertyOp31
 70
     1
102
RTVSPropertyOp32
 70
     1
  0
XRECORD
  5
64F
102
{ACAD_REACTORS
330
64E
102
}
330
64E
100
AcDbXrecord
280
     1
102
RTVSPropertyOp0
 70
     1
102
RTVSPropertyOp1
 70
     1
102
RTVSPropertyOp2
 70
     1
102
RTVSPropertyOp3
 70
     1
102
RTVSPropertyOp4
 70
     1
102
RTVSPropertyOp5
 70
     1
102
RTVSPropertyOp6
 70
     1
102
RTVSPropertyOp7
 70
     1
102
RTVSPropertyOp8
 70
     1
102
RTVSPropertyOp9
 70
     1
102
RTVSPropertyOp10
 70
     1
102
RTVSPropertyOp11
 70
     1
102
RTVSPropertyOp12
 70
     1
102
RTVSPropertyOp13
 70
     1
102
RTVSPropertyOp14
 70
     1
102
RTVSPropertyOp15
 70
     1
102
RTVSPropertyOp16
 70
     1
102
RTVSPropertyOp17
 70
     1
102
RTVSPropertyOp18
 70
     1
102
RTVSPropertyOp19
 70
     1
102
RTVSPropertyOp20
 70
     1
102
RTVSPropertyOp21
 70
     1
102
RTVSPropertyOp22
 70
     1
102
RTVSPropertyOp23
 70
     1
102
RTVSPropertyOp24
 70
     1
102
RTVSPropertyOp25
 70
     1
102
RTVSPropertyOp26
 70
     1
102
RTVSPropertyOp27
 70
     1
102
RTVSPropertyOp28
 70
     1
102
RTVSPropertyOp29
 70
     1
102
RTVSPropertyOp30
 70
     1
102
RTVSPropertyOp31
 70
     1
102
RTVSPropertyOp32
 70
     1
  0
XRECORD
  5
657
102
{ACAD_REACTORS
330
656
102
}
330
656
100
AcDbXrecord
280
     1
102
RTVSPropertyOp0
 70
     1
102
RTVSPropertyOp1
 70
     1
102
RTVSPropertyOp2
 70
     1
102
RTVSPropertyOp3
 70
     1
102
RTVSPropertyOp4
 70
     1
102
RTVSPropertyOp5
 70
     1
102
RTVSPropertyOp6
 70
     1
102
RTVSPropertyOp7
 70
     1
102
RTVSPropertyOp8
 70
     1
102
RTVSPropertyOp9
 70
     1
102
RTVSPropertyOp10
 70
     1
102
RTVSPropertyOp11
 70
     1
102
RTVSPropertyOp12
 70
     1
102
RTVSPropertyOp13
 70
     1
102
RTVSPropertyOp14
 70
     1
102
RTVSPropertyOp15
 70
     1
102
RTVSPropertyOp16
 70
     1
102
RTVSPropertyOp17
 70
     1
102
RTVSPropertyOp18
 70
     1
102
RTVSPropertyOp19
 70
     1
102
RTVSPropertyOp20
 70
     1
102
RTVSPropertyOp21
 70
     1
102
RTVSPropertyOp22
 70
     1
102
RTVSPropertyOp23
 70
     1
102
RTVSPropertyOp24
 70
     1
102
RTVSPropertyOp25
 70
     1
102
RTVSPropertyOp26
 70
     1
102
RTVSPropertyOp27
 70
     1
102
RTVSPropertyOp28
 70
     1
102
RTVSPropertyOp29
 70
     1
102
RTVSPropertyOp30
 70
     1
102
RTVSPropertyOp31
 70
     1
102
RTVSPropertyOp32
 70
     1
  0
XRECORD
  5
65F
102
{ACAD_REACTORS
330
65E
102
}
330
65E
100
AcDbXrecord
280
     1
102
RTVSPropertyOp0
 70
     1
102
RTVSPropertyOp1
 70
     1
102
RTVSPropertyOp2
 70
     1
102
RTVSPropertyOp3
 70
     1
102
RTVSPropertyOp4
 70
     1
102
RTVSPropertyOp5
 70
     1
102
RTVSPropertyOp6
 70
     1
102
RTVSPropertyOp7
 70
     1
102
RTVSPropertyOp8
 70
     1
102
RTVSPropertyOp9
 70
     1
102
RTVSPropertyOp10
 70
     1
102
RTVSPropertyOp11
 70
     1
102
RTVSPropertyOp12
 70
     1
102
RTVSPropertyOp13
 70
     1
102
RTVSPropertyOp14
 70
     1
102
RTVSPropertyOp15
 70
     1
102
RTVSPropertyOp16
 70
     1
102
RTVSPropertyOp17
 70
     1
102
RTVSPropertyOp18
 70
     1
102
RTVSPropertyOp19
 70
     1
102
RTVSPropertyOp20
 70
     1
102
RTVSPropertyOp21
 70
     1
102
RTVSPropertyOp22
 70
     1
102
RTVSPropertyOp23
 70
     1
102
RTVSPropertyOp24
 70
     1
102
RTVSPropertyOp25
 70
     1
102
RTVSPropertyOp26
 70
     1
102
RTVSPropertyOp27
 70
     1
102
RTVSPropertyOp28
 70
     1
102
RTVSPropertyOp29
 70
     1
102
RTVSPropertyOp30
 70
     1
102
RTVSPropertyOp31
 70
     1
102
RTVSPropertyOp32
 70
     1
  0
XRECORD
  5
653
102
{ACAD_REACTORS
330
652
102
}
330
652
100
AcDbXrecord
280
     1
102
RTVSPropertyOp0
 70
     1
102
RTVSPropertyOp1
 70
     1
102
RTVSPropertyOp2
 70
     1
102
RTVSPropertyOp3
 70
     1
102
RTVSPropertyOp4
 70
     1
102
RTVSPropertyOp5
 70
     1
102
RTVSPropertyOp6
 70
     1
102
RTVSPropertyOp7
 70
     1
102
RTVSPropertyOp8
 70
     1
102
RTVSPropertyOp9
 70
     1
102
RTVSPropertyOp10
 70
     1
102
RTVSPropertyOp11
 70
     1
102
RTVSPropertyOp12
 70
     1
102
RTVSPropertyOp13
 70
     1
102
RTVSPropertyOp14
 70
     1
102
RTVSPropertyOp15
 70
     1
102
RTVSPropertyOp16
 70
     1
102
RTVSPropertyOp17
 70
     1
102
RTVSPropertyOp18
 70
     1
102
RTVSPropertyOp19
 70
     1
102
RTVSPropertyOp20
 70
     1
102
RTVSPropertyOp21
 70
     1
102
RTVSPropertyOp22
 70
     1
102
RTVSPropertyOp23
 70
     1
102
RTVSPropertyOp24
 70
     1
102
RTVSPropertyOp25
 70
     1
102
RTVSPropertyOp26
 70
     1
102
RTVSPropertyOp27
 70
     1
102
RTVSPropertyOp28
 70
     1
102
RTVSPropertyOp29
 70
     1
102
RTVSPropertyOp30
 70
     1
102
RTVSPropertyOp31
 70
     1
102
RTVSPropertyOp32
 70
     1
  0
XRECORD
  5
655
102
{ACAD_REACTORS
330
654
102
}
330
654
100
AcDbXrecord
280
     1
102
RTVSPropertyOp0
 70
     1
102
RTVSPropertyOp1
 70
     1
102
RTVSPropertyOp2
 70
     1
102
RTVSPropertyOp3
 70
     1
102
RTVSPropertyOp4
 70
     1
102
RTVSPropertyOp5
 70
     1
102
RTVSPropertyOp6
 70
     1
102
RTVSPropertyOp7
 70
     1
102
RTVSPropertyOp8
 70
     1
102
RTVSPropertyOp9
 70
     1
102
RTVSPropertyOp10
 70
     1
102
RTVSPropertyOp11
 70
     1
102
RTVSPropertyOp12
 70
     1
102
RTVSPropertyOp13
 70
     1
102
RTVSPropertyOp14
 70
     1
102
RTVSPropertyOp15
 70
     1
102
RTVSPropertyOp16
 70
     1
102
RTVSPropertyOp17
 70
     1
102
RTVSPropertyOp18
 70
     1
102
RTVSPropertyOp19
 70
     1
102
RTVSPropertyOp20
 70
     1
102
RTVSPropertyOp21
 70
     1
102
RTVSPropertyOp22
 70
     1
102
RTVSPropertyOp23
 70
     1
102
RTVSPropertyOp24
 70
     1
102
RTVSPropertyOp25
 70
     1
102
RTVSPropertyOp26
 70
     1
102
RTVSPropertyOp27
 70
     1
102
RTVSPropertyOp28
 70
     1
102
RTVSPropertyOp29
 70
     1
102
RTVSPropertyOp30
 70
     1
102
RTVSPropertyOp31
 70
     1
102
RTVSPropertyOp32
 70
     1
  0
XRECORD
  5
65D
102
{ACAD_REACTORS
330
65C
102
}
330
65C
100
AcDbXrecord
280
     1
102
RTVSPropertyOp0
 70
     1
102
RTVSPropertyOp1
 70
     1
102
RTVSPropertyOp2
 70
     1
102
RTVSPropertyOp3
 70
     1
102
RTVSPropertyOp4
 70
     1
102
RTVSPropertyOp5
 70
     1
102
RTVSPropertyOp6
 70
     1
102
RTVSPropertyOp7
 70
     1
102
RTVSPropertyOp8
 70
     1
102
RTVSPropertyOp9
 70
     1
102
RTVSPropertyOp10
 70
     1
102
RTVSPropertyOp11
 70
     1
102
RTVSPropertyOp12
 70
     1
102
RTVSPropertyOp13
 70
     1
102
RTVSPropertyOp14
 70
     1
102
RTVSPropertyOp15
 70
     1
102
RTVSPropertyOp16
 70
     1
102
RTVSPropertyOp17
 70
     1
102
RTVSPropertyOp18
 70
     1
102
RTVSPropertyOp19
 70
     1
102
RTVSPropertyOp20
 70
     1
102
RTVSPropertyOp21
 70
     1
102
RTVSPropertyOp22
 70
     1
102
RTVSPropertyOp23
 70
     1
102
RTVSPropertyOp24
 70
     1
102
RTVSPropertyOp25
 70
     1
102
RTVSPropertyOp26
 70
     1
102
RTVSPropertyOp27
 70
     1
102
RTVSPropertyOp28
 70
     1
102
RTVSPropertyOp29
 70
     1
102
RTVSPropertyOp30
 70
     1
102
RTVSPropertyOp31
 70
     1
102
RTVSPropertyOp32
 70
     1
  0
XRECORD
  5
641
102
{ACAD_REACTORS
330
640
102
}
330
640
100
AcDbXrecord
280
     1
102
RTVSPropertyOp0
 70
     1
102
RTVSPropertyOp1
 70
     1
102
RTVSPropertyOp2
 70
     1
102
RTVSPropertyOp3
 70
     1
102
RTVSPropertyOp4
 70
     1
102
RTVSPropertyOp5
 70
     1
102
RTVSPropertyOp6
 70
     1
102
RTVSPropertyOp7
 70
     1
102
RTVSPropertyOp8
 70
     1
102
RTVSPropertyOp9
 70
     1
102
RTVSPropertyOp10
 70
     1
102
RTVSPropertyOp11
 70
     1
102
RTVSPropertyOp12
 70
     1
102
RTVSPropertyOp13
 70
     1
102
RTVSPropertyOp14
 70
     1
102
RTVSPropertyOp15
 70
     1
102
RTVSPropertyOp16
 70
     1
102
RTVSPropertyOp17
 70
     1
102
RTVSPropertyOp18
 70
     1
102
RTVSPropertyOp19
 70
     1
102
RTVSPropertyOp20
 70
     1
102
RTVSPropertyOp21
 70
     1
102
RTVSPropertyOp22
 70
     1
102
RTVSPropertyOp23
 70
     1
102
RTVSPropertyOp24
 70
     1
102
RTVSPropertyOp25
 70
     1
102
RTVSPropertyOp26
 70
     1
102
RTVSPropertyOp27
 70
     1
102
RTVSPropertyOp28
 70
     1
102
RTVSPropertyOp29
 70
     1
102
RTVSPropertyOp30
 70
     1
102
RTVSPropertyOp31
 70
     1
102
RTVSPropertyOp32
 70
     1
  0
XRECORD
  5
643
102
{ACAD_REACTORS
330
642
102
}
330
642
100
AcDbXrecord
280
     1
102
RTVSPropertyOp0
 70
     1
102
RTVSPropertyOp1
 70
     1
102
RTVSPropertyOp2
 70
     1
102
RTVSPropertyOp3
 70
     1
102
RTVSPropertyOp4
 70
     1
102
RTVSPropertyOp5
 70
     1
102
RTVSPropertyOp6
 70
     1
102
RTVSPropertyOp7
 70
     1
102
RTVSPropertyOp8
 70
     1
102
RTVSPropertyOp9
 70
     1
102
RTVSPropertyOp10
 70
     1
102
RTVSPropertyOp11
 70
     1
102
RTVSPropertyOp12
 70
     1
102
RTVSPropertyOp13
 70
     1
102
RTVSPropertyOp14
 70
     1
102
RTVSPropertyOp15
 70
     1
102
RTVSPropertyOp16
 70
     1
102
RTVSPropertyOp17
 70
     1
102
RTVSPropertyOp18
 70
     1
102
RTVSPropertyOp19
 70
     1
102
RTVSPropertyOp20
 70
     1
102
RTVSPropertyOp21
 70
     1
102
RTVSPropertyOp22
 70
     1
102
RTVSPropertyOp23
 70
     1
102
RTVSPropertyOp24
 70
     1
102
RTVSPropertyOp25
 70
     1
102
RTVSPropertyOp26
 70
     1
102
RTVSPropertyOp27
 70
     1
102
RTVSPropertyOp28
 70
     1
102
RTVSPropertyOp29
 70
     1
102
RTVSPropertyOp30
 70
     1
102
RTVSPropertyOp31
 70
     1
102
RTVSPropertyOp32
 70
     1
  0
XRECORD
  5
645
102
{ACAD_REACTORS
330
644
102
}
330
644
100
AcDbXrecord
280
     1
102
RTVSPropertyOp0
 70
     1
102
RTVSPropertyOp1
 70
     1
102
RTVSPropertyOp2
 70
     1
102
RTVSPropertyOp3
 70
     1
102
RTVSPropertyOp4
 70
     1
102
RTVSPropertyOp5
 70
     1
102
RTVSPropertyOp6
 70
     1
102
RTVSPropertyOp7
 70
     1
102
RTVSPropertyOp8
 70
     1
102
RTVSPropertyOp9
 70
     1
102
RTVSPropertyOp10
 70
     1
102
RTVSPropertyOp11
 70
     1
102
RTVSPropertyOp12
 70
     1
102
RTVSPropertyOp13
 70
     1
102
RTVSPropertyOp14
 70
     1
102
RTVSPropertyOp15
 70
     1
102
RTVSPropertyOp16
 70
     1
102
RTVSPropertyOp17
 70
     1
102
RTVSPropertyOp18
 70
     1
102
RTVSPropertyOp19
 70
     1
102
RTVSPropertyOp20
 70
     1
102
RTVSPropertyOp21
 70
     1
102
RTVSPropertyOp22
 70
     1
102
RTVSPropertyOp23
 70
     1
102
RTVSPropertyOp24
 70
     1
102
RTVSPropertyOp25
 70
     1
102
RTVSPropertyOp26
 70
     1
102
RTVSPropertyOp27
 70
     1
102
RTVSPropertyOp28
 70
     1
102
RTVSPropertyOp29
 70
     1
102
RTVSPropertyOp30
 70
     1
102
RTVSPropertyOp31
 70
     1
102
RTVSPropertyOp32
 70
     1
  0
XRECORD
  5
647
102
{ACAD_REACTORS
330
646
102
}
330
646
100
AcDbXrecord
280
     1
102
RTVSPropertyOp0
 70
     1
102
RTVSPropertyOp1
 70
     1
102
RTVSPropertyOp2
 70
     1
102
RTVSPropertyOp3
 70
     1
102
RTVSPropertyOp4
 70
     1
102
RTVSPropertyOp5
 70
     1
102
RTVSPropertyOp6
 70
     1
102
RTVSPropertyOp7
 70
     1
102
RTVSPropertyOp8
 70
     1
102
RTVSPropertyOp9
 70
     1
102
RTVSPropertyOp10
 70
     1
102
RTVSPropertyOp11
 70
     1
102
RTVSPropertyOp12
 70
     1
102
RTVSPropertyOp13
 70
     1
102
RTVSPropertyOp14
 70
     1
102
RTVSPropertyOp15
 70
     1
102
RTVSPropertyOp16
 70
     1
102
RTVSPropertyOp17
 70
     1
102
RTVSPropertyOp18
 70
     1
102
RTVSPropertyOp19
 70
     1
102
RTVSPropertyOp20
 70
     1
102
RTVSPropertyOp21
 70
     1
102
RTVSPropertyOp22
 70
     1
102
RTVSPropertyOp23
 70
     1
102
RTVSPropertyOp24
 70
     1
102
RTVSPropertyOp25
 70
     1
102
RTVSPropertyOp26
 70
     1
102
RTVSPropertyOp27
 70
     1
102
RTVSPropertyOp28
 70
     1
102
RTVSPropertyOp29
 70
     1
102
RTVSPropertyOp30
 70
     1
102
RTVSPropertyOp31
 70
     1
102
RTVSPropertyOp32
 70
     1
  0
XRECORD
  5
65B
102
{ACAD_REACTORS
330
65A
102
}
330
65A
100
AcDbXrecord
280
     1
102
RTVSPropertyOp0
 70
     1
102
RTVSPropertyOp1
 70
     1
102
RTVSPropertyOp2
 70
     1
102
RTVSPropertyOp3
 70
     1
102
RTVSPropertyOp4
 70
     1
102
RTVSPropertyOp5
 70
     1
102
RTVSPropertyOp6
 70
     1
102
RTVSPropertyOp7
 70
     1
102
RTVSPropertyOp8
 70
     1
102
RTVSPropertyOp9
 70
     1
102
RTVSPropertyOp10
 70
     1
102
RTVSPropertyOp11
 70
     1
102
RTVSPropertyOp12
 70
     1
102
RTVSPropertyOp13
 70
     1
102
RTVSPropertyOp14
 70
     1
102
RTVSPropertyOp15
 70
     1
102
RTVSPropertyOp16
 70
     1
102
RTVSPropertyOp17
 70
     1
102
RTVSPropertyOp18
 70
     1
102
RTVSPropertyOp19
 70
     1
102
RTVSPropertyOp20
 70
     1
102
RTVSPropertyOp21
 70
     1
102
RTVSPropertyOp22
 70
     1
102
RTVSPropertyOp23
 70
     1
102
RTVSPropertyOp24
 70
     1
102
RTVSPropertyOp25
 70
     1
102
RTVSPropertyOp26
 70
     1
102
RTVSPropertyOp27
 70
     1
102
RTVSPropertyOp28
 70
     1
102
RTVSPropertyOp29
 70
     1
102
RTVSPropertyOp30
 70
     1
102
RTVSPropertyOp31
 70
     1
102
RTVSPropertyOp32
 70
     1
  0
XRECORD
  5
651
102
{ACAD_REACTORS
330
650
102
}
330
650
100
AcDbXrecord
280
     1
102
RTVSPropertyOp0
 70
     1
102
RTVSPropertyOp1
 70
     1
102
RTVSPropertyOp2
 70
     1
102
RTVSPropertyOp3
 70
     1
102
RTVSPropertyOp4
 70
     1
102
RTVSPropertyOp5
 70
     1
102
RTVSPropertyOp6
 70
     1
102
RTVSPropertyOp7
 70
     1
102
RTVSPropertyOp8
 70
     1
102
RTVSPropertyOp9
 70
     1
102
RTVSPropertyOp10
 70
     1
102
RTVSPropertyOp11
 70
     1
102
RTVSPropertyOp12
 70
     1
102
RTVSPropertyOp13
 70
     1
102
RTVSPropertyOp14
 70
     1
102
RTVSPropertyOp15
 70
     1
102
RTVSPropertyOp16
 70
     1
102
RTVSPropertyOp17
 70
     1
102
RTVSPropertyOp18
 70
     1
102
RTVSPropertyOp19
 70
     1
102
RTVSPropertyOp20
 70
     1
102
RTVSPropertyOp21
 70
     1
102
RTVSPropertyOp22
 70
     1
102
RTVSPropertyOp23
 70
     1
102
RTVSPropertyOp24
 70
     1
102
RTVSPropertyOp25
 70
     1
102
RTVSPropertyOp26
 70
     1
102
RTVSPropertyOp27
 70
     1
102
RTVSPropertyOp28
 70
     1
102
RTVSPropertyOp29
 70
     1
102
RTVSPropertyOp30
 70
     1
102
RTVSPropertyOp31
 70
     1
102
RTVSPropertyOp32
 70
     1
  0
XRECORD
  5
659
102
{ACAD_REACTORS
330
658
102
}
330
658
100
AcDbXrecord
280
     1
102
RTVSPropertyOp0
 70
     1
102
RTVSPropertyOp1
 70
     1
102
RTVSPropertyOp2
 70
     1
102
RTVSPropertyOp3
 70
     1
102
RTVSPropertyOp4
 70
     1
102
RTVSPropertyOp5
 70
     1
102
RTVSPropertyOp6
 70
     1
102
RTVSPropertyOp7
 70
     1
102
RTVSPropertyOp8
 70
     1
102
RTVSPropertyOp9
 70
     1
102
RTVSPropertyOp10
 70
     1
102
RTVSPropertyOp11
 70
     1
102
RTVSPropertyOp12
 70
     1
102
RTVSPropertyOp13
 70
     1
102
RTVSPropertyOp14
 70
     1
102
RTVSPropertyOp15
 70
     1
102
RTVSPropertyOp16
 70
     1
102
RTVSPropertyOp17
 70
     1
102
RTVSPropertyOp18
 70
     1
102
RTVSPropertyOp19
 70
     1
102
RTVSPropertyOp20
 70
     1
102
RTVSPropertyOp21
 70
     1
102
RTVSPropertyOp22
 70
     1
102
RTVSPropertyOp23
 70
     1
102
RTVSPropertyOp24
 70
     1
102
RTVSPropertyOp25
 70
     1
102
RTVSPropertyOp26
 70
     1
102
RTVSPropertyOp27
 70
     1
102
RTVSPropertyOp28
 70
     1
102
RTVSPropertyOp29
 70
     1
102
RTVSPropertyOp30
 70
     1
102
RTVSPropertyOp31
 70
     1
102
RTVSPropertyOp32
 70
     1
  0
ENDSEC
  0
EOF
