  0
SECTION
  2
HEADER
  9
$ACADVER
  1
AC1015
  9
$ACADMAINTVER
 70
     6
  9
$DWGCODEPAGE
  3
ANSI_949
  9
$INSBASE
 10
0.0
 20
0.0
 30
0.0
  9
$EXTMIN
 10
1.000000000000000E+20
 20
1.000000000000000E+20
 30
1.000000000000000E+20
  9
$EXTMAX
 10
-1.000000000000000E+20
 20
-1.000000000000000E+20
 30
-1.000000000000000E+20
  9
$LIMMIN
 10
0.0
 20
0.0
  9
$LIMMAX
 10
12.0
 20
9.0
  9
$ORTHOMODE
 70
     0
  9
$REGENMODE
 70
     1
  9
$FILLMODE
 70
     1
  9
$QTEXTMODE
 70
     0
  9
$MIRRTEXT
 70
     1
  9
$LTSCALE
 40
1.0
  9
$ATTMODE
 70
     1
  9
$TEXTSIZE
 40
0.2
  9
$TRACEWID
 40
0.05
  9
$TEXTSTYLE
  7
Standard
  9
$CLAYER
  8
0
  9
$CELTYPE
  6
ByLayer
  9
$CECOLOR
 62
   256
  9
$CELTSCALE
 40
1.0
  9
$DISPSILH
 70
     0
  9
$DIMSCALE
 40
1.0
  9
$DIMASZ
 40
0.18
  9
$DIMEXO
 40
0.0625
  9
$DIMDLI
 40
0.38
  9
$DIMRND
 40
0.0
  9
$DIMDLE
 40
0.0
  9
$DIMEXE
 40
0.18
  9
$DIMTP
 40
0.0
  9
$DIMTM
 40
0.0
  9
$DIMTXT
 40
0.18
  9
$DIMCEN
 40
0.09
  9
$DIMTSZ
 40
0.0
  9
$DIMTOL
 70
     0
  9
$DIMLIM
 70
     0
  9
$DIMTIH
 70
     1
  9
$DIMTOH
 70
     1
  9
$DIMSE1
 70
     0
  9
$DIMSE2
 70
     0
  9
$DIMTAD
 70
     0
  9
$DIMZIN
 70
     0
  9
$DIMBLK
  1

  9
$DIMASO
 70
     1
  9
$DIMSHO
 70
     1
  9
$DIMPOST
  1

  9
$DIMAPOST
  1

  9
$DIMALT
 70
     0
  9
$DIMALTD
 70
     2
  9
$DIMALTF
 40
25.4
  9
$DIMLFAC
 40
1.0
  9
$DIMTOFL
 70
     0
  9
$DIMTVP
 40
0.0
  9
$DIMTIX
 70
     0
  9
$DIMSOXD
 70
     0
  9
$DIMSAH
 70
     0
  9
$DIMBLK1
  1

  9
$DIMBLK2
  1

  9
$DIMSTYLE
  2
Standard
  9
$DIMCLRD
 70
     0
  9
$DIMCLRE
 70
     0
  9
$DIMCLRT
 70
     0
  9
$DIMTFAC
 40
1.0
  9
$DIMGAP
 40
0.09
  9
$DIMJUST
 70
     0
  9
$DIMSD1
 70
     0
  9
$DIMSD2
 70
     0
  9
$DIMTOLJ
 70
     1
  9
$DIMTZIN
 70
     0
  9
$DIMALTZ
 70
     0
  9
$DIMALTTZ
 70
     0
  9
$DIMUPT
 70
     0
  9
$DIMDEC
 70
     4
  9
$DIMTDEC
 70
     4
  9
$DIMALTU
 70
     2
  9
$DIMALTTD
 70
     2
  9
$DIMTXSTY
  7
Standard
  9
$DIMAUNIT
 70
     0
  9
$DIMADEC
 70
     0
  9
$DIMALTRND
 40
0.0
  9
$DIMAZIN
 70
     0
  9
$DIMDSEP
 70
    46
  9
$DIMATFIT
 70
     3
  9
$DIMFRAC
 70
     0
  9
$DIMLDRBLK
  1

  9
$DIMLUNIT
 70
     2
  9
$DIMLWD
 70
    -2
  9
$DIMLWE
 70
    -2
  9
$DIMTMOVE
 70
     0
  9
$LUNITS
 70
     2
  9
$LUPREC
 70
     4
  9
$SKETCHINC
 40
0.1
  9
$FILLETRAD
 40
0.5
  9
$AUNITS
 70
     0
  9
$AUPREC
 70
     0
  9
$MENU
  1
.
  9
$ELEVATION
 40
0.0
  9
$PELEVATION
 40
0.0
  9
$THICKNESS
 40
0.0
  9
$LIMCHECK
 70
     0
  9
$CHAMFERA
 40
0.5
  9
$CHAMFERB
 40
0.5
  9
$CHAMFERC
 40
1.0
  9
$CHAMFERD
 40
0.0
  9
$SKPOLY
 70
     0
  9
$TDCREATE
 40
2456522.588696331
  9
$TDUCREATE
 40
2456522.088696331
  9
$TDUPDATE
 40
2456522.588724329
  9
$TDUUPDATE
 40
2456522.088724329
  9
$TDINDWG
 40
0.0000000116
  9
$TDUSRTIMER
 40
0.0000000116
  9
$USRTIMER
 70
     1
  9
$ANGBASE
 50
0.0
  9
$ANGDIR
 70
     0
  9
$PDMODE
 70
     0
  9
$PDSIZE
 40
0.0
  9
$PLINEWID
 40
0.0
  9
$SPLFRAME
 70
     0
  9
$SPLINETYPE
 70
     6
  9
$SPLINESEGS
 70
     8
  9
$HANDSEED
  5
3E6
  9
$SURFTAB1
 70
     6
  9
$SURFTAB2
 70
     6
  9
$SURFTYPE
 70
     6
  9
$SURFU
 70
     6
  9
$SURFV
 70
     6
  9
$UCSBASE
  2

  9
$UCSNAME
  2

  9
$UCSORG
 10
0.0
 20
0.0
 30
0.0
  9
$UCSXDIR
 10
1.0
 20
0.0
 30
0.0
  9
$UCSYDIR
 10
0.0
 20
1.0
 30
0.0
  9
$UCSORTHOREF
  2

  9
$UCSORTHOVIEW
 70
     0
  9
$UCSORGTOP
 10
0.0
 20
0.0
 30
0.0
  9
$UCSORGBOTTOM
 10
0.0
 20
0.0
 30
0.0
  9
$UCSORGLEFT
 10
0.0
 20
0.0
 30
0.0
  9
$UCSORGRIGHT
 10
0.0
 20
0.0
 30
0.0
  9
$UCSORGFRONT
 10
0.0
 20
0.0
 30
0.0
  9
$UCSORGBACK
 10
0.0
 20
0.0
 30
0.0
  9
$PUCSBASE
  2

  9
$PUCSNAME
  2

  9
$PUCSORG
 10
0.0
 20
0.0
 30
0.0
  9
$PUCSXDIR
 10
1.0
 20
0.0
 30
0.0
  9
$PUCSYDIR
 10
0.0
 20
1.0
 30
0.0
  9
$PUCSORTHOREF
  2

  9
$PUCSORTHOVIEW
 70
     0
  9
$PUCSORGTOP
 10
0.0
 20
0.0
 30
0.0
  9
$PUCSORGBOTTOM
 10
0.0
 20
0.0
 30
0.0
  9
$PUCSORGLEFT
 10
0.0
 20
0.0
 30
0.0
  9
$PUCSORGRIGHT
 10
0.0
 20
0.0
 30
0.0
  9
$PUCSORGFRONT
 10
0.0
 20
0.0
 30
0.0
  9
$PUCSORGBACK
 10
0.0
 20
0.0
 30
0.0
  9
$USERI1
 70
     0
  9
$USERI2
 70
     0
  9
$USERI3
 70
     0
  9
$USERI4
 70
     0
  9
$USERI5
 70
     0
  9
$USERR1
 40
0.0
  9
$USERR2
 40
0.0
  9
$USERR3
 40
0.0
  9
$USERR4
 40
0.0
  9
$USERR5
 40
0.0
  9
$WORLDVIEW
 70
     1
  9
$SHADEDGE
 70
     3
  9
$SHADEDIF
 70
    70
  9
$TILEMODE
 70
     1
  9
$MAXACTVP
 70
    64
  9
$PINSBASE
 10
0.0
 20
0.0
 30
0.0
  9
$PLIMCHECK
 70
     0
  9
$PEXTMIN
 10
1.000000000000000E+20
 20
1.000000000000000E+20
 30
1.000000000000000E+20
  9
$PEXTMAX
 10
-1.000000000000000E+20
 20
-1.000000000000000E+20
 30
-1.000000000000000E+20
  9
$PLIMMIN
 10
0.0
 20
0.0
  9
$PLIMMAX
 10
12.0
 20
9.0
  9
$UNITMODE
 70
     0
  9
$VISRETAIN
 70
     1
  9
$PLINEGEN
 70
     0
  9
$PSLTSCALE
 70
     1
  9
$TREEDEPTH
 70
  3020
  9
$CMLSTYLE
  2
Standard
  9
$CMLJUST
 70
     0
  9
$CMLSCALE
 40
1.0
  9
$PROXYGRAPHICS
 70
     1
  9
$MEASUREMENT
 70
     0
  9
$CELWEIGHT
370
    -1
  9
$ENDCAPS
280
     0
  9
$JOINSTYLE
280
     0
  9
$LWDISPLAY
290
     1
  9
$INSUNITS
 70
     4
  9
$HYPERLINKBASE
  1

  9
$STYLESHEET
  1

  9
$XEDIT
290
     1
  9
$CEPSNTYPE
380
     0
  9
$PSTYLEMODE
290
     1
  9
$FINGERPRINTGUID
  2
{EE508998-CA0D-4AFF-909B-B834BE6F9DB2}
  9
$VERSIONGUID
  2
{FAEB1C32-E019-11D5-929B-00C0DF256EC4}
  9
$EXTNAMES
290
     1
  9
$PSVPSCALE
 40
0.0
  9
$OLESTARTUP
290
     0
  0
ENDSEC
  0
SECTION
  2
CLASSES
  0
CLASS
  1
ACDBDICTIONARYWDFLT
  2
AcDbDictionaryWithDefault
  3
ObjectDBX Classes
 90
        0
280
     0
281
     0
  0
CLASS
  1
VISUALSTYLE
  2
AcDbVisualStyle
  3
ObjectDBX Classes
 90
     4095
280
     0
281
     0
  0
CLASS
  1
MATERIAL
  2
AcDbMaterial
  3
ObjectDBX Classes
 90
     1153
280
     0
281
     0
  0
CLASS
  1
SPATIAL_FILTER
  2
AcDbSpatialFilter
  3
ObjectDBX Classes
 90
        0
280
     0
281
     0
  0
CLASS
  1
SCALE
  2
AcDbScale
  3
ObjectDBX Classes
 90
     1153
280
     0
281
     0
  0
CLASS
  1
DICTIONARYVAR
  2
AcDbDictionaryVar
  3
ObjectDBX Classes
 90
        0
280
     0
281
     0
  0
CLASS
  1
ACDBPLACEHOLDER
  2
AcDbPlaceHolder
  3
ObjectDBX Classes
 90
        0
280
     0
281
     0
  0
CLASS
  1
LAYOUT
  2
AcDbLayout
  3
ObjectDBX Classes
 90
        0
280
     0
281
     0
  0
ENDSEC
  0
SECTION
  2
TABLES
  0
TABLE
  2
VPORT
  5
8
330
0
100
AcDbSymbolTable
 70
     1
  0
VPORT
  5
29
330
8
100
AcDbSymbolTableRecord
100
AcDbViewportTableRecord
  2
*Active
 70
     0
 10
0.0
 20
0.0
 11
1.0
 21
1.0
 12
148.6203422501967
 22
100.4422808134636
 13
0.0
 23
0.0
 14
0.5
 24
0.5
 15
0.5
 25
0.5
 16
0.0
 26
0.0
 36
1.0
 17
0.0
 27
0.0
 37
0.0
 40
200.7673407460772
 41
1.439006444542446
 42
50.0
 43
0.0
 44
0.0
 50
0.0
 51
0.0
 71
     0
 72
   100
 73
     1
 74
     3
 75
     0
 76
     0
 77
     0
 78
     0
281
     0
 65
     1
110
0.0
120
0.0
130
0.0
111
1.0
121
0.0
131
0.0
112
0.0
122
1.0
132
0.0
 79
     0
146
0.0
  0
ENDTAB
  0
TABLE
  2
LTYPE
  5
5
330
0
100
AcDbSymbolTable
 70
     2
  0
LTYPE
  5
14
330
5
100
AcDbSymbolTableRecord
100
AcDbLinetypeTableRecord
  2
ByBlock
 70
     0
  3

 72
    65
 73
     0
 40
0.0
  0
LTYPE
  5
15
330
5
100
AcDbSymbolTableRecord
100
AcDbLinetypeTableRecord
  2
ByLayer
 70
     0
  3

 72
    65
 73
     0
 40
0.0
  0
LTYPE
  5
16
330
5
100
AcDbSymbolTableRecord
100
AcDbLinetypeTableRecord
  2
Continuous
 70
     0
  3
Solid line
 72
    65
 73
     0
 40
0.0
  0
LTYPE
  5
297
330
5
100
AcDbSymbolTableRecord
100
AcDbLinetypeTableRecord
  2
Contour Line
 70
     0
  3
- - - - - 
 72
    65
 73
     2
 40
2.0
 49
1.0
 74
     0
 49
-1.0
 74
     0
  0
ENDTAB
  0
TABLE
  2
LAYER
  5
2
330
0
100
AcDbSymbolTable
 70
     4
  0
LAYER
  5
10
330
2
100
AcDbSymbolTableRecord
100
AcDbLayerTableRecord
  2
0
 70
     0
 62
     7
  6
Continuous
370
    -3
390
F
  0
LAYER
  5
40
330
2
100
AcDbSymbolTableRecord
100
AcDbLayerTableRecord
  2
Doc_ Finishes
 70
     0
 62
     7
  6
Continuous
370
    -3
390
F
  0
LAYER
  5
DB
330
2
100
AcDbSymbolTableRecord
100
AcDbLayerTableRecord
  2
Doc_ Floor
 70
     0
 62
     7
  6
Continuous
370
    -3
390
F
  0
LAYER
  5
163
330
2
100
AcDbSymbolTableRecord
100
AcDbLayerTableRecord
  2
Des_ Walls
 70
     0
 62
     7
  6
Continuous
370
    -3
390
F
  0
ENDTAB
  0
TABLE
  2
STYLE
  5
3
330
0
100
AcDbSymbolTable
 70
     4
  0
STYLE
  5
11
330
3
100
AcDbSymbolTableRecord
100
AcDbTextStyleTableRecord
  2
Standard
 70
     0
 40
0.0
 41
1.0
 50
0.0
 71
     0
 42
0.2
  3
txt
  4

  0
STYLE
  5
D6
330
3
100
AcDbSymbolTableRecord
100
AcDbTextStyleTableRecord
  2
GENERATED_STYLE_1
 70
     0
 40
0.0
 41
1.0
 50
0.0
 71
     0
 42
0.2
  3

  4

1001
ACAD
1000
Century Gothic
1071
       34
  0
STYLE
  5
D9
330
3
100
AcDbSymbolTableRecord
100
AcDbTextStyleTableRecord
  2
GENERATED_STYLE_2
 70
     0
 40
0.0
 41
1.0
 50
0.0
 71
     0
 42
0.2
  3

  4

1001
ACAD
1000
DilleniaUPC
1071
 33554450
  0
STYLE
  5
2B8
330
3
100
AcDbSymbolTableRecord
100
AcDbTextStyleTableRecord
  2
GENERATED_STYLE_3
 70
     0
 40
0.0
 41
1.0
 50
0.0
 71
     0
 42
0.2
  3

  4

1001
ACAD
1000
Arial
1071
       34
  0
ENDTAB
  0
TABLE
  2
VIEW
  5
6
330
0
100
AcDbSymbolTable
 70
     0
  0
ENDTAB
  0
TABLE
  2
UCS
  5
7
330
0
100
AcDbSymbolTable
 70
     0
  0
ENDTAB
  0
TABLE
  2
APPID
  5
9
330
0
100
AcDbSymbolTable
 70
     1
  0
APPID
  5
12
330
9
100
AcDbSymbolTableRecord
100
AcDbRegAppTableRecord
  2
ACAD
 70
     0
  0
ENDTAB
  0
TABLE
  2
DIMSTYLE
  5
A
330
0
100
AcDbSymbolTable
 70
     1
100
AcDbDimStyleTable
  0
DIMSTYLE
105
27
330
A
100
AcDbSymbolTableRecord
100
AcDbDimStyleTableRecord
  2
Standard
 70
     0
178
     0
340
11
  0
ENDTAB
  0
TABLE
  2
BLOCK_RECORD
  5
1
330
0
100
AcDbSymbolTable
 70
     3
  0
BLOCK_RECORD
  5
1F
330
1
100
AcDbSymbolTableRecord
100
AcDbBlockTableRecord
  2
*Model_Space
340
22
  0
BLOCK_RECORD
  5
1B
330
1
100
AcDbSymbolTableRecord
100
AcDbBlockTableRecord
  2
*Paper_Space
340
1E
  0
BLOCK_RECORD
  5
E3
330
1
100
AcDbSymbolTableRecord
100
AcDbBlockTableRecord
  2
Drawing_1_2
340
0
102
{BLKREFS
331
389
102
}
  0
BLOCK_RECORD
  5
390
330
1
100
AcDbSymbolTableRecord
100
AcDbBlockTableRecord
  2
R-TRS9-18 CHIMNEY PENETRATION D_STORY_MARKER
340
0
  0
ENDTAB
  0
ENDSEC
  0
SECTION
  2
BLOCKS
  0
BLOCK
  5
20
330
1F
100
AcDbEntity
  8
0
100
AcDbBlockBegin
  2
*Model_Space
 70
     0
 10
0.0
 20
0.0
 30
0.0
  3
*Model_Space
  1

  0
ENDBLK
  5
21
330
1F
100
AcDbEntity
  8
0
100
AcDbBlockEnd
  0
BLOCK
  5
1C
330
1B
100
AcDbEntity
 67
     1
  8
0
100
AcDbBlockBegin
  2
*Paper_Space
 70
     0
 10
0.0
 20
0.0
 30
0.0
  3
*Paper_Space
  1

  0
ENDBLK
  5
1D
330
1B
100
AcDbEntity
 67
     1
  8
0
100
AcDbBlockEnd
  0
BLOCK
  5
E4
330
E3
100
AcDbEntity
  8
0
100
AcDbBlockBegin
  2
Drawing_1_2
 70
     0
 10
145.2277640610102
 20
160.7933108349203
 30
0.0
  3
Drawing_1_2
  1

  0
HATCH
  5
E6
330
E3
100
AcDbEntity
  8
0
  6
Continuous
 62
   255
370
    18
100
AcDbHatch
 10
0.0
 20
0.0
 30
0.0
210
0.0
220
0.0
230
1.0
  2
SOLID
 70
     1
 71
     0
 91
        1
 92
        3
 72
     0
 73
     1
 93
        3
 10
142.5935118732544
 20
139.0905557947802
 10
147.4041977999024
 20
136.2778516519382
 10
161.8707814648489
 20
141.2159425708003
 97
        0
 75
     0
 76
     1
 98
        0
  0
LINE
  5
E7
330
E3
100
AcDbEntity
  8
0
  6
Continuous
100
AcDbLine
 10
147.4041993726515
 20
136.2778520548109
 30
0.0
 11
142.5935133110832
 21
139.0905558582326
 31
0.0
  0
LINE
  5
E8
330
E3
100
AcDbEntity
  8
0
  6
Continuous
100
AcDbLine
 10
161.8707827001799
 20
141.2159432391725
 30
0.0
 11
147.4041993726515
 21
136.2778520548109
 31
0.0
  0
LINE
  5
E9
330
E3
100
AcDbEntity
  8
0
  6
Continuous
100
AcDbLine
 10
142.5935133110832
 20
139.0905558582326
 30
0.0
 11
161.8707827001799
 21
141.2159432391725
 31
0.0
  0
HATCH
  5
EA
330
E3
100
AcDbEntity
  8
0
  6
Continuous
 62
   255
370
    18
100
AcDbHatch
 10
0.0
 20
0.0
 30
0.0
210
0.0
220
0.0
230
1.0
  2
SOLID
 70
     1
 71
     0
 91
        1
 92
        3
 72
     0
 73
     1
 93
        6
 10
165.6907280723279
 20
162.3996596821561
 10
165.2601905224047
 20
160.8661662065706
 10
167.2387210526966
 20
158.8876356762787
 10
175.7561727755434
 20
153.9121686789894
 10
180.047250042956
 20
158.2032459464019
 10
168.008602238889
 20
163.9939480283253
 97
        0
 75
     0
 76
     1
 98
        0
  0
LINE
  5
EB
330
E3
100
AcDbEntity
  8
0
  6
Continuous
100
AcDbLine
 10
165.2601918774919
 20
160.8661657904844
 30
0.0
 11
165.6907293866688
 21
162.3996599994805
 31
0.0
  0
LINE
  5
EC
330
E3
100
AcDbEntity
  8
0
  6
Continuous
100
AcDbLine
 10
167.2387225232563
 20
158.88763514472
 30
0.0
 11
165.2601918774919
 21
160.8661657904844
 31
0.0
  0
LINE
  5
ED
330
E3
100
AcDbEntity
  8
0
  6
Continuous
100
AcDbLine
 10
175.7561715690535
 20
153.9121686568084
 30
0.0
 11
167.2387225232563
 21
158.88763514472
 31
0.0
  0
LINE
  5
EE
330
E3
100
AcDbEntity
  8
0
  6
Continuous
100
AcDbLine
 10
180.047250150144
 20
158.2032472378989
 30
0.0
 11
175.7561715690535
 21
153.9121686568084
 31
0.0
  0
LINE
  5
EF
330
E3
100
AcDbEntity
  8
0
  6
Continuous
100
AcDbLine
 10
168.0086021927226
 20
163.9939478429461
 30
0.0
 11
180.047250150144
 21
158.2032472378989
 31
0.0
  0
LINE
  5
F0
330
E3
100
AcDbEntity
  8
0
  6
Continuous
100
AcDbLine
 10
165.6907293866688
 20
162.3996599994805
 30
0.0
 11
168.0086021927226
 21
163.9939478429461
 31
0.0
  0
HATCH
  5
F1
330
E3
100
AcDbEntity
  8
0
  6
Continuous
 62
   252
370
    13
100
AcDbHatch
 10
0.0
 20
0.0
 30
0.0
210
0.0
220
0.0
230
1.0
  2
SOLID
 70
     1
 71
     0
 91
        1
 92
        3
 72
     0
 73
     1
 93
        4
 10
207.0739112919786
 20
147.4306393487489
 10
145.7043401866957
 20
174.7488664077119
 10
145.8434497220195
 20
174.3329559967109
 10
207.1858405893314
 20
146.9460225218576
 97
        0
 75
     0
 76
     1
 98
        0
  0
HATCH
  5
F2
330
E3
100
AcDbEntity
  8
0
  6
Continuous
 62
   255
370
    18
100
AcDbHatch
 10
0.0
 20
0.0
 30
0.0
210
0.0
220
0.0
230
1.0
  2
SOLID
 70
     1
 71
     0
 91
        1
 92
        3
 72
     0
 73
     1
 93
        4
 10
150.5980153110049
 20
178.0019713265781
 10
145.7043401866957
 20
174.7488667962331
 10
207.0739113928266
 20
147.4306396028309
 10
212.5191997901295
 20
151.6679980785034
 97
        0
 75
     0
 76
     1
 98
        0
  0
HATCH
  5
F3
330
E3
100
AcDbEntity
  8
0
  6
Continuous
 62
   252
370
    13
100
AcDbHatch
 10
0.0
 20
0.0
 30
0.0
210
0.0
220
0.0
230
1.0
  2
SOLID
 70
     1
 71
     0
 91
        1
 92
        3
 72
     0
 73
     1
 93
        3
 10
143.6604420278442
 20
95.45647755972715
 10
145.195025956154
 20
94.31161235555983
 10
144.4870865726873
 20
96.10301874182365
 97
        0
 75
     0
 76
     1
 98
        0
  0
HATCH
  5
F4
330
E3
100
AcDbEntity
  8
0
  6
Continuous
 62
   252
370
    13
100
AcDbHatch
 10
0.0
 20
0.0
 30
0.0
210
0.0
220
0.0
230
1.0
  2
SOLID
 70
     1
 71
     0
 91
        1
 92
        3
 72
     0
 73
     1
 93
        3
 10
181.2650369243672
 20
124.868048486127
 10
180.1482834045546
 20
123.994605497722
 10
181.7965492021782
 20
123.0682221266213
 97
        0
 75
     0
 76
     1
 98
        0
  0
HATCH
  5
F5
330
E3
100
AcDbEntity
  8
0
  6
Continuous
 62
   253
370
    25
100
AcDbHatch
 10
0.0
 20
0.0
 30
0.0
210
0.0
220
0.0
230
1.0
  2
SOLID
 70
     1
 71
     0
 91
        1
 92
        3
 72
     0
 73
     1
 93
        4
 10
146.0765384298938
 20
174.2288911552379
 10
74.15780377794637
 20
126.3369893797548
 10
74.60237654513652
 20
124.685681083903
 10
147.6527154251749
 20
173.5251913504646
 97
        0
 75
     0
 76
     1
 98
        0
  0
HATCH
  5
F6
330
E3
100
AcDbEntity
  8
0
  6
Continuous
 62
   255
370
    18
100
AcDbHatch
 10
0.0
 20
0.0
 30
0.0
210
0.0
220
0.0
230
1.0
  2
SOLID
 70
     1
 71
     0
 91
        1
 92
        3
 72
     0
 73
     1
 93
        5
 10
74.60237614317911
 20
124.6856813465562
 10
76.0714885867698
 20
123.4238327573971
 10
76.33740665857017
 20
124.73425077185
 10
148.5510534160207
 20
173.1241200451909
 10
147.6527135373561
 20
173.5251921819358
 97
        0
 75
     0
 76
     1
 98
        0
  0
HATCH
  5
F7
330
E3
100
AcDbEntity
  8
0
  6
Continuous
 62
   255
370
    18
100
AcDbHatch
 10
0.0
 20
0.0
 30
0.0
210
0.0
220
0.0
230
1.0
  2
SOLID
 70
     1
 71
     0
 91
        1
 92
        3
 72
     0
 73
     1
 93
        8
 10
207.0625561145667
 20
147.0010641145233
 10
123.9700908024384
 20
82.28282225830361
 10
125.2941627350583
 20
81.14555264655006
 10
212.3158010348374
 20
149.2006641414574
 10
210.7544525830936
 20
149.876572909761
 10
207.2629534654377
 20
147.1571482761831
 10
207.292492081032
 20
147.0291164525079
 10
207.1858408017845
 20
146.946023134133
 97
        0
 75
     0
 76
     1
 98
        0
  0
HATCH
  5
F8
330
E3
100
AcDbEntity
  8
0
  6
Continuous
 62
   253
370
    25
100
AcDbHatch
 10
0.0
 20
0.0
 30
0.0
210
0.0
220
0.0
230
1.0
  2
SOLID
 70
     1
 71
     0
 91
        1
 92
        3
 72
     0
 73
     1
 93
        4
 10
204.9082602803171
 20
147.9628718899184
 10
123.3011784174217
 20
84.75894638726767
 10
123.9700912958123
 20
82.28282378385194
 10
207.0625553349461
 20
147.0010641451113
 97
        0
 75
     0
 76
     1
 98
        0
  0
HATCH
  5
F9
330
E3
100
AcDbEntity
  8
0
  6
Continuous
 62
   253
370
    25
100
AcDbHatch
 10
0.0
 20
0.0
 30
0.0
210
0.0
220
0.0
230
1.0
  2
SOLID
 70
     1
 71
     0
 91
        1
 92
        3
 72
     0
 73
     1
 93
        4
 10
210.6429324256792
 20
150.0657548111868
 10
207.2086561285043
 20
147.3924880741641
 10
207.2629534505312
 20
147.1571484212224
 10
210.7544526562531
 20
149.8765729642785
 97
        0
 75
     0
 76
     1
 98
        0
  0
HATCH
  5
FA
330
E3
100
AcDbEntity
  8
0
  6
Continuous
 62
   255
370
    18
100
AcDbHatch
 10
0.0
 20
0.0
 30
0.0
210
0.0
220
0.0
230
1.0
  2
SOLID
 70
     1
 71
     0
 91
        1
 92
        3
 72
     0
 73
     1
 93
        4
 10
203.4712560035617
 20
148.6044366889664
 10
122.0765414963114
 20
85.80135047866605
 10
123.3011793089925
 20
84.75894570428434
 10
204.9082595753397
 20
147.9628712820196
 97
        0
 75
     0
 76
     1
 98
        0
  0
HATCH
  5
FB
330
E3
100
AcDbEntity
  8
0
  6
Continuous
 62
   255
370
    18
100
AcDbHatch
 10
0.0
 20
0.0
 30
0.0
210
0.0
220
0.0
230
1.0
  2
SOLID
 70
     1
 71
     0
 91
        1
 92
        3
 72
     0
 73
     1
 93
        5
 10
201.5815740586705
 20
149.448104495323
 10
119.312810570941
 20
86.28304789603361
 10
121.5261733855296
 20
84.38194972509149
 10
122.076541340504
 20
85.80134974566718
 10
203.4712565235725
 20
148.6044370425271
 97
        0
 75
     0
 76
     1
 98
        0
  0
HATCH
  5
FC
330
E3
100
AcDbEntity
  8
0
  6
Continuous
 62
   253
370
    25
100
AcDbHatch
 10
0.0
 20
0.0
 30
0.0
210
0.0
220
0.0
230
1.0
  2
SOLID
 70
     1
 71
     0
 91
        1
 92
        3
 72
     0
 73
     1
 93
        4
 10
199.4494335115988
 20
150.4000196947833
 10
118.6567928091542
 20
88.71222106605003
 10
119.3128098666404
 20
86.28304747359242
 10
201.5815739012025
 20
149.4481050213383
 97
        0
 75
     0
 76
     1
 98
        0
  0
HATCH
  5
FD
330
E3
100
AcDbEntity
  8
0
  6
Continuous
 62
   255
370
    18
100
AcDbHatch
 10
0.0
 20
0.0
 30
0.0
210
0.0
220
0.0
230
1.0
  2
SOLID
 70
     1
 71
     0
 91
        1
 92
        3
 72
     0
 73
     1
 93
        4
 10
198.0597918094754
 20
151.0204396599738
 10
117.4778165761099
 20
89.71575841981453
 10
118.656792522162
 20
88.71222148396075
 10
199.4494340600336
 20
150.4000203147648
 97
        0
 75
     0
 76
     1
 98
        0
  0
HATCH
  5
FE
330
E3
100
AcDbEntity
  8
0
  6
Continuous
 62
   255
370
    18
100
AcDbHatch
 10
0.0
 20
0.0
 30
0.0
210
0.0
220
0.0
230
1.0
  2
SOLID
 70
     1
 71
     0
 91
        1
 92
        3
 72
     0
 73
     1
 93
        5
 10
114.8280132548492
 20
90.13512606305396
 10
116.9598019014941
 20
88.30409216431296
 10
117.4778164370609
 20
89.71575863830915
 10
198.059792162182
 20
151.0204396225838
 10
196.2797152298625
 20
151.8151728351484
 97
        0
 75
     0
 76
     1
 98
        0
  0
HATCH
  5
FF
330
E3
100
AcDbEntity
  8
0
  6
Continuous
 62
   253
370
    25
100
AcDbHatch
 10
0.0
 20
0.0
 30
0.0
210
0.0
220
0.0
230
1.0
  2
SOLID
 70
     1
 71
     0
 91
        1
 92
        3
 72
     0
 73
     1
 93
        4
 10
194.1694467143028
 20
152.7573241629652
 10
114.1844013280664
 20
92.51909576001736
 10
114.8280126993763
 20
90.13512557501059
 10
196.2797156954345
 20
151.8151733659239
 97
        0
 75
     0
 76
     1
 98
        0
  0
HATCH
  5
100
330
E3
100
AcDbEntity
  8
0
  6
Continuous
 62
   255
370
    18
100
AcDbHatch
 10
0.0
 20
0.0
 30
0.0
210
0.0
220
0.0
230
1.0
  2
SOLID
 70
     1
 71
     0
 91
        1
 92
        3
 72
     0
 73
     1
 93
        8
 10
113.0485788906069
 20
93.48590287782417
 10
114.1844013467746
 20
92.51909673493937
 10
194.1694465998076
 20
152.7573245506005
 10
192.8248638175091
 20
153.357627288167
 10
155.2143002473255
 20
125.1310773620734
 10
155.2002189794748
 20
123.9457764566252
 10
130.6894640886966
 20
105.5064402173691
 10
129.8742059440708
 20
106.1134578182639
 97
        0
 75
     0
 76
     1
 98
        0
  0
HATCH
  5
101
330
E3
100
AcDbEntity
  8
0
  6
Continuous
 62
   255
370
    18
100
AcDbHatch
 10
0.0
 20
0.0
 30
0.0
210
0.0
220
0.0
230
1.0
  2
SOLID
 70
     1
 71
     0
 91
        1
 92
        3
 72
     0
 73
     1
 93
        5
 10
110.5062894335103
 20
93.84713556842574
 10
112.5609320431186
 20
92.08236354145312
 10
113.0485792664694
 20
93.48590254593937
 10
128.6469903725965
 20
105.1924375030442
 10
127.1726715839299
 20
106.3009282626123
 97
        0
 75
     0
 76
     1
 98
        0
  0
HATCH
  5
102
330
E3
100
AcDbEntity
  8
0
  6
Continuous
 62
   255
370
    18
100
AcDbHatch
 10
0.0
 20
0.0
 30
0.0
210
0.0
220
0.0
230
1.0
  2
SOLID
 70
     1
 71
     0
 91
        1
 92
        3
 72
     0
 73
     1
 93
        4
 10
155.214300490489
 20
125.1310776831417
 10
192.8248638435339
 20
153.3576267797211
 10
191.1483402310581
 20
154.1061283333284
 10
155.2397582500273
 20
127.2737871640063
 97
        0
 75
     0
 76
     1
 98
        0
  0
HATCH
  5
103
330
E3
100
AcDbEntity
  8
0
  6
Continuous
 62
   253
370
    25
100
AcDbHatch
 10
0.0
 20
0.0
 30
0.0
210
0.0
220
0.0
230
1.0
  2
SOLID
 70
     1
 71
     0
 91
        1
 92
        3
 72
     0
 73
     1
 93
        4
 10
126.5551817393833
 20
108.5847103511943
 10
109.8746235555421
 20
96.18755588706485
 10
110.506288219975
 20
93.8471349644039
 10
127.1726719947535
 20
106.3009277221629
 97
        0
 75
     0
 76
     1
 98
        0
  0
HATCH
  5
104
330
E3
100
AcDbEntity
  8
0
  6
Continuous
 62
   253
370
    25
100
AcDbHatch
 10
0.0
 20
0.0
 30
0.0
210
0.0
220
0.0
230
1.0
  2
SOLID
 70
     1
 71
     0
 91
        1
 92
        3
 72
     0
 73
     1
 93
        4
 10
155.2397579962784
 20
127.2737861746715
 10
191.14834048257
 20
154.1061278248689
 10
189.0596509610519
 20
155.0386438372303
 10
155.2712774059049
 20
129.9267949625394
 97
        0
 75
     0
 76
     1
 98
        0
  0
HATCH
  5
105
330
E3
100
AcDbEntity
  8
0
  6
Continuous
 62
   255
370
    18
100
AcDbHatch
 10
0.0
 20
0.0
 30
0.0
210
0.0
220
0.0
230
1.0
  2
SOLID
 70
     1
 71
     0
 91
        1
 92
        3
 72
     0
 73
     1
 93
        4
 10
125.4096360651762
 20
109.4376495801193
 10
108.7796282319346
 20
97.11960894969714
 10
109.8746225710784
 20
96.18755570361479
 10
126.5551810457617
 20
108.5847102351919
 97
        0
 75
     0
 76
     1
 98
        0
  0
HATCH
  5
106
330
E3
100
AcDbEntity
  8
0
  6
Continuous
 62
   255
370
    18
100
AcDbHatch
 10
0.0
 20
0.0
 30
0.0
210
0.0
220
0.0
230
1.0
  2
SOLID
 70
     1
 71
     0
 91
        1
 92
        3
 72
     0
 73
     1
 93
        4
 10
155.2712781836573
 20
129.9267946091097
 10
189.0596501545685
 20
155.0386442907702
 10
187.7579708383773
 20
155.6197930404135
 10
155.2908120224083
 20
131.5709878071892
 97
        0
 75
     0
 76
     1
 98
        0
  0
HATCH
  5
107
330
E3
100
AcDbEntity
  8
0
  6
Continuous
 62
   255
370
    18
100
AcDbHatch
 10
0.0
 20
0.0
 30
0.0
210
0.0
220
0.0
230
1.0
  2
SOLID
 70
     1
 71
     0
 91
        1
 92
        3
 72
     0
 73
     1
 93
        5
 10
106.3389036877825
 20
97.42658041477675
 10
108.3205149451084
 20
95.72453843114468
 10
108.7796279371492
 20
97.11960890695032
 10
124.1961945001268
 20
108.5388390785676
 10
122.8125697285985
 20
109.5791412513689
 97
        0
 75
     0
 76
     1
 98
        0
  0
HATCH
  5
108
330
E3
100
AcDbEntity
  8
0
  6
Continuous
 62
   255
370
    18
100
AcDbHatch
 10
0.0
 20
0.0
 30
0.0
210
0.0
220
0.0
230
1.0
  2
SOLID
 70
     1
 71
     0
 91
        1
 92
        3
 72
     0
 73
     1
 93
        5
 10
153.8755559877054
 20
132.4941885702457
 10
155.2919418735649
 20
131.6660577737444
 10
155.2908123473107
 20
131.5709870897425
 10
187.7579708072061
 20
155.6197924432481
 10
186.1793565614315
 20
156.3245816419177
 97
        0
 75
     0
 76
     1
 98
        0
  0
HATCH
  5
109
330
E3
100
AcDbEntity
  8
0
  6
Continuous
 62
   253
370
    25
100
AcDbHatch
 10
0.0
 20
0.0
 30
0.0
210
0.0
220
0.0
230
1.0
  2
SOLID
 70
     1
 71
     0
 91
        1
 92
        3
 72
     0
 73
     1
 93
        4
 10
122.206083196003
 20
111.8229247885667
 10
105.7187490271636
 20
99.72501292444088
 10
106.3389038742127
 20
97.42658114517934
 10
122.8125687269422
 20
109.5791414987609
 97
        0
 75
     0
 76
     1
 98
        0
  0
HATCH
  5
10A
330
E3
100
AcDbEntity
  8
0
  6
Continuous
 62
   253
370
    25
100
AcDbHatch
 10
0.0
 20
0.0
 30
0.0
210
0.0
220
0.0
230
1.0
  2
SOLID
 70
     1
 71
     0
 91
        1
 92
        3
 72
     0
 73
     1
 93
        4
 10
151.9286856290542
 20
133.6324811004897
 10
153.875555450798
 20
132.494188314483
 10
186.179357828878
 20
156.3245805431805
 10
184.1119472034287
 20
157.247596887168
 97
        0
 75
     0
 76
     1
 98
        0
  0
HATCH
  5
10B
330
E3
100
AcDbEntity
  8
0
  6
Continuous
 62
   255
370
    18
100
AcDbHatch
 10
0.0
 20
0.0
 30
0.0
210
0.0
220
0.0
230
1.0
  2
SOLID
 70
     1
 71
     0
 91
        1
 92
        3
 72
     0
 73
     1
 93
        4
 10
121.1000469951402
 20
112.6464488431565
 10
104.662418439377
 20
100.6241550215551
 10
105.7187490733102
 20
99.72501319758867
 10
122.2060833085899
 20
111.8229257131941
 97
        0
 75
     0
 76
     1
 98
        0
  0
HATCH
  5
10C
330
E3
100
AcDbEntity
  8
0
  6
Continuous
 62
   255
370
    18
100
AcDbHatch
 10
0.0
 20
0.0
 30
0.0
210
0.0
220
0.0
230
1.0
  2
SOLID
 70
     1
 71
     0
 91
        1
 92
        3
 72
     0
 73
     1
 93
        4
 10
182.8511488352613
 20
157.8104937255322
 10
150.7420600519858
 20
134.326275020622
 10
151.9286862193369
 20
133.6324815239988
 10
184.1119481652436
 20
157.2475971791471
 97
        0
 75
     0
 76
     1
 98
        0
  0
HATCH
  5
10D
330
E3
100
AcDbEntity
  8
0
  6
Continuous
 62
   255
370
    18
100
AcDbHatch
 10
0.0
 20
0.0
 30
0.0
210
0.0
220
0.0
230
1.0
  2
SOLID
 70
     1
 71
     0
 91
        1
 92
        3
 72
     0
 73
     1
 93
        5
 10
102.3177342133954
 20
100.8804402795321
 10
104.2301383743069
 20
99.2378387243035
 10
104.6624180859826
 20
100.6241552611915
 10
119.9001723795233
 20
111.7688739092111
 10
118.601912056774
 20
112.7449915188537
 97
        0
 75
     0
 76
     1
 98
        0
  0
HATCH
  5
10E
330
E3
100
AcDbEntity
  8
0
  6
Continuous
 62
   255
370
    18
100
AcDbHatch
 10
0.0
 20
0.0
 30
0.0
210
0.0
220
0.0
230
1.0
  2
SOLID
 70
     1
 71
     0
 91
        1
 92
        3
 72
     0
 73
     1
 93
        4
 10
181.365174687691
 20
158.4739217678353
 10
149.3441545442753
 20
135.1436014640434
 10
150.7420609159423
 20
134.3262755824751
 10
182.8511489299268
 20
157.8104939317075
 97
        0
 75
     0
 76
     1
 98
        0
  0
HATCH
  5
10F
330
E3
100
AcDbEntity
  8
0
  6
Continuous
 62
   253
370
    25
100
AcDbHatch
 10
0.0
 20
0.0
 30
0.0
210
0.0
220
0.0
230
1.0
  2
SOLID
 70
     1
 71
     0
 91
        1
 92
        3
 72
     0
 73
     1
 93
        4
 10
101.708678471323
 20
103.1383631710053
 10
102.317733374638
 20
100.8804391387103
 10
118.6019123569103
 20
112.7449922205027
 10
118.0060459377182
 20
114.9501540074778
 97
        0
 75
     0
 76
     1
 98
        0
  0
HATCH
  5
110
330
E3
100
AcDbEntity
  8
0
  6
Continuous
 62
   253
370
    25
100
AcDbHatch
 10
0.0
 20
0.0
 30
0.0
210
0.0
220
0.0
230
1.0
  2
SOLID
 70
     1
 71
     0
 91
        1
 92
        3
 72
     0
 73
     1
 93
        3
 10
136.8598107198299
 20
128.6147399145891
 10
137.7548020719607
 20
128.9048260295459
 10
137.6736355043421
 20
129.20457175064
 97
        0
 75
     0
 76
     1
 98
        0
  0
HATCH
  5
111
330
E3
100
AcDbEntity
  8
0
  6
Continuous
 62
   253
370
    25
100
AcDbHatch
 10
0.0
 20
0.0
 30
0.0
210
0.0
220
0.0
230
1.0
  2
SOLID
 70
     1
 71
     0
 91
        1
 92
        3
 72
     0
 73
     1
 93
        4
 10
179.3187483727752
 20
159.3875696256127
 10
147.4201519834908
 20
136.2685237335414
 10
149.3441537108241
 20
135.1436021817945
 10
181.3651759340499
 20
158.4739213935032
 97
        0
 75
     0
 76
     1
 98
        0
  0
HATCH
  5
112
330
E3
100
AcDbEntity
  8
0
  6
Continuous
 62
   255
370
    18
100
AcDbHatch
 10
0.0
 20
0.0
 30
0.0
210
0.0
220
0.0
230
1.0
  2
SOLID
 70
     1
 71
     0
 91
        1
 92
        3
 72
     0
 73
     1
 93
        4
 10
100.689000293635
 20
104.0063064796305
 10
101.7086791446729
 20
103.1383631397603
 10
118.006045300535
 20
114.950155381819
 10
116.937511090091
 20
115.745755952286
 97
        0
 75
     0
 76
     1
 98
        0
  0
HATCH
  5
113
330
E3
100
AcDbEntity
  8
0
  6
Continuous
 62
   255
370
    18
100
AcDbHatch
 10
0.0
 20
0.0
 30
0.0
210
0.0
220
0.0
230
1.0
  2
SOLID
 70
     1
 71
     0
 91
        1
 92
        3
 72
     0
 73
     1
 93
        4
 10
136.9311155389679
 20
129.675077752162
 10
134.3324666690634
 20
127.7955717584529
 10
136.8598132175382
 20
128.6147405845366
 10
137.6736356876498
 20
129.2045726497507
 97
        0
 75
     0
 76
     1
 98
        0
  0
HATCH
  5
114
330
E3
100
AcDbEntity
  8
0
  6
Continuous
 62
   255
370
    18
100
AcDbHatch
 10
0.0
 20
0.0
 30
0.0
210
0.0
220
0.0
230
1.0
  2
SOLID
 70
     1
 71
     0
 91
        1
 92
        3
 72
     0
 73
     1
 93
        4
 10
146.2720617755472
 20
136.9397877957116
 10
147.4201504189948
 20
136.2685242731092
 10
179.3187468775058
 20
159.3875711640054
 10
178.0969328873929
 20
159.933062336077
 97
        0
 75
     0
 76
     1
 98
        0
  0
HATCH
  5
115
330
E3
100
AcDbEntity
  8
0
  6
Continuous
 62
   255
370
    18
100
AcDbHatch
 10
0.0
 20
0.0
 30
0.0
210
0.0
220
0.0
230
1.0
  2
SOLID
 70
     1
 71
     0
 91
        1
 92
        3
 72
     0
 73
     1
 93
        6
 10
114.6532121196916
 20
115.8905939904001
 10
98.43521779251172
 20
104.2152053174174
 10
100.2819781682334
 20
102.6289876853888
 10
100.6889997145138
 20
104.0063076968972
 10
115.750991788241
 20
114.8885026795625
 10
114.6598952291559
 20
115.7088608950986
 97
        0
 75
     0
 76
     1
 98
        0
  0
HATCH
  5
116
330
E3
100
AcDbEntity
  8
0
  6
Continuous
 62
   255
370
    18
100
AcDbHatch
 10
0.0
 20
0.0
 30
0.0
210
0.0
220
0.0
230
1.0
  2
SOLID
 70
     1
 71
     0
 91
        1
 92
        3
 72
     0
 73
     1
 93
        4
 10
176.6986733346903
 20
160.557329404854
 10
144.9587501174157
 20
137.7076523187542
 10
146.2720618467687
 20
136.9397879694224
 10
178.0969329644846
 20
159.9330616929624
 97
        0
 75
     0
 76
     1
 98
        0
  0
HATCH
  5
117
330
E3
100
AcDbEntity
  8
0
  6
Continuous
 62
   253
370
    25
100
AcDbHatch
 10
0.0
 20
0.0
 30
0.0
210
0.0
220
0.0
230
1.0
  2
SOLID
 70
     1
 71
     0
 91
        1
 92
        3
 72
     0
 73
     1
 93
        4
 10
97.8368711259341
 20
106.4340244380347
 10
98.43521740192692
 20
104.2152054231897
 10
114.6532120482485
 20
115.8905944104365
 10
114.5605163385456
 20
118.4110067508279
 97
        0
 75
     0
 76
     1
 98
        0
  0
HATCH
  5
118
330
E3
100
AcDbEntity
  8
0
  6
Continuous
 62
   253
370
    25
100
AcDbHatch
 10
0.0
 20
0.0
 30
0.0
210
0.0
220
0.0
230
1.0
  2
SOLID
 70
     1
 71
     0
 91
        1
 92
        3
 72
     0
 73
     1
 93
        4
 10
174.6729220068133
 20
161.4617459159641
 10
143.0571641820213
 20
138.8194677112125
 10
144.9587488437448
 20
137.7076527054093
 10
176.6986736298917
 20
160.5573290555924
 97
        0
 75
     0
 76
     1
 98
        0
  0
HATCH
  5
119
330
E3
100
AcDbEntity
  8
0
  6
Continuous
 62
   255
370
    18
100
AcDbHatch
 10
0.0
 20
0.0
 30
0.0
210
0.0
220
0.0
230
1.0
  2
SOLID
 70
     1
 71
     0
 91
        1
 92
        3
 72
     0
 73
     1
 93
        4
 10
114.5065725352694
 20
119.8777324322813
 10
96.85197029157816
 20
107.2723658377473
 10
97.83687113343792
 20
106.434024031853
 10
114.5605159085735
 20
118.4110068010662
 97
        0
 75
     0
 76
     1
 98
        0
  0
HATCH
  5
11A
330
E3
100
AcDbEntity
  8
0
  6
Continuous
 62
   255
370
    18
100
AcDbHatch
 10
0.0
 20
0.0
 30
0.0
210
0.0
220
0.0
230
1.0
  2
SOLID
 70
     1
 71
     0
 91
        1
 92
        3
 72
     0
 73
     1
 93
        4
 10
141.9457603052603
 20
139.469281902225
 10
143.0571644919274
 20
138.8194682317118
 10
174.67292240454
 20
161.4617463430731
 10
173.4883111763689
 20
161.99062750083
 97
        0
 75
     0
 76
     1
 98
        0
  0
HATCH
  5
11B
330
E3
100
AcDbEntity
  8
0
  6
Continuous
 62
   255
370
    18
100
AcDbHatch
 10
0.0
 20
0.0
 30
0.0
210
0.0
220
0.0
230
1.0
  2
SOLID
 70
     1
 71
     0
 91
        1
 92
        3
 72
     0
 73
     1
 93
        5
 10
94.68430490470656
 20
107.4369349023448
 10
96.46874556848189
 20
105.9042453078977
 10
96.85197051578021
 20
107.2723665074598
 10
114.5065724721277
 20
119.8777325107576
 10
114.4469100438761
 20
121.4999509757518
 97
        0
 75
     0
 76
     1
 98
        0
  0
HATCH
  5
11C
330
E3
100
AcDbEntity
  8
0
  6
Continuous
 62
   255
370
    18
100
AcDbHatch
 10
0.0
 20
0.0
 30
0.0
210
0.0
220
0.0
230
1.0
  2
SOLID
 70
     1
 71
     0
 91
        1
 92
        3
 72
     0
 73
     1
 93
        4
 10
140.7123992861233
 20
140.1904020347856
 10
141.9457598194797
 20
139.4692825747228
 10
173.4883114597702
 20
161.9906268222049
 10
172.173158161939
 20
162.5777911668764
 97
        0
 75
     0
 76
     1
 98
        0
  0
HATCH
  5
11D
330
E3
100
AcDbEntity
  8
0
  6
Continuous
 62
   253
370
    25
100
AcDbHatch
 10
0.0
 20
0.0
 30
0.0
210
0.0
220
0.0
230
1.0
  2
SOLID
 70
     1
 71
     0
 91
        1
 92
        3
 72
     0
 73
     1
 93
        4
 10
94.09629741219346
 20
109.6179800817655
 10
94.68430544526466
 20
107.4369347929222
 10
114.4469102915712
 20
121.4999514321295
 10
114.3563902403548
 20
123.9612000479869
 97
        0
 75
     0
 76
     1
 98
        0
  0
HATCH
  5
11E
330
E3
100
AcDbEntity
  8
0
  6
Continuous
 62
   253
370
    25
100
AcDbHatch
 10
0.0
 20
0.0
 30
0.0
210
0.0
220
0.0
230
1.0
  2
SOLID
 70
     1
 71
     0
 91
        1
 92
        3
 72
     0
 73
     1
 93
        4
 10
138.8327856844293
 20
141.2893711740769
 10
140.7123995750219
 20
140.1904013954223
 10
172.1731573817384
 20
162.5777910505729
 10
170.1677782798921
 20
163.4731128192933
 97
        0
 75
     0
 76
     1
 98
        0
  0
HATCH
  5
11F
330
E3
100
AcDbEntity
  8
0
  6
Continuous
 62
   255
370
    18
100
AcDbHatch
 10
0.0
 20
0.0
 30
0.0
210
0.0
220
0.0
230
1.0
  2
SOLID
 70
     1
 71
     0
 91
        1
 92
        3
 72
     0
 73
     1
 93
        4
 10
93.14442460693515
 20
110.4282085676064
 10
94.0962969217051
 20
109.6179798059953
 10
114.3563899933182
 20
123.9612009815795
 10
114.3047681598477
 20
125.3648128311668
 97
        0
 75
     0
 76
     1
 98
        0
  0
HATCH
  5
120
330
E3
100
AcDbEntity
  8
0
  6
Continuous
 62
   255
370
    18
100
AcDbHatch
 10
0.0
 20
0.0
 30
0.0
210
0.0
220
0.0
230
1.0
  2
SOLID
 70
     1
 71
     0
 91
        1
 92
        3
 72
     0
 73
     1
 93
        5
 10
169.0186974626567
 20
163.9861322333794
 10
137.0351972897133
 20
141.4097066523292
 10
138.0881474889185
 20
141.7247447958688
 10
138.8327864397967
 20
141.289370863992
 10
170.1677764979853
 20
163.4731137935479
 97
        0
 75
     0
 76
     1
 98
        0
  0
HATCH
  5
121
330
E3
100
AcDbEntity
  8
0
  6
Continuous
 62
   255
370
    18
100
AcDbHatch
 10
0.0
 20
0.0
 30
0.0
210
0.0
220
0.0
230
1.0
  2
SOLID
 70
     1
 71
     0
 91
        1
 92
        3
 72
     0
 73
     1
 93
        5
 10
114.2494227188652
 20
126.8696464272289
 10
91.05841619156695
 20
110.5512781046319
 10
92.78363916807001
 20
109.0694533126192
 10
93.14442479592539
 20
110.4282087874495
 10
114.3047672599679
 20
125.3648130085905
 97
        0
 75
     0
 76
     1
 98
        0
  0
HATCH
  5
122
330
E3
100
AcDbEntity
  8
0
  6
Continuous
 62
   255
370
    18
100
AcDbHatch
 10
0.0
 20
0.0
 30
0.0
210
0.0
220
0.0
230
1.0
  2
SOLID
 70
     1
 71
     0
 91
        1
 92
        3
 72
     0
 73
     1
 93
        4
 10
133.3434032458973
 20
140.3051381542534
 10
137.0351969832124
 20
141.4097067383692
 10
169.0186970411806
 20
163.9861322399368
 10
167.7823347742377
 20
164.538118555991
 97
        0
 75
     0
 76
     1
 98
        0
  0
HATCH
  5
123
330
E3
100
AcDbEntity
  8
0
  6
Continuous
 62
   253
370
    25
100
AcDbHatch
 10
0.0
 20
0.0
 30
0.0
210
0.0
220
0.0
230
1.0
  2
SOLID
 70
     1
 71
     0
 91
        1
 92
        3
 72
     0
 73
     1
 93
        4
 10
114.1609789794432
 20
129.2744340928023
 10
90.48039634046538
 20
112.6958149627877
 10
91.05841576289257
 20
110.5512796354736
 10
114.2494233773077
 20
126.8696488613085
 97
        0
 75
     0
 76
     1
 98
        0
  0
HATCH
  5
124
330
E3
100
AcDbEntity
  8
0
  6
Continuous
 62
   253
370
    25
100
AcDbHatch
 10
0.0
 20
0.0
 30
0.0
210
0.0
220
0.0
230
1.0
  2
SOLID
 70
     1
 71
     0
 91
        1
 92
        3
 72
     0
 73
     1
 93
        4
 10
127.3598706820516
 20
138.5148924192935
 10
133.3433976347683
 20
140.3051364123264
 10
167.7823343911722
 20
164.5381192940681
 10
165.7970190228957
 20
165.4244834729065
 97
        0
 75
     0
 76
     1
 98
        0
  0
HATCH
  5
125
330
E3
100
AcDbEntity
  8
0
  6
Continuous
 62
   255
370
    18
100
AcDbHatch
 10
0.0
 20
0.0
 30
0.0
210
0.0
220
0.0
230
1.0
  2
SOLID
 70
     1
 71
     0
 91
        1
 92
        3
 72
     0
 73
     1
 93
        4
 10
114.1115321468649
 20
130.6189243553766
 10
89.55991763456852
 20
113.4793211314068
 10
90.4803957126834
 20
112.6958144136836
 10
114.1609797951698
 20
129.2744338574704
 97
        0
 75
     0
 76
     1
 98
        0
  0
HATCH
  5
126
330
E3
100
AcDbEntity
  8
0
  6
Continuous
 62
   255
370
    18
100
AcDbHatch
 10
0.0
 20
0.0
 30
0.0
210
0.0
220
0.0
230
1.0
  2
SOLID
 70
     1
 71
     0
 91
        1
 92
        3
 72
     0
 73
     1
 93
        4
 10
164.6818955148701
 20
165.9223413615472
 10
123.9687169772178
 20
137.5002734381958
 10
127.3598723009094
 20
138.5148925590514
 10
165.7970196761186
 20
165.4244829397247
 97
        0
 75
     0
 76
     1
 98
        0
  0
HATCH
  5
127
330
E3
100
AcDbEntity
  8
0
  6
Continuous
 62
   255
370
    18
100
AcDbHatch
 10
0.0
 20
0.0
 30
0.0
210
0.0
220
0.0
230
1.0
  2
SOLID
 70
     1
 71
     0
 91
        1
 92
        3
 72
     0
 73
     1
 93
        5
 10
87.55140262116001
 20
113.5635184429364
 10
89.22030602208694
 20
112.1300666637128
 10
89.5599184281351
 20
113.4793216077907
 10
114.1115314331598
 20
130.6189236760579
 10
114.0601963847442
 20
132.0147220908766
 97
        0
 75
     0
 76
     1
 98
        0
  0
HATCH
  5
128
330
E3
100
AcDbEntity
  8
0
  6
Continuous
 62
   255
370
    18
100
AcDbHatch
 10
0.0
 20
0.0
 30
0.0
210
0.0
220
0.0
230
1.0
  2
SOLID
 70
     1
 71
     0
 91
        1
 92
        3
 72
     0
 73
     1
 93
        4
 10
163.520278274062
 20
166.4409572077908
 10
120.4127169745649
 20
136.4363345712307
 10
123.9687169835467
 20
137.5002739940081
 10
164.6818962317033
 20
165.9223416199338
 97
        0
 75
     0
 76
     1
 98
        0
  0
HATCH
  5
129
330
E3
100
AcDbEntity
  8
0
  6
Continuous
 62
   253
370
    25
100
AcDbHatch
 10
0.0
 20
0.0
 30
0.0
210
0.0
220
0.0
230
1.0
  2
SOLID
 70
     1
 71
     0
 91
        1
 92
        3
 72
     0
 73
     1
 93
        4
 10
86.98303710531752
 20
115.672748128697
 10
87.55140385321971
 20
113.5635192381423
 10
114.0601970386992
 20
132.0147220263008
 10
113.9737372647814
 20
134.3655658908594
 97
        0
 75
     0
 76
     1
 98
        0
  0
HATCH
  5
12A
330
E3
100
AcDbEntity
  8
0
  6
Continuous
 62
   253
370
    25
100
AcDbHatch
 10
0.0
 20
0.0
 30
0.0
210
0.0
220
0.0
230
1.0
  2
SOLID
 70
     1
 71
     0
 91
        1
 92
        3
 72
     0
 73
     1
 93
        4
 10
161.5547238365897
 20
167.3184993959236
 10
114.340451978147
 20
134.6195392670343
 10
120.41271456419
 20
136.4363338736614
 10
163.5202777481964
 20
166.4409570402227
 97
        0
 75
     0
 76
     1
 98
        0
  0
HATCH
  5
12B
330
E3
100
AcDbEntity
  8
0
  6
Continuous
 62
   255
370
    18
100
AcDbHatch
 10
0.0
 20
0.0
 30
0.0
210
0.0
220
0.0
230
1.0
  2
SOLID
 70
     1
 71
     0
 91
        1
 92
        3
 72
     0
 73
     1
 93
        7
 10
86.09242459463715
 20
116.4308323539019
 10
86.9830373279462
 20
115.6727482251835
 10
113.9737372840773
 20
134.365567298632
 10
113.9684893501431
 20
134.5082499300978
 10
114.3404494586595
 20
134.6195394140221
 10
161.5547234606952
 20
167.3184993097198
 10
160.4720725535499
 20
167.8018591009018
 97
        0
 75
     0
 76
     1
 98
        0
  0
HATCH
  5
12C
330
E3
100
AcDbEntity
  8
0
  6
Continuous
 62
   255
370
    18
100
AcDbHatch
 10
0.0
 20
0.0
 30
0.0
210
0.0
220
0.0
230
1.0
  2
SOLID
 70
     1
 71
     0
 91
        1
 92
        3
 72
     0
 73
     1
 93
        5
 10
84.15751264189112
 20
116.4785949627507
 10
85.77281066731122
 20
115.0911848638679
 10
86.09242439970691
 20
116.4308324062258
 10
160.4720730886187
 20
167.8018596858015
 10
159.3814058253236
 20
168.2887987278242
 97
        0
 75
     0
 76
     1
 98
        0
  0
HATCH
  5
12D
330
E3
100
AcDbEntity
  8
0
  6
Continuous
 62
   253
370
    25
100
AcDbHatch
 10
0.0
 20
0.0
 30
0.0
210
0.0
220
0.0
230
1.0
  2
SOLID
 70
     1
 71
     0
 91
        1
 92
        3
 72
     0
 73
     1
 93
        4
 10
157.435307732984
 20
169.1576542764294
 10
83.59848439678697
 20
118.5536602717343
 10
84.15751285923453
 20
116.478595068669
 10
159.3814064128981
 20
168.288799001164
 97
        0
 75
     0
 76
     1
 98
        0
  0
HATCH
  5
12E
330
E3
100
AcDbEntity
  8
0
  6
Continuous
 62
   255
370
    18
100
AcDbHatch
 10
0.0
 20
0.0
 30
0.0
210
0.0
220
0.0
230
1.0
  2
SOLID
 70
     1
 71
     0
 91
        1
 92
        3
 72
     0
 73
     1
 93
        4
 10
156.3837312471579
 20
169.6271406578382
 10
82.7363077402308
 20
119.2875411636891
 10
83.59848386357172
 20
118.5536601690004
 10
157.4353085097673
 20
169.1576538849772
 97
        0
 75
     0
 76
     1
 98
        0
  0
HATCH
  5
12F
330
E3
100
AcDbEntity
  8
0
  6
Continuous
 62
   255
370
    18
100
AcDbHatch
 10
0.0
 20
0.0
 30
0.0
210
0.0
220
0.0
230
1.0
  2
SOLID
 70
     1
 71
     0
 91
        1
 92
        3
 72
     0
 73
     1
 93
        5
 10
80.87135939393767
 20
119.3011324930532
 10
82.43559391399631
 20
117.9575823536906
 10
82.73630753730926
 20
119.2875409232154
 10
156.3837314385739
 20
169.6271407684252
 10
155.3604558009131
 20
170.0839937249111
 97
        0
 75
     0
 76
     1
 98
        0
  0
HATCH
  5
130
330
E3
100
AcDbEntity
  8
0
  6
Continuous
 62
   253
370
    25
100
AcDbHatch
 10
0.0
 20
0.0
 30
0.0
210
0.0
220
0.0
230
1.0
  2
SOLID
 70
     1
 71
     0
 91
        1
 92
        3
 72
     0
 73
     1
 93
        4
 10
153.4335101755655
 20
170.9442967572174
 10
80.3213670150033
 20
121.3431252393202
 10
80.87135935553894
 20
119.3011332569941
 10
155.3604547022217
 20
170.0839930641067
 97
        0
 75
     0
 76
     1
 98
        0
  0
HATCH
  5
131
330
E3
100
AcDbEntity
  8
0
  6
Continuous
 62
   255
370
    18
100
AcDbHatch
 10
0.0
 20
0.0
 30
0.0
210
0.0
220
0.0
230
1.0
  2
SOLID
 70
     1
 71
     0
 91
        1
 92
        3
 72
     0
 73
     1
 93
        4
 10
79.48628576977788
 20
122.0539410204246
 10
80.32136661568256
 20
121.3431248059272
 10
153.4335098055743
 20
170.944297917939
 10
152.411689872436
 20
171.4004990728506
 97
        0
 75
     0
 76
     1
 98
        0
  0
HATCH
  5
132
330
E3
100
AcDbEntity
  8
0
  6
Continuous
 62
   255
370
    18
100
AcDbHatch
 10
0.0
 20
0.0
 30
0.0
210
0.0
220
0.0
230
1.0
  2
SOLID
 70
     1
 71
     0
 91
        1
 92
        3
 72
     0
 73
     1
 93
        5
 10
151.4524557163725
 20
171.8287589514275
 10
77.68789411023225
 20
122.0354718515372
 10
79.20344917199247
 20
120.7337335520482
 10
79.4862856337129
 20
122.0539421315111
 10
152.4116899092796
 20
171.4004996554031
 97
        0
 75
     0
 76
     1
 98
        0
  0
HATCH
  5
133
330
E3
100
AcDbEntity
  8
0
  6
Continuous
 62
   253
370
    25
100
AcDbHatch
 10
0.0
 20
0.0
 30
0.0
210
0.0
220
0.0
230
1.0
  2
SOLID
 70
     1
 71
     0
 91
        1
 92
        3
 72
     0
 73
     1
 93
        4
 10
77.14664942689988
 20
124.045427246154
 10
77.6878934728402
 20
122.0354718448385
 10
151.4524554994709
 20
171.8287592508186
 10
149.5443632106125
 20
172.680646095061
 97
        0
 75
     0
 76
     1
 98
        0
  0
HATCH
  5
134
330
E3
100
AcDbEntity
  8
0
  6
Continuous
 62
   255
370
    18
100
AcDbHatch
 10
0.0
 20
0.0
 30
0.0
210
0.0
220
0.0
230
1.0
  2
SOLID
 70
     1
 71
     0
 91
        1
 92
        3
 72
     0
 73
     1
 93
        4
 10
76.337406095156
 20
124.734250091955
 10
77.1466492458916
 20
124.0454269578088
 10
149.5443633942845
 20
172.6806465458043
 10
148.5510534336385
 20
173.1241199913842
 97
        0
 75
     0
 76
     1
 98
        0
  0
HATCH
  5
135
330
E3
100
AcDbEntity
  8
0
  6
Continuous
 62
   255
370
     0
100
AcDbHatch
 10
0.0
 20
0.0
 30
0.0
210
0.0
220
0.0
230
1.0
  2
SOLID
 70
     1
 71
     0
 91
        1
 92
        3
 72
     0
 73
     1
 93
        6
 10
207.0739111206514
 20
147.4306396028309
 10
207.1858405893314
 20
146.9460225218576
 10
207.2924918692067
 20
147.0291168521493
 10
207.2086567123129
 20
147.3924876331538
 10
212.5074926904284
 20
151.5171428463817
 10
212.5191997901295
 20
151.6679978514563
 97
        0
 75
     0
 76
     1
 98
        0
  0
HATCH
  5
136
330
E3
100
AcDbEntity
  8
0
  6
Continuous
100
AcDbHatch
 10
0.0
 20
0.0
 30
0.0
210
0.0
220
0.0
230
1.0
  2
Steel_0002
 70
     0
 71
     0
 91
        1
 92
        3
 72
     0
 73
     1
 93
        6
 10
207.0739111206514
 20
147.4306396028309
 10
207.1858405893314
 20
146.9460225218576
 10
207.2924918692067
 20
147.0291168521493
 10
207.2086567123129
 20
147.3924876331538
 10
212.5074926904284
 20
151.5171428463817
 10
212.5191997901295
 20
151.6679978514563
 97
        0
 75
     0
 76
     2
 52
0.0
 41
1.0
 77
     0
 78
     2
 53
58.66909604624115
 43
145.2277640610102
 44
160.7933108349203
 45
-1.443011320848933
 46
1.859265032713739
 79
     0
 53
58.66909604624115
 43
144.7467602873939
 44
161.4130658458249
 45
-1.443011320848933
 46
1.859265032713739
 79
     0
 98
        0
  0
HATCH
  5
137
330
E3
100
AcDbEntity
  8
0
  6
Continuous
 62
   255
370
     0
100
AcDbHatch
 10
0.0
 20
0.0
 30
0.0
210
0.0
220
0.0
230
1.0
  2
SOLID
 70
     1
 71
     0
 91
        1
 92
        3
 72
     0
 73
     1
 93
        4
 10
144.4870860523607
 20
96.10301794779424
 10
145.1950259878182
 20
94.3116116308086
 10
148.194652060895
 20
96.66831894936536
 10
147.501777163576
 20
98.46089025079056
 97
        0
 75
     0
 76
     1
 98
        0
  0
HATCH
  5
138
330
E3
100
AcDbEntity
  8
0
  6
Continuous
 62
   255
370
     0
100
AcDbHatch
 10
0.0
 20
0.0
 30
0.0
210
0.0
220
0.0
230
1.0
  2
SOLID
 70
     1
 71
     0
 91
        1
 92
        3
 72
     0
 73
     1
 93
        4
 10
183.9553041281789
 20
126.9721791430567
 10
181.2650371397165
 20
124.8680485570164
 10
181.7965493281076
 20
123.0682215221726
 10
184.4745400671241
 20
125.1722311653874
 97
        0
 75
     0
 76
     1
 98
        0
  0
HATCH
  5
139
330
E3
100
AcDbEntity
  8
0
  6
Continuous
 62
   255
370
     0
100
AcDbHatch
 10
0.0
 20
0.0
 30
0.0
210
0.0
220
0.0
230
1.0
  2
SOLID
 70
     1
 71
     0
 91
        1
 92
        3
 72
     0
 73
     1
 93
       57
 10
74.15780377794637
 20
126.3369897938192
 10
74.27709973393588
 20
124.9240199735591
 10
125.2954843949202
 20
81.09274764283536
 10
125.2941638289063
 20
81.14555199511156
 10
123.9700910379249
 20
82.28282375103045
 10
123.3011790122306
 20
84.758945987894
 10
122.0765418702459
 20
85.80135035405043
 10
121.526172933131
 20
84.38194991833113
 10
119.3128105665239
 20
86.28304757241125
 10
118.6567925382445
 20
88.71222151575007
 10
117.4778166522788
 20
89.71575948286687
 10
116.9598019635087
 20
88.30409270235498
 10
114.8280136951976
 20
90.13512568057011
 10
114.1844012149305
 20
92.51909557481909
 10
113.0485788049772
 20
93.48590153724412
 10
112.5609325624559
 20
92.08236313392182
 10
110.5062895813201
 20
93.84713539792287
 10
109.8746239181129
 20
96.18755480814262
 10
108.7796285629139
 20
97.11960999590238
 10
108.3205143188092
 20
95.72453830289729
 10
106.3389040485204
 20
97.42658101420078
 10
105.7187485697558
 20
99.7250128260776
 10
104.6624192045591
 20
100.6241567350506
 10
104.2301384351291
 20
99.23783903071651
 10
102.3177348157015
 20
100.8804387451318
 10
101.7086787971547
 20
103.1383627850932
 10
100.6889999014141
 20
104.0063068932177
 10
100.2819782907992
 20
102.6289877832618
 10
98.43521815623124
 20
104.2152047391684
 10
97.8368714479894
 20
106.434024632487
 10
96.85196999731825
 20
107.272366115969
 10
96.46874600736815
 20
105.9042460094286
 10
94.68430546328455
 20
107.4369347020878
 10
94.09629696572341
 20
109.6179793969045
 10
93.14442414361757
 20
110.4282079883216
 10
92.78363910774098
 20
109.0694537657258
 10
91.05841600512713
 20
110.5512789495232
 10
90.48039671695744
 20
112.6958149090318
 10
89.55991800864498
 20
113.4793212794604
 10
89.22030622565957
 20
112.1300662928303
 10
87.55140263459592
 20
113.5635189835185
 10
86.98303727073625
 20
115.6727478999314
 10
86.09242484306212
 20
116.4308320410734
 10
85.7728105291483
 20
115.0911844960488
 10
84.15751292651005
 20
116.4785949249437
 10
83.59848449015617
 20
118.5536605775953
 10
82.73630804744353
 20
119.2875401839056
 10
82.43559466798276
 20
117.9575823777338
 10
80.87135945922049
 20
119.3011329459107
 10
80.32136695581066
 20
121.3431250113156
 10
79.48628611974542
 20
122.0539415760941
 10
79.20344876920475
 20
120.7337329456759
 10
77.6878939062173
 20
122.0354719401775
 10
77.14664929538613
 20
124.045426754042
 10
76.33740598490144
 20
124.7342501415029
 10
76.07148910079884
 20
123.4238325974735
 10
74.6023757936563
 20
124.6856810494142
 97
        0
 75
     0
 76
     1
 98
        0
  0
HATCH
  5
13A
330
E3
100
AcDbEntity
  8
0
  6
Continuous
100
AcDbHatch
 10
0.0
 20
0.0
 30
0.0
210
0.0
220
0.0
230
1.0
  2
Steel_0002
 70
     0
 71
     0
 91
        1
 92
        3
 72
     0
 73
     1
 93
       57
 10
74.15780377794637
 20
126.3369897938192
 10
74.27709973393588
 20
124.9240199735591
 10
125.2954843949202
 20
81.09274764283536
 10
125.2941638289063
 20
81.14555199511156
 10
123.9700910379249
 20
82.28282375103045
 10
123.3011790122306
 20
84.758945987894
 10
122.0765418702459
 20
85.80135035405043
 10
121.526172933131
 20
84.38194991833113
 10
119.3128105665239
 20
86.28304757241125
 10
118.6567925382445
 20
88.71222151575007
 10
117.4778166522788
 20
89.71575948286687
 10
116.9598019635087
 20
88.30409270235498
 10
114.8280136951976
 20
90.13512568057011
 10
114.1844012149305
 20
92.51909557481909
 10
113.0485788049772
 20
93.48590153724412
 10
112.5609325624559
 20
92.08236313392182
 10
110.5062895813201
 20
93.84713539792287
 10
109.8746239181129
 20
96.18755480814262
 10
108.7796285629139
 20
97.11960999590238
 10
108.3205143188092
 20
95.72453830289729
 10
106.3389040485204
 20
97.42658101420078
 10
105.7187485697558
 20
99.7250128260776
 10
104.6624192045591
 20
100.6241567350506
 10
104.2301384351291
 20
99.23783903071651
 10
102.3177348157015
 20
100.8804387451318
 10
101.7086787971547
 20
103.1383627850932
 10
100.6889999014141
 20
104.0063068932177
 10
100.2819782907992
 20
102.6289877832618
 10
98.43521815623124
 20
104.2152047391684
 10
97.8368714479894
 20
106.434024632487
 10
96.85196999731825
 20
107.272366115969
 10
96.46874600736815
 20
105.9042460094286
 10
94.68430546328455
 20
107.4369347020878
 10
94.09629696572341
 20
109.6179793969045
 10
93.14442414361757
 20
110.4282079883216
 10
92.78363910774098
 20
109.0694537657258
 10
91.05841600512713
 20
110.5512789495232
 10
90.48039671695744
 20
112.6958149090318
 10
89.55991800864498
 20
113.4793212794604
 10
89.22030622565957
 20
112.1300662928303
 10
87.55140263459592
 20
113.5635189835185
 10
86.98303727073625
 20
115.6727478999314
 10
86.09242484306212
 20
116.4308320410734
 10
85.7728105291483
 20
115.0911844960488
 10
84.15751292651005
 20
116.4785949249437
 10
83.59848449015617
 20
118.5536605775953
 10
82.73630804744353
 20
119.2875401839056
 10
82.43559466798276
 20
117.9575823777338
 10
80.87135945922049
 20
119.3011329459107
 10
80.32136695581066
 20
121.3431250113156
 10
79.48628611974542
 20
122.0539415760941
 10
79.20344876920475
 20
120.7337329456759
 10
77.6878939062173
 20
122.0354719401775
 10
77.14664929538613
 20
124.045426754042
 10
76.33740598490144
 20
124.7342501415029
 10
76.07148910079884
 20
123.4238325974735
 10
74.6023757936563
 20
124.6856810494142
 97
        0
 75
     0
 76
     2
 52
0.0
 41
1.0
 77
     0
 78
     2
 53
52.7176142234758
 43
145.2277640610102
 44
160.7933108349203
 45
-1.251617865353145
 46
3.011584429560276
 79
     0
 53
52.7176142234758
 43
144.8105581058925
 44
161.7971723114404
 45
-1.251617865353145
 46
3.011584429560276
 79
     0
 98
        0
  0
HATCH
  5
13B
330
E3
100
AcDbEntity
  8
0
  6
Continuous
 62
   255
370
     0
100
AcDbHatch
 10
0.0
 20
0.0
 30
0.0
210
0.0
220
0.0
230
1.0
  2
SOLID
 70
     1
 71
     0
 91
        1
 92
        3
 72
     0
 73
     1
 93
        4
 10
212.3158025979504
 20
149.2006640235537
 10
125.2941633846039
 20
81.145553645951
 10
125.2954848808304
 20
81.09274696798798
 10
212.324610843652
 20
149.160582096301
 97
        0
 75
     0
 76
     1
 98
        0
  0
HATCH
  5
13C
330
E3
100
AcDbEntity
  8
0
  6
Continuous
100
AcDbHatch
 10
0.0
 20
0.0
 30
0.0
210
0.0
220
0.0
230
1.0
  2
Steel_0002
 70
     0
 71
     0
 91
        1
 92
        3
 72
     0
 73
     1
 93
        4
 10
212.3158025979504
 20
149.2006640235537
 10
125.2941633846039
 20
81.145553645951
 10
125.2954848808304
 20
81.09274696798798
 10
212.324610843652
 20
149.160582096301
 97
        0
 75
     0
 76
     2
 52
0.0
 41
1.0
 77
     0
 78
     2
 53
58.69251973515034
 43
145.2277640610102
 44
160.7933108349203
 45
-1.394111186840714
 46
1.846374658783894
 79
     0
 53
58.69251973515034
 43
144.7630603320633
 44
161.4087690545149
 45
-1.394111186840714
 46
1.846374658783894
 79
     0
 98
        0
  0
HATCH
  5
13D
330
E3
100
AcDbEntity
  8
0
  6
Continuous
 62
   254
370
    13
100
AcDbHatch
 10
0.0
 20
0.0
 30
0.0
210
0.0
220
0.0
230
1.0
  2
SOLID
 70
     1
 71
     0
 91
        1
 92
        3
 72
     0
 73
     1
 93
        4
 10
155.3726079721519
 20
177.0498540631469
 10
150.5980150850004
 20
178.0019714046966
 10
212.5191997327067
 20
151.667998012587
 10
217.4546828649
 20
150.8880693071885
 97
        0
 75
     0
 76
     1
 98
        0
  0
HATCH
  5
13E
330
E3
100
AcDbEntity
  8
0
  6
Continuous
 62
   254
370
    13
100
AcDbHatch
 10
0.0
 20
0.0
 30
0.0
210
0.0
220
0.0
230
1.0
  2
SOLID
 70
     1
 71
     0
 91
        1
 92
        3
 72
     0
 73
     1
 93
        3
 10
215.4748431526414
 20
151.0495689136785
 10
217.173022159707
 20
150.3305684960143
 10
217.3133508288282
 20
150.7598700433959
 97
        0
 75
     0
 76
     1
 98
        0
  0
HATCH
  5
13F
330
E3
100
AcDbEntity
  8
0
  6
Continuous
 62
   254
370
    13
100
AcDbHatch
 10
0.0
 20
0.0
 30
0.0
210
0.0
220
0.0
230
1.0
  2
SOLID
 70
     1
 71
     0
 91
        1
 92
        3
 72
     0
 73
     1
 93
        7
 10
210.7396884625519
 20
149.9016190619407
 10
210.754452900007
 20
149.8765729279334
 10
212.3158010028069
 20
149.2006635264955
 10
212.3246106877653
 20
149.1605825490103
 10
212.9203097834871
 20
150.9949203055734
 10
212.4694766852025
 20
151.187326278417
 10
211.159163416044
 20
149.7200512669179
 97
        0
 75
     0
 76
     1
 98
        0
  0
HATCH
  5
140
330
E3
100
AcDbEntity
  8
0
  6
Continuous
 62
   254
370
    13
100
AcDbHatch
 10
0.0
 20
0.0
 30
0.0
210
0.0
220
0.0
230
1.0
  2
SOLID
 70
     1
 71
     0
 91
        1
 92
        3
 72
     0
 73
     1
 93
        4
 10
212.4694767945654
 20
151.1873260900653
 10
212.9203098780446
 20
150.9949201346634
 10
217.1730220445631
 20
150.33056854831
 10
216.7222244214348
 20
150.5214338878447
 97
        0
 75
     0
 76
     1
 98
        0
  0
HATCH
  5
141
330
E3
100
AcDbEntity
  8
0
  6
Continuous
 62
   254
370
    13
100
AcDbHatch
 10
0.0
 20
0.0
 30
0.0
210
0.0
220
0.0
230
1.0
  2
SOLID
 70
     1
 71
     0
 91
        1
 92
        3
 72
     0
 73
     1
 93
        4
 10
217.3049891048609
 20
150.4301851303436
 10
217.2675920730981
 20
150.3157949477462
 10
230.7748737687568
 20
148.205709846567
 10
230.3251546858444
 20
148.391497536603
 97
        0
 75
     0
 76
     1
 98
        0
  0
HATCH
  5
142
330
E3
100
AcDbEntity
  8
0
  6
Continuous
 62
   254
370
    13
100
AcDbHatch
 10
0.0
 20
0.0
 30
0.0
210
0.0
220
0.0
230
1.0
  2
SOLID
 70
     1
 71
     0
 91
        1
 92
        3
 72
     0
 73
     1
 93
        5
 10
210.6429318965252
 20
150.0657542972174
 10
210.7396885171693
 20
149.9016190013692
 10
211.1591634281344
 20
149.7200512136394
 10
211.7447495374768
 20
150.3757841202869
 10
211.1573210891099
 20
150.4661589502656
 97
        0
 75
     0
 76
     1
 98
        0
  0
HATCH
  5
143
330
E3
100
AcDbEntity
  8
0
  6
Continuous
 62
   253
370
    25
100
AcDbHatch
 10
0.0
 20
0.0
 30
0.0
210
0.0
220
0.0
230
1.0
  2
SOLID
 70
     1
 71
     0
 91
        1
 92
        3
 72
     0
 73
     1
 93
        7
 10
211.1573210309282
 20
150.4661585906447
 10
211.744749349562
 20
150.3757841037023
 10
212.4694769759984
 20
151.1873259958464
 10
216.2829901635762
 20
150.5902088708572
 10
216.7222248214251
 20
150.5214339558673
 10
215.4748427446218
 20
151.0495689077292
 10
212.5074926201962
 20
151.5171426810534
 97
        0
 75
     0
 76
     1
 98
        0
  0
HATCH
  5
144
330
E3
100
AcDbEntity
  8
0
  6
Continuous
 62
   253
370
    25
100
AcDbHatch
 10
0.0
 20
0.0
 30
0.0
210
0.0
220
0.0
230
1.0
  2
SOLID
 70
     1
 71
     0
 91
        1
 92
        3
 72
     0
 73
     1
 93
        5
 10
215.140276655194
 20
151.8633746216589
 10
217.4546824982394
 20
150.8880694628569
 10
217.3049890526858
 20
150.430185113333
 10
226.5023293170995
 20
148.9900724340458
 10
226.2004693449175
 20
150.0954832949369
 97
        0
 75
     0
 76
     1
 98
        0
  0
HATCH
  5
145
330
E3
100
AcDbEntity
  8
0
  6
Continuous
 62
   254
370
    13
100
AcDbHatch
 10
0.0
 20
0.0
 30
0.0
210
0.0
220
0.0
230
1.0
  2
SOLID
 70
     1
 71
     0
 91
        1
 92
        3
 72
     0
 73
     1
 93
        4
 10
224.774032074391
 20
150.6847722286191
 10
213.7121173206413
 20
152.4652101505426
 10
215.1402765924845
 20
151.8633746439143
 10
226.2004695788122
 20
150.0954836098222
 97
        0
 75
     0
 76
     1
 98
        0
  0
HATCH
  5
146
330
E3
100
AcDbEntity
  8
0
  6
Continuous
 62
   253
370
    25
100
AcDbHatch
 10
0.0
 20
0.0
 30
0.0
210
0.0
220
0.0
230
1.0
  2
SOLID
 70
     1
 71
     0
 91
        1
 92
        3
 72
     0
 73
     1
 93
        4
 10
220.7772449986755
 20
152.3359211736451
 10
209.7126262328792
 20
154.1506219271967
 10
213.7121189058905
 20
152.4652101555417
 10
221.0649893379857
 20
151.2817503698791
 97
        0
 75
     0
 76
     1
 98
        0
  0
HATCH
  5
147
330
E3
100
AcDbEntity
  8
0
  6
Continuous
 62
   254
370
    13
100
AcDbHatch
 10
0.0
 20
0.0
 30
0.0
210
0.0
220
0.0
230
1.0
  2
SOLID
 70
     1
 71
     0
 91
        1
 92
        3
 72
     0
 73
     1
 93
        4
 10
219.3946973838106
 20
152.9070785039045
 10
208.3298684643768
 20
154.7333250365228
 10
209.7126262284821
 20
154.1506222397538
 10
220.7772450536002
 20
152.3359212934089
 97
        0
 75
     0
 76
     1
 98
        0
  0
HATCH
  5
148
330
E3
100
AcDbEntity
  8
0
  6
Continuous
 62
   253
370
    25
100
AcDbHatch
 10
0.0
 20
0.0
 30
0.0
210
0.0
220
0.0
230
1.0
  2
SOLID
 70
     1
 71
     0
 91
        1
 92
        3
 72
     0
 73
     1
 93
        4
 10
215.5199500858779
 20
154.5078102128877
 10
204.4565245704366
 20
156.3655765858882
 10
208.3298689683552
 20
154.7333246674539
 10
215.7945772272571
 20
153.5012768785396
 97
        0
 75
     0
 76
     1
 98
        0
  0
HATCH
  5
149
330
E3
100
AcDbEntity
  8
0
  6
Continuous
 62
   254
370
    13
100
AcDbHatch
 10
0.0
 20
0.0
 30
0.0
210
0.0
220
0.0
230
1.0
  2
SOLID
 70
     1
 71
     0
 91
        1
 92
        3
 72
     0
 73
     1
 93
        4
 10
203.1170392910255
 20
156.9300444053775
 10
204.4565245928872
 20
156.3655770162721
 10
215.5199501121866
 20
154.5078101333415
 10
214.1792967168488
 20
155.0616595682074
 97
        0
 75
     0
 76
     1
 98
        0
  0
HATCH
  5
14A
330
E3
100
AcDbEntity
  8
0
  6
Continuous
 62
   253
370
    25
100
AcDbHatch
 10
0.0
 20
0.0
 30
0.0
210
0.0
220
0.0
230
1.0
  2
SOLID
 70
     1
 71
     0
 91
        1
 92
        3
 72
     0
 73
     1
 93
        4
 10
199.3639672296353
 20
158.5116129965647
 10
203.1170390011684
 20
156.9300445441197
 10
210.6834979483553
 20
155.6520903606273
 10
210.4210840670322
 20
156.614249122324
 97
        0
 75
     0
 76
     1
 98
        0
  0
HATCH
  5
14B
330
E3
100
AcDbEntity
  8
0
  6
Continuous
 62
   254
370
    13
100
AcDbHatch
 10
0.0
 20
0.0
 30
0.0
210
0.0
220
0.0
230
1.0
  2
SOLID
 70
     1
 71
     0
 91
        1
 92
        3
 72
     0
 73
     1
 93
        4
 10
209.1204493164098
 20
157.1515662318892
 10
198.0657532789857
 20
159.0586889955794
 10
199.3639673536992
 20
158.511613113716
 10
210.4210840556122
 20
156.614249229087
 97
        0
 75
     0
 76
     1
 98
        0
  0
HATCH
  5
14C
330
E3
100
AcDbEntity
  8
0
  6
Continuous
 62
   253
370
    25
100
AcDbHatch
 10
0.0
 20
0.0
 30
0.0
210
0.0
220
0.0
230
1.0
  2
SOLID
 70
     1
 71
     0
 91
        1
 92
        3
 72
     0
 73
     1
 93
        4
 10
205.4735918550866
 20
158.6581528304791
 10
194.4274387670137
 20
160.5918978890798
 10
198.0657532429219
 20
159.0586888501099
 10
205.724613299557
 20
157.7374055317917
 97
        0
 75
     0
 76
     1
 98
        0
  0
HATCH
  5
14D
330
E3
100
AcDbEntity
  8
0
  6
Continuous
 62
   254
370
    13
100
AcDbHatch
 10
0.0
 20
0.0
 30
0.0
210
0.0
220
0.0
230
1.0
  2
SOLID
 70
     1
 71
     0
 91
        1
 92
        3
 72
     0
 73
     1
 93
        4
 10
193.1686174765748
 20
161.1223730774641
 10
194.4274388820305
 20
160.5918979910749
 10
205.4735920255086
 20
158.6581527068243
 10
204.2112105297839
 20
159.1796666924911
 97
        0
 75
     0
 76
     1
 98
        0
  0
HATCH
  5
14E
330
E3
100
AcDbEntity
  8
0
  6
Continuous
 62
   253
370
    25
100
AcDbHatch
 10
0.0
 20
0.0
 30
0.0
210
0.0
220
0.0
230
1.0
  2
SOLID
 70
     1
 71
     0
 91
        1
 92
        3
 72
     0
 73
     1
 93
        4
 10
189.639874584445
 20
162.6094080924126
 10
193.1686169134141
 20
161.1223733425639
 10
200.9112067547235
 20
159.7602312508436
 10
200.6708313467969
 20
160.6422644549163
 97
        0
 75
     0
 76
     1
 98
        0
  0
HATCH
  5
14F
330
E3
100
AcDbEntity
  8
0
  6
Continuous
 62
   254
370
    13
100
AcDbHatch
 10
0.0
 20
0.0
 30
0.0
210
0.0
220
0.0
230
1.0
  2
SOLID
 70
     1
 71
     0
 91
        1
 92
        3
 72
     0
 73
     1
 93
        4
 10
199.4450402388828
 20
161.1486626065396
 10
188.4186805167503
 20
163.1240272881262
 10
189.6398750302062
 20
162.6094082085569
 10
200.6708315363427
 20
160.6422645368566
 97
        0
 75
     0
 76
     1
 98
        0
  0
HATCH
  5
150
330
E3
100
AcDbEntity
  8
0
  6
Continuous
 62
   253
370
    25
100
AcDbHatch
 10
0.0
 20
0.0
 30
0.0
210
0.0
220
0.0
230
1.0
  2
SOLID
 70
     1
 71
     0
 91
        1
 92
        3
 72
     0
 73
     1
 93
        4
 10
184.9946360169279
 20
164.5669421296934
 10
188.4186813248046
 20
163.1240270561977
 10
196.2369544855616
 20
161.7233889457621
 10
196.0065434601269
 20
162.5691711444519
 97
        0
 75
     0
 76
     1
 98
        0
  0
HATCH
  5
151
330
E3
100
AcDbEntity
  8
0
  6
Continuous
 62
   254
370
    13
100
AcDbHatch
 10
0.0
 20
0.0
 30
0.0
210
0.0
220
0.0
230
1.0
  2
SOLID
 70
     1
 71
     0
 91
        1
 92
        3
 72
     0
 73
     1
 93
        5
 10
194.8157739241177
 20
163.0611007480911
 10
183.8094030296576
 20
165.0664060422185
 10
184.7945340168413
 20
164.6512660304424
 10
184.9946340468692
 20
164.5669427685378
 10
196.0065439818877
 20
162.5691710848294
 97
        0
 75
     0
 76
     1
 98
        0
  0
HATCH
  5
152
330
E3
100
AcDbEntity
  8
0
  6
Continuous
 62
   253
370
    25
100
AcDbHatch
 10
0.0
 20
0.0
 30
0.0
210
0.0
220
0.0
230
1.0
  2
SOLID
 70
     1
 71
     0
 91
        1
 92
        3
 72
     0
 73
     1
 93
        4
 10
191.4748244564922
 20
164.4413116630379
 10
180.4854594098757
 20
166.4671372541566
 10
183.8094050589798
 20
165.0664053886507
 10
191.6958941398288
 20
163.6295268671383
 97
        0
 75
     0
 76
     1
 98
        0
  0
HATCH
  5
153
330
E3
100
AcDbEntity
  8
0
  6
Continuous
 62
   254
370
    13
100
AcDbHatch
 10
0.0
 20
0.0
 30
0.0
210
0.0
220
0.0
230
1.0
  2
SOLID
 70
     1
 71
     0
 91
        1
 92
        3
 72
     0
 73
     1
 93
        4
 10
179.3346275635753
 20
166.9521050490277
 10
180.485459541708
 20
166.4671372220181
 10
191.4748241267157
 20
164.4413113873723
 10
190.317596858712
 20
164.9193840889735
 97
        0
 75
     0
 76
     1
 98
        0
  0
HATCH
  5
154
330
E3
100
AcDbEntity
  8
0
  6
Continuous
 62
   253
370
    25
100
AcDbHatch
 10
0.0
 20
0.0
 30
0.0
210
0.0
220
0.0
230
1.0
  2
SOLID
 70
     1
 71
     0
 91
        1
 92
        3
 72
     0
 73
     1
 93
        4
 10
176.1064659395402
 20
168.3124730776832
 10
179.3346280549348
 20
166.9521049174999
 10
187.2824001277285
 20
165.4811364959421
 10
187.0701007104443
 20
166.2609861784843
 97
        0
 75
     0
 76
     1
 98
        0
  0
HATCH
  5
155
330
E3
100
AcDbEntity
  8
0
  6
Continuous
 62
   254
370
    13
100
AcDbHatch
 10
0.0
 20
0.0
 30
0.0
210
0.0
220
0.0
230
1.0
  2
SOLID
 70
     1
 71
     0
 91
        1
 92
        3
 72
     0
 73
     1
 93
        4
 10
174.9885570904174
 20
168.7835671430958
 10
176.1064667751541
 20
168.3124726716628
 10
187.0701007144779
 20
166.2609866410218
 10
185.9450186663853
 20
166.7257799104011
 97
        0
 75
     0
 76
     1
 98
        0
  0
HATCH
  5
156
330
E3
100
AcDbEntity
  8
0
  6
Continuous
 62
   253
370
    25
100
AcDbHatch
 10
0.0
 20
0.0
 30
0.0
210
0.0
220
0.0
230
1.0
  2
SOLID
 70
     1
 71
     0
 91
        1
 92
        3
 72
     0
 73
     1
 93
        4
 10
182.7871090015041
 20
168.0303714844346
 10
171.8520892008036
 20
170.1052947770057
 10
174.9885567787172
 20
168.7835672290949
 10
182.9911625140147
 20
167.2805578559472
 97
        0
 75
     0
 76
     1
 98
        0
  0
HATCH
  5
157
330
E3
100
AcDbEntity
  8
0
  6
Continuous
 62
   254
370
    13
100
AcDbHatch
 10
0.0
 20
0.0
 30
0.0
210
0.0
220
0.0
230
1.0
  2
SOLID
 70
     1
 71
     0
 91
        1
 92
        3
 72
     0
 73
     1
 93
        4
 10
181.6928502657394
 20
168.4824310060354
 10
170.7657127885855
 20
170.5631005205237
 10
171.8520901578625
 20
170.1052943164957
 10
182.7871095091507
 20
168.0303725530238
 97
        0
 75
     0
 76
     1
 98
        0
  0
HATCH
  5
158
330
E3
100
AcDbEntity
  8
0
  6
Continuous
 62
   253
370
    25
100
AcDbHatch
 10
0.0
 20
0.0
 30
0.0
210
0.0
220
0.0
230
1.0
  2
SOLID
 70
     1
 71
     0
 91
        1
 92
        3
 72
     0
 73
     1
 93
        4
 10
178.6208717002247
 20
169.7515243750199
 10
167.7170882687704
 20
171.8478104499805
 10
170.7657105982614
 20
170.5631013498396
 10
178.8171612885717
 20
169.0300000429266
 97
        0
 75
     0
 76
     1
 98
        0
  0
HATCH
  5
159
330
E3
100
AcDbEntity
  8
0
  6
Continuous
 62
   254
370
    13
100
AcDbHatch
 10
0.0
 20
0.0
 30
0.0
210
0.0
220
0.0
230
1.0
  2
SOLID
 70
     1
 71
     0
 91
        1
 92
        3
 72
     0
 73
     1
 93
        4
 10
177.5561871254986
 20
170.1913662867365
 10
166.6609248958431
 20
172.2928845054554
 10
167.7170888150913
 20
171.8478104116495
 10
178.6208716647681
 20
169.7515248107806
 97
        0
 75
     0
 76
     1
 98
        0
  0
HATCH
  5
15A
330
E3
100
AcDbEntity
  8
0
  6
Continuous
 62
   253
370
    25
100
AcDbHatch
 10
0.0
 20
0.0
 30
0.0
210
0.0
220
0.0
230
1.0
  2
SOLID
 70
     1
 71
     0
 91
        1
 92
        3
 72
     0
 73
     1
 93
        4
 10
174.5666785094692
 20
171.426389545766
 10
163.6965101752148
 20
173.5421082699173
 10
166.6609260754009
 20
172.2928841361367
 10
174.7556492352712
 20
170.731544136521
 97
        0
 75
     0
 76
     1
 98
        0
  0
HATCH
  5
15B
330
E3
100
AcDbEntity
  8
0
  6
Continuous
 62
   254
370
    13
100
AcDbHatch
 10
0.0
 20
0.0
 30
0.0
210
0.0
220
0.0
230
1.0
  2
SOLID
 70
     1
 71
     0
 91
        1
 92
        3
 72
     0
 73
     1
 93
        4
 10
173.5303848753213
 20
171.8545018519959
 10
162.669318156838
 20
173.9749732195683
 10
163.6965105250636
 20
173.5421079261012
 10
174.5666784104701
 20
171.4263891549968
 97
        0
 75
     0
 76
     1
 98
        0
  0
HATCH
  5
15C
330
E3
100
AcDbEntity
  8
0
  6
Continuous
 62
   253
370
    25
100
AcDbHatch
 10
0.0
 20
0.0
 30
0.0
210
0.0
220
0.0
230
1.0
  2
SOLID
 70
     1
 71
     0
 91
        1
 92
        3
 72
     0
 73
     1
 93
        4
 10
170.6200686768019
 20
173.0568088278073
 10
159.7856651374907
 20
175.1901631274986
 10
162.6693173513257
 20
173.974973665174
 10
170.8021314929051
 20
172.3871550560948
 97
        0
 75
     0
 76
     1
 98
        0
  0
HATCH
  5
15D
330
E3
100
AcDbEntity
  8
0
  6
Continuous
 62
   254
370
    13
100
AcDbHatch
 10
0.0
 20
0.0
 30
0.0
210
0.0
220
0.0
230
1.0
  2
SOLID
 70
     1
 71
     0
 91
        1
 92
        3
 72
     0
 73
     1
 93
        4
 10
169.6110463654341
 20
173.4736553378881
 10
158.7862688786397
 20
175.6113151264078
 10
159.7856652191469
 20
175.1901632204303
 10
170.6200686256978
 20
173.0568087138644
 97
        0
 75
     0
 76
     1
 98
        0
  0
HATCH
  5
15E
330
E3
100
AcDbEntity
  8
0
  6
Continuous
 62
   255
370
     0
100
AcDbHatch
 10
0.0
 20
0.0
 30
0.0
210
0.0
220
0.0
230
1.0
  2
SOLID
 70
     1
 71
     0
 91
        1
 92
        3
 72
     0
 73
     1
 93
        6
 10
212.5191996784106
 20
151.6679978032734
 10
212.5074925937936
 20
151.5171427437712
 10
217.3133508288282
 20
150.7598700339262
 10
217.1730221713079
 20
150.3305684905664
 10
217.2675921522629
 20
150.3157949189632
 10
217.4546825800432
 20
150.8880694184271
 97
        0
 75
     0
 76
     1
 98
        0
  0
HATCH
  5
15F
330
E3
100
AcDbEntity
  8
0
  6
Continuous
100
AcDbHatch
 10
0.0
 20
0.0
 30
0.0
210
0.0
220
0.0
230
1.0
  2
Steel_0002
 70
     0
 71
     0
 91
        1
 92
        3
 72
     0
 73
     1
 93
        6
 10
212.5191996784106
 20
151.6679978032734
 10
212.5074925937936
 20
151.5171427437712
 10
217.3133508288282
 20
150.7598700339262
 10
217.1730221713079
 20
150.3305684905664
 10
217.2675921522629
 20
150.3157949189632
 10
217.4546825800432
 20
150.8880694184271
 97
        0
 75
     0
 76
     2
 52
0.0
 41
1.0
 77
     0
 78
     2
 53
58.68292131862609
 43
145.2277640610102
 44
160.7933108349203
 45
-1.396376815525841
 46
1.867829154520454
 79
     0
 53
58.68292131862609
 43
144.7623051225016
 44
161.4159205530938
 45
-1.396376815525841
 46
1.867829154520454
 79
     0
 98
        0
  0
HATCH
  5
160
330
E3
100
AcDbEntity
  8
0
  6
Continuous
 62
   255
370
     0
100
AcDbHatch
 10
0.0
 20
0.0
 30
0.0
210
0.0
220
0.0
230
1.0
  2
SOLID
 70
     1
 71
     0
 91
        1
 92
        3
 72
     0
 73
     1
 93
        4
 10
212.9203098986793
 20
150.9949201468978
 10
212.3246117391948
 20
149.1605818706576
 10
230.5970266682024
 20
146.4102559705111
 10
230.7748737687568
 20
148.2057097135769
 97
        0
 75
     0
 76
     1
 98
        0
  0
HATCH
  5
161
330
E3
100
AcDbEntity
  8
0
  6
Continuous
100
AcDbHatch
 10
0.0
 20
0.0
 30
0.0
210
0.0
220
0.0
230
1.0
  2
Steel_0002
 70
     0
 71
     0
 91
        1
 92
        3
 72
     0
 73
     1
 93
        4
 10
212.9203098986793
 20
150.9949201468978
 10
212.3246117391948
 20
149.1605818706576
 10
230.5970266682024
 20
146.4102559705111
 10
230.7748737687568
 20
148.2057097135769
 97
        0
 75
     0
 76
     2
 52
0.0
 41
1.0
 77
     0
 78
     2
 53
58.68827426055502
 43
145.2277640610102
 44
160.7933108349203
 45
-1.391265280940957
 46
1.859412161720163
 79
     0
 53
58.68827426055502
 43
144.7640089673633
 44
161.413114888827
 45
-1.391265280940957
 46
1.859412161720163
 79
     0
 98
        0
  0
HATCH
  5
162
330
E3
100
AcDbEntity
  8
Des_ Walls
  6
Continuous
 62
   255
370
    18
100
AcDbHatch
 10
0.0
 20
0.0
 30
0.0
210
0.0
220
0.0
230
1.0
  2
SOLID
 70
     1
 71
     0
 91
        1
 92
        3
 72
     0
 73
     1
 93
        4
 10
130.3718534902302
 20
123.4410939967213
 10
155.2919414693166
 20
131.6660583634329
 10
147.8525650815999
 20
132.1777325073301
 10
131.873178057799
 20
126.9984621038318
 97
        0
 75
     0
 76
     1
 98
        0
  0
HATCH
  5
164
330
E3
100
AcDbEntity
  8
Des_ Walls
  6
Continuous
 62
   252
370
    13
100
AcDbHatch
 10
0.0
 20
0.0
 30
0.0
210
0.0
220
0.0
230
1.0
  2
SOLID
 70
     1
 71
     0
 91
        1
 92
        3
 72
     0
 73
     1
 93
        4
 10
130.3718531246781
 20
123.4410938888803
 10
130.6894636888055
 20
105.5064404038351
 10
155.2002187906596
 20
123.9457765431894
 10
155.2919416389697
 20
131.6660577579954
 97
        0
 75
     0
 76
     1
 98
        0
  0
HATCH
  5
165
330
E3
100
AcDbEntity
  8
Des_ Walls
  6
Continuous
 62
   255
370
    18
100
AcDbHatch
 10
0.0
 20
0.0
 30
0.0
210
0.0
220
0.0
230
1.0
  2
SOLID
 70
     1
 71
     0
 91
        1
 92
        3
 72
     0
 73
     1
 93
        4
 10
138.0881476263188
 20
141.7247448592417
 10
136.841812649619
 20
138.771571680095
 10
147.8525649980162
 20
132.1777319613056
 10
155.2919418896502
 20
131.6660579225702
 97
        0
 75
     0
 76
     1
 98
        0
  0
HATCH
  5
166
330
E3
100
AcDbEntity
  8
Des_ Walls
  6
Continuous
 62
   253
370
    25
100
AcDbHatch
 10
0.0
 20
0.0
 30
0.0
210
0.0
220
0.0
230
1.0
  2
SOLID
 70
     1
 71
     0
 91
        1
 92
        3
 72
     0
 73
     1
 93
        5
 10
147.8525644599396
 20
132.177732440584
 10
136.8418128907781
 20
138.7715717360655
 10
136.9311154400388
 20
129.6750780681527
 10
137.67363549238
 20
129.2045724142992
 10
137.7548026390436
 20
128.9048260454629
 97
        0
 75
     0
 76
     1
 98
        0
  0
HATCH
  5
167
330
E3
100
AcDbEntity
  8
Des_ Walls
  6
Continuous
 62
   255
370
    18
100
AcDbHatch
 10
0.0
 20
0.0
 30
0.0
210
0.0
220
0.0
230
1.0
  2
SOLID
 70
     1
 71
     0
 91
        1
 92
        3
 72
     0
 73
     1
 93
        4
 10
113.9684895550618
 20
134.5082498105716
 10
121.1952022100267
 20
134.0112030936534
 10
136.8418128649963
 20
138.7715721007693
 10
138.0881475870196
 20
141.7247451223783
 97
        0
 75
     0
 76
     1
 98
        0
  0
HATCH
  5
168
330
E3
100
AcDbEntity
  8
Des_ Walls
  6
Continuous
 62
   252
370
    13
100
AcDbHatch
 10
0.0
 20
0.0
 30
0.0
210
0.0
220
0.0
230
1.0
  2
SOLID
 70
     1
 71
     0
 91
        1
 92
        3
 72
     0
 73
     1
 93
        5
 10
136.8418120306298
 20
138.771571910403
 10
121.1952025880346
 20
134.0112027863393
 10
131.8731778623923
 20
126.998462120347
 10
134.3324661678373
 20
127.7955715071092
 10
136.9311151068702
 20
129.6750782608198
 97
        0
 75
     0
 76
     1
 98
        0
  0
HATCH
  5
169
330
E3
100
AcDbEntity
  8
Des_ Walls
  6
Continuous
 62
   255
370
    18
100
AcDbHatch
 10
0.0
 20
0.0
 30
0.0
210
0.0
220
0.0
230
1.0
  2
SOLID
 70
     1
 71
     0
 91
        1
 92
        3
 72
     0
 73
     1
 93
        4
 10
121.1952023891288
 20
134.0112028350533
 10
113.9684895550618
 20
134.5082505369965
 10
130.3718537166965
 20
123.4410938211767
 10
131.8731787458149
 20
126.9984627333679
 97
        0
 75
     0
 76
     1
 98
        0
  0
HATCH
  5
16A
330
E3
100
AcDbEntity
  8
Des_ Walls
  6
Continuous
 62
   253
370
    25
100
AcDbHatch
 10
0.0
 20
0.0
 30
0.0
210
0.0
220
0.0
230
1.0
  2
SOLID
 70
     1
 71
     0
 91
        1
 92
        3
 72
     0
 73
     1
 93
       18
 10
113.9684895550618
 20
134.5082502604836
 10
114.6598955441264
 20
115.7088608543117
 10
115.7509918437797
 20
114.888502736457
 10
116.9375110500088
 20
115.7457554923735
 10
118.0060454340755
 20
114.9501548482632
 10
118.6019118802675
 20
112.7449914510707
 10
119.9001721536349
 20
111.7688740771045
 10
121.1000468711176
 20
112.6464481959232
 10
122.206083100934
 20
111.8229251718102
 10
122.8125691290635
 20
109.5791411814661
 10
124.1961949402305
 20
108.538839770687
 10
125.4096370363976
 20
109.4376504323405
 10
126.5551815183741
 20
108.5847097246882
 10
127.1726715476969
 20
106.3009282213131
 10
128.6469901612347
 20
105.1924378240214
 10
129.8742066982761
 20
106.1134578713304
 10
130.6894633978722
 20
105.5064402088439
 10
130.3718540246475
 20
123.4410946624959
 97
        0
 75
     0
 76
     1
 98
        0
  0
LINE
  5
16B
330
E3
100
AcDbEntity
  8
0
  6
Continuous
100
AcDbLine
 10
147.5017773838766
 20
98.46089112451473
 30
0.0
 11
145.1950244488825
 21
94.31161212056341
 31
0.0
  0
LINE
  5
16C
330
E3
100
AcDbEntity
  8
0
  6
Continuous
100
AcDbLine
 10
143.6604430651761
 20
95.45647891574187
 30
0.0
 11
145.1950244488825
 21
94.31161212056341
 31
0.0
  0
LINE
  5
16D
330
E3
100
AcDbEntity
  8
0
  6
Continuous
100
AcDbLine
 10
145.1950244488825
 20
94.31161212056341
 30
0.0
 11
144.4870876195852
 21
96.10301812461962
 31
0.0
  0
LINE
  5
16E
330
E3
100
AcDbEntity
  8
0
  6
Continuous
100
AcDbLine
 10
148.1946504770994
 20
96.66831959081428
 30
0.0
 11
145.1950244488825
 21
94.31161212056341
 31
0.0
  0
LINE
  5
16F
330
E3
100
AcDbEntity
  8
0
  6
Continuous
100
AcDbLine
 10
148.1946504770994
 20
96.66831959081428
 30
0.0
 11
147.5017773838766
 21
98.46089112451473
 31
0.0
  0
LINE
  5
170
330
E3
100
AcDbEntity
  8
0
  6
Continuous
100
AcDbLine
 10
147.5017773838766
 20
98.46089112451473
 30
0.0
 11
144.4870876195852
 21
96.10301812461962
 31
0.0
  0
LINE
  5
171
330
E3
100
AcDbEntity
  8
0
  6
Continuous
100
AcDbLine
 10
148.1946504770994
 20
96.66831959081428
 30
0.0
 11
144.4870876195852
 21
96.10301812461962
 31
0.0
  0
LINE
  5
172
330
E3
100
AcDbEntity
  8
0
  6
Continuous
100
AcDbLine
 10
183.9553036952027
 20
126.9721784906089
 30
0.0
 11
181.7965501715059
 21
123.0682222556442
 31
0.0
  0
LINE
  5
173
330
E3
100
AcDbEntity
  8
0
  6
Continuous
100
AcDbLine
 10
180.1482823080459
 20
123.994606111543
 30
0.0
 11
181.7965501715059
 21
123.0682222556442
 31
0.0
  0
LINE
  5
174
330
E3
100
AcDbEntity
  8
0
  6
Continuous
100
AcDbLine
 10
181.7965501715059
 20
123.0682222556442
 30
0.0
 11
181.2650360058388
 21
124.8680481503237
 31
0.0
  0
LINE
  5
175
330
E3
100
AcDbEntity
  8
0
  6
Continuous
100
AcDbLine
 10
184.4745389897437
 20
125.1722317987393
 30
0.0
 11
181.7965501715059
 21
123.0682222556442
 31
0.0
  0
LINE
  5
176
330
E3
100
AcDbEntity
  8
0
  6
Continuous
100
AcDbLine
 10
184.4745389897437
 20
125.1722317987393
 30
0.0
 11
183.9553036952027
 21
126.9721784906089
 31
0.0
  0
LINE
  5
177
330
E3
100
AcDbEntity
  8
0
  6
Continuous
100
AcDbLine
 10
184.4745389897437
 20
125.1722317987393
 30
0.0
 11
181.2650360058388
 21
124.8680481503237
 31
0.0
  0
LINE
  5
178
330
E3
100
AcDbEntity
  8
0
  6
Continuous
100
AcDbLine
 10
146.076540310661
 20
174.2288913364517
 30
0.0
 11
74.15780458970985
 21
126.3369909528041
 31
0.0
  0
LINE
  5
179
330
E3
100
AcDbEntity
  8
0
  6
Continuous
100
AcDbLine
 10
74.15780458970985
 20
126.3369909528041
 30
0.0
 11
74.60237742645154
 21
124.6856803060712
 31
0.0
  0
LINE
  5
17A
330
E3
100
AcDbEntity
  8
0
  6
Continuous
100
AcDbLine
 10
147.6527151052014
 20
173.5251922031719
 30
0.0
 11
74.60237742645154
 21
124.6856803060712
 31
0.0
  0
LINE
  5
17B
330
E3
100
AcDbEntity
  8
0
  6
Continuous
100
AcDbLine
 10
74.15780458970985
 20
126.3369909528041
 30
0.0
 11
74.27709997682719
 21
124.924019691559
 31
0.0
  0
LINE
  5
17C
330
E3
100
AcDbEntity
  8
0
  6
Continuous
100
AcDbLine
 10
125.2954862917354
 20
81.09274623354354
 30
0.0
 11
74.27709997682719
 21
124.924019691559
 31
0.0
  0
LINE
  5
17D
330
E3
100
AcDbEntity
  8
0
  6
Continuous
100
AcDbLine
 10
125.294164052223
 20
81.14555092952699
 30
0.0
 11
125.2954862917354
 21
81.09274623354354
 31
0.0
  0
LINE
  5
17E
330
E3
100
AcDbEntity
  8
0
  6
Continuous
100
AcDbLine
 10
125.294164052223
 20
81.14555092952699
 30
0.0
 11
123.9700897284661
 21
82.28282382567878
 31
0.0
  0
LINE
  5
17F
330
E3
100
AcDbEntity
  8
0
  6
Continuous
100
AcDbLine
 10
123.9700897284661
 20
82.28282382567878
 30
0.0
 11
123.3011769211232
 21
84.75894421544805
 31
0.0
  0
LINE
  5
180
330
E3
100
AcDbEntity
  8
0
  6
Continuous
100
AcDbLine
 10
123.3011769211232
 20
84.75894421544805
 30
0.0
 11
122.0765415382755
 21
85.80134887517795
 31
0.0
  0
LINE
  5
181
330
E3
100
AcDbEntity
  8
0
  6
Continuous
100
AcDbLine
 10
122.0765415382755
 20
85.80134887517795
 30
0.0
 11
121.5261732165985
 21
84.38194924455041
 31
0.0
  0
LINE
  5
182
330
E3
100
AcDbEntity
  8
0
  6
Continuous
100
AcDbLine
 10
121.5261732165985
 20
84.38194924455041
 30
0.0
 11
119.3128095686457
 21
86.28304889151181
 31
0.0
  0
LINE
  5
183
330
E3
100
AcDbEntity
  8
0
  6
Continuous
100
AcDbLine
 10
119.3128095686457
 20
86.28304889151181
 30
0.0
 11
118.6567926775348
 21
88.71222161661915
 31
0.0
  0
LINE
  5
184
330
E3
100
AcDbEntity
  8
0
  6
Continuous
100
AcDbLine
 10
118.6567926775348
 20
88.71222161661915
 30
0.0
 11
117.4778153677257
 21
89.7157589642628
 31
0.0
  0
LINE
  5
185
330
E3
100
AcDbEntity
  8
0
  6
Continuous
100
AcDbLine
 10
117.4778153677257
 20
89.7157589642628
 30
0.0
 11
116.9598011042406
 21
88.30409035379658
 31
0.0
  0
LINE
  5
186
330
E3
100
AcDbEntity
  8
0
  6
Continuous
100
AcDbLine
 10
116.9598011042406
 20
88.30409035379658
 30
0.0
 11
114.8280147370186
 21
90.13512436575726
 31
0.0
  0
LINE
  5
187
330
E3
100
AcDbEntity
  8
0
  6
Continuous
100
AcDbLine
 10
114.8280147370186
 20
90.13512436575726
 30
0.0
 11
114.1844007790127
 21
92.5190960882746
 31
0.0
  0
LINE
  5
188
330
E3
100
AcDbEntity
  8
0
  6
Continuous
100
AcDbLine
 10
114.1844007790127
 20
92.5190960882746
 30
0.0
 11
113.0485774491412
 21
93.48590129578531
 31
0.0
  0
LINE
  5
189
330
E3
100
AcDbEntity
  8
0
  6
Continuous
100
AcDbLine
 10
113.0485774491412
 20
93.48590129578531
 30
0.0
 11
112.560932252185
 21
92.08236200972857
 31
0.0
  0
LINE
  5
18A
330
E3
100
AcDbEntity
  8
0
  6
Continuous
100
AcDbLine
 10
112.560932252185
 20
92.08236200972857
 30
0.0
 11
110.506289582341
 21
93.84713386577975
 31
0.0
  0
LINE
  5
18B
330
E3
100
AcDbEntity
  8
0
  6
Continuous
100
AcDbLine
 10
110.506289582341
 20
93.84713386577975
 30
0.0
 11
109.8746247517804
 21
96.1875565689003
 31
0.0
  0
LINE
  5
18C
330
E3
100
AcDbEntity
  8
0
  6
Continuous
100
AcDbLine
 10
109.8746247517804
 20
96.1875565689003
 30
0.0
 11
108.7796276073468
 21
97.11960809836329
 31
0.0
  0
LINE
  5
18D
330
E3
100
AcDbEntity
  8
0
  6
Continuous
100
AcDbLine
 10
108.7796276073468
 20
97.11960809836329
 30
0.0
 11
108.3205134007578
 21
95.72453767476364
 31
0.0
  0
LINE
  5
18E
330
E3
100
AcDbEntity
  8
0
  6
Continuous
100
AcDbLine
 10
108.3205134007578
 20
95.72453767476364
 30
0.0
 11
106.3389040590424
 21
97.42657987651617
 31
0.0
  0
LINE
  5
18F
330
E3
100
AcDbEntity
  8
0
  6
Continuous
100
AcDbLine
 10
106.3389040590424
 20
97.42657987651617
 30
0.0
 11
105.7187476094228
 21
99.72501412934346
 31
0.0
  0
LINE
  5
190
330
E3
100
AcDbEntity
  8
0
  6
Continuous
100
AcDbLine
 10
105.7187476094228
 20
99.72501412934346
 30
0.0
 11
104.6624186249514
 21
100.6241565864982
 31
0.0
  0
LINE
  5
191
330
E3
100
AcDbEntity
  8
0
  6
Continuous
100
AcDbLine
 10
104.6624186249514
 20
100.6241565864982
 30
0.0
 11
104.2301377184915
 21
99.23783906199166
 31
0.0
  0
LINE
  5
192
330
E3
100
AcDbEntity
  8
0
  6
Continuous
100
AcDbLine
 10
104.2301377184915
 20
99.23783906199166
 30
0.0
 11
102.317735372291
 21
100.8804392518875
 31
0.0
  0
LINE
  5
193
330
E3
100
AcDbEntity
  8
0
  6
Continuous
100
AcDbLine
 10
102.317735372291
 20
100.8804392518875
 30
0.0
 11
101.7086792049976
 21
103.138364003802
 31
0.0
  0
LINE
  5
194
330
E3
100
AcDbEntity
  8
0
  6
Continuous
100
AcDbLine
 10
101.7086792049976
 20
103.138364003802
 30
0.0
 11
100.6890007409361
 21
104.0063081380423
 31
0.0
  0
LINE
  5
195
330
E3
100
AcDbEntity
  8
0
  6
Continuous
100
AcDbLine
 10
100.6890007409361
 20
104.0063081380423
 30
0.0
 11
100.2819795063461
 21
102.6289883717978
 31
0.0
  0
LINE
  5
196
330
E3
100
AcDbEntity
  8
0
  6
Continuous
100
AcDbLine
 10
100.2819795063461
 20
102.6289883717978
 30
0.0
 11
98.4352190061604
 21
104.2152056570545
 31
0.0
  0
LINE
  5
197
330
E3
100
AcDbEntity
  8
0
  6
Continuous
100
AcDbLine
 10
98.4352190061604
 20
104.2152056570545
 30
0.0
 11
97.83687134652288
 21
106.4340247672916
 31
0.0
  0
LINE
  5
198
330
E3
100
AcDbEntity
  8
0
  6
Continuous
100
AcDbLine
 10
97.83687134652288
 20
106.4340247672916
 30
0.0
 11
96.85196941403157
 21
107.2723670603991
 31
0.0
  0
LINE
  5
199
330
E3
100
AcDbEntity
  8
0
  6
Continuous
100
AcDbLine
 10
96.85196941403157
 20
107.2723670603991
 30
0.0
 11
96.4687452258756
 21
105.9042442045408
 31
0.0
  0
LINE
  5
19A
330
E3
100
AcDbEntity
  8
0
  6
Continuous
100
AcDbLine
 10
96.4687452258756
 20
105.9042442045408
 30
0.0
 11
94.68430628137354
 21
107.4369352754627
 31
0.0
  0
LINE
  5
19B
330
E3
100
AcDbEntity
  8
0
  6
Continuous
100
AcDbLine
 10
94.68430628137354
 20
107.4369352754627
 30
0.0
 11
94.09629820824398
 21
109.6179807779016
 31
0.0
  0
LINE
  5
19C
330
E3
100
AcDbEntity
  8
0
  6
Continuous
100
AcDbLine
 10
94.09629820824398
 20
109.6179807779016
 30
0.0
 11
93.14442614525092
 21
110.4282099736237
 31
0.0
  0
LINE
  5
19D
330
E3
100
AcDbEntity
  8
0
  6
Continuous
100
AcDbLine
 10
93.14442614525092
 20
110.4282099736237
 30
0.0
 11
92.78363758654953
 21
109.0694537971752
 31
0.0
  0
LINE
  5
19E
330
E3
100
AcDbEntity
  8
0
  6
Continuous
100
AcDbLine
 10
92.78363758654953
 20
109.0694537971752
 30
0.0
 11
91.05841538346876
 21
110.5512794567319
 31
0.0
  0
LINE
  5
19F
330
E3
100
AcDbEntity
  8
0
  6
Continuous
100
AcDbLine
 10
91.05841538346876
 20
110.5512794567319
 30
0.0
 11
90.48039756443278
 21
112.6958148246844
 31
0.0
  0
LINE
  5
1A0
330
E3
100
AcDbEntity
  8
0
  6
Continuous
100
AcDbLine
 10
90.48039756443278
 20
112.6958148246844
 30
0.0
 11
89.55991644690039
 21
113.4793217231006
 31
0.0
  0
LINE
  5
1A1
330
E3
100
AcDbEntity
  8
0
  6
Continuous
100
AcDbLine
 10
89.55991644690039
 20
113.4793217231006
 30
0.0
 11
89.22030657391957
 21
112.1300660824078
 31
0.0
  0
LINE
  5
1A2
330
E3
100
AcDbEntity
  8
0
  6
Continuous
100
AcDbLine
 10
89.22030657391957
 20
112.1300660824078
 30
0.0
 11
87.55140197969963
 21
113.5635173645447
 31
0.0
  0
LINE
  5
1A3
330
E3
100
AcDbEntity
  8
0
  6
Continuous
100
AcDbLine
 10
87.55140197969963
 20
113.5635173645447
 30
0.0
 11
86.98303814149851
 21
115.6727473051221
 31
0.0
  0
LINE
  5
1A4
330
E3
100
AcDbEntity
  8
0
  6
Continuous
100
AcDbLine
 10
86.98303814149851
 20
115.6727473051221
 30
0.0
 11
86.09242331300139
 21
116.4308312922224
 31
0.0
  0
LINE
  5
1A5
330
E3
100
AcDbEntity
  8
0
  6
Continuous
100
AcDbLine
 10
86.09242331300139
 20
116.4308312922224
 30
0.0
 11
85.77281027215233
 21
115.0911839253196
 31
0.0
  0
LINE
  5
1A6
330
E3
100
AcDbEntity
  8
0
  6
Continuous
100
AcDbLine
 10
85.77281027215233
 20
115.0911839253196
 30
0.0
 11
84.15751351199
 21
116.4785951541142
 31
0.0
  0
LINE
  5
1A7
330
E3
100
AcDbEntity
  8
0
  6
Continuous
100
AcDbLine
 10
84.15751351199
 20
116.4785951541142
 30
0.0
 11
83.59848370530965
 21
118.5536590786494
 31
0.0
  0
LINE
  5
1A8
330
E3
100
AcDbEntity
  8
0
  6
Continuous
100
AcDbLine
 10
83.59848370530965
 20
118.5536590786494
 30
0.0
 11
82.73630845309002
 21
119.2875411854896
 31
0.0
  0
LINE
  5
1A9
330
E3
100
AcDbEntity
  8
0
  6
Continuous
100
AcDbLine
 10
82.73630845309002
 20
119.2875411854896
 30
0.0
 11
82.43559527529574
 21
117.9575837120998
 31
0.0
  0
LINE
  5
1AA
330
E3
100
AcDbEntity
  8
0
  6
Continuous
100
AcDbLine
 10
82.43559527529574
 20
117.9575837120998
 30
0.0
 11
80.87135981383389
 21
119.3011325017613
 31
0.0
  0
LINE
  5
1AB
330
E3
100
AcDbEntity
  8
0
  6
Continuous
100
AcDbLine
 10
80.87135981383389
 20
119.3011325017613
 30
0.0
 11
80.32136694288263
 21
121.3431241145423
 31
0.0
  0
LINE
  5
1AC
330
E3
100
AcDbEntity
  8
0
  6
Continuous
100
AcDbLine
 10
80.32136694288263
 20
121.3431241145423
 30
0.0
 11
79.48628617390565
 21
122.0539404876666
 31
0.0
  0
LINE
  5
1AD
330
E3
100
AcDbEntity
  8
0
  6
Continuous
100
AcDbLine
 10
79.48628617390565
 20
122.0539404876666
 30
0.0
 11
79.20344771544546
 21
120.7337316739903
 31
0.0
  0
LINE
  5
1AE
330
E3
100
AcDbEntity
  8
0
  6
Continuous
100
AcDbLine
 10
79.20344771544546
 20
120.7337316739903
 30
0.0
 11
77.68789352156179
 21
122.0354715767491
 31
0.0
  0
LINE
  5
1AF
330
E3
100
AcDbEntity
  8
0
  6
Continuous
100
AcDbLine
 10
77.68789352156179
 20
122.0354715767491
 30
0.0
 11
77.14665028491468
 21
124.0454258158634
 31
0.0
  0
LINE
  5
1B0
330
E3
100
AcDbEntity
  8
0
  6
Continuous
100
AcDbLine
 10
77.14665028491468
 20
124.0454258158634
 30
0.0
 11
76.33740705544638
 21
124.7342505708261
 31
0.0
  0
LINE
  5
1B1
330
E3
100
AcDbEntity
  8
0
  6
Continuous
100
AcDbLine
 10
76.33740705544638
 20
124.7342505708261
 30
0.0
 11
76.0714899979558
 21
123.4238328591193
 31
0.0
  0
LINE
  5
1B2
330
E3
100
AcDbEntity
  8
0
  6
Continuous
100
AcDbLine
 10
76.0714899979558
 20
123.4238328591193
 30
0.0
 11
74.60237742645154
 21
124.6856803060712
 31
0.0
  0
LINE
  5
1B3
330
E3
100
AcDbEntity
  8
0
  6
Continuous
100
AcDbLine
 10
210.7544541322053
 20
149.8765728678218
 30
0.0
 11
210.6429322075052
 21
150.0657543265493
 31
0.0
  0
LINE
  5
1B4
330
E3
100
AcDbEntity
  8
0
  6
Continuous
100
AcDbLine
 10
212.3158002554734
 20
149.2006636178246
 30
0.0
 11
210.7544541322053
 21
149.8765728678218
 31
0.0
  0
LINE
  5
1B5
330
E3
100
AcDbEntity
  8
0
  6
Continuous
100
AcDbLine
 10
212.324611920767
 20
149.1605818042603
 30
0.0
 11
212.3158002554734
 21
149.2006636178246
 31
0.0
  0
LINE
  5
1B6
330
E3
100
AcDbEntity
  8
0
  6
Continuous
100
AcDbLine
 10
212.324611920767
 20
149.1605818042603
 30
0.0
 11
147.5017773838766
 21
98.46089112451473
 31
0.0
  0
LINE
  5
1B7
330
E3
100
AcDbEntity
  8
0
  6
Continuous
100
AcDbLine
 10
144.4870876195852
 20
96.10301812461962
 30
0.0
 11
125.2954862917354
 21
81.09274623354354
 31
0.0
  0
LINE
  5
1B8
330
E3
100
AcDbEntity
  8
0
  6
Continuous
100
AcDbLine
 10
125.294164052223
 20
81.14555092952699
 30
0.0
 11
212.3158002554734
 21
149.2006636178246
 31
0.0
  0
LINE
  5
1B9
330
E3
100
AcDbEntity
  8
0
  6
Continuous
100
AcDbLine
 10
210.7544541322053
 20
149.8765728678218
 30
0.0
 11
207.2629517405926
 21
147.1571473486182
 31
0.0
  0
LINE
  5
1BA
330
E3
100
AcDbEntity
  8
0
  6
Continuous
100
AcDbLine
 10
207.0625557319267
 20
147.0010643199563
 30
0.0
 11
123.9700897284661
 21
82.28282382567878
 31
0.0
  0
LINE
  5
1BB
330
E3
100
AcDbEntity
  8
0
  6
Continuous
100
AcDbLine
 10
203.4712552726237
 20
148.6044380709847
 30
0.0
 11
122.0765415382755
 21
85.80134887517795
 31
0.0
  0
LINE
  5
1BC
330
E3
100
AcDbEntity
  8
0
  6
Continuous
100
AcDbLine
 10
201.5815725925137
 20
149.4481052348199
 30
0.0
 11
119.3128095686457
 21
86.28304889151181
 31
0.0
  0
LINE
  5
1BD
330
E3
100
AcDbEntity
  8
0
  6
Continuous
100
AcDbLine
 10
198.0597925484618
 20
151.0204406375909
 30
0.0
 11
117.4778153677257
 21
89.7157589642628
 31
0.0
  0
LINE
  5
1BE
330
E3
100
AcDbEntity
  8
0
  6
Continuous
100
AcDbLine
 10
196.2797153619562
 20
151.8151718803122
 30
0.0
 11
114.8280147370186
 21
90.13512436575726
 31
0.0
  0
LINE
  5
1BF
330
E3
100
AcDbEntity
  8
0
  6
Continuous
100
AcDbLine
 10
192.8248634907533
 20
153.3576279348923
 30
0.0
 11
155.2143025159459
 21
125.1310758696205
 31
0.0
  0
LINE
  5
1C0
330
E3
100
AcDbEntity
  8
0
  6
Continuous
100
AcDbLine
 10
129.8742646019872
 20
106.1134975855451
 30
0.0
 11
113.0485774491412
 21
93.48590129578531
 31
0.0
  0
LINE
  5
1C1
330
E3
100
AcDbEntity
  8
0
  6
Continuous
100
AcDbLine
 10
191.1483421439843
 20
154.106126501725
 30
0.0
 11
155.239758075151
 21
127.2737862205671
 31
0.0
  0
LINE
  5
1C2
330
E3
100
AcDbEntity
  8
0
  6
Continuous
100
AcDbLine
 10
127.1727268612733
 20
106.3009682948787
 30
0.0
 11
110.506289582341
 21
93.84713386577975
 31
0.0
  0
LINE
  5
1C3
330
E3
100
AcDbEntity
  8
0
  6
Continuous
100
AcDbLine
 10
187.7579698539409
 20
155.6197936476132
 30
0.0
 11
155.2908128442736
 21
131.5709895456705
 31
0.0
  0
LINE
  5
1C4
330
E3
100
AcDbEntity
  8
0
  6
Continuous
100
AcDbLine
 10
125.4096918729273
 20
109.4376926041908
 30
0.0
 11
108.7796276073468
 21
97.11960809836329
 31
0.0
  0
LINE
  5
1C5
330
E3
100
AcDbEntity
  8
0
  6
Continuous
100
AcDbLine
 10
186.1793562620778
 20
156.3245799556032
 30
0.0
 11
153.8755562307849
 21
132.4941902323729
 31
0.0
  0
LINE
  5
1C6
330
E3
100
AcDbEntity
  8
0
  6
Continuous
100
AcDbLine
 10
122.8126241128474
 20
109.5791820263827
 30
0.0
 11
106.3389040590424
 21
97.42657987651617
 31
0.0
  0
LINE
  5
1C7
330
E3
100
AcDbEntity
  8
0
  6
Continuous
100
AcDbLine
 10
182.85114881785
 20
157.810493130887
 30
0.0
 11
150.7420607977141
 21
134.3262755063656
 31
0.0
  0
LINE
  5
1C8
330
E3
100
AcDbEntity
  8
0
  6
Continuous
100
AcDbLine
 10
121.1001019386634
 20
112.6464903936891
 30
0.0
 11
104.6624186249514
 21
100.6241565864982
 31
0.0
  0
LINE
  5
1C9
330
E3
100
AcDbEntity
  8
0
  6
Continuous
100
AcDbLine
 10
181.3651768763656
 20
158.4739210928451
 30
0.0
 11
149.3441532725435
 21
135.1436023531985
 31
0.0
  0
LINE
  5
1CA
330
E3
100
AcDbEntity
  8
0
  6
Continuous
100
AcDbLine
 10
118.6019703419991
 20
112.7450315176454
 30
0.0
 11
102.317735372291
 21
100.8804392518875
 31
0.0
  0
LINE
  5
1CB
330
E3
100
AcDbEntity
  8
0
  6
Continuous
100
AcDbLine
 10
178.0969338102217
 20
159.9330597342004
 30
0.0
 11
146.2720619894701
 21
136.9397880082328
 31
0.0
  0
LINE
  5
1CC
330
E3
100
AcDbEntity
  8
0
  6
Continuous
100
AcDbLine
 10
116.937567891699
 20
115.7457969571952
 30
0.0
 11
100.6890007409361
 21
104.0063081380423
 31
0.0
  0
LINE
  5
1CD
330
E3
100
AcDbEntity
  8
0
  6
Continuous
100
AcDbLine
 10
176.6986736878477
 20
160.5573298178585
 30
0.0
 11
144.9587516747806
 21
137.7076533029358
 31
0.0
  0
LINE
  5
1CE
330
E3
100
AcDbEntity
  8
0
  6
Continuous
100
AcDbLine
 10
114.6532114086925
 20
115.8905936105625
 30
0.0
 11
98.4352190061604
 21
104.2152056570545
 31
0.0
  0
LINE
  5
1CF
330
E3
100
AcDbEntity
  8
0
  6
Continuous
100
AcDbLine
 10
173.4883120644571
 20
161.9906276549162
 30
0.0
 11
141.9457596007274
 21
139.4692811672576
 31
0.0
  0
LINE
  5
1D0
330
E3
100
AcDbEntity
  8
0
  6
Continuous
100
AcDbLine
 10
114.5065734143746
 20
119.8777334024063
 30
0.0
 11
96.85196941403157
 21
107.2723670603991
 31
0.0
  0
LINE
  5
1D1
330
E3
100
AcDbEntity
  8
0
  6
Continuous
100
AcDbLine
 10
172.1731571440281
 20
162.5777901477156
 30
0.0
 11
140.7124007018868
 21
140.1904012142116
 31
0.0
  0
LINE
  5
1D2
330
E3
100
AcDbEntity
  8
0
  6
Continuous
100
AcDbLine
 10
114.4469093968714
 20
121.4999515150779
 30
0.0
 11
94.68430628137354
 21
107.4369352754627
 31
0.0
  0
LINE
  5
1D3
330
E3
100
AcDbEntity
  8
0
  6
Continuous
100
AcDbLine
 10
169.0186985013055
 20
163.9861319382729
 30
0.0
 11
137.0351971165348
 21
141.4097084615428
 31
0.0
  0
LINE
  5
1D4
330
E3
100
AcDbEntity
  8
0
  6
Continuous
100
AcDbLine
 10
114.3047670168956
 20
125.3648151675209
 30
0.0
 11
93.14442614525092
 21
110.4282099736237
 31
0.0
  0
LINE
  5
1D5
330
E3
100
AcDbEntity
  8
0
  6
Continuous
100
AcDbLine
 10
167.78233273187
 20
164.5381195952539
 30
0.0
 11
133.3433999247127
 21
140.3051356912084
 31
0.0
  0
LINE
  5
1D6
330
E3
100
AcDbEntity
  8
0
  6
Continuous
100
AcDbLine
 10
114.2494223151328
 20
126.869647794593
 30
0.0
 11
91.05841538346876
 21
110.5512794567319
 31
0.0
  0
LINE
  5
1D7
330
E3
100
AcDbEntity
  8
0
  6
Continuous
100
AcDbLine
 10
164.6818965513978
 20
165.9223411252742
 30
0.0
 11
123.9687217819088
 21
137.5002739107713
 31
0.0
  0
LINE
  5
1D8
330
E3
100
AcDbEntity
  8
0
  6
Continuous
100
AcDbLine
 10
114.1115306903302
 20
130.6189215953423
 30
0.0
 11
89.55991644690039
 21
113.4793217231006
 31
0.0
  0
LINE
  5
1D9
330
E3
100
AcDbEntity
  8
0
  6
Continuous
100
AcDbLine
 10
163.5202781242735
 20
166.4409561099205
 30
0.0
 11
120.4127136908253
 21
136.4363347033286
 31
0.0
  0
LINE
  5
1DA
330
E3
100
AcDbEntity
  8
0
  6
Continuous
100
AcDbLine
 10
114.0601984141494
 20
132.0147233316599
 30
0.0
 11
87.55140197969963
 21
113.5635173645447
 31
0.0
  0
LINE
  5
1DB
330
E3
100
AcDbEntity
  8
0
  6
Continuous
100
AcDbLine
 10
160.4720720369349
 20
167.8018605174779
 30
0.0
 11
86.09242331300139
 21
116.4308312922224
 31
0.0
  0
LINE
  5
1DC
330
E3
100
AcDbEntity
  8
0
  6
Continuous
100
AcDbLine
 10
159.3814072673975
 20
168.2887972552386
 30
0.0
 11
84.15751351199
 21
116.4785951541142
 31
0.0
  0
LINE
  5
1DD
330
E3
100
AcDbEntity
  8
0
  6
Continuous
100
AcDbLine
 10
156.3837303181655
 20
169.6271419713625
 30
0.0
 11
82.73630845309002
 21
119.2875411854896
 31
0.0
  0
LINE
  5
1DE
330
E3
100
AcDbEntity
  8
0
  6
Continuous
100
AcDbLine
 10
155.3604540567148
 20
170.0839936792303
 30
0.0
 11
80.87135981383389
 21
119.3011325017613
 31
0.0
  0
LINE
  5
1DF
330
E3
100
AcDbEntity
  8
0
  6
Continuous
100
AcDbLine
 10
152.4116901750742
 20
171.4005002222719
 30
0.0
 11
79.48628617390565
 21
122.0539404876666
 31
0.0
  0
LINE
  5
1E0
330
E3
100
AcDbEntity
  8
0
  6
Continuous
100
AcDbLine
 10
151.4524560130677
 20
171.828758908783
 30
0.0
 11
77.68789352156179
 21
122.0354715767491
 31
0.0
  0
LINE
  5
1E1
330
E3
100
AcDbEntity
  8
0
  6
Continuous
100
AcDbLine
 10
148.5510544242819
 20
173.1241194139932
 30
0.0
 11
76.33740705544638
 21
124.7342505708261
 31
0.0
  0
LINE
  5
1E2
330
E3
100
AcDbEntity
  8
0
  6
Continuous
100
AcDbLine
 10
145.8434507057557
 20
174.3329564832597
 30
0.0
 11
145.7043413146861
 21
174.7488677380774
 31
0.0
  0
LINE
  5
1E3
330
E3
100
AcDbEntity
  8
0
  6
Continuous
100
AcDbLine
 10
207.1858406911037
 20
146.946023243563
 30
0.0
 11
145.8434507057557
 21
174.3329564832597
 31
0.0
  0
LINE
  5
1E4
330
E3
100
AcDbEntity
  8
0
  6
Continuous
100
AcDbLine
 10
207.1858406911037
 20
146.946023243563
 30
0.0
 11
207.0739106677887
 21
147.4306387164019
 31
0.0
  0
LINE
  5
1E5
330
E3
100
AcDbEntity
  8
0
  6
Continuous
100
AcDbLine
 10
207.0739106677887
 20
147.4306387164019
 30
0.0
 11
145.7043413146861
 21
174.7488677380774
 31
0.0
  0
LINE
  5
1E6
330
E3
100
AcDbEntity
  8
0
  6
Continuous
100
AcDbLine
 10
150.5980150457983
 20
178.0019719780017
 30
0.0
 11
145.7043413146861
 21
174.7488677380774
 31
0.0
  0
LINE
  5
1E7
330
E3
100
AcDbEntity
  8
0
  6
Continuous
100
AcDbLine
 10
207.2924915507359
 20
147.0291153863523
 30
0.0
 11
207.1858406911037
 21
146.946023243563
 31
0.0
  0
LINE
  5
1E8
330
E3
100
AcDbEntity
  8
0
  6
Continuous
100
AcDbLine
 10
207.2924915507359
 20
147.0291153863523
 30
0.0
 11
207.2086583008618
 21
147.3924863930891
 31
0.0
  0
LINE
  5
1E9
330
E3
100
AcDbEntity
  8
0
  6
Continuous
100
AcDbLine
 10
212.5074923368799
 20
151.5171423590097
 30
0.0
 11
207.2086583008618
 21
147.3924863930891
 31
0.0
  0
LINE
  5
1EA
330
E3
100
AcDbEntity
  8
0
  6
Continuous
100
AcDbLine
 10
212.5074923368799
 20
151.5171423590097
 30
0.0
 11
212.5191998699451
 21
151.6679984606116
 31
0.0
  0
LINE
  5
1EB
330
E3
100
AcDbEntity
  8
0
  6
Continuous
100
AcDbLine
 10
212.5191998699451
 20
151.6679984606116
 30
0.0
 11
207.0739106677887
 21
147.4306387164019
 31
0.0
  0
LINE
  5
1EC
330
E3
100
AcDbEntity
  8
0
  6
Continuous
100
AcDbLine
 10
212.5191998699451
 20
151.6679984606116
 30
0.0
 11
150.5980150457983
 21
178.0019719780017
 31
0.0
  0
LINE
  5
1ED
330
E3
100
AcDbEntity
  8
0
  6
Continuous
100
AcDbLine
 10
207.1858406911037
 20
146.946023243563
 30
0.0
 11
207.0739106677887
 21
147.4306387164019
 31
0.0
  0
LINE
  5
1EE
330
E3
100
AcDbEntity
  8
0
  6
Continuous
100
AcDbLine
 10
207.1858406911037
 20
146.946023243563
 30
0.0
 11
207.2924915507359
 21
147.0291153863523
 31
0.0
  0
LINE
  5
1EF
330
E3
100
AcDbEntity
  8
0
  6
Continuous
100
AcDbLine
 10
207.2924915507359
 20
147.0291153863523
 30
0.0
 11
207.2086583008618
 21
147.3924863930891
 31
0.0
  0
LINE
  5
1F0
330
E3
100
AcDbEntity
  8
0
  6
Continuous
100
AcDbLine
 10
207.2086583008618
 20
147.3924863930891
 30
0.0
 11
212.5074923368799
 21
151.5171423590097
 31
0.0
  0
LINE
  5
1F1
330
E3
100
AcDbEntity
  8
0
  6
Continuous
100
AcDbLine
 10
207.0739106677887
 20
147.4306387164019
 30
0.0
 11
212.5191998699451
 21
151.6679984606116
 31
0.0
  0
LINE
  5
1F2
330
E3
100
AcDbEntity
  8
0
  6
Continuous
100
AcDbLine
 10
74.27709997682719
 20
124.924019691559
 30
0.0
 11
74.15780458970985
 21
126.3369909528041
 31
0.0
  0
LINE
  5
1F3
330
E3
100
AcDbEntity
  8
0
  6
Continuous
100
AcDbLine
 10
125.2954830269465
 20
81.09274623354354
 30
0.0
 11
74.27709997682719
 21
124.924019691559
 31
0.0
  0
LINE
  5
1F4
330
E3
100
AcDbEntity
  8
0
  6
Continuous
100
AcDbLine
 10
125.294164052223
 20
81.14555092952699
 30
0.0
 11
123.9700897284661
 21
82.28282382567878
 31
0.0
  0
LINE
  5
1F5
330
E3
100
AcDbEntity
  8
0
  6
Continuous
100
AcDbLine
 10
123.9700897284661
 20
82.28282382567878
 30
0.0
 11
123.3011801859122
 21
84.75894748023697
 31
0.0
  0
LINE
  5
1F6
330
E3
100
AcDbEntity
  8
0
  6
Continuous
100
AcDbLine
 10
123.3011801859122
 20
84.75894748023697
 30
0.0
 11
122.0765415382755
 21
85.80134887517795
 31
0.0
  0
LINE
  5
1F7
330
E3
100
AcDbEntity
  8
0
  6
Continuous
100
AcDbLine
 10
121.5261732165985
 20
84.38194924455041
 30
0.0
 11
122.0765415382755
 21
85.80134887517795
 31
0.0
  0
LINE
  5
1F8
330
E3
100
AcDbEntity
  8
0
  6
Continuous
100
AcDbLine
 10
121.5261732165985
 20
84.38194924455041
 30
0.0
 11
119.3128095686457
 21
86.28304889151181
 31
0.0
  0
LINE
  5
1F9
330
E3
100
AcDbEntity
  8
0
  6
Continuous
100
AcDbLine
 10
119.3128095686457
 20
86.28304889151181
 30
0.0
 11
118.6567926775348
 21
88.71222161661915
 31
0.0
  0
LINE
  5
1FA
330
E3
100
AcDbEntity
  8
0
  6
Continuous
100
AcDbLine
 10
118.6567926775348
 20
88.71222161661915
 30
0.0
 11
117.4778153677257
 21
89.7157589642628
 31
0.0
  0
LINE
  5
1FB
330
E3
100
AcDbEntity
  8
0
  6
Continuous
100
AcDbLine
 10
116.9598011042406
 20
88.30409361858548
 30
0.0
 11
117.4778153677257
 21
89.7157589642628
 31
0.0
  0
LINE
  5
1FC
330
E3
100
AcDbEntity
  8
0
  6
Continuous
100
AcDbLine
 10
116.9598011042406
 20
88.30409361858548
 30
0.0
 11
114.8280147370186
 21
90.13512436575726
 31
0.0
  0
LINE
  5
1FD
330
E3
100
AcDbEntity
  8
0
  6
Continuous
100
AcDbLine
 10
114.8280147370186
 20
90.13512436575726
 30
0.0
 11
114.1844007790127
 21
92.5190960882746
 31
0.0
  0
LINE
  5
1FE
330
E3
100
AcDbEntity
  8
0
  6
Continuous
100
AcDbLine
 10
114.1844007790127
 20
92.5190960882746
 30
0.0
 11
113.0485774491412
 21
93.48590129578531
 31
0.0
  0
LINE
  5
1FF
330
E3
100
AcDbEntity
  8
0
  6
Continuous
100
AcDbLine
 10
112.560932252185
 20
92.08236200972857
 30
0.0
 11
113.0485774491412
 21
93.48590129578531
 31
0.0
  0
LINE
  5
200
330
E3
100
AcDbEntity
  8
0
  6
Continuous
100
AcDbLine
 10
112.560932252185
 20
92.08236200972857
 30
0.0
 11
110.506289582341
 21
93.84713386577975
 31
0.0
  0
LINE
  5
201
330
E3
100
AcDbEntity
  8
0
  6
Continuous
100
AcDbLine
 10
110.506289582341
 20
93.84713386577975
 30
0.0
 11
109.8746247517804
 21
96.18755330411139
 31
0.0
  0
LINE
  5
202
330
E3
100
AcDbEntity
  8
0
  6
Continuous
100
AcDbLine
 10
109.8746247517804
 20
96.18755330411139
 30
0.0
 11
108.7796276073468
 21
97.11961136315222
 31
0.0
  0
LINE
  5
203
330
E3
100
AcDbEntity
  8
0
  6
Continuous
100
AcDbLine
 10
108.3205134007578
 20
95.72453767476364
 30
0.0
 11
108.7796276073468
 21
97.11961136315222
 31
0.0
  0
LINE
  5
204
330
E3
100
AcDbEntity
  8
0
  6
Continuous
100
AcDbLine
 10
108.3205134007578
 20
95.72453767476364
 30
0.0
 11
106.3389040590424
 21
97.42657987651617
 31
0.0
  0
LINE
  5
205
330
E3
100
AcDbEntity
  8
0
  6
Continuous
100
AcDbLine
 10
106.3389040590424
 20
97.42657987651617
 30
0.0
 11
105.7187476094228
 21
99.72501412934346
 31
0.0
  0
LINE
  5
206
330
E3
100
AcDbEntity
  8
0
  6
Continuous
100
AcDbLine
 10
105.7187476094228
 20
99.72501412934346
 30
0.0
 11
104.6624186249514
 21
100.6241565864982
 31
0.0
  0
LINE
  5
207
330
E3
100
AcDbEntity
  8
0
  6
Continuous
100
AcDbLine
 10
104.2301377184915
 20
99.23783906199166
 30
0.0
 11
104.6624186249514
 21
100.6241565864982
 31
0.0
  0
LINE
  5
208
330
E3
100
AcDbEntity
  8
0
  6
Continuous
100
AcDbLine
 10
104.2301377184915
 20
99.23783906199166
 30
0.0
 11
102.317735372291
 21
100.8804392518875
 31
0.0
  0
LINE
  5
209
330
E3
100
AcDbEntity
  8
0
  6
Continuous
100
AcDbLine
 10
102.317735372291
 20
100.8804392518875
 30
0.0
 11
101.7086792049976
 21
103.138364003802
 31
0.0
  0
LINE
  5
20A
330
E3
100
AcDbEntity
  8
0
  6
Continuous
100
AcDbLine
 10
101.7086792049976
 20
103.138364003802
 30
0.0
 11
100.6890007409361
 21
104.0063081380423
 31
0.0
  0
LINE
  5
20B
330
E3
100
AcDbEntity
  8
0
  6
Continuous
100
AcDbLine
 10
100.2819795063461
 20
102.6289883717978
 30
0.0
 11
100.6890007409361
 21
104.0063081380423
 31
0.0
  0
LINE
  5
20C
330
E3
100
AcDbEntity
  8
0
  6
Continuous
100
AcDbLine
 10
100.2819795063461
 20
102.6289883717978
 30
0.0
 11
98.4352190061604
 21
104.2152056570545
 31
0.0
  0
LINE
  5
20D
330
E3
100
AcDbEntity
  8
0
  6
Continuous
100
AcDbLine
 10
98.4352190061604
 20
104.2152056570545
 30
0.0
 11
97.83687134652288
 21
106.4340247672916
 31
0.0
  0
LINE
  5
20E
330
E3
100
AcDbEntity
  8
0
  6
Continuous
100
AcDbLine
 10
97.83687134652288
 20
106.4340247672916
 30
0.0
 11
96.85196941403157
 21
107.2723670603991
 31
0.0
  0
LINE
  5
20F
330
E3
100
AcDbEntity
  8
0
  6
Continuous
100
AcDbLine
 10
96.4687452258756
 20
105.9042474693297
 30
0.0
 11
96.85196941403157
 21
107.2723670603991
 31
0.0
  0
LINE
  5
210
330
E3
100
AcDbEntity
  8
0
  6
Continuous
100
AcDbLine
 10
96.4687452258756
 20
105.9042474693297
 30
0.0
 11
94.68430628137354
 21
107.4369352754627
 31
0.0
  0
LINE
  5
211
330
E3
100
AcDbEntity
  8
0
  6
Continuous
100
AcDbLine
 10
94.68430628137354
 20
107.4369352754627
 30
0.0
 11
94.09629820824398
 21
109.6179807779016
 31
0.0
  0
LINE
  5
212
330
E3
100
AcDbEntity
  8
0
  6
Continuous
100
AcDbLine
 10
94.09629820824398
 20
109.6179807779016
 30
0.0
 11
93.144422880462
 21
110.4282067088347
 31
0.0
  0
LINE
  5
213
330
E3
100
AcDbEntity
  8
0
  6
Continuous
100
AcDbLine
 10
92.78363758654953
 20
109.0694537971752
 30
0.0
 11
93.144422880462
 21
110.4282067088347
 31
0.0
  0
LINE
  5
214
330
E3
100
AcDbEntity
  8
0
  6
Continuous
100
AcDbLine
 10
92.78363758654953
 20
109.0694537971752
 30
0.0
 11
91.05841538346876
 21
110.5512794567319
 31
0.0
  0
LINE
  5
215
330
E3
100
AcDbEntity
  8
0
  6
Continuous
100
AcDbLine
 10
91.05841538346876
 20
110.5512794567319
 30
0.0
 11
90.48039756443278
 21
112.6958148246844
 31
0.0
  0
LINE
  5
216
330
E3
100
AcDbEntity
  8
0
  6
Continuous
100
AcDbLine
 10
90.48039756443278
 20
112.6958148246844
 30
0.0
 11
89.55991644690039
 21
113.4793217231006
 31
0.0
  0
LINE
  5
217
330
E3
100
AcDbEntity
  8
0
  6
Continuous
100
AcDbLine
 10
89.22030657391957
 20
112.1300660824078
 30
0.0
 11
89.55991644690039
 21
113.4793217231006
 31
0.0
  0
LINE
  5
218
330
E3
100
AcDbEntity
  8
0
  6
Continuous
100
AcDbLine
 10
89.22030657391957
 20
112.1300660824078
 30
0.0
 11
87.55140197969963
 21
113.5635173645447
 31
0.0
  0
LINE
  5
219
330
E3
100
AcDbEntity
  8
0
  6
Continuous
100
AcDbLine
 10
87.55140197969963
 20
113.5635173645447
 30
0.0
 11
86.98303814149851
 21
115.6727473051221
 31
0.0
  0
LINE
  5
21A
330
E3
100
AcDbEntity
  8
0
  6
Continuous
100
AcDbLine
 10
86.98303814149851
 20
115.6727473051221
 30
0.0
 11
86.09242331300139
 21
116.4308312922224
 31
0.0
  0
LINE
  5
21B
330
E3
100
AcDbEntity
  8
0
  6
Continuous
100
AcDbLine
 10
85.77281027215233
 20
115.0911839253196
 30
0.0
 11
86.09242331300139
 21
116.4308312922224
 31
0.0
  0
LINE
  5
21C
330
E3
100
AcDbEntity
  8
0
  6
Continuous
100
AcDbLine
 10
85.77281027215233
 20
115.0911839253196
 30
0.0
 11
84.15751351199
 21
116.4785951541142
 31
0.0
  0
LINE
  5
21D
330
E3
100
AcDbEntity
  8
0
  6
Continuous
100
AcDbLine
 10
84.15751351199
 20
116.4785951541142
 30
0.0
 11
83.59848370530965
 21
118.5536590786494
 31
0.0
  0
LINE
  5
21E
330
E3
100
AcDbEntity
  8
0
  6
Continuous
100
AcDbLine
 10
83.59848370530965
 20
118.5536590786494
 30
0.0
 11
82.73630845309002
 21
119.2875411854896
 31
0.0
  0
LINE
  5
21F
330
E3
100
AcDbEntity
  8
0
  6
Continuous
100
AcDbLine
 10
82.43559527529574
 20
117.9575837120998
 30
0.0
 11
82.73630845309002
 21
119.2875411854896
 31
0.0
  0
LINE
  5
220
330
E3
100
AcDbEntity
  8
0
  6
Continuous
100
AcDbLine
 10
82.43559527529574
 20
117.9575837120998
 30
0.0
 11
80.87135981383389
 21
119.3011325017613
 31
0.0
  0
LINE
  5
221
330
E3
100
AcDbEntity
  8
0
  6
Continuous
100
AcDbLine
 10
80.87135981383389
 20
119.3011325017613
 30
0.0
 11
80.32136694288263
 21
121.3431241145423
 31
0.0
  0
LINE
  5
222
330
E3
100
AcDbEntity
  8
0
  6
Continuous
100
AcDbLine
 10
80.32136694288263
 20
121.3431241145423
 30
0.0
 11
79.48628617390565
 21
122.0539404876666
 31
0.0
  0
LINE
  5
223
330
E3
100
AcDbEntity
  8
0
  6
Continuous
100
AcDbLine
 10
79.20344771544546
 20
120.7337316739903
 30
0.0
 11
79.48628617390565
 21
122.0539404876666
 31
0.0
  0
LINE
  5
224
330
E3
100
AcDbEntity
  8
0
  6
Continuous
100
AcDbLine
 10
79.20344771544546
 20
120.7337316739903
 30
0.0
 11
77.68789352156179
 21
122.0354715767491
 31
0.0
  0
LINE
  5
225
330
E3
100
AcDbEntity
  8
0
  6
Continuous
100
AcDbLine
 10
77.68789352156179
 20
122.0354715767491
 30
0.0
 11
77.14665028491468
 21
124.0454258158634
 31
0.0
  0
LINE
  5
226
330
E3
100
AcDbEntity
  8
0
  6
Continuous
100
AcDbLine
 10
77.14665028491468
 20
124.0454258158634
 30
0.0
 11
76.33740705544638
 21
124.7342505708261
 31
0.0
  0
LINE
  5
227
330
E3
100
AcDbEntity
  8
0
  6
Continuous
100
AcDbLine
 10
76.0714899979558
 20
123.4238328591193
 30
0.0
 11
76.33740705544638
 21
124.7342505708261
 31
0.0
  0
LINE
  5
228
330
E3
100
AcDbEntity
  8
0
  6
Continuous
100
AcDbLine
 10
76.0714899979558
 20
123.4238328591193
 30
0.0
 11
74.60237416166261
 21
124.6856803060712
 31
0.0
  0
LINE
  5
229
330
E3
100
AcDbEntity
  8
0
  6
Continuous
100
AcDbLine
 10
74.60237416166261
 20
124.6856803060712
 30
0.0
 11
74.15780458970985
 21
126.3369909528041
 31
0.0
  0
LINE
  5
22A
330
E3
100
AcDbEntity
  8
0
  6
Continuous
100
AcDbLine
 10
125.294164052223
 20
81.14555419431592
 30
0.0
 11
212.3158035202623
 21
149.2006636178246
 31
0.0
  0
LINE
  5
22B
330
E3
100
AcDbEntity
  8
0
  6
Continuous
100
AcDbLine
 10
125.2954862917354
 20
81.09274623354354
 30
0.0
 11
212.324611920767
 21
149.1605818042603
 31
0.0
  0
LINE
  5
22C
330
E3
100
AcDbEntity
  8
0
  6
Continuous
100
AcDbLine
 10
212.324611920767
 20
149.1605818042603
 30
0.0
 11
212.3158035202623
 21
149.2006636178246
 31
0.0
  0
LINE
  5
22D
330
E3
100
AcDbEntity
  8
0
  6
Continuous
100
AcDbLine
 10
145.1950244488825
 20
94.31161212056341
 30
0.0
 11
144.4870876195852
 21
96.10301812461962
 31
0.0
  0
LINE
  5
22E
330
E3
100
AcDbEntity
  8
0
  6
Continuous
100
AcDbLine
 10
145.1950244488825
 20
94.31161212056341
 30
0.0
 11
148.1946504770994
 21
96.66831959081428
 31
0.0
  0
LINE
  5
22F
330
E3
100
AcDbEntity
  8
0
  6
Continuous
100
AcDbLine
 10
148.1946504770994
 20
96.66831959081428
 30
0.0
 11
147.5017773838766
 21
98.46089112451473
 31
0.0
  0
LINE
  5
230
330
E3
100
AcDbEntity
  8
0
  6
Continuous
100
AcDbLine
 10
144.4870876195852
 20
96.10301812461962
 30
0.0
 11
147.5017773838766
 21
98.46089112451473
 31
0.0
  0
LINE
  5
231
330
E3
100
AcDbEntity
  8
0
  6
Continuous
100
AcDbLine
 10
181.2650360058388
 20
124.8680481503237
 30
0.0
 11
183.9553036952027
 21
126.9721784906089
 31
0.0
  0
LINE
  5
232
330
E3
100
AcDbEntity
  8
0
  6
Continuous
100
AcDbLine
 10
181.7965501715059
 20
123.0682222556442
 30
0.0
 11
181.2650360058388
 21
124.8680481503237
 31
0.0
  0
LINE
  5
233
330
E3
100
AcDbEntity
  8
0
  6
Continuous
100
AcDbLine
 10
181.7965501715059
 20
123.0682222556442
 30
0.0
 11
184.4745389897437
 21
125.1722317987393
 31
0.0
  0
LINE
  5
234
330
E3
100
AcDbEntity
  8
0
  6
Continuous
100
AcDbLine
 10
184.4745389897437
 20
125.1722317987393
 30
0.0
 11
183.9553036952027
 21
126.9721784906089
 31
0.0
  0
LINE
  5
235
330
E3
100
AcDbEntity
  8
0
  6
Continuous
100
AcDbLine
 10
155.372608865862
 20
177.0498550558397
 30
0.0
 11
150.5980150457983
 21
178.0019719780017
 31
0.0
  0
LINE
  5
236
330
E3
100
AcDbEntity
  8
0
  6
Continuous
100
AcDbLine
 10
217.3133497756363
 20
150.7598713043504
 30
0.0
 11
212.5074923368799
 21
151.5171423590097
 31
0.0
  0
LINE
  5
237
330
E3
100
AcDbEntity
  8
0
  6
Continuous
100
AcDbLine
 10
217.3133497756363
 20
150.7598713043504
 30
0.0
 11
217.1730226182998
 21
150.3305678853851
 31
0.0
  0
LINE
  5
238
330
E3
100
AcDbEntity
  8
0
  6
Continuous
100
AcDbLine
 10
217.26759375893
 20
150.3157947155245
 30
0.0
 11
217.1730226182998
 21
150.3305678853851
 31
0.0
  0
LINE
  5
239
330
E3
100
AcDbEntity
  8
0
  6
Continuous
100
AcDbLine
 10
217.4546824879601
 20
150.8880697708512
 30
0.0
 11
217.26759375893
 21
150.3157947155245
 31
0.0
  0
LINE
  5
23A
330
E3
100
AcDbEntity
  8
0
  6
Continuous
100
AcDbLine
 10
217.4546824879601
 20
150.8880697708512
 30
0.0
 11
212.5191998699451
 21
151.6679984606116
 31
0.0
  0
LINE
  5
23B
330
E3
100
AcDbEntity
  8
0
  6
Continuous
100
AcDbLine
 10
155.372608865862
 20
177.0498550558397
 30
0.0
 11
217.4546824879601
 21
150.8880697708512
 31
0.0
  0
LINE
  5
23C
330
E3
100
AcDbEntity
  8
0
  6
Continuous
100
AcDbLine
 10
217.1730226182998
 20
150.3305678853851
 30
0.0
 11
215.474842661839
 21
151.0495690843304
 31
0.0
  0
LINE
  5
23D
330
E3
100
AcDbEntity
  8
0
  6
Continuous
100
AcDbLine
 10
212.9203085718019
 20
150.9949197826075
 30
0.0
 11
212.324611920767
 21
149.1605818042603
 31
0.0
  0
LINE
  5
23E
330
E3
100
AcDbEntity
  8
0
  6
Continuous
100
AcDbLine
 10
212.4694771347017
 20
151.1873268527873
 30
0.0
 11
212.9203085718019
 21
150.9949197826075
 31
0.0
  0
LINE
  5
23F
330
E3
100
AcDbEntity
  8
0
  6
Continuous
100
AcDbLine
 10
211.1591638962403
 20
149.7200523574447
 30
0.0
 11
212.4694771347017
 21
151.1873268527873
 31
0.0
  0
LINE
  5
240
330
E3
100
AcDbEntity
  8
0
  6
Continuous
100
AcDbLine
 10
210.7396874919226
 20
149.901620328412
 30
0.0
 11
211.1591638962403
 21
149.7200523574447
 31
0.0
  0
LINE
  5
241
330
E3
100
AcDbEntity
  8
0
  6
Continuous
100
AcDbLine
 10
230.5970249874966
 20
146.4102550579339
 30
0.0
 11
212.324611920767
 21
149.1605818042603
 31
0.0
  0
LINE
  5
242
330
E3
100
AcDbEntity
  8
0
  6
Continuous
100
AcDbLine
 10
230.7748743638845
 20
148.2057094002502
 30
0.0
 11
230.5970249874966
 21
146.4102550579339
 31
0.0
  0
LINE
  5
243
330
E3
100
AcDbEntity
  8
0
  6
Continuous
100
AcDbLine
 10
230.7748743638845
 20
148.2057094002502
 30
0.0
 11
217.26759375893
 21
150.3157947155245
 31
0.0
  0
LINE
  5
244
330
E3
100
AcDbEntity
  8
0
  6
Continuous
100
AcDbLine
 10
217.1730226182998
 20
150.3305678853851
 30
0.0
 11
212.9203085718019
 21
150.9949197826075
 31
0.0
  0
LINE
  5
245
330
E3
100
AcDbEntity
  8
0
  6
Continuous
100
AcDbLine
 10
230.7748743638845
 20
148.2057094002502
 30
0.0
 11
230.3251562198058
 21
148.3914987432903
 31
0.0
  0
LINE
  5
246
330
E3
100
AcDbEntity
  8
0
  6
Continuous
100
AcDbLine
 10
212.4694771347017
 20
151.1873268527873
 30
0.0
 11
216.7222989192339
 21
150.5214209160393
 31
0.0
  0
LINE
  5
247
330
E3
100
AcDbEntity
  8
0
  6
Continuous
100
AcDbLine
 10
217.3049886512136
 20
150.4301863896848
 30
0.0
 11
230.3251562198058
 21
148.3914987432903
 31
0.0
  0
LINE
  5
248
330
E3
100
AcDbEntity
  8
0
  6
Continuous
100
AcDbLine
 10
211.1573192905008
 20
150.4661578339995
 30
0.0
 11
211.7447494959916
 21
150.3757852119197
 31
0.0
  0
LINE
  5
249
330
E3
100
AcDbEntity
  8
0
  6
Continuous
100
AcDbLine
 10
226.5023299894898
 20
148.9900716733632
 30
0.0
 11
226.2004708707848
 21
150.09548349445
 31
0.0
  0
LINE
  5
24A
330
E3
100
AcDbEntity
  8
0
  6
Continuous
100
AcDbLine
 10
226.2004708707848
 20
150.09548349445
 30
0.0
 11
224.7740323552469
 21
150.6847713648359
 31
0.0
  0
LINE
  5
24B
330
E3
100
AcDbEntity
  8
0
  6
Continuous
100
AcDbLine
 10
213.7121178284403
 20
152.4652109429117
 30
0.0
 11
224.7740323552469
 21
150.6847713648359
 31
0.0
  0
LINE
  5
24C
330
E3
100
AcDbEntity
  8
0
  6
Continuous
100
AcDbLine
 10
221.0649905483522
 20
151.2817510779161
 30
0.0
 11
220.7772451121461
 21
152.3359220369118
 31
0.0
  0
LINE
  5
24D
330
E3
100
AcDbEntity
  8
0
  6
Continuous
100
AcDbLine
 10
220.7772451121461
 20
152.3359220369118
 30
0.0
 11
219.3946984188415
 21
152.9070772696391
 31
0.0
  0
LINE
  5
24E
330
E3
100
AcDbEntity
  8
0
  6
Continuous
100
AcDbLine
 10
208.3298684355298
 20
154.7333251010438
 30
0.0
 11
219.3946984188415
 21
152.9070772696391
 31
0.0
  0
LINE
  5
24F
330
E3
100
AcDbEntity
  8
0
  6
Continuous
100
AcDbLine
 10
215.7945764998781
 20
153.5012753825599
 30
0.0
 11
215.5199489855503
 21
154.5078098064317
 31
0.0
  0
LINE
  5
250
330
E3
100
AcDbEntity
  8
0
  6
Continuous
100
AcDbLine
 10
215.5199489855503
 20
154.5078098064317
 30
0.0
 11
214.1792960636604
 21
155.0616583930968
 31
0.0
  0
LINE
  5
251
330
E3
100
AcDbEntity
  8
0
  6
Continuous
100
AcDbLine
 10
203.1170387340172
 20
156.9300448550851
 30
0.0
 11
214.1792960636604
 21
155.0616583930968
 31
0.0
  0
LINE
  5
252
330
E3
100
AcDbEntity
  8
0
  6
Continuous
100
AcDbLine
 10
210.6834972098296
 20
155.6520889396046
 30
0.0
 11
210.4210832708496
 21
156.6142483524829
 31
0.0
  0
LINE
  5
253
330
E3
100
AcDbEntity
  8
0
  6
Continuous
100
AcDbLine
 10
210.4210832708496
 20
156.6142483524829
 30
0.0
 11
209.1204501315344
 21
157.1515673128488
 31
0.0
  0
LINE
  5
254
330
E3
100
AcDbEntity
  8
0
  6
Continuous
100
AcDbLine
 10
198.0657540530288
 20
159.0586872305777
 30
0.0
 11
209.1204501315344
 21
157.1515673128488
 31
0.0
  0
LINE
  5
255
330
E3
100
AcDbEntity
  8
0
  6
Continuous
100
AcDbLine
 10
205.7246125848399
 20
157.7374043013469
 30
0.0
 11
205.4735927591889
 21
158.6581531315707
 31
0.0
  0
LINE
  5
256
330
E3
100
AcDbEntity
  8
0
  6
Continuous
100
AcDbLine
 10
205.4735927591889
 20
158.6581531315707
 30
0.0
 11
204.2112098868542
 21
159.1796672487774
 31
0.0
  0
LINE
  5
257
330
E3
100
AcDbEntity
  8
0
  6
Continuous
100
AcDbLine
 10
193.1686163808729
 20
161.1223733657285
 30
0.0
 11
204.2112098868542
 21
159.1796672487774
 31
0.0
  0
LINE
  5
258
330
E3
100
AcDbEntity
  8
0
  6
Continuous
100
AcDbLine
 10
200.9112069541017
 20
159.7602316031706
 30
0.0
 11
200.6708303403281
 21
160.6422633015984
 31
0.0
  0
LINE
  5
259
330
E3
100
AcDbEntity
  8
0
  6
Continuous
100
AcDbLine
 10
200.6708303403281
 20
160.6422633015984
 30
0.0
 11
199.4450392222028
 21
161.1486614461081
 31
0.0
  0
LINE
  5
25A
330
E3
100
AcDbEntity
  8
0
  6
Continuous
100
AcDbLine
 10
188.4186782467292
 20
163.1240285114095
 30
0.0
 11
199.4450392222028
 21
161.1486614461081
 31
0.0
  0
LINE
  5
25B
330
E3
100
AcDbEntity
  8
0
  6
Continuous
100
AcDbLine
 10
196.236953156689
 20
161.7233883579132
 30
0.0
 11
196.0065439434865
 21
162.5691711049682
 31
0.0
  0
LINE
  5
25C
330
E3
100
AcDbEntity
  8
0
  6
Continuous
100
AcDbLine
 10
196.0065439434865
 20
162.5691711049682
 30
0.0
 11
194.8157742161004
 21
163.0610997049868
 31
0.0
  0
LINE
  5
25D
330
E3
100
AcDbEntity
  8
0
  6
Continuous
100
AcDbLine
 10
183.8094035431806
 20
165.0664048846797
 30
0.0
 11
194.8157742161004
 21
163.0610997049868
 31
0.0
  0
LINE
  5
25E
330
E3
100
AcDbEntity
  8
0
  6
Continuous
100
AcDbLine
 10
191.6958929528238
 20
163.6295288389663
 30
0.0
 11
191.4748243007199
 21
164.4413120742139
 31
0.0
  0
LINE
  5
25F
330
E3
100
AcDbEntity
  8
0
  6
Continuous
100
AcDbLine
 10
191.4748243007199
 20
164.4413120742139
 30
0.0
 11
190.3175970146923
 21
164.9193849100582
 31
0.0
  0
LINE
  5
260
330
E3
100
AcDbEntity
  8
0
  6
Continuous
100
AcDbLine
 10
179.3346283487474
 20
166.9521045223079
 30
0.0
 11
190.3175970146923
 21
164.9193849100582
 31
0.0
  0
LINE
  5
261
330
E3
100
AcDbEntity
  8
0
  6
Continuous
100
AcDbLine
 10
187.2824011111979
 20
165.4811375506974
 30
0.0
 11
187.0701016821317
 21
166.2609878855238
 31
0.0
  0
LINE
  5
262
330
E3
100
AcDbEntity
  8
0
  6
Continuous
100
AcDbLine
 10
187.0701016821317
 20
166.2609878855238
 30
0.0
 11
185.9450195078052
 21
166.7257795600437
 31
0.0
  0
LINE
  5
263
330
E3
100
AcDbEntity
  8
0
  6
Continuous
100
AcDbLine
 10
174.9885576630973
 20
168.7835662216171
 30
0.0
 11
185.9450195078052
 21
166.7257795600437
 31
0.0
  0
LINE
  5
264
330
E3
100
AcDbEntity
  8
0
  6
Continuous
100
AcDbLine
 10
182.9911625554502
 20
167.280558611551
 30
0.0
 11
182.7871099831947
 21
168.0303728883182
 31
0.0
  0
LINE
  5
265
330
E3
100
AcDbEntity
  8
0
  6
Continuous
100
AcDbLine
 10
182.7871099831947
 20
168.0303728883182
 30
0.0
 11
181.6928506810569
 21
168.4824318860522
 31
0.0
  0
LINE
  5
266
330
E3
100
AcDbEntity
  8
0
  6
Continuous
100
AcDbLine
 10
170.7657131704237
 20
170.5631014531621
 30
0.0
 11
181.6928506810569
 21
168.4824318860522
 31
0.0
  0
LINE
  5
267
330
E3
100
AcDbEntity
  8
0
  6
Continuous
100
AcDbLine
 10
178.8171625698007
 20
169.0299990188363
 30
0.0
 11
178.6208704008067
 21
169.7515238996164
 31
0.0
  0
LINE
  5
268
330
E3
100
AcDbEntity
  8
0
  6
Continuous
100
AcDbLine
 10
178.6208704008067
 20
169.7515238996164
 30
0.0
 11
177.5561868214903
 21
170.1913660572137
 31
0.0
  0
LINE
  5
269
330
E3
100
AcDbEntity
  8
0
  6
Continuous
100
AcDbLine
 10
166.6609267098669
 20
172.2928845663634
 30
0.0
 11
177.5561868214903
 21
170.1913660572137
 31
0.0
  0
LINE
  5
26A
330
E3
100
AcDbEntity
  8
0
  6
Continuous
100
AcDbLine
 10
174.7556476215825
 20
170.7315449726731
 30
0.0
 11
174.5666783741349
 21
171.4263899984033
 31
0.0
  0
LINE
  5
26B
330
E3
100
AcDbEntity
  8
0
  6
Continuous
100
AcDbLine
 10
174.5666783741349
 20
171.4263899984033
 30
0.0
 11
173.5303853992622
 21
171.854501769413
 31
0.0
  0
LINE
  5
26C
330
E3
100
AcDbEntity
  8
0
  6
Continuous
100
AcDbLine
 10
162.6693174219923
 20
173.9749723782402
 30
0.0
 11
173.5303853992622
 21
171.854501769413
 31
0.0
  0
LINE
  5
26D
330
E3
100
AcDbEntity
  8
0
  6
Continuous
100
AcDbLine
 10
170.8021318908203
 20
172.387155346413
 30
0.0
 11
170.6200676719373
 21
173.0568092608406
 31
0.0
  0
LINE
  5
26E
330
E3
100
AcDbEntity
  8
0
  6
Continuous
100
AcDbLine
 10
170.6200676719373
 20
173.0568092608406
 30
0.0
 11
169.611045478909
 21
173.4736542452892
 31
0.0
  0
LINE
  5
26F
330
E3
100
AcDbEntity
  8
0
  6
Continuous
100
AcDbLine
 10
158.7862688952679
 20
175.6113139677773
 30
0.0
 11
169.611045478909
 21
173.4736542452892
 31
0.0
  0
LINE
  5
270
330
E3
100
AcDbEntity
  8
0
  6
Continuous
100
AcDbLine
 10
217.3133497756363
 20
150.7598713043504
 30
0.0
 11
212.5074923368799
 21
151.5171423590097
 31
0.0
  0
LINE
  5
271
330
E3
100
AcDbEntity
  8
0
  6
Continuous
100
AcDbLine
 10
217.1730226182998
 20
150.3305678853851
 30
0.0
 11
217.3133497756363
 21
150.7598713043504
 31
0.0
  0
LINE
  5
272
330
E3
100
AcDbEntity
  8
0
  6
Continuous
100
AcDbLine
 10
217.26759375893
 20
150.3157947155245
 30
0.0
 11
217.4546824879601
 21
150.8880697708512
 31
0.0
  0
LINE
  5
273
330
E3
100
AcDbEntity
  8
0
  6
Continuous
100
AcDbLine
 10
217.4546824879601
 20
150.8880697708512
 30
0.0
 11
212.5191998699451
 21
151.6679984606116
 31
0.0
  0
LINE
  5
274
330
E3
100
AcDbEntity
  8
0
  6
Continuous
100
AcDbLine
 10
212.324611920767
 20
149.1605818042603
 30
0.0
 11
212.9203085718019
 21
150.9949197826075
 31
0.0
  0
LINE
  5
275
330
E3
100
AcDbEntity
  8
0
  6
Continuous
100
AcDbLine
 10
230.5970282522855
 20
146.4102550579339
 30
0.0
 11
212.324611920767
 21
149.1605818042603
 31
0.0
  0
LINE
  5
276
330
E3
100
AcDbEntity
  8
0
  6
Continuous
100
AcDbLine
 10
230.5970282522855
 20
146.4102550579339
 30
0.0
 11
230.7748743638845
 21
148.2057094002502
 31
0.0
  0
LINE
  5
277
330
E3
100
AcDbEntity
  8
0
  6
Continuous
100
AcDbLine
 10
230.7748743638845
 20
148.2057094002502
 30
0.0
 11
217.26759375893
 21
150.3157947155245
 31
0.0
  0
LINE
  5
278
330
E3
100
AcDbEntity
  8
0
  6
Continuous
100
AcDbLine
 10
217.1730226182998
 20
150.3305678853851
 30
0.0
 11
212.9203085718019
 21
150.9949197826075
 31
0.0
  0
LINE
  5
279
330
E3
100
AcDbEntity
  8
Des_ Walls
  6
Continuous
 62
   251
370
    18
100
AcDbLine
 10
147.8525658941176
 20
132.17773097762
 30
0.0
 11
131.8731773249758
 21
126.9984633061995
 31
0.0
  0
LINE
  5
27A
330
E3
100
AcDbEntity
  8
Des_ Walls
  6
Continuous
 62
   251
370
    18
100
AcDbLine
 10
155.2919424612398
 20
131.6660569342165
 30
0.0
 11
130.3718543459921
 21
123.4410937981365
 31
0.0
  0
LINE
  5
27B
330
E3
100
AcDbEntity
  8
Des_ Walls
  6
Continuous
 62
   251
370
    18
100
AcDbLine
 10
155.2919424612398
 20
131.6660569342165
 30
0.0
 11
155.2002182165473
 21
123.9456897791626
 31
0.0
  0
LINE
  5
27C
330
E3
100
AcDbEntity
  8
Des_ Walls
  6
Continuous
 62
   251
370
    18
100
AcDbLine
 10
130.6894660712336
 20
105.5063578493475
 30
0.0
 11
130.3718543459921
 21
123.4410937981365
 31
0.0
  0
LINE
  5
27D
330
E3
100
AcDbEntity
  8
Des_ Walls
  6
Continuous
 62
   251
370
    18
100
AcDbLine
 10
138.0881470444746
 20
141.7247442683268
 30
0.0
 11
155.2919424612398
 21
131.6660569342165
 31
0.0
  0
LINE
  5
27E
330
E3
100
AcDbEntity
  8
Des_ Walls
  6
Continuous
 62
   251
370
    18
100
AcDbLine
 10
136.841813874468
 20
138.771572921645
 30
0.0
 11
136.9311156457821
 21
129.6749927637903
 31
0.0
  0
LINE
  5
27F
330
E3
100
AcDbEntity
  8
Des_ Walls
  6
Continuous
 62
   251
370
    18
100
AcDbLine
 10
136.841813874468
 20
138.771572921645
 30
0.0
 11
147.8525658941176
 21
132.17773097762
 31
0.0
  0
LINE
  5
280
330
E3
100
AcDbEntity
  8
Des_ Walls
  6
Continuous
 62
   251
370
    18
100
AcDbLine
 10
113.9684904934016
 20
134.5082515759478
 30
0.0
 11
138.0881470444746
 21
141.7247442683268
 31
0.0
  0
LINE
  5
281
330
E3
100
AcDbEntity
  8
Des_ Walls
  6
Continuous
 62
   251
370
    18
100
AcDbLine
 10
121.1952019750986
 20
134.0112037869035
 30
0.0
 11
136.841813874468
 21
138.771572921645
 31
0.0
  0
LINE
  5
282
330
E3
100
AcDbEntity
  8
Des_ Walls
  6
Continuous
 62
   251
370
    18
100
AcDbLine
 10
131.8731773249758
 20
126.9984633061995
 30
0.0
 11
121.1952019750986
 21
134.0112037869035
 31
0.0
  0
LINE
  5
283
330
E3
100
AcDbEntity
  8
Des_ Walls
  6
Continuous
 62
   251
370
    18
100
AcDbLine
 10
130.3718543459921
 20
123.4410937981365
 30
0.0
 11
113.9684904934016
 21
134.5082515759478
 31
0.0
  0
LINE
  5
284
330
E3
100
AcDbEntity
  8
Des_ Walls
  6
Continuous
 62
   251
370
    18
100
AcDbLine
 10
114.6598976963996
 20
115.7087742508484
 30
0.0
 11
113.9684904934016
 21
134.5082515759478
 31
0.0
  0
HATCH
  5
285
330
E3
100
AcDbEntity
  8
0
  6
Continuous
 62
   255
370
    18
100
AcDbHatch
 10
0.0
 20
0.0
 30
0.0
210
0.0
220
0.0
230
1.0
  2
SOLID
 70
     1
 71
     0
 91
        1
 92
        3
 72
     0
 73
     1
 93
       11
 10
114.6154007701938
 20
116.9186801767593
 10
114.2982125151918
 20
125.5430552645319
 10
99.0904184906411
 20
114.7982568074967
 10
125.1982913883458
 20
93.70888682157685
 10
199.3158340978582
 20
150.4596669397224
 10
168.8462015084079
 20
164.0631442149071
 10
136.6137009694369
 20
141.2835970671543
 10
138.0881475870196
 20
141.7247449699057
 10
155.291941600546
 20
131.6660582395162
 10
155.1880333997692
 20
122.9201229071582
 10
130.705334656987
 20
104.6102691678443
 97
        0
 75
     0
 76
     1
 98
        0
  0
LINE
  5
286
330
E3
100
AcDbEntity
  8
0
  6
Continuous
100
AcDbLine
 10
114.2982113207453
 20
125.5430563185792
 30
0.0
 11
114.6154018882162
 21
116.9186789060916
 31
0.0
  0
LINE
  5
287
330
E3
100
AcDbEntity
  8
0
  6
Continuous
100
AcDbLine
 10
99.09041970004148
 20
114.7982572690982
 30
0.0
 11
114.2982113207453
 21
125.5430563185792
 31
0.0
  0
LINE
  5
288
330
E3
100
AcDbEntity
  8
0
  6
Continuous
100
AcDbLine
 10
125.198290260814
 20
93.7088863789849
 30
0.0
 11
99.09041970004148
 21
114.7982572690982
 31
0.0
  0
LINE
  5
289
330
E3
100
AcDbEntity
  8
0
  6
Continuous
100
AcDbLine
 10
199.3158352007149
 20
150.4596674336276
 30
0.0
 11
125.198290260814
 21
93.7088863789849
 31
0.0
  0
LINE
  5
28A
330
E3
100
AcDbEntity
  8
0
  6
Continuous
100
AcDbLine
 10
168.8462001139565
 20
164.0631450440942
 30
0.0
 11
199.3158352007149
 21
150.4596674336276
 31
0.0
  0
LINE
  5
28B
330
E3
100
AcDbEntity
  8
0
  6
Continuous
100
AcDbLine
 10
136.6136998078759
 20
141.2835961951617
 30
0.0
 11
168.8462001139565
 21
164.0631450440942
 31
0.0
  0
LINE
  5
28C
330
E3
100
AcDbEntity
  8
0
  6
Continuous
100
AcDbLine
 10
138.0881470444746
 20
141.7247442683268
 30
0.0
 11
136.6136998078759
 21
141.2835961951617
 31
0.0
  0
LINE
  5
28D
330
E3
100
AcDbEntity
  8
0
  6
Continuous
100
AcDbLine
 10
155.2919424612398
 20
131.6660569342165
 30
0.0
 11
138.0881470444746
 21
141.7247442683268
 31
0.0
  0
LINE
  5
28E
330
E3
100
AcDbEntity
  8
0
  6
Continuous
100
AcDbLine
 10
155.1880340242999
 20
122.9201216358904
 30
0.0
 11
155.2919424612398
 21
131.6660569342165
 31
0.0
  0
LINE
  5
28F
330
E3
100
AcDbEntity
  8
0
  6
Continuous
100
AcDbLine
 10
130.7053362101711
 20
104.6102679698324
 30
0.0
 11
155.1880340242999
 21
122.9201216358904
 31
0.0
  0
LINE
  5
290
330
E3
100
AcDbEntity
  8
0
  6
Continuous
100
AcDbLine
 10
114.6154018882162
 20
116.9186789060916
 30
0.0
 11
130.7053362101711
 21
104.6102679698324
 31
0.0
  0
HATCH
  5
291
330
E3
100
AcDbEntity
  8
0
  6
Continuous
 62
   255
370
    18
100
AcDbHatch
 10
0.0
 20
0.0
 30
0.0
210
0.0
220
0.0
230
1.0
  2
SOLID
 70
     1
 71
     0
 91
        1
 92
        3
 72
     0
 73
     1
 93
        4
 10
155.1880333997692
 20
122.9201229071582
 10
157.4779601827992
 20
138.9368224534898
 10
149.7309461779027
 20
134.917452136788
 10
155.291941600546
 20
131.6660582395162
 97
        0
 75
     0
 76
     1
 98
        0
  0
LINE
  5
292
330
E3
100
AcDbEntity
  8
0
  6
Continuous
100
AcDbLine
 10
155.1880340242999
 20
122.9201216358904
 30
0.0
 11
157.477960237203
 21
138.9368234775928
 31
0.0
  0
LINE
  5
293
330
E3
100
AcDbEntity
  8
0
  6
Continuous
100
AcDbLine
 10
157.477960237203
 20
138.9368234775928
 30
0.0
 11
149.7309458749884
 21
134.917453689536
 31
0.0
  0
LINE
  5
294
330
E3
100
AcDbEntity
  8
0
  6
Continuous
100
AcDbLine
 10
149.7309458749884
 20
134.917453689536
 30
0.0
 11
155.2919424612398
 21
131.6660569342165
 31
0.0
  0
LINE
  5
295
330
E3
100
AcDbEntity
  8
0
  6
Continuous
100
AcDbLine
 10
155.2919424612398
 20
131.6660569342165
 30
0.0
 11
155.1880340242999
 21
122.9201216358904
 31
0.0
  0
LINE
  5
296
330
E3
100
AcDbEntity
  8
0
  6
Continuous
100
AcDbLine
 10
137.6350204607639
 20
81.2242911086867
 30
0.0
 11
151.5113821882752
 21
92.72403668311631
 31
0.0
  0
LINE
  5
298
330
E3
100
AcDbEntity
  8
0
  6
Contour Line
100
AcDbLine
 10
199.9585448121901
 20
149.0121579704034
 30
0.0
 11
203.0917137663689
 21
151.5732020495459
 31
0.0
  0
LINE
  5
299
330
E3
100
AcDbEntity
  8
0
  6
Contour Line
100
AcDbLine
 10
202.4886582811095
 20
153.067172723883
 30
0.0
 11
172.1910579816736
 21
166.2649088970161
 31
0.0
  0
LINE
  5
29A
330
E3
100
AcDbEntity
  8
0
  6
Contour Line
100
AcDbLine
 10
168.8462001139565
 20
164.0631450440942
 30
0.0
 11
172.1910579816736
 21
166.2649088970161
 31
0.0
  0
LINE
  5
29B
330
E3
100
AcDbEntity
  8
0
  6
Contour Line
100
AcDbLine
 10
202.4470387519642
 20
153.1702812875376
 30
0.0
 11
203.0917137663689
 21
151.5732020495459
 31
0.0
  0
LINE
  5
29C
330
E3
100
AcDbEntity
  8
0
  6
Contour Line
100
AcDbLine
 10
201.9045712194723
 20
152.7006773141503
 30
0.0
 11
171.7461292829396
 21
165.9720312126285
 31
0.0
  0
LINE
  5
29D
330
E3
100
AcDbEntity
  8
0
  6
Contour Line
100
AcDbLine
 10
199.851443411687
 20
150.9233327559703
 30
0.0
 11
169.4189322397319
 21
164.4401465445696
 31
0.0
  0
ELLIPSE
  5
29E
330
E3
100
AcDbEntity
  8
0
  6
Continuous
100
AcDbEllipse
 10
149.5674773447474
 20
173.6185368671293
 30
0.0
 11
0.299541041128192
 21
0.0
 31
0.0
210
0.0
220
0.0
230
1.0
 40
0.5714285714285678
 41
0.0
 42
6.283185307179586
  0
ELLIPSE
  5
29F
330
E3
100
AcDbEntity
  8
0
  6
Continuous
100
AcDbEllipse
 10
149.5674773447474
 20
173.7455696907243
 30
0.0
 11
0.1809583230519508
 21
0.0
 31
0.0
210
0.0
220
0.0
230
1.0
 40
0.7020004465807893
 41
0.0
 42
6.283185307179586
  0
ELLIPSE
  5
2A0
330
E3
100
AcDbEntity
  8
0
  6
Continuous
100
AcDbEllipse
 10
153.4367845451274
 20
171.9388917823789
 30
0.0
 11
0.299541041128192
 21
0.0
 31
0.0
210
0.0
220
0.0
230
1.0
 40
0.5714285714285678
 41
0.0
 42
6.283185307179586
  0
ELLIPSE
  5
2A1
330
E3
100
AcDbEntity
  8
0
  6
Continuous
100
AcDbEllipse
 10
153.4367845451274
 20
172.0659246059738
 30
0.0
 11
0.1809583230519508
 21
0.0
 31
0.0
210
0.0
220
0.0
230
1.0
 40
0.7020004465807893
 41
0.0
 42
6.283185307179586
  0
ELLIPSE
  5
2A2
330
E3
100
AcDbEntity
  8
0
  6
Continuous
100
AcDbEllipse
 10
161.6901488037172
 20
168.1899888285235
 30
0.0
 11
0.299541041128192
 21
0.0
 31
0.0
210
0.0
220
0.0
230
1.0
 40
0.5714285714285678
 41
0.0
 42
6.283185307179586
  0
ELLIPSE
  5
2A3
330
E3
100
AcDbEntity
  8
0
  6
Continuous
100
AcDbEllipse
 10
161.6901488037172
 20
168.3170216521184
 30
0.0
 11
0.1809583230519508
 21
0.0
 31
0.0
210
0.0
220
0.0
230
1.0
 40
0.7020004465807893
 41
0.0
 42
6.283185307179586
  0
ELLIPSE
  5
2A4
330
E3
100
AcDbEntity
  8
0
  6
Continuous
100
AcDbEllipse
 10
170.5978372465867
 20
164.5173813034685
 30
0.0
 11
0.299541041128192
 21
0.0
 31
0.0
210
0.0
220
0.0
230
1.0
 40
0.5714285714285678
 41
0.0
 42
6.283185307179586
  0
ELLIPSE
  5
2A5
330
E3
100
AcDbEntity
  8
0
  6
Continuous
100
AcDbEllipse
 10
170.5978372465867
 20
164.6444141270635
 30
0.0
 11
0.1809583230519508
 21
0.0
 31
0.0
210
0.0
220
0.0
230
1.0
 40
0.7020004465807893
 41
0.0
 42
6.283185307179586
  0
ELLIPSE
  5
2A6
330
E3
100
AcDbEntity
  8
0
  6
Continuous
100
AcDbEllipse
 10
179.1977643035214
 20
160.7402460273071
 30
0.0
 11
0.299541041128192
 21
0.0
 31
0.0
210
0.0
220
0.0
230
1.0
 40
0.5714285714285678
 41
0.0
 42
6.283185307179586
  0
ELLIPSE
  5
2A7
330
E3
100
AcDbEntity
  8
0
  6
Continuous
100
AcDbEllipse
 10
179.1977643035214
 20
160.867278850902
 30
0.0
 11
0.1809583230519508
 21
0.0
 31
0.0
210
0.0
220
0.0
230
1.0
 40
0.7020004465807893
 41
0.0
 42
6.283185307179586
  0
ELLIPSE
  5
2A8
330
E3
100
AcDbEntity
  8
0
  6
Continuous
100
AcDbEllipse
 10
190.5316829983707
 20
155.59192708009
 30
0.0
 11
0.299541041128192
 21
0.0
 31
0.0
210
0.0
220
0.0
230
1.0
 40
0.5714285714285678
 41
0.0
 42
6.283185307179586
  0
ELLIPSE
  5
2A9
330
E3
100
AcDbEntity
  8
0
  6
Continuous
100
AcDbEllipse
 10
190.5316829983707
 20
155.718959903685
 30
0.0
 11
0.1809583230519508
 21
0.0
 31
0.0
210
0.0
220
0.0
230
1.0
 40
0.7020004465807893
 41
0.0
 42
6.283185307179586
  0
ELLIPSE
  5
2AA
330
E3
100
AcDbEntity
  8
0
  6
Continuous
100
AcDbEllipse
 10
199.8077195487417
 20
151.5053566632753
 30
0.0
 11
0.299541041128192
 21
0.0
 31
0.0
210
0.0
220
0.0
230
1.0
 40
0.5714285714285678
 41
0.0
 42
6.283185307179586
  0
ELLIPSE
  5
2AB
330
E3
100
AcDbEntity
  8
0
  6
Continuous
100
AcDbEllipse
 10
199.8077195487417
 20
151.6323894868702
 30
0.0
 11
0.1809583230519508
 21
0.0
 31
0.0
210
0.0
220
0.0
230
1.0
 40
0.7020004465807893
 41
0.0
 42
6.283185307179586
  0
ELLIPSE
  5
2AC
330
E3
100
AcDbEntity
  8
0
  6
Continuous
100
AcDbEllipse
 10
100.481510900488
 20
114.3113798586244
 30
0.0
 11
0.2891162173178097
 21
-0.0783367615108149
 31
0.0
210
0.0
220
0.0
230
1.0
 40
0.5714285714285678
 41
0.0
 42
6.283185307179586
  0
ELLIPSE
  5
2AD
330
E3
100
AcDbEntity
  8
0
  6
Continuous
100
AcDbEllipse
 10
100.5147328588832
 20
114.4339916025598
 30
0.0
 11
0.1746604927855751
 21
-0.04732469695279904
 31
0.0
210
0.0
220
0.0
230
1.0
 40
0.7020004465807894
 41
0.0
 42
6.283185307179586
  0
ELLIPSE
  5
2AE
330
E3
100
AcDbEntity
  8
0
  6
Continuous
100
AcDbEllipse
 10
108.1908247031978
 20
108.3397355212254
 30
0.0
 11
0.2891162173178097
 21
-0.0783367615108149
 31
0.0
210
0.0
220
0.0
230
1.0
 40
0.5714285714285678
 41
0.0
 42
6.283185307179586
  0
ELLIPSE
  5
2AF
330
E3
100
AcDbEntity
  8
0
  6
Continuous
100
AcDbEllipse
 10
108.224046661593
 20
108.4623472651609
 30
0.0
 11
0.174660492785575
 21
-0.0473246969527991
 31
0.0
210
0.0
220
0.0
230
1.0
 40
0.7020004465807895
 41
0.0
 42
6.283185307179586
  0
ELLIPSE
  5
2B0
330
E3
100
AcDbEntity
  8
0
  6
Continuous
100
AcDbEllipse
 10
116.815184764047
 20
101.2230955896861
 30
0.0
 11
0.2891162173178097
 21
-0.0783367615108149
 31
0.0
210
0.0
220
0.0
230
1.0
 40
0.5714285714285678
 41
0.0
 42
6.283185307179586
  0
ELLIPSE
  5
2B1
330
E3
100
AcDbEntity
  8
0
  6
Continuous
100
AcDbEllipse
 10
116.8484067224422
 20
101.3457073336215
 30
0.0
 11
0.1746604927855751
 21
-0.04732469695279904
 31
0.0
210
0.0
220
0.0
230
1.0
 40
0.7020004465807894
 41
0.0
 42
6.283185307179586
  0
ELLIPSE
  5
2B2
330
E3
100
AcDbEntity
  8
0
  6
Continuous
100
AcDbEllipse
 10
126.1406006576851
 20
93.73111034633524
 30
0.0
 11
0.2891162173178097
 21
-0.0783367615108149
 31
0.0
210
0.0
220
0.0
230
1.0
 40
0.5714285714285678
 41
0.0
 42
6.283185307179586
  0
ELLIPSE
  5
2B3
330
E3
100
AcDbEntity
  8
0
  6
Continuous
100
AcDbEllipse
 10
126.1738226160802
 20
93.85372209027074
 30
0.0
 11
0.174660492785575
 21
-0.0473246969527991
 31
0.0
210
0.0
220
0.0
230
1.0
 40
0.7020004465807895
 41
0.0
 42
6.283185307179586
  0
HATCH
  5
2B4
330
E3
100
AcDbEntity
  8
0
  6
Continuous
 62
   255
370
    18
100
AcDbHatch
 10
0.0
 20
0.0
 30
0.0
210
0.0
220
0.0
230
1.0
  2
SOLID
 70
     1
 71
     0
 91
        1
 92
        3
 72
     0
 73
     1
 93
        3
 10
157.4779601827992
 20
138.9368224534898
 10
146.3756943994794
 20
136.8791953728559
 10
149.7309461779027
 20
134.917452136788
 97
        0
 75
     0
 76
     1
 98
        0
  0
LINE
  5
2B5
330
E3
100
AcDbEntity
  8
0
  6
Continuous
100
AcDbLine
 10
157.477960237203
 20
138.9368234775928
 30
0.0
 11
146.3756929193518
 21
136.8791967906764
 31
0.0
  0
LINE
  5
2B6
330
E3
100
AcDbEntity
  8
0
  6
Continuous
100
AcDbLine
 10
146.3756929193518
 20
136.8791967906764
 30
0.0
 11
149.7309458749884
 21
134.917453689536
 31
0.0
  0
LINE
  5
2B7
330
E3
100
AcDbEntity
  8
0
  6
Continuous
100
AcDbLine
 10
149.7309458749884
 20
134.917453689536
 30
0.0
 11
157.477960237203
 21
138.9368234775928
 31
0.0
  0
MTEXT
  5
2B9
330
E3
100
AcDbEntity
  8
Doc_ Floor
  6
Continuous
100
AcDbMText
 10
106.8271092870214
 20
172.5955417258558
 30
0.0
 40
2.5
 41
56.68353220040037
 71
     6
 72
     1
  1
\A1;{\fCentury Gothic|b0|i0|c0|p34;TRS 9\PMIN. ROOF PITCH 3\fArial|b0|i0|c0|p34;\H1.029412x;\U+00B0}
  7
GENERATED_STYLE_1
 73
     1
 44
1.056356172275314
  0
LINE
  5
2BA
330
E3
100
AcDbEntity
  8
Doc_ Floor
  6
Continuous
100
AcDbLine
 10
136.5036633621341
 20
156.0257472962265
 30
0.0
 11
133.2124198580526
 21
158.0495866826153
 31
0.0
  0
LINE
  5
2BB
330
E3
100
AcDbEntity
  8
Doc_ Floor
  6
Continuous
100
AcDbLine
 10
136.5036633621341
 20
156.0257472962265
 30
0.0
 11
134.6652803103158
 21
159.4240660824998
 31
0.0
  0
LINE
  5
2BC
330
E3
100
AcDbEntity
  8
Doc_ Floor
  6
Continuous
100
AcDbLine
 10
133.2124198580526
 20
158.0495866826153
 30
0.0
 11
134.6652803103158
 21
159.4240660824998
 31
0.0
  0
LWPOLYLINE
  5
2BD
330
E3
100
AcDbEntity
  8
Doc_ Floor
  6
Continuous
100
AcDbPolyline
 90
       12
 70
   128
 43
0.0
 10
133.9388498491403
 20
158.7368249540498
 10
130.3126751301486
 20
162.3019834816216
 10
126.9223335521212
 20
165.2675931196719
 10
123.7016524229653
 20
167.6719329700022
 10
120.5844590505886
 20
169.5532821344142
 10
119.0439913069135
 20
170.3097974287139
 10
117.5045807428984
 20
170.9499197147097
 10
115.9579557720318
 20
171.4784338801267
 10
114.3958448078021
 20
171.9001248126901
 10
112.8099762636978
 20
172.2197774001252
 10
111.1920785532073
 20
172.4421765301572
 10
107.8271092870214
 20
172.6143539689124
  0
MTEXT
  5
2BE
330
E3
100
AcDbEntity
  8
Doc_ Floor
  6
Continuous
100
AcDbMText
 10
81.44304027756073
 20
102.9971801799835
 30
0.0
 40
2.5
 41
35.02466725567862
 71
     6
 72
     1
  1
{NOTCHED TURN-DOWN OVER TRS 9.\P5MM MAX. GAP BETWEEN PAN AND EDGE OF FLASHING}
  7
GENERATED_STYLE_1
 73
     1
 44
0.8524990333685823
  0
LINE
  5
2BF
330
E3
100
AcDbEntity
  8
Doc_ Floor
  6
Continuous
100
AcDbLine
 10
101.6147544925735
 20
111.9614168811949
 30
0.0
 11
98.95533579370962
 21
109.1586151825659
 31
0.0
  0
LINE
  5
2C0
330
E3
100
AcDbEntity
  8
Doc_ Floor
  6
Continuous
100
AcDbLine
 10
101.6147544925735
 20
111.9614168811949
 30
0.0
 11
97.91022788875439
 21
110.8638307591481
 31
0.0
  0
LINE
  5
2C1
330
E3
100
AcDbEntity
  8
Doc_ Floor
  6
Continuous
100
AcDbLine
 10
98.95533579370962
 20
109.1586151825659
 30
0.0
 11
97.91022788875439
 21
110.8638307591481
 31
0.0
  0
LWPOLYLINE
  5
2C2
330
E3
100
AcDbEntity
  8
Doc_ Floor
  6
Continuous
100
AcDbPolyline
 90
        8
 70
   128
 43
0.0
 10
98.43278265017994
 20
110.0112225864212
 10
92.75148216764116
 20
106.7245699497036
 10
90.43281211810584
 20
105.5128371539626
 10
88.40825474605293
 20
104.5636959639992
 10
86.6374044637272
 20
103.8582933228373
 10
85.07985568337341
 20
103.3777761735013
 10
83.69520281723634
 20
103.1032914590154
 10
82.44304027756074
 20
103.0159861224035
  0
MTEXT
  5
2C3
330
E3
100
AcDbEntity
  8
0
  6
Continuous
100
AcDbMText
 10
145.6665570800898
 20
83.05087946046882
 30
0.0
 40
2.5
 41
0.0
 71
     7
 72
     1
  1
{A}
  7
GENERATED_STYLE_1
 73
     1
 44
1.0
  0
HATCH
  5
2C4
330
E3
100
AcDbEntity
  8
0
  6
Continuous
 62
   255
370
    18
100
AcDbHatch
 10
0.0
 20
0.0
 30
0.0
210
0.0
220
0.0
230
1.0
  2
SOLID
 70
     1
 71
     0
 91
        1
 92
        3
 72
     0
 73
     1
 93
        8
 10
155.2504251064727
 20
128.1716220961011
 10
130.4415386921706
 20
119.5061499317856
 10
114.1136274396885
 20
130.561938850668
 10
114.0956674300039
 20
131.0502730107673
 10
113.2397730383964
 20
130.7523124575184
 10
130.4528530466214
 20
118.8672573886913
 10
156.1893072177945
 20
128.1619117334775
 10
155.2554865888409
 20
128.5976461937861
 97
        0
 75
     0
 76
     1
 98
        0
  0
LINE
  5
2C5
330
E3
100
AcDbEntity
  8
0
  6
Continuous
100
AcDbLine
 10
155.2504241405509
 20
128.171622762154
 30
0.0
 11
130.4415380006892
 21
119.5061514515371
 31
0.0
  0
LINE
  5
2C6
330
E3
100
AcDbEntity
  8
0
  6
Continuous
100
AcDbLine
 10
130.4415380006892
 20
119.5061514515371
 30
0.0
 11
114.1136266848165
 21
130.5619379695419
 31
0.0
  0
LINE
  5
2C7
330
E3
100
AcDbEntity
  8
0
  6
Continuous
100
AcDbLine
 10
114.1136266848165
 20
130.5619379695419
 30
0.0
 11
114.0956670809705
 21
131.0502720369601
 31
0.0
  0
LINE
  5
2C8
330
E3
100
AcDbEntity
  8
0
  6
Continuous
100
AcDbLine
 10
114.0956670809705
 20
131.0502720369601
 30
0.0
 11
113.2397732826319
 21
130.752311076225
 31
0.0
  0
LINE
  5
2C9
330
E3
100
AcDbEntity
  8
0
  6
Continuous
100
AcDbLine
 10
113.2397732826319
 20
130.752311076225
 30
0.0
 11
130.4528537590841
 21
118.8672583783088
 31
0.0
  0
LINE
  5
2CA
330
E3
100
AcDbEntity
  8
0
  6
Continuous
100
AcDbLine
 10
130.4528537590841
 20
118.8672583783088
 30
0.0
 11
156.1893056084334
 21
128.1619132799076
 31
0.0
  0
LINE
  5
2CB
330
E3
100
AcDbEntity
  8
0
  6
Continuous
100
AcDbLine
 10
156.1893056084334
 20
128.1619132799076
 30
0.0
 11
155.255487828165
 21
128.5976450682553
 31
0.0
  0
LINE
  5
2CC
330
E3
100
AcDbEntity
  8
0
  6
Continuous
100
AcDbLine
 10
155.255487828165
 20
128.5976450682553
 30
0.0
 11
155.2504241405509
 21
128.171622762154
 31
0.0
  0
HATCH
  5
2CD
330
E3
100
AcDbEntity
  8
0
  6
Continuous
 62
   255
370
    18
100
AcDbHatch
 10
0.0
 20
0.0
 30
0.0
210
0.0
220
0.0
230
1.0
  2
SOLID
 70
     1
 71
     0
 91
        1
 92
        3
 72
     0
 73
     1
 93
        4
 10
113.2397730383964
 20
130.7523124575184
 10
113.4898417035042
 20
126.770085576871
 10
130.5222655264882
 20
114.9477128863921
 10
130.4528530466214
 20
118.8672573886913
 97
        0
 75
     0
 76
     1
 98
        0
  0
LINE
  5
2CE
330
E3
100
AcDbEntity
  8
0
  6
Continuous
100
AcDbLine
 10
113.2397732826319
 20
130.752311076225
 30
0.0
 11
113.4898430547074
 21
126.7700847917049
 31
0.0
  0
LINE
  5
2CF
330
E3
100
AcDbEntity
  8
0
  6
Continuous
100
AcDbLine
 10
113.4898430547074
 20
126.7700847917049
 30
0.0
 11
130.5222664363009
 21
114.9477127762536
 31
0.0
  0
LINE
  5
2D0
330
E3
100
AcDbEntity
  8
0
  6
Continuous
100
AcDbLine
 10
130.5222664363009
 20
114.9477127762536
 30
0.0
 11
130.4528537590841
 21
118.8672583783088
 31
0.0
  0
LINE
  5
2D1
330
E3
100
AcDbEntity
  8
0
  6
Continuous
100
AcDbLine
 10
130.4528537590841
 20
118.8672583783088
 30
0.0
 11
113.2397732826319
 21
130.752311076225
 31
0.0
  0
HATCH
  5
2D2
330
E3
100
AcDbEntity
  8
0
  6
Continuous
 62
   255
370
    18
100
AcDbHatch
 10
0.0
 20
0.0
 30
0.0
210
0.0
220
0.0
230
1.0
  2
SOLID
 70
     1
 71
     0
 91
        1
 92
        3
 72
     0
 73
     1
 93
        4
 10
130.4528530466214
 20
118.8672573886913
 10
130.5222655264882
 20
114.9477128863921
 10
156.173992314189
 20
124.6658786608676
 10
156.1893072177945
 20
128.1619117334775
 97
        0
 75
     0
 76
     1
 98
        0
  0
LINE
  5
2D3
330
E3
100
AcDbEntity
  8
0
  6
Continuous
100
AcDbLine
 10
130.4528537590841
 20
118.8672583783088
 30
0.0
 11
130.5222664363009
 21
114.9477127762536
 31
0.0
  0
LINE
  5
2D4
330
E3
100
AcDbEntity
  8
0
  6
Continuous
100
AcDbLine
 10
130.5222664363009
 20
114.9477127762536
 30
0.0
 11
156.1739937484011
 21
124.6658793612746
 31
0.0
  0
LINE
  5
2D5
330
E3
100
AcDbEntity
  8
0
  6
Continuous
100
AcDbLine
 10
156.1739937484011
 20
124.6658793612746
 30
0.0
 11
156.1893056084334
 21
128.1619132799076
 31
0.0
  0
LINE
  5
2D6
330
E3
100
AcDbEntity
  8
0
  6
Continuous
100
AcDbLine
 10
156.1893056084334
 20
128.1619132799076
 30
0.0
 11
130.4528537590841
 21
118.8672583783088
 31
0.0
  0
LINE
  5
2D7
330
E3
100
AcDbEntity
  8
0
  6
Contour Line
100
AcDbLine
 10
156.1893056084334
 20
128.1619132799076
 30
0.0
 11
155.2504241405509
 21
128.171622762154
 31
0.0
  0
LINE
  5
2D8
330
E3
100
AcDbEntity
  8
0
  6
Continuous
100
AcDbLine
 10
51.55023829147702
 20
65.85440598292024
 30
0.0
 11
151.9433235566875
 21
65.85440598292024
 31
0.0
  0
LINE
  5
2D9
330
E3
100
AcDbEntity
  8
0
  6
Continuous
100
AcDbLine
 10
151.9433235566875
 20
73.940772299791
 30
0.0
 11
151.9433235566875
 21
44.3332177863736
 31
0.0
  0
LINE
  5
2DA
330
E3
100
AcDbEntity
  8
0
  6
Continuous
100
AcDbLine
 10
51.55023829147702
 20
44.3332177863736
 30
0.0
 11
51.55023829147702
 21
65.85440598292024
 31
0.0
  0
LINE
  5
2DB
330
E3
100
AcDbEntity
  8
0
  6
Continuous
100
AcDbLine
 10
127.9733053409494
 20
73.940772299791
 30
0.0
 11
127.9733053409494
 21
44.3332177863736
 31
0.0
  0
LINE
  5
2DC
330
E3
100
AcDbEntity
  8
0
  6
Continuous
100
AcDbLine
 10
51.55023829147702
 20
55.09381188464692
 30
0.0
 11
151.9433235566875
 21
55.09381188464692
 31
0.0
  0
LINE
  5
2DD
330
E3
100
AcDbEntity
  8
0
  6
Continuous
100
AcDbLine
 10
51.55023829147702
 20
44.3332177863736
 30
0.0
 11
151.9433235566875
 21
44.3332177863736
 31
0.0
  0
LINE
  5
2DE
330
E3
100
AcDbEntity
  8
0
  6
Continuous
100
AcDbLine
 10
127.9733053409494
 20
73.940772299791
 30
0.0
 11
151.9433235566875
 21
73.940772299791
 31
0.0
  0
LINE
  5
2DF
330
E3
100
AcDbEntity
  8
0
  6
Continuous
100
AcDbLine
 10
164.6321411682651
 20
63.1801782015177
 30
0.0
 11
252.8513378598541
 21
63.1801782015177
 31
0.0
  0
LINE
  5
2E0
330
E3
100
AcDbEntity
  8
0
  6
Continuous
100
AcDbLine
 10
252.8513378598541
 20
73.940772299791
 30
0.0
 11
252.8513378598541
 21
35.90083608066202
 31
0.0
  0
LINE
  5
2E1
330
E3
100
AcDbEntity
  8
0
  6
Continuous
100
AcDbLine
 10
164.6321411682651
 20
35.90083608066202
 30
0.0
 11
164.6321411682651
 21
73.940772299791
 31
0.0
  0
LINE
  5
2E2
330
E3
100
AcDbEntity
  8
0
  6
Continuous
100
AcDbLine
 10
209.30338278427
 20
73.940772299791
 30
0.0
 11
209.30338278427
 21
35.90083608066202
 31
0.0
  0
LINE
  5
2E3
330
E3
100
AcDbEntity
  8
0
  6
Continuous
100
AcDbLine
 10
164.6321411682651
 20
56.36034103890931
 30
0.0
 11
252.8513378598541
 21
56.36034103890931
 31
0.0
  0
LINE
  5
2E4
330
E3
100
AcDbEntity
  8
0
  6
Continuous
100
AcDbLine
 10
164.6321411682651
 20
73.940772299791
 30
0.0
 11
252.8513378598541
 21
73.940772299791
 31
0.0
  0
LINE
  5
2E5
330
E3
100
AcDbEntity
  8
0
  6
Continuous
100
AcDbLine
 10
164.6321411682651
 20
49.54050714108986
 30
0.0
 11
252.8513378598541
 21
49.54050714108986
 31
0.0
  0
LINE
  5
2E6
330
E3
100
AcDbEntity
  8
0
  6
Continuous
100
AcDbLine
 10
164.6321411682651
 20
42.72066997848148
 30
0.0
 11
252.8513378598541
 21
42.72066997848148
 31
0.0
  0
LINE
  5
2E7
330
E3
100
AcDbEntity
  8
0
  6
Continuous
100
AcDbLine
 10
164.6321411682651
 20
35.90083608066202
 30
0.0
 11
252.8513378598541
 21
35.90083608066202
 31
0.0
  0
MTEXT
  5
2E8
330
E3
100
AcDbEntity
  8
0
  6
Continuous
100
AcDbMText
 10
53.8768994644194
 20
58.7457250766462
 30
0.0
 40
2.5
 41
0.0
 71
     7
 72
     1
  1
{LOW, MEDIUM OR HIGH WIND ZONE.}
  7
GENERATED_STYLE_1
 73
     1
 44
1.0
  0
MTEXT
  5
2E9
330
E3
100
AcDbEntity
  8
0
  6
Continuous
100
AcDbMText
 10
53.8768994644194
 20
48.21807288764124
 30
0.0
 40
2.5
 41
0.0
 71
     7
 72
     1
  1
{VERY HIGH OR EXTRA WIND ZONE.}
  7
GENERATED_STYLE_1
 73
     1
 44
1.0
  0
MTEXT
  5
2EA
330
E3
100
AcDbEntity
  8
0
  6
Continuous
100
AcDbMText
 10
140.2030329303552
 20
59.17438397106465
 30
0.0
 40
2.499999999999999
 41
0.0
 71
     8
 72
     1
  1
{150MM}
  7
GENERATED_STYLE_1
 73
     1
 44
1.0
  0
MTEXT
  5
2EB
330
E3
100
AcDbEntity
  8
0
  6
Continuous
100
AcDbMText
 10
140.2030329303552
 20
47.89926976641669
 30
0.0
 40
2.499999999999999
 41
0.0
 71
     8
 72
     1
  1
{200MM}
  7
GENERATED_STYLE_1
 73
     1
 44
1.0
  0
MTEXT
  5
2EC
330
E3
100
AcDbEntity
  8
0
  6
Continuous
100
AcDbMText
 10
140.0363801630465
 20
68.16549034561838
 30
0.0
 40
2.499999999999999
 41
0.0
 71
     8
 72
     1
  1
{A}
  7
GENERATED_STYLE_1
 73
     1
 44
1.0
  0
MTEXT
  5
2ED
330
E3
100
AcDbEntity
  8
0
  6
Continuous
100
AcDbMText
 10
52.17304157145472
 20
28.92122699590726
 30
0.0
 40
2.5
 41
104.3322757116702
 71
     7
 72
     1
  1
{NOTE: \PA) SUITABLE FOR PENERTATIONS UP TO 1200MM WIDE\PB) SUITABLE ONLY FOR ROOF PITCHES OF 10° OR HIGHER}
  7
GENERATED_STYLE_1
 73
     1
 44
1.054457242623121
  0
MTEXT
  5
2EE
330
E3
100
AcDbEntity
  8
0
  6
Continuous
100
AcDbMText
 10
230.1545470884013
 20
58.25265665218548
 30
0.0
 40
2.5
 41
0.0
 71
     8
 72
     1
  1
{12M}
  7
GENERATED_STYLE_1
 73
     1
 44
1.0
  0
MTEXT
  5
2EF
330
E3
100
AcDbEntity
  8
0
  6
Continuous
100
AcDbMText
 10
168.363612796232
 20
67.61263062224958
 30
0.0
 40
2.5
 41
0.0
 71
     7
 72
     1
  1
{CATCHMENT WIDTH}
  7
GENERATED_STYLE_1
 73
     1
 44
1.0
  0
MTEXT
  5
2F0
330
E3
100
AcDbEntity
  8
0
  6
Continuous
100
AcDbMText
 10
212.7817224648872
 20
64.96167537470714
 30
0.0
 40
2.5
 41
38.07069312393557
 71
     7
 72
     1
  1
{MAX ROOF LENGTH ABOVE PENETRATION}
  7
GENERATED_STYLE_1
 73
     1
 44
1.070162922071087
  0
MTEXT
  5
2F1
330
E3
100
AcDbEntity
  8
0
  6
Continuous
100
AcDbMText
 10
178.1517637178269
 20
58.18912790144014
 30
0.0
 40
2.5
 41
0.0
 71
     7
 72
     1
  1
{0-400MM}
  7
GENERATED_STYLE_1
 73
     1
 44
1.0
  0
MTEXT
  5
2F2
330
E3
100
AcDbEntity
  8
0
  6
Continuous
100
AcDbMText
 10
230.1545470884013
 20
51.36929179488465
 30
0.0
 40
2.5
 41
0.0
 71
     8
 72
     1
  1
{8M}
  7
GENERATED_STYLE_1
 73
     1
 44
1.0
  0
MTEXT
  5
2F3
330
E3
100
AcDbEntity
  8
0
  6
Continuous
100
AcDbMText
 10
178.1517637178269
 20
51.36929179488465
 30
0.0
 40
2.5
 41
0.0
 71
     7
 72
     1
  1
{400-600MM}
  7
GENERATED_STYLE_1
 73
     1
 44
1.0
  0
MTEXT
  5
2F4
330
E3
100
AcDbEntity
  8
0
  6
Continuous
100
AcDbMText
 10
230.1545470884013
 20
44.5494563493485
 30
0.0
 40
2.5
 41
0.0
 71
     8
 72
     1
  1
{6M}
  7
GENERATED_STYLE_1
 73
     1
 44
1.0
  0
MTEXT
  5
2F5
330
E3
100
AcDbEntity
  8
0
  6
Continuous
100
AcDbMText
 10
178.1517637178269
 20
44.5494563493485
 30
0.0
 40
2.5
 41
0.0
 71
     7
 72
     1
  1
{600-800MM}
  7
GENERATED_STYLE_1
 73
     1
 44
1.0
  0
MTEXT
  5
2F6
330
E3
100
AcDbEntity
  8
0
  6
Continuous
100
AcDbMText
 10
230.1545470884013
 20
37.79315031557706
 30
0.0
 40
2.5
 41
0.0
 71
     8
 72
     1
  1
{4M}
  7
GENERATED_STYLE_1
 73
     1
 44
1.0
  0
MTEXT
  5
2F7
330
E3
100
AcDbEntity
  8
0
  6
Continuous
100
AcDbMText
 10
178.1517637178269
 20
37.77979552779401
 30
0.0
 40
2.5
 41
0.0
 71
     7
 72
     1
  1
{800-1200MM}
  7
GENERATED_STYLE_1
 73
     1
 44
1.0
  0
HATCH
  5
2F8
330
E3
100
AcDbEntity
  8
0
  6
Continuous
 62
   255
370
    18
100
AcDbHatch
 10
0.0
 20
0.0
 30
0.0
210
0.0
220
0.0
230
1.0
  2
SOLID
 70
     1
 71
     0
 91
        1
 92
        3
 72
     0
 73
     1
 93
        4
 10
155.1880333997692
 20
122.9201229071582
 10
155.2044101615297
 20
124.2985521190913
 10
130.5222655264882
 20
114.9477128863921
 10
130.705334656987
 20
104.6102691678443
 97
        0
 75
     0
 76
     1
 98
        0
  0
LINE
  5
2F9
330
E3
100
AcDbEntity
  8
0
  6
Continuous
100
AcDbLine
 10
155.1880340242999
 20
122.9201216358904
 30
0.0
 11
155.2044102055199
 21
124.2985514303675
 31
0.0
  0
LINE
  5
2FA
330
E3
100
AcDbEntity
  8
0
  6
Continuous
100
AcDbLine
 10
155.2044102055199
 20
124.2985514303675
 30
0.0
 11
130.5222664363009
 21
114.9477127762536
 31
0.0
  0
LINE
  5
2FB
330
E3
100
AcDbEntity
  8
0
  6
Continuous
100
AcDbLine
 10
130.5222664363009
 20
114.9477127762536
 30
0.0
 11
130.7053362101711
 21
104.6102679698324
 31
0.0
  0
LINE
  5
2FC
330
E3
100
AcDbEntity
  8
0
  6
Continuous
100
AcDbLine
 10
130.7053362101711
 20
104.6102679698324
 30
0.0
 11
155.1880340242999
 21
122.9201216358904
 31
0.0
  0
HATCH
  5
2FD
330
E3
100
AcDbEntity
  8
0
  6
Continuous
 62
   255
370
    18
100
AcDbHatch
 10
0.0
 20
0.0
 30
0.0
210
0.0
220
0.0
230
1.0
  2
SOLID
 70
     1
 71
     0
 91
        1
 92
        3
 72
     0
 73
     1
 93
        4
 10
130.705334656987
 20
104.6102691678443
 10
130.5222655264882
 20
114.9477128863921
 10
114.2711789804371
 20
126.2780993274683
 10
114.6154007701938
 20
116.9186801767593
 97
        0
 75
     0
 76
     1
 98
        0
  0
LINE
  5
2FE
330
E3
100
AcDbEntity
  8
0
  6
Continuous
100
AcDbLine
 10
130.5222664363009
 20
114.9477127762536
 30
0.0
 11
130.7053362101711
 21
104.6102679698324
 31
0.0
  0
LINE
  5
2FF
330
E3
100
AcDbEntity
  8
0
  6
Continuous
100
AcDbLine
 10
114.2711788684921
 20
126.2781006902748
 30
0.0
 11
130.5222664363009
 21
114.9477127762536
 31
0.0
  0
LINE
  5
300
330
E3
100
AcDbEntity
  8
0
  6
Continuous
100
AcDbLine
 10
114.6154018882162
 20
116.9186789060916
 30
0.0
 11
114.2711788684921
 21
126.2781006902748
 31
0.0
  0
LINE
  5
301
330
E3
100
AcDbEntity
  8
0
  6
Continuous
100
AcDbLine
 10
130.7053362101711
 20
104.6102679698324
 30
0.0
 11
114.6154018882162
 21
116.9186789060916
 31
0.0
  0
HATCH
  5
302
330
E3
100
AcDbEntity
  8
0
  6
Continuous
 62
   255
370
    18
100
AcDbHatch
 10
0.0
 20
0.0
 30
0.0
210
0.0
220
0.0
230
1.0
  2
SOLID
 70
     1
 71
     0
 91
        1
 92
        3
 72
     0
 73
     1
 93
        4
 10
125.1982913883458
 20
93.70888682157685
 10
125.3704989859261
 20
91.80537525749087
 10
199.9585449058869
 20
149.0121580595146
 10
199.3158340978582
 20
150.4596669397224
 97
        0
 75
     0
 76
     1
 98
        0
  0
LINE
  5
303
330
E3
100
AcDbEntity
  8
0
  6
Continuous
100
AcDbLine
 10
125.198290260814
 20
93.7088863789849
 30
0.0
 11
125.3704980819491
 21
91.80537405301205
 31
0.0
  0
LINE
  5
304
330
E3
100
AcDbEntity
  8
0
  6
Continuous
100
AcDbLine
 10
125.3704980819491
 20
91.80537405301205
 30
0.0
 11
199.9585448121901
 21
149.0121579704034
 31
0.0
  0
LINE
  5
305
330
E3
100
AcDbEntity
  8
0
  6
Continuous
100
AcDbLine
 10
199.9585448121901
 20
149.0121579704034
 30
0.0
 11
199.3158352007149
 21
150.4596674336276
 31
0.0
  0
LINE
  5
306
330
E3
100
AcDbEntity
  8
0
  6
Continuous
100
AcDbLine
 10
199.3158352007149
 20
150.4596674336276
 30
0.0
 11
125.198290260814
 21
93.7088863789849
 31
0.0
  0
HATCH
  5
307
330
E3
100
AcDbEntity
  8
0
  6
Continuous
 62
   255
370
    18
100
AcDbHatch
 10
0.0
 20
0.0
 30
0.0
210
0.0
220
0.0
230
1.0
  2
SOLID
 70
     1
 71
     0
 91
        1
 92
        3
 72
     0
 73
     1
 93
        5
 10
211.7070068835936
 20
150.5217680229844
 10
212.3779738387793
 20
151.1158153592681
 10
212.8847611877951
 20
150.9613281407294
 10
212.861807442337
 20
152.3166071789826
 10
211.7070068835936
 20
151.8592636265377
 97
        0
 75
     0
 76
     1
 98
        0
  0
LINE
  5
308
330
E3
100
AcDbEntity
  8
0
  6
Continuous
 62
   255
370
    18
100
AcDbLine
 10
212.3779748956557
 20
151.1158149162953
 30
0.0
 11
211.7070052712936
 21
150.5217669836648
 31
0.0
  0
LINE
  5
309
330
E3
100
AcDbEntity
  8
0
  6
Continuous
 62
   255
370
    18
100
AcDbLine
 10
212.8847615500468
 20
150.9613283694151
 30
0.0
 11
212.3779748956557
 21
151.1158149162953
 31
0.0
  0
LINE
  5
30A
330
E3
100
AcDbEntity
  8
0
  6
Continuous
 62
   255
370
    18
100
AcDbLine
 10
212.861806819154
 20
152.3166075456642
 30
0.0
 11
212.8847615500468
 21
150.9613283694151
 31
0.0
  0
LINE
  5
30B
330
E3
100
AcDbEntity
  8
0
  6
Continuous
 62
   255
370
    18
100
AcDbLine
 10
211.7070052712936
 20
151.8592628546696
 30
0.0
 11
212.861806819154
 21
152.3166075456642
 31
0.0
  0
LINE
  5
30C
330
E3
100
AcDbEntity
  8
0
  6
Continuous
 62
   255
370
    18
100
AcDbLine
 10
211.7070052712936
 20
150.5217669836648
 30
0.0
 11
211.7070052712936
 21
151.8592628546696
 31
0.0
  0
HATCH
  5
30D
330
E3
100
AcDbEntity
  8
0
  6
Continuous
 62
   255
370
    18
100
AcDbHatch
 10
0.0
 20
0.0
 30
0.0
210
0.0
220
0.0
230
1.0
  2
SOLID
 70
     1
 71
     0
 91
        1
 92
        3
 72
     0
 73
     1
 93
        4
 10
211.7070068835936
 20
150.5217680229844
 10
211.7070068835936
 20
151.8592636265377
 10
149.8470458577917
 20
178.3025498474758
 10
149.9129975772506
 20
177.270843967277
 97
        0
 75
     0
 76
     1
 98
        0
  0
LINE
  5
30E
330
E3
100
AcDbEntity
  8
0
  6
Continuous
100
AcDbLine
 10
211.7070052712936
 20
151.8592628546696
 30
0.0
 11
211.7070052712936
 21
150.5217669836648
 31
0.0
  0
LINE
  5
30F
330
E3
100
AcDbEntity
  8
0
  6
Continuous
100
AcDbLine
 10
149.8470450337536
 20
178.3025512994503
 30
0.0
 11
211.7070052712936
 21
151.8592628546696
 31
0.0
  0
LINE
  5
310
330
E3
100
AcDbEntity
  8
0
  6
Continuous
100
AcDbLine
 10
149.9129970347157
 20
177.2708453530095
 30
0.0
 11
149.8470450337536
 21
178.3025512994503
 31
0.0
  0
LINE
  5
311
330
E3
100
AcDbEntity
  8
0
  6
Continuous
100
AcDbLine
 10
211.7070052712936
 20
150.5217669836648
 30
0.0
 11
149.9129970347157
 21
177.2708453530095
 31
0.0
  0
HATCH
  5
312
330
E3
100
AcDbEntity
  8
0
  6
Continuous
 62
   255
370
    18
100
AcDbHatch
 10
0.0
 20
0.0
 30
0.0
210
0.0
220
0.0
230
1.0
  2
SOLID
 70
     1
 71
     0
 91
        1
 92
        3
 72
     0
 73
     1
 93
        4
 10
149.8470458577917
 20
178.3025498474758
 10
211.7070068835936
 20
151.8592636265377
 10
212.861807442337
 20
152.3166071789826
 10
150.8960354252337
 20
178.5854600884661
 97
        0
 75
     0
 76
     1
 98
        0
  0
LINE
  5
313
330
E3
100
AcDbEntity
  8
0
  6
Continuous
100
AcDbLine
 10
149.8470450337536
 20
178.3025512994503
 30
0.0
 11
211.7070052712936
 21
151.8592628546696
 31
0.0
  0
LINE
  5
314
330
E3
100
AcDbEntity
  8
0
  6
Continuous
100
AcDbLine
 10
211.7070052712936
 20
151.8592628546696
 30
0.0
 11
212.861806819154
 21
152.3166075456642
 31
0.0
  0
LINE
  5
315
330
E3
100
AcDbEntity
  8
0
  6
Continuous
100
AcDbLine
 10
212.861806819154
 20
152.3166075456642
 30
0.0
 11
150.8960347727341
 21
178.5854615832667
 31
0.0
  0
LINE
  5
316
330
E3
100
AcDbEntity
  8
0
  6
Continuous
100
AcDbLine
 10
150.8960347727341
 20
178.5854615832667
 30
0.0
 11
149.8470450337536
 21
178.3025512994503
 31
0.0
  0
HATCH
  5
317
330
E3
100
AcDbEntity
  8
0
  6
Continuous
 62
   255
370
    18
100
AcDbHatch
 10
0.0
 20
0.0
 30
0.0
210
0.0
220
0.0
230
1.0
  2
SOLID
 70
     1
 71
     0
 91
        1
 92
        3
 72
     0
 73
     1
 93
        5
 10
212.377764608666
 20
148.9657892752718
 10
125.3486375639616
 20
80.89795490365789
 10
126.9064338883713
 20
73.57624747614634
 10
158.5905364503041
 20
98.74689341384905
 10
217.9844290576903
 20
144.2306922135568
 97
        0
 75
     0
 76
     1
 98
        0
  0
LINE
  5
318
330
E3
100
AcDbEntity
  8
0
  6
Continuous
 62
   255
370
    18
100
AcDbLine
 10
212.3777659491649
 20
148.9657881733802
 30
0.0
 11
125.3486370553444
 21
80.89795586745245
 31
0.0
  0
LINE
  5
319
330
E3
100
AcDbEntity
  8
0
  6
Continuous
 62
   255
370
    18
100
AcDbLine
 10
125.3486370553444
 20
80.89795586745245
 30
0.0
 11
126.906434353057
 21
73.57624882256574
 31
0.0
  0
LINE
  5
31A
330
E3
100
AcDbEntity
  8
0
  6
Continuous
 62
   255
370
    18
100
AcDbLine
 10
126.906434353057
 20
73.57624882256574
 30
0.0
 11
158.590535005179
 21
98.74689316343787
 31
0.0
  0
LINE
  5
31B
330
E3
100
AcDbEntity
  8
0
  6
Continuous
 62
   255
370
    18
100
AcDbLine
 10
158.590535005179
 20
98.74689316343787
 30
0.0
 11
217.9844304028217
 21
144.2306917696644
 31
0.0
  0
LINE
  5
31C
330
E3
100
AcDbEntity
  8
0
  6
Continuous
 62
   255
370
    18
100
AcDbLine
 10
217.9844304028217
 20
144.2306917696644
 30
0.0
 11
212.3777659491649
 21
148.9657881733802
 31
0.0
  0
HATCH
  5
31D
330
E3
100
AcDbEntity
  8
0
  6
Continuous
 62
   255
370
    18
100
AcDbHatch
 10
0.0
 20
0.0
 30
0.0
210
0.0
220
0.0
230
1.0
  2
SOLID
 70
     1
 71
     0
 91
        1
 92
        3
 72
     0
 73
     1
 93
       29
 10
98.9020145419121
 20
114.5686730210343
 10
99.94694370600325
 20
113.7312512614061
 10
100.6289054017478
 20
111.667096128089
 10
101.826967792048
 20
110.8245087948133
 10
102.7269959414895
 20
111.4671278756784
 10
103.7730718850625
 20
110.668075505901
 10
104.4308694864491
 20
108.5314950046853
 10
105.6120249542837
 20
107.5631623285996
 10
106.6909339059577
 20
108.3426673930361
 10
107.6358010011982
 20
107.5421164275177
 10
108.3716090842168
 20
105.2912553692537
 10
109.7438994317787
 20
104.3406923996408
 10
110.6831047042898
 20
105.0276163246729
 10
111.7886860503172
 20
104.1956731791618
 10
112.5736041874464
 20
102.0258958090557
 10
113.9381757445457
 20
100.9406059808023
 10
114.8259976996937
 20
101.5982261113464
 10
115.9504986680851
 20
100.7682373013432
 10
116.6495601610148
 20
98.43763492284302
 10
118.1012087508117
 20
97.27787688870136
 10
119.1538654799611
 20
98.06789079306854
 10
120.3380172971788
 20
97.1517691446917
 10
120.9943441204824
 20
94.80463589102914
 10
122.5531654918974
 20
93.57695331290428
 10
123.704248743876
 20
94.45266764493827
 10
124.7607219854417
 20
93.51771304250336
 10
125.3704989859261
 20
91.80537525749087
 10
125.1982913883458
 20
93.70888682157685
 10
99.0904184906411
 20
114.7982568074967
 97
        0
 75
     0
 76
     1
 98
        0
  0
LINE
  5
31E
330
E3
100
AcDbEntity
  8
0
  6
Continuous
100
AcDbLine
 10
98.90201526107688
 20
114.5686740474924
 30
0.0
 11
99.94694360264153
 21
113.7312524248602
 31
0.0
  0
LINE
  5
31F
330
E3
100
AcDbEntity
  8
0
  6
Continuous
100
AcDbLine
 10
99.94694360264153
 20
113.7312524248602
 30
0.0
 11
100.6289057712955
 21
111.6670961601049
 31
0.0
  0
LINE
  5
320
330
E3
100
AcDbEntity
  8
0
  6
Continuous
100
AcDbLine
 10
100.6289057712955
 20
111.6670961601049
 30
0.0
 11
101.8269690371277
 21
110.8245096414021
 31
0.0
  0
LINE
  5
321
330
E3
100
AcDbEntity
  8
0
  6
Continuous
100
AcDbLine
 10
101.8269690371277
 20
110.8245096414021
 30
0.0
 11
102.7269962520797
 21
111.4671278387875
 31
0.0
  0
LINE
  5
322
330
E3
100
AcDbEntity
  8
0
  6
Continuous
100
AcDbLine
 10
102.7269962520797
 20
111.4671278387875
 30
0.0
 11
103.7730705345551
 21
110.6680740155369
 31
0.0
  0
LINE
  5
323
330
E3
100
AcDbEntity
  8
0
  6
Continuous
100
AcDbLine
 10
103.7730705345551
 20
110.6680740155369
 30
0.0
 11
104.430870000416
 21
108.5314949381811
 31
0.0
  0
LINE
  5
324
330
E3
100
AcDbEntity
  8
0
  6
Continuous
100
AcDbLine
 10
104.430870000416
 20
108.5314949381811
 30
0.0
 11
105.6120249244344
 21
107.5631618094561
 31
0.0
  0
LINE
  5
325
330
E3
100
AcDbEntity
  8
0
  6
Continuous
100
AcDbLine
 10
105.6120249244344
 20
107.5631618094561
 30
0.0
 11
106.6909331890728
 21
108.342666076657
 31
0.0
  0
LINE
  5
326
330
E3
100
AcDbEntity
  8
0
  6
Continuous
100
AcDbLine
 10
106.6909331890728
 20
108.342666076657
 30
0.0
 11
107.6358022798337
 21
107.5421169800812
 31
0.0
  0
LINE
  5
327
330
E3
100
AcDbEntity
  8
0
  6
Continuous
100
AcDbLine
 10
107.6358022798337
 20
107.5421169800812
 30
0.0
 11
108.3716106121364
 21
105.2912539665995
 31
0.0
  0
LINE
  5
328
330
E3
100
AcDbEntity
  8
0
  6
Continuous
100
AcDbLine
 10
108.3716106121364
 20
105.2912539665995
 30
0.0
 11
109.743899338656
 21
104.3406910839631
 31
0.0
  0
LINE
  5
329
330
E3
100
AcDbEntity
  8
0
  6
Continuous
100
AcDbLine
 10
109.743899338656
 20
104.3406910839631
 30
0.0
 11
110.6831040206416
 21
105.0276157317747
 31
0.0
  0
LINE
  5
32A
330
E3
100
AcDbEntity
  8
0
  6
Continuous
100
AcDbLine
 10
110.6831040206416
 20
105.0276157317747
 30
0.0
 11
111.7886856107521
 21
104.1956724249493
 31
0.0
  0
LINE
  5
32B
330
E3
100
AcDbEntity
  8
0
  6
Continuous
100
AcDbLine
 10
111.7886856107521
 20
104.1956724249493
 30
0.0
 11
112.5736028979814
 21
102.0258969738604
 31
0.0
  0
LINE
  5
32C
330
E3
100
AcDbEntity
  8
0
  6
Continuous
100
AcDbLine
 10
112.5736028979814
 20
102.0258969738604
 30
0.0
 11
113.9381769282843
 21
100.9406060468843
 31
0.0
  0
LINE
  5
32D
330
E3
100
AcDbEntity
  8
0
  6
Continuous
100
AcDbLine
 10
113.9381769282843
 20
100.9406060468843
 30
0.0
 11
114.8259970974664
 21
101.5982259493548
 31
0.0
  0
LINE
  5
32E
330
E3
100
AcDbEntity
  8
0
  6
Continuous
100
AcDbLine
 10
114.8259970974664
 20
101.5982259493548
 30
0.0
 11
115.9504981393652
 21
100.7682382510922
 31
0.0
  0
LINE
  5
32F
330
E3
100
AcDbEntity
  8
0
  6
Continuous
100
AcDbLine
 10
115.9504981393652
 20
100.7682382510922
 30
0.0
 11
116.6495612723793
 21
98.43763603304136
 31
0.0
  0
LINE
  5
330
330
E3
100
AcDbEntity
  8
0
  6
Continuous
100
AcDbLine
 10
116.6495612723793
 20
98.43763603304136
 30
0.0
 11
118.1012072231645
 21
97.27787527081229
 31
0.0
  0
LINE
  5
331
330
E3
100
AcDbEntity
  8
0
  6
Continuous
100
AcDbLine
 10
118.1012072231645
 20
97.27787527081229
 30
0.0
 11
119.1538665848904
 21
98.06789215833386
 31
0.0
  0
LINE
  5
332
330
E3
100
AcDbEntity
  8
0
  6
Continuous
100
AcDbLine
 10
119.1538665848904
 20
98.06789215833386
 30
0.0
 11
120.3380185851368
 21
97.15176953400896
 31
0.0
  0
LINE
  5
333
330
E3
100
AcDbEntity
  8
0
  6
Continuous
100
AcDbLine
 10
120.3380185851368
 20
97.15176953400896
 30
0.0
 11
120.9943456311951
 21
94.80463442486999
 31
0.0
  0
LINE
  5
334
330
E3
100
AcDbEntity
  8
0
  6
Continuous
100
AcDbLine
 10
120.9943456311951
 20
94.80463442486999
 30
0.0
 11
122.5531648078395
 21
93.57695299396033
 31
0.0
  0
LINE
  5
335
330
E3
100
AcDbEntity
  8
0
  6
Continuous
100
AcDbLine
 10
122.5531648078395
 20
93.57695299396033
 30
0.0
 11
123.7042477611207
 21
94.452667325829
 31
0.0
  0
LINE
  5
336
330
E3
100
AcDbEntity
  8
0
  6
Continuous
100
AcDbLine
 10
123.7042477611207
 20
94.452667325829
 30
0.0
 11
124.7607203963045
 21
93.5177133990166
 31
0.0
  0
LINE
  5
337
330
E3
100
AcDbEntity
  8
0
  6
Continuous
100
AcDbLine
 10
124.7607203963045
 20
93.5177133990166
 30
0.0
 11
125.3704980819491
 21
91.80537405301205
 31
0.0
  0
LINE
  5
338
330
E3
100
AcDbEntity
  8
0
  6
Continuous
100
AcDbLine
 10
125.3704980819491
 20
91.80537405301205
 30
0.0
 11
125.198290260814
 21
93.7088863789849
 31
0.0
  0
LINE
  5
339
330
E3
100
AcDbEntity
  8
0
  6
Continuous
100
AcDbLine
 10
125.198290260814
 20
93.7088863789849
 30
0.0
 11
99.09041970004148
 21
114.7982572690982
 31
0.0
  0
LINE
  5
33A
330
E3
100
AcDbEntity
  8
0
  6
Continuous
100
AcDbLine
 10
99.09041970004148
 20
114.7982572690982
 30
0.0
 11
98.90201526107688
 21
114.5686740474924
 31
0.0
  0
HATCH
  5
33B
330
E3
100
AcDbEntity
  8
0
  6
Continuous
 62
   255
370
    18
100
AcDbHatch
 10
0.0
 20
0.0
 30
0.0
210
0.0
220
0.0
230
1.0
  2
SOLID
 70
     1
 71
     0
 91
        1
 92
        3
 72
     0
 73
     1
 93
       24
 10
145.8490828721959
 20
174.3304416575011
 10
146.3810486473805
 20
172.7600091136427
 10
147.1962808813373
 20
172.216295785678
 10
148.1733597873789
 20
172.8710296502976
 10
149.1405070685022
 20
172.4195682440543
 10
150.1729189239166
 20
171.0552894006422
 10
151.0992356080703
 20
170.5123989827901
 10
151.9655815754031
 20
171.0986307946527
 10
153.0679425992189
 20
170.6684512057253
 10
154.049000807133
 20
169.1652258353781
 10
155.0531934246919
 20
168.7176894381616
 10
155.8329196467265
 20
169.250649104346
 10
156.8951669214555
 20
168.6994248452804
 10
157.8437723406401
 20
167.2297580429399
 10
158.9918112509931
 20
166.7795028110316
 10
159.9438374203503
 20
167.4370289451635
 10
161.0553727006001
 20
166.8845939066942
 10
162.0816082938486
 20
165.4395842635213
 10
163.2512377156829
 20
164.923591828639
 10
164.1471790327665
 20
165.5490528384362
 10
165.2173210773266
 20
164.9999213043137
 10
166.1553311302402
 20
163.3932769019425
 10
167.2549253690886
 20
162.9385479460917
 10
168.8131713910404
 20
164.0398009711845
 97
        0
 75
     0
 76
     1
 98
        0
  0
LINE
  5
33C
330
E3
100
AcDbEntity
  8
0
  6
Continuous
100
AcDbLine
 10
145.8490824666417
 20
174.3304425957917
 30
0.0
 11
146.3810471731797
 21
172.7600105649607
 31
0.0
  0
LINE
  5
33D
330
E3
100
AcDbEntity
  8
0
  6
Continuous
100
AcDbLine
 10
146.3810471731797
 20
172.7600105649607
 30
0.0
 11
147.1962812903153
 21
172.2162958831016
 31
0.0
  0
LINE
  5
33E
330
E3
100
AcDbEntity
  8
0
  6
Continuous
100
AcDbLine
 10
147.1962812903153
 20
172.2162958831016
 30
0.0
 11
148.1733607885555
 21
172.8710297121672
 31
0.0
  0
LINE
  5
33F
330
E3
100
AcDbEntity
  8
0
  6
Continuous
100
AcDbLine
 10
148.1733607885555
 20
172.8710297121672
 30
0.0
 11
149.1405055341139
 21
172.4195681708055
 31
0.0
  0
LINE
  5
340
330
E3
100
AcDbEntity
  8
0
  6
Continuous
100
AcDbLine
 10
149.1405055341139
 20
172.4195681708055
 30
0.0
 11
150.1729199397502
 21
171.0552879715053
 31
0.0
  0
LINE
  5
341
330
E3
100
AcDbEntity
  8
0
  6
Continuous
100
AcDbLine
 10
150.1729199397502
 20
171.0552879715053
 30
0.0
 11
151.0992352350817
 21
170.5123992812428
 31
0.0
  0
LINE
  5
342
330
E3
100
AcDbEntity
  8
0
  6
Continuous
100
AcDbLine
 10
151.0992352350817
 20
170.5123992812428
 30
0.0
 11
151.9655828875404
 21
171.0986313092001
 31
0.0
  0
LINE
  5
343
330
E3
100
AcDbEntity
  8
0
  6
Continuous
100
AcDbLine
 10
151.9655828875404
 20
171.0986313092001
 30
0.0
 11
153.0679421309874
 21
170.6684496620155
 31
0.0
  0
LINE
  5
344
330
E3
100
AcDbEntity
  8
0
  6
Continuous
100
AcDbLine
 10
153.0679421309874
 20
170.6684496620155
 30
0.0
 11
154.0490014069205
 21
169.1652265758806
 31
0.0
  0
LINE
  5
345
330
E3
100
AcDbEntity
  8
0
  6
Continuous
100
AcDbLine
 10
154.0490014069205
 20
169.1652265758806
 30
0.0
 11
155.053194977137
 21
168.7176893108001
 31
0.0
  0
LINE
  5
346
330
E3
100
AcDbEntity
  8
0
  6
Continuous
100
AcDbLine
 10
155.053194977137
 20
168.7176893108001
 30
0.0
 11
155.8329212499844
 21
169.2506497779585
 31
0.0
  0
LINE
  5
347
330
E3
100
AcDbEntity
  8
0
  6
Continuous
100
AcDbLine
 10
155.8329212499844
 20
169.2506497779585
 30
0.0
 11
156.8951660319779
 21
168.6994260815846
 31
0.0
  0
LINE
  5
348
330
E3
100
AcDbEntity
  8
0
  6
Continuous
100
AcDbLine
 10
156.8951660319779
 20
168.6994260815846
 30
0.0
 11
157.8437733060515
 21
167.229758495964
 31
0.0
  0
LINE
  5
349
330
E3
100
AcDbEntity
  8
0
  6
Continuous
100
AcDbLine
 10
157.8437733060515
 20
167.229758495964
 30
0.0
 11
158.9918102112707
 21
166.7795016617135
 31
0.0
  0
LINE
  5
34A
330
E3
100
AcDbEntity
  8
0
  6
Continuous
100
AcDbLine
 10
158.9918102112707
 20
166.7795016617135
 30
0.0
 11
159.943838984132
 21
167.4370301500942
 31
0.0
  0
LINE
  5
34B
330
E3
100
AcDbEntity
  8
0
  6
Continuous
100
AcDbLine
 10
159.943838984132
 20
167.4370301500942
 30
0.0
 11
161.0553722844426
 21
166.8845952170312
 31
0.0
  0
LINE
  5
34C
330
E3
100
AcDbEntity
  8
0
  6
Continuous
100
AcDbLine
 10
161.0553722844426
 20
166.8845952170312
 30
0.0
 11
162.0816097094433
 21
165.4395833173305
 31
0.0
  0
LINE
  5
34D
330
E3
100
AcDbEntity
  8
0
  6
Continuous
100
AcDbLine
 10
162.0816097094433
 20
165.4395833173305
 30
0.0
 11
163.251236663787
 21
164.9235932229754
 31
0.0
  0
LINE
  5
34E
330
E3
100
AcDbEntity
  8
0
  6
Continuous
100
AcDbLine
 10
163.251236663787
 20
164.9235932229754
 30
0.0
 11
164.1471796278007
 21
165.5490516898002
 31
0.0
  0
LINE
  5
34F
330
E3
100
AcDbEntity
  8
0
  6
Continuous
100
AcDbLine
 10
164.1471796278007
 20
165.5490516898002
 30
0.0
 11
165.2173219341904
 21
164.9999207231236
 31
0.0
  0
LINE
  5
350
330
E3
100
AcDbEntity
  8
0
  6
Continuous
100
AcDbLine
 10
165.2173219341904
 20
164.9999207231236
 30
0.0
 11
166.1553317034314
 21
163.3932756535979
 31
0.0
  0
LINE
  5
351
330
E3
100
AcDbEntity
  8
0
  6
Continuous
100
AcDbLine
 10
166.1553317034314
 20
163.3932756535979
 30
0.0
 11
167.2549256706636
 21
162.9385493233167
 31
0.0
  0
LINE
  5
352
330
E3
100
AcDbEntity
  8
0
  6
Continuous
100
AcDbLine
 10
167.2549256706636
 20
162.9385493233167
 30
0.0
 11
168.8131702444582
 21
164.03980180332
 31
0.0
  0
LINE
  5
353
330
E3
100
AcDbEntity
  8
0
  6
Continuous
100
AcDbLine
 10
168.8131702444582
 20
164.03980180332
 30
0.0
 11
145.8490824666417
 21
174.3304425957917
 31
0.0
  0
HATCH
  5
354
330
E3
100
AcDbEntity
  8
0
  6
Continuous
 62
   255
370
    18
100
AcDbHatch
 10
0.0
 20
0.0
 30
0.0
210
0.0
220
0.0
230
1.0
  2
SOLID
 70
     1
 71
     0
 91
        1
 92
        3
 72
     0
 73
     1
 93
        9
 10
199.3158340978582
 20
150.4596669397224
 10
199.9585449058869
 20
149.0121580595146
 10
200.1861647689323
 20
148.3042187469738
 10
201.9510449671136
 20
147.4314619250958
 10
202.7841387099243
 20
148.0742660547218
 10
204.2589241003562
 20
147.513535543318
 10
205.3396264854964
 20
145.6591262880924
 10
206.7848996438171
 20
145.0584383105298
 10
207.1659599573947
 20
146.9081874041643
 97
        0
 75
     0
 76
     1
 98
        0
  0
LINE
  5
355
330
E3
100
AcDbEntity
  8
0
  6
Continuous
100
AcDbLine
 10
199.3158352007149
 20
150.4596674336276
 30
0.0
 11
199.9585448121901
 21
149.0121579704034
 31
0.0
  0
LINE
  5
356
330
E3
100
AcDbEntity
  8
0
  6
Continuous
100
AcDbLine
 10
199.9585448121901
 20
149.0121579704034
 30
0.0
 11
200.1861658956554
 21
148.3042178763173
 31
0.0
  0
LINE
  5
357
330
E3
100
AcDbEntity
  8
0
  6
Continuous
100
AcDbLine
 10
200.1861658956554
 20
148.3042178763173
 30
0.0
 11
201.9510454897409
 21
147.4314614432096
 31
0.0
  0
LINE
  5
358
330
E3
100
AcDbEntity
  8
0
  6
Continuous
100
AcDbLine
 10
201.9510454897409
 20
147.4314614432096
 30
0.0
 11
202.7841380022659
 21
148.0742657335635
 31
0.0
  0
LINE
  5
359
330
E3
100
AcDbEntity
  8
0
  6
Continuous
100
AcDbLine
 10
202.7841380022659
 20
148.0742657335635
 30
0.0
 11
204.2589247769122
 21
147.5135349718561
 31
0.0
  0
LINE
  5
35A
330
E3
100
AcDbEntity
  8
0
  6
Continuous
100
AcDbLine
 10
204.2589247769122
 20
147.5135349718561
 30
0.0
 11
205.3396254106675
 21
145.659125071232
 31
0.0
  0
LINE
  5
35B
330
E3
100
AcDbEntity
  8
0
  6
Continuous
100
AcDbLine
 10
205.3396254106675
 20
145.659125071232
 30
0.0
 11
206.7848984934817
 21
145.0584398227282
 31
0.0
  0
LINE
  5
35C
330
E3
100
AcDbEntity
  8
0
  6
Continuous
100
AcDbLine
 10
206.7848984934817
 20
145.0584398227282
 30
0.0
 11
207.165961391373
 21
146.9081876047753
 31
0.0
  0
LINE
  5
35D
330
E3
100
AcDbEntity
  8
0
  6
Continuous
100
AcDbLine
 10
207.165961391373
 20
146.9081876047753
 30
0.0
 11
199.3158352007149
 21
150.4596674336276
 31
0.0
  0
LINE
  5
35E
330
E3
100
AcDbEntity
  8
0
  6
Contour Line
100
AcDbLine
 10
130.4415380006892
 20
119.5061514515371
 30
0.0
 11
130.4528537590841
 21
118.8672583783088
 31
0.0
  0
LINE
  5
35F
330
E3
100
AcDbEntity
  8
0
  6
Contour Line
100
AcDbLine
 10
114.1136266848165
 20
130.5619379695419
 30
0.0
 11
113.2397732826319
 21
130.752311076225
 31
0.0
  0
LINE
  5
360
330
E3
100
AcDbEntity
  8
0
  6
Contour Line
100
AcDbLine
 10
212.861806819154
 20
152.3166075456642
 30
0.0
 11
212.8847615500468
 21
150.9613283694151
 31
0.0
  0
LINE
  5
361
330
E3
100
AcDbEntity
  8
0
  6
Continuous
100
AcDbLine
 10
148.0732852138071
 20
91.50264323566553
 30
0.0
 11
152.001844898069
 21
91.50264323566553
 31
0.0
  0
LINE
  5
362
330
E3
100
AcDbEntity
  8
0
  6
Continuous
100
AcDbLine
 10
137.6205117388057
 20
99.92164583638514
 30
0.0
 11
151.7413767732849
 21
90.34742379482346
 31
0.0
  0
LINE
  5
363
330
E3
100
AcDbEntity
  8
0
  6
Continuous
100
AcDbLine
 10
127.0173784101183
 20
92.1841026268259
 30
0.0
 11
140.8549511804775
 21
81.30095488209363
 31
0.0
  0
LINE
  5
364
330
E3
100
AcDbEntity
  8
0
  6
Continuous
100
AcDbLine
 10
137.2860700266845
 20
82.56296230370256
 30
0.0
 11
141.2146297109463
 21
82.56296230370256
 31
0.0
  0
LINE
  5
365
330
E3
100
AcDbEntity
  8
0
  6
Contour Line
100
AcDbLine
 10
199.3158352007149
 20
150.4596674336276
 30
0.0
 11
202.4470387519642
 21
153.1702812875376
 31
0.0
  0
MTEXT
  5
366
330
E3
100
AcDbEntity
  8
Doc_ Floor
  6
Continuous
100
AcDbMText
 10
223.2888094264331
 20
173.9963642466295
 30
0.0
 40
2.5
 41
0.0
 71
     4
 72
     1
  1
{ROOF FIXING}
  7
GENERATED_STYLE_1
 73
     1
 44
1.0
  0
LINE
  5
367
330
E3
100
AcDbEntity
  8
Doc_ Floor
  6
Continuous
100
AcDbLine
 10
200.5976468319093
 20
150.6251857022667
 30
0.0
 11
201.6570741010653
 21
154.3408027940452
 31
0.0
  0
LINE
  5
368
330
E3
100
AcDbEntity
  8
Doc_ Floor
  6
Continuous
100
AcDbLine
 10
200.5976468319093
 20
150.6251857022667
 30
0.0
 11
203.3729492134696
 21
153.3132921013659
 31
0.0
  0
LINE
  5
369
330
E3
100
AcDbEntity
  8
Doc_ Floor
  6
Continuous
100
AcDbLine
 10
201.6570741010653
 20
154.3408027940452
 30
0.0
 11
203.3729492134696
 21
153.3132921013659
 31
0.0
  0
LWPOLYLINE
  5
36A
330
E3
100
AcDbEntity
  8
Doc_ Floor
  6
Continuous
100
AcDbPolyline
 90
       13
 70
   128
 43
0.0
 10
202.5150113364478
 20
153.8270474876626
 10
205.7638362258236
 20
159.0182843134168
 10
208.6862427823379
 20
163.3347500483135
 10
211.3344258684033
 20
166.8327274192985
 10
213.7605803464321
 20
169.5684991533174
 10
214.9067077519368
 20
170.6681462586351
 10
216.016901078837
 20
171.5983479773157
 10
217.0976846849343
 20
172.3661396502276
 10
218.1555829280304
 20
172.978556618239
 10
219.1971201659268
 20
173.442634222218
 10
220.228820756425
 20
173.7654078030329
 10
221.2572090573266
 20
173.9539127015518
 10
222.2888094264331
 20
174.0151842586429
  0
MTEXT
  5
36B
330
E3
100
AcDbEntity
  8
Doc_ Floor
  6
Continuous
100
AcDbMText
 10
185.5701856176042
 20
195.5961758276895
 30
0.0
 40
2.5
 41
0.0
 71
     4
 72
     1
  1
{TOP RIDGE}
  7
GENERATED_STYLE_1
 73
     1
 44
1.0
  0
LINE
  5
36C
330
E3
100
AcDbEntity
  8
Doc_ Floor
  6
Continuous
100
AcDbLine
 10
163.9642730933765
 20
171.7646188656712
 30
0.0
 11
164.8629029786709
 21
175.5223680584554
 31
0.0
  0
LINE
  5
36D
330
E3
100
AcDbEntity
  8
Doc_ Floor
  6
Continuous
100
AcDbLine
 10
163.9642730933765
 20
171.7646188656712
 30
0.0
 11
166.6213835864743
 21
174.5696079728762
 31
0.0
  0
LINE
  5
36E
330
E3
100
AcDbEntity
  8
Doc_ Floor
  6
Continuous
100
AcDbLine
 10
164.8629029786709
 20
175.5223680584554
 30
0.0
 11
166.6213835864743
 21
174.5696079728762
 31
0.0
  0
LWPOLYLINE
  5
36F
330
E3
100
AcDbEntity
  8
Doc_ Floor
  6
Continuous
100
AcDbPolyline
 90
       13
 70
   128
 43
0.0
 10
165.7421443908345
 20
175.045987500095
 10
168.7481949171419
 20
180.3350350080603
 10
171.4687434365614
 20
184.7328756862778
 10
173.953320184971
 20
188.2968384545482
 10
176.2514553982489
 20
191.0842522326715
 10
177.3460856279252
 20
192.2046685378657
 10
178.412679312273
 20
193.1524459404483
 10
179.4574277307768
 20
193.9347505553943
 10
180.4865221629215
 20
194.5587484976789
 10
181.5061538881919
 20
195.031605882277
 10
182.5225141860726
 20
195.3604888241636
 10
183.5417943360485
 20
195.5525634383139
 10
184.5701856176042
 20
195.6149958397029
  0
MTEXT
  5
370
330
E3
100
AcDbEntity
  8
Doc_ Floor
  6
Continuous
100
AcDbMText
 10
192.1105084062279
 20
120.8342120843696
 30
0.0
 40
2.5
 41
37.87339787365916
 71
     4
 72
     1
  1
{FLOW OR CRICKET FLASHING}
  7
GENERATED_STYLE_1
 73
     1
 44
1.070162922071087
  0
LINE
  5
371
330
E3
100
AcDbEntity
  8
Doc_ Floor
  6
Continuous
100
AcDbLine
 10
155.0694960682119
 20
134.3039737332567
 30
0.0
 11
158.876341156767
 21
133.6435820249937
 31
0.0
  0
LINE
  5
372
330
E3
100
AcDbEntity
  8
Doc_ Floor
  6
Continuous
100
AcDbLine
 10
155.0694960682119
 20
134.3039737332567
 30
0.0
 11
158.0361248748197
 21
131.8286336280392
 31
0.0
  0
LINE
  5
373
330
E3
100
AcDbEntity
  8
Doc_ Floor
  6
Continuous
100
AcDbLine
 10
158.876341156767
 20
133.6435820249937
 30
0.0
 11
158.0361248748197
 21
131.8286336280392
 31
0.0
  0
LWPOLYLINE
  5
374
330
E3
100
AcDbEntity
  8
Doc_ Floor
  6
Continuous
100
AcDbPolyline
 90
        8
 70
   128
 43
0.0
 10
158.4562335092166
 20
132.7361066058312
 10
170.973633636139
 20
127.1365535620694
 10
175.9201947628889
 20
125.0774534259128
 10
180.1112931777215
 20
123.4676146127928
 10
183.6364013150541
 20
122.2736449221247
 10
186.5849916093044
 20
121.4621521533238
 10
189.0465364948898
 20
120.9997441058053
 10
191.1105084062279
 20
120.8530285789847
  0
MTEXT
  5
375
330
E3
100
AcDbEntity
  8
Doc_ Floor
  6
Continuous
100
AcDbMText
 10
179.8771024807336
 20
108.600802641477
 30
0.0
 40
2.5
 41
0.0
 71
     4
 72
     1
  1
{COVER FLASHING}
  7
GENERATED_STYLE_1
 73
     1
 44
1.0
  0
LINE
  5
376
330
E3
100
AcDbEntity
  8
Doc_ Floor
  6
Continuous
100
AcDbLine
 10
142.8360903925885
 20
122.0705680576334
 30
0.0
 11
146.6429354811437
 21
121.4101730845814
 31
0.0
  0
LINE
  5
377
330
E3
100
AcDbEntity
  8
Doc_ Floor
  6
Continuous
100
AcDbLine
 10
142.8360903925885
 20
122.0705680576334
 30
0.0
 11
145.8027191991964
 21
119.5952279524159
 31
0.0
  0
LINE
  5
378
330
E3
100
AcDbEntity
  8
Doc_ Floor
  6
Continuous
100
AcDbLine
 10
146.6429354811437
 20
121.4101730845814
 30
0.0
 11
145.8027191991964
 21
119.5952279524159
 31
0.0
  0
LWPOLYLINE
  5
379
330
E3
100
AcDbEntity
  8
Doc_ Floor
  6
Continuous
100
AcDbPolyline
 90
        8
 70
   128
 43
0.0
 10
146.2228275837223
 20
120.5027006803369
 10
158.7402277106447
 20
114.9031476365751
 10
163.6867888373947
 20
112.8440475004185
 10
167.8778872522272
 20
111.2342086872985
 10
171.4029953895598
 20
110.0402389966304
 10
174.3515856838101
 20
109.2287462278295
 10
176.8131305693955
 20
108.7663381803111
 10
178.8771024807336
 20
108.6196226534904
  0
MTEXT
  5
37A
330
E3
100
AcDbEntity
  8
Doc_ Floor
  6
Continuous
100
AcDbMText
 10
196.3515291039686
 20
188.4931729465756
 30
0.0
 40
2.5
 41
0.0
 71
     4
 72
     1
  1
{HEM TO EDGE}
  7
GENERATED_STYLE_1
 73
     1
 44
1.0
  0
LINE
  5
37B
330
E3
100
AcDbEntity
  8
Doc_ Floor
  6
Continuous
100
AcDbLine
 10
174.745614925233
 20
164.6616167657106
 30
0.0
 11
175.6442480753164
 21
168.4193626937059
 31
0.0
  0
LINE
  5
37C
330
E3
100
AcDbEntity
  8
Doc_ Floor
  6
Continuous
100
AcDbLine
 10
174.745614925233
 20
164.6616167657106
 30
0.0
 11
177.4027286831197
 21
167.4666058729157
 31
0.0
  0
LINE
  5
37D
330
E3
100
AcDbEntity
  8
Doc_ Floor
  6
Continuous
100
AcDbLine
 10
175.6442480753164
 20
168.4193626937059
 30
0.0
 11
177.4027286831197
 21
167.4666058729157
 31
0.0
  0
LWPOLYLINE
  5
37E
330
E3
100
AcDbEntity
  8
Doc_ Floor
  6
Continuous
100
AcDbPolyline
 90
       13
 70
   128
 43
0.0
 10
176.5234878771988
 20
167.9429846189811
 10
179.5295384035063
 20
173.2320321269463
 10
182.2500869229258
 20
177.629872805164
 10
184.7346636713354
 20
181.1938355734342
 10
187.0327988846132
 20
183.9812493515576
 10
188.1274291142896
 20
185.1016656567518
 10
189.1940227986374
 20
186.0494430593344
 10
190.2387712171412
 20
186.8317476742805
 10
191.2678656492859
 20
187.455745616565
 10
192.2874973745563
 20
187.9286030011631
 10
193.303857672437
 20
188.2574859430497
 10
194.3231378224129
 20
188.4495605572
 10
195.3515291039686
 20
188.511992958589
  0
MTEXT
  5
37F
330
E3
100
AcDbEntity
  8
Doc_ Floor
  6
Continuous
100
AcDbMText
 10
203.2144753129163
 20
182.0950665951384
 30
0.0
 40
2.5
 41
0.0
 71
     4
 72
     1
  1
{SEAL AND FASTEN}
  7
GENERATED_STYLE_1
 73
     1
 44
1.0
  0
LINE
  5
380
330
E3
100
AcDbEntity
  8
Doc_ Floor
  6
Continuous
100
AcDbLine
 10
181.608563625523
 20
158.2635119765633
 30
0.0
 11
182.5071935108174
 21
162.0212579045586
 31
0.0
  0
LINE
  5
381
330
E3
100
AcDbEntity
  8
Doc_ Floor
  6
Continuous
100
AcDbLine
 10
181.608563625523
 20
158.2635119765633
 30
0.0
 11
184.2656741186208
 21
161.0684978189795
 31
0.0
  0
LINE
  5
382
330
E3
100
AcDbEntity
  8
Doc_ Floor
  6
Continuous
100
AcDbLine
 10
182.5071935108174
 20
162.0212579045586
 30
0.0
 11
184.2656741186208
 21
161.0684978189795
 31
0.0
  0
LWPOLYLINE
  5
383
330
E3
100
AcDbEntity
  8
Doc_ Floor
  6
Continuous
100
AcDbPolyline
 90
       13
 70
   128
 43
0.0
 10
183.3864340861466
 20
161.5448782675439
 10
186.392484612454
 20
166.8339257755091
 10
189.1130331318735
 20
171.2317664537267
 10
191.5976098802831
 20
174.795729221997
 10
193.8957450935609
 20
177.5831430001203
 10
194.9903753232373
 20
178.7035593053145
 10
196.0569690075851
 20
179.6513367078971
 10
197.1017174260889
 20
180.4336413228432
 10
198.1308118582336
 20
181.0576392651277
 10
199.150443583504
 20
181.5304966497258
 10
200.1668038813847
 20
181.8593795916125
 10
201.1860840313606
 20
182.0514542057628
 10
202.2144753129163
 20
182.1138866071518
  0
MTEXT
  5
384
330
E3
100
AcDbEntity
  8
Doc_ Floor
  6
Continuous
100
AcDbMText
 10
209.4349520446451
 20
136.2061044045597
 30
0.0
 40
2.5
 41
0.0
 71
     4
 72
     1
  1
{BACK FLASHING}
  7
GENERATED_STYLE_1
 73
     1
 44
1.0
  0
LINE
  5
385
330
E3
100
AcDbEntity
  8
Doc_ Floor
  6
Continuous
100
AcDbLine
 10
170.8373034618498
 20
133.3743348828052
 30
0.0
 11
174.457582187602
 21
134.724076977047
 31
0.0
  0
LINE
  5
386
330
E3
100
AcDbEntity
  8
Doc_ Floor
  6
Continuous
100
AcDbLine
 10
170.8373034618498
 20
133.3743348828052
 30
0.0
 11
174.64742639848
 21
132.7331074854994
 31
0.0
  0
LINE
  5
387
330
E3
100
AcDbEntity
  8
Doc_ Floor
  6
Continuous
100
AcDbLine
 10
174.457582187602
 20
134.724076977047
 30
0.0
 11
174.64742639848
 21
132.7331074854994
 31
0.0
  0
LWPOLYLINE
  5
388
330
E3
100
AcDbEntity
  8
Doc_ Floor
  6
Continuous
100
AcDbPolyline
 90
        5
 70
   128
 43
0.0
 10
174.5525033126299
 20
133.7285909249449
 10
187.3566922878995
 20
134.9046647700981
 10
196.7798470983359
 20
135.6754436592802
 10
203.559942198923
 20
136.0968795542016
 10
208.4349520446451
 20
136.2249244165731
  0
ENDBLK
  5
E5
330
E3
100
AcDbEntity
  8
0
100
AcDbBlockEnd
  0
BLOCK
  5
391
330
390
100
AcDbEntity
  8
0
100
AcDbBlockBegin
  2
R-TRS9-18 CHIMNEY PENETRATION D_STORY_MARKER
 70
     0
 10
0.0
 20
0.0
 30
0.0
  3
R-TRS9-18 CHIMNEY PENETRATION D_STORY_MARKER
  1

  0
ENDBLK
  5
392
330
390
100
AcDbEntity
  8
0
100
AcDbBlockEnd
  0
ENDSEC
  0
SECTION
  2
ENTITIES
  0
HATCH
  5
3F
330
1F
100
AcDbEntity
  8
Doc_ Finishes
  6
Continuous
100
AcDbHatch
 10
0.0
 20
0.0
 30
0.0
210
0.0
220
0.0
230
1.0
  2
SOLID
 70
     1
 71
     0
 91
        1
 92
        3
 72
     0
 73
     1
 93
       54
 10
27.4117749414874
 20
16.87044408857867
 10
26.89356552397386
 20
16.5825499677378
 10
26.5480925789648
 20
16.29465584689693
 10
26.12584786839819
 20
16.02595466744544
 10
25.76118198199976
 20
15.60370995687884
 10
25.39651609560134
 20
15.33500877742737
 10
25.07023609198168
 20
14.89357112547136
 10
24.49444785029994
 20
14.45213347351537
 10
23.93785255000758
 20
14.02988876294876
 10
23.43883607388344
 20
13.81876640766546
 10
22.74789018386533
 20
13.39652169709885
 10
22.09533017662603
 20
12.99346992792163
 10
21.63469958328064
 20
12.55203227596564
 10
20.90536781048376
 20
12.12978756539902
 10
20.59828074825351
 20
11.7459287376112
 10
20.04168544796116
 20
11.28529814426581
 10
19.36993249933246
 20
10.8630534336992
 10
18.73656543348255
 20
10.42161578174319
 10
18.04561954346447
 20
10.15291460229172
 10
17.1051654153843
 20
9.692284008946325
 10
16.39502658397681
 20
9.020531060317637
 10
15.83843128368446
 20
8.598286349751023
 10
15.12829245227699
 20
8.137655756405634
 10
14.84039833143612
 20
7.98411222529051
 10
14.37976773809073
 20
7.81137575278599
 10
14.07268067586046
 20
7.523481631945121
 10
14.0151018516923
 20
7.216394569714853
 10
14.14945244141803
 20
6.890114566095209
 10
14.4373465622589
 20
6.563834562475543
 10
14.8787842142149
 20
6.659799269422514
 10
15.51215128006482
 20
7.06285103859973
 10
16.01116775618899
 20
7.389131042219374
 10
16.33744775980864
 20
7.696218104449641
 10
16.51018423231316
 20
7.907340459732938
 10
17.01303929671522
 20
8.421711288968723
 10
17.33548071205699
 20
8.652026585641417
 10
17.75004824606785
 20
8.99749953065046
 10
18.14158425041142
 20
9.204783297655894
 10
19.24709767444037
 20
9.75754000967037
 10
20.23745345013295
 20
10.47151742935572
 10
21.4120614631637
 20
11.1624633193738
 10
21.84966052684182
 20
11.64612544238645
 10
22.49454335752537
 20
12.06069297639732
 10
23.78430901889248
 20
12.9819541630881
 10
24.3600972605742
 20
13.25833251909534
 10
25.6498629219413
 20
14.24868829478776
 10
25.85714668894673
 20
14.64022429913134
 10
26.68628175696843
 20
15.23904407048036
 10
27.28510152831745
 20
15.72270619349301
 10
27.81482671066464
 20
16.1142421978366
 10
28.27545730401003
 20
16.52880973184745
 10
28.22939424467549
 20
16.7821565581874
 10
28.09120506667188
 20
16.89731420652375
 10
27.56147988432467
 20
16.89731420652375
 97
        0
 75
     0
 76
     1
 98
        0
  0
LINE
  5
41
330
1F
100
AcDbEntity
  8
Doc_ Finishes
  6
Continuous
100
AcDbLine
 10
27.41177566876475
 20
16.87044600708104
 30
0.0
 11
26.89356756490952
 21
16.58254868214004
 31
0.0
  0
LINE
  5
42
330
1F
100
AcDbEntity
  8
Doc_ Finishes
  6
Continuous
100
AcDbLine
 10
26.89356756490952
 20
16.58254868214004
 30
0.0
 11
26.54809254523997
 21
16.29465578284815
 31
0.0
  0
LINE
  5
43
330
1F
100
AcDbEntity
  8
Doc_ Finishes
  6
Continuous
100
AcDbLine
 10
26.54809254523997
 20
16.29465578284815
 30
0.0
 11
26.12584579071597
 21
16.02595249803305
 31
0.0
  0
LINE
  5
44
330
1F
100
AcDbEntity
  8
Doc_ Finishes
  6
Continuous
100
AcDbLine
 10
26.12584579071597
 20
16.02595249803305
 30
0.0
 11
25.76118115656963
 21
15.60371016915814
 31
0.0
  0
LINE
  5
45
330
1F
100
AcDbEntity
  8
Doc_ Finishes
  6
Continuous
100
AcDbLine
 10
25.76118115656963
 20
15.60371016915814
 30
0.0
 11
25.39651652242329
 21
15.33500688434304
 31
0.0
  0
LINE
  5
46
330
1F
100
AcDbEntity
  8
Doc_ Finishes
  6
Continuous
100
AcDbLine
 10
25.39651652242329
 20
15.33500688434304
 30
0.0
 11
25.07023554287962
 21
14.89357051534225
 31
0.0
  0
LINE
  5
47
330
1F
100
AcDbEntity
  8
Doc_ Finishes
  6
Continuous
100
AcDbLine
 10
25.07023554287962
 20
14.89357051534225
 30
0.0
 11
24.49444974429583
 21
14.45213414634146
 31
0.0
  0
LINE
  5
48
330
1F
100
AcDbEntity
  8
Doc_ Finishes
  6
Continuous
100
AcDbLine
 10
24.49444974429583
 20
14.45213414634146
 30
0.0
 11
23.93785356018882
 21
14.02988739181747
 31
0.0
  0
LINE
  5
49
330
1F
100
AcDbEntity
  8
Doc_ Finishes
  6
Continuous
100
AcDbLine
 10
23.93785356018882
 20
14.02988739181747
 30
0.0
 11
23.43883507081038
 21
13.81876622738001
 31
0.0
  0
LINE
  5
4A
330
1F
100
AcDbEntity
  8
Doc_ Finishes
  6
Continuous
100
AcDbLine
 10
23.43883507081038
 20
13.81876622738001
 30
0.0
 11
22.74788945712038
 21
13.39652389850511
 31
0.0
  0
LINE
  5
4B
330
1F
100
AcDbEntity
  8
Doc_ Finishes
  6
Continuous
100
AcDbLine
 10
22.74788945712038
 20
13.39652389850511
 30
0.0
 11
22.09533192368214
 21
12.993471184107
 31
0.0
  0
LINE
  5
4C
330
1F
100
AcDbEntity
  8
Doc_ Finishes
  6
Continuous
100
AcDbLine
 10
22.09533192368214
 20
12.993471184107
 30
0.0
 11
21.63470151455547
 21
12.55203038945712
 31
0.0
  0
LINE
  5
4D
330
1F
100
AcDbEntity
  8
Doc_ Finishes
  6
Continuous
100
AcDbLine
 10
21.63470151455547
 20
12.55203038945712
 30
0.0
 11
20.90536782061369
 21
12.12978806058222
 31
0.0
  0
LINE
  5
4E
330
1F
100
AcDbEntity
  8
Doc_ Finishes
  6
Continuous
100
AcDbLine
 10
20.90536782061369
 20
12.12978806058222
 30
0.0
 11
20.59828088119591
 21
11.74592938630999
 31
0.0
  0
LINE
  5
4F
330
1F
100
AcDbEntity
  8
Doc_ Finishes
  6
Continuous
100
AcDbLine
 10
20.59828088119591
 20
11.74592938630999
 30
0.0
 11
20.0416846970889
 21
11.28529897718332
 31
0.0
  0
LINE
  5
50
330
1F
100
AcDbEntity
  8
Doc_ Finishes
  6
Continuous
100
AcDbLine
 10
20.0416846970889
 20
11.28529897718332
 30
0.0
 11
19.36993312352478
 21
10.86305222265932
 31
0.0
  0
LINE
  5
51
330
1F
100
AcDbEntity
  8
Doc_ Finishes
  6
Continuous
100
AcDbLine
 10
19.36993312352478
 20
10.86305222265932
 30
0.0
 11
18.73656520456333
 21
10.42161585365854
 31
0.0
  0
LINE
  5
52
330
1F
100
AcDbEntity
  8
Doc_ Finishes
  6
Continuous
100
AcDbLine
 10
18.73656520456333
 20
10.42161585365854
 30
0.0
 11
18.04561959087333
 21
10.15291256884343
 31
0.0
  0
LINE
  5
53
330
1F
100
AcDbEntity
  8
Doc_ Finishes
  6
Continuous
100
AcDbLine
 10
18.04561959087333
 20
10.15291256884343
 30
0.0
 11
17.1051647324941
 21
9.692282159716758
 31
0.0
  0
LINE
  5
54
330
1F
100
AcDbEntity
  8
Doc_ Finishes
  6
Continuous
100
AcDbLine
 10
17.1051647324941
 20
9.692282159716758
 30
0.0
 11
16.3950250786782
 21
9.020530586152635
 31
0.0
  0
LINE
  5
55
330
1F
100
AcDbEntity
  8
Doc_ Finishes
  6
Continuous
100
AcDbLine
 10
16.3950250786782
 20
9.020530586152635
 30
0.0
 11
15.8384333202203
 21
8.598288257277733
 31
0.0
  0
LINE
  5
56
330
1F
100
AcDbEntity
  8
Doc_ Finishes
  6
Continuous
100
AcDbLine
 10
15.8384333202203
 20
8.598288257277733
 30
0.0
 11
15.1282936664044
 21
8.137657848151063
 31
0.0
  0
LINE
  5
57
330
1F
100
AcDbEntity
  8
Doc_ Finishes
  6
Continuous
100
AcDbLine
 10
15.1282936664044
 20
8.137657848151063
 30
0.0
 11
14.84039634146341
 21
7.984114378442171
 31
0.0
  0
LINE
  5
58
330
1F
100
AcDbEntity
  8
Doc_ Finishes
  6
Continuous
100
AcDbLine
 10
14.84039634146341
 20
7.984114378442171
 30
0.0
 11
14.37976593233674
 21
7.811376868607396
 31
0.0
  0
LINE
  5
59
330
1F
100
AcDbEntity
  8
Doc_ Finishes
  6
Continuous
100
AcDbLine
 10
14.37976593233674
 20
7.811376868607396
 30
0.0
 11
14.07267899291896
 21
7.523479543666405
 31
0.0
  0
LINE
  5
5A
330
1F
100
AcDbEntity
  8
Doc_ Finishes
  6
Continuous
100
AcDbLine
 10
14.07267899291896
 20
7.523479543666405
 30
0.0
 11
14.0151012981904
 21
7.216392604248622
 31
0.0
  0
LINE
  5
5B
330
1F
100
AcDbEntity
  8
Doc_ Finishes
  6
Continuous
100
AcDbLine
 10
14.0151012981904
 20
7.216392604248622
 30
0.0
 11
14.14945072777341
 21
6.890116050354051
 31
0.0
  0
LINE
  5
5C
330
1F
100
AcDbEntity
  8
Doc_ Finishes
  6
Continuous
100
AcDbLine
 10
14.14945072777341
 20
6.890116050354051
 30
0.0
 11
14.4373480527144
 21
6.563835070810386
 31
0.0
  0
LINE
  5
5D
330
1F
100
AcDbEntity
  8
Doc_ Finishes
  6
Continuous
100
AcDbLine
 10
14.4373480527144
 20
6.563835070810386
 30
0.0
 11
14.87878442171519
 21
6.659800845790715
 31
0.0
  0
LINE
  5
5E
330
1F
100
AcDbEntity
  8
Doc_ Finishes
  6
Continuous
100
AcDbLine
 10
14.87878442171519
 20
6.659800845790715
 30
0.0
 11
15.51215234067663
 21
7.062849134539732
 31
0.0
  0
LINE
  5
5F
330
1F
100
AcDbEntity
  8
Doc_ Finishes
  6
Continuous
100
AcDbLine
 10
15.51215234067663
 20
7.062849134539732
 30
0.0
 11
16.01116640440598
 21
7.389130114083398
 31
0.0
  0
LINE
  5
60
330
1F
100
AcDbEntity
  8
Doc_ Finishes
  6
Continuous
100
AcDbLine
 10
16.01116640440598
 20
7.389130114083398
 30
0.0
 11
16.33744738394964
 21
7.69621705350118
 31
0.0
  0
LINE
  5
61
330
1F
100
AcDbEntity
  8
Doc_ Finishes
  6
Continuous
100
AcDbLine
 10
16.33744738394964
 20
7.69621705350118
 30
0.0
 11
16.51018489378442
 21
7.907342643587726
 31
0.0
  0
LINE
  5
62
330
1F
100
AcDbEntity
  8
Doc_ Finishes
  6
Continuous
100
AcDbLine
 10
16.51018489378442
 20
7.907342643587726
 30
0.0
 11
17.0130404209284
 21
8.421709284028323
 31
0.0
  0
LINE
  5
63
330
1F
100
AcDbEntity
  8
Doc_ Finishes
  6
Continuous
100
AcDbLine
 10
17.0130404209284
 20
8.421709284028323
 30
0.0
 11
17.33547993705743
 21
8.65202448859166
 31
0.0
  0
LINE
  5
64
330
1F
100
AcDbEntity
  8
Doc_ Finishes
  6
Continuous
100
AcDbLine
 10
17.33547993705743
 20
8.65202448859166
 30
0.0
 11
17.75004819040126
 21
8.997499508261212
 31
0.0
  0
LINE
  5
65
330
1F
100
AcDbEntity
  8
Doc_ Finishes
  6
Continuous
100
AcDbLine
 10
17.75004819040126
 20
8.997499508261212
 30
0.0
 11
18.14158536585366
 21
9.204783634933122
 31
0.0
  0
LINE
  5
66
330
1F
100
AcDbEntity
  8
Doc_ Finishes
  6
Continuous
100
AcDbLine
 10
18.14158536585366
 20
9.204783634933122
 30
0.0
 11
19.24709923288749
 21
9.75753835562549
 31
0.0
  0
LINE
  5
67
330
1F
100
AcDbEntity
  8
Doc_ Finishes
  6
Continuous
100
AcDbLine
 10
19.24709923288749
 20
9.75753835562549
 30
0.0
 11
20.23745328481511
 21
10.47151947285602
 31
0.0
  0
LINE
  5
68
330
1F
100
AcDbEntity
  8
Doc_ Finishes
  6
Continuous
100
AcDbLine
 10
20.23745328481511
 20
10.47151947285602
 30
0.0
 11
21.41206038552321
 21
11.16246508654602
 31
0.0
  0
LINE
  5
69
330
1F
100
AcDbEntity
  8
Doc_ Finishes
  6
Continuous
100
AcDbLine
 10
21.41206038552321
 20
11.16246508654602
 30
0.0
 11
21.84965971675846
 21
11.64612657356412
 31
0.0
  0
LINE
  5
6A
330
1F
100
AcDbEntity
  8
Doc_ Finishes
  6
Continuous
100
AcDbLine
 10
21.84965971675846
 20
11.64612657356412
 30
0.0
 11
22.49454317466562
 21
12.06069482690795
 31
0.0
  0
LINE
  5
6B
330
1F
100
AcDbEntity
  8
Doc_ Finishes
  6
Continuous
100
AcDbLine
 10
22.49454317466562
 20
12.06069482690795
 30
0.0
 11
23.78431009047993
 21
12.98195564516129
 31
0.0
  0
LINE
  5
6C
330
1F
100
AcDbEntity
  8
Doc_ Finishes
  6
Continuous
100
AcDbLine
 10
23.78431009047993
 20
12.98195564516129
 30
0.0
 11
24.36009588906373
 21
13.25833300550747
 31
0.0
  0
LINE
  5
6D
330
1F
100
AcDbEntity
  8
Doc_ Finishes
  6
Continuous
100
AcDbLine
 10
24.36009588906373
 20
13.25833300550747
 30
0.0
 11
25.64986280487805
 21
14.24868705743509
 31
0.0
  0
LINE
  5
6E
330
1F
100
AcDbEntity
  8
Doc_ Finishes
  6
Continuous
100
AcDbLine
 10
25.64986280487805
 20
14.24868705743509
 30
0.0
 11
25.85714693154996
 21
14.64022423288749
 31
0.0
  0
LINE
  5
6F
330
1F
100
AcDbEntity
  8
Doc_ Finishes
  6
Continuous
100
AcDbLine
 10
25.85714693154996
 20
14.64022423288749
 30
0.0
 11
26.68628343823761
 21
15.2390455350118
 31
0.0
  0
LINE
  5
70
330
1F
100
AcDbEntity
  8
Doc_ Finishes
  6
Continuous
100
AcDbLine
 10
26.68628343823761
 20
15.2390455350118
 30
0.0
 11
27.28510031471282
 21
15.7227070220299
 31
0.0
  0
LINE
  5
71
330
1F
100
AcDbEntity
  8
Doc_ Finishes
  6
Continuous
100
AcDbLine
 10
27.28510031471282
 20
15.7227070220299
 30
0.0
 11
27.81482838316287
 21
16.1142441974823
 31
0.0
  0
LINE
  5
72
330
1F
100
AcDbEntity
  8
Doc_ Finishes
  6
Continuous
100
AcDbLine
 10
27.81482838316287
 20
16.1142441974823
 30
0.0
 11
28.27545879228953
 21
16.52880802517702
 31
0.0
  0
LINE
  5
73
330
1F
100
AcDbEntity
  8
Doc_ Finishes
  6
Continuous
100
AcDbLine
 10
28.27545879228953
 20
16.52880802517702
 30
0.0
 11
28.22939221085759
 21
16.78215873328088
 31
0.0
  0
LINE
  5
74
330
1F
100
AcDbEntity
  8
Doc_ Finishes
  6
Continuous
100
AcDbLine
 10
28.22939221085759
 20
16.78215873328088
 30
0.0
 11
28.09120574350905
 21
16.897314122738
 31
0.0
  0
LINE
  5
75
330
1F
100
AcDbEntity
  8
Doc_ Finishes
  6
Continuous
100
AcDbLine
 10
28.09120574350905
 20
16.897314122738
 30
0.0
 11
27.56147767505901
 21
16.897314122738
 31
0.0
  0
LINE
  5
76
330
1F
100
AcDbEntity
  8
Doc_ Finishes
  6
Continuous
100
AcDbLine
 10
27.56147767505901
 20
16.897314122738
 30
0.0
 11
27.41177566876475
 21
16.87044600708104
 31
0.0
  0
HATCH
  5
77
330
1F
100
AcDbEntity
  8
Doc_ Finishes
  6
Continuous
100
AcDbHatch
 10
0.0
 20
0.0
 30
0.0
210
0.0
220
0.0
230
1.0
  2
SOLID
 70
     1
 71
     0
 91
        1
 92
        3
 72
     0
 73
     1
 93
       39
 10
27.65360600299377
 20
13.12014334109181
 10
27.21600693931564
 20
12.77467039608275
 10
26.54809257896482
 20
12.24494521373555
 10
25.92624127794851
 20
11.85340920939199
 10
25.32742150659951
 20
11.32368402704478
 10
24.72860173525052
 20
11.04730567103754
 10
24.08371890456698
 20
10.56364354802488
 10
23.62308831122158
 20
10.33332825135219
 10
23.231552306878
 20
10.03391836567767
 10
22.81698477286715
 20
9.619350831666825
 10
22.40241723885631
 20
9.38903553499415
 10
21.91875511584363
 20
9.043562589985086
 10
21.66540828950367
 20
8.859310352646935
 10
21.25084075549282
 20
8.582931996639696
 10
20.09926427212933
 20
7.753796928618002
 10
19.75379132712029
 20
7.477418572610764
 10
19.2931607337749
 20
7.316197864939873
 10
19.22406614477309
 20
6.993756449598113
 10
19.3622553227767
 20
6.717378093590874
 10
19.63863367878394
 20
6.602220445254527
 10
20.00713815346026
 20
6.8325357419272
 10
20.26048497980021
 20
7.131945627601722
 10
20.55989486547472
 20
7.362260924274415
 10
21.31993534449462
 20
7.707733869283458
 10
21.84966052684182
 20
8.122301403294307
 10
22.88607936186895
 20
8.882341882314256
 10
23.20852077721072
 20
9.342972475659646
 10
24.01462431556515
 20
9.734508480003234
 10
24.5673810275796
 20
10.05694989534501
 10
25.46561068460312
 20
10.60970660735953
 10
25.88017821861399
 20
11.07033720070492
 10
26.31777728229212
 20
11.34671555671216
 10
26.70931328663569
 20
11.30065249737762
 10
27.21600693931562
 20
11.55399932371759
 10
28.0681735370046
 20
12.17585062473387
 10
28.41364648201364
 20
12.49829204007566
 10
28.39061495234636
 20
12.77467039608289
 10
28.22939424467547
 20
13.00498569275559
 10
28.04514200733732
 20
13.05104875209013
 97
        0
 75
     0
 76
     1
 98
        0
  0
LINE
  5
78
330
1F
100
AcDbEntity
  8
Doc_ Finishes
  6
Continuous
100
AcDbLine
 10
27.6536064122738
 20
13.12014211250983
 30
0.0
 11
27.21600708103855
 21
12.77467151848938
 31
0.0
  0
LINE
  5
79
330
1F
100
AcDbEntity
  8
Doc_ Finishes
  6
Continuous
100
AcDbLine
 10
27.21600708103855
 20
12.77467151848938
 30
0.0
 11
26.54809254523997
 21
12.24494345003934
 31
0.0
  0
LINE
  5
7A
330
1F
100
AcDbEntity
  8
Doc_ Finishes
  6
Continuous
100
AcDbLine
 10
26.54809254523997
 20
12.24494345003934
 30
0.0
 11
25.92624016522423
 21
11.85341070023603
 31
0.0
  0
LINE
  5
7B
330
1F
100
AcDbEntity
  8
Doc_ Finishes
  6
Continuous
100
AcDbLine
 10
25.92624016522423
 20
11.85341070023603
 30
0.0
 11
25.32742328874902
 21
11.32368263178599
 31
0.0
  0
LINE
  5
7C
330
1F
100
AcDbEntity
  8
Doc_ Finishes
  6
Continuous
100
AcDbLine
 10
25.32742328874902
 20
11.32368263178599
 30
0.0
 11
24.72860198662471
 21
11.04730527143981
 31
0.0
  0
LINE
  5
7D
330
1F
100
AcDbEntity
  8
Doc_ Finishes
  6
Continuous
100
AcDbLine
 10
24.72860198662471
 20
11.04730527143981
 30
0.0
 11
24.08371852871754
 21
10.56364378442171
 31
0.0
  0
LINE
  5
7E
330
1F
100
AcDbEntity
  8
Doc_ Finishes
  6
Continuous
100
AcDbLine
 10
24.08371852871754
 20
10.56364378442171
 30
0.0
 11
23.62308811959087
 21
10.33332857985838
 31
0.0
  0
LINE
  5
7F
330
1F
100
AcDbEntity
  8
Doc_ Finishes
  6
Continuous
100
AcDbLine
 10
23.62308811959087
 20
10.33332857985838
 30
0.0
 11
23.23155094413847
 21
10.03392014162077
 31
0.0
  0
LINE
  5
80
330
1F
100
AcDbEntity
  8
Doc_ Finishes
  6
Continuous
100
AcDbLine
 10
23.23155094413847
 20
10.03392014162077
 30
0.0
 11
22.81698269079465
 21
9.619351888276947
 31
0.0
  0
LINE
  5
81
330
1F
100
AcDbEntity
  8
Doc_ Finishes
  6
Continuous
100
AcDbLine
 10
22.81698269079465
 20
9.619351888276947
 30
0.0
 11
22.40241886309992
 21
9.389036683713611
 31
0.0
  0
LINE
  5
82
330
1F
100
AcDbEntity
  8
Doc_ Finishes
  6
Continuous
100
AcDbLine
 10
22.40241886309992
 20
9.389036683713611
 30
0.0
 11
21.91875295043273
 21
9.04356166404406
 31
0.0
  0
LINE
  5
83
330
1F
100
AcDbEntity
  8
Doc_ Finishes
  6
Continuous
100
AcDbLine
 10
21.91875295043273
 20
9.04356166404406
 30
0.0
 11
21.66540666797797
 21
8.859308615263572
 31
0.0
  0
LINE
  5
84
330
1F
100
AcDbEntity
  8
Doc_ Finishes
  6
Continuous
100
AcDbLine
 10
21.66540666797797
 20
8.859308615263572
 30
0.0
 11
21.25084284028324
 21
8.582931254917387
 31
0.0
  0
LINE
  5
85
330
1F
100
AcDbEntity
  8
Doc_ Finishes
  6
Continuous
100
AcDbLine
 10
21.25084284028324
 20
8.582931254917387
 30
0.0
 11
20.09926239181747
 21
7.75379474822974
 31
0.0
  0
LINE
  5
86
330
1F
100
AcDbEntity
  8
Doc_ Finishes
  6
Continuous
100
AcDbLine
 10
20.09926239181747
 20
7.75379474822974
 30
0.0
 11
19.75379179779701
 21
7.477417387883556
 31
0.0
  0
LINE
  5
87
330
1F
100
AcDbEntity
  8
Doc_ Finishes
  6
Continuous
100
AcDbLine
 10
19.75379179779701
 20
7.477417387883556
 30
0.0
 11
19.29316138867033
 21
7.316199842643588
 31
0.0
  0
LINE
  5
88
330
1F
100
AcDbEntity
  8
Doc_ Finishes
  6
Continuous
100
AcDbLine
 10
19.29316138867033
 20
7.316199842643588
 30
0.0
 11
19.22406815499606
 21
6.993755900865461
 31
0.0
  0
LINE
  5
89
330
1F
100
AcDbEntity
  8
Doc_ Finishes
  6
Continuous
100
AcDbLine
 10
19.22406815499606
 20
6.993755900865461
 30
0.0
 11
19.36225462234461
 21
6.717378540519276
 31
0.0
  0
LINE
  5
8A
330
1F
100
AcDbEntity
  8
Doc_ Finishes
  6
Continuous
100
AcDbLine
 10
19.36225462234461
 20
6.717378540519276
 30
0.0
 11
19.63863198269079
 21
6.602218725413059
 31
0.0
  0
LINE
  5
8B
330
1F
100
AcDbEntity
  8
Doc_ Finishes
  6
Continuous
100
AcDbLine
 10
19.63863198269079
 20
6.602218725413059
 30
0.0
 11
20.00713808025177
 21
6.832533929976396
 31
0.0
  0
LINE
  5
8C
330
1F
100
AcDbEntity
  8
Doc_ Finishes
  6
Continuous
100
AcDbLine
 10
20.00713808025177
 20
6.832533929976396
 30
0.0
 11
20.26048436270653
 21
7.1319467938631
 31
0.0
  0
LINE
  5
8D
330
1F
100
AcDbEntity
  8
Doc_ Finishes
  6
Continuous
100
AcDbLine
 10
20.26048436270653
 20
7.1319467938631
 30
0.0
 11
20.55989280094414
 21
7.362261998426435
 31
0.0
  0
LINE
  5
8E
330
1F
100
AcDbEntity
  8
Doc_ Finishes
  6
Continuous
100
AcDbLine
 10
20.55989280094414
 20
7.362261998426435
 30
0.0
 11
21.31993607395751
 21
7.707732592446892
 31
0.0
  0
LINE
  5
8F
330
1F
100
AcDbEntity
  8
Doc_ Finishes
  6
Continuous
100
AcDbLine
 10
21.31993607395751
 20
7.707732592446892
 30
0.0
 11
21.84965971675846
 21
8.122300845790717
 31
0.0
  0
LINE
  5
90
330
1F
100
AcDbEntity
  8
Doc_ Finishes
  6
Continuous
100
AcDbLine
 10
21.84965971675846
 20
8.122300845790717
 30
0.0
 11
22.88608035011802
 21
8.882339693154996
 31
0.0
  0
LINE
  5
91
330
1F
100
AcDbEntity
  8
Doc_ Finishes
  6
Continuous
100
AcDbLine
 10
22.88608035011802
 20
8.882339693154996
 30
0.0
 11
23.20851986624705
 21
9.342974527930762
 31
0.0
  0
LINE
  5
92
330
1F
100
AcDbEntity
  8
Doc_ Finishes
  6
Continuous
100
AcDbLine
 10
23.20851986624705
 20
9.342974527930762
 30
0.0
 11
24.01462529504327
 21
9.734507277734066
 31
0.0
  0
LINE
  5
93
330
1F
100
AcDbEntity
  8
Doc_ Finishes
  6
Continuous
100
AcDbLine
 10
24.01462529504327
 20
9.734507277734066
 30
0.0
 11
24.56738001573564
 21
10.05695121951219
 31
0.0
  0
LINE
  5
94
330
1F
100
AcDbEntity
  8
Doc_ Finishes
  6
Continuous
100
AcDbLine
 10
24.56738001573564
 20
10.05695121951219
 30
0.0
 11
25.46560975609756
 21
10.60970594020456
 31
0.0
  0
LINE
  5
95
330
1F
100
AcDbEntity
  8
Doc_ Finishes
  6
Continuous
100
AcDbLine
 10
25.46560975609756
 20
10.60970594020456
 30
0.0
 11
25.88017800944139
 21
11.07033634933124
 31
0.0
  0
LINE
  5
96
330
1F
100
AcDbEntity
  8
Doc_ Finishes
  6
Continuous
100
AcDbLine
 10
25.88017800944139
 20
11.07033634933124
 30
0.0
 11
26.31777734067663
 21
11.34671370967742
 31
0.0
  0
LINE
  5
97
330
1F
100
AcDbEntity
  8
Doc_ Finishes
  6
Continuous
100
AcDbLine
 10
26.31777734067663
 20
11.34671370967742
 30
0.0
 11
26.70931451612903
 21
11.30065155389457
 31
0.0
  0
LINE
  5
98
330
1F
100
AcDbEntity
  8
Doc_ Finishes
  6
Continuous
100
AcDbLine
 10
26.70931451612903
 20
11.30065155389457
 30
0.0
 11
27.21600708103855
 21
11.55399783634933
 31
0.0
  0
LINE
  5
99
330
1F
100
AcDbEntity
  8
Doc_ Finishes
  6
Continuous
100
AcDbLine
 10
27.21600708103855
 20
11.55399783634933
 30
0.0
 11
28.06817466561763
 21
12.17585021636507
 31
0.0
  0
LINE
  5
9A
330
1F
100
AcDbEntity
  8
Doc_ Finishes
  6
Continuous
100
AcDbLine
 10
28.06817466561763
 20
12.17585021636507
 30
0.0
 11
28.41364525963808
 21
12.49829415814319
 31
0.0
  0
LINE
  5
9B
330
1F
100
AcDbEntity
  8
Doc_ Finishes
  6
Continuous
100
AcDbLine
 10
28.41364525963808
 20
12.49829415814319
 30
0.0
 11
28.39061418174666
 21
12.77467151848938
 31
0.0
  0
LINE
  5
9C
330
1F
100
AcDbEntity
  8
Doc_ Finishes
  6
Continuous
100
AcDbLine
 10
28.39061418174666
 20
12.77467151848938
 30
0.0
 11
28.22939221085759
 21
13.00498672305271
 31
0.0
  0
LINE
  5
9D
330
1F
100
AcDbEntity
  8
Doc_ Finishes
  6
Continuous
100
AcDbLine
 10
28.22939221085759
 20
13.00498672305271
 30
0.0
 11
28.04514358772619
 21
13.05104887883556
 31
0.0
  0
LINE
  5
9E
330
1F
100
AcDbEntity
  8
Doc_ Finishes
  6
Continuous
100
AcDbLine
 10
28.04514358772619
 20
13.05104887883556
 30
0.0
 11
27.6536064122738
 21
13.12014211250983
 31
0.0
  0
HATCH
  5
9F
330
1F
100
AcDbEntity
  8
Doc_ Finishes
  6
Continuous
100
AcDbHatch
 10
0.0
 20
0.0
 30
0.0
210
0.0
220
0.0
230
1.0
  2
SOLID
 70
     1
 71
     0
 91
        1
 92
        3
 72
     0
 73
     1
 93
       47
 10
28.06817353700456
 20
15.74573772316067
 10
28.30309513961077
 20
15.62136746295728
 10
28.4412843176144
 20
15.4002647781515
 10
28.93876535842742
 20
15.17916209334572
 10
29.82317609765057
 20
14.40530269652538
 10
30.92868952167951
 20
13.74199464210799
 10
31.59199757609689
 20
13.3827027792986
 10
32.20002995931279
 20
13.07868658769064
 10
33.55428390374828
 20
12.08372450606458
 10
34.07940278016201
 20
11.69679480765445
 10
34.88090001258301
 20
11.08876242443854
 10
35.59948373820179
 20
10.50836787682334
 10
36.5668079842271
 20
9.817421986805197
 10
37.06428902504012
 20
9.458130123995785
 10
37.81051058625966
 20
8.933011247582023
 10
38.61200781868061
 20
8.407892371168286
 10
38.77783483228498
 20
8.186789686362482
 10
39.38586721550092
 20
7.744584316750918
 10
40.18736444792187
 20
6.915449248729224
 10
40.7953968311378
 20
6.44560604351692
 10
41.56925622795804
 20
6.169227687509681
 10
42.23256428237543
 20
6.086314180707507
 10
42.48130480278193
 20
6.30741686551329
 10
42.14965077557326
 20
6.611433057121246
 10
41.48634272115586
 20
6.998362755531397
 10
40.76775899553709
 20
7.357654618340788
 10
40.18736444792187
 20
8.048600508358874
 10
38.99893751709079
 20
8.822459905179112
 10
38.47381864067705
 20
9.319940945992132
 10
38.22507812027052
 20
9.734508480003
 10
37.17484036744301
 20
10.31490302761817
 10
36.73263499783144
 20
10.78474623283046
 10
36.2351539570184
 20
11.17167593124059
 10
35.48893239579888
 20
11.61388130085215
 10
34.85326217698223
 20
12.16663801286669
 10
34.35578113616919
 20
12.58120554687754
 10
33.69247308175183
 20
12.99577308088841
 10
33.22262987653953
 20
13.32742710809708
 10
32.7251488357265
 20
13.5761676285036
 10
31.93747052110588
 20
14.06443605744977
 10
31.43077686842594
 20
14.38687747279155
 10
30.92408321574601
 20
14.70931888813342
 10
30.62467333007151
 20
15.100854892477
 10
29.95675896972068
 20
15.67664313415887
 10
29.47309684670803
 20
15.9530214901661
 10
28.82821401602447
 20
16.36758902417695
 10
28.50577260068269
 20
16.22939984617334
 97
        0
 75
     0
 76
     1
 98
        0
  0
LINE
  5
A0
330
1F
100
AcDbEntity
  8
Doc_ Finishes
  6
Continuous
100
AcDbLine
 10
28.30309697088906
 20
15.62136850904799
 30
0.0
 11
28.06817466561763
 21
15.74573809992132
 31
0.0
  0
LINE
  5
A1
330
1F
100
AcDbEntity
  8
Doc_ Finishes
  6
Continuous
100
AcDbLine
 10
28.44128343823761
 20
15.40026308025177
 30
0.0
 11
28.30309697088906
 21
15.62136850904799
 31
0.0
  0
LINE
  5
A2
330
1F
100
AcDbEntity
  8
Doc_ Finishes
  6
Continuous
100
AcDbLine
 10
28.93876622738001
 20
15.17916207710464
 30
0.0
 11
28.44128343823761
 21
15.40026308025177
 31
0.0
  0
LINE
  5
A3
330
1F
100
AcDbEntity
  8
Doc_ Finishes
  6
Continuous
100
AcDbLine
 10
29.82317466561762
 20
14.40530192761605
 30
0.0
 11
28.93876622738001
 21
15.17916207710464
 31
0.0
  0
LINE
  5
A4
330
1F
100
AcDbEntity
  8
Doc_ Finishes
  6
Continuous
100
AcDbLine
 10
30.92868853265146
 20
13.74199449252557
 30
0.0
 11
29.82317466561762
 21
14.40530192761605
 31
0.0
  0
LINE
  5
A5
330
1F
100
AcDbEntity
  8
Doc_ Finishes
  6
Continuous
100
AcDbLine
 10
31.59199596774193
 20
13.3827025963808
 30
0.0
 11
30.92868853265146
 21
13.74199449252557
 31
0.0
  0
LINE
  5
A6
330
1F
100
AcDbEntity
  8
Doc_ Finishes
  6
Continuous
100
AcDbLine
 10
32.20003147128246
 20
13.07868705743509
 30
0.0
 11
31.59199596774193
 21
13.3827025963808
 31
0.0
  0
LINE
  5
A7
330
1F
100
AcDbEntity
  8
Doc_ Finishes
  6
Continuous
100
AcDbLine
 10
33.55428452006294
 20
12.08372590479937
 30
0.0
 11
32.20003147128246
 21
13.07868705743509
 31
0.0
  0
LINE
  5
A8
330
1F
100
AcDbEntity
  8
Doc_ Finishes
  6
Continuous
100
AcDbLine
 10
34.07940106215578
 20
11.69679583005508
 30
0.0
 11
33.55428452006294
 21
12.08372590479937
 31
0.0
  0
LINE
  5
A9
330
1F
100
AcDbEntity
  8
Doc_ Finishes
  6
Continuous
100
AcDbLine
 10
34.8808993902439
 20
11.08876032651456
 30
0.0
 11
34.07940106215578
 21
11.69679583005508
 31
0.0
  0
LINE
  5
AA
330
1F
100
AcDbEntity
  8
Doc_ Finishes
  6
Continuous
100
AcDbLine
 10
35.59948318253343
 20
10.50836742722266
 30
0.0
 11
34.8808993902439
 21
11.08876032651456
 31
0.0
  0
LINE
  5
AB
330
1F
100
AcDbEntity
  8
Doc_ Finishes
  6
Continuous
100
AcDbLine
 10
36.56680615656963
 20
9.817421813532652
 30
0.0
 11
35.59948318253343
 21
10.50836742722266
 31
0.0
  0
LINE
  5
AC
330
1F
100
AcDbEntity
  8
Doc_ Finishes
  6
Continuous
100
AcDbLine
 10
37.06428894571204
 20
9.458129917387884
 30
0.0
 11
36.56680615656963
 21
9.817421813532652
 31
0.0
  0
LINE
  5
AD
330
1F
100
AcDbEntity
  8
Doc_ Finishes
  6
Continuous
100
AcDbLine
 10
37.8105109166011
 20
8.933013375295044
 30
0.0
 11
37.06428894571204
 21
9.458129917387884
 31
0.0
  0
LINE
  5
AE
330
1F
100
AcDbEntity
  8
Doc_ Finishes
  6
Continuous
100
AcDbLine
 10
38.61200924468922
 20
8.407892407553108
 30
0.0
 11
37.8105109166011
 21
8.933013375295044
 31
0.0
  0
LINE
  5
AF
330
1F
100
AcDbEntity
  8
Doc_ Finishes
  6
Continuous
100
AcDbLine
 10
38.77783389063729
 20
8.18679140440598
 30
0.0
 11
38.61200924468922
 21
8.407892407553108
 31
0.0
  0
LINE
  5
B0
330
1F
100
AcDbEntity
  8
Doc_ Finishes
  6
Continuous
100
AcDbLine
 10
39.3858693941778
 20
7.744584972462627
 30
0.0
 11
38.77783389063729
 21
8.18679140440598
 31
0.0
  0
LINE
  5
B1
330
1F
100
AcDbEntity
  8
Doc_ Finishes
  6
Continuous
100
AcDbLine
 10
40.18736329661684
 20
6.915448465774981
 30
0.0
 11
39.3858693941778
 21
7.744584972462627
 31
0.0
  0
LINE
  5
B2
330
1F
100
AcDbEntity
  8
Doc_ Finishes
  6
Continuous
100
AcDbLine
 10
40.79539880015735
 20
6.4456038552321
 30
0.0
 11
40.18736329661684
 21
6.915448465774981
 31
0.0
  0
LINE
  5
B3
330
1F
100
AcDbEntity
  8
Doc_ Finishes
  6
Continuous
100
AcDbLine
 10
41.56925452399685
 20
6.169226494885916
 30
0.0
 11
40.79539880015735
 21
6.4456038552321
 31
0.0
  0
LINE
  5
B4
330
1F
100
AcDbEntity
  8
Doc_ Finishes
  6
Continuous
100
AcDbLine
 10
42.23256638473643
 20
6.086316384736428
 30
0.0
 11
41.56925452399685
 21
6.169226494885916
 31
0.0
  0
LINE
  5
B5
330
1F
100
AcDbEntity
  8
Doc_ Finishes
  6
Continuous
100
AcDbLine
 10
42.48130556648308
 20
6.307417387883556
 30
0.0
 11
42.23256638473643
 21
6.086316384736428
 31
0.0
  0
LINE
  5
B6
330
1F
100
AcDbEntity
  8
Doc_ Finishes
  6
Continuous
100
AcDbLine
 10
42.14965184893784
 20
6.611432926829268
 30
0.0
 11
42.48130556648308
 21
6.307417387883556
 31
0.0
  0
LINE
  5
B7
330
1F
100
AcDbEntity
  8
Doc_ Finishes
  6
Continuous
100
AcDbLine
 10
41.48634441384736
 20
6.998363001573564
 30
0.0
 11
42.14965184893784
 21
6.611432926829268
 31
0.0
  0
LINE
  5
B8
330
1F
100
AcDbEntity
  8
Doc_ Finishes
  6
Continuous
100
AcDbLine
 10
40.76776062155783
 20
7.357654897718332
 30
0.0
 11
41.48634441384736
 21
6.998363001573564
 31
0.0
  0
LINE
  5
B9
330
1F
100
AcDbEntity
  8
Doc_ Finishes
  6
Continuous
100
AcDbLine
 10
40.18736329661684
 20
8.048600511408338
 30
0.0
 11
40.76776062155783
 21
7.357654897718332
 31
0.0
  0
LINE
  5
BA
330
1F
100
AcDbEntity
  8
Doc_ Finishes
  6
Continuous
100
AcDbLine
 10
38.99893931943352
 20
8.822460660896931
 30
0.0
 11
40.18736329661684
 21
8.048600511408338
 31
0.0
  0
LINE
  5
BB
330
1F
100
AcDbEntity
  8
Doc_ Finishes
  6
Continuous
100
AcDbLine
 10
38.47381835169158
 20
9.319939024390242
 30
0.0
 11
38.99893931943352
 21
8.822460660896931
 31
0.0
  0
LINE
  5
BC
330
1F
100
AcDbEntity
  8
Doc_ Finishes
  6
Continuous
100
AcDbLine
 10
38.22507916994492
 20
9.734507277734066
 30
0.0
 11
38.47381835169158
 21
9.319939024390242
 31
0.0
  0
LINE
  5
BD
330
1F
100
AcDbEntity
  8
Doc_ Finishes
  6
Continuous
100
AcDbLine
 10
37.17484166011014
 20
10.31490460267506
 30
0.0
 11
38.22507916994492
 21
9.734507277734066
 31
0.0
  0
LINE
  5
BE
330
1F
100
AcDbEntity
  8
Doc_ Finishes
  6
Continuous
100
AcDbLine
 10
36.7326352281668
 20
10.78474478756884
 30
0.0
 11
37.17484166011014
 21
10.31490460267506
 31
0.0
  0
LINE
  5
BF
330
1F
100
AcDbEntity
  8
Doc_ Finishes
  6
Continuous
100
AcDbLine
 10
36.23515243902439
 20
11.17167486231314
 30
0.0
 11
36.7326352281668
 21
10.78474478756884
 31
0.0
  0
LINE
  5
C0
330
1F
100
AcDbEntity
  8
Doc_ Finishes
  6
Continuous
100
AcDbLine
 10
35.48893046813532
 20
11.61388129425649
 30
0.0
 11
36.23515243902439
 21
11.17167486231314
 31
0.0
  0
LINE
  5
C1
330
1F
100
AcDbEntity
  8
Doc_ Finishes
  6
Continuous
100
AcDbLine
 10
34.85326121164437
 20
12.16663601494886
 30
0.0
 11
35.48893046813532
 21
11.61388129425649
 31
0.0
  0
LINE
  5
C2
330
1F
100
AcDbEntity
  8
Doc_ Finishes
  6
Continuous
100
AcDbLine
 10
34.35578284815106
 20
12.58120426829268
 30
0.0
 11
34.85326121164437
 21
12.16663601494886
 31
0.0
  0
LINE
  5
C3
330
1F
100
AcDbEntity
  8
Doc_ Finishes
  6
Continuous
100
AcDbLine
 10
33.69247098741149
 20
12.99577252163651
 30
0.0
 11
34.35578284815106
 21
12.58120426829268
 31
0.0
  0
LINE
  5
C4
330
1F
100
AcDbEntity
  8
Doc_ Finishes
  6
Continuous
100
AcDbLine
 10
33.2226308025177
 20
13.32742623918175
 30
0.0
 11
33.69247098741149
 21
12.99577252163651
 31
0.0
  0
LINE
  5
C5
330
1F
100
AcDbEntity
  8
Doc_ Finishes
  6
Continuous
100
AcDbLine
 10
32.7251480133753
 20
13.5761654209284
 30
0.0
 11
33.2226308025177
 21
13.32742623918175
 31
0.0
  0
LINE
  5
C6
330
1F
100
AcDbEntity
  8
Doc_ Finishes
  6
Continuous
100
AcDbLine
 10
31.93747098741148
 20
14.0644340086546
 30
0.0
 11
32.7251480133753
 21
13.5761654209284
 31
0.0
  0
LINE
  5
C7
330
1F
100
AcDbEntity
  8
Doc_ Finishes
  6
Continuous
100
AcDbLine
 10
31.43077842250197
 20
14.38687795043273
 30
0.0
 11
31.93747098741148
 21
14.0644340086546
 31
0.0
  0
LINE
  5
C8
330
1F
100
AcDbEntity
  8
Doc_ Finishes
  6
Continuous
100
AcDbLine
 10
30.92408143194335
 20
14.70931746656176
 30
0.0
 11
31.43077842250197
 21
14.38687795043273
 31
0.0
  0
LINE
  5
C9
330
1F
100
AcDbEntity
  8
Doc_ Finishes
  6
Continuous
100
AcDbLine
 10
30.62467299370574
 20
15.10085464201416
 30
0.0
 11
30.92408143194335
 21
14.70931746656176
 31
0.0
  0
LINE
  5
CA
330
1F
100
AcDbEntity
  8
Doc_ Finishes
  6
Continuous
100
AcDbLine
 10
29.95675845790716
 20
15.67664486624705
 30
0.0
 11
30.62467299370574
 21
15.10085464201416
 31
0.0
  0
LINE
  5
CB
330
1F
100
AcDbEntity
  8
Doc_ Finishes
  6
Continuous
100
AcDbLine
 10
29.47309697088906
 20
15.95302222659323
 30
0.0
 11
29.95675845790716
 21
15.67664486624705
 31
0.0
  0
LINE
  5
CC
330
1F
100
AcDbEntity
  8
Doc_ Finishes
  6
Continuous
100
AcDbLine
 10
28.8282135129819
 20
16.36759047993706
 30
0.0
 11
29.47309697088906
 21
15.95302222659323
 31
0.0
  0
LINE
  5
CD
330
1F
100
AcDbEntity
  8
Doc_ Finishes
  6
Continuous
100
AcDbLine
 10
28.50577399685287
 20
16.22939958693942
 30
0.0
 11
28.8282135129819
 21
16.36759047993706
 31
0.0
  0
LINE
  5
CE
330
1F
100
AcDbEntity
  8
Doc_ Finishes
  6
Continuous
100
AcDbLine
 10
28.06817466561763
 20
15.74573809992132
 30
0.0
 11
28.50577399685287
 21
16.22939958693942
 31
0.0
  0
LINE
  5
CF
330
1F
100
AcDbEntity
  8
Doc_ Finishes
  6
Continuous
 62
   254
370
    18
100
AcDbLine
 10
97.43333792289535
 20
5.093360051140834
 30
0.0
 11
97.43333792289535
 21
20.69901750590086
 31
0.0
  0
LINE
  5
D0
330
1F
100
AcDbEntity
  8
Doc_ Finishes
  6
Continuous
 62
   254
370
    18
100
AcDbLine
 10
7.000000491738787
 20
20.69901750590086
 30
0.0
 11
290.2406840086546
 21
20.69901750590086
 31
0.0
  0
LINE
  5
D1
330
1F
100
AcDbEntity
  8
Doc_ Finishes
  6
Continuous
 62
   254
370
    18
100
AcDbLine
 10
290.2406840086546
 20
20.69901750590086
 30
0.0
 11
290.2406840086546
 21
5.000000983477577
 31
0.0
  0
LINE
  5
D2
330
1F
100
AcDbEntity
  8
Doc_ Finishes
  6
Continuous
 62
   254
370
    18
100
AcDbLine
 10
290.2406840086546
 20
5.000000983477577
 30
0.0
 11
7.000000491738787
 21
5.000000983477577
 31
0.0
  0
LINE
  5
D3
330
1F
100
AcDbEntity
  8
Doc_ Finishes
  6
Continuous
 62
   254
370
    18
100
AcDbLine
 10
7.000000491738787
 20
20.69901750590086
 30
0.0
 11
7.000000491738787
 21
5.000000983477577
 31
0.0
  0
LINE
  5
D4
330
1F
100
AcDbEntity
  8
Doc_ Finishes
  6
Continuous
 62
   254
370
    18
100
AcDbLine
 10
190.2919443351691
 20
5.093360051140834
 30
0.0
 11
190.2919443351691
 21
20.69901750590086
 31
0.0
  0
LINE
  5
D5
330
1F
100
AcDbEntity
  8
Doc_ Finishes
  6
Continuous
 62
   254
370
    18
100
AcDbLine
 10
190.2919443351691
 20
12.8961909913454
 30
0.0
 11
290.2406840086546
 21
12.8961909913454
 31
0.0
  0
MTEXT
  5
D7
330
1F
100
AcDbEntity
  8
0
  6
Continuous
100
AcDbMText
 10
210.3494767103412
 20
15.00228492609298
 30
0.0
 40
2.25
 41
0.0
 71
     7
 72
     1
  1
{R-TRS9-18}
  7
GENERATED_STYLE_1
 73
     1
 44
1.0
  0
MTEXT
  5
D8
330
1F
100
AcDbEntity
  8
0
  6
Continuous
100
AcDbMText
 10
210.3494767103412
 20
11.03300550383743
 30
0.0
 40
3.0
 41
0.0
 71
     1
 72
     1
  1
{CHIMNEY PENETRATION DETAIL}
  7
GENERATED_STYLE_1
 73
     1
 44
1.0
  0
MTEXT
  5
DA
330
1F
100
AcDbEntity
  8
Doc_ Floor
  6
Continuous
100
AcDbMText
 10
29.78353726544612
 20
13.33283672870609
 30
0.0
 40
5.603347280334726
 41
0.0
 71
     1
 72
     1
  1
{The Roofing Store}
  7
GENERATED_STYLE_2
 73
     1
 44
1.0
  0
MTEXT
  5
DC
102
{ACAD_XDICTIONARY
360
3BE
102
}
330
1F
100
AcDbEntity
  8
0
  6
Continuous
100
AcDbMText
 10
102.7389238446655
 20
6.378784417288159
 30
0.0
 40
1.5
 41
0.0
 71
     7
 72
     1
  1
{P: HEAD OFFICE              09 277 2717\P    ALBANY             09 972 0060\P    KATIKAIT            07 549 5190\P    WELLINGTON              04 974 5792\P    CHRISTCHURCH          03 348 6528}
  7
GENERATED_STYLE_1
 73
     1
 44
1.062946161486498
  0
MTEXT
  5
DD
330
1F
100
AcDbEntity
  8
0
  6
Continuous
100
AcDbMText
 10
149.4184566143587
 20
9.199084231526156
 30
0.0
 40
1.5
 41
0.0
 71
     7
 72
     1
  1
{WEB: www.theroofingstore.co.nz}
  7
GENERATED_STYLE_1
 73
     1
 44
1.0
  0
MTEXT
  5
DE
330
1F
100
AcDbEntity
  8
0
  6
Continuous
100
AcDbMText
 10
149.4184566143587
 20
6.620946023411263
 30
0.0
 40
1.5
 41
0.0
 71
     7
 72
     1
  1
{Copyright \U+00A9 The Roofing Store 2013}
  7
GENERATED_STYLE_1
 73
     1
 44
1.0
  0
MTEXT
  5
DF
330
1F
100
AcDbEntity
  8
0
  6
Continuous
100
AcDbMText
 10
273.9546684065315
 20
15.01595325993831
 30
0.0
 40
2.25
 41
0.0
 71
     7
 72
     1
  1
{1:30}
  7
GENERATED_STYLE_1
 73
     1
 44
1.0
  0
MTEXT
  5
E0
330
1F
100
AcDbEntity
  8
0
  6
Continuous
100
AcDbMText
 10
264.8396605309016
 20
15.51746459162148
 30
0.0
 40
1.5
 41
0.0
 71
     7
 72
     1
  1
{SCALE:}
  7
GENERATED_STYLE_1
 73
     1
 44
1.0
  0
MTEXT
  5
E1
330
1F
100
AcDbEntity
  8
0
  6
Continuous
100
AcDbMText
 10
191.5066235617487
 20
15.48695559872207
 30
0.0
 40
1.5
 41
0.0
 71
     7
 72
     1
  1
{DETAIL NUMBER:}
  7
GENERATED_STYLE_1
 73
     1
 44
1.0
  0
MTEXT
  5
E2
330
1F
100
AcDbEntity
  8
0
  6
Continuous
100
AcDbMText
 10
191.5066235617487
 20
9.005462392315325
 30
0.0
 40
1.5
 41
0.0
 71
     7
 72
     1
  1
{TITLE:}
  7
GENERATED_STYLE_1
 73
     1
 44
1.0
  0
INSERT
  5
389
102
{ACAD_XDICTIONARY
360
38A
102
}
330
1F
100
AcDbEntity
  8
0
  6
Continuous
100
AcDbBlockReference
  2
Drawing_1_2
 10
145.2277640610102
 20
160.7933108349203
 30
0.0
  0
HATCH
  5
38D
330
1F
100
AcDbEntity
  8
0
  6
Continuous
 62
   255
370
    18
100
AcDbHatch
 10
0.0
 20
0.0
 30
0.0
210
0.0
220
0.0
230
1.0
  2
SOLID
 70
     1
 71
     1
 91
        1
 92
        3
 72
     0
 73
     1
 93
        4
 10
273.3048340926641
 20
18.76127115967694
 10
281.1157441007591
 20
18.76127115967694
 10
281.1157441007591
 20
13.60607055433428
 10
273.3048340926641
 20
13.60607055433428
 97
        1
330
38E
 75
     0
 76
     1
 98
        0
  0
LWPOLYLINE
  5
38E
102
{ACAD_REACTORS
330
38D
102
}
330
1F
100
AcDbEntity
  8
0
  6
Continuous
 62
   255
370
    18
100
AcDbPolyline
 90
        4
 70
   129
 43
0.0
 10
273.3048340926641
 20
18.76127115967694
 10
281.1157441007591
 20
18.76127115967694
 10
281.1157441007591
 20
13.60607055433428
 10
273.3048340926641
 20
13.60607055433428
  0
MTEXT
  5
38F
330
1F
100
AcDbEntity
  8
0
  6
Continuous
100
AcDbMText
 10
273.3048340926641
 20
15.04971009924697
 30
0.0
 40
2.0
 41
0.0
 71
     7
 72
     1
  1
{NTS}
  7
GENERATED_STYLE_1
 73
     1
 44
1.0
  0
ENDSEC
  0
SECTION
  2
OBJECTS
  0
DICTIONARY
  5
C
330
0
100
AcDbDictionary
281
     1
  3
ACAD_GROUP
350
D
  3
ACAD_LAYOUT
350
1A
  3
ACAD_MATERIAL
350
3B
  3
ACAD_MLEADERSTYLE
350
3B9
  3
ACAD_MLINESTYLE
350
17
  3
ACAD_PLOTSETTINGS
350
19
  3
ACAD_PLOTSTYLENAME
350
E
  3
ACAD_SCALELIST
350
393
  3
ACAD_VISUALSTYLE
350
2A
  3
AcDbVariableDictionary
350
3B7
  3
WATERMARKS
350
3B5
  0
DICTIONARY
  5
3BE
330
DC
100
AcDbDictionary
280
     1
281
     1
  3
ACAD_MTEXT_RT
360
3BF
  0
DICTIONARY
  5
38A
330
389
100
AcDbDictionary
280
     1
281
     1
  3
ACAD_FILTER
360
38B
  0
DICTIONARY
  5
D
102
{ACAD_REACTORS
330
C
102
}
330
C
100
AcDbDictionary
281
     1
  0
DICTIONARY
  5
1A
102
{ACAD_REACTORS
330
C
102
}
330
C
100
AcDbDictionary
281
     1
  3
Layout1
350
1E
  3
Model
350
22
  0
DICTIONARY
  5
3B
102
{ACAD_REACTORS
330
C
102
}
330
C
100
AcDbDictionary
281
     1
  3
ByBlock
350
3D
  3
ByLayer
350
3C
  3
Global
350
3E
  0
DICTIONARY
  5
3B9
102
{ACAD_REACTORS
330
C
102
}
330
C
100
AcDbDictionary
281
     1
  0
DICTIONARY
  5
17
102
{ACAD_REACTORS
330
C
102
}
330
C
100
AcDbDictionary
281
     1
  3
Standard
350
18
  0
DICTIONARY
  5
19
102
{ACAD_REACTORS
330
C
102
}
330
C
100
AcDbDictionary
281
     1
  0
ACDBDICTIONARYWDFLT
  5
E
102
{ACAD_REACTORS
330
C
102
}
330
C
100
AcDbDictionary
281
     1
  3
Normal
350
F
100
AcDbDictionaryWithDefault
340
F
  0
DICTIONARY
  5
393
102
{ACAD_REACTORS
330
C
102
}
330
C
100
AcDbDictionary
281
     1
  3
A0
350
394
  3
A1
350
395
  3
A2
350
396
  3
A3
350
397
  3
A4
350
398
  3
A5
350
399
  3
A6
350
39A
  3
A7
350
39B
  3
A8
350
39C
  3
A9
350
39D
  3
B0
350
39E
  3
B1
350
39F
  3
B2
350
3A0
  3
B3
350
3A1
  3
B4
350
3A2
  3
B5
350
3A3
  3
B6
350
3A4
  3
B7
350
3A5
  3
B8
350
3A6
  3
B9
350
3A7
  3
C0
350
3A8
  3
C1
350
3A9
  3
C2
350
3AA
  3
C3
350
3AB
  3
C4
350
3AC
  3
C5
350
3AD
  3
C6
350
3AE
  3
C7
350
3AF
  3
C8
350
3B0
  3
C9
350
3B1
  3
D0
350
3B2
  3
D1
350
3B3
  3
D2
350
3B4
  0
DICTIONARY
  5
2A
102
{ACAD_REACTORS
330
C
102
}
330
C
100
AcDbDictionary
281
     1
  3
2dWireframe
350
2F
  3
3D Hidden
350
31
  3
3dWireframe
350
30
  3
Basic
350
32
  3
Brighten
350
36
  3
ColorChange
350
3A
  3
Conceptual
350
34
  3
Dim
350
35
  3
Facepattern
350
39
  3
Flat
350
2B
  3
FlatWithEdges
350
2C
  3
Gouraud
350
2D
  3
GouraudWithEdges
350
2E
  3
Linepattern
350
38
  3
Realistic
350
33
  3
Thicken
350
37
  0
DICTIONARY
  5
3B7
102
{ACAD_REACTORS
330
C
102
}
330
C
100
AcDbDictionary
281
     1
  3
CANNOSCALE
350
3BB
  3
DIMASSOC
350
3BC
  3
HIDETEXT
350
3BD
  3
XCLIPFRAME
350
3BA
  0
DICTIONARY
  5
3B5
102
{ACAD_REACTORS
330
C
102
}
330
C
100
AcDbDictionary
281
     1
  3
AC_WATERMARK
350
3B6
  0
XRECORD
  5
3BF
102
{ACAD_REACTORS
330
3BE
102
}
330
3BE
100
AcDbXrecord
280
     1
 40
956118.0
  1
{P: HEAD OFFICE ^I^I09 277 2717\P    ALBANY ^I^I09 972 0060\P    KATIKAIT^I^I07 549 5190\P    WELLINGTON^I^I04 974 5792\P    CHRISTCHURCH^I^I03 348 6528}
  0
DICTIONARY
  5
38B
102
{ACAD_REACTORS
330
38A
102
}
330
38A
100
AcDbDictionary
280
     1
281
     1
  3
SPATIAL
360
38C
  0
LAYOUT
  5
1E
102
{ACAD_REACTORS
330
1A
102
}
330
1A
100
AcDbPlotSettings
  1

  2
none_device
  4

  6

 40
0.0
 41
0.0
 42
0.0
 43
0.0
 44
0.0
 45
0.0
 46
0.0
 47
0.0
 48
0.0
 49
0.0
140
0.0
141
0.0
142
1.0
143
1.0
 70
   688
 72
     0
 73
     0
 74
     5
  7

 75
    16
147
1.0
148
0.0
149
0.0
100
AcDbLayout
  1
Layout1
 70
     1
 71
     1
 10
0.0
 20
0.0
 11
12.0
 21
9.0
 12
0.0
 22
0.0
 32
0.0
 14
1.000000000000000E+20
 24
1.000000000000000E+20
 34
1.000000000000000E+20
 15
-1.000000000000000E+20
 25
-1.000000000000000E+20
 35
-1.000000000000000E+20
146
0.0
 13
0.0
 23
0.0
 33
0.0
 16
1.0
 26
0.0
 36
0.0
 17
0.0
 27
1.0
 37
0.0
 76
     0
330
1B
  0
LAYOUT
  5
22
102
{ACAD_REACTORS
330
1A
102
}
330
1A
100
AcDbPlotSettings
  1

  2
none_device
  4

  6

 40
0.0
 41
0.0
 42
0.0
 43
0.0
 44
0.0
 45
0.0
 46
0.0
 47
0.0
 48
0.0
 49
0.0
140
0.0
141
0.0
142
1.0
143
1.0
 70
  1712
 72
     0
 73
     0
 74
     0
  7

 75
     0
147
1.0
148
0.0
149
0.0
100
AcDbLayout
  1
Model
 70
     1
 71
     0
 10
0.0
 20
0.0
 11
12.0
 21
9.0
 12
0.0
 22
0.0
 32
0.0
 14
1.000000000000000E+20
 24
1.000000000000000E+20
 34
1.000000000000000E+20
 15
-1.000000000000000E+20
 25
-1.000000000000000E+20
 35
-1.000000000000000E+20
146
0.0
 13
0.0
 23
0.0
 33
0.0
 16
1.0
 26
0.0
 36
0.0
 17
0.0
 27
1.0
 37
0.0
 76
     0
330
1F
331
29
  0
MATERIAL
  5
3D
102
{ACAD_REACTORS
330
3B
102
}
102
{ACAD_XDICTIONARY
360
3E2
102
}
330
3B
100
AcDbMaterial
  1
ByBlock
  0
MATERIAL
  5
3C
102
{ACAD_REACTORS
330
3B
102
}
102
{ACAD_XDICTIONARY
360
3E0
102
}
330
3B
100
AcDbMaterial
  1
ByLayer
  0
MATERIAL
  5
3E
102
{ACAD_REACTORS
330
3B
102
}
102
{ACAD_XDICTIONARY
360
3E4
102
}
330
3B
100
AcDbMaterial
  1
Global
  0
MLINESTYLE
  5
18
102
{ACAD_REACTORS
330
17
102
}
330
17
100
AcDbMlineStyle
  2
Standard
 70
     0
  3

 62
   256
 51
90.0
 52
90.0
 71
     2
 49
0.5
 62
   256
  6
BYLAYER
 49
-0.5
 62
   256
  6
BYLAYER
  0
ACDBPLACEHOLDER
  5
F
102
{ACAD_REACTORS
330
E
102
}
330
E
  0
SCALE
  5
394
102
{ACAD_REACTORS
330
393
102
}
330
393
100
AcDbScale
 70
     0
300
1:1
140
1.0
141
1.0
290
     1
  0
SCALE
  5
395
102
{ACAD_REACTORS
330
393
102
}
330
393
100
AcDbScale
 70
     0
300
1:2
140
1.0
141
2.0
290
     0
  0
SCALE
  5
396
102
{ACAD_REACTORS
330
393
102
}
330
393
100
AcDbScale
 70
     0
300
1:4
140
1.0
141
4.0
290
     0
  0
SCALE
  5
397
102
{ACAD_REACTORS
330
393
102
}
330
393
100
AcDbScale
 70
     0
300
1:5
140
1.0
141
5.0
290
     0
  0
SCALE
  5
398
102
{ACAD_REACTORS
330
393
102
}
330
393
100
AcDbScale
 70
     0
300
1:8
140
1.0
141
8.0
290
     0
  0
SCALE
  5
399
102
{ACAD_REACTORS
330
393
102
}
330
393
100
AcDbScale
 70
     0
300
1:10
140
1.0
141
10.0
290
     0
  0
SCALE
  5
39A
102
{ACAD_REACTORS
330
393
102
}
330
393
100
AcDbScale
 70
     0
300
1:16
140
1.0
141
16.0
290
     0
  0
SCALE
  5
39B
102
{ACAD_REACTORS
330
393
102
}
330
393
100
AcDbScale
 70
     0
300
1:20
140
1.0
141
20.0
290
     0
  0
SCALE
  5
39C
102
{ACAD_REACTORS
330
393
102
}
330
393
100
AcDbScale
 70
     0
300
1:30
140
1.0
141
30.0
290
     0
  0
SCALE
  5
39D
102
{ACAD_REACTORS
330
393
102
}
330
393
100
AcDbScale
 70
     0
300
1:40
140
1.0
141
40.0
290
     0
  0
SCALE
  5
39E
102
{ACAD_REACTORS
330
393
102
}
330
393
100
AcDbScale
 70
     0
300
1:50
140
1.0
141
50.0
290
     0
  0
SCALE
  5
39F
102
{ACAD_REACTORS
330
393
102
}
330
393
100
AcDbScale
 70
     0
300
1:100
140
1.0
141
100.0
290
     0
  0
SCALE
  5
3A0
102
{ACAD_REACTORS
330
393
102
}
330
393
100
AcDbScale
 70
     0
300
2:1
140
2.0
141
1.0
290
     0
  0
SCALE
  5
3A1
102
{ACAD_REACTORS
330
393
102
}
330
393
100
AcDbScale
 70
     0
300
4:1
140
4.0
141
1.0
290
     0
  0
SCALE
  5
3A2
102
{ACAD_REACTORS
330
393
102
}
330
393
100
AcDbScale
 70
     0
300
8:1
140
8.0
141
1.0
290
     0
  0
SCALE
  5
3A3
102
{ACAD_REACTORS
330
393
102
}
330
393
100
AcDbScale
 70
     0
300
10:1
140
10.0
141
1.0
290
     0
  0
SCALE
  5
3A4
102
{ACAD_REACTORS
330
393
102
}
330
393
100
AcDbScale
 70
     0
300
100:1
140
100.0
141
1.0
290
     0
  0
SCALE
  5
3A5
102
{ACAD_REACTORS
330
393
102
}
330
393
100
AcDbScale
 70
     0
300
1/128" = 1'-0"
140
0.0078125
141
12.0
290
     0
  0
SCALE
  5
3A6
102
{ACAD_REACTORS
330
393
102
}
330
393
100
AcDbScale
 70
     0
300
1/64" = 1'-0"
140
0.015625
141
12.0
290
     0
  0
SCALE
  5
3A7
102
{ACAD_REACTORS
330
393
102
}
330
393
100
AcDbScale
 70
     0
300
1/32" = 1'-0"
140
0.03125
141
12.0
290
     0
  0
SCALE
  5
3A8
102
{ACAD_REACTORS
330
393
102
}
330
393
100
AcDbScale
 70
     0
300
1/16" = 1'-0"
140
0.0625
141
12.0
290
     0
  0
SCALE
  5
3A9
102
{ACAD_REACTORS
330
393
102
}
330
393
100
AcDbScale
 70
     0
300
3/32" = 1'-0"
140
0.09375
141
12.0
290
     0
  0
SCALE
  5
3AA
102
{ACAD_REACTORS
330
393
102
}
330
393
100
AcDbScale
 70
     0
300
1/8" = 1'-0"
140
0.125
141
12.0
290
     0
  0
SCALE
  5
3AB
102
{ACAD_REACTORS
330
393
102
}
330
393
100
AcDbScale
 70
     0
300
3/16" = 1'-0"
140
0.1875
141
12.0
290
     0
  0
SCALE
  5
3AC
102
{ACAD_REACTORS
330
393
102
}
330
393
100
AcDbScale
 70
     0
300
1/4" = 1'-0"
140
0.25
141
12.0
290
     0
  0
SCALE
  5
3AD
102
{ACAD_REACTORS
330
393
102
}
330
393
100
AcDbScale
 70
     0
300
3/8" = 1'-0"
140
0.375
141
12.0
290
     0
  0
SCALE
  5
3AE
102
{ACAD_REACTORS
330
393
102
}
330
393
100
AcDbScale
 70
     0
300
1/2" = 1'-0"
140
0.5
141
12.0
290
     0
  0
SCALE
  5
3AF
102
{ACAD_REACTORS
330
393
102
}
330
393
100
AcDbScale
 70
     0
300
3/4" = 1'-0"
140
0.75
141
12.0
290
     0
  0
SCALE
  5
3B0
102
{ACAD_REACTORS
330
393
102
}
330
393
100
AcDbScale
 70
     0
300
1" = 1'-0"
140
1.0
141
12.0
290
     0
  0
SCALE
  5
3B1
102
{ACAD_REACTORS
330
393
102
}
330
393
100
AcDbScale
 70
     0
300
1-1/2" = 1'-0"
140
1.5
141
12.0
290
     0
  0
SCALE
  5
3B2
102
{ACAD_REACTORS
330
393
102
}
330
393
100
AcDbScale
 70
     0
300
3" = 1'-0"
140
3.0
141
12.0
290
     0
  0
SCALE
  5
3B3
102
{ACAD_REACTORS
330
393
102
}
330
393
100
AcDbScale
 70
     0
300
6" = 1'-0"
140
6.0
141
12.0
290
     0
  0
SCALE
  5
3B4
102
{ACAD_REACTORS
330
393
102
}
330
393
100
AcDbScale
 70
     0
300
1'-0" = 1'-0"
140
12.0
141
12.0
290
     0
  0
VISUALSTYLE
  5
2F
102
{ACAD_REACTORS
330
2A
102
}
102
{ACAD_XDICTIONARY
360
3C8
102
}
330
2A
100
AcDbVisualStyle
  2
2dWireframe
 70
     4
 71
     0
 72
     2
 73
     0
 90
        0
 40
-0.6
 41
-30.0
 62
     5
 63
     7
 74
     1
 91
        4
 64
     7
 65
   257
 75
     1
175
     1
 42
1.0
 92
        0
 66
   257
 43
1.0
 76
     1
 77
     6
 78
     2
 67
     7
 79
     5
170
     0
171
     0
290
     0
174
     0
 93
        1
 44
0.0
173
     0
291
     0
 45
0.0
1001
ACAD
1000
AcDbSavedByObjectVersion
1070
     0
  0
VISUALSTYLE
  5
31
102
{ACAD_REACTORS
330
2A
102
}
102
{ACAD_XDICTIONARY
360
3CC
102
}
330
2A
100
AcDbVisualStyle
  2
3D Hidden
 70
     6
 71
     1
 72
     2
 73
     2
 90
        0
 40
-0.6
 41
-30.0
 62
     5
 63
     7
 74
     2
 91
        2
 64
     7
 65
   257
 75
     2
175
     1
 42
40.0
 92
        0
 66
   257
 43
1.0
 76
     1
 77
     6
 78
     2
 67
     7
 79
     3
170
     0
171
     0
290
     0
174
     0
 93
        1
 44
0.0
173
     0
291
     0
 45
0.0
1001
ACAD
1000
AcDbSavedByObjectVersion
1070
     0
  0
VISUALSTYLE
  5
30
102
{ACAD_REACTORS
330
2A
102
}
102
{ACAD_XDICTIONARY
360
3CA
102
}
330
2A
100
AcDbVisualStyle
  2
3dWireframe
 70
     5
 71
     0
 72
     2
 73
     0
 90
        0
 40
-0.6
 41
-30.0
 62
     5
 63
     7
 74
     1
 91
        4
 64
     7
 65
   257
 75
     1
175
     1
 42
1.0
 92
        0
 66
   257
 43
1.0
 76
     1
 77
     6
 78
     2
 67
     7
 79
     5
170
     0
171
     0
290
     0
174
     0
 93
        1
 44
0.0
173
     0
291
     0
 45
0.0
1001
ACAD
1000
AcDbSavedByObjectVersion
1070
     0
  0
VISUALSTYLE
  5
32
102
{ACAD_REACTORS
330
2A
102
}
102
{ACAD_XDICTIONARY
360
3CE
102
}
330
2A
100
AcDbVisualStyle
  2
Basic
 70
     7
 71
     1
 72
     0
 73
     1
 90
        0
 40
-0.6
 41
-30.0
 62
     5
 63
     7
 74
     0
 91
        4
 64
     7
 65
   257
 75
     1
175
     1
 42
1.0
 92
        8
 66
     7
 43
1.0
 76
     1
 77
     6
 78
     2
 67
     7
 79
     5
170
     0
171
     0
290
     0
174
     0
 93
        1
 44
0.0
173
     0
291
     1
 45
0.0
1001
ACAD
1000
AcDbSavedByObjectVersion
1070
     0
  0
VISUALSTYLE
  5
36
102
{ACAD_REACTORS
330
2A
102
}
102
{ACAD_XDICTIONARY
360
3D6
102
}
330
2A
100
AcDbVisualStyle
  2
Brighten
 70
    12
 71
     2
 72
     2
 73
     0
 90
        0
 40
-0.6
 41
-30.0
 62
     5
 63
     7
 74
     1
 91
        4
 64
     7
 65
   257
 75
     1
175
     1
 42
1.0
 92
        8
 66
     7
 43
1.0
 76
     1
 77
     6
 78
     2
 67
     7
 79
     5
170
     0
171
     0
290
     0
174
     0
 93
        1
 44
50.0
173
     0
291
     1
 45
0.0
1001
ACAD
1000
AcDbSavedByObjectVersion
1070
     0
  0
VISUALSTYLE
  5
3A
102
{ACAD_REACTORS
330
2A
102
}
102
{ACAD_XDICTIONARY
360
3DE
102
}
330
2A
100
AcDbVisualStyle
  2
ColorChange
 70
    16
 71
     2
 72
     2
 73
     3
 90
        0
 40
-0.6
 41
-30.0
 62
     5
 63
     8
 74
     1
 91
        4
 64
     7
 65
   257
 75
     1
175
     1
 42
1.0
 92
        8
 66
     8
 43
1.0
 76
     1
 77
     6
 78
     2
 67
     7
 79
     5
170
     0
171
     0
290
     0
174
     0
 93
        1
 44
0.0
173
     0
291
     1
 45
0.0
1001
ACAD
1000
AcDbSavedByObjectVersion
1070
     0
  0
VISUALSTYLE
  5
34
102
{ACAD_REACTORS
330
2A
102
}
102
{ACAD_XDICTIONARY
360
3D2
102
}
330
2A
100
AcDbVisualStyle
  2
Conceptual
 70
     9
 71
     3
 72
     2
 73
     0
 90
        0
 40
-0.6
 41
-30.0
 62
     5
 63
     7
 74
     2
 91
        2
 64
     7
 65
   257
 75
     1
175
     1
 42
40.0
 92
        8
 66
     7
 43
1.0
 76
     1
 77
     6
 78
     2
 67
     7
 79
     3
170
     0
171
     0
290
     0
174
     0
 93
        1
 44
0.0
173
     0
291
     0
 45
0.0
1001
ACAD
1000
AcDbSavedByObjectVersion
1070
     0
  0
VISUALSTYLE
  5
35
102
{ACAD_REACTORS
330
2A
102
}
102
{ACAD_XDICTIONARY
360
3D4
102
}
330
2A
100
AcDbVisualStyle
  2
Dim
 70
    11
 71
     2
 72
     2
 73
     0
 90
        0
 40
-0.6
 41
-30.0
 62
     5
 63
     7
 74
     1
 91
        4
 64
     7
 65
   257
 75
     1
175
     1
 42
1.0
 92
        8
 66
     7
 43
1.0
 76
     1
 77
     6
 78
     2
 67
     7
 79
     5
170
     0
171
     0
290
     0
174
     0
 93
        1
 44
-50.0
173
     0
291
     1
 45
0.0
1001
ACAD
1000
AcDbSavedByObjectVersion
1070
     0
  0
VISUALSTYLE
  5
39
102
{ACAD_REACTORS
330
2A
102
}
102
{ACAD_XDICTIONARY
360
3DC
102
}
330
2A
100
AcDbVisualStyle
  2
Facepattern
 70
    15
 71
     2
 72
     2
 73
     0
 90
        0
 40
-0.6
 41
-30.0
 62
     5
 63
     7
 74
     1
 91
        4
 64
     7
 65
   257
 75
     1
175
     1
 42
1.0
 92
        8
 66
     7
 43
1.0
 76
     1
 77
     6
 78
     2
 67
     7
 79
     5
170
     0
171
     0
290
     0
174
     0
 93
        1
 44
0.0
173
     0
291
     1
 45
0.0
1001
ACAD
1000
AcDbSavedByObjectVersion
1070
     0
  0
VISUALSTYLE
  5
2B
102
{ACAD_REACTORS
330
2A
102
}
102
{ACAD_XDICTIONARY
360
3C0
102
}
330
2A
100
AcDbVisualStyle
  2
Flat
 70
     0
 71
     2
 72
     1
 73
     1
 90
        2
 40
-0.6
 41
30.0
 62
     5
 63
     7
 74
     0
 91
        4
 64
     7
 65
   257
 75
     1
175
     1
 42
1.0
 92
        8
 66
     7
 43
1.0
 76
     1
 77
     6
 78
     2
 67
     7
 79
     5
170
     0
171
     0
290
     0
174
     0
 93
       13
 44
0.0
173
     0
291
     1
 45
0.0
1001
ACAD
1000
AcDbSavedByObjectVersion
1070
     0
  0
VISUALSTYLE
  5
2C
102
{ACAD_REACTORS
330
2A
102
}
102
{ACAD_XDICTIONARY
360
3C2
102
}
330
2A
100
AcDbVisualStyle
  2
FlatWithEdges
 70
     1
 71
     2
 72
     1
 73
     1
 90
        2
 40
-0.6
 41
30.0
 62
     5
 63
     7
 74
     1
 91
        4
 64
     7
 65
   257
 75
     1
175
     1
 42
1.0
 92
        0
 66
   257
 43
1.0
 76
     1
 77
     6
 78
     2
 67
     7
 79
     5
170
     0
171
     0
290
     0
174
     0
 93
       13
 44
0.0
173
     0
291
     1
 45
0.0
1001
ACAD
1000
AcDbSavedByObjectVersion
1070
     0
  0
VISUALSTYLE
  5
2D
102
{ACAD_REACTORS
330
2A
102
}
102
{ACAD_XDICTIONARY
360
3C4
102
}
330
2A
100
AcDbVisualStyle
  2
Gouraud
 70
     2
 71
     2
 72
     2
 73
     1
 90
        2
 40
-0.6
 41
30.0
 62
     5
 63
     7
 74
     0
 91
        4
 64
     7
 65
   257
 75
     1
175
     1
 42
1.0
 92
        0
 66
     7
 43
1.0
 76
     1
 77
     6
 78
     2
 67
     7
 79
     5
170
     0
171
     0
290
     0
174
     0
 93
       13
 44
0.0
173
     0
291
     1
 45
0.0
1001
ACAD
1000
AcDbSavedByObjectVersion
1070
     0
  0
VISUALSTYLE
  5
2E
102
{ACAD_REACTORS
330
2A
102
}
102
{ACAD_XDICTIONARY
360
3C6
102
}
330
2A
100
AcDbVisualStyle
  2
GouraudWithEdges
 70
     3
 71
     2
 72
     2
 73
     1
 90
        2
 40
-0.6
 41
30.0
 62
     5
 63
     7
 74
     1
 91
        4
 64
     7
 65
   257
 75
     1
175
     1
 42
1.0
 92
        0
 66
   257
 43
1.0
 76
     1
 77
     6
 78
     2
 67
     7
 79
     5
170
     0
171
     0
290
     0
174
     0
 93
       13
 44
0.0
173
     0
291
     1
 45
0.0
1001
ACAD
1000
AcDbSavedByObjectVersion
1070
     0
  0
VISUALSTYLE
  5
38
102
{ACAD_REACTORS
330
2A
102
}
102
{ACAD_XDICTIONARY
360
3DA
102
}
330
2A
100
AcDbVisualStyle
  2
Linepattern
 70
    14
 71
     2
 72
     2
 73
     0
 90
        0
 40
-0.6
 41
-30.0
 62
     5
 63
     7
 74
     1
 91
        4
 64
     7
 65
   257
 75
     7
175
     7
 42
1.0
 92
        8
 66
     7
 43
1.0
 76
     1
 77
     6
 78
     2
 67
     7
 79
     5
170
     0
171
     0
290
     0
174
     0
 93
        1
 44
0.0
173
     0
291
     1
 45
0.0
1001
ACAD
1000
AcDbSavedByObjectVersion
1070
     0
  0
VISUALSTYLE
  5
33
102
{ACAD_REACTORS
330
2A
102
}
102
{ACAD_XDICTIONARY
360
3D0
102
}
330
2A
100
AcDbVisualStyle
  2
Realistic
 70
     8
 71
     2
 72
     2
 73
     0
 90
        0
 40
-0.6
 41
-30.0
 62
     5
 63
     7
 74
     1
 91
        0
 64
     7
 65
   257
 75
     1
175
     1
 42
1.0
 92
        8
 66
     8
 43
1.0
 76
     1
 77
     6
 78
     2
 67
     7
 79
     5
170
     0
171
     0
290
     0
174
     0
 93
       13
 44
0.0
173
     0
291
     0
 45
0.0
1001
ACAD
1000
AcDbSavedByObjectVersion
1070
     0
  0
VISUALSTYLE
  5
37
102
{ACAD_REACTORS
330
2A
102
}
102
{ACAD_XDICTIONARY
360
3D8
102
}
330
2A
100
AcDbVisualStyle
  2
Thicken
 70
    13
 71
     2
 72
     2
 73
     0
 90
        0
 40
-0.6
 41
-30.0
 62
     5
 63
     7
 74
     1
 91
        4
 64
     7
 65
   257
 75
     1
175
     1
 42
1.0
 92
       12
 66
     7
 43
1.0
 76
     1
 77
     6
 78
     2
 67
     7
 79
     5
170
     0
171
     0
290
     0
174
     0
 93
        1
 44
0.0
173
     0
291
     1
 45
0.0
1001
ACAD
1000
AcDbSavedByObjectVersion
1070
     0
  0
DICTIONARYVAR
  5
3BB
102
{ACAD_REACTORS
330
3B7
102
}
330
3B7
100
DictionaryVariables
280
     0
  1
1:1
  0
DICTIONARYVAR
  5
3BC
102
{ACAD_REACTORS
330
3B7
102
}
330
3B7
100
DictionaryVariables
280
     0
  1
2
  0
DICTIONARYVAR
  5
3BD
102
{ACAD_REACTORS
330
3B7
102
}
330
3B7
100
DictionaryVariables
280
     0
  1
1
  0
DICTIONARYVAR
  5
3BA
102
{ACAD_REACTORS
330
3B7
102
}
330
3B7
100
DictionaryVariables
280
     0
  1
0
  0
XRECORD
  5
3B6
102
{ACAD_REACTORS
330
3B5
102
}
330
3B5
100
AcDbXrecord
280
     1
1000
This DWG file was created in ArchiCAD(TM)®
  0
SPATIAL_FILTER
  5
38C
102
{ACAD_REACTORS
330
38B
102
}
330
38B
100
AcDbFilter
100
AcDbSpatialFilter
 70
     4
 10
42.06086484914336
 20
28.69943650745768
 10
261.1569314878782
 20
28.69943650745768
 10
261.1569314878782
 20
198.8576439242858
 10
42.06086484914336
 20
198.8576439242858
210
0.0
220
0.0
230
1.0
 11
0.0
 21
0.0
 31
0.0
 71
     1
 72
     0
 73
     0
 40
1.0
 40
0.0
 40
0.0
 40
0.0
 40
0.0
 40
1.0
 40
0.0
 40
0.0
 40
0.0
 40
0.0
 40
1.0
 40
0.0
 40
1.0
 40
0.0
 40
0.0
 40
0.0
 40
0.0
 40
1.0
 40
0.0
 40
0.0
 40
0.0
 40
0.0
 40
1.0
 40
0.0
  0
DICTIONARY
  5
3E2
330
3D
100
AcDbDictionary
280
     1
281
     1
  3
ACAD_XREC_ROUNDTRIP
360
3E3
  0
DICTIONARY
  5
3E0
330
3C
100
AcDbDictionary
280
     1
281
     1
  3
ACAD_XREC_ROUNDTRIP
360
3E1
  0
DICTIONARY
  5
3E4
330
3E
100
AcDbDictionary
280
     1
281
     1
  3
ACAD_XREC_ROUNDTRIP
360
3E5
  0
DICTIONARY
  5
3C8
330
2F
100
AcDbDictionary
280
     1
281
     1
  3
ACAD_XREC_ROUNDTRIP
360
3C9
  0
DICTIONARY
  5
3CC
330
31
100
AcDbDictionary
280
     1
281
     1
  3
ACAD_XREC_ROUNDTRIP
360
3CD
  0
DICTIONARY
  5
3CA
330
30
100
AcDbDictionary
280
     1
281
     1
  3
ACAD_XREC_ROUNDTRIP
360
3CB
  0
DICTIONARY
  5
3CE
330
32
100
AcDbDictionary
280
     1
281
     1
  3
ACAD_XREC_ROUNDTRIP
360
3CF
  0
DICTIONARY
  5
3D6
330
36
100
AcDbDictionary
280
     1
281
     1
  3
ACAD_XREC_ROUNDTRIP
360
3D7
  0
DICTIONARY
  5
3DE
330
3A
100
AcDbDictionary
280
     1
281
     1
  3
ACAD_XREC_ROUNDTRIP
360
3DF
  0
DICTIONARY
  5
3D2
330
34
100
AcDbDictionary
280
     1
281
     1
  3
ACAD_XREC_ROUNDTRIP
360
3D3
  0
DICTIONARY
  5
3D4
330
35
100
AcDbDictionary
280
     1
281
     1
  3
ACAD_XREC_ROUNDTRIP
360
3D5
  0
DICTIONARY
  5
3DC
330
39
100
AcDbDictionary
280
     1
281
     1
  3
ACAD_XREC_ROUNDTRIP
360
3DD
  0
DICTIONARY
  5
3C0
330
2B
100
AcDbDictionary
280
     1
281
     1
  3
ACAD_XREC_ROUNDTRIP
360
3C1
  0
DICTIONARY
  5
3C2
330
2C
100
AcDbDictionary
280
     1
281
     1
  3
ACAD_XREC_ROUNDTRIP
360
3C3
  0
DICTIONARY
  5
3C4
330
2D
100
AcDbDictionary
280
     1
281
     1
  3
ACAD_XREC_ROUNDTRIP
360
3C5
  0
DICTIONARY
  5
3C6
330
2E
100
AcDbDictionary
280
     1
281
     1
  3
ACAD_XREC_ROUNDTRIP
360
3C7
  0
DICTIONARY
  5
3DA
330
38
100
AcDbDictionary
280
     1
281
     1
  3
ACAD_XREC_ROUNDTRIP
360
3DB
  0
DICTIONARY
  5
3D0
330
33
100
AcDbDictionary
280
     1
281
     1
  3
ACAD_XREC_ROUNDTRIP
360
3D1
  0
DICTIONARY
  5
3D8
330
37
100
AcDbDictionary
280
     1
281
     1
  3
ACAD_XREC_ROUNDTRIP
360
3D9
  0
XRECORD
  5
3E3
102
{ACAD_REACTORS
330
3E2
102
}
330
3E2
100
AcDbXrecord
280
     1
102
MATERIAL
148
0.0
149
0.0
149
0.0
 93
        0
 94
      127
282
     0
 72
     1
 77
     1
171
     1
175
     1
179
     1
273
     0
  0
XRECORD
  5
3E1
102
{ACAD_REACTORS
330
3E0
102
}
330
3E0
100
AcDbXrecord
280
     1
102
MATERIAL
148
0.0
149
0.0
149
0.0
 93
        0
 94
      127
282
     0
 72
     1
 77
     1
171
     1
175
     1
179
     1
273
     0
  0
XRECORD
  5
3E5
102
{ACAD_REACTORS
330
3E4
102
}
330
3E4
100
AcDbXrecord
280
     1
102
MATERIAL
148
0.0
149
0.0
149
0.0
 93
        0
 94
      127
282
     0
 72
     1
 77
     1
171
     1
175
     1
179
     1
273
     0
  0
XRECORD
  5
3C9
102
{ACAD_REACTORS
330
3C8
102
}
330
3C8
100
AcDbXrecord
280
     1
102
RTVSPropertyOp0
 70
     1
102
RTVSPropertyOp1
 70
     1
102
RTVSPropertyOp2
 70
     1
102
RTVSPropertyOp3
 70
     1
102
RTVSPropertyOp4
 70
     1
102
RTVSPropertyOp5
 70
     1
102
RTVSPropertyOp6
 70
     1
102
RTVSPropertyOp7
 70
     1
102
RTVSPropertyOp8
 70
     1
102
RTVSPropertyOp9
 70
     1
102
RTVSPropertyOp10
 70
     1
102
RTVSPropertyOp11
 70
     1
102
RTVSPropertyOp12
 70
     1
102
RTVSPropertyOp13
 70
     1
102
RTVSPropertyOp14
 70
     1
102
RTVSPropertyOp15
 70
     1
102
RTVSPropertyOp16
 70
     1
102
RTVSPropertyOp17
 70
     1
102
RTVSPropertyOp18
 70
     1
102
RTVSPropertyOp19
 70
     1
102
RTVSPropertyOp20
 70
     1
102
RTVSPropertyOp21
 70
     1
102
RTVSPropertyOp22
 70
     1
102
RTVSPropertyOp23
 70
     1
102
RTVSPropertyOp24
 70
     1
102
RTVSPropertyOp25
 70
     1
102
RTVSPropertyOp26
 70
     1
102
RTVSPropertyOp27
 70
     1
102
RTVSPropertyOp28
 70
     1
102
RTVSPropertyOp29
 70
     1
102
RTVSPropertyOp30
 70
     1
102
RTVSPropertyOp31
 70
     1
102
RTVSPropertyOp32
 70
     1
  0
XRECORD
  5
3CD
102
{ACAD_REACTORS
330
3CC
102
}
330
3CC
100
AcDbXrecord
280
     1
102
RTVSPropertyOp0
 70
     1
102
RTVSPropertyOp1
 70
     1
102
RTVSPropertyOp2
 70
     1
102
RTVSPropertyOp3
 70
     1
102
RTVSPropertyOp4
 70
     1
102
RTVSPropertyOp5
 70
     1
102
RTVSPropertyOp6
 70
     1
102
RTVSPropertyOp7
 70
     1
102
RTVSPropertyOp8
 70
     1
102
RTVSPropertyOp9
 70
     1
102
RTVSPropertyOp10
 70
     1
102
RTVSPropertyOp11
 70
     1
102
RTVSPropertyOp12
 70
     1
102
RTVSPropertyOp13
 70
     1
102
RTVSPropertyOp14
 70
     1
102
RTVSPropertyOp15
 70
     1
102
RTVSPropertyOp16
 70
     1
102
RTVSPropertyOp17
 70
     1
102
RTVSPropertyOp18
 70
     1
102
RTVSPropertyOp19
 70
     1
102
RTVSPropertyOp20
 70
     1
102
RTVSPropertyOp21
 70
     1
102
RTVSPropertyOp22
 70
     1
102
RTVSPropertyOp23
 70
     1
102
RTVSPropertyOp24
 70
     1
102
RTVSPropertyOp25
 70
     1
102
RTVSPropertyOp26
 70
     1
102
RTVSPropertyOp27
 70
     1
102
RTVSPropertyOp28
 70
     1
102
RTVSPropertyOp29
 70
     1
102
RTVSPropertyOp30
 70
     1
102
RTVSPropertyOp31
 70
     1
102
RTVSPropertyOp32
 70
     1
  0
XRECORD
  5
3CB
102
{ACAD_REACTORS
330
3CA
102
}
330
3CA
100
AcDbXrecord
280
     1
102
RTVSPropertyOp0
 70
     1
102
RTVSPropertyOp1
 70
     1
102
RTVSPropertyOp2
 70
     1
102
RTVSPropertyOp3
 70
     1
102
RTVSPropertyOp4
 70
     1
102
RTVSPropertyOp5
 70
     1
102
RTVSPropertyOp6
 70
     1
102
RTVSPropertyOp7
 70
     1
102
RTVSPropertyOp8
 70
     1
102
RTVSPropertyOp9
 70
     1
102
RTVSPropertyOp10
 70
     1
102
RTVSPropertyOp11
 70
     1
102
RTVSPropertyOp12
 70
     1
102
RTVSPropertyOp13
 70
     1
102
RTVSPropertyOp14
 70
     1
102
RTVSPropertyOp15
 70
     1
102
RTVSPropertyOp16
 70
     1
102
RTVSPropertyOp17
 70
     1
102
RTVSPropertyOp18
 70
     1
102
RTVSPropertyOp19
 70
     1
102
RTVSPropertyOp20
 70
     1
102
RTVSPropertyOp21
 70
     1
102
RTVSPropertyOp22
 70
     1
102
RTVSPropertyOp23
 70
     1
102
RTVSPropertyOp24
 70
     1
102
RTVSPropertyOp25
 70
     1
102
RTVSPropertyOp26
 70
     1
102
RTVSPropertyOp27
 70
     1
102
RTVSPropertyOp28
 70
     1
102
RTVSPropertyOp29
 70
     1
102
RTVSPropertyOp30
 70
     1
102
RTVSPropertyOp31
 70
     1
102
RTVSPropertyOp32
 70
     1
  0
XRECORD
  5
3CF
102
{ACAD_REACTORS
330
3CE
102
}
330
3CE
100
AcDbXrecord
280
     1
102
RTVSPropertyOp0
 70
     1
102
RTVSPropertyOp1
 70
     1
102
RTVSPropertyOp2
 70
     1
102
RTVSPropertyOp3
 70
     1
102
RTVSPropertyOp4
 70
     1
102
RTVSPropertyOp5
 70
     1
102
RTVSPropertyOp6
 70
     1
102
RTVSPropertyOp7
 70
     1
102
RTVSPropertyOp8
 70
     1
102
RTVSPropertyOp9
 70
     1
102
RTVSPropertyOp10
 70
     1
102
RTVSPropertyOp11
 70
     1
102
RTVSPropertyOp12
 70
     1
102
RTVSPropertyOp13
 70
     1
102
RTVSPropertyOp14
 70
     1
102
RTVSPropertyOp15
 70
     1
102
RTVSPropertyOp16
 70
     1
102
RTVSPropertyOp17
 70
     1
102
RTVSPropertyOp18
 70
     1
102
RTVSPropertyOp19
 70
     1
102
RTVSPropertyOp20
 70
     1
102
RTVSPropertyOp21
 70
     1
102
RTVSPropertyOp22
 70
     1
102
RTVSPropertyOp23
 70
     1
102
RTVSPropertyOp24
 70
     1
102
RTVSPropertyOp25
 70
     1
102
RTVSPropertyOp26
 70
     1
102
RTVSPropertyOp27
 70
     1
102
RTVSPropertyOp28
 70
     1
102
RTVSPropertyOp29
 70
     1
102
RTVSPropertyOp30
 70
     1
102
RTVSPropertyOp31
 70
     1
102
RTVSPropertyOp32
 70
     1
  0
XRECORD
  5
3D7
102
{ACAD_REACTORS
330
3D6
102
}
330
3D6
100
AcDbXrecord
280
     1
102
RTVSPropertyOp0
 70
     1
102
RTVSPropertyOp1
 70
     1
102
RTVSPropertyOp2
 70
     1
102
RTVSPropertyOp3
 70
     1
102
RTVSPropertyOp4
 70
     1
102
RTVSPropertyOp5
 70
     1
102
RTVSPropertyOp6
 70
     1
102
RTVSPropertyOp7
 70
     1
102
RTVSPropertyOp8
 70
     1
102
RTVSPropertyOp9
 70
     1
102
RTVSPropertyOp10
 70
     1
102
RTVSPropertyOp11
 70
     1
102
RTVSPropertyOp12
 70
     1
102
RTVSPropertyOp13
 70
     1
102
RTVSPropertyOp14
 70
     1
102
RTVSPropertyOp15
 70
     1
102
RTVSPropertyOp16
 70
     1
102
RTVSPropertyOp17
 70
     1
102
RTVSPropertyOp18
 70
     1
102
RTVSPropertyOp19
 70
     1
102
RTVSPropertyOp20
 70
     1
102
RTVSPropertyOp21
 70
     1
102
RTVSPropertyOp22
 70
     1
102
RTVSPropertyOp23
 70
     1
102
RTVSPropertyOp24
 70
     1
102
RTVSPropertyOp25
 70
     1
102
RTVSPropertyOp26
 70
     1
102
RTVSPropertyOp27
 70
     1
102
RTVSPropertyOp28
 70
     1
102
RTVSPropertyOp29
 70
     1
102
RTVSPropertyOp30
 70
     1
102
RTVSPropertyOp31
 70
     1
102
RTVSPropertyOp32
 70
     1
  0
XRECORD
  5
3DF
102
{ACAD_REACTORS
330
3DE
102
}
330
3DE
100
AcDbXrecord
280
     1
102
RTVSPropertyOp0
 70
     1
102
RTVSPropertyOp1
 70
     1
102
RTVSPropertyOp2
 70
     1
102
RTVSPropertyOp3
 70
     1
102
RTVSPropertyOp4
 70
     1
102
RTVSPropertyOp5
 70
     1
102
RTVSPropertyOp6
 70
     1
102
RTVSPropertyOp7
 70
     1
102
RTVSPropertyOp8
 70
     1
102
RTVSPropertyOp9
 70
     1
102
RTVSPropertyOp10
 70
     1
102
RTVSPropertyOp11
 70
     1
102
RTVSPropertyOp12
 70
     1
102
RTVSPropertyOp13
 70
     1
102
RTVSPropertyOp14
 70
     1
102
RTVSPropertyOp15
 70
     1
102
RTVSPropertyOp16
 70
     1
102
RTVSPropertyOp17
 70
     1
102
RTVSPropertyOp18
 70
     1
102
RTVSPropertyOp19
 70
     1
102
RTVSPropertyOp20
 70
     1
102
RTVSPropertyOp21
 70
     1
102
RTVSPropertyOp22
 70
     1
102
RTVSPropertyOp23
 70
     1
102
RTVSPropertyOp24
 70
     1
102
RTVSPropertyOp25
 70
     1
102
RTVSPropertyOp26
 70
     1
102
RTVSPropertyOp27
 70
     1
102
RTVSPropertyOp28
 70
     1
102
RTVSPropertyOp29
 70
     1
102
RTVSPropertyOp30
 70
     1
102
RTVSPropertyOp31
 70
     1
102
RTVSPropertyOp32
 70
     1
  0
XRECORD
  5
3D3
102
{ACAD_REACTORS
330
3D2
102
}
330
3D2
100
AcDbXrecord
280
     1
102
RTVSPropertyOp0
 70
     1
102
RTVSPropertyOp1
 70
     1
102
RTVSPropertyOp2
 70
     1
102
RTVSPropertyOp3
 70
     1
102
RTVSPropertyOp4
 70
     1
102
RTVSPropertyOp5
 70
     1
102
RTVSPropertyOp6
 70
     1
102
RTVSPropertyOp7
 70
     1
102
RTVSPropertyOp8
 70
     1
102
RTVSPropertyOp9
 70
     1
102
RTVSPropertyOp10
 70
     1
102
RTVSPropertyOp11
 70
     1
102
RTVSPropertyOp12
 70
     1
102
RTVSPropertyOp13
 70
     1
102
RTVSPropertyOp14
 70
     1
102
RTVSPropertyOp15
 70
     1
102
RTVSPropertyOp16
 70
     1
102
RTVSPropertyOp17
 70
     1
102
RTVSPropertyOp18
 70
     1
102
RTVSPropertyOp19
 70
     1
102
RTVSPropertyOp20
 70
     1
102
RTVSPropertyOp21
 70
     1
102
RTVSPropertyOp22
 70
     1
102
RTVSPropertyOp23
 70
     1
102
RTVSPropertyOp24
 70
     1
102
RTVSPropertyOp25
 70
     1
102
RTVSPropertyOp26
 70
     1
102
RTVSPropertyOp27
 70
     1
102
RTVSPropertyOp28
 70
     1
102
RTVSPropertyOp29
 70
     1
102
RTVSPropertyOp30
 70
     1
102
RTVSPropertyOp31
 70
     1
102
RTVSPropertyOp32
 70
     1
  0
XRECORD
  5
3D5
102
{ACAD_REACTORS
330
3D4
102
}
330
3D4
100
AcDbXrecord
280
     1
102
RTVSPropertyOp0
 70
     1
102
RTVSPropertyOp1
 70
     1
102
RTVSPropertyOp2
 70
     1
102
RTVSPropertyOp3
 70
     1
102
RTVSPropertyOp4
 70
     1
102
RTVSPropertyOp5
 70
     1
102
RTVSPropertyOp6
 70
     1
102
RTVSPropertyOp7
 70
     1
102
RTVSPropertyOp8
 70
     1
102
RTVSPropertyOp9
 70
     1
102
RTVSPropertyOp10
 70
     1
102
RTVSPropertyOp11
 70
     1
102
RTVSPropertyOp12
 70
     1
102
RTVSPropertyOp13
 70
     1
102
RTVSPropertyOp14
 70
     1
102
RTVSPropertyOp15
 70
     1
102
RTVSPropertyOp16
 70
     1
102
RTVSPropertyOp17
 70
     1
102
RTVSPropertyOp18
 70
     1
102
RTVSPropertyOp19
 70
     1
102
RTVSPropertyOp20
 70
     1
102
RTVSPropertyOp21
 70
     1
102
RTVSPropertyOp22
 70
     1
102
RTVSPropertyOp23
 70
     1
102
RTVSPropertyOp24
 70
     1
102
RTVSPropertyOp25
 70
     1
102
RTVSPropertyOp26
 70
     1
102
RTVSPropertyOp27
 70
     1
102
RTVSPropertyOp28
 70
     1
102
RTVSPropertyOp29
 70
     1
102
RTVSPropertyOp30
 70
     1
102
RTVSPropertyOp31
 70
     1
102
RTVSPropertyOp32
 70
     1
  0
XRECORD
  5
3DD
102
{ACAD_REACTORS
330
3DC
102
}
330
3DC
100
AcDbXrecord
280
     1
102
RTVSPropertyOp0
 70
     1
102
RTVSPropertyOp1
 70
     1
102
RTVSPropertyOp2
 70
     1
102
RTVSPropertyOp3
 70
     1
102
RTVSPropertyOp4
 70
     1
102
RTVSPropertyOp5
 70
     1
102
RTVSPropertyOp6
 70
     1
102
RTVSPropertyOp7
 70
     1
102
RTVSPropertyOp8
 70
     1
102
RTVSPropertyOp9
 70
     1
102
RTVSPropertyOp10
 70
     1
102
RTVSPropertyOp11
 70
     1
102
RTVSPropertyOp12
 70
     1
102
RTVSPropertyOp13
 70
     1
102
RTVSPropertyOp14
 70
     1
102
RTVSPropertyOp15
 70
     1
102
RTVSPropertyOp16
 70
     1
102
RTVSPropertyOp17
 70
     1
102
RTVSPropertyOp18
 70
     1
102
RTVSPropertyOp19
 70
     1
102
RTVSPropertyOp20
 70
     1
102
RTVSPropertyOp21
 70
     1
102
RTVSPropertyOp22
 70
     1
102
RTVSPropertyOp23
 70
     1
102
RTVSPropertyOp24
 70
     1
102
RTVSPropertyOp25
 70
     1
102
RTVSPropertyOp26
 70
     1
102
RTVSPropertyOp27
 70
     1
102
RTVSPropertyOp28
 70
     1
102
RTVSPropertyOp29
 70
     1
102
RTVSPropertyOp30
 70
     1
102
RTVSPropertyOp31
 70
     1
102
RTVSPropertyOp32
 70
     1
  0
XRECORD
  5
3C1
102
{ACAD_REACTORS
330
3C0
102
}
330
3C0
100
AcDbXrecord
280
     1
102
RTVSPropertyOp0
 70
     1
102
RTVSPropertyOp1
 70
     1
102
RTVSPropertyOp2
 70
     1
102
RTVSPropertyOp3
 70
     1
102
RTVSPropertyOp4
 70
     1
102
RTVSPropertyOp5
 70
     1
102
RTVSPropertyOp6
 70
     1
102
RTVSPropertyOp7
 70
     1
102
RTVSPropertyOp8
 70
     1
102
RTVSPropertyOp9
 70
     1
102
RTVSPropertyOp10
 70
     1
102
RTVSPropertyOp11
 70
     1
102
RTVSPropertyOp12
 70
     1
102
RTVSPropertyOp13
 70
     1
102
RTVSPropertyOp14
 70
     1
102
RTVSPropertyOp15
 70
     1
102
RTVSPropertyOp16
 70
     1
102
RTVSPropertyOp17
 70
     1
102
RTVSPropertyOp18
 70
     1
102
RTVSPropertyOp19
 70
     1
102
RTVSPropertyOp20
 70
     1
102
RTVSPropertyOp21
 70
     1
102
RTVSPropertyOp22
 70
     1
102
RTVSPropertyOp23
 70
     1
102
RTVSPropertyOp24
 70
     1
102
RTVSPropertyOp25
 70
     1
102
RTVSPropertyOp26
 70
     1
102
RTVSPropertyOp27
 70
     1
102
RTVSPropertyOp28
 70
     1
102
RTVSPropertyOp29
 70
     1
102
RTVSPropertyOp30
 70
     1
102
RTVSPropertyOp31
 70
     1
102
RTVSPropertyOp32
 70
     1
  0
XRECORD
  5
3C3
102
{ACAD_REACTORS
330
3C2
102
}
330
3C2
100
AcDbXrecord
280
     1
102
RTVSPropertyOp0
 70
     1
102
RTVSPropertyOp1
 70
     1
102
RTVSPropertyOp2
 70
     1
102
RTVSPropertyOp3
 70
     1
102
RTVSPropertyOp4
 70
     1
102
RTVSPropertyOp5
 70
     1
102
RTVSPropertyOp6
 70
     1
102
RTVSPropertyOp7
 70
     1
102
RTVSPropertyOp8
 70
     1
102
RTVSPropertyOp9
 70
     1
102
RTVSPropertyOp10
 70
     1
102
RTVSPropertyOp11
 70
     1
102
RTVSPropertyOp12
 70
     1
102
RTVSPropertyOp13
 70
     1
102
RTVSPropertyOp14
 70
     1
102
RTVSPropertyOp15
 70
     1
102
RTVSPropertyOp16
 70
     1
102
RTVSPropertyOp17
 70
     1
102
RTVSPropertyOp18
 70
     1
102
RTVSPropertyOp19
 70
     1
102
RTVSPropertyOp20
 70
     1
102
RTVSPropertyOp21
 70
     1
102
RTVSPropertyOp22
 70
     1
102
RTVSPropertyOp23
 70
     1
102
RTVSPropertyOp24
 70
     1
102
RTVSPropertyOp25
 70
     1
102
RTVSPropertyOp26
 70
     1
102
RTVSPropertyOp27
 70
     1
102
RTVSPropertyOp28
 70
     1
102
RTVSPropertyOp29
 70
     1
102
RTVSPropertyOp30
 70
     1
102
RTVSPropertyOp31
 70
     1
102
RTVSPropertyOp32
 70
     1
  0
XRECORD
  5
3C5
102
{ACAD_REACTORS
330
3C4
102
}
330
3C4
100
AcDbXrecord
280
     1
102
RTVSPropertyOp0
 70
     1
102
RTVSPropertyOp1
 70
     1
102
RTVSPropertyOp2
 70
     1
102
RTVSPropertyOp3
 70
     1
102
RTVSPropertyOp4
 70
     1
102
RTVSPropertyOp5
 70
     1
102
RTVSPropertyOp6
 70
     1
102
RTVSPropertyOp7
 70
     1
102
RTVSPropertyOp8
 70
     1
102
RTVSPropertyOp9
 70
     1
102
RTVSPropertyOp10
 70
     1
102
RTVSPropertyOp11
 70
     1
102
RTVSPropertyOp12
 70
     1
102
RTVSPropertyOp13
 70
     1
102
RTVSPropertyOp14
 70
     1
102
RTVSPropertyOp15
 70
     1
102
RTVSPropertyOp16
 70
     1
102
RTVSPropertyOp17
 70
     1
102
RTVSPropertyOp18
 70
     1
102
RTVSPropertyOp19
 70
     1
102
RTVSPropertyOp20
 70
     1
102
RTVSPropertyOp21
 70
     1
102
RTVSPropertyOp22
 70
     1
102
RTVSPropertyOp23
 70
     1
102
RTVSPropertyOp24
 70
     1
102
RTVSPropertyOp25
 70
     1
102
RTVSPropertyOp26
 70
     1
102
RTVSPropertyOp27
 70
     1
102
RTVSPropertyOp28
 70
     1
102
RTVSPropertyOp29
 70
     1
102
RTVSPropertyOp30
 70
     1
102
RTVSPropertyOp31
 70
     1
102
RTVSPropertyOp32
 70
     1
  0
XRECORD
  5
3C7
102
{ACAD_REACTORS
330
3C6
102
}
330
3C6
100
AcDbXrecord
280
     1
102
RTVSPropertyOp0
 70
     1
102
RTVSPropertyOp1
 70
     1
102
RTVSPropertyOp2
 70
     1
102
RTVSPropertyOp3
 70
     1
102
RTVSPropertyOp4
 70
     1
102
RTVSPropertyOp5
 70
     1
102
RTVSPropertyOp6
 70
     1
102
RTVSPropertyOp7
 70
     1
102
RTVSPropertyOp8
 70
     1
102
RTVSPropertyOp9
 70
     1
102
RTVSPropertyOp10
 70
     1
102
RTVSPropertyOp11
 70
     1
102
RTVSPropertyOp12
 70
     1
102
RTVSPropertyOp13
 70
     1
102
RTVSPropertyOp14
 70
     1
102
RTVSPropertyOp15
 70
     1
102
RTVSPropertyOp16
 70
     1
102
RTVSPropertyOp17
 70
     1
102
RTVSPropertyOp18
 70
     1
102
RTVSPropertyOp19
 70
     1
102
RTVSPropertyOp20
 70
     1
102
RTVSPropertyOp21
 70
     1
102
RTVSPropertyOp22
 70
     1
102
RTVSPropertyOp23
 70
     1
102
RTVSPropertyOp24
 70
     1
102
RTVSPropertyOp25
 70
     1
102
RTVSPropertyOp26
 70
     1
102
RTVSPropertyOp27
 70
     1
102
RTVSPropertyOp28
 70
     1
102
RTVSPropertyOp29
 70
     1
102
RTVSPropertyOp30
 70
     1
102
RTVSPropertyOp31
 70
     1
102
RTVSPropertyOp32
 70
     1
  0
XRECORD
  5
3DB
102
{ACAD_REACTORS
330
3DA
102
}
330
3DA
100
AcDbXrecord
280
     1
102
RTVSPropertyOp0
 70
     1
102
RTVSPropertyOp1
 70
     1
102
RTVSPropertyOp2
 70
     1
102
RTVSPropertyOp3
 70
     1
102
RTVSPropertyOp4
 70
     1
102
RTVSPropertyOp5
 70
     1
102
RTVSPropertyOp6
 70
     1
102
RTVSPropertyOp7
 70
     1
102
RTVSPropertyOp8
 70
     1
102
RTVSPropertyOp9
 70
     1
102
RTVSPropertyOp10
 70
     1
102
RTVSPropertyOp11
 70
     1
102
RTVSPropertyOp12
 70
     1
102
RTVSPropertyOp13
 70
     1
102
RTVSPropertyOp14
 70
     1
102
RTVSPropertyOp15
 70
     1
102
RTVSPropertyOp16
 70
     1
102
RTVSPropertyOp17
 70
     1
102
RTVSPropertyOp18
 70
     1
102
RTVSPropertyOp19
 70
     1
102
RTVSPropertyOp20
 70
     1
102
RTVSPropertyOp21
 70
     1
102
RTVSPropertyOp22
 70
     1
102
RTVSPropertyOp23
 70
     1
102
RTVSPropertyOp24
 70
     1
102
RTVSPropertyOp25
 70
     1
102
RTVSPropertyOp26
 70
     1
102
RTVSPropertyOp27
 70
     1
102
RTVSPropertyOp28
 70
     1
102
RTVSPropertyOp29
 70
     1
102
RTVSPropertyOp30
 70
     1
102
RTVSPropertyOp31
 70
     1
102
RTVSPropertyOp32
 70
     1
  0
XRECORD
  5
3D1
102
{ACAD_REACTORS
330
3D0
102
}
330
3D0
100
AcDbXrecord
280
     1
102
RTVSPropertyOp0
 70
     1
102
RTVSPropertyOp1
 70
     1
102
RTVSPropertyOp2
 70
     1
102
RTVSPropertyOp3
 70
     1
102
RTVSPropertyOp4
 70
     1
102
RTVSPropertyOp5
 70
     1
102
RTVSPropertyOp6
 70
     1
102
RTVSPropertyOp7
 70
     1
102
RTVSPropertyOp8
 70
     1
102
RTVSPropertyOp9
 70
     1
102
RTVSPropertyOp10
 70
     1
102
RTVSPropertyOp11
 70
     1
102
RTVSPropertyOp12
 70
     1
102
RTVSPropertyOp13
 70
     1
102
RTVSPropertyOp14
 70
     1
102
RTVSPropertyOp15
 70
     1
102
RTVSPropertyOp16
 70
     1
102
RTVSPropertyOp17
 70
     1
102
RTVSPropertyOp18
 70
     1
102
RTVSPropertyOp19
 70
     1
102
RTVSPropertyOp20
 70
     1
102
RTVSPropertyOp21
 70
     1
102
RTVSPropertyOp22
 70
     1
102
RTVSPropertyOp23
 70
     1
102
RTVSPropertyOp24
 70
     1
102
RTVSPropertyOp25
 70
     1
102
RTVSPropertyOp26
 70
     1
102
RTVSPropertyOp27
 70
     1
102
RTVSPropertyOp28
 70
     1
102
RTVSPropertyOp29
 70
     1
102
RTVSPropertyOp30
 70
     1
102
RTVSPropertyOp31
 70
     1
102
RTVSPropertyOp32
 70
     1
  0
XRECORD
  5
3D9
102
{ACAD_REACTORS
330
3D8
102
}
330
3D8
100
AcDbXrecord
280
     1
102
RTVSPropertyOp0
 70
     1
102
RTVSPropertyOp1
 70
     1
102
RTVSPropertyOp2
 70
     1
102
RTVSPropertyOp3
 70
     1
102
RTVSPropertyOp4
 70
     1
102
RTVSPropertyOp5
 70
     1
102
RTVSPropertyOp6
 70
     1
102
RTVSPropertyOp7
 70
     1
102
RTVSPropertyOp8
 70
     1
102
RTVSPropertyOp9
 70
     1
102
RTVSPropertyOp10
 70
     1
102
RTVSPropertyOp11
 70
     1
102
RTVSPropertyOp12
 70
     1
102
RTVSPropertyOp13
 70
     1
102
RTVSPropertyOp14
 70
     1
102
RTVSPropertyOp15
 70
     1
102
RTVSPropertyOp16
 70
     1
102
RTVSPropertyOp17
 70
     1
102
RTVSPropertyOp18
 70
     1
102
RTVSPropertyOp19
 70
     1
102
RTVSPropertyOp20
 70
     1
102
RTVSPropertyOp21
 70
     1
102
RTVSPropertyOp22
 70
     1
102
RTVSPropertyOp23
 70
     1
102
RTVSPropertyOp24
 70
     1
102
RTVSPropertyOp25
 70
     1
102
RTVSPropertyOp26
 70
     1
102
RTVSPropertyOp27
 70
     1
102
RTVSPropertyOp28
 70
     1
102
RTVSPropertyOp29
 70
     1
102
RTVSPropertyOp30
 70
     1
102
RTVSPropertyOp31
 70
     1
102
RTVSPropertyOp32
 70
     1
  0
ENDSEC
  0
EOF
