  0
SECTION
  2
HEADER
  9
$ACADVER
  1
AC1015
  9
$ACADMAINTVER
 70
     6
  9
$DWGCODEPAGE
  3
ANSI_949
  9
$INSBASE
 10
0.0
 20
0.0
 30
0.0
  9
$EXTMIN
 10
1.000000000000000E+20
 20
1.000000000000000E+20
 30
1.000000000000000E+20
  9
$EXTMAX
 10
-1.000000000000000E+20
 20
-1.000000000000000E+20
 30
-1.000000000000000E+20
  9
$LIMMIN
 10
0.0
 20
0.0
  9
$LIMMAX
 10
12.0
 20
9.0
  9
$ORTHOMODE
 70
     0
  9
$REGENMODE
 70
     1
  9
$FILLMODE
 70
     1
  9
$QTEXTMODE
 70
     0
  9
$MIRRTEXT
 70
     1
  9
$LTSCALE
 40
1.0
  9
$ATTMODE
 70
     1
  9
$TEXTSIZE
 40
0.2
  9
$TRACEWID
 40
0.05
  9
$TEXTSTYLE
  7
Standard
  9
$CLAYER
  8
0
  9
$CELTYPE
  6
ByLayer
  9
$CECOLOR
 62
   256
  9
$CELTSCALE
 40
1.0
  9
$DISPSILH
 70
     0
  9
$DIMSCALE
 40
1.0
  9
$DIMASZ
 40
0.18
  9
$DIMEXO
 40
0.0625
  9
$DIMDLI
 40
0.38
  9
$DIMRND
 40
0.0
  9
$DIMDLE
 40
0.0
  9
$DIMEXE
 40
0.18
  9
$DIMTP
 40
0.0
  9
$DIMTM
 40
0.0
  9
$DIMTXT
 40
0.18
  9
$DIMCEN
 40
0.09
  9
$DIMTSZ
 40
0.0
  9
$DIMTOL
 70
     0
  9
$DIMLIM
 70
     0
  9
$DIMTIH
 70
     1
  9
$DIMTOH
 70
     1
  9
$DIMSE1
 70
     0
  9
$DIMSE2
 70
     0
  9
$DIMTAD
 70
     0
  9
$DIMZIN
 70
     0
  9
$DIMBLK
  1

  9
$DIMASO
 70
     1
  9
$DIMSHO
 70
     1
  9
$DIMPOST
  1

  9
$DIMAPOST
  1

  9
$DIMALT
 70
     0
  9
$DIMALTD
 70
     2
  9
$DIMALTF
 40
25.4
  9
$DIMLFAC
 40
1.0
  9
$DIMTOFL
 70
     0
  9
$DIMTVP
 40
0.0
  9
$DIMTIX
 70
     0
  9
$DIMSOXD
 70
     0
  9
$DIMSAH
 70
     0
  9
$DIMBLK1
  1

  9
$DIMBLK2
  1

  9
$DIMSTYLE
  2
Standard
  9
$DIMCLRD
 70
     0
  9
$DIMCLRE
 70
     0
  9
$DIMCLRT
 70
     0
  9
$DIMTFAC
 40
1.0
  9
$DIMGAP
 40
0.09
  9
$DIMJUST
 70
     0
  9
$DIMSD1
 70
     0
  9
$DIMSD2
 70
     0
  9
$DIMTOLJ
 70
     1
  9
$DIMTZIN
 70
     0
  9
$DIMALTZ
 70
     0
  9
$DIMALTTZ
 70
     0
  9
$DIMUPT
 70
     0
  9
$DIMDEC
 70
     4
  9
$DIMTDEC
 70
     4
  9
$DIMALTU
 70
     2
  9
$DIMALTTD
 70
     2
  9
$DIMTXSTY
  7
Standard
  9
$DIMAUNIT
 70
     0
  9
$DIMADEC
 70
     0
  9
$DIMALTRND
 40
0.0
  9
$DIMAZIN
 70
     0
  9
$DIMDSEP
 70
    46
  9
$DIMATFIT
 70
     3
  9
$DIMFRAC
 70
     0
  9
$DIMLDRBLK
  1

  9
$DIMLUNIT
 70
     2
  9
$DIMLWD
 70
    -2
  9
$DIMLWE
 70
    -2
  9
$DIMTMOVE
 70
     0
  9
$LUNITS
 70
     2
  9
$LUPREC
 70
     4
  9
$SKETCHINC
 40
0.1
  9
$FILLETRAD
 40
0.5
  9
$AUNITS
 70
     0
  9
$AUPREC
 70
     0
  9
$MENU
  1
.
  9
$ELEVATION
 40
0.0
  9
$PELEVATION
 40
0.0
  9
$THICKNESS
 40
0.0
  9
$LIMCHECK
 70
     0
  9
$CHAMFERA
 40
0.5
  9
$CHAMFERB
 40
0.5
  9
$CHAMFERC
 40
1.0
  9
$CHAMFERD
 40
0.0
  9
$SKPOLY
 70
     0
  9
$TDCREATE
 40
2456522.616657153
  9
$TDUCREATE
 40
2456522.116657153
  9
$TDUPDATE
 40
2456522.61668566
  9
$TDUUPDATE
 40
2456522.11668566
  9
$TDINDWG
 40
0.0000000116
  9
$TDUSRTIMER
 40
0.0000000116
  9
$USRTIMER
 70
     1
  9
$ANGBASE
 50
0.0
  9
$ANGDIR
 70
     0
  9
$PDMODE
 70
     0
  9
$PDSIZE
 40
0.0
  9
$PLINEWID
 40
0.0
  9
$SPLFRAME
 70
     0
  9
$SPLINETYPE
 70
     6
  9
$SPLINESEGS
 70
     8
  9
$HANDSEED
  5
457
  9
$SURFTAB1
 70
     6
  9
$SURFTAB2
 70
     6
  9
$SURFTYPE
 70
     6
  9
$SURFU
 70
     6
  9
$SURFV
 70
     6
  9
$UCSBASE
  2

  9
$UCSNAME
  2

  9
$UCSORG
 10
0.0
 20
0.0
 30
0.0
  9
$UCSXDIR
 10
1.0
 20
0.0
 30
0.0
  9
$UCSYDIR
 10
0.0
 20
1.0
 30
0.0
  9
$UCSORTHOREF
  2

  9
$UCSORTHOVIEW
 70
     0
  9
$UCSORGTOP
 10
0.0
 20
0.0
 30
0.0
  9
$UCSORGBOTTOM
 10
0.0
 20
0.0
 30
0.0
  9
$UCSORGLEFT
 10
0.0
 20
0.0
 30
0.0
  9
$UCSORGRIGHT
 10
0.0
 20
0.0
 30
0.0
  9
$UCSORGFRONT
 10
0.0
 20
0.0
 30
0.0
  9
$UCSORGBACK
 10
0.0
 20
0.0
 30
0.0
  9
$PUCSBASE
  2

  9
$PUCSNAME
  2

  9
$PUCSORG
 10
0.0
 20
0.0
 30
0.0
  9
$PUCSXDIR
 10
1.0
 20
0.0
 30
0.0
  9
$PUCSYDIR
 10
0.0
 20
1.0
 30
0.0
  9
$PUCSORTHOREF
  2

  9
$PUCSORTHOVIEW
 70
     0
  9
$PUCSORGTOP
 10
0.0
 20
0.0
 30
0.0
  9
$PUCSORGBOTTOM
 10
0.0
 20
0.0
 30
0.0
  9
$PUCSORGLEFT
 10
0.0
 20
0.0
 30
0.0
  9
$PUCSORGRIGHT
 10
0.0
 20
0.0
 30
0.0
  9
$PUCSORGFRONT
 10
0.0
 20
0.0
 30
0.0
  9
$PUCSORGBACK
 10
0.0
 20
0.0
 30
0.0
  9
$USERI1
 70
     0
  9
$USERI2
 70
     0
  9
$USERI3
 70
     0
  9
$USERI4
 70
     0
  9
$USERI5
 70
     0
  9
$USERR1
 40
0.0
  9
$USERR2
 40
0.0
  9
$USERR3
 40
0.0
  9
$USERR4
 40
0.0
  9
$USERR5
 40
0.0
  9
$WORLDVIEW
 70
     1
  9
$SHADEDGE
 70
     3
  9
$SHADEDIF
 70
    70
  9
$TILEMODE
 70
     1
  9
$MAXACTVP
 70
    64
  9
$PINSBASE
 10
0.0
 20
0.0
 30
0.0
  9
$PLIMCHECK
 70
     0
  9
$PEXTMIN
 10
1.000000000000000E+20
 20
1.000000000000000E+20
 30
1.000000000000000E+20
  9
$PEXTMAX
 10
-1.000000000000000E+20
 20
-1.000000000000000E+20
 30
-1.000000000000000E+20
  9
$PLIMMIN
 10
0.0
 20
0.0
  9
$PLIMMAX
 10
12.0
 20
9.0
  9
$UNITMODE
 70
     0
  9
$VISRETAIN
 70
     1
  9
$PLINEGEN
 70
     0
  9
$PSLTSCALE
 70
     1
  9
$TREEDEPTH
 70
  3020
  9
$CMLSTYLE
  2
Standard
  9
$CMLJUST
 70
     0
  9
$CMLSCALE
 40
1.0
  9
$PROXYGRAPHICS
 70
     1
  9
$MEASUREMENT
 70
     0
  9
$CELWEIGHT
370
    -1
  9
$ENDCAPS
280
     0
  9
$JOINSTYLE
280
     0
  9
$LWDISPLAY
290
     1
  9
$INSUNITS
 70
     4
  9
$HYPERLINKBASE
  1

  9
$STYLESHEET
  1

  9
$XEDIT
290
     1
  9
$CEPSNTYPE
380
     0
  9
$PSTYLEMODE
290
     1
  9
$FINGERPRINTGUID
  2
{2D35EA29-7A8D-42E9-992A-15160224EFA7}
  9
$VERSIONGUID
  2
{FAEB1C32-E019-11D5-929B-00C0DF256EC4}
  9
$EXTNAMES
290
     1
  9
$PSVPSCALE
 40
0.0
  9
$OLESTARTUP
290
     0
  0
ENDSEC
  0
SECTION
  2
CLASSES
  0
CLASS
  1
ACDBDICTIONARYWDFLT
  2
AcDbDictionaryWithDefault
  3
ObjectDBX Classes
 90
        0
280
     0
281
     0
  0
CLASS
  1
VISUALSTYLE
  2
AcDbVisualStyle
  3
ObjectDBX Classes
 90
     4095
280
     0
281
     0
  0
CLASS
  1
MATERIAL
  2
AcDbMaterial
  3
ObjectDBX Classes
 90
     1153
280
     0
281
     0
  0
CLASS
  1
SPATIAL_FILTER
  2
AcDbSpatialFilter
  3
ObjectDBX Classes
 90
        0
280
     0
281
     0
  0
CLASS
  1
SCALE
  2
AcDbScale
  3
ObjectDBX Classes
 90
     1153
280
     0
281
     0
  0
CLASS
  1
DICTIONARYVAR
  2
AcDbDictionaryVar
  3
ObjectDBX Classes
 90
        0
280
     0
281
     0
  0
CLASS
  1
ACDBPLACEHOLDER
  2
AcDbPlaceHolder
  3
ObjectDBX Classes
 90
        0
280
     0
281
     0
  0
CLASS
  1
LAYOUT
  2
AcDbLayout
  3
ObjectDBX Classes
 90
        0
280
     0
281
     0
  0
ENDSEC
  0
SECTION
  2
TABLES
  0
TABLE
  2
VPORT
  5
8
330
0
100
AcDbSymbolTable
 70
     1
  0
VPORT
  5
29
330
8
100
AcDbSymbolTableRecord
100
AcDbViewportTableRecord
  2
*Active
 70
     0
 10
0.0
 20
0.0
 11
1.0
 21
1.0
 12
148.1436081052956
 22
117.1735580788913
 13
0.0
 23
0.0
 14
0.5
 24
0.5
 15
0.5
 25
0.5
 16
0.0
 26
0.0
 36
1.0
 17
0.0
 27
0.0
 37
0.0
 40
234.8991463675498
 41
1.243141846380286
 42
50.0
 43
0.0
 44
0.0
 50
0.0
 51
0.0
 71
     0
 72
   100
 73
     1
 74
     3
 75
     0
 76
     0
 77
     0
 78
     0
281
     0
 65
     1
110
0.0
120
0.0
130
0.0
111
1.0
121
0.0
131
0.0
112
0.0
122
1.0
132
0.0
 79
     0
146
0.0
  0
ENDTAB
  0
TABLE
  2
LTYPE
  5
5
330
0
100
AcDbSymbolTable
 70
     4
  0
LTYPE
  5
14
330
5
100
AcDbSymbolTableRecord
100
AcDbLinetypeTableRecord
  2
ByBlock
 70
     0
  3

 72
    65
 73
     0
 40
0.0
  0
LTYPE
  5
15
330
5
100
AcDbSymbolTableRecord
100
AcDbLinetypeTableRecord
  2
ByLayer
 70
     0
  3

 72
    65
 73
     0
 40
0.0
  0
LTYPE
  5
16
330
5
100
AcDbSymbolTableRecord
100
AcDbLinetypeTableRecord
  2
Continuous
 70
     0
  3
Solid line
 72
    65
 73
     0
 40
0.0
  0
LTYPE
  5
10D
330
5
100
AcDbSymbolTableRecord
100
AcDbLinetypeTableRecord
  2
Hidden Line
 70
     0
  3
- - - - - 
 72
    65
 73
     2
 40
3.912222232818603
 49
2.822222232818604
 74
     0
 49
-1.089999999999999
 74
     0
  0
LTYPE
  5
10F
330
5
100
AcDbSymbolTableRecord
100
AcDbLinetypeTableRecord
  2
Double Dashed
 70
     0
  3
- - - - - 
 72
    65
 73
     4
 40
10.93611073493958
 49
5.291666507720947
 74
     0
 49
-2.116666555404663
 74
     0
 49
1.411111116409302
 74
     0
 49
-2.116666555404668
 74
     0
  0
LTYPE
  5
199
330
5
100
AcDbSymbolTableRecord
100
AcDbLinetypeTableRecord
  2
Dot & Dashed
 70
     0
  3
- - - - - 
 72
    65
 73
     4
 40
6.702777624130249
 49
3.527777671813965
 74
     0
 49
-1.763888835906982
 74
     0
 49
0.0
 74
     0
 49
-1.411111116409302
 74
     0
  0
ENDTAB
  0
TABLE
  2
LAYER
  5
2
330
0
100
AcDbSymbolTable
 70
     4
  0
LAYER
  5
10
330
2
100
AcDbSymbolTableRecord
100
AcDbLayerTableRecord
  2
0
 70
     0
 62
     7
  6
Continuous
370
    -3
390
F
  0
LAYER
  5
40
330
2
100
AcDbSymbolTableRecord
100
AcDbLayerTableRecord
  2
Doc_ Finishes
 70
     0
 62
     7
  6
Continuous
370
    -3
390
F
  0
LAYER
  5
DB
330
2
100
AcDbSymbolTableRecord
100
AcDbLayerTableRecord
  2
Doc_ Floor
 70
     0
 62
     7
  6
Continuous
370
    -3
390
F
  0
LAYER
  5
F3
330
2
100
AcDbSymbolTableRecord
100
AcDbLayerTableRecord
  2
Des_ Furniture
 70
     0
 62
     7
  6
Continuous
370
    -3
390
F
  0
ENDTAB
  0
TABLE
  2
STYLE
  5
3
330
0
100
AcDbSymbolTable
 70
     4
  0
STYLE
  5
11
330
3
100
AcDbSymbolTableRecord
100
AcDbTextStyleTableRecord
  2
Standard
 70
     0
 40
0.0
 41
1.0
 50
0.0
 71
     0
 42
0.2
  3
txt
  4

  0
STYLE
  5
D6
330
3
100
AcDbSymbolTableRecord
100
AcDbTextStyleTableRecord
  2
GENERATED_STYLE_1
 70
     0
 40
0.0
 41
1.0
 50
0.0
 71
     0
 42
0.2
  3

  4

1001
ACAD
1000
Century Gothic
1071
       34
  0
STYLE
  5
D9
330
3
100
AcDbSymbolTableRecord
100
AcDbTextStyleTableRecord
  2
GENERATED_STYLE_2
 70
     0
 40
0.0
 41
1.0
 50
0.0
 71
     0
 42
0.2
  3

  4

1001
ACAD
1000
DilleniaUPC
1071
 33554450
  0
STYLE
  5
3B2
330
3
100
AcDbSymbolTableRecord
100
AcDbTextStyleTableRecord
  2
GENERATED_STYLE_3
 70
     0
 40
0.0
 41
1.0
 50
0.0
 71
     0
 42
0.2
  3

  4

1001
ACAD
1000
Arial
1071
       34
  0
ENDTAB
  0
TABLE
  2
VIEW
  5
6
330
0
100
AcDbSymbolTable
 70
     0
  0
ENDTAB
  0
TABLE
  2
UCS
  5
7
330
0
100
AcDbSymbolTable
 70
     0
  0
ENDTAB
  0
TABLE
  2
APPID
  5
9
330
0
100
AcDbSymbolTable
 70
     1
  0
APPID
  5
12
330
9
100
AcDbSymbolTableRecord
100
AcDbRegAppTableRecord
  2
ACAD
 70
     0
  0
ENDTAB
  0
TABLE
  2
DIMSTYLE
  5
A
330
0
100
AcDbSymbolTable
 70
     1
100
AcDbDimStyleTable
  0
DIMSTYLE
105
27
330
A
100
AcDbSymbolTableRecord
100
AcDbDimStyleTableRecord
  2
Standard
 70
     0
178
     0
340
11
  0
ENDTAB
  0
TABLE
  2
BLOCK_RECORD
  5
1
330
0
100
AcDbSymbolTable
 70
     3
  0
BLOCK_RECORD
  5
1F
330
1
100
AcDbSymbolTableRecord
100
AcDbBlockTableRecord
  2
*Model_Space
340
22
  0
BLOCK_RECORD
  5
1B
330
1
100
AcDbSymbolTableRecord
100
AcDbBlockTableRecord
  2
*Paper_Space
340
1E
  0
BLOCK_RECORD
  5
E3
330
1
100
AcDbSymbolTableRecord
100
AcDbBlockTableRecord
  2
Drawing_1_2
340
0
102
{BLKREFS
331
3FB
102
}
  0
BLOCK_RECORD
  5
3FF
330
1
100
AcDbSymbolTableRecord
100
AcDbBlockTableRecord
  2
C-TRS9-01 TOP RIDGE DETAIL - SQ_STORY_MARKER
340
0
  0
ENDTAB
  0
ENDSEC
  0
SECTION
  2
BLOCKS
  0
BLOCK
  5
20
330
1F
100
AcDbEntity
  8
0
100
AcDbBlockBegin
  2
*Model_Space
 70
     0
 10
0.0
 20
0.0
 30
0.0
  3
*Model_Space
  1

  0
ENDBLK
  5
21
330
1F
100
AcDbEntity
  8
0
100
AcDbBlockEnd
  0
BLOCK
  5
1C
330
1B
100
AcDbEntity
 67
     1
  8
0
100
AcDbBlockBegin
  2
*Paper_Space
 70
     0
 10
0.0
 20
0.0
 30
0.0
  3
*Paper_Space
  1

  0
ENDBLK
  5
1D
330
1B
100
AcDbEntity
 67
     1
  8
0
100
AcDbBlockEnd
  0
BLOCK
  5
E4
330
E3
100
AcDbEntity
  8
0
100
AcDbBlockBegin
  2
Drawing_1_2
 70
     0
 10
146.4275516021832
 20
-813.3809652398878
 30
0.0
  3
Drawing_1_2
  1

  0
HATCH
  5
E6
330
E3
100
AcDbEntity
  8
Doc_ Finishes
  6
Continuous
 62
   255
370
    18
100
AcDbHatch
 10
0.0
 20
0.0
 30
0.0
210
0.0
220
0.0
230
1.0
  2
SOLID
 70
     1
 71
     0
 91
        1
 92
        3
 72
     0
 73
     1
 93
        4
 10
125.811331973138
 20
140.8462672393076
 10
125.3380409825103
 20
131.8153371540722
 10
129.682955897089
 20
131.5876298122254
 10
130.1562468877167
 20
140.6185598974604
 97
        0
 75
     0
 76
     1
 98
        0
  0
HATCH
  5
E7
330
E3
100
AcDbEntity
  8
Doc_ Finishes
  6
Continuous
 62
   253
370
    25
100
AcDbHatch
 10
0.0
 20
0.0
 30
0.0
210
0.0
220
0.0
230
1.0
  2
Hexagonal_0002
 70
     0
 71
     0
 91
        1
 92
        3
 72
     0
 73
     1
 93
        4
 10
125.811331973138
 20
140.8462672393076
 10
125.3380409825103
 20
131.8153371540722
 10
129.682955897089
 20
131.5876298122254
 10
130.1562468877167
 20
140.6185598974604
 97
        0
 75
     0
 76
     2
 52
0.0
 41
1.0
 77
     0
 78
     6
 53
90.00000000000001
 43
146.4275516021832
 44
-813.3809652398878
 45
-1.039230484541326
 46
0.0
 79
     2
 49
0.6000000000000001
 49
-1.2
 53
90.00000000000001
 43
145.9079363692387
 44
-812.4809652398878
 45
-1.039230484541326
 46
0.0
 79
     2
 49
0.6000000000000001
 49
-1.2
 53
150.0000000000001
 43
146.4275516021832
 44
-812.7809652398878
 45
0.5196152422706625
 46
0.9000000000000004
 79
     2
 49
0.6000000000000001
 49
-1.2
 53
150.0000000000001
 43
145.3883211362942
 44
-812.7809652398878
 45
0.5196152422706625
 46
0.9000000000000004
 79
     2
 49
0.6000000000000001
 49
-1.2
 53
210.0000000000001
 43
146.4275516021832
 44
-813.3809652398878
 45
-0.5196152422706641
 46
0.8999999999999994
 79
     2
 49
0.6000000000000001
 49
-1.2
 53
210.0000000000001
 43
145.3883211362942
 44
-813.3809652398878
 45
-0.5196152422706641
 46
0.8999999999999994
 79
     2
 49
0.6000000000000001
 49
-1.2
 98
        0
  0
LINE
  5
E8
330
E3
100
AcDbEntity
  8
Doc_ Finishes
  6
Continuous
100
AcDbLine
 10
125.8113299750639
 20
140.8462653748367
 30
0.0
 11
125.3380419625429
 21
131.8153382194046
 31
0.0
  0
LINE
  5
E9
330
E3
100
AcDbEntity
  8
Doc_ Finishes
  6
Continuous
100
AcDbLine
 10
125.3380419625429
 20
131.8153382194046
 30
0.0
 11
129.6829572560822
 21
131.5876277962257
 31
0.0
  0
LINE
  5
EA
330
E3
100
AcDbEntity
  8
Doc_ Finishes
  6
Continuous
100
AcDbLine
 10
129.6829572560822
 20
131.5876277962257
 30
0.0
 11
130.1562452686032
 21
140.618559215898
 31
0.0
  0
LINE
  5
EB
330
E3
100
AcDbEntity
  8
Doc_ Finishes
  6
Continuous
100
AcDbLine
 10
130.1562452686032
 20
140.618559215898
 30
0.0
 11
125.8113299750639
 21
140.8462653748367
 31
0.0
  0
HATCH
  5
EC
330
E3
100
AcDbEntity
  8
Doc_ Finishes
  6
Continuous
 62
   255
370
    18
100
AcDbHatch
 10
0.0
 20
0.0
 30
0.0
210
0.0
220
0.0
230
1.0
  2
SOLID
 70
     1
 71
     0
 91
        1
 92
        3
 72
     0
 73
     1
 93
        4
 10
76.65950725438498
 20
140.8462672393076
 10
72.31459233980635
 20
140.6185598974604
 10
72.78788333043407
 20
131.5876298122254
 10
77.1327982450127
 20
131.8153371540722
 97
        0
 75
     0
 76
     1
 98
        0
  0
HATCH
  5
ED
330
E3
100
AcDbEntity
  8
Doc_ Finishes
  6
Continuous
 62
   253
370
    25
100
AcDbHatch
 10
0.0
 20
0.0
 30
0.0
210
0.0
220
0.0
230
1.0
  2
Hexagonal_0002
 70
     0
 71
     0
 91
        1
 92
        3
 72
     0
 73
     1
 93
        4
 10
76.65950725438498
 20
140.8462672393076
 10
72.31459233980635
 20
140.6185598974604
 10
72.78788333043407
 20
131.5876298122254
 10
77.1327982450127
 20
131.8153371540722
 97
        0
 75
     0
 76
     2
 52
0.0
 41
1.0
 77
     0
 78
     6
 53
90.00000000000001
 43
146.4275516021832
 44
-813.3809652398878
 45
-1.039230484541326
 46
0.0
 79
     2
 49
0.6000000000000001
 49
-1.2
 53
90.00000000000001
 43
145.9079363692387
 44
-812.4809652398878
 45
-1.039230484541326
 46
0.0
 79
     2
 49
0.6000000000000001
 49
-1.2
 53
150.0000000000001
 43
146.4275516021832
 44
-812.7809652398878
 45
0.5196152422706625
 46
0.9000000000000004
 79
     2
 49
0.6000000000000001
 49
-1.2
 53
150.0000000000001
 43
145.3883211362942
 44
-812.7809652398878
 45
0.5196152422706625
 46
0.9000000000000004
 79
     2
 49
0.6000000000000001
 49
-1.2
 53
210.0000000000001
 43
146.4275516021832
 44
-813.3809652398878
 45
-0.5196152422706641
 46
0.8999999999999994
 79
     2
 49
0.6000000000000001
 49
-1.2
 53
210.0000000000001
 43
145.3883211362942
 44
-813.3809652398878
 45
-0.5196152422706641
 46
0.8999999999999994
 79
     2
 49
0.6000000000000001
 49
-1.2
 98
        0
  0
LINE
  5
EE
330
E3
100
AcDbEntity
  8
Doc_ Finishes
  6
Continuous
100
AcDbLine
 10
72.3145910725873
 20
140.618559215898
 30
0.0
 11
76.6595063661266
 21
140.8462653748367
 31
0.0
  0
LINE
  5
EF
330
E3
100
AcDbEntity
  8
Doc_ Finishes
  6
Continuous
100
AcDbLine
 10
72.78788334934848
 20
131.5876277962257
 30
0.0
 11
72.3145910725873
 21
140.618559215898
 31
0.0
  0
LINE
  5
F0
330
E3
100
AcDbEntity
  8
Doc_ Finishes
  6
Continuous
100
AcDbLine
 10
77.13279864288778
 20
131.8153382194046
 30
0.0
 11
72.78788334934848
 21
131.5876277962257
 31
0.0
  0
LINE
  5
F1
330
E3
100
AcDbEntity
  8
Doc_ Finishes
  6
Continuous
100
AcDbLine
 10
76.6595063661266
 20
140.8462653748367
 30
0.0
 11
77.13279864288778
 21
131.8153382194046
 31
0.0
  0
HATCH
  5
F2
330
E3
100
AcDbEntity
  8
Des_ Furniture
  6
Continuous
 62
   255
370
     0
100
AcDbHatch
 10
0.0
 20
0.0
 30
0.0
210
0.0
220
0.0
230
1.0
  2
SOLID
 70
     1
 71
     0
 91
        1
 92
        3
 72
     0
 73
     1
 93
      140
 10
142.0983816745708
 20
128.427305210771
 10
128.0776230066168
 20
129.162102036422
 10
127.9940004297147
 20
129.1592746290841
 10
127.9121702394603
 20
129.1417332504908
 10
127.8345814826936
 20
129.1103509238821
 10
127.763633755673
 20
129.0662035385617
 10
127.7014565437875
 20
129.0101808652755
 10
127.6499320795208
 20
128.9441870050909
 10
127.6106534736888
 20
128.8703414857695
 10
127.5848143852924
 20
128.7907847694543
 10
127.5731595709379
 20
128.7078811187365
 10
127.3617223077165
 20
124.673417798328
 10
127.3646474845696
 20
124.5897500426489
 10
127.3820290824369
 20
124.5079282261476
 10
127.4133735573029
 20
124.4303815080003
 10
127.4577175283729
 20
124.3593633960165
 10
127.5136981630394
 20
124.2971483323879
 10
127.5796425726428
 20
124.2458267341858
 10
127.6535259437077
 20
124.2065060897337
 10
127.7330742862697
 20
124.1805072206118
 10
127.8159432254019
 20
124.1689543626491
 10
129.333860118229
 20
124.0894037091598
 10
129.3464207477273
 20
124.3290747975008
 10
127.8285038549002
 20
124.4086254509901
 10
127.7870693853342
 20
124.4144018799714
 10
127.7472899804577
 20
124.4273014515793
 10
127.7103535285208
 20
124.4470616367584
 10
127.6773965436097
 20
124.4728217754536
 10
127.6493862536858
 20
124.5039303539871
 10
127.6272290071458
 20
124.5393385003064
 10
127.6115620033086
 20
124.5782117223333
 10
127.6028512317841
 20
124.6191236773031
 10
127.6013933960575
 20
124.6608571688297
 10
127.8128306592789
 20
128.6953204892383
 10
127.8186428465654
 20
128.7366729750031
 10
127.8315823633542
 20
128.7764502864415
 10
127.8512268998659
 20
128.813472909056
 10
127.8769639258127
 20
128.8463710229136
 10
127.9080725043462
 20
128.8743813128379
 10
127.9435416151569
 20
128.8965553918109
 10
127.9823412271357
 20
128.9123464180688
 10
128.0232510886675
 20
128.921017244412
 10
128.0650623771185
 20
128.922430948081
 10
142.0858210450725
 20
128.18763412243
 10
142.1272515201203
 20
128.1818579027926
 10
142.1670389140335
 20
128.1689579124974
 10
142.2039713714519
 20
128.1491979366619
 10
142.2369383426581
 20
128.1234372746072
 10
142.2649286599914
 20
128.0923297427927
 10
142.2871018846039
 20
128.056920759098
 10
142.3027688884411
 20
128.0180475370711
 10
142.3114676764112
 20
127.9771362101327
 10
142.3129315039152
 20
127.9354024045907
 10
141.7238798492097
 20
116.6956272650209
 10
139.9821487139342
 20
114.0331335744345
 10
139.8706940615192
 20
111.9064521172211
 10
141.3245774374584
 20
109.0764833666574
 10
141.2266851247445
 20
107.2085867670802
 10
139.484953989469
 20
104.5460930764941
 10
139.3735056173686
 20
102.419531454825
 10
140.8273889933078
 20
99.58956270426089
 10
140.238334198445
 20
88.34972764691906
 10
140.2325120418489
 20
88.30829957932539
 10
140.2195840899268
 20
88.26851365081923
 10
140.1999439496354
 20
88.23157491308586
 10
140.1741872820989
 20
88.19860773253563
 10
140.1430997228751
 20
88.17061636848345
 10
140.1076208351132
 20
88.14844680738764
 10
140.0688314979672
 20
88.13277540733023
 10
140.0279121819925
 20
88.12407703804782
 10
139.9861024806058
 20
88.12261718807635
 10
125.9653438126514
 20
88.85741401372749
 10
125.9239117505392
 20
88.8632363796672
 10
125.8841338110693
 20
88.87616391290165
 10
125.8471910788179
 20
88.89580426253707
 10
125.8142338845631
 20
88.92156040671372
 10
125.7862225479202
 20
88.95264901265688
 10
125.7640689648971
 20
88.98812706304349
 10
125.7483975648396
 20
89.02691640018945
 10
125.7396872120027
 20
89.06783634419546
 10
125.7382333538087
 20
89.10964573156677
 10
125.9496706170301
 20
93.14410905197535
 10
125.9554869911928
 20
93.18554142810298
 10
125.9684265079817
 20
93.22531873954154
 10
125.9880668576171
 20
93.26226147179307
 10
126.0138070237213
 20
93.29521950342313
 10
126.0449156022547
 20
93.32322979334707
 10
126.0803836663461
 20
93.34538389972968
 10
126.1191769980106
 20
93.36105509044313
 10
126.1600889529804
 20
93.36976586196766
 10
126.2019023348697
 20
93.37121951081807
 10
127.7198192276964
 20
93.29166885732876
 10
127.7323798571947
 20
93.53133994566976
 10
126.214462964368
 20
93.61089059915906
 10
126.1308351538703
 20
93.60796332886801
 10
126.0490133373688
 20
93.59058173100033
 10
125.9714266740404
 20
93.55923934957266
 10
125.9004684798286
 20
93.51489223834531
 10
125.8382933613811
 20
93.45890951024083
 10
125.786772037272
 20
93.39297556782833
 10
125.7474913380017
 20
93.31909010332518
 10
125.7216522496053
 20
93.2395333870103
 10
125.7099995286891
 20
93.15666968147363
 10
125.4985622654677
 20
89.12220636106505
 10
125.5014899544464
 20
89.03858653960361
 10
125.518870610267
 20
88.95674674777099
 10
125.5502135150541
 20
88.87917007073742
 10
125.5945607309533
 20
88.80821387378491
 10
125.6505432811158
 20
88.74603535999714
 10
125.716477705019
 20
88.69452322327953
 10
125.7903631590549
 20
88.65524232428345
 10
125.869919073583
 20
88.62938793688235
 10
125.9527831831531
 20
88.6177429253865
 10
139.9735418511071
 20
87.88294609973535
 10
140.0571612685351
 20
87.88586607929416
 10
140.1390018621549
 20
87.90326203411902
 10
140.2165785496554
 20
87.93460513863226
 10
140.2875342651172
 20
87.97894316713962
 10
140.3497129568472
 20
88.03492911264266
 10
140.4012249888926
 20
88.10086153928664
 10
140.4405053645295
 20
88.17473700702737
 10
140.4663606939775
 20
88.25431089688695
 10
140.478005286786
 20
88.33716701742078
 10
141.0704483114561
 20
99.64165335084286
 10
139.6165649355169
 20
102.4716221014066
 10
139.7212368480031
 20
104.4688811709156
 10
141.4629679832782
 20
107.131374861502
 10
141.567639895764
 20
109.1286339310111
 10
140.1137565198248
 20
111.9586026815751
 10
140.218428432311
 20
113.9558617510842
 10
141.9601595675861
 20
116.6183554416706
 10
142.5526025922566
 20
127.9228417750924
 10
142.5496851248234
 20
128.0065091267376
 10
142.5322882279514
 20
128.0883317450259
 10
142.5009435533597
 20
128.1658784736402
 10
142.4566087696815
 20
128.2368961041334
 10
142.4006247396744
 20
128.2991113457041
 10
142.3346823273299
 20
128.3504328392345
 10
142.2608089425605
 20
128.3897529603267
 10
142.1812426246668
 20
128.4157527714962
 97
        0
 75
     0
 76
     1
 98
        0
  0
HATCH
  5
F4
330
E3
100
AcDbEntity
  8
Des_ Furniture
  6
Continuous
100
AcDbHatch
 10
0.0
 20
0.0
 30
0.0
210
0.0
220
0.0
230
1.0
  2
Steel_0002
 70
     0
 71
     0
 91
        1
 92
        3
 72
     0
 73
     1
 93
      140
 10
142.0983816745708
 20
128.427305210771
 10
128.0776230066168
 20
129.162102036422
 10
127.9940004297147
 20
129.1592746290841
 10
127.9121702394603
 20
129.1417332504908
 10
127.8345814826936
 20
129.1103509238821
 10
127.763633755673
 20
129.0662035385617
 10
127.7014565437875
 20
129.0101808652755
 10
127.6499320795208
 20
128.9441870050909
 10
127.6106534736888
 20
128.8703414857695
 10
127.5848143852924
 20
128.7907847694543
 10
127.5731595709379
 20
128.7078811187365
 10
127.3617223077165
 20
124.673417798328
 10
127.3646474845696
 20
124.5897500426489
 10
127.3820290824369
 20
124.5079282261476
 10
127.4133735573029
 20
124.4303815080003
 10
127.4577175283729
 20
124.3593633960165
 10
127.5136981630394
 20
124.2971483323879
 10
127.5796425726428
 20
124.2458267341858
 10
127.6535259437077
 20
124.2065060897337
 10
127.7330742862697
 20
124.1805072206118
 10
127.8159432254019
 20
124.1689543626491
 10
129.333860118229
 20
124.0894037091598
 10
129.3464207477273
 20
124.3290747975008
 10
127.8285038549002
 20
124.4086254509901
 10
127.7870693853342
 20
124.4144018799714
 10
127.7472899804577
 20
124.4273014515793
 10
127.7103535285208
 20
124.4470616367584
 10
127.6773965436097
 20
124.4728217754536
 10
127.6493862536858
 20
124.5039303539871
 10
127.6272290071458
 20
124.5393385003064
 10
127.6115620033086
 20
124.5782117223333
 10
127.6028512317841
 20
124.6191236773031
 10
127.6013933960575
 20
124.6608571688297
 10
127.8128306592789
 20
128.6953204892383
 10
127.8186428465654
 20
128.7366729750031
 10
127.8315823633542
 20
128.7764502864415
 10
127.8512268998659
 20
128.813472909056
 10
127.8769639258127
 20
128.8463710229136
 10
127.9080725043462
 20
128.8743813128379
 10
127.9435416151569
 20
128.8965553918109
 10
127.9823412271357
 20
128.9123464180688
 10
128.0232510886675
 20
128.921017244412
 10
128.0650623771185
 20
128.922430948081
 10
142.0858210450725
 20
128.18763412243
 10
142.1272515201203
 20
128.1818579027926
 10
142.1670389140335
 20
128.1689579124974
 10
142.2039713714519
 20
128.1491979366619
 10
142.2369383426581
 20
128.1234372746072
 10
142.2649286599914
 20
128.0923297427927
 10
142.2871018846039
 20
128.056920759098
 10
142.3027688884411
 20
128.0180475370711
 10
142.3114676764112
 20
127.9771362101327
 10
142.3129315039152
 20
127.9354024045907
 10
141.7238798492097
 20
116.6956272650209
 10
139.9821487139342
 20
114.0331335744345
 10
139.8706940615192
 20
111.9064521172211
 10
141.3245774374584
 20
109.0764833666574
 10
141.2266851247445
 20
107.2085867670802
 10
139.484953989469
 20
104.5460930764941
 10
139.3735056173686
 20
102.419531454825
 10
140.8273889933078
 20
99.58956270426089
 10
140.238334198445
 20
88.34972764691906
 10
140.2325120418489
 20
88.30829957932539
 10
140.2195840899268
 20
88.26851365081923
 10
140.1999439496354
 20
88.23157491308586
 10
140.1741872820989
 20
88.19860773253563
 10
140.1430997228751
 20
88.17061636848345
 10
140.1076208351132
 20
88.14844680738764
 10
140.0688314979672
 20
88.13277540733023
 10
140.0279121819925
 20
88.12407703804782
 10
139.9861024806058
 20
88.12261718807635
 10
125.9653438126514
 20
88.85741401372749
 10
125.9239117505392
 20
88.8632363796672
 10
125.8841338110693
 20
88.87616391290165
 10
125.8471910788179
 20
88.89580426253707
 10
125.8142338845631
 20
88.92156040671372
 10
125.7862225479202
 20
88.95264901265688
 10
125.7640689648971
 20
88.98812706304349
 10
125.7483975648396
 20
89.02691640018945
 10
125.7396872120027
 20
89.06783634419546
 10
125.7382333538087
 20
89.10964573156677
 10
125.9496706170301
 20
93.14410905197535
 10
125.9554869911928
 20
93.18554142810298
 10
125.9684265079817
 20
93.22531873954154
 10
125.9880668576171
 20
93.26226147179307
 10
126.0138070237213
 20
93.29521950342313
 10
126.0449156022547
 20
93.32322979334707
 10
126.0803836663461
 20
93.34538389972968
 10
126.1191769980106
 20
93.36105509044313
 10
126.1600889529804
 20
93.36976586196766
 10
126.2019023348697
 20
93.37121951081807
 10
127.7198192276964
 20
93.29166885732876
 10
127.7323798571947
 20
93.53133994566976
 10
126.214462964368
 20
93.61089059915906
 10
126.1308351538703
 20
93.60796332886801
 10
126.0490133373688
 20
93.59058173100033
 10
125.9714266740404
 20
93.55923934957266
 10
125.9004684798286
 20
93.51489223834531
 10
125.8382933613811
 20
93.45890951024083
 10
125.786772037272
 20
93.39297556782833
 10
125.7474913380017
 20
93.31909010332518
 10
125.7216522496053
 20
93.2395333870103
 10
125.7099995286891
 20
93.15666968147363
 10
125.4985622654677
 20
89.12220636106505
 10
125.5014899544464
 20
89.03858653960361
 10
125.518870610267
 20
88.95674674777099
 10
125.5502135150541
 20
88.87917007073742
 10
125.5945607309533
 20
88.80821387378491
 10
125.6505432811158
 20
88.74603535999714
 10
125.716477705019
 20
88.69452322327953
 10
125.7903631590549
 20
88.65524232428345
 10
125.869919073583
 20
88.62938793688235
 10
125.9527831831531
 20
88.6177429253865
 10
139.9735418511071
 20
87.88294609973535
 10
140.0571612685351
 20
87.88586607929416
 10
140.1390018621549
 20
87.90326203411902
 10
140.2165785496554
 20
87.93460513863226
 10
140.2875342651172
 20
87.97894316713962
 10
140.3497129568472
 20
88.03492911264266
 10
140.4012249888926
 20
88.10086153928664
 10
140.4405053645295
 20
88.17473700702737
 10
140.4663606939775
 20
88.25431089688695
 10
140.478005286786
 20
88.33716701742078
 10
141.0704483114561
 20
99.64165335084286
 10
139.6165649355169
 20
102.4716221014066
 10
139.7212368480031
 20
104.4688811709156
 10
141.4629679832782
 20
107.131374861502
 10
141.567639895764
 20
109.1286339310111
 10
140.1137565198248
 20
111.9586026815751
 10
140.218428432311
 20
113.9558617510842
 10
141.9601595675861
 20
116.6183554416706
 10
142.5526025922566
 20
127.9228417750924
 10
142.5496851248234
 20
128.0065091267376
 10
142.5322882279514
 20
128.0883317450259
 10
142.5009435533597
 20
128.1658784736402
 10
142.4566087696815
 20
128.2368961041334
 10
142.4006247396744
 20
128.2991113457041
 10
142.3346823273299
 20
128.3504328392345
 10
142.2608089425605
 20
128.3897529603267
 10
142.1812426246668
 20
128.4157527714962
 97
        0
 75
     0
 76
     2
 52
0.0
 41
1.0
 77
     0
 78
     2
 53
44.99999999999999
 43
146.4275516021832
 44
-813.3809652398878
 45
-1.590990257669732
 46
1.590990257669732
 79
     0
 53
44.99999999999999
 43
145.8972215162933
 44
-812.8506351539979
 45
-1.590990257669732
 46
1.590990257669732
 79
     0
 98
        0
  0
HATCH
  5
F5
330
E3
100
AcDbEntity
  8
Des_ Furniture
  6
Continuous
 62
   255
370
     0
100
AcDbHatch
 10
0.0
 20
0.0
 30
0.0
210
0.0
220
0.0
230
1.0
  2
SOLID
 70
     1
 71
     0
 91
        1
 92
        3
 72
     0
 73
     1
 93
      140
 10
142.0147622571428
 20
128.4243852312121
 10
127.9940035891891
 20
129.159182056863
 10
127.910381012287
 20
129.1563546495252
 10
127.8285508220322
 20
129.138813270932
 10
127.7509620652659
 20
129.1074309443232
 10
127.6800143382453
 20
129.0632835590028
 10
127.6178371263598
 20
129.0072608857168
 10
127.5663126620927
 20
128.9412670255322
 10
127.5270340562607
 20
128.8674215062105
 10
127.5011949678643
 20
128.7878647898955
 10
127.4895401535098
 20
128.7049611391776
 10
127.2781028902884
 20
124.6704978187691
 10
127.2810280671415
 20
124.5868300630899
 10
127.2984096650092
 20
124.5050082465887
 10
127.3297541398748
 20
124.4274615284414
 10
127.3740981109449
 20
124.3564434164577
 10
127.4300787456114
 20
124.2942283528288
 10
127.4960231552151
 20
124.2429067546267
 10
127.56990652628
 20
124.2035861101749
 10
127.6494548688419
 20
124.1775872410529
 10
127.7323238079739
 20
124.1660343830903
 10
129.2502407008009
 20
124.0864837296008
 10
129.2628013302995
 20
124.3261548179421
 10
127.7448844374725
 20
124.4057054714313
 10
127.7034499679062
 20
124.4114819004126
 10
127.6636705630296
 20
124.4243814720202
 10
127.6267341110931
 20
124.4441416571996
 10
127.5937771261824
 20
124.4699017958946
 10
127.5657668362584
 20
124.5010103744282
 10
127.5436095897185
 20
124.5364185207475
 10
127.5279425858813
 20
124.5752917427744
 10
127.5192318143568
 20
124.6162036977442
 10
127.5177739786294
 20
124.6579371892708
 10
127.7292112418508
 20
128.6924005096791
 10
127.7350234291376
 20
128.7337529954442
 10
127.7479629459265
 20
128.7735303068827
 10
127.7676074824378
 20
128.810552929497
 10
127.7933445083847
 20
128.8434510433548
 10
127.8244530869181
 20
128.8714613332787
 10
127.8599221977288
 20
128.8936354122521
 10
127.8987218097079
 20
128.9094264385099
 10
127.9396316712394
 20
128.918097264853
 10
127.9814429596904
 20
128.919510968522
 10
142.0022016276448
 20
128.1847141428711
 10
142.0436321026927
 20
128.1789379232337
 10
142.0834194966056
 20
128.1660379329385
 10
142.1203519540242
 20
128.1462779571028
 10
142.1533189252302
 20
128.1205172950482
 10
142.1813092425637
 20
128.0894097632338
 10
142.2034824671763
 20
128.0540007795393
 10
142.2191494710135
 20
128.0151275575122
 10
142.2278482589832
 20
127.9742162305739
 10
142.2293120864872
 20
127.9324824250316
 10
141.6402604317817
 20
116.692707285462
 10
139.8985292965066
 20
114.0302135948756
 10
139.7870746440916
 20
111.9035321376624
 10
141.2409580200305
 20
109.0735633870985
 10
141.1430657073169
 20
107.2056667875214
 10
139.401334572041
 20
104.5431730969352
 10
139.2898861999406
 20
102.416611475266
 10
140.7437695758802
 20
99.58664272470207
 10
140.1547147810171
 20
88.34680766736037
 10
140.1488926244213
 20
88.30537959976648
 10
140.1359646724992
 20
88.26559367126019
 10
140.1163245322075
 20
88.22865493352671
 10
140.0905678646709
 20
88.19568775297681
 10
140.0594803054475
 20
88.16769638892441
 10
140.0240014176852
 20
88.14552682782895
 10
139.9852120805392
 20
88.1298554277713
 10
139.9442927645645
 20
88.12115705848878
 10
139.9024830631782
 20
88.11969720851765
 10
125.8817243952237
 20
88.85449403416845
 10
125.8402923331112
 20
88.8603164001085
 10
125.8005143936416
 20
88.87324393334295
 10
125.7635716613898
 20
88.89288428297814
 10
125.7306144671354
 20
88.91864042715503
 10
125.7026031304925
 20
88.94972903309795
 10
125.6804495474697
 20
88.98520708348445
 10
125.6647781474115
 20
89.02399642063075
 10
125.656067794575
 20
89.06491636463676
 10
125.6546139363806
 20
89.10672575200795
 10
125.866051199602
 20
93.14118907241631
 10
125.8718675737648
 20
93.18262144854417
 10
125.8848070905537
 20
93.22239875998261
 10
125.904447440189
 20
93.25934149223403
 10
125.9301876062935
 20
93.29229952386409
 10
125.961296184827
 20
93.32030981378803
 10
125.9967642489187
 20
93.34246392017053
 10
126.0355575805825
 20
93.3581351108843
 10
126.0764695355527
 20
93.36684588240884
 10
126.1182829174416
 20
93.36829953125925
 10
127.6361998102687
 20
93.28874887776983
 10
127.6487604397673
 20
93.52841996611106
 10
126.1308435469403
 20
93.60797061960025
 10
126.0472157364426
 20
93.60504334930897
 10
125.9653939199411
 20
93.58766175144129
 10
125.8878072566127
 20
93.55631937001385
 10
125.8168490624009
 20
93.51197225878649
 10
125.7546739439534
 20
93.45598953068168
 10
125.7031526198439
 20
93.3900555882694
 10
125.663871920574
 20
93.31617012376637
 10
125.6380328321776
 20
93.23661340745137
 10
125.626380111261
 20
93.15374970191459
 10
125.4149428480396
 20
89.11928638150624
 10
125.4178705370187
 20
89.0356665600448
 10
125.4352511928389
 20
88.95382676821184
 10
125.466594097626
 20
88.8762500911786
 10
125.5109413135252
 20
88.80529389422608
 10
125.5669238636877
 20
88.74311538043823
 10
125.632858287591
 20
88.69160324372083
 10
125.7067437416268
 20
88.65232234472454
 10
125.786299656155
 20
88.62646795732354
 10
125.8691637657251
 20
88.61482294582734
 10
139.8899224336795
 20
87.88002612017642
 10
139.9735418511071
 20
87.88294609973535
 10
140.0553824447272
 20
87.90034205456033
 10
140.1329591322274
 20
87.93168515907335
 10
140.2039148476895
 20
87.9760231875808
 10
140.2660935394196
 20
88.03200913308373
 10
140.3176055714646
 20
88.09794155972794
 10
140.3568859471016
 20
88.17181702746824
 10
140.3827412765502
 20
88.25139091732814
 10
140.3943858693581
 20
88.33424703786208
 10
140.9868288940282
 20
99.63873337128393
 10
139.5329455180893
 20
102.4687021218476
 10
139.6376174305751
 20
104.4659611913568
 10
141.3793485658503
 20
107.1284548819431
 10
141.4840204783368
 20
109.1257139514523
 10
140.0301371023972
 20
111.9556827020161
 10
140.134809014883
 20
113.9529417715253
 10
141.8765401501589
 20
116.6154354621115
 10
142.4689831748289
 20
127.9199217955334
 10
142.4660657073958
 20
128.0035891471789
 10
142.4486688105234
 20
128.0854117654669
 10
142.417324135932
 20
128.1629584940813
 10
142.3729893522535
 20
128.2339761245744
 10
142.3170053222464
 20
128.2961913661455
 10
142.2510629099023
 20
128.3475128596757
 10
142.1771895251325
 20
128.3868329807678
 10
142.0976232072391
 20
128.4128327919373
 97
        0
 75
     0
 76
     1
 98
        0
  0
HATCH
  5
F6
330
E3
100
AcDbEntity
  8
Des_ Furniture
  6
Continuous
100
AcDbHatch
 10
0.0
 20
0.0
 30
0.0
210
0.0
220
0.0
230
1.0
  2
Steel_0002
 70
     0
 71
     0
 91
        1
 92
        3
 72
     0
 73
     1
 93
      140
 10
142.0147622571428
 20
128.4243852312121
 10
127.9940035891891
 20
129.159182056863
 10
127.910381012287
 20
129.1563546495252
 10
127.8285508220322
 20
129.138813270932
 10
127.7509620652659
 20
129.1074309443232
 10
127.6800143382453
 20
129.0632835590028
 10
127.6178371263598
 20
129.0072608857168
 10
127.5663126620927
 20
128.9412670255322
 10
127.5270340562607
 20
128.8674215062105
 10
127.5011949678643
 20
128.7878647898955
 10
127.4895401535098
 20
128.7049611391776
 10
127.2781028902884
 20
124.6704978187691
 10
127.2810280671415
 20
124.5868300630899
 10
127.2984096650092
 20
124.5050082465887
 10
127.3297541398748
 20
124.4274615284414
 10
127.3740981109449
 20
124.3564434164577
 10
127.4300787456114
 20
124.2942283528288
 10
127.4960231552151
 20
124.2429067546267
 10
127.56990652628
 20
124.2035861101749
 10
127.6494548688419
 20
124.1775872410529
 10
127.7323238079739
 20
124.1660343830903
 10
129.2502407008009
 20
124.0864837296008
 10
129.2628013302995
 20
124.3261548179421
 10
127.7448844374725
 20
124.4057054714313
 10
127.7034499679062
 20
124.4114819004126
 10
127.6636705630296
 20
124.4243814720202
 10
127.6267341110931
 20
124.4441416571996
 10
127.5937771261824
 20
124.4699017958946
 10
127.5657668362584
 20
124.5010103744282
 10
127.5436095897185
 20
124.5364185207475
 10
127.5279425858813
 20
124.5752917427744
 10
127.5192318143568
 20
124.6162036977442
 10
127.5177739786294
 20
124.6579371892708
 10
127.7292112418508
 20
128.6924005096791
 10
127.7350234291376
 20
128.7337529954442
 10
127.7479629459265
 20
128.7735303068827
 10
127.7676074824378
 20
128.810552929497
 10
127.7933445083847
 20
128.8434510433548
 10
127.8244530869181
 20
128.8714613332787
 10
127.8599221977288
 20
128.8936354122521
 10
127.8987218097079
 20
128.9094264385099
 10
127.9396316712394
 20
128.918097264853
 10
127.9814429596904
 20
128.919510968522
 10
142.0022016276448
 20
128.1847141428711
 10
142.0436321026927
 20
128.1789379232337
 10
142.0834194966056
 20
128.1660379329385
 10
142.1203519540242
 20
128.1462779571028
 10
142.1533189252302
 20
128.1205172950482
 10
142.1813092425637
 20
128.0894097632338
 10
142.2034824671763
 20
128.0540007795393
 10
142.2191494710135
 20
128.0151275575122
 10
142.2278482589832
 20
127.9742162305739
 10
142.2293120864872
 20
127.9324824250316
 10
141.6402604317817
 20
116.692707285462
 10
139.8985292965066
 20
114.0302135948756
 10
139.7870746440916
 20
111.9035321376624
 10
141.2409580200305
 20
109.0735633870985
 10
141.1430657073169
 20
107.2056667875214
 10
139.401334572041
 20
104.5431730969352
 10
139.2898861999406
 20
102.416611475266
 10
140.7437695758802
 20
99.58664272470207
 10
140.1547147810171
 20
88.34680766736037
 10
140.1488926244213
 20
88.30537959976648
 10
140.1359646724992
 20
88.26559367126019
 10
140.1163245322075
 20
88.22865493352671
 10
140.0905678646709
 20
88.19568775297681
 10
140.0594803054475
 20
88.16769638892441
 10
140.0240014176852
 20
88.14552682782895
 10
139.9852120805392
 20
88.1298554277713
 10
139.9442927645645
 20
88.12115705848878
 10
139.9024830631782
 20
88.11969720851765
 10
125.8817243952237
 20
88.85449403416845
 10
125.8402923331112
 20
88.8603164001085
 10
125.8005143936416
 20
88.87324393334295
 10
125.7635716613898
 20
88.89288428297814
 10
125.7306144671354
 20
88.91864042715503
 10
125.7026031304925
 20
88.94972903309795
 10
125.6804495474697
 20
88.98520708348445
 10
125.6647781474115
 20
89.02399642063075
 10
125.656067794575
 20
89.06491636463676
 10
125.6546139363806
 20
89.10672575200795
 10
125.866051199602
 20
93.14118907241631
 10
125.8718675737648
 20
93.18262144854417
 10
125.8848070905537
 20
93.22239875998261
 10
125.904447440189
 20
93.25934149223403
 10
125.9301876062935
 20
93.29229952386409
 10
125.961296184827
 20
93.32030981378803
 10
125.9967642489187
 20
93.34246392017053
 10
126.0355575805825
 20
93.3581351108843
 10
126.0764695355527
 20
93.36684588240884
 10
126.1182829174416
 20
93.36829953125925
 10
127.6361998102687
 20
93.28874887776983
 10
127.6487604397673
 20
93.52841996611106
 10
126.1308435469403
 20
93.60797061960025
 10
126.0472157364426
 20
93.60504334930897
 10
125.9653939199411
 20
93.58766175144129
 10
125.8878072566127
 20
93.55631937001385
 10
125.8168490624009
 20
93.51197225878649
 10
125.7546739439534
 20
93.45598953068168
 10
125.7031526198439
 20
93.3900555882694
 10
125.663871920574
 20
93.31617012376637
 10
125.6380328321776
 20
93.23661340745137
 10
125.626380111261
 20
93.15374970191459
 10
125.4149428480396
 20
89.11928638150624
 10
125.4178705370187
 20
89.0356665600448
 10
125.4352511928389
 20
88.95382676821184
 10
125.466594097626
 20
88.8762500911786
 10
125.5109413135252
 20
88.80529389422608
 10
125.5669238636877
 20
88.74311538043823
 10
125.632858287591
 20
88.69160324372083
 10
125.7067437416268
 20
88.65232234472454
 10
125.786299656155
 20
88.62646795732354
 10
125.8691637657251
 20
88.61482294582734
 10
139.8899224336795
 20
87.88002612017642
 10
139.9735418511071
 20
87.88294609973535
 10
140.0553824447272
 20
87.90034205456033
 10
140.1329591322274
 20
87.93168515907335
 10
140.2039148476895
 20
87.9760231875808
 10
140.2660935394196
 20
88.03200913308373
 10
140.3176055714646
 20
88.09794155972794
 10
140.3568859471016
 20
88.17181702746824
 10
140.3827412765502
 20
88.25139091732814
 10
140.3943858693581
 20
88.33424703786208
 10
140.9868288940282
 20
99.63873337128393
 10
139.5329455180893
 20
102.4687021218476
 10
139.6376174305751
 20
104.4659611913568
 10
141.3793485658503
 20
107.1284548819431
 10
141.4840204783368
 20
109.1257139514523
 10
140.0301371023972
 20
111.9556827020161
 10
140.134809014883
 20
113.9529417715253
 10
141.8765401501589
 20
116.6154354621115
 10
142.4689831748289
 20
127.9199217955334
 10
142.4660657073958
 20
128.0035891471789
 10
142.4486688105234
 20
128.0854117654669
 10
142.417324135932
 20
128.1629584940813
 10
142.3729893522535
 20
128.2339761245744
 10
142.3170053222464
 20
128.2961913661455
 10
142.2510629099023
 20
128.3475128596757
 10
142.1771895251325
 20
128.3868329807678
 10
142.0976232072391
 20
128.4128327919373
 97
        0
 75
     0
 76
     2
 52
0.0
 41
1.0
 77
     0
 78
     2
 53
44.99999999999999
 43
146.4275516021832
 44
-813.3809652398878
 45
-1.590990257669732
 46
1.590990257669732
 79
     0
 53
44.99999999999999
 43
145.8972215162933
 44
-812.8506351539979
 45
-1.590990257669732
 46
1.590990257669732
 79
     0
 98
        0
  0
HATCH
  5
F7
330
E3
100
AcDbEntity
  8
Des_ Furniture
  6
Continuous
 62
   255
370
     0
100
AcDbHatch
 10
0.0
 20
0.0
 30
0.0
210
0.0
220
0.0
230
1.0
  2
SOLID
 70
     1
 71
     0
 91
        1
 92
        3
 72
     0
 73
     1
 93
      140
 10
60.37245755295233
 20
128.427305210771
 10
60.28959660285631
 20
128.4157527714962
 10
60.21003028496255
 20
128.3897529603267
 10
60.13615690019316
 20
128.3504328392345
 10
60.0702144878487
 20
128.2991113457041
 10
60.01423045784167
 20
128.2368961041334
 10
59.96989567416344
 20
128.1658784736402
 10
59.93855099957175
 20
128.0883317450259
 10
59.92115410269969
 20
128.0065091267376
 10
59.91823663526655
 20
127.9228417750924
 10
60.51067965993698
 20
116.6183554416706
 10
62.25241079521213
 20
113.9558617510842
 10
62.35708270769828
 20
111.9586026815751
 10
60.90319933175907
 20
109.1286339310111
 10
61.00787124424487
 20
107.131374861502
 10
62.74960237952003
 20
104.4688811709156
 10
62.85427429200618
 20
102.4716221014066
 10
61.40039091606697
 20
99.64165335084286
 10
61.99283394073704
 20
88.33716701742078
 10
62.00447853354562
 20
88.25431089688695
 10
62.03033386299354
 20
88.17473700702737
 10
62.06961423863051
 20
88.10086153928664
 10
62.12112627067592
 20
88.03492911264266
 10
62.18330496240591
 20
87.97894316713962
 10
62.25426067786773
 20
87.93460513863226
 10
62.33183736536825
 20
87.90326203411902
 10
62.41367795898798
 20
87.88586607929416
 10
62.49729737641596
 20
87.88294609973535
 10
76.51805604436986
 20
88.6177429253865
 10
76.60092015393998
 20
88.62938793688235
 10
76.68047606846811
 20
88.65524232428345
 10
76.75436152250397
 20
88.69452322327953
 10
76.82029594640723
 20
88.74603535999714
 10
76.87627849656975
 20
88.80821387378491
 10
76.92062571246892
 20
88.87917007073742
 10
76.95196861725604
 20
88.95674674777099
 10
76.96934927307657
 20
89.03858653960361
 10
76.97227696205529
 20
89.12220636106505
 10
76.76083969883392
 20
93.15666968147363
 10
76.74918697791773
 20
93.2395333870103
 10
76.72334788952134
 20
93.31909010332518
 10
76.68406719025099
 20
93.39297556782833
 10
76.63254586614192
 20
93.45890951024083
 10
76.5703707476944
 20
93.51489223834531
 10
76.49941255348259
 20
93.55923934957266
 10
76.42182589015425
 20
93.59058173100033
 10
76.3400040736527
 20
93.60796332886801
 10
76.256376263155
 20
93.61089059915906
 10
74.73845937032833
 20
93.53133994566976
 10
74.75101999982661
 20
93.29166885732876
 10
76.26893689265329
 20
93.37121951081807
 10
76.31075027454264
 20
93.36976586196766
 10
76.3516622295124
 20
93.36105509044313
 10
76.39045556117692
 20
93.34538389972968
 10
76.42592362526833
 20
93.32322979334707
 10
76.45703220380176
 20
93.29521950342313
 10
76.48277236990593
 20
93.26226147179307
 10
76.50241271954128
 20
93.22531873954154
 10
76.51535223633017
 20
93.18554142810298
 10
76.52116861049292
 20
93.14410905197535
 10
76.73260587371429
 20
89.10964573156677
 10
76.73115201552028
 20
89.06783634419546
 10
76.72244166268341
 20
89.02691640018945
 10
76.70677026262594
 20
88.98812706304349
 10
76.68461667960278
 20
88.95264901265688
 10
76.65660534295986
 20
88.92156040671372
 10
76.62364814870513
 20
88.89580426253707
 10
76.5867054164537
 20
88.87616391290165
 10
76.54692747698375
 20
88.8632363796672
 10
76.50549541487158
 20
88.85741401372749
 10
62.48473674691732
 20
88.12261718807635
 10
62.44292704553063
 20
88.12407703804782
 10
62.40200772955591
 20
88.13277540733023
 10
62.36321839240988
 20
88.14844680738764
 10
62.32773950464798
 20
88.17061636848345
 10
62.29665194542422
 20
88.19860773253563
 10
62.27089527788765
 20
88.23157491308586
 10
62.2512551375963
 20
88.26851365081923
 10
62.23832718567417
 20
88.30829957932539
 10
62.23250502907804
 20
88.34972764691906
 10
61.64345023421527
 20
99.58956270426089
 10
63.09733361015449
 20
102.419531454825
 10
62.98588523805408
 20
104.5460930764941
 10
61.24415410277857
 20
107.2085867670802
 10
61.14626179006466
 20
109.0764833666574
 10
62.60014516600387
 20
111.9064521172211
 10
62.48869051358889
 20
114.0331335744345
 10
60.74695937831338
 20
116.6956272650209
 10
60.15790772360789
 20
127.9354024045907
 10
60.15937155111191
 20
127.9771362101327
 10
60.16807033908203
 20
128.0180475370711
 10
60.18373734291922
 20
128.056920759098
 10
60.2059105675317
 20
128.0923297427927
 10
60.23390088486495
 20
128.1234372746072
 10
60.2668678560712
 20
128.1491979366619
 10
60.30380031348956
 20
128.1689579124974
 10
60.34358770740278
 20
128.1818579027926
 10
60.38501818245061
 20
128.18763412243
 10
74.40577685040451
 20
128.922430948081
 10
74.44758813885555
 20
128.921017244412
 10
74.48849800038735
 20
128.9123464180688
 10
74.5272976123661
 20
128.8965553918109
 10
74.56276672317684
 20
128.8743813128379
 10
74.59387530171027
 20
128.8463710229136
 10
74.61961232765715
 20
128.813472909056
 10
74.63925686416877
 20
128.7764502864415
 10
74.65219638095766
 20
128.7366729750031
 10
74.65800856824414
 20
128.6953204892383
 10
74.86944583146551
 20
124.6608571688297
 10
74.86798799573889
 20
124.6191236773031
 10
74.85927722421435
 20
124.5782117223333
 10
74.84361022037716
 20
124.5393385003064
 10
74.82145297383722
 20
124.5039303539871
 10
74.79344268391328
 20
124.4728217754536
 10
74.7604856990022
 20
124.4470616367584
 10
74.72354924706535
 20
124.4273014515793
 10
74.68376984218877
 20
124.4144018799714
 10
74.6423353726228
 20
124.4086254509901
 10
73.12441847979576
 20
124.3290747975008
 10
73.13697910929405
 20
124.0894037091598
 10
74.65489600212108
 20
124.1689543626491
 10
74.73776494125337
 20
124.1805072206118
 10
74.81731328381534
 20
124.2065060897337
 10
74.89119665488025
 20
124.2458267341858
 10
74.9571410644836
 20
124.2971483323879
 10
75.01312169915009
 20
124.3593633960165
 10
75.05746567022014
 20
124.4303815080003
 10
75.08881014508609
 20
124.5079282261476
 10
75.10619174295341
 20
124.5897500426489
 10
75.10911691980651
 20
124.673417798328
 10
74.89767965658514
 20
128.7078811187365
 10
74.88602484223064
 20
128.7907847694543
 10
74.86018575383424
 20
128.8703414857695
 10
74.8209071480022
 20
128.9441870050909
 10
74.7693826837355
 20
129.0101808652755
 10
74.70720547185002
 20
129.0662035385617
 10
74.63625774482941
 20
129.1103509238821
 10
74.55866898806276
 20
129.1417332504908
 10
74.47683879780831
 20
129.1592746290841
 10
74.39321622090623
 20
129.162102036422
 97
        0
 75
     0
 76
     1
 98
        0
  0
HATCH
  5
F8
330
E3
100
AcDbEntity
  8
Des_ Furniture
  6
Continuous
100
AcDbHatch
 10
0.0
 20
0.0
 30
0.0
210
0.0
220
0.0
230
1.0
  2
Steel_0002
 70
     0
 71
     0
 91
        1
 92
        3
 72
     0
 73
     1
 93
      140
 10
60.37245755295233
 20
128.427305210771
 10
60.28959660285631
 20
128.4157527714962
 10
60.21003028496255
 20
128.3897529603267
 10
60.13615690019316
 20
128.3504328392345
 10
60.0702144878487
 20
128.2991113457041
 10
60.01423045784167
 20
128.2368961041334
 10
59.96989567416344
 20
128.1658784736402
 10
59.93855099957175
 20
128.0883317450259
 10
59.92115410269969
 20
128.0065091267376
 10
59.91823663526655
 20
127.9228417750924
 10
60.51067965993698
 20
116.6183554416706
 10
62.25241079521213
 20
113.9558617510842
 10
62.35708270769828
 20
111.9586026815751
 10
60.90319933175907
 20
109.1286339310111
 10
61.00787124424487
 20
107.131374861502
 10
62.74960237952003
 20
104.4688811709156
 10
62.85427429200618
 20
102.4716221014066
 10
61.40039091606697
 20
99.64165335084286
 10
61.99283394073704
 20
88.33716701742078
 10
62.00447853354562
 20
88.25431089688695
 10
62.03033386299354
 20
88.17473700702737
 10
62.06961423863051
 20
88.10086153928664
 10
62.12112627067592
 20
88.03492911264266
 10
62.18330496240591
 20
87.97894316713962
 10
62.25426067786773
 20
87.93460513863226
 10
62.33183736536825
 20
87.90326203411902
 10
62.41367795898798
 20
87.88586607929416
 10
62.49729737641596
 20
87.88294609973535
 10
76.51805604436986
 20
88.6177429253865
 10
76.60092015393998
 20
88.62938793688235
 10
76.68047606846811
 20
88.65524232428345
 10
76.75436152250397
 20
88.69452322327953
 10
76.82029594640723
 20
88.74603535999714
 10
76.87627849656975
 20
88.80821387378491
 10
76.92062571246892
 20
88.87917007073742
 10
76.95196861725604
 20
88.95674674777099
 10
76.96934927307657
 20
89.03858653960361
 10
76.97227696205529
 20
89.12220636106505
 10
76.76083969883392
 20
93.15666968147363
 10
76.74918697791773
 20
93.2395333870103
 10
76.72334788952134
 20
93.31909010332518
 10
76.68406719025099
 20
93.39297556782833
 10
76.63254586614192
 20
93.45890951024083
 10
76.5703707476944
 20
93.51489223834531
 10
76.49941255348259
 20
93.55923934957266
 10
76.42182589015425
 20
93.59058173100033
 10
76.3400040736527
 20
93.60796332886801
 10
76.256376263155
 20
93.61089059915906
 10
74.73845937032833
 20
93.53133994566976
 10
74.75101999982661
 20
93.29166885732876
 10
76.26893689265329
 20
93.37121951081807
 10
76.31075027454264
 20
93.36976586196766
 10
76.3516622295124
 20
93.36105509044313
 10
76.39045556117692
 20
93.34538389972968
 10
76.42592362526833
 20
93.32322979334707
 10
76.45703220380176
 20
93.29521950342313
 10
76.48277236990593
 20
93.26226147179307
 10
76.50241271954128
 20
93.22531873954154
 10
76.51535223633017
 20
93.18554142810298
 10
76.52116861049292
 20
93.14410905197535
 10
76.73260587371429
 20
89.10964573156677
 10
76.73115201552028
 20
89.06783634419546
 10
76.72244166268341
 20
89.02691640018945
 10
76.70677026262594
 20
88.98812706304349
 10
76.68461667960278
 20
88.95264901265688
 10
76.65660534295986
 20
88.92156040671372
 10
76.62364814870513
 20
88.89580426253707
 10
76.5867054164537
 20
88.87616391290165
 10
76.54692747698375
 20
88.8632363796672
 10
76.50549541487158
 20
88.85741401372749
 10
62.48473674691732
 20
88.12261718807635
 10
62.44292704553063
 20
88.12407703804782
 10
62.40200772955591
 20
88.13277540733023
 10
62.36321839240988
 20
88.14844680738764
 10
62.32773950464798
 20
88.17061636848345
 10
62.29665194542422
 20
88.19860773253563
 10
62.27089527788765
 20
88.23157491308586
 10
62.2512551375963
 20
88.26851365081923
 10
62.23832718567417
 20
88.30829957932539
 10
62.23250502907804
 20
88.34972764691906
 10
61.64345023421527
 20
99.58956270426089
 10
63.09733361015449
 20
102.419531454825
 10
62.98588523805408
 20
104.5460930764941
 10
61.24415410277857
 20
107.2085867670802
 10
61.14626179006466
 20
109.0764833666574
 10
62.60014516600387
 20
111.9064521172211
 10
62.48869051358889
 20
114.0331335744345
 10
60.74695937831338
 20
116.6956272650209
 10
60.15790772360789
 20
127.9354024045907
 10
60.15937155111191
 20
127.9771362101327
 10
60.16807033908203
 20
128.0180475370711
 10
60.18373734291922
 20
128.056920759098
 10
60.2059105675317
 20
128.0923297427927
 10
60.23390088486495
 20
128.1234372746072
 10
60.2668678560712
 20
128.1491979366619
 10
60.30380031348956
 20
128.1689579124974
 10
60.34358770740278
 20
128.1818579027926
 10
60.38501818245061
 20
128.18763412243
 10
74.40577685040451
 20
128.922430948081
 10
74.44758813885555
 20
128.921017244412
 10
74.48849800038735
 20
128.9123464180688
 10
74.5272976123661
 20
128.8965553918109
 10
74.56276672317684
 20
128.8743813128379
 10
74.59387530171027
 20
128.8463710229136
 10
74.61961232765715
 20
128.813472909056
 10
74.63925686416877
 20
128.7764502864415
 10
74.65219638095766
 20
128.7366729750031
 10
74.65800856824414
 20
128.6953204892383
 10
74.86944583146551
 20
124.6608571688297
 10
74.86798799573889
 20
124.6191236773031
 10
74.85927722421435
 20
124.5782117223333
 10
74.84361022037716
 20
124.5393385003064
 10
74.82145297383722
 20
124.5039303539871
 10
74.79344268391328
 20
124.4728217754536
 10
74.7604856990022
 20
124.4470616367584
 10
74.72354924706535
 20
124.4273014515793
 10
74.68376984218877
 20
124.4144018799714
 10
74.6423353726228
 20
124.4086254509901
 10
73.12441847979576
 20
124.3290747975008
 10
73.13697910929405
 20
124.0894037091598
 10
74.65489600212108
 20
124.1689543626491
 10
74.73776494125337
 20
124.1805072206118
 10
74.81731328381534
 20
124.2065060897337
 10
74.89119665488025
 20
124.2458267341858
 10
74.9571410644836
 20
124.2971483323879
 10
75.01312169915009
 20
124.3593633960165
 10
75.05746567022014
 20
124.4303815080003
 10
75.08881014508609
 20
124.5079282261476
 10
75.10619174295341
 20
124.5897500426489
 10
75.10911691980651
 20
124.673417798328
 10
74.89767965658514
 20
128.7078811187365
 10
74.88602484223064
 20
128.7907847694543
 10
74.86018575383424
 20
128.8703414857695
 10
74.8209071480022
 20
128.9441870050909
 10
74.7693826837355
 20
129.0101808652755
 10
74.70720547185002
 20
129.0662035385617
 10
74.63625774482941
 20
129.1103509238821
 10
74.55866898806276
 20
129.1417332504908
 10
74.47683879780831
 20
129.1592746290841
 10
74.39321622090623
 20
129.162102036422
 97
        0
 75
     0
 76
     2
 52
0.0
 41
1.0
 77
     0
 78
     2
 53
44.99999999999999
 43
146.4275516021832
 44
-813.3809652398878
 45
-1.590990257669732
 46
1.590990257669732
 79
     0
 53
44.99999999999999
 43
145.8972215162933
 44
-812.8506351539979
 45
-1.590990257669732
 46
1.590990257669732
 79
     0
 98
        0
  0
HATCH
  5
F9
330
E3
100
AcDbEntity
  8
Des_ Furniture
  6
Continuous
 62
   255
370
     0
100
AcDbHatch
 10
0.0
 20
0.0
 30
0.0
210
0.0
220
0.0
230
1.0
  2
SOLID
 70
     1
 71
     0
 91
        1
 92
        3
 72
     0
 73
     1
 93
      140
 10
60.45607697038032
 20
128.4243852312121
 10
60.37321602028393
 20
128.4128327919373
 10
60.29364970239052
 20
128.3868329807678
 10
60.21977631762079
 20
128.3475128596757
 10
60.15383390527669
 20
128.2961913661455
 10
60.09784987526965
 20
128.2339761245744
 10
60.05351509159107
 20
128.1629584940813
 10
60.02217041699973
 20
128.0854117654669
 10
60.00477352012732
 20
128.0035891471789
 10
60.00185605269417
 20
127.9199217955334
 10
60.59429907736424
 20
116.6154354621115
 10
62.33603021264011
 20
113.9529417715253
 10
62.44070212512591
 20
111.9556827020161
 10
60.98681874918635
 20
109.1257139514523
 10
61.09149066167285
 20
107.1284548819431
 10
62.83322179694802
 20
104.4659611913568
 10
62.93789370943381
 20
102.4687021218476
 10
61.48401033349496
 20
99.63873337128393
 10
62.07645335816503
 20
88.33424703786208
 10
62.08809795097289
 20
88.25139091732814
 10
62.11395328042153
 20
88.17181702746824
 10
62.15323365605849
 20
88.09794155972794
 10
62.20474568810355
 20
88.03200913308373
 10
62.26692437983354
 20
87.9760231875808
 10
62.3378800952957
 20
87.93168515907335
 10
62.41545678279588
 20
87.90034205456033
 10
62.49729737641596
 20
87.88294609973535
 10
62.58091679384358
 20
87.88002612017642
 10
76.60167546179801
 20
88.61482294582734
 10
76.68453957136815
 20
88.62646795732354
 10
76.76409548589628
 20
88.65232234472454
 10
76.83798093993214
 20
88.69160324372083
 10
76.90391536383538
 20
88.74311538043823
 10
76.95989791399792
 20
88.80529389422608
 10
77.00424512989707
 20
88.8762500911786
 10
77.0355880346842
 20
88.95382676821184
 10
77.05296869050437
 20
89.0356665600448
 10
77.05589637948344
 20
89.11928638150624
 10
76.84445911626207
 20
93.15374970191459
 10
76.83280639534554
 20
93.23661340745137
 10
76.80696730694913
 20
93.31617012376637
 10
76.76768660767914
 20
93.3900555882694
 10
76.71616528356972
 20
93.45598953068168
 10
76.6539901651222
 20
93.51197225878649
 10
76.58303197091038
 20
93.55631937001385
 10
76.50544530758206
 20
93.58766175144129
 10
76.42362349108049
 20
93.60504334930897
 10
76.3399956805828
 20
93.60797061960025
 10
74.82207878775577
 20
93.52841996611106
 10
74.83463941725442
 20
93.28874887776983
 10
76.35255631008145
 20
93.36829953125925
 10
76.39436969197044
 20
93.36684588240884
 10
76.43528164694057
 20
93.3581351108843
 10
76.47407497860436
 20
93.34246392017053
 10
76.50954304269612
 20
93.32030981378803
 10
76.54065162122957
 20
93.29229952386409
 10
76.56639178733408
 20
93.25934149223403
 10
76.58603213696945
 20
93.22239875998261
 10
76.59897165375833
 20
93.18262144854417
 10
76.60478802792107
 20
93.14118907241631
 10
76.81622529114244
 20
89.10672575200795
 10
76.81477143294808
 20
89.06491636463676
 10
76.80606108011156
 20
89.02399642063075
 10
76.7903896800534
 20
88.98520708348445
 10
76.76823609703058
 20
88.94972903309795
 10
76.74022476038766
 20
88.91864042715503
 10
76.70726756613328
 20
88.89288428297814
 10
76.67032483388151
 20
88.87324393334295
 10
76.6305468944119
 20
88.8603164001085
 10
76.58911483229939
 20
88.85449403416845
 10
62.56835616434495
 20
88.11969720851765
 10
62.52654646295861
 20
88.12115705848878
 10
62.48562714698389
 20
88.1298554277713
 10
62.44683780983787
 20
88.14552682782895
 10
62.41135892207561
 20
88.16769638892441
 10
62.38027136285221
 20
88.19568775297681
 10
62.35451469531564
 20
88.22865493352671
 10
62.33487455502393
 20
88.26559367126019
 10
62.32194660310179
 20
88.30537959976648
 10
62.31612444650602
 20
88.34680766736037
 10
61.7270696516429
 20
99.58664272470207
 10
63.18095302758246
 20
102.416611475266
 10
63.06950465548207
 20
104.5431730969352
 10
61.3277735202062
 20
107.2056667875214
 10
61.22988120749265
 20
109.0735633870985
 10
62.6837645834315
 20
111.9035321376624
 10
62.57230993101652
 20
114.0302135948756
 10
60.83057879574136
 20
116.692707285462
 10
60.24152714103588
 20
127.9324824250316
 10
60.24299096853989
 20
127.9742162305739
 10
60.25168975650966
 20
128.0151275575122
 10
60.26735676034685
 20
128.0540007795393
 10
60.28952998495933
 20
128.0894097632338
 10
60.31752030229294
 20
128.1205172950482
 10
60.35048727349883
 20
128.1462779571028
 10
60.38741973091754
 20
128.1660379329385
 10
60.4272071248304
 20
128.1789379232337
 10
60.46863759987824
 20
128.1847141428711
 10
74.48939626783267
 20
128.919510968522
 10
74.53120755628372
 20
128.918097264853
 10
74.57211741781515
 20
128.9094264385099
 10
74.61091702979427
 20
128.8936354122521
 10
74.64638614060499
 20
128.8714613332787
 10
74.67749471913842
 20
128.8434510433548
 10
74.7032317450853
 20
128.810552929497
 10
74.72287628159657
 20
128.7735303068827
 10
74.73581579838546
 20
128.7337529954442
 10
74.7416279856723
 20
128.6924005096791
 10
74.95306524889367
 20
124.6579371892708
 10
74.95160741316634
 20
124.6162036977442
 10
74.94289664164181
 20
124.5752917427744
 10
74.92722963780461
 20
124.5364185207475
 10
74.90507239126468
 20
124.5010103744282
 10
74.87706210134074
 20
124.4699017958946
 10
74.84410511643001
 20
124.4441416571996
 10
74.8071686644935
 20
124.4243814720202
 10
74.76738925961693
 20
124.4114819004126
 10
74.72595479005061
 20
124.4057054714313
 10
73.20803789722356
 20
124.3261548179421
 10
73.2205985267222
 20
124.0864837296008
 10
74.73851541954923
 20
124.1660343830903
 10
74.82138435868117
 20
124.1775872410529
 10
74.90093270124314
 20
124.2035861101749
 10
74.97481607230804
 20
124.2429067546267
 10
75.04076048191176
 20
124.2942283528288
 10
75.09674111657826
 20
124.3564434164577
 10
75.1410850876483
 20
124.4274615284414
 10
75.1724295625139
 20
124.5050082465887
 10
75.18981116038158
 20
124.5868300630899
 10
75.19273633723466
 20
124.6704978187691
 10
74.9812990740133
 20
128.7049611391776
 10
74.96964425965879
 20
128.7878647898955
 10
74.94380517126241
 20
128.8674215062105
 10
74.90452656543037
 20
128.9412670255322
 10
74.8530021011633
 20
129.0072608857168
 10
74.79082488927783
 20
129.0632835590028
 10
74.7198771622572
 20
129.1074309443232
 10
74.64228840549092
 20
129.138813270932
 10
74.56045821523611
 20
129.1563546495252
 10
74.47683563833402
 20
129.159182056863
 97
        0
 75
     0
 76
     1
 98
        0
  0
HATCH
  5
FA
330
E3
100
AcDbEntity
  8
Des_ Furniture
  6
Continuous
100
AcDbHatch
 10
0.0
 20
0.0
 30
0.0
210
0.0
220
0.0
230
1.0
  2
Steel_0002
 70
     0
 71
     0
 91
        1
 92
        3
 72
     0
 73
     1
 93
      140
 10
60.45607697038032
 20
128.4243852312121
 10
60.37321602028393
 20
128.4128327919373
 10
60.29364970239052
 20
128.3868329807678
 10
60.21977631762079
 20
128.3475128596757
 10
60.15383390527669
 20
128.2961913661455
 10
60.09784987526965
 20
128.2339761245744
 10
60.05351509159107
 20
128.1629584940813
 10
60.02217041699973
 20
128.0854117654669
 10
60.00477352012732
 20
128.0035891471789
 10
60.00185605269417
 20
127.9199217955334
 10
60.59429907736424
 20
116.6154354621115
 10
62.33603021264011
 20
113.9529417715253
 10
62.44070212512591
 20
111.9556827020161
 10
60.98681874918635
 20
109.1257139514523
 10
61.09149066167285
 20
107.1284548819431
 10
62.83322179694802
 20
104.4659611913568
 10
62.93789370943381
 20
102.4687021218476
 10
61.48401033349496
 20
99.63873337128393
 10
62.07645335816503
 20
88.33424703786208
 10
62.08809795097289
 20
88.25139091732814
 10
62.11395328042153
 20
88.17181702746824
 10
62.15323365605849
 20
88.09794155972794
 10
62.20474568810355
 20
88.03200913308373
 10
62.26692437983354
 20
87.9760231875808
 10
62.3378800952957
 20
87.93168515907335
 10
62.41545678279588
 20
87.90034205456033
 10
62.49729737641596
 20
87.88294609973535
 10
62.58091679384358
 20
87.88002612017642
 10
76.60167546179801
 20
88.61482294582734
 10
76.68453957136815
 20
88.62646795732354
 10
76.76409548589628
 20
88.65232234472454
 10
76.83798093993214
 20
88.69160324372083
 10
76.90391536383538
 20
88.74311538043823
 10
76.95989791399792
 20
88.80529389422608
 10
77.00424512989707
 20
88.8762500911786
 10
77.0355880346842
 20
88.95382676821184
 10
77.05296869050437
 20
89.0356665600448
 10
77.05589637948344
 20
89.11928638150624
 10
76.84445911626207
 20
93.15374970191459
 10
76.83280639534554
 20
93.23661340745137
 10
76.80696730694913
 20
93.31617012376637
 10
76.76768660767914
 20
93.3900555882694
 10
76.71616528356972
 20
93.45598953068168
 10
76.6539901651222
 20
93.51197225878649
 10
76.58303197091038
 20
93.55631937001385
 10
76.50544530758206
 20
93.58766175144129
 10
76.42362349108049
 20
93.60504334930897
 10
76.3399956805828
 20
93.60797061960025
 10
74.82207878775577
 20
93.52841996611106
 10
74.83463941725442
 20
93.28874887776983
 10
76.35255631008145
 20
93.36829953125925
 10
76.39436969197044
 20
93.36684588240884
 10
76.43528164694057
 20
93.3581351108843
 10
76.47407497860436
 20
93.34246392017053
 10
76.50954304269612
 20
93.32030981378803
 10
76.54065162122957
 20
93.29229952386409
 10
76.56639178733408
 20
93.25934149223403
 10
76.58603213696945
 20
93.22239875998261
 10
76.59897165375833
 20
93.18262144854417
 10
76.60478802792107
 20
93.14118907241631
 10
76.81622529114244
 20
89.10672575200795
 10
76.81477143294808
 20
89.06491636463676
 10
76.80606108011156
 20
89.02399642063075
 10
76.7903896800534
 20
88.98520708348445
 10
76.76823609703058
 20
88.94972903309795
 10
76.74022476038766
 20
88.91864042715503
 10
76.70726756613328
 20
88.89288428297814
 10
76.67032483388151
 20
88.87324393334295
 10
76.6305468944119
 20
88.8603164001085
 10
76.58911483229939
 20
88.85449403416845
 10
62.56835616434495
 20
88.11969720851765
 10
62.52654646295861
 20
88.12115705848878
 10
62.48562714698389
 20
88.1298554277713
 10
62.44683780983787
 20
88.14552682782895
 10
62.41135892207561
 20
88.16769638892441
 10
62.38027136285221
 20
88.19568775297681
 10
62.35451469531564
 20
88.22865493352671
 10
62.33487455502393
 20
88.26559367126019
 10
62.32194660310179
 20
88.30537959976648
 10
62.31612444650602
 20
88.34680766736037
 10
61.7270696516429
 20
99.58664272470207
 10
63.18095302758246
 20
102.416611475266
 10
63.06950465548207
 20
104.5431730969352
 10
61.3277735202062
 20
107.2056667875214
 10
61.22988120749265
 20
109.0735633870985
 10
62.6837645834315
 20
111.9035321376624
 10
62.57230993101652
 20
114.0302135948756
 10
60.83057879574136
 20
116.692707285462
 10
60.24152714103588
 20
127.9324824250316
 10
60.24299096853989
 20
127.9742162305739
 10
60.25168975650966
 20
128.0151275575122
 10
60.26735676034685
 20
128.0540007795393
 10
60.28952998495933
 20
128.0894097632338
 10
60.31752030229294
 20
128.1205172950482
 10
60.35048727349883
 20
128.1462779571028
 10
60.38741973091754
 20
128.1660379329385
 10
60.4272071248304
 20
128.1789379232337
 10
60.46863759987824
 20
128.1847141428711
 10
74.48939626783267
 20
128.919510968522
 10
74.53120755628372
 20
128.918097264853
 10
74.57211741781515
 20
128.9094264385099
 10
74.61091702979427
 20
128.8936354122521
 10
74.64638614060499
 20
128.8714613332787
 10
74.67749471913842
 20
128.8434510433548
 10
74.7032317450853
 20
128.810552929497
 10
74.72287628159657
 20
128.7735303068827
 10
74.73581579838546
 20
128.7337529954442
 10
74.7416279856723
 20
128.6924005096791
 10
74.95306524889367
 20
124.6579371892708
 10
74.95160741316634
 20
124.6162036977442
 10
74.94289664164181
 20
124.5752917427744
 10
74.92722963780461
 20
124.5364185207475
 10
74.90507239126468
 20
124.5010103744282
 10
74.87706210134074
 20
124.4699017958946
 10
74.84410511643001
 20
124.4441416571996
 10
74.8071686644935
 20
124.4243814720202
 10
74.76738925961693
 20
124.4114819004126
 10
74.72595479005061
 20
124.4057054714313
 10
73.20803789722356
 20
124.3261548179421
 10
73.2205985267222
 20
124.0864837296008
 10
74.73851541954923
 20
124.1660343830903
 10
74.82138435868117
 20
124.1775872410529
 10
74.90093270124314
 20
124.2035861101749
 10
74.97481607230804
 20
124.2429067546267
 10
75.04076048191176
 20
124.2942283528288
 10
75.09674111657826
 20
124.3564434164577
 10
75.1410850876483
 20
124.4274615284414
 10
75.1724295625139
 20
124.5050082465887
 10
75.18981116038158
 20
124.5868300630899
 10
75.19273633723466
 20
124.6704978187691
 10
74.9812990740133
 20
128.7049611391776
 10
74.96964425965879
 20
128.7878647898955
 10
74.94380517126241
 20
128.8674215062105
 10
74.90452656543037
 20
128.9412670255322
 10
74.8530021011633
 20
129.0072608857168
 10
74.79082488927783
 20
129.0632835590028
 10
74.7198771622572
 20
129.1074309443232
 10
74.64228840549092
 20
129.138813270932
 10
74.56045821523611
 20
129.1563546495252
 10
74.47683563833402
 20
129.159182056863
 97
        0
 75
     0
 76
     2
 52
0.0
 41
1.0
 77
     0
 78
     2
 53
44.99999999999999
 43
146.4275516021832
 44
-813.3809652398878
 45
-1.590990257669732
 46
1.590990257669732
 79
     0
 53
44.99999999999999
 43
145.8972215162933
 44
-812.8506351539979
 45
-1.590990257669732
 46
1.590990257669732
 79
     0
 98
        0
  0
LINE
  5
FB
330
E3
100
AcDbEntity
  8
Des_ Furniture
  6
Continuous
100
AcDbLine
 10
141.9601608768176
 20
116.6183539434992
 30
0.0
 11
140.2184277296671
 21
113.9558604810806
 31
0.0
  0
LINE
  5
FC
330
E3
100
AcDbEntity
  8
Des_ Furniture
  6
Continuous
100
AcDbLine
 10
141.5676418366829
 20
109.1286340428958
 30
0.0
 11
141.4629675341029
 21
107.1313748341695
 31
0.0
  0
LINE
  5
FD
330
E3
100
AcDbEntity
  8
Des_ Furniture
  6
Continuous
100
AcDbLine
 10
141.32458014902
 20
109.0764823860516
 30
0.0
 11
141.2266859882538
 21
107.2085874302837
 31
0.0
  0
LINE
  5
FE
330
E3
100
AcDbEntity
  8
Des_ Furniture
  6
Continuous
100
AcDbLine
 10
140.1137576913272
 20
111.9586012723543
 30
0.0
 11
141.5676418366829
 21
109.1286340428958
 31
0.0
  0
LINE
  5
FF
330
E3
100
AcDbEntity
  8
Des_ Furniture
  6
Continuous
100
AcDbLine
 10
140.2184277296671
 20
113.9558604810806
 30
0.0
 11
140.1137576913272
 21
111.9586012723543
 31
0.0
  0
LINE
  5
100
330
E3
100
AcDbEntity
  8
Des_ Furniture
  6
Continuous
100
AcDbLine
 10
141.7238793309685
 20
116.6956262389754
 30
0.0
 11
139.9821504480581
 21
114.0331370407968
 31
0.0
  0
LINE
  5
101
330
E3
100
AcDbEntity
  8
Des_ Furniture
  6
Continuous
100
AcDbLine
 10
139.8706960036644
 20
111.9064496155101
 30
0.0
 11
141.32458014902
 21
109.0764823860516
 31
0.0
  0
LINE
  5
102
330
E3
100
AcDbEntity
  8
Des_ Furniture
  6
Continuous
100
AcDbLine
 10
139.9821504480581
 20
114.0331370407968
 30
0.0
 11
139.8706960036644
 21
111.9064496155101
 31
0.0
  0
LINE
  5
103
330
E3
100
AcDbEntity
  8
Des_ Furniture
  6
Continuous
100
AcDbLine
 10
141.4629675341029
 20
107.1313748341695
 30
0.0
 11
139.7212386511925
 21
104.4688813717508
 31
0.0
  0
LINE
  5
104
330
E3
100
AcDbEntity
  8
Des_ Furniture
  6
Continuous
100
AcDbLine
 10
139.6165643486125
 20
102.4716221630245
 30
0.0
 11
141.0704484939682
 21
99.64165493356599
 31
0.0
  0
LINE
  5
105
330
E3
100
AcDbEntity
  8
Des_ Furniture
  6
Continuous
100
AcDbLine
 10
139.7212386511925
 20
104.4688813717508
 30
0.0
 11
139.6165643486125
 21
102.4716221630245
 31
0.0
  0
LINE
  5
106
330
E3
100
AcDbEntity
  8
Des_ Furniture
  6
Continuous
100
AcDbLine
 10
141.2266859882538
 20
107.2085874302837
 30
0.0
 11
139.4849571053434
 21
104.546093967865
 31
0.0
  0
LINE
  5
107
330
E3
100
AcDbEntity
  8
Des_ Furniture
  6
Continuous
100
AcDbLine
 10
139.3735069251898
 20
102.4195302055422
 30
0.0
 11
140.8273868063053
 21
99.58956297608373
 31
0.0
  0
LINE
  5
108
330
E3
100
AcDbEntity
  8
Des_ Furniture
  6
Continuous
100
AcDbLine
 10
139.4849571053434
 20
104.546093967865
 30
0.0
 11
139.3735069251898
 21
102.4195302055422
 31
0.0
  0
LINE
  5
109
330
E3
100
AcDbEntity
  8
Des_ Furniture
  6
Continuous
100
AcDbLine
 10
129.3464191604324
 20
124.3290766175501
 30
0.0
 11
129.3338609732365
 21
124.0894050007942
 31
0.0
  0
LINE
  5
10A
330
E3
100
AcDbEntity
  8
Des_ Furniture
  6
Continuous
100
AcDbLine
 10
127.7323786841076
 20
93.5313399601301
 30
0.0
 11
127.7198204969117
 21
93.29166834337411
 31
0.0
  0
LINE
  5
10B
330
E3
100
AcDbEntity
  8
Des_ Furniture
  6
Continuous
 62
   251
370
    18
100
AcDbLine
 10
283.6052591170097
 20
131.6146801356386
 30
0.0
 11
109.891915192543
 21
140.7186153464124
 31
0.0
  0
LINE
  5
10C
330
E3
100
AcDbEntity
  8
Des_ Furniture
  6
Continuous
 62
   251
370
    18
100
AcDbLine
 10
283.6052591170097
 20
123.6146799393478
 30
0.0
 11
109.4738021831214
 21
132.7405248159324
 31
0.0
  0
LINE
  5
10E
330
E3
100
AcDbEntity
  8
Des_ Furniture
  6
Hidden Line
100
AcDbLine
 10
283.3331494255511
 20
122.8206144627138
 30
0.0
 11
123.1454762914193
 21
131.2157007717003
 31
0.0
  0
LINE
  5
110
330
E3
100
AcDbEntity
  8
Des_ Furniture
  6
Double Dashed
 62
   251
370
    18
100
AcDbLine
 10
287.3786297768503
 20
121.6714273319242
 30
0.0
 11
123.1454762914193
 21
130.2785273961546
 31
0.0
  0
LWPOLYLINE
  5
111
330
E3
100
AcDbEntity
  8
Des_ Furniture
  6
Continuous
100
AcDbPolyline
 90
       32
 70
   128
 43
0.0
 10
129.333860118229
 20
124.0894037091598
 10
127.8159432254019
 20
124.1689543626491
 10
127.7330742862697
 20
124.1805072206118
 10
127.6535259437077
 20
124.2065060897337
 10
127.5796425726428
 20
124.2458267341858
 10
127.5136981630394
 20
124.2971483323879
 10
127.4577175283729
 20
124.3593633960165
 10
127.4133735573029
 20
124.4303815080003
 10
127.3820290824369
 20
124.5079282261476
 10
127.3646474845696
 20
124.5897500426489
 10
127.3617223077165
 20
124.673417798328
 10
127.5731595709379
 20
128.7078811187365
 10
127.5848143852924
 20
128.7907847694543
 10
127.6106534736888
 20
128.8703414857695
 10
127.6499320795208
 20
128.9441870050909
 10
127.7014565437875
 20
129.0101808652755
 10
127.763633755673
 20
129.0662035385617
 10
127.8345814826936
 20
129.1103509238821
 10
127.9121702394603
 20
129.1417332504908
 10
127.9940004297147
 20
129.1592746290841
 10
128.0776230066168
 20
129.162102036422
 10
142.0983816745708
 20
128.427305210771
 10
142.1812426246668
 20
128.4157527714962
 10
142.2608089425605
 20
128.3897529603267
 10
142.3346823273299
 20
128.3504328392345
 10
142.4006247396744
 20
128.2991113457041
 10
142.4566087696815
 20
128.2368961041334
 10
142.5009435533597
 20
128.1658784736402
 10
142.5322882279514
 20
128.0883317450259
 10
142.5496851248234
 20
128.0065091267376
 10
142.5526025922566
 20
127.9228417750924
 10
141.9601595675861
 20
116.6183554416706
  0
LWPOLYLINE
  5
112
330
E3
100
AcDbEntity
  8
Des_ Furniture
  6
Continuous
100
AcDbPolyline
 90
       32
 70
   128
 43
0.0
 10
129.3464207477273
 20
124.3290747975008
 10
127.8285038549002
 20
124.4086254509901
 10
127.7870693853342
 20
124.4144018799714
 10
127.7472899804577
 20
124.4273014515793
 10
127.7103535285208
 20
124.4470616367584
 10
127.6773965436097
 20
124.4728217754536
 10
127.6493862536858
 20
124.5039303539871
 10
127.6272290071458
 20
124.5393385003064
 10
127.6115620033086
 20
124.5782117223333
 10
127.6028512317841
 20
124.6191236773031
 10
127.6013933960575
 20
124.6608571688297
 10
127.8128306592789
 20
128.6953204892383
 10
127.8186428465654
 20
128.7366729750031
 10
127.8315823633542
 20
128.7764502864415
 10
127.8512268998659
 20
128.813472909056
 10
127.8769639258127
 20
128.8463710229136
 10
127.9080725043462
 20
128.8743813128379
 10
127.9435416151569
 20
128.8965553918109
 10
127.9823412271357
 20
128.9123464180688
 10
128.0232510886675
 20
128.921017244412
 10
128.0650623771185
 20
128.922430948081
 10
142.0858210450725
 20
128.18763412243
 10
142.1272515201203
 20
128.1818579027926
 10
142.1670389140335
 20
128.1689579124974
 10
142.2039713714519
 20
128.1491979366619
 10
142.2369383426581
 20
128.1234372746072
 10
142.2649286599914
 20
128.0923297427927
 10
142.2871018846039
 20
128.056920759098
 10
142.3027688884411
 20
128.0180475370711
 10
142.3114676764112
 20
127.9771362101327
 10
142.3129315039152
 20
127.9354024045907
 10
141.7238798492097
 20
116.6956272650209
  0
LWPOLYLINE
  5
113
330
E3
100
AcDbEntity
  8
Des_ Furniture
  6
Continuous
100
AcDbPolyline
 90
       32
 70
   128
 43
0.0
 10
141.0704483114561
 20
99.64165335084286
 10
140.478005286786
 20
88.33716701742078
 10
140.4663606939775
 20
88.25431089688695
 10
140.4405053645295
 20
88.17473700702737
 10
140.4012249888926
 20
88.10086153928664
 10
140.3497129568472
 20
88.03492911264266
 10
140.2875342651172
 20
87.97894316713962
 10
140.2165785496554
 20
87.93460513863226
 10
140.1390018621549
 20
87.90326203411902
 10
140.0571612685351
 20
87.88586607929416
 10
139.9735418511071
 20
87.88294609973535
 10
125.9527831831531
 20
88.6177429253865
 10
125.869919073583
 20
88.62938793688235
 10
125.7903631590549
 20
88.65524232428345
 10
125.716477705019
 20
88.69452322327953
 10
125.6505432811158
 20
88.74603535999714
 10
125.5945607309533
 20
88.80821387378491
 10
125.5502135150541
 20
88.87917007073742
 10
125.518870610267
 20
88.95674674777099
 10
125.5014899544464
 20
89.03858653960361
 10
125.4985622654677
 20
89.12220636106505
 10
125.7099995286891
 20
93.15666968147363
 10
125.7216522496053
 20
93.2395333870103
 10
125.7474913380017
 20
93.31909010332518
 10
125.786772037272
 20
93.39297556782833
 10
125.8382933613811
 20
93.45890951024083
 10
125.9004684798286
 20
93.51489223834531
 10
125.9714266740404
 20
93.55923934957266
 10
126.0490133373688
 20
93.59058173100033
 10
126.1308351538703
 20
93.60796332886801
 10
126.214462964368
 20
93.61089059915906
 10
127.7323798571947
 20
93.53133994566976
  0
LWPOLYLINE
  5
114
330
E3
100
AcDbEntity
  8
Des_ Furniture
  6
Continuous
100
AcDbPolyline
 90
       32
 70
   128
 43
0.0
 10
140.8273889933078
 20
99.58956270426089
 10
140.238334198445
 20
88.34972764691906
 10
140.2325120418489
 20
88.30829957932539
 10
140.2195840899268
 20
88.26851365081923
 10
140.1999439496354
 20
88.23157491308586
 10
140.1741872820989
 20
88.19860773253563
 10
140.1430997228751
 20
88.17061636848345
 10
140.1076208351132
 20
88.14844680738764
 10
140.0688314979672
 20
88.13277540733023
 10
140.0279121819925
 20
88.12407703804782
 10
139.9861024806058
 20
88.12261718807635
 10
125.9653438126514
 20
88.85741401372749
 10
125.9239117505392
 20
88.8632363796672
 10
125.8841338110693
 20
88.87616391290165
 10
125.8471910788179
 20
88.89580426253707
 10
125.8142338845631
 20
88.92156040671372
 10
125.7862225479202
 20
88.95264901265688
 10
125.7640689648971
 20
88.98812706304349
 10
125.7483975648396
 20
89.02691640018945
 10
125.7396872120027
 20
89.06783634419546
 10
125.7382333538087
 20
89.10964573156677
 10
125.9496706170301
 20
93.14410905197535
 10
125.9554869911928
 20
93.18554142810298
 10
125.9684265079817
 20
93.22531873954154
 10
125.9880668576171
 20
93.26226147179307
 10
126.0138070237213
 20
93.29521950342313
 10
126.0449156022547
 20
93.32322979334707
 10
126.0803836663461
 20
93.34538389972968
 10
126.1191769980106
 20
93.36105509044313
 10
126.1600889529804
 20
93.36976586196766
 10
126.2019023348697
 20
93.37121951081807
 10
127.7198192276964
 20
93.29166885732876
  0
LINE
  5
115
330
E3
100
AcDbEntity
  8
Des_ Furniture
  6
Continuous
100
AcDbLine
 10
141.8765391277813
 20
116.6154372032473
 30
0.0
 11
140.1348102448709
 21
113.9529437408286
 31
0.0
  0
LINE
  5
116
330
E3
100
AcDbEntity
  8
Des_ Furniture
  6
Continuous
100
AcDbLine
 10
141.4840200876465
 20
109.1257173026438
 30
0.0
 11
141.3793500493067
 21
107.1284580939175
 31
0.0
  0
LINE
  5
117
330
E3
100
AcDbEntity
  8
Des_ Furniture
  6
Continuous
100
AcDbLine
 10
141.2409583999837
 20
109.0735613815595
 30
0.0
 11
141.1430685034576
 21
107.2056664257916
 31
0.0
  0
LINE
  5
118
330
E3
100
AcDbEntity
  8
Des_ Furniture
  6
Continuous
100
AcDbLine
 10
140.0301359422909
 20
111.9556845321023
 30
0.0
 11
141.4840200876465
 21
109.1257173026438
 31
0.0
  0
LINE
  5
119
330
E3
100
AcDbEntity
  8
Des_ Furniture
  6
Continuous
100
AcDbLine
 10
140.1348102448709
 20
113.9529437408286
 30
0.0
 11
140.0301359422909
 21
111.9556845321023
 31
0.0
  0
LINE
  5
11A
330
E3
100
AcDbEntity
  8
Des_ Furniture
  6
Continuous
100
AcDbLine
 10
141.6402575819322
 20
116.6927094987234
 30
0.0
 11
139.8985329632619
 21
114.0302117720646
 31
0.0
  0
LINE
  5
11B
330
E3
100
AcDbEntity
  8
Des_ Furniture
  6
Continuous
100
AcDbLine
 10
139.7870785188682
 20
111.9035328752582
 30
0.0
 11
141.2409583999837
 21
109.0735613815595
 31
0.0
  0
LINE
  5
11C
330
E3
100
AcDbEntity
  8
Des_ Furniture
  6
Continuous
100
AcDbLine
 10
139.8985329632619
 20
114.0302117720646
 30
0.0
 11
139.7870785188682
 21
111.9035328752582
 31
0.0
  0
LINE
  5
11D
330
E3
100
AcDbEntity
  8
Des_ Furniture
  6
Continuous
100
AcDbLine
 10
141.3793500493067
 20
107.1284580939175
 30
0.0
 11
139.6376169021562
 21
104.4659603672587
 31
0.0
  0
LINE
  5
11E
330
E3
100
AcDbEntity
  8
Des_ Furniture
  6
Continuous
100
AcDbLine
 10
139.5329468638163
 20
102.4687011585324
 30
0.0
 11
140.9868267449319
 21
99.6387339290739
 31
0.0
  0
LINE
  5
11F
330
E3
100
AcDbEntity
  8
Des_ Furniture
  6
Continuous
100
AcDbLine
 10
139.6376169021562
 20
104.4659603672587
 30
0.0
 11
139.5329468638163
 21
102.4687011585324
 31
0.0
  0
LINE
  5
120
330
E3
100
AcDbEntity
  8
Des_ Furniture
  6
Continuous
100
AcDbLine
 10
141.1430685034576
 20
107.2056664257916
 30
0.0
 11
139.4013353563071
 21
104.5431729633729
 31
0.0
  0
LINE
  5
121
330
E3
100
AcDbEntity
  8
Des_ Furniture
  6
Continuous
100
AcDbLine
 10
139.2898851761535
 20
102.4166134652903
 30
0.0
 11
140.7437693215092
 21
99.58664197159163
 31
0.0
  0
LINE
  5
122
330
E3
100
AcDbEntity
  8
Des_ Furniture
  6
Continuous
100
AcDbLine
 10
139.4013353563071
 20
104.5431729633729
 30
0.0
 11
139.2898851761535
 21
102.4166134652903
 31
0.0
  0
LINE
  5
123
330
E3
100
AcDbEntity
  8
Des_ Furniture
  6
Continuous
100
AcDbLine
 10
129.2628016756362
 20
124.3261556130581
 30
0.0
 11
129.2502392242002
 21
124.0864839963021
 31
0.0
  0
LINE
  5
124
330
E3
100
AcDbEntity
  8
Des_ Furniture
  6
Continuous
100
AcDbLine
 10
127.6487611993114
 20
93.528418955638
 30
0.0
 11
127.6361987478754
 21
93.28875160312217
 31
0.0
  0
LINE
  5
125
330
E3
100
AcDbEntity
  8
Des_ Furniture
  6
Continuous
 62
   251
370
    18
100
AcDbLine
 10
228.6366281830897
 20
30.56756579943244
 30
0.0
 11
101.2354139063551
 21
37.24437228200775
 31
0.0
  0
LINE
  5
126
330
E3
100
AcDbEntity
  8
Des_ Furniture
  6
Continuous
 62
   251
370
    18
100
AcDbLine
 10
228.6366281830897
 20
81.03673258462078
 30
0.0
 11
101.2354181705953
 21
87.7135390671961
 31
0.0
  0
LINE
  5
127
330
E3
100
AcDbEntity
  8
Des_ Furniture
  6
Continuous
 62
   251
370
    18
100
AcDbLine
 10
228.6366281830897
 20
79.31438040888132
 30
0.0
 11
101.2354266990755
 21
85.99118689145662
 31
0.0
  0
LINE
  5
128
330
E3
100
AcDbEntity
  8
Des_ Furniture
  6
Continuous
 62
   251
370
    18
100
AcDbLine
 10
228.6366281830897
 20
32.28992650365218
 30
0.0
 11
101.2354181705953
 21
38.96673298622748
 31
0.0
  0
LWPOLYLINE
  5
129
330
E3
100
AcDbEntity
  8
Des_ Furniture
  6
Continuous
100
AcDbPolyline
 90
       32
 70
   128
 43
0.0
 10
129.2502407008009
 20
124.0864837296008
 10
127.7323238079739
 20
124.1660343830903
 10
127.6494548688419
 20
124.1775872410529
 10
127.56990652628
 20
124.2035861101749
 10
127.4960231552151
 20
124.2429067546267
 10
127.4300787456114
 20
124.2942283528288
 10
127.3740981109449
 20
124.3564434164577
 10
127.3297541398748
 20
124.4274615284414
 10
127.2984096650092
 20
124.5050082465887
 10
127.2810280671415
 20
124.5868300630899
 10
127.2781028902884
 20
124.6704978187691
 10
127.4895401535098
 20
128.7049611391776
 10
127.5011949678643
 20
128.7878647898955
 10
127.5270340562607
 20
128.8674215062105
 10
127.5663126620927
 20
128.9412670255322
 10
127.6178371263598
 20
129.0072608857168
 10
127.6800143382453
 20
129.0632835590028
 10
127.7509620652659
 20
129.1074309443232
 10
127.8285508220322
 20
129.138813270932
 10
127.910381012287
 20
129.1563546495252
 10
127.9940035891891
 20
129.159182056863
 10
142.0147622571428
 20
128.4243852312121
 10
142.0976232072391
 20
128.4128327919373
 10
142.1771895251325
 20
128.3868329807678
 10
142.2510629099023
 20
128.3475128596757
 10
142.3170053222464
 20
128.2961913661455
 10
142.3729893522535
 20
128.2339761245744
 10
142.417324135932
 20
128.1629584940813
 10
142.4486688105234
 20
128.0854117654669
 10
142.4660657073958
 20
128.0035891471789
 10
142.4689831748289
 20
127.9199217955334
 10
141.8765401501589
 20
116.6154354621115
  0
LWPOLYLINE
  5
12A
330
E3
100
AcDbEntity
  8
Des_ Furniture
  6
Continuous
100
AcDbPolyline
 90
       32
 70
   128
 43
0.0
 10
129.2628013302995
 20
124.3261548179421
 10
127.7448844374725
 20
124.4057054714313
 10
127.7034499679062
 20
124.4114819004126
 10
127.6636705630296
 20
124.4243814720202
 10
127.6267341110931
 20
124.4441416571996
 10
127.5937771261824
 20
124.4699017958946
 10
127.5657668362584
 20
124.5010103744282
 10
127.5436095897185
 20
124.5364185207475
 10
127.5279425858813
 20
124.5752917427744
 10
127.5192318143568
 20
124.6162036977442
 10
127.5177739786294
 20
124.6579371892708
 10
127.7292112418508
 20
128.6924005096791
 10
127.7350234291376
 20
128.7337529954442
 10
127.7479629459265
 20
128.7735303068827
 10
127.7676074824378
 20
128.810552929497
 10
127.7933445083847
 20
128.8434510433548
 10
127.8244530869181
 20
128.8714613332787
 10
127.8599221977288
 20
128.8936354122521
 10
127.8987218097079
 20
128.9094264385099
 10
127.9396316712394
 20
128.918097264853
 10
127.9814429596904
 20
128.919510968522
 10
142.0022016276448
 20
128.1847141428711
 10
142.0436321026927
 20
128.1789379232337
 10
142.0834194966056
 20
128.1660379329385
 10
142.1203519540242
 20
128.1462779571028
 10
142.1533189252302
 20
128.1205172950482
 10
142.1813092425637
 20
128.0894097632338
 10
142.2034824671763
 20
128.0540007795393
 10
142.2191494710135
 20
128.0151275575122
 10
142.2278482589832
 20
127.9742162305739
 10
142.2293120864872
 20
127.9324824250316
 10
141.6402604317817
 20
116.692707285462
  0
LWPOLYLINE
  5
12B
330
E3
100
AcDbEntity
  8
Des_ Furniture
  6
Continuous
100
AcDbPolyline
 90
       32
 70
   128
 43
0.0
 10
140.9868288940282
 20
99.63873337128393
 10
140.3943858693581
 20
88.33424703786208
 10
140.3827412765502
 20
88.25139091732814
 10
140.3568859471016
 20
88.17181702746824
 10
140.3176055714646
 20
88.09794155972794
 10
140.2660935394196
 20
88.03200913308373
 10
140.2039148476895
 20
87.9760231875808
 10
140.1329591322274
 20
87.93168515907335
 10
140.0553824447272
 20
87.90034205456033
 10
139.9735418511071
 20
87.88294609973535
 10
139.8899224336795
 20
87.88002612017642
 10
125.8691637657251
 20
88.61482294582734
 10
125.786299656155
 20
88.62646795732354
 10
125.7067437416268
 20
88.65232234472454
 10
125.632858287591
 20
88.69160324372083
 10
125.5669238636877
 20
88.74311538043823
 10
125.5109413135252
 20
88.80529389422608
 10
125.466594097626
 20
88.8762500911786
 10
125.4352511928389
 20
88.95382676821184
 10
125.4178705370187
 20
89.0356665600448
 10
125.4149428480396
 20
89.11928638150624
 10
125.626380111261
 20
93.15374970191459
 10
125.6380328321776
 20
93.23661340745137
 10
125.663871920574
 20
93.31617012376637
 10
125.7031526198439
 20
93.3900555882694
 10
125.7546739439534
 20
93.45598953068168
 10
125.8168490624009
 20
93.51197225878649
 10
125.8878072566127
 20
93.55631937001385
 10
125.9653939199411
 20
93.58766175144129
 10
126.0472157364426
 20
93.60504334930897
 10
126.1308435469403
 20
93.60797061960025
 10
127.6487604397673
 20
93.52841996611106
  0
LWPOLYLINE
  5
12C
330
E3
100
AcDbEntity
  8
Des_ Furniture
  6
Continuous
100
AcDbPolyline
 90
       32
 70
   128
 43
0.0
 10
140.7437695758802
 20
99.58664272470207
 10
140.1547147810171
 20
88.34680766736037
 10
140.1488926244213
 20
88.30537959976648
 10
140.1359646724992
 20
88.26559367126019
 10
140.1163245322075
 20
88.22865493352671
 10
140.0905678646709
 20
88.19568775297681
 10
140.0594803054475
 20
88.16769638892441
 10
140.0240014176852
 20
88.14552682782895
 10
139.9852120805392
 20
88.1298554277713
 10
139.9442927645645
 20
88.12115705848878
 10
139.9024830631782
 20
88.11969720851765
 10
125.8817243952237
 20
88.85449403416845
 10
125.8402923331112
 20
88.8603164001085
 10
125.8005143936416
 20
88.87324393334295
 10
125.7635716613898
 20
88.89288428297814
 10
125.7306144671354
 20
88.91864042715503
 10
125.7026031304925
 20
88.94972903309795
 10
125.6804495474697
 20
88.98520708348445
 10
125.6647781474115
 20
89.02399642063075
 10
125.656067794575
 20
89.06491636463676
 10
125.6546139363806
 20
89.10672575200795
 10
125.866051199602
 20
93.14118907241631
 10
125.8718675737648
 20
93.18262144854417
 10
125.8848070905537
 20
93.22239875998261
 10
125.904447440189
 20
93.25934149223403
 10
125.9301876062935
 20
93.29229952386409
 10
125.961296184827
 20
93.32030981378803
 10
125.9967642489187
 20
93.34246392017053
 10
126.0355575805825
 20
93.3581351108843
 10
126.0764695355527
 20
93.36684588240884
 10
126.1182829174416
 20
93.36829953125925
 10
127.6361998102687
 20
93.28874887776983
  0
LINE
  5
12D
330
E3
100
AcDbEntity
  8
Des_ Furniture
  6
Continuous
100
AcDbLine
 10
60.51067972861313
 20
116.6183539434992
 30
0.0
 11
62.25241287576361
 21
113.9558604810806
 31
0.0
  0
LINE
  5
12E
330
E3
100
AcDbEntity
  8
Des_ Furniture
  6
Continuous
100
AcDbLine
 10
60.90319876874782
 20
109.1286340428958
 30
0.0
 11
61.00787307132782
 21
107.1313748341695
 31
0.0
  0
LINE
  5
12F
330
E3
100
AcDbEntity
  8
Des_ Furniture
  6
Continuous
100
AcDbLine
 10
61.14626045641066
 20
109.0764823860516
 30
0.0
 11
61.24415461717692
 21
107.2085874302837
 31
0.0
  0
LINE
  5
130
330
E3
100
AcDbEntity
  8
Des_ Furniture
  6
Continuous
100
AcDbLine
 10
62.35708291410347
 20
111.9586012723543
 30
0.0
 11
60.90319876874782
 21
109.1286340428958
 31
0.0
  0
LINE
  5
131
330
E3
100
AcDbEntity
  8
Des_ Furniture
  6
Continuous
100
AcDbLine
 10
62.25241287576361
 20
113.9558604810806
 30
0.0
 11
62.35708291410347
 21
111.9586012723543
 31
0.0
  0
LINE
  5
132
330
E3
100
AcDbEntity
  8
Des_ Furniture
  6
Continuous
100
AcDbLine
 10
60.74696127446222
 20
116.6956262389754
 30
0.0
 11
62.48869015737257
 21
114.0331370407968
 31
0.0
  0
LINE
  5
133
330
E3
100
AcDbEntity
  8
Des_ Furniture
  6
Continuous
100
AcDbLine
 10
62.60014460176633
 20
111.9064496155101
 30
0.0
 11
61.14626045641066
 21
109.0764823860516
 31
0.0
  0
LINE
  5
134
330
E3
100
AcDbEntity
  8
Des_ Furniture
  6
Continuous
100
AcDbLine
 10
62.48869015737257
 20
114.0331370407968
 30
0.0
 11
62.60014460176633
 21
111.9064496155101
 31
0.0
  0
LINE
  5
135
330
E3
100
AcDbEntity
  8
Des_ Furniture
  6
Continuous
100
AcDbLine
 10
61.00787307132782
 20
107.1313748341695
 30
0.0
 11
62.74960195423817
 21
104.4688813717508
 31
0.0
  0
LINE
  5
136
330
E3
100
AcDbEntity
  8
Des_ Furniture
  6
Continuous
100
AcDbLine
 10
62.85427625681817
 20
102.4716221630245
 30
0.0
 11
61.40039211146251
 21
99.64165493356599
 31
0.0
  0
LINE
  5
137
330
E3
100
AcDbEntity
  8
Des_ Furniture
  6
Continuous
100
AcDbLine
 10
62.74960195423817
 20
104.4688813717508
 30
0.0
 11
62.85427625681817
 21
102.4716221630245
 31
0.0
  0
LINE
  5
138
330
E3
100
AcDbEntity
  8
Des_ Furniture
  6
Continuous
100
AcDbLine
 10
61.24415461717692
 20
107.2085874302837
 30
0.0
 11
62.98588350008725
 21
104.546093967865
 31
0.0
  0
LINE
  5
139
330
E3
100
AcDbEntity
  8
Des_ Furniture
  6
Continuous
100
AcDbLine
 10
63.09733368024087
 20
102.4195302055422
 30
0.0
 11
61.64344953488521
 21
99.58956297608373
 31
0.0
  0
LINE
  5
13A
330
E3
100
AcDbEntity
  8
Des_ Furniture
  6
Continuous
100
AcDbLine
 10
62.98588350008725
 20
104.546093967865
 30
0.0
 11
63.09733368024087
 21
102.4195302055422
 31
0.0
  0
LINE
  5
13B
330
E3
100
AcDbEntity
  8
Des_ Furniture
  6
Continuous
100
AcDbLine
 10
73.12441718075817
 20
124.3290766175501
 30
0.0
 11
73.1369796321942
 21
124.0894050007942
 31
0.0
  0
LINE
  5
13C
330
E3
100
AcDbEntity
  8
Des_ Furniture
  6
Continuous
100
AcDbLine
 10
74.73845765708296
 20
93.5313399601301
 30
0.0
 11
74.751020108519
 21
93.29166834337411
 31
0.0
  0
LINE
  5
13D
330
E3
100
AcDbEntity
  8
Des_ Furniture
  6
Continuous
 62
   251
370
    18
100
AcDbLine
 10
5.119178445404507
 20
136.1350396129545
 30
0.0
 11
92.57892201526849
 21
140.7186158192275
 31
0.0
  0
LINE
  5
13E
330
E3
100
AcDbEntity
  8
Des_ Furniture
  6
Continuous
 62
   251
370
    18
100
AcDbLine
 10
5.119178445404507
 20
128.1350400762174
 30
0.0
 11
92.99703951047606
 21
132.7405257879664
 31
0.0
  0
LINE
  5
13F
330
E3
100
AcDbEntity
  8
Des_ Furniture
  6
Hidden Line
100
AcDbLine
 10
5.119177514785661
 20
127.3267165865636
 30
0.0
 11
79.32536157946166
 21
131.2157015146097
 31
0.0
  0
LINE
  5
140
330
E3
100
AcDbEntity
  8
Des_ Furniture
  6
Double Dashed
 62
   251
370
    18
100
AcDbLine
 10
5.119177572861052
 20
126.3895412374717
 30
0.0
 11
79.32536487195688
 21
130.2785231623734
 31
0.0
  0
LINE
  5
141
330
E3
100
AcDbEntity
  8
Des_ Furniture
  6
Continuous
100
AcDbLine
 10
60.59429721340928
 20
116.6154372032473
 30
0.0
 11
62.33603036055976
 21
113.9529437408286
 31
0.0
  0
LINE
  5
142
330
E3
100
AcDbEntity
  8
Des_ Furniture
  6
Continuous
100
AcDbLine
 10
60.9868205177841
 20
109.1257173026438
 30
0.0
 11
61.09149055612397
 21
107.1284580939175
 31
0.0
  0
LINE
  5
143
330
E3
100
AcDbEntity
  8
Des_ Furniture
  6
Continuous
100
AcDbLine
 10
61.22988220544696
 20
109.0735613815595
 30
0.0
 11
61.32777210197307
 21
107.2056664257916
 31
0.0
  0
LINE
  5
144
330
E3
100
AcDbEntity
  8
Des_ Furniture
  6
Continuous
100
AcDbLine
 10
62.44070039889963
 20
111.9556845321023
 30
0.0
 11
60.9868205177841
 21
109.1257173026438
 31
0.0
  0
LINE
  5
145
330
E3
100
AcDbEntity
  8
Des_ Furniture
  6
Continuous
100
AcDbLine
 10
62.33603036055976
 20
113.9529437408286
 30
0.0
 11
62.44070039889963
 21
111.9556845321023
 31
0.0
  0
LINE
  5
146
330
E3
100
AcDbEntity
  8
Des_ Furniture
  6
Continuous
100
AcDbLine
 10
60.83057875925837
 20
116.6927094987234
 30
0.0
 11
62.57230764216873
 21
114.0302117720646
 31
0.0
  0
LINE
  5
147
330
E3
100
AcDbEntity
  8
Des_ Furniture
  6
Continuous
100
AcDbLine
 10
62.68376208656247
 20
111.9035328752582
 30
0.0
 11
61.22988220544696
 21
109.0735613815595
 31
0.0
  0
LINE
  5
148
330
E3
100
AcDbEntity
  8
Des_ Furniture
  6
Continuous
100
AcDbLine
 10
62.57230764216873
 20
114.0302117720646
 30
0.0
 11
62.68376208656247
 21
111.9035328752582
 31
0.0
  0
LINE
  5
149
330
E3
100
AcDbEntity
  8
Des_ Furniture
  6
Continuous
100
AcDbLine
 10
61.09149055612397
 20
107.1284580939175
 30
0.0
 11
62.83322370327446
 21
104.4659603672587
 31
0.0
  0
LINE
  5
14A
330
E3
100
AcDbEntity
  8
Des_ Furniture
  6
Continuous
100
AcDbLine
 10
62.93789374161432
 20
102.4687011585324
 30
0.0
 11
61.48401386049879
 21
99.6387339290739
 31
0.0
  0
LINE
  5
14B
330
E3
100
AcDbEntity
  8
Des_ Furniture
  6
Continuous
100
AcDbLine
 10
62.83322370327446
 20
104.4659603672587
 30
0.0
 11
62.93789374161432
 21
102.4687011585324
 31
0.0
  0
LINE
  5
14C
330
E3
100
AcDbEntity
  8
Des_ Furniture
  6
Continuous
100
AcDbLine
 10
61.32777210197307
 20
107.2056664257916
 30
0.0
 11
63.06950524912355
 21
104.5431729633729
 31
0.0
  0
LINE
  5
14D
330
E3
100
AcDbEntity
  8
Des_ Furniture
  6
Continuous
100
AcDbLine
 10
63.18095542927716
 20
102.4166134652903
 30
0.0
 11
61.72706701968137
 21
99.58664197159163
 31
0.0
  0
LINE
  5
14E
330
E3
100
AcDbEntity
  8
Des_ Furniture
  6
Continuous
100
AcDbLine
 10
63.06950524912355
 20
104.5431729633729
 30
0.0
 11
63.18095542927716
 21
102.4166134652903
 31
0.0
  0
LINE
  5
14F
330
E3
100
AcDbEntity
  8
Des_ Furniture
  6
Continuous
100
AcDbLine
 10
73.20803466555432
 20
124.3261556130581
 30
0.0
 11
73.22059711699036
 21
124.0864839963021
 31
0.0
  0
LINE
  5
150
330
E3
100
AcDbEntity
  8
Des_ Furniture
  6
Continuous
100
AcDbLine
 10
74.82207940611924
 20
93.528418955638
 30
0.0
 11
74.8346418575553
 21
93.28875160312217
 31
0.0
  0
LINE
  5
151
330
E3
100
AcDbEntity
  8
Des_ Furniture
  6
Continuous
 62
   251
370
    18
100
AcDbLine
 10
5.119176154370103
 20
32.20714120900039
 30
0.0
 11
101.2354229438781
 21
37.24437458707052
 31
0.0
  0
LINE
  5
152
330
E3
100
AcDbEntity
  8
Des_ Furniture
  6
Continuous
 62
   251
370
    18
100
AcDbLine
 10
5.119176408123163
 20
82.67630669321127
 30
0.0
 11
101.2354183819794
 21
87.71354006681474
 31
0.0
  0
LINE
  5
153
330
E3
100
AcDbEntity
  8
Des_ Furniture
  6
Continuous
 62
   251
370
    18
100
AcDbLine
 10
5.119176997416486
 20
80.95395487434253
 30
0.0
 11
101.2354140429219
 21
85.99118350715018
 31
0.0
  0
LINE
  5
154
330
E3
100
AcDbEntity
  8
Des_ Furniture
  6
Continuous
 62
   251
370
    18
100
AcDbLine
 10
5.119176903195542
 20
33.92950234263337
 30
0.0
 11
101.235423441193
 21
38.96673570752239
 31
0.0
  0
LWPOLYLINE
  5
155
330
E3
100
AcDbEntity
  8
Des_ Furniture
  6
Continuous
100
AcDbPolyline
 90
       32
 70
   128
 43
0.0
 10
73.13697910929405
 20
124.0894037091598
 10
74.65489600212108
 20
124.1689543626491
 10
74.73776494125337
 20
124.1805072206118
 10
74.81731328381534
 20
124.2065060897337
 10
74.89119665488025
 20
124.2458267341858
 10
74.9571410644836
 20
124.2971483323879
 10
75.01312169915009
 20
124.3593633960165
 10
75.05746567022014
 20
124.4303815080003
 10
75.08881014508609
 20
124.5079282261476
 10
75.10619174295341
 20
124.5897500426489
 10
75.10911691980651
 20
124.673417798328
 10
74.89767965658514
 20
128.7078811187365
 10
74.88602484223064
 20
128.7907847694543
 10
74.86018575383424
 20
128.8703414857695
 10
74.8209071480022
 20
128.9441870050909
 10
74.7693826837355
 20
129.0101808652755
 10
74.70720547185002
 20
129.0662035385617
 10
74.63625774482941
 20
129.1103509238821
 10
74.55866898806276
 20
129.1417332504908
 10
74.47683879780831
 20
129.1592746290841
 10
74.39321622090623
 20
129.162102036422
 10
60.37245755295233
 20
128.427305210771
 10
60.28959660285631
 20
128.4157527714962
 10
60.21003028496255
 20
128.3897529603267
 10
60.13615690019316
 20
128.3504328392345
 10
60.0702144878487
 20
128.2991113457041
 10
60.01423045784167
 20
128.2368961041334
 10
59.96989567416344
 20
128.1658784736402
 10
59.93855099957175
 20
128.0883317450259
 10
59.92115410269969
 20
128.0065091267376
 10
59.91823663526655
 20
127.9228417750924
 10
60.51067965993698
 20
116.6183554416706
  0
LWPOLYLINE
  5
156
330
E3
100
AcDbEntity
  8
Des_ Furniture
  6
Continuous
100
AcDbPolyline
 90
       32
 70
   128
 43
0.0
 10
73.12441847979576
 20
124.3290747975008
 10
74.6423353726228
 20
124.4086254509901
 10
74.68376984218877
 20
124.4144018799714
 10
74.72354924706535
 20
124.4273014515793
 10
74.7604856990022
 20
124.4470616367584
 10
74.79344268391328
 20
124.4728217754536
 10
74.82145297383722
 20
124.5039303539871
 10
74.84361022037716
 20
124.5393385003064
 10
74.85927722421435
 20
124.5782117223333
 10
74.86798799573889
 20
124.6191236773031
 10
74.86944583146551
 20
124.6608571688297
 10
74.65800856824414
 20
128.6953204892383
 10
74.65219638095766
 20
128.7366729750031
 10
74.63925686416877
 20
128.7764502864415
 10
74.61961232765715
 20
128.813472909056
 10
74.59387530171027
 20
128.8463710229136
 10
74.56276672317684
 20
128.8743813128379
 10
74.5272976123661
 20
128.8965553918109
 10
74.48849800038735
 20
128.9123464180688
 10
74.44758813885555
 20
128.921017244412
 10
74.40577685040451
 20
128.922430948081
 10
60.38501818245061
 20
128.18763412243
 10
60.34358770740278
 20
128.1818579027926
 10
60.30380031348956
 20
128.1689579124974
 10
60.2668678560712
 20
128.1491979366619
 10
60.23390088486495
 20
128.1234372746072
 10
60.2059105675317
 20
128.0923297427927
 10
60.18373734291922
 20
128.056920759098
 10
60.16807033908203
 20
128.0180475370711
 10
60.15937155111191
 20
127.9771362101327
 10
60.15790772360789
 20
127.9354024045907
 10
60.74695937831338
 20
116.6956272650209
  0
LWPOLYLINE
  5
157
330
E3
100
AcDbEntity
  8
Des_ Furniture
  6
Continuous
100
AcDbPolyline
 90
       32
 70
   128
 43
0.0
 10
61.40039091606697
 20
99.64165335084286
 10
61.99283394073704
 20
88.33716701742078
 10
62.00447853354562
 20
88.25431089688695
 10
62.03033386299354
 20
88.17473700702737
 10
62.06961423863051
 20
88.10086153928664
 10
62.12112627067592
 20
88.03492911264266
 10
62.18330496240591
 20
87.97894316713962
 10
62.25426067786773
 20
87.93460513863226
 10
62.33183736536825
 20
87.90326203411902
 10
62.41367795898798
 20
87.88586607929416
 10
62.49729737641596
 20
87.88294609973535
 10
76.51805604436986
 20
88.6177429253865
 10
76.60092015393998
 20
88.62938793688235
 10
76.68047606846811
 20
88.65524232428345
 10
76.75436152250397
 20
88.69452322327953
 10
76.82029594640723
 20
88.74603535999714
 10
76.87627849656975
 20
88.80821387378491
 10
76.92062571246892
 20
88.87917007073742
 10
76.95196861725604
 20
88.95674674777099
 10
76.96934927307657
 20
89.03858653960361
 10
76.97227696205529
 20
89.12220636106505
 10
76.76083969883392
 20
93.15666968147363
 10
76.74918697791773
 20
93.2395333870103
 10
76.72334788952134
 20
93.31909010332518
 10
76.68406719025099
 20
93.39297556782833
 10
76.63254586614192
 20
93.45890951024083
 10
76.5703707476944
 20
93.51489223834531
 10
76.49941255348259
 20
93.55923934957266
 10
76.42182589015425
 20
93.59058173100033
 10
76.3400040736527
 20
93.60796332886801
 10
76.256376263155
 20
93.61089059915906
 10
74.73845937032833
 20
93.53133994566976
  0
LWPOLYLINE
  5
158
330
E3
100
AcDbEntity
  8
Des_ Furniture
  6
Continuous
100
AcDbPolyline
 90
       32
 70
   128
 43
0.0
 10
61.64345023421527
 20
99.58956270426089
 10
62.23250502907804
 20
88.34972764691906
 10
62.23832718567417
 20
88.30829957932539
 10
62.2512551375963
 20
88.26851365081923
 10
62.27089527788765
 20
88.23157491308586
 10
62.29665194542422
 20
88.19860773253563
 10
62.32773950464798
 20
88.17061636848345
 10
62.36321839240988
 20
88.14844680738764
 10
62.40200772955591
 20
88.13277540733023
 10
62.44292704553063
 20
88.12407703804782
 10
62.48473674691732
 20
88.12261718807635
 10
76.50549541487158
 20
88.85741401372749
 10
76.54692747698375
 20
88.8632363796672
 10
76.5867054164537
 20
88.87616391290165
 10
76.62364814870513
 20
88.89580426253707
 10
76.65660534295986
 20
88.92156040671372
 10
76.68461667960278
 20
88.95264901265688
 10
76.70677026262594
 20
88.98812706304349
 10
76.72244166268341
 20
89.02691640018945
 10
76.73115201552028
 20
89.06783634419546
 10
76.73260587371429
 20
89.10964573156677
 10
76.52116861049292
 20
93.14410905197535
 10
76.51535223633017
 20
93.18554142810298
 10
76.50241271954128
 20
93.22531873954154
 10
76.48277236990593
 20
93.26226147179307
 10
76.45703220380176
 20
93.29521950342313
 10
76.42592362526833
 20
93.32322979334707
 10
76.39045556117692
 20
93.34538389972968
 10
76.3516622295124
 20
93.36105509044313
 10
76.31075027454264
 20
93.36976586196766
 10
76.26893689265329
 20
93.37121951081807
 10
74.75101999982661
 20
93.29166885732876
  0
LWPOLYLINE
  5
159
330
E3
100
AcDbEntity
  8
Des_ Furniture
  6
Continuous
100
AcDbPolyline
 90
       32
 70
   128
 43
0.0
 10
73.2205985267222
 20
124.0864837296008
 10
74.73851541954923
 20
124.1660343830903
 10
74.82138435868117
 20
124.1775872410529
 10
74.90093270124314
 20
124.2035861101749
 10
74.97481607230804
 20
124.2429067546267
 10
75.04076048191176
 20
124.2942283528288
 10
75.09674111657826
 20
124.3564434164577
 10
75.1410850876483
 20
124.4274615284414
 10
75.1724295625139
 20
124.5050082465887
 10
75.18981116038158
 20
124.5868300630899
 10
75.19273633723466
 20
124.6704978187691
 10
74.9812990740133
 20
128.7049611391776
 10
74.96964425965879
 20
128.7878647898955
 10
74.94380517126241
 20
128.8674215062105
 10
74.90452656543037
 20
128.9412670255322
 10
74.8530021011633
 20
129.0072608857168
 10
74.79082488927783
 20
129.0632835590028
 10
74.7198771622572
 20
129.1074309443232
 10
74.64228840549092
 20
129.138813270932
 10
74.56045821523611
 20
129.1563546495252
 10
74.47683563833402
 20
129.159182056863
 10
60.45607697038032
 20
128.4243852312121
 10
60.37321602028393
 20
128.4128327919373
 10
60.29364970239052
 20
128.3868329807678
 10
60.21977631762079
 20
128.3475128596757
 10
60.15383390527669
 20
128.2961913661455
 10
60.09784987526965
 20
128.2339761245744
 10
60.05351509159107
 20
128.1629584940813
 10
60.02217041699973
 20
128.0854117654669
 10
60.00477352012732
 20
128.0035891471789
 10
60.00185605269417
 20
127.9199217955334
 10
60.59429907736424
 20
116.6154354621115
  0
LWPOLYLINE
  5
15A
330
E3
100
AcDbEntity
  8
Des_ Furniture
  6
Continuous
100
AcDbPolyline
 90
       32
 70
   128
 43
0.0
 10
73.20803789722356
 20
124.3261548179421
 10
74.72595479005061
 20
124.4057054714313
 10
74.76738925961693
 20
124.4114819004126
 10
74.8071686644935
 20
124.4243814720202
 10
74.84410511643001
 20
124.4441416571996
 10
74.87706210134074
 20
124.4699017958946
 10
74.90507239126468
 20
124.5010103744282
 10
74.92722963780461
 20
124.5364185207475
 10
74.94289664164181
 20
124.5752917427744
 10
74.95160741316634
 20
124.6162036977442
 10
74.95306524889367
 20
124.6579371892708
 10
74.7416279856723
 20
128.6924005096791
 10
74.73581579838546
 20
128.7337529954442
 10
74.72287628159657
 20
128.7735303068827
 10
74.7032317450853
 20
128.810552929497
 10
74.67749471913842
 20
128.8434510433548
 10
74.64638614060499
 20
128.8714613332787
 10
74.61091702979427
 20
128.8936354122521
 10
74.57211741781515
 20
128.9094264385099
 10
74.53120755628372
 20
128.918097264853
 10
74.48939626783267
 20
128.919510968522
 10
60.46863759987824
 20
128.1847141428711
 10
60.4272071248304
 20
128.1789379232337
 10
60.38741973091754
 20
128.1660379329385
 10
60.35048727349883
 20
128.1462779571028
 10
60.31752030229294
 20
128.1205172950482
 10
60.28952998495933
 20
128.0894097632338
 10
60.26735676034685
 20
128.0540007795393
 10
60.25168975650966
 20
128.0151275575122
 10
60.24299096853989
 20
127.9742162305739
 10
60.24152714103588
 20
127.9324824250316
 10
60.83057879574136
 20
116.692707285462
  0
LWPOLYLINE
  5
15B
330
E3
100
AcDbEntity
  8
Des_ Furniture
  6
Continuous
100
AcDbPolyline
 90
       32
 70
   128
 43
0.0
 10
61.48401033349496
 20
99.63873337128393
 10
62.07645335816503
 20
88.33424703786208
 10
62.08809795097289
 20
88.25139091732814
 10
62.11395328042153
 20
88.17181702746824
 10
62.15323365605849
 20
88.09794155972794
 10
62.20474568810355
 20
88.03200913308373
 10
62.26692437983354
 20
87.9760231875808
 10
62.3378800952957
 20
87.93168515907335
 10
62.41545678279588
 20
87.90034205456033
 10
62.49729737641596
 20
87.88294609973535
 10
62.58091679384358
 20
87.88002612017642
 10
76.60167546179801
 20
88.61482294582734
 10
76.68453957136815
 20
88.62646795732354
 10
76.76409548589628
 20
88.65232234472454
 10
76.83798093993214
 20
88.69160324372083
 10
76.90391536383538
 20
88.74311538043823
 10
76.95989791399792
 20
88.80529389422608
 10
77.00424512989707
 20
88.8762500911786
 10
77.0355880346842
 20
88.95382676821184
 10
77.05296869050437
 20
89.0356665600448
 10
77.05589637948344
 20
89.11928638150624
 10
76.84445911626207
 20
93.15374970191459
 10
76.83280639534554
 20
93.23661340745137
 10
76.80696730694913
 20
93.31617012376637
 10
76.76768660767914
 20
93.3900555882694
 10
76.71616528356972
 20
93.45598953068168
 10
76.6539901651222
 20
93.51197225878649
 10
76.58303197091038
 20
93.55631937001385
 10
76.50544530758206
 20
93.58766175144129
 10
76.42362349108049
 20
93.60504334930897
 10
76.3399956805828
 20
93.60797061960025
 10
74.82207878775577
 20
93.52841996611106
  0
LWPOLYLINE
  5
15C
330
E3
100
AcDbEntity
  8
Des_ Furniture
  6
Continuous
100
AcDbPolyline
 90
       32
 70
   128
 43
0.0
 10
61.7270696516429
 20
99.58664272470207
 10
62.31612444650602
 20
88.34680766736037
 10
62.32194660310179
 20
88.30537959976648
 10
62.33487455502393
 20
88.26559367126019
 10
62.35451469531564
 20
88.22865493352671
 10
62.38027136285221
 20
88.19568775297681
 10
62.41135892207561
 20
88.16769638892441
 10
62.44683780983787
 20
88.14552682782895
 10
62.48562714698389
 20
88.1298554277713
 10
62.52654646295861
 20
88.12115705848878
 10
62.56835616434495
 20
88.11969720851765
 10
76.58911483229939
 20
88.85449403416845
 10
76.6305468944119
 20
88.8603164001085
 10
76.67032483388151
 20
88.87324393334295
 10
76.70726756613328
 20
88.89288428297814
 10
76.74022476038766
 20
88.91864042715503
 10
76.76823609703058
 20
88.94972903309795
 10
76.7903896800534
 20
88.98520708348445
 10
76.80606108011156
 20
89.02399642063075
 10
76.81477143294808
 20
89.06491636463676
 10
76.81622529114244
 20
89.10672575200795
 10
76.60478802792107
 20
93.14118907241631
 10
76.59897165375833
 20
93.18262144854417
 10
76.58603213696945
 20
93.22239875998261
 10
76.56639178733408
 20
93.25934149223403
 10
76.54065162122957
 20
93.29229952386409
 10
76.50954304269612
 20
93.32030981378803
 10
76.47407497860436
 20
93.34246392017053
 10
76.43528164694057
 20
93.3581351108843
 10
76.39436969197044
 20
93.36684588240884
 10
76.35255631008145
 20
93.36829953125925
 10
74.83463941725442
 20
93.28874887776983
  0
HATCH
  5
15D
330
E3
100
AcDbEntity
  8
Doc_ Finishes
  6
Continuous
 62
   255
370
     0
100
AcDbHatch
 10
0.0
 20
0.0
 30
0.0
210
0.0
220
0.0
230
1.0
  2
SOLID
 70
     1
 71
     0
 91
        1
 92
        3
 72
     0
 73
     1
 93
        6
 10
140.5537599211991
 20
97.42558059510542
 10
140.428153626216
 20
95.02886971169444
 10
146.8302630340605
 20
94.69334937490237
 10
146.9647866169082
 20
94.81447495295181
 10
147.076994907093
 20
96.95553667546564
 10
146.9558693290435
 20
97.09006025831324
 97
        0
 75
     0
 76
     1
 98
        0
  0
LINE
  5
15E
330
E3
100
AcDbEntity
  8
Doc_ Finishes
  6
Continuous
100
AcDbLine
 10
140.4281515879589
 20
95.0288686032617
 30
0.0
 11
140.5537590453588
 21
97.42558050658126
 31
0.0
  0
LINE
  5
15F
330
E3
100
AcDbEntity
  8
Doc_ Finishes
  6
Continuous
100
AcDbLine
 10
146.8302642495541
 20
94.693349661004
 30
0.0
 11
140.4281515879589
 21
95.0288686032617
 31
0.0
  0
LINE
  5
160
330
E3
100
AcDbEntity
  8
Doc_ Finishes
  6
Continuous
100
AcDbLine
 10
146.9647882330751
 20
94.81447540202267
 30
0.0
 11
146.8302642495541
 21
94.693349661004
 31
0.0
  0
LINE
  5
161
330
E3
100
AcDbEntity
  8
Doc_ Finishes
  6
Continuous
100
AcDbLine
 10
147.0769931837326
 20
96.95553758080253
 30
0.0
 11
146.9647882330751
 21
94.81447540202267
 31
0.0
  0
LINE
  5
162
330
E3
100
AcDbEntity
  8
Doc_ Finishes
  6
Continuous
100
AcDbLine
 10
146.955867442714
 20
97.09006156432358
 30
0.0
 11
147.0769931837326
 21
96.95553758080253
 31
0.0
  0
LINE
  5
163
330
E3
100
AcDbEntity
  8
Doc_ Finishes
  6
Continuous
100
AcDbLine
 10
140.5537590453588
 20
97.42558050658126
 30
0.0
 11
146.955867442714
 21
97.09006156432358
 31
0.0
  0
LINE
  5
164
330
E3
100
AcDbEntity
  8
Doc_ Finishes
  6
Continuous
100
AcDbLine
 10
146.955867442714
 20
97.09006156432358
 30
0.0
 11
146.8302642495541
 21
94.693349661004
 31
0.0
  0
LINE
  5
165
330
E3
100
AcDbEntity
  8
Doc_ Finishes
  6
Continuous
100
AcDbLine
 10
141.091914678805
 20
97.39737682233209
 30
0.0
 11
140.9663114856451
 21
95.00066491901254
 31
0.0
  0
LINE
  5
166
330
E3
100
AcDbEntity
  8
Doc_ Finishes
  6
Continuous
100
AcDbLine
 10
141.2130404198236
 20
97.26285283881106
 30
0.0
 11
141.1008354691661
 21
95.12179066003118
 31
0.0
  0
LINE
  5
167
330
E3
100
AcDbEntity
  8
Doc_ Finishes
  6
Continuous
100
AcDbLine
 10
141.2130404198236
 20
97.26285283881106
 30
0.0
 11
141.091914678805
 21
97.39737682233209
 31
0.0
  0
LINE
  5
168
330
E3
100
AcDbEntity
  8
Doc_ Finishes
  6
Continuous
100
AcDbLine
 10
141.1008354691661
 20
95.12179066003118
 30
0.0
 11
140.9663114856451
 21
95.00066491901254
 31
0.0
  0
LINE
  5
169
330
E3
100
AcDbEntity
  8
Doc_ Finishes
  6
Continuous
100
AcDbLine
 10
141.2130404198236
 20
97.26285283881106
 30
0.0
 11
147.0769931837326
 21
96.95553758080253
 31
0.0
  0
LINE
  5
16A
330
E3
100
AcDbEntity
  8
Doc_ Finishes
  6
Continuous
100
AcDbLine
 10
141.1008354691661
 20
95.12179066003118
 30
0.0
 11
146.9647882330751
 21
94.81447540202267
 31
0.0
  0
HATCH
  5
16B
330
E3
100
AcDbEntity
  8
Doc_ Finishes
  6
Continuous
 62
   255
370
     0
100
AcDbHatch
 10
0.0
 20
0.0
 30
0.0
210
0.0
220
0.0
230
1.0
  2
SOLID
 70
     1
 71
     0
 91
        1
 92
        3
 72
     0
 73
     1
 93
        4
 10
138.9114287898278
 20
94.74901970484395
 10
140.4093730919597
 20
94.67051577047947
 10
140.5725404554555
 20
97.78393453632039
 10
139.0745961533236
 20
97.86243847068476
 97
        0
 75
     0
 76
     1
 98
        0
  0
HATCH
  5
16C
330
E3
100
AcDbEntity
  8
Doc_ Finishes
  6
Continuous
 62
   255
370
     0
100
AcDbHatch
 10
0.0
 20
0.0
 30
0.0
210
0.0
220
0.0
230
1.0
  2
SOLID
 70
     1
 71
     0
 91
        1
 92
        3
 72
     1
 73
     1
 93
        4
 10
139.1882807340991
 20
95.25483884342323
 42
0.0
 10
140.4365676525423
 20
95.1894188981196
 42
0.0
 10
140.5453458948729
 20
97.26503140868026
 42
0.0
 10
139.2970589764296
 20
97.33045135398388
 42
0.2405626121623441
 97
        0
 75
     0
 76
     1
 98
        0
  0
LINE
  5
16D
330
E3
100
AcDbEntity
  8
Doc_ Finishes
  6
Continuous
100
AcDbLine
 10
140.4365691979843
 20
95.1894172443232
 30
0.0
 11
139.1882811264703
 21
95.25483921646573
 31
0.0
  0
LINE
  5
16E
330
E3
100
AcDbEntity
  8
Doc_ Finishes
  6
Continuous
100
AcDbLine
 10
140.5453456995736
 20
97.26503186551975
 30
0.0
 11
140.4365691979843
 21
95.1894172443232
 31
0.0
  0
LINE
  5
16F
330
E3
100
AcDbEntity
  8
Doc_ Finishes
  6
Continuous
100
AcDbLine
 10
139.2970576280596
 20
97.33044957342213
 30
0.0
 11
140.5453456995736
 21
97.26503186551975
 31
0.0
  0
ARC
  5
170
330
E3
100
AcDbEntity
  8
Doc_ Finishes
  6
Continuous
100
AcDbCircle
 10
141.27488095849
 20
96.18614142774922
 30
0.0
 40
2.285000000000086
100
AcDbArc
 50
149.9475818795699
 51
204.0524181204329
  0
HATCH
  5
171
330
E3
100
AcDbEntity
  8
Doc_ Finishes
  6
Continuous
 62
   255
370
     0
100
AcDbHatch
 10
0.0
 20
0.0
 30
0.0
210
0.0
220
0.0
230
1.0
  2
SOLID
 70
     1
 71
     0
 91
        1
 92
        3
 72
     1
 73
     1
 93
        4
 10
139.1338916129338
 20
94.21703258814307
 42
0.0
 10
140.382178531377
 20
94.15161264283934
 42
0.0
 10
140.4365676525423
 20
95.1894188981196
 42
0.0
 10
139.1882807340991
 20
95.25483884342323
 42
0.4811252243246882
 97
        0
 75
     0
 76
     1
 98
        0
  0
LINE
  5
172
330
E3
100
AcDbEntity
  8
Doc_ Finishes
  6
Continuous
100
AcDbLine
 10
140.3821788150695
 20
94.15161206584499
 30
0.0
 11
139.1338907435556
 21
94.21703403798752
 31
0.0
  0
LINE
  5
173
330
E3
100
AcDbEntity
  8
Doc_ Finishes
  6
Continuous
100
AcDbLine
 10
140.4365691979843
 20
95.1894172443232
 30
0.0
 11
140.3821788150695
 21
94.15161206584499
 31
0.0
  0
LINE
  5
174
330
E3
100
AcDbEntity
  8
Doc_ Finishes
  6
Continuous
100
AcDbLine
 10
139.1882811264703
 20
95.25483921646573
 30
0.0
 11
140.4365691979843
 21
95.1894172443232
 31
0.0
  0
ARC
  5
175
330
E3
100
AcDbEntity
  8
Doc_ Finishes
  6
Continuous
100
AcDbCircle
 10
139.5755174304396
 20
94.71421629394233
 30
0.0
 40
0.6649999999999289
100
AcDbArc
 50
125.6132381910037
 51
228.3867618089963
  0
HATCH
  5
176
330
E3
100
AcDbEntity
  8
Doc_ Finishes
  6
Continuous
 62
   255
370
     0
100
AcDbHatch
 10
0.0
 20
0.0
 30
0.0
210
0.0
220
0.0
230
1.0
  2
SOLID
 70
     1
 71
     0
 91
        1
 92
        3
 72
     1
 73
     1
 93
        4
 10
139.3514480975949
 20
98.36825760926415
 42
0.4811252243246882
 10
139.2970589764296
 20
97.33045135398388
 42
0.0
 10
140.5453458948729
 20
97.26503140868026
 42
0.0
 10
140.5997350160381
 20
98.30283766396042
 42
0.0
 97
        0
 75
     0
 76
     1
 98
        0
  0
ARC
  5
177
330
E3
100
AcDbEntity
  8
Doc_ Finishes
  6
Continuous
100
AcDbCircle
 10
139.7386847939354
 20
97.8276350597832
 30
0.0
 40
0.6649999999999903
100
AcDbArc
 50
125.6132381910029
 51
228.3867618089977
  0
LINE
  5
178
330
E3
100
AcDbEntity
  8
Doc_ Finishes
  6
Continuous
100
AcDbLine
 10
139.2970576280596
 20
97.33044957342213
 30
0.0
 11
140.5453456995736
 21
97.26503186551975
 31
0.0
  0
LINE
  5
179
330
E3
100
AcDbEntity
  8
Doc_ Finishes
  6
Continuous
100
AcDbLine
 10
140.5453456995736
 20
97.26503186551975
 30
0.0
 11
140.5997360824883
 21
98.30283704399795
 31
0.0
  0
LINE
  5
17A
330
E3
100
AcDbEntity
  8
Doc_ Finishes
  6
Continuous
100
AcDbLine
 10
140.5997360824883
 20
98.30283704399795
 30
0.0
 11
139.3514480109744
 21
98.36825901614047
 31
0.0
  0
HATCH
  5
17B
330
E3
100
AcDbEntity
  8
Doc_ Finishes
  6
Continuous
 62
   255
370
     0
100
AcDbHatch
 10
0.0
 20
0.0
 30
0.0
210
0.0
220
0.0
230
1.0
  2
SOLID
 70
     1
 71
     0
 91
        1
 92
        3
 72
     0
 73
     1
 93
        4
 10
143.6638022062576
 20
94.49995836776515
 10
145.7409516385472
 20
94.39109957877977
 10
145.904119002043
 20
97.50451834462059
 10
143.8269695697535
 20
97.61337713360585
 97
        0
 75
     0
 76
     1
 98
        0
  0
HATCH
  5
17C
330
E3
100
AcDbEntity
  8
Doc_ Finishes
  6
Continuous
 62
   255
370
     0
100
AcDbHatch
 10
0.0
 20
0.0
 30
0.0
210
0.0
220
0.0
230
1.0
  2
SOLID
 70
     1
 71
     0
 91
        1
 92
        3
 72
     1
 73
     1
 93
        4
 10
144.0371883388885
 20
95.00071836390767
 42
0.0
 10
145.4219546270815
 20
94.92814583791753
 42
0.3335801555317839
 10
145.5307328694121
 20
97.00375834847796
 42
0.0
 10
144.1459665812191
 20
97.07633087446833
 42
0.3335801555317839
 97
        0
 75
     0
 76
     1
 98
        0
  0
LINE
  5
17D
330
E3
100
AcDbEntity
  8
Doc_ Finishes
  6
Continuous
100
AcDbLine
 10
145.4219563027553
 20
94.92814725128632
 30
0.0
 11
144.0371869614986
 21
95.00072035413427
 31
0.0
  0
ARC
  5
17E
330
E3
100
AcDbEntity
  8
Doc_ Finishes
  6
Continuous
100
AcDbCircle
 10
144.0938819897495
 20
96.03840384390433
 30
0.0
 40
1.731025641025572
100
AcDbArc
 50
320.10464887285
 51
33.89535112715015
  0
LINE
  5
17F
330
E3
100
AcDbEntity
  8
Doc_ Finishes
  6
Continuous
100
AcDbLine
 10
144.1459677273281
 20
97.07633071109069
 30
0.0
 11
145.5307328043446
 21
97.00375760824274
 31
0.0
  0
ARC
  5
180
330
E3
100
AcDbEntity
  8
Doc_ Finishes
  6
Continuous
100
AcDbCircle
 10
145.4740392185513
 20
95.96607286848145
 30
0.0
 40
1.731025641025701
100
AcDbArc
 50
140.1046488728505
 51
213.8953511271523
  0
HATCH
  5
181
330
E3
100
AcDbEntity
  8
Doc_ Finishes
  6
Continuous
 62
   255
370
     0
100
AcDbHatch
 10
0.0
 20
0.0
 30
0.0
210
0.0
220
0.0
230
1.0
  2
SOLID
 70
     1
 71
     0
 91
        1
 92
        3
 72
     1
 73
     1
 93
        4
 10
143.9827992177233
 20
93.96291210862739
 42
0.0
 10
145.3675655059162
 20
93.89033958263727
 42
0.6671603110635675
 10
145.4219546270815
 20
94.92814583791753
 42
0.0
 10
144.0371883388885
 20
95.00071836390767
 42
0.6671603110635675
 97
        0
 75
     0
 76
     1
 98
        0
  0
LINE
  5
182
330
E3
100
AcDbEntity
  8
Doc_ Finishes
  6
Continuous
100
AcDbLine
 10
145.3675659198406
 20
93.89033780856798
 30
0.0
 11
143.982800842824
 21
93.96291091141595
 31
0.0
  0
ARC
  5
183
330
E3
100
AcDbEntity
  8
Doc_ Finishes
  6
Continuous
100
AcDbCircle
 10
145.1789664663926
 20
94.42055197364246
 30
0.0
 40
0.5627564102564138
100
AcDbArc
 50
289.5807117678013
 51
64.4192882321983
  0
LINE
  5
184
330
E3
100
AcDbEntity
  8
Doc_ Finishes
  6
Continuous
100
AcDbLine
 10
144.0371869614986
 20
95.00072035413427
 30
0.0
 11
145.4219563027553
 21
94.92814725128632
 31
0.0
  0
ARC
  5
185
330
E3
100
AcDbEntity
  8
Doc_ Finishes
  6
Continuous
100
AcDbCircle
 10
144.2257873784122
 20
94.47050597290246
 30
0.0
 40
0.5627564102564138
100
AcDbArc
 50
109.5807117678013
 51
244.4192882321983
  0
HATCH
  5
186
330
E3
100
AcDbEntity
  8
Doc_ Finishes
  6
Continuous
 62
   255
370
     0
100
AcDbHatch
 10
0.0
 20
0.0
 30
0.0
210
0.0
220
0.0
230
1.0
  2
SOLID
 70
     1
 71
     0
 91
        1
 92
        3
 72
     1
 73
     1
 93
        4
 10
144.2003557023844
 20
98.11413712974849
 42
0.6671603110635675
 10
144.1459665812191
 20
97.07633087446833
 42
0.0
 10
145.5307328694121
 20
97.00375834847796
 42
0.6671603110635675
 10
145.5851219905774
 20
98.04156460375835
 42
0.0
 97
        0
 75
     0
 76
     1
 98
        0
  0
ARC
  5
187
330
E3
100
AcDbEntity
  8
Doc_ Finishes
  6
Continuous
100
AcDbCircle
 10
144.388954741908
 20
97.58392473874333
 30
0.0
 40
0.5627564102563521
100
AcDbArc
 50
109.5807117678006
 51
244.4192882321984
  0
LINE
  5
188
330
E3
100
AcDbEntity
  8
Doc_ Finishes
  6
Continuous
100
AcDbLine
 10
144.1459677273281
 20
97.07633071109069
 30
0.0
 11
145.5307328043446
 21
97.00375760824274
 31
0.0
  0
ARC
  5
189
330
E3
100
AcDbEntity
  8
Doc_ Finishes
  6
Continuous
100
AcDbCircle
 10
145.3421338298884
 20
97.53397073948322
 30
0.0
 40
0.5627564102564754
100
AcDbArc
 50
289.5807117678021
 51
64.41928823219818
  0
LINE
  5
18A
330
E3
100
AcDbEntity
  8
Doc_ Finishes
  6
Continuous
100
AcDbLine
 10
145.5851231872594
 20
98.04156278672092
 30
0.0
 11
144.2003538460027
 21
98.11413588956889
 31
0.0
  0
HATCH
  5
18B
330
E3
100
AcDbEntity
  8
Doc_ Finishes
  6
Continuous
 62
   255
370
     0
100
AcDbHatch
 10
0.0
 20
0.0
 30
0.0
210
0.0
220
0.0
230
1.0
  2
SOLID
 70
     1
 71
     0
 91
        1
 92
        3
 72
     0
 73
     1
 93
        4
 10
141.0212484782167
 20
98.70286460778921
 10
140.6217966643149
 20
98.72379899028638
 10
140.3601168831002
 20
93.73065131651347
 10
140.7595686970021
 20
93.70971693401631
 97
        0
 75
     0
 76
     1
 98
        0
  0
LINE
  5
18C
330
E3
100
AcDbEntity
  8
Doc_ Finishes
  6
Continuous
100
AcDbLine
 10
140.6217949967038
 20
98.72379856582931
 30
0.0
 11
141.021247691297
 21
98.70286541100938
 31
0.0
  0
LINE
  5
18D
330
E3
100
AcDbEntity
  8
Doc_ Finishes
  6
Continuous
100
AcDbLine
 10
140.360115636614
 20
93.73065054401363
 30
0.0
 11
140.6217949967038
 21
98.72379856582931
 31
0.0
  0
LINE
  5
18E
330
E3
100
AcDbEntity
  8
Doc_ Finishes
  6
Continuous
100
AcDbLine
 10
140.7595683312072
 20
93.70971738919367
 30
0.0
 11
140.360115636614
 21
93.73065054401363
 31
0.0
  0
LINE
  5
18F
330
E3
100
AcDbEntity
  8
Doc_ Finishes
  6
Continuous
100
AcDbLine
 10
141.021247691297
 20
98.70286541100938
 30
0.0
 11
140.7595683312072
 21
93.70971738919367
 31
0.0
  0
HATCH
  5
190
330
E3
100
AcDbEntity
  8
Doc_ Finishes
  6
Continuous
 62
   255
370
     0
100
AcDbHatch
 10
0.0
 20
0.0
 30
0.0
210
0.0
220
0.0
230
1.0
  2
SOLID
 70
     1
 71
     0
 91
        1
 92
        3
 72
     0
 73
     1
 93
        4
 10
143.4767739647111
 20
98.57417597006912
 10
143.2150941834964
 20
93.58102829629632
 10
143.6145459973982
 20
93.56009391379916
 10
143.8762257786129
 20
98.55324158757183
 97
        0
 75
     0
 76
     1
 98
        0
  0
LINE
  5
191
330
E3
100
AcDbEntity
  8
Doc_ Finishes
  6
Continuous
100
AcDbLine
 10
143.215092634461
 20
93.58102688617653
 30
0.0
 11
143.4767719945507
 21
98.57417490799224
 31
0.0
  0
LINE
  5
192
330
E3
100
AcDbEntity
  8
Doc_ Finishes
  6
Continuous
100
AcDbLine
 10
143.6145453290542
 20
93.56009373135659
 30
0.0
 11
143.215092634461
 21
93.58102688617653
 31
0.0
  0
LINE
  5
193
330
E3
100
AcDbEntity
  8
Doc_ Finishes
  6
Continuous
100
AcDbLine
 10
143.876224689144
 20
98.5532417531723
 30
0.0
 11
143.6145453290542
 21
93.56009373135659
 31
0.0
  0
LINE
  5
194
330
E3
100
AcDbEntity
  8
Doc_ Finishes
  6
Continuous
100
AcDbLine
 10
143.4767719945507
 20
98.57417490799224
 30
0.0
 11
143.876224689144
 21
98.5532417531723
 31
0.0
  0
LINE
  5
195
330
E3
100
AcDbEntity
  8
Doc_ Finishes
  6
Continuous
100
AcDbLine
 10
138.9114295999822
 20
94.74901931595907
 30
0.0
 11
139.0745964844862
 21
97.86243911563382
 31
0.0
  0
LINE
  5
196
330
E3
100
AcDbEntity
  8
Doc_ Finishes
  6
Continuous
100
AcDbLine
 10
140.5725387589109
 20
97.78393445475886
 30
0.0
 11
140.4093718744068
 21
94.67051465508409
 31
0.0
  0
LINE
  5
197
330
E3
100
AcDbEntity
  8
Doc_ Finishes
  6
Continuous
100
AcDbLine
 10
143.6638015668471
 20
94.49995784242707
 30
0.0
 11
143.8269684513512
 21
97.61337764210182
 31
0.0
  0
LINE
  5
198
330
E3
100
AcDbEntity
  8
Doc_ Finishes
  6
Continuous
100
AcDbLine
 10
145.9041181989961
 20
97.50452011994993
 30
0.0
 11
145.7409513144921
 21
94.39110032027519
 31
0.0
  0
LINE
  5
19A
330
E3
100
AcDbEntity
  8
Doc_ Finishes
  6
Dot & Dashed
100
AcDbLine
 10
137.2953422883928
 20
96.39470045408139
 30
0.0
 11
148.6186993546569
 21
95.80126747577259
 31
0.0
  0
HATCH
  5
19B
330
E3
100
AcDbEntity
  8
Doc_ Finishes
  6
Continuous
 62
   255
370
     0
100
AcDbHatch
 10
0.0
 20
0.0
 30
0.0
210
0.0
220
0.0
230
1.0
  2
SOLID
 70
     1
 71
     0
 91
        1
 92
        3
 72
     0
 73
     1
 93
        6
 10
141.9376694495746
 20
123.8321474694872
 10
141.8120631545916
 20
121.4354365860762
 10
148.214172562436
 20
121.0999162492842
 10
148.3486961452836
 20
121.2210418273336
 10
148.4609044354685
 20
123.3621035498474
 10
148.339778857419
 20
123.4966271326951
 97
        0
 75
     0
 76
     1
 98
        0
  0
LINE
  5
19C
330
E3
100
AcDbEntity
  8
Doc_ Finishes
  6
Continuous
100
AcDbLine
 10
141.8120638169486
 20
121.4354357544042
 30
0.0
 11
141.9376712743485
 21
123.8321476577238
 31
0.0
  0
LINE
  5
19D
330
E3
100
AcDbEntity
  8
Doc_ Finishes
  6
Continuous
100
AcDbLine
 10
148.2141722143037
 20
121.0999168121465
 30
0.0
 11
141.8120638169486
 21
121.4354357544042
 31
0.0
  0
LINE
  5
19E
330
E3
100
AcDbEntity
  8
Doc_ Finishes
  6
Continuous
100
AcDbLine
 10
148.3486961978247
 20
121.2210425531652
 30
0.0
 11
148.2141722143037
 21
121.0999168121465
 31
0.0
  0
LINE
  5
19F
330
E3
100
AcDbEntity
  8
Doc_ Finishes
  6
Continuous
100
AcDbLine
 10
148.4609054127222
 20
123.3621047319451
 30
0.0
 11
148.3486961978247
 21
121.2210425531652
 31
0.0
  0
LINE
  5
1A0
330
E3
100
AcDbEntity
  8
Doc_ Finishes
  6
Continuous
100
AcDbLine
 10
148.3397796717036
 20
123.4966287154661
 30
0.0
 11
148.4609054127222
 21
123.3621047319451
 31
0.0
  0
LINE
  5
1A1
330
E3
100
AcDbEntity
  8
Doc_ Finishes
  6
Continuous
100
AcDbLine
 10
141.9376712743485
 20
123.8321476577238
 30
0.0
 11
148.3397796717036
 21
123.4966287154661
 31
0.0
  0
LINE
  5
1A2
330
E3
100
AcDbEntity
  8
Doc_ Finishes
  6
Continuous
100
AcDbLine
 10
148.3397796717036
 20
123.4966287154661
 30
0.0
 11
148.2141722143037
 21
121.0999168121465
 31
0.0
  0
LINE
  5
1A3
330
E3
100
AcDbEntity
  8
Doc_ Finishes
  6
Continuous
100
AcDbLine
 10
142.4758269077946
 20
123.8039439734746
 30
0.0
 11
142.3502194503947
 21
121.4072320701551
 31
0.0
  0
LINE
  5
1A4
330
E3
100
AcDbEntity
  8
Doc_ Finishes
  6
Continuous
100
AcDbLine
 10
142.5969526488133
 20
123.6694199899536
 30
0.0
 11
142.4847434339157
 21
121.5283578111737
 31
0.0
  0
LINE
  5
1A5
330
E3
100
AcDbEntity
  8
Doc_ Finishes
  6
Continuous
100
AcDbLine
 10
142.5969526488133
 20
123.6694199899536
 30
0.0
 11
142.4758269077946
 21
123.8039439734746
 31
0.0
  0
LINE
  5
1A6
330
E3
100
AcDbEntity
  8
Doc_ Finishes
  6
Continuous
100
AcDbLine
 10
142.4847434339157
 20
121.5283578111737
 30
0.0
 11
142.3502194503947
 21
121.4072320701551
 31
0.0
  0
LINE
  5
1A7
330
E3
100
AcDbEntity
  8
Doc_ Finishes
  6
Continuous
100
AcDbLine
 10
142.5969526488133
 20
123.6694199899536
 30
0.0
 11
148.4609054127222
 21
123.3621047319451
 31
0.0
  0
LINE
  5
1A8
330
E3
100
AcDbEntity
  8
Doc_ Finishes
  6
Continuous
100
AcDbLine
 10
142.4847434339157
 20
121.5283578111737
 30
0.0
 11
148.3486961978247
 21
121.2210425531652
 31
0.0
  0
HATCH
  5
1A9
330
E3
100
AcDbEntity
  8
Doc_ Finishes
  6
Continuous
 62
   255
370
     0
100
AcDbHatch
 10
0.0
 20
0.0
 30
0.0
210
0.0
220
0.0
230
1.0
  2
SOLID
 70
     1
 71
     0
 91
        1
 92
        3
 72
     0
 73
     1
 93
        4
 10
140.2953383182033
 20
121.1555865792258
 10
141.7932826203352
 20
121.0770826448613
 10
141.956449983831
 20
124.1905014107022
 10
140.4585056816991
 20
124.2690053450666
 97
        0
 75
     0
 76
     1
 98
        0
  0
HATCH
  5
1AA
330
E3
100
AcDbEntity
  8
Doc_ Finishes
  6
Continuous
 62
   255
370
     0
100
AcDbHatch
 10
0.0
 20
0.0
 30
0.0
210
0.0
220
0.0
230
1.0
  2
SOLID
 70
     1
 71
     0
 91
        1
 92
        3
 72
     1
 73
     1
 93
        4
 10
140.5721902624746
 20
121.661405717805
 42
0.0
 10
141.8204771809178
 20
121.5959857725014
 42
0.0
 10
141.9292554232483
 20
123.6715982830621
 42
0.0
 10
140.6809685048051
 20
123.7370182283657
 42
0.2405626121623441
 97
        0
 75
     0
 76
     1
 98
        0
  0
LINE
  5
1AB
330
E3
100
AcDbEntity
  8
Doc_ Finishes
  6
Continuous
100
AcDbLine
 10
141.8204771627338
 20
121.5959843954657
 30
0.0
 11
140.5721890912199
 21
121.6614063676083
 31
0.0
  0
LINE
  5
1AC
330
E3
100
AcDbEntity
  8
Doc_ Finishes
  6
Continuous
100
AcDbLine
 10
141.9292536643231
 20
123.6715990166623
 30
0.0
 11
141.8204771627338
 21
121.5959843954657
 31
0.0
  0
LINE
  5
1AD
330
E3
100
AcDbEntity
  8
Doc_ Finishes
  6
Continuous
100
AcDbLine
 10
140.6809698570493
 20
123.7370167245647
 30
0.0
 11
141.9292536643231
 21
123.6715990166623
 31
0.0
  0
ARC
  5
1AE
330
E3
100
AcDbEntity
  8
Doc_ Finishes
  6
Continuous
100
AcDbCircle
 10
142.6587904868655
 20
122.592708302131
 30
0.0
 40
2.285000000000139
100
AcDbArc
 50
149.947581879569
 51
204.0524181204313
  0
HATCH
  5
1AF
330
E3
100
AcDbEntity
  8
Doc_ Finishes
  6
Continuous
 62
   255
370
     0
100
AcDbHatch
 10
0.0
 20
0.0
 30
0.0
210
0.0
220
0.0
230
1.0
  2
SOLID
 70
     1
 71
     0
 91
        1
 92
        3
 72
     1
 73
     1
 93
        4
 10
140.5178011413093
 20
120.6235994625249
 42
0.0
 10
141.7660880597525
 20
120.5581795172211
 42
0.0
 10
141.8204771809178
 20
121.5959857725014
 42
0.0
 10
140.5721902624746
 20
121.661405717805
 42
0.4811252243246882
 97
        0
 75
     0
 76
     1
 98
        0
  0
LINE
  5
1B0
330
E3
100
AcDbEntity
  8
Doc_ Finishes
  6
Continuous
100
AcDbLine
 10
141.7660867798191
 20
120.5581792169875
 30
0.0
 11
140.5178029725453
 21
120.62360118913
 31
0.0
  0
LINE
  5
1B1
330
E3
100
AcDbEntity
  8
Doc_ Finishes
  6
Continuous
100
AcDbLine
 10
141.8204771627338
 20
121.5959843954657
 30
0.0
 11
141.7660867798191
 21
120.5581792169875
 31
0.0
  0
LINE
  5
1B2
330
E3
100
AcDbEntity
  8
Doc_ Finishes
  6
Continuous
100
AcDbLine
 10
140.5721890912199
 20
121.6614063676083
 30
0.0
 11
141.8204771627338
 21
121.5959843954657
 31
0.0
  0
ARC
  5
1B3
330
E3
100
AcDbEntity
  8
Doc_ Finishes
  6
Continuous
100
AcDbCircle
 10
140.959426958815
 20
121.1207831683241
 30
0.0
 40
0.6649999999999289
100
AcDbArc
 50
125.6132381910037
 51
228.3867618089963
  0
HATCH
  5
1B4
330
E3
100
AcDbEntity
  8
Doc_ Finishes
  6
Continuous
 62
   255
370
     0
100
AcDbHatch
 10
0.0
 20
0.0
 30
0.0
210
0.0
220
0.0
230
1.0
  2
SOLID
 70
     1
 71
     0
 91
        1
 92
        3
 72
     1
 73
     1
 93
        4
 10
140.7353576259704
 20
124.774824483646
 42
0.4811252243246882
 10
140.6809685048051
 20
123.7370182283657
 42
0.0
 10
141.9292554232483
 20
123.6715982830621
 42
0.0
 10
141.9836445444136
 20
124.7094045383422
 42
0.0
 97
        0
 75
     0
 76
     1
 98
        0
  0
ARC
  5
1B5
330
E3
100
AcDbEntity
  8
Doc_ Finishes
  6
Continuous
100
AcDbCircle
 10
141.1225943223109
 20
124.234201934165
 30
0.0
 40
0.6649999999999903
100
AcDbArc
 50
125.6132381910029
 51
228.3867618089977
  0
LINE
  5
1B6
330
E3
100
AcDbEntity
  8
Doc_ Finishes
  6
Continuous
100
AcDbLine
 10
140.6809698570493
 20
123.7370167245647
 30
0.0
 11
141.9292536643231
 21
123.6715990166623
 31
0.0
  0
LINE
  5
1B7
330
E3
100
AcDbEntity
  8
Doc_ Finishes
  6
Continuous
100
AcDbLine
 10
141.9292536643231
 20
123.6715990166623
 30
0.0
 11
141.9836440472379
 21
124.7094041951405
 31
0.0
  0
LINE
  5
1B8
330
E3
100
AcDbEntity
  8
Doc_ Finishes
  6
Continuous
100
AcDbLine
 10
141.9836440472379
 20
124.7094041951405
 30
0.0
 11
140.7353559757239
 21
124.774826167283
 31
0.0
  0
HATCH
  5
1B9
330
E3
100
AcDbEntity
  8
Doc_ Finishes
  6
Continuous
 62
   255
370
     0
100
AcDbHatch
 10
0.0
 20
0.0
 30
0.0
210
0.0
220
0.0
230
1.0
  2
SOLID
 70
     1
 71
     0
 91
        1
 92
        3
 72
     0
 73
     1
 93
        4
 10
145.0477117346332
 20
120.906525242147
 10
147.1248611669227
 20
120.7976664531616
 10
147.2880285304185
 20
123.9110852190024
 10
145.210879098129
 20
124.0199440079877
 97
        0
 75
     0
 76
     1
 98
        0
  0
HATCH
  5
1BA
330
E3
100
AcDbEntity
  8
Doc_ Finishes
  6
Continuous
 62
   255
370
     0
100
AcDbHatch
 10
0.0
 20
0.0
 30
0.0
210
0.0
220
0.0
230
1.0
  2
SOLID
 70
     1
 71
     0
 91
        1
 92
        3
 72
     1
 73
     1
 93
        4
 10
145.421097867264
 20
121.4072852382895
 42
0.0
 10
146.805864155457
 20
121.3347127122993
 42
0.3335801555317839
 10
146.9146423977876
 20
123.4103252228598
 42
0.0
 10
145.5298761095946
 20
123.4828977488501
 42
0.3335801555317839
 97
        0
 75
     0
 76
     1
 98
        0
  0
LINE
  5
1BB
330
E3
100
AcDbEntity
  8
Doc_ Finishes
  6
Continuous
100
AcDbLine
 10
146.8058642675049
 20
121.3347144024288
 30
0.0
 11
145.4210991904883
 21
121.4072832410367
 31
0.0
  0
ARC
  5
1BC
330
E3
100
AcDbEntity
  8
Doc_ Finishes
  6
Continuous
100
AcDbCircle
 10
145.477791518125
 20
122.4449707182861
 30
0.0
 40
1.731025641025523
100
AcDbArc
 50
320.1046488728504
 51
33.8953511271518
  0
LINE
  5
1BD
330
E3
100
AcDbEntity
  8
Doc_ Finishes
  6
Continuous
100
AcDbLine
 10
145.5298756920776
 20
123.4828978622332
 30
0.0
 11
146.9146407690941
 21
123.4103247593853
 31
0.0
  0
ARC
  5
1BE
330
E3
100
AcDbEntity
  8
Doc_ Finishes
  6
Continuous
100
AcDbCircle
 10
146.8579487469268
 20
122.3726397428632
 30
0.0
 40
1.731025641025749
100
AcDbArc
 50
140.1046488728501
 51
213.8953511271506
  0
HATCH
  5
1BF
330
E3
100
AcDbEntity
  8
Doc_ Finishes
  6
Continuous
 62
   255
370
     0
100
AcDbHatch
 10
0.0
 20
0.0
 30
0.0
210
0.0
220
0.0
230
1.0
  2
SOLID
 70
     1
 71
     0
 91
        1
 92
        3
 72
     1
 73
     1
 93
        4
 10
145.3667087460987
 20
120.3694789830092
 42
0.0
 10
146.7514750342918
 20
120.2969064570191
 42
0.6671603110635675
 10
146.805864155457
 20
121.3347127122993
 42
0.0
 10
145.421097867264
 20
121.4072852382895
 42
0.6671603110635675
 97
        0
 75
     0
 76
     1
 98
        0
  0
LINE
  5
1C0
330
E3
100
AcDbEntity
  8
Doc_ Finishes
  6
Continuous
100
AcDbLine
 10
146.7514738845902
 20
120.2969049597105
 30
0.0
 11
145.3667088075736
 21
120.3694780625585
 31
0.0
  0
ARC
  5
1C1
330
E3
100
AcDbEntity
  8
Doc_ Finishes
  6
Continuous
100
AcDbCircle
 10
146.5628759947681
 20
120.8271188480243
 30
0.0
 40
0.5627564102564138
100
AcDbArc
 50
289.5807117678013
 51
64.4192882321983
  0
LINE
  5
1C2
330
E3
100
AcDbEntity
  8
Doc_ Finishes
  6
Continuous
100
AcDbLine
 10
145.4210991904883
 20
121.4072832410367
 30
0.0
 11
146.8058642675049
 21
121.3347144024288
 31
0.0
  0
ARC
  5
1C3
330
E3
100
AcDbEntity
  8
Doc_ Finishes
  6
Continuous
100
AcDbCircle
 10
145.6096969067877
 20
120.8770728472843
 30
0.0
 40
0.5627564102564138
100
AcDbArc
 50
109.5807117678013
 51
244.4192882321983
  0
HATCH
  5
1C4
330
E3
100
AcDbEntity
  8
Doc_ Finishes
  6
Continuous
 62
   255
370
     0
100
AcDbHatch
 10
0.0
 20
0.0
 30
0.0
210
0.0
220
0.0
230
1.0
  2
SOLID
 70
     1
 71
     0
 91
        1
 92
        3
 72
     1
 73
     1
 93
        4
 10
145.5842652307599
 20
124.5207040041303
 42
0.6671603110635675
 10
145.5298761095946
 20
123.4828977488501
 42
0.0
 10
146.9146423977876
 20
123.4103252228598
 42
0.6671603110635675
 10
146.9690315189529
 20
124.4481314781402
 42
0.0
 97
        0
 75
     0
 76
     1
 98
        0
  0
ARC
  5
1C5
330
E3
100
AcDbEntity
  8
Doc_ Finishes
  6
Continuous
100
AcDbCircle
 10
145.7728642702835
 20
123.9904916131251
 30
0.0
 40
0.5627564102563521
100
AcDbArc
 50
109.5807117678006
 51
244.4192882321984
  0
LINE
  5
1C6
330
E3
100
AcDbEntity
  8
Doc_ Finishes
  6
Continuous
100
AcDbLine
 10
145.5298756920776
 20
123.4828978622332
 30
0.0
 11
146.9146407690941
 21
123.4103247593853
 31
0.0
  0
ARC
  5
1C7
330
E3
100
AcDbEntity
  8
Doc_ Finishes
  6
Continuous
100
AcDbCircle
 10
146.726043358264
 20
123.940537613865
 30
0.0
 40
0.5627564102564754
100
AcDbArc
 50
289.5807117678021
 51
64.41928823219818
  0
LINE
  5
1C8
330
E3
100
AcDbEntity
  8
Doc_ Finishes
  6
Continuous
100
AcDbLine
 10
146.9690311520089
 20
124.4481299378635
 30
0.0
 11
145.5842660749923
 21
124.5207030407114
 31
0.0
  0
HATCH
  5
1C9
330
E3
100
AcDbEntity
  8
Doc_ Finishes
  6
Continuous
 62
   255
370
     0
100
AcDbHatch
 10
0.0
 20
0.0
 30
0.0
210
0.0
220
0.0
230
1.0
  2
SOLID
 70
     1
 71
     0
 91
        1
 92
        3
 72
     0
 73
     1
 93
        4
 10
142.4051580065922
 20
125.109431482171
 10
142.0057061926904
 20
125.1303658646682
 10
141.7440264114757
 20
120.1372181908953
 10
142.1434782253776
 20
120.1162838083981
 97
        0
 75
     0
 76
     1
 98
        0
  0
LINE
  5
1CA
330
E3
100
AcDbEntity
  8
Doc_ Finishes
  6
Continuous
100
AcDbLine
 10
142.0057072256934
 20
125.1303657169719
 30
0.0
 11
142.4051599202867
 21
125.1094325621519
 31
0.0
  0
LINE
  5
1CB
330
E3
100
AcDbEntity
  8
Doc_ Finishes
  6
Continuous
100
AcDbLine
 10
141.7440278656036
 20
120.1372176951561
 30
0.0
 11
142.0057072256934
 21
125.1303657169719
 31
0.0
  0
LINE
  5
1CC
330
E3
100
AcDbEntity
  8
Doc_ Finishes
  6
Continuous
100
AcDbLine
 10
142.1434762959568
 20
120.1162845403362
 30
0.0
 11
141.7440278656036
 21
120.1372176951561
 31
0.0
  0
LINE
  5
1CD
330
E3
100
AcDbEntity
  8
Doc_ Finishes
  6
Continuous
100
AcDbLine
 10
142.4051599202867
 20
125.1094325621519
 30
0.0
 11
142.1434762959568
 21
120.1162845403362
 31
0.0
  0
HATCH
  5
1CE
330
E3
100
AcDbEntity
  8
Doc_ Finishes
  6
Continuous
 62
   255
370
     0
100
AcDbHatch
 10
0.0
 20
0.0
 30
0.0
210
0.0
220
0.0
230
1.0
  2
SOLID
 70
     1
 71
     0
 91
        1
 92
        3
 72
     0
 73
     1
 93
        4
 10
144.8606834930866
 20
124.9807428444509
 10
144.5990037118719
 20
119.9875951706781
 10
144.9984555257737
 20
119.966660788181
 10
145.2601353069884
 20
124.9598084619536
 97
        0
 75
     0
 76
     1
 98
        0
  0
LINE
  5
1CF
330
E3
100
AcDbEntity
  8
Doc_ Finishes
  6
Continuous
100
AcDbLine
 10
144.5990048634507
 20
119.9875940373191
 30
0.0
 11
144.8606842235404
 21
124.9807420591348
 31
0.0
  0
LINE
  5
1D0
330
E3
100
AcDbEntity
  8
Doc_ Finishes
  6
Continuous
100
AcDbLine
 10
144.9984575580439
 20
119.9666608824991
 30
0.0
 11
144.5990048634507
 21
119.9875940373191
 31
0.0
  0
LINE
  5
1D1
330
E3
100
AcDbEntity
  8
Doc_ Finishes
  6
Continuous
100
AcDbLine
 10
145.2601369181337
 20
124.9598089043148
 30
0.0
 11
144.9984575580439
 21
119.9666608824991
 31
0.0
  0
LINE
  5
1D2
330
E3
100
AcDbEntity
  8
Doc_ Finishes
  6
Continuous
100
AcDbLine
 10
144.8606842235404
 20
124.9807420591348
 30
0.0
 11
145.2601369181337
 21
124.9598089043148
 31
0.0
  0
LINE
  5
1D3
330
E3
100
AcDbEntity
  8
Doc_ Finishes
  6
Continuous
100
AcDbLine
 10
140.2953375647317
 20
121.1555864671016
 30
0.0
 11
140.4585044492358
 21
124.2690062667764
 31
0.0
  0
LINE
  5
1D4
330
E3
100
AcDbEntity
  8
Doc_ Finishes
  6
Continuous
100
AcDbLine
 10
141.9564509879006
 20
124.1905016059014
 30
0.0
 11
141.7932841033965
 21
121.0770818062266
 31
0.0
  0
LINE
  5
1D5
330
E3
100
AcDbEntity
  8
Doc_ Finishes
  6
Continuous
100
AcDbLine
 10
145.0477137958368
 20
120.9065249935696
 30
0.0
 11
145.2108806803409
 21
124.0199447932443
 31
0.0
  0
LINE
  5
1D6
330
E3
100
AcDbEntity
  8
Doc_ Finishes
  6
Continuous
100
AcDbLine
 10
147.2880304279858
 20
123.9110872710925
 30
0.0
 11
147.1248592792416
 21
120.7976674714177
 31
0.0
  0
LINE
  5
1D7
330
E3
100
AcDbEntity
  8
Doc_ Finishes
  6
Dot & Dashed
100
AcDbLine
 10
138.6792502531424
 20
122.8012676052239
 30
0.0
 11
150.0026073194065
 21
122.2078346269151
 31
0.0
  0
HATCH
  5
1D8
330
E3
100
AcDbEntity
  8
Doc_ Finishes
  6
Continuous
 62
   255
370
     0
100
AcDbHatch
 10
0.0
 20
0.0
 30
0.0
210
0.0
220
0.0
230
1.0
  2
SOLID
 70
     1
 71
     0
 91
        1
 92
        3
 72
     1
 73
     1
 93
        2
 10
134.8424797351718
 20
141.117088397469
 42
0.0
 10
137.2391906185828
 20
140.9914821024861
 42
0.4999999999999998
 97
        0
 75
     0
 76
     1
 98
        0
  0
LINE
  5
1D9
330
E3
100
AcDbEntity
  8
Doc_ Finishes
  6
Continuous
100
AcDbLine
 10
137.2391907743026
 20
140.991484072615
 30
0.0
 11
134.8424788709831
 21
141.1170872657748
 31
0.0
  0
ARC
  5
1DA
330
E3
100
AcDbEntity
  8
Doc_ Finishes
  6
Continuous
100
AcDbCircle
 10
135.9937328162587
 20
140.1555186686985
 30
0.0
 40
1.500000000000016
100
AcDbArc
 50
33.86989764584746
 51
140.1301023541585
  0
HATCH
  5
1DB
330
E3
100
AcDbEntity
  8
Doc_ Finishes
  6
Continuous
 62
   255
370
     0
100
AcDbHatch
 10
0.0
 20
0.0
 30
0.0
210
0.0
220
0.0
230
1.0
  2
SOLID
 70
     1
 71
     0
 91
        1
 92
        3
 72
     0
 73
     1
 93
        4
 10
136.711359652866
 20
141.6199679588349
 10
135.4331138483802
 20
141.6869579828258
 10
135.4256095751566
 20
141.5437679197048
 10
136.7038553796424
 20
141.4767778957138
 97
        0
 75
     0
 76
     1
 98
        0
  0
LINE
  5
1DC
330
E3
100
AcDbEntity
  8
Doc_ Finishes
  6
Continuous
100
AcDbLine
 10
135.4331145077636
 20
141.6869560531006
 30
0.0
 11
136.711358866222
 21
141.6199691048288
 31
0.0
  0
LINE
  5
1DD
330
E3
100
AcDbEntity
  8
Doc_ Finishes
  6
Continuous
100
AcDbLine
 10
135.425609445127
 20
141.5437671336264
 30
0.0
 11
135.4331145077636
 21
141.6869560531006
 31
0.0
  0
LINE
  5
1DE
330
E3
100
AcDbEntity
  8
Doc_ Finishes
  6
Continuous
100
AcDbLine
 10
136.7038538035854
 20
141.4767759211144
 30
0.0
 11
135.425609445127
 21
141.5437671336264
 31
0.0
  0
LINE
  5
1DF
330
E3
100
AcDbEntity
  8
Doc_ Finishes
  6
Continuous
100
AcDbLine
 10
136.711358866222
 20
141.6199691048288
 30
0.0
 11
136.7038538035854
 21
141.4767759211144
 31
0.0
  0
HATCH
  5
1E0
330
E3
100
AcDbEntity
  8
Doc_ Finishes
  6
Continuous
 62
   255
370
     0
100
AcDbHatch
 10
0.0
 20
0.0
 30
0.0
210
0.0
220
0.0
230
1.0
  2
SOLID
 70
     1
 71
     0
 91
        1
 92
        3
 72
     1
 73
     1
 93
        4
 10
137.4389165255337
 20
140.9810149112374
 42
0.0
 10
134.6427538282209
 20
141.1275555887178
 42
0.0
 10
134.6008850632266
 20
140.3286519609142
 42
-0.4285714285714285
 10
137.3970477605394
 20
140.1821112834337
 42
0.0
 97
        0
 75
     0
 76
     1
 98
        0
  0
LINE
  5
1E1
330
E3
100
AcDbEntity
  8
Doc_ Finishes
  6
Continuous
100
AcDbLine
 10
134.6427546558065
 20
141.1275559753048
 30
0.0
 11
137.4389149894792
 21
140.9810153630849
 31
0.0
  0
LINE
  5
1E2
330
E3
100
AcDbEntity
  8
Doc_ Finishes
  6
Continuous
100
AcDbLine
 10
134.6008840819264
 20
140.3286505861182
 30
0.0
 11
134.6427546558065
 21
141.1275559753048
 31
0.0
  0
ARC
  5
1E3
330
E3
100
AcDbEntity
  8
Doc_ Finishes
  6
Continuous
100
AcDbCircle
 10
135.9291851368923
 20
138.9238755758345
 30
0.0
 40
1.933333333333345
100
AcDbArc
 50
40.60281897269984
 51
133.3971810272922
  0
LINE
  5
1E4
330
E3
100
AcDbEntity
  8
Doc_ Finishes
  6
Continuous
100
AcDbLine
 10
137.4389149894792
 20
140.9810153630849
 30
0.0
 11
137.3970486798393
 21
140.1821099738983
 31
0.0
  0
HATCH
  5
1E5
330
E3
100
AcDbEntity
  8
Doc_ Finishes
  6
Continuous
 62
   255
370
     0
100
AcDbHatch
 10
0.0
 20
0.0
 30
0.0
210
0.0
220
0.0
230
1.0
  2
SOLID
 70
     1
 71
     0
 91
        1
 92
        3
 72
     0
 73
     1
 93
        5
 10
136.3499294367502
 20
140.8378118370288
 10
135.7108065345073
 20
140.8713068490245
 10
134.6975824216437
 20
121.5378390561759
 10
134.9836488607696
 20
120.8819686479352
 10
135.3367053238866
 20
121.5043440441803
 97
        0
 75
     0
 76
     1
 98
        0
  0
LINE
  5
1E6
330
E3
100
AcDbEntity
  8
Doc_ Finishes
  6
Continuous
100
AcDbLine
 10
135.7108060895582
 20
140.8713049929061
 30
0.0
 11
136.3499304009075
 21
140.8378136508903
 31
0.0
  0
LINE
  5
1E7
330
E3
100
AcDbEntity
  8
Doc_ Finishes
  6
Continuous
100
AcDbLine
 10
134.697584255455
 20
121.5378372169926
 30
0.0
 11
135.7108060895582
 21
140.8713049929061
 31
0.0
  0
LINE
  5
1E8
330
E3
100
AcDbEntity
  8
Doc_ Finishes
  6
Continuous
100
AcDbLine
 10
134.9836508048737
 20
120.8819672346354
 30
0.0
 11
134.697584255455
 21
121.5378372169926
 31
0.0
  0
LINE
  5
1E9
330
E3
100
AcDbEntity
  8
Doc_ Finishes
  6
Continuous
100
AcDbLine
 10
135.3367043025642
 20
121.5043458749767
 30
0.0
 11
134.9836508048737
 21
120.8819672346354
 31
0.0
  0
LINE
  5
1EA
330
E3
100
AcDbEntity
  8
Doc_ Finishes
  6
Continuous
100
AcDbLine
 10
136.3499304009075
 20
140.8378136508903
 30
0.0
 11
135.3367043025642
 21
121.5043458749767
 31
0.0
  0
LINE
  5
1EB
330
E3
100
AcDbEntity
  8
Doc_ Finishes
  6
Continuous
100
AcDbLine
 10
136.549654616084
 20
140.8273449413602
 30
0.0
 11
136.5331434782835
 21
140.5500499338981
 31
0.0
  0
LINE
  5
1EC
330
E3
100
AcDbEntity
  8
Doc_ Finishes
  6
Continuous
100
AcDbLine
 10
136.5331434782835
 20
140.5500499338981
 30
0.0
 11
136.5126921825988
 21
140.2729638742026
 31
0.0
  0
LINE
  5
1ED
330
E3
100
AcDbEntity
  8
Doc_ Finishes
  6
Continuous
100
AcDbLine
 10
136.5126921825988
 20
140.2729638742026
 30
0.0
 11
136.4883476356713
 21
139.9960824980336
 31
0.0
  0
LINE
  5
1EE
330
E3
100
AcDbEntity
  8
Doc_ Finishes
  6
Continuous
100
AcDbLine
 10
136.4883476356713
 20
139.9960824980336
 30
0.0
 11
136.4601865938235
 21
139.7193972769107
 31
0.0
  0
LINE
  5
1EF
330
E3
100
AcDbEntity
  8
Doc_ Finishes
  6
Continuous
100
AcDbLine
 10
136.4601865938235
 20
139.7193972769107
 30
0.0
 11
136.4283113988186
 21
139.442908210834
 31
0.0
  0
LINE
  5
1F0
330
E3
100
AcDbEntity
  8
Doc_ Finishes
  6
Continuous
100
AcDbLine
 10
136.4283113988186
 20
139.442908210834
 30
0.0
 11
136.3928585063409
 21
139.1666067713232
 31
0.0
  0
LINE
  5
1F1
330
E3
100
AcDbEntity
  8
Doc_ Finishes
  6
Continuous
100
AcDbLine
 10
136.3928585063409
 20
139.1666067713232
 30
0.0
 11
136.3539771647951
 21
138.8904886941382
 31
0.0
  0
LINE
  5
1F2
330
E3
100
AcDbEntity
  8
Doc_ Finishes
  6
Continuous
100
AcDbLine
 10
136.3539771647951
 20
138.8904886941382
 30
0.0
 11
136.3118635292274
 21
138.6145369223185
 31
0.0
  0
LINE
  5
1F3
330
E3
100
AcDbEntity
  8
Doc_ Finishes
  6
Continuous
100
AcDbLine
 10
136.3118635292274
 20
138.6145369223185
 30
0.0
 11
136.2667180189241
 21
138.3387429273837
 31
0.0
  0
LINE
  5
1F4
330
E3
100
AcDbEntity
  8
Doc_ Finishes
  6
Continuous
100
AcDbLine
 10
136.2667180189241
 20
138.3387429273837
 30
0.0
 11
136.2187836955729
 21
138.0630939166135
 31
0.0
  0
LINE
  5
1F5
330
E3
100
AcDbEntity
  8
Doc_ Finishes
  6
Continuous
100
AcDbLine
 10
136.2187836955729
 20
138.0630939166135
 30
0.0
 11
136.1683036208615
 21
137.7875813615276
 31
0.0
  0
LINE
  5
1F6
330
E3
100
AcDbEntity
  8
Doc_ Finishes
  6
Continuous
100
AcDbLine
 10
136.1683036208615
 20
137.7875813615276
 30
0.0
 11
136.1155592346387
 21
137.5121882051655
 31
0.0
  0
LINE
  5
1F7
330
E3
100
AcDbEntity
  8
Doc_ Finishes
  6
Continuous
100
AcDbLine
 10
136.1155592346387
 20
137.5121882051655
 30
0.0
 11
136.0608362409934
 21
137.2368973905666
 31
0.0
  0
LINE
  5
1F8
330
E3
100
AcDbEntity
  8
Doc_ Finishes
  6
Continuous
100
AcDbLine
 10
136.0608362409934
 20
137.2368973905666
 30
0.0
 11
136.0044459294556
 21
136.9616918607703
 31
0.0
  0
LINE
  5
1F9
330
E3
100
AcDbEntity
  8
Doc_ Finishes
  6
Continuous
100
AcDbLine
 10
136.0044459294556
 20
136.9616918607703
 30
0.0
 11
135.9467038537952
 21
136.6865588230564
 31
0.0
  0
LINE
  5
1FA
330
E3
100
AcDbEntity
  8
Doc_ Finishes
  6
Continuous
100
AcDbLine
 10
135.9467038537952
 20
136.6865588230564
 30
0.0
 11
135.8879383605025
 21
136.4114812204642
 31
0.0
  0
LINE
  5
1FB
330
E3
100
AcDbEntity
  8
Doc_ Finishes
  6
Continuous
100
AcDbLine
 10
135.8879383605025
 20
136.4114812204642
 30
0.0
 11
135.8284863245482
 21
136.1364377317931
 31
0.0
  0
LINE
  5
1FC
330
E3
100
AcDbEntity
  8
Doc_ Finishes
  6
Continuous
100
AcDbLine
 10
135.8284863245482
 20
136.1364377317931
 30
0.0
 11
135.768688885143
 21
135.8614113000825
 31
0.0
  0
LINE
  5
1FD
330
E3
100
AcDbEntity
  8
Doc_ Finishes
  6
Continuous
100
AcDbLine
 10
135.768688885143
 20
135.8614113000825
 30
0.0
 11
135.7088914457379
 21
135.5863848683719
 31
0.0
  0
LINE
  5
1FE
330
E3
100
AcDbEntity
  8
Doc_ Finishes
  6
Continuous
100
AcDbLine
 10
135.7088914457379
 20
135.5863848683719
 30
0.0
 11
135.6494394097836
 21
135.3113413797008
 31
0.0
  0
LINE
  5
1FF
330
E3
100
AcDbEntity
  8
Doc_ Finishes
  6
Continuous
100
AcDbLine
 10
135.6494394097836
 20
135.3113413797008
 30
0.0
 11
135.5906739164909
 21
135.0362637771086
 31
0.0
  0
LINE
  5
200
330
E3
100
AcDbEntity
  8
Doc_ Finishes
  6
Continuous
100
AcDbLine
 10
135.5906739164909
 20
135.0362637771086
 30
0.0
 11
135.5329318408305
 21
134.7611307393947
 31
0.0
  0
LINE
  5
201
330
E3
100
AcDbEntity
  8
Doc_ Finishes
  6
Continuous
100
AcDbLine
 10
135.5329318408305
 20
134.7611307393947
 30
0.0
 11
135.4765372650526
 21
134.4859294738386
 31
0.0
  0
LINE
  5
202
330
E3
100
AcDbEntity
  8
Doc_ Finishes
  6
Continuous
100
AcDbLine
 10
135.4765372650526
 20
134.4859294738386
 30
0.0
 11
135.4218185356475
 21
134.2106343949995
 31
0.0
  0
LINE
  5
203
330
E3
100
AcDbEntity
  8
Doc_ Finishes
  6
Continuous
100
AcDbLine
 10
135.4218185356475
 20
134.2106343949995
 30
0.0
 11
135.3690741494247
 21
133.9352412386374
 31
0.0
  0
LINE
  5
204
330
E3
100
AcDbEntity
  8
Doc_ Finishes
  6
Continuous
100
AcDbLine
 10
135.3690741494247
 20
133.9352412386374
 30
0.0
 11
135.3185940747132
 21
133.6597286835515
 31
0.0
  0
LINE
  5
205
330
E3
100
AcDbEntity
  8
Doc_ Finishes
  6
Continuous
100
AcDbLine
 10
135.3185940747132
 20
133.6597286835515
 30
0.0
 11
135.2706554871219
 21
133.3840796727813
 31
0.0
  0
LINE
  5
206
330
E3
100
AcDbEntity
  8
Doc_ Finishes
  6
Continuous
100
AcDbLine
 10
135.2706554871219
 20
133.3840796727813
 30
0.0
 11
135.2255142410588
 21
133.1082899420867
 31
0.0
  0
LINE
  5
207
330
E3
100
AcDbEntity
  8
Doc_ Finishes
  6
Continuous
100
AcDbLine
 10
135.2255142410588
 20
133.1082899420867
 30
0.0
 11
135.1833963412509
 21
132.8323381702669
 31
0.0
  0
LINE
  5
208
330
E3
100
AcDbEntity
  8
Doc_ Finishes
  6
Continuous
100
AcDbLine
 10
135.1833963412509
 20
132.8323381702669
 30
0.0
 11
135.1445192639453
 21
132.5562158288417
 31
0.0
  0
LINE
  5
209
330
E3
100
AcDbEntity
  8
Doc_ Finishes
  6
Continuous
100
AcDbLine
 10
135.1445192639453
 20
132.5562158288417
 30
0.0
 11
135.1090621072275
 21
132.279914389331
 31
0.0
  0
LINE
  5
20A
330
E3
100
AcDbEntity
  8
Doc_ Finishes
  6
Continuous
100
AcDbLine
 10
135.1090621072275
 20
132.279914389331
 30
0.0
 11
135.0771869122225
 21
132.0034253232543
 31
0.0
  0
LINE
  5
20B
330
E3
100
AcDbEntity
  8
Doc_ Finishes
  6
Continuous
100
AcDbLine
 10
135.0771869122225
 20
132.0034253232543
 30
0.0
 11
135.0490301346148
 21
131.7267443663715
 31
0.0
  0
LINE
  5
20C
330
E3
100
AcDbEntity
  8
Doc_ Finishes
  6
Continuous
100
AcDbLine
 10
135.0490301346148
 20
131.7267443663715
 30
0.0
 11
135.0246855876874
 21
131.4498587259624
 31
0.0
  0
LINE
  5
20D
330
E3
100
AcDbEntity
  8
Doc_ Finishes
  6
Continuous
100
AcDbLine
 10
135.0246855876874
 20
131.4498587259624
 30
0.0
 11
135.0042342920026
 21
131.1727726662669
 31
0.0
  0
LINE
  5
20E
330
E3
100
AcDbEntity
  8
Doc_ Finishes
  6
Continuous
100
AcDbLine
 10
135.0042342920026
 20
131.1727726662669
 30
0.0
 11
134.9877231542021
 21
130.8954776588048
 31
0.0
  0
LINE
  5
20F
330
E3
100
AcDbEntity
  8
Doc_ Finishes
  6
Continuous
100
AcDbLine
 10
134.9877231542021
 20
130.8954776588048
 30
0.0
 11
134.9751607027661
 21
130.6179779678162
 31
0.0
  0
LINE
  5
210
330
E3
100
AcDbEntity
  8
Doc_ Finishes
  6
Continuous
100
AcDbLine
 10
136.2879752559943
 20
135.8341969195445
 30
0.0
 11
136.2714598539536
 21
135.5569019120824
 31
0.0
  0
LINE
  5
211
330
E3
100
AcDbEntity
  8
Doc_ Finishes
  6
Continuous
100
AcDbLine
 10
136.2714598539536
 20
135.5569019120824
 30
0.0
 11
136.251012822509
 21
135.2798158523869
 31
0.0
  0
LINE
  5
212
330
E3
100
AcDbEntity
  8
Doc_ Finishes
  6
Continuous
100
AcDbLine
 10
136.251012822509
 20
135.2798158523869
 30
0.0
 11
136.2266682755815
 21
135.0029344762179
 31
0.0
  0
LINE
  5
213
330
E3
100
AcDbEntity
  8
Doc_ Finishes
  6
Continuous
100
AcDbLine
 10
136.2266682755815
 20
135.0029344762179
 30
0.0
 11
136.1985072337337
 21
134.726249255095
 31
0.0
  0
LINE
  5
214
330
E3
100
AcDbEntity
  8
Doc_ Finishes
  6
Continuous
100
AcDbLine
 10
136.1985072337337
 20
134.726249255095
 30
0.0
 11
136.1666320387287
 21
134.4497601890183
 31
0.0
  0
LINE
  5
215
330
E3
100
AcDbEntity
  8
Doc_ Finishes
  6
Continuous
100
AcDbLine
 10
136.1666320387287
 20
134.4497601890183
 30
0.0
 11
136.1311791462511
 21
134.1734587495075
 31
0.0
  0
LINE
  5
216
330
E3
100
AcDbEntity
  8
Doc_ Finishes
  6
Continuous
100
AcDbLine
 10
136.1311791462511
 20
134.1734587495075
 30
0.0
 11
136.0922978047053
 21
133.8973406723225
 31
0.0
  0
LINE
  5
217
330
E3
100
AcDbEntity
  8
Doc_ Finishes
  6
Continuous
100
AcDbLine
 10
136.0922978047053
 20
133.8973406723225
 30
0.0
 11
136.0501841691376
 21
133.6213889005028
 31
0.0
  0
LINE
  5
218
330
E3
100
AcDbEntity
  8
Doc_ Finishes
  6
Continuous
100
AcDbLine
 10
136.0501841691376
 20
133.6213889005028
 30
0.0
 11
136.0050386588343
 21
133.345594905568
 31
0.0
  0
LINE
  5
219
330
E3
100
AcDbEntity
  8
Doc_ Finishes
  6
Continuous
100
AcDbLine
 10
136.0050386588343
 20
133.345594905568
 30
0.0
 11
135.957100071243
 21
133.0699458947978
 31
0.0
  0
LINE
  5
21A
330
E3
100
AcDbEntity
  8
Doc_ Finishes
  6
Continuous
100
AcDbLine
 10
135.957100071243
 20
133.0699458947978
 30
0.0
 11
135.9066242607717
 21
132.7944333397119
 31
0.0
  0
LINE
  5
21B
330
E3
100
AcDbEntity
  8
Doc_ Finishes
  6
Continuous
100
AcDbLine
 10
135.9066242607717
 20
132.7944333397119
 30
0.0
 11
135.8538798745488
 21
132.5190401833497
 31
0.0
  0
LINE
  5
21C
330
E3
100
AcDbEntity
  8
Doc_ Finishes
  6
Continuous
100
AcDbLine
 10
135.8538798745488
 20
132.5190401833497
 30
0.0
 11
135.7991568809036
 21
132.2437493687508
 31
0.0
  0
LINE
  5
21D
330
E3
100
AcDbEntity
  8
Doc_ Finishes
  6
Continuous
100
AcDbLine
 10
135.7991568809036
 20
132.2437493687508
 30
0.0
 11
135.7427665693658
 21
131.9685438389546
 31
0.0
  0
LINE
  5
21E
330
E3
100
AcDbEntity
  8
Doc_ Finishes
  6
Continuous
100
AcDbLine
 10
135.7427665693658
 20
131.9685438389546
 30
0.0
 11
135.6850244937054
 21
131.6934108012407
 31
0.0
  0
LINE
  5
21F
330
E3
100
AcDbEntity
  8
Doc_ Finishes
  6
Continuous
100
AcDbLine
 10
135.6850244937054
 20
131.6934108012407
 30
0.0
 11
135.6262590004127
 21
131.4183331986485
 31
0.0
  0
LINE
  5
220
330
E3
100
AcDbEntity
  8
Doc_ Finishes
  6
Continuous
100
AcDbLine
 10
135.6262590004127
 20
131.4183331986485
 30
0.0
 11
135.5668069644585
 21
131.1432897099774
 31
0.0
  0
LINE
  5
221
330
E3
100
AcDbEntity
  8
Doc_ Finishes
  6
Continuous
100
AcDbLine
 10
135.5668069644585
 20
131.1432897099774
 30
0.0
 11
135.5070095250533
 21
130.8682632782668
 31
0.0
  0
LINE
  5
222
330
E3
100
AcDbEntity
  8
Doc_ Finishes
  6
Continuous
100
AcDbLine
 10
135.5070095250533
 20
130.8682632782668
 30
0.0
 11
135.4472120856481
 21
130.5932368465562
 31
0.0
  0
LINE
  5
223
330
E3
100
AcDbEntity
  8
Doc_ Finishes
  6
Continuous
100
AcDbLine
 10
135.4472120856481
 20
130.5932368465562
 30
0.0
 11
135.3877600496938
 21
130.3181976221252
 31
0.0
  0
LINE
  5
224
330
E3
100
AcDbEntity
  8
Doc_ Finishes
  6
Continuous
100
AcDbLine
 10
135.3877600496938
 20
130.3181976221252
 30
0.0
 11
135.3289945564011
 21
130.0431157552929
 31
0.0
  0
LINE
  5
225
330
E3
100
AcDbEntity
  8
Doc_ Finishes
  6
Continuous
100
AcDbLine
 10
135.3289945564011
 20
130.0431157552929
 30
0.0
 11
135.2712524807407
 21
129.767982717579
 31
0.0
  0
LINE
  5
226
330
E3
100
AcDbEntity
  8
Doc_ Finishes
  6
Continuous
100
AcDbLine
 10
135.2712524807407
 20
129.767982717579
 30
0.0
 11
135.2148579049628
 21
129.4927814520229
 31
0.0
  0
LINE
  5
227
330
E3
100
AcDbEntity
  8
Doc_ Finishes
  6
Continuous
100
AcDbLine
 10
135.2148579049628
 20
129.4927814520229
 30
0.0
 11
135.1601391755577
 21
129.217490637424
 31
0.0
  0
LINE
  5
228
330
E3
100
AcDbEntity
  8
Doc_ Finishes
  6
Continuous
100
AcDbLine
 10
135.1601391755577
 20
129.217490637424
 30
0.0
 11
135.1073947893349
 21
128.9420932168217
 31
0.0
  0
LINE
  5
229
330
E3
100
AcDbEntity
  8
Doc_ Finishes
  6
Continuous
100
AcDbLine
 10
135.1073947893349
 20
128.9420932168217
 30
0.0
 11
135.0569147146234
 21
128.6665806617358
 31
0.0
  0
LINE
  5
22A
330
E3
100
AcDbEntity
  8
Doc_ Finishes
  6
Continuous
100
AcDbLine
 10
135.0569147146234
 20
128.6665806617358
 30
0.0
 11
135.0089761270321
 21
128.3909359152057
 31
0.0
  0
LINE
  5
22B
330
E3
100
AcDbEntity
  8
Doc_ Finishes
  6
Continuous
100
AcDbLine
 10
135.0089761270321
 20
128.3909359152057
 30
0.0
 11
134.963834880969
 21
128.115141920271
 31
0.0
  0
LINE
  5
22C
330
E3
100
AcDbEntity
  8
Doc_ Finishes
  6
Continuous
100
AcDbLine
 10
134.963834880969
 20
128.115141920271
 30
0.0
 11
134.9217169811611
 21
127.8391901484512
 31
0.0
  0
LINE
  5
22D
330
E3
100
AcDbEntity
  8
Doc_ Finishes
  6
Continuous
100
AcDbLine
 10
134.9217169811611
 20
127.8391901484512
 30
0.0
 11
134.8828399038555
 21
127.5630678070261
 31
0.0
  0
LINE
  5
22E
330
E3
100
AcDbEntity
  8
Doc_ Finishes
  6
Continuous
100
AcDbLine
 10
134.8828399038555
 20
127.5630678070261
 30
0.0
 11
134.8473827471377
 21
127.2867663675153
 31
0.0
  0
LINE
  5
22F
330
E3
100
AcDbEntity
  8
Doc_ Finishes
  6
Continuous
100
AcDbLine
 10
134.8473827471377
 20
127.2867663675153
 30
0.0
 11
134.8155075521327
 21
127.0102773014386
 31
0.0
  0
LINE
  5
230
330
E3
100
AcDbEntity
  8
Doc_ Finishes
  6
Continuous
100
AcDbLine
 10
134.8155075521327
 20
127.0102773014386
 30
0.0
 11
134.7873507745251
 21
126.7335963445559
 31
0.0
  0
LINE
  5
231
330
E3
100
AcDbEntity
  8
Doc_ Finishes
  6
Continuous
100
AcDbLine
 10
134.7873507745251
 20
126.7335963445559
 30
0.0
 11
134.7630062275976
 21
126.4567107041467
 31
0.0
  0
LINE
  5
232
330
E3
100
AcDbEntity
  8
Doc_ Finishes
  6
Continuous
100
AcDbLine
 10
134.7630062275976
 20
126.4567107041467
 30
0.0
 11
134.7425549319128
 21
126.1796246444512
 31
0.0
  0
LINE
  5
233
330
E3
100
AcDbEntity
  8
Doc_ Finishes
  6
Continuous
100
AcDbLine
 10
134.7425549319128
 20
126.1796246444512
 30
0.0
 11
134.7260395298721
 21
125.9023296369891
 31
0.0
  0
LINE
  5
234
330
E3
100
AcDbEntity
  8
Doc_ Finishes
  6
Continuous
100
AcDbLine
 10
134.7260395298721
 20
125.9023296369891
 30
0.0
 11
134.7134813426762
 21
125.6248299460005
 31
0.0
  0
LINE
  5
235
330
E3
100
AcDbEntity
  8
Doc_ Finishes
  6
Continuous
100
AcDbLine
 10
136.0262958959045
 20
130.8410488977288
 30
0.0
 11
136.0097804938638
 21
130.5637538902667
 31
0.0
  0
LINE
  5
236
330
E3
100
AcDbEntity
  8
Doc_ Finishes
  6
Continuous
100
AcDbLine
 10
136.0097804938638
 20
130.5637538902667
 30
0.0
 11
135.989329198179
 21
130.2866678305712
 31
0.0
  0
LINE
  5
237
330
E3
100
AcDbEntity
  8
Doc_ Finishes
  6
Continuous
100
AcDbLine
 10
135.989329198179
 20
130.2866678305712
 30
0.0
 11
135.9649889154917
 21
130.0097864544022
 31
0.0
  0
LINE
  5
238
330
E3
100
AcDbEntity
  8
Doc_ Finishes
  6
Continuous
100
AcDbLine
 10
135.9649889154917
 20
130.0097864544022
 30
0.0
 11
135.9368278736439
 21
129.7331012332793
 31
0.0
  0
LINE
  5
239
330
E3
100
AcDbEntity
  8
Doc_ Finishes
  6
Continuous
100
AcDbLine
 10
135.9368278736439
 20
129.7331012332793
 30
0.0
 11
135.9049526786389
 21
129.4566121672026
 31
0.0
  0
LINE
  5
23A
330
E3
100
AcDbEntity
  8
Doc_ Finishes
  6
Continuous
100
AcDbLine
 10
135.9049526786389
 20
129.4566121672026
 30
0.0
 11
135.8694997861612
 21
129.1803107276918
 31
0.0
  0
LINE
  5
23B
330
E3
100
AcDbEntity
  8
Doc_ Finishes
  6
Continuous
100
AcDbLine
 10
135.8694997861612
 20
129.1803107276918
 30
0.0
 11
135.8306184446155
 21
128.9041926505068
 31
0.0
  0
LINE
  5
23C
330
E3
100
AcDbEntity
  8
Doc_ Finishes
  6
Continuous
100
AcDbLine
 10
135.8306184446155
 20
128.9041926505068
 30
0.0
 11
135.7885048090478
 21
128.6282408786871
 31
0.0
  0
LINE
  5
23D
330
E3
100
AcDbEntity
  8
Doc_ Finishes
  6
Continuous
100
AcDbLine
 10
135.7885048090478
 20
128.6282408786871
 30
0.0
 11
135.7433592987445
 21
128.3524468837523
 31
0.0
  0
LINE
  5
23E
330
E3
100
AcDbEntity
  8
Doc_ Finishes
  6
Continuous
100
AcDbLine
 10
135.7433592987445
 20
128.3524468837523
 30
0.0
 11
135.6954207111532
 21
128.0767978729821
 31
0.0
  0
LINE
  5
23F
330
E3
100
AcDbEntity
  8
Doc_ Finishes
  6
Continuous
100
AcDbLine
 10
135.6954207111532
 20
128.0767978729821
 30
0.0
 11
135.6449449006818
 21
127.8012853178962
 31
0.0
  0
LINE
  5
240
330
E3
100
AcDbEntity
  8
Doc_ Finishes
  6
Continuous
100
AcDbLine
 10
135.6449449006818
 20
127.8012853178962
 30
0.0
 11
135.592200514459
 21
127.525892161534
 31
0.0
  0
LINE
  5
241
330
E3
100
AcDbEntity
  8
Doc_ Finishes
  6
Continuous
100
AcDbLine
 10
135.592200514459
 20
127.525892161534
 30
0.0
 11
135.5374775208138
 21
127.2506013469352
 31
0.0
  0
LINE
  5
242
330
E3
100
AcDbEntity
  8
Doc_ Finishes
  6
Continuous
100
AcDbLine
 10
135.5374775208138
 20
127.2506013469352
 30
0.0
 11
135.481087209276
 21
126.9753958171389
 31
0.0
  0
LINE
  5
243
330
E3
100
AcDbEntity
  8
Doc_ Finishes
  6
Continuous
100
AcDbLine
 10
135.481087209276
 20
126.9753958171389
 30
0.0
 11
135.4233451336156
 21
126.700262779425
 31
0.0
  0
LINE
  5
244
330
E3
100
AcDbEntity
  8
Doc_ Finishes
  6
Continuous
100
AcDbLine
 10
135.4233451336156
 20
126.700262779425
 30
0.0
 11
135.3645753760828
 21
126.4251851768328
 31
0.0
  0
LINE
  5
245
330
E3
100
AcDbEntity
  8
Doc_ Finishes
  6
Continuous
100
AcDbLine
 10
135.3645753760828
 20
126.4251851768328
 30
0.0
 11
135.3051233401286
 21
126.1501416881617
 31
0.0
  0
LINE
  5
246
330
E3
100
AcDbEntity
  8
Doc_ Finishes
  6
Continuous
100
AcDbLine
 10
135.3051233401286
 20
126.1501416881617
 30
0.0
 11
135.2453301649635
 21
125.8751152564511
 31
0.0
  0
LINE
  5
247
330
E3
100
AcDbEntity
  8
Doc_ Finishes
  6
Continuous
100
AcDbLine
 10
135.2453301649635
 20
125.8751152564511
 30
0.0
 11
135.1855327255583
 21
125.6000930889807
 31
0.0
  0
LINE
  5
248
330
E3
100
AcDbEntity
  8
Doc_ Finishes
  6
Continuous
100
AcDbLine
 10
135.1855327255583
 20
125.6000930889807
 30
0.0
 11
135.126080689604
 21
125.3250496003095
 31
0.0
  0
LINE
  5
249
330
E3
100
AcDbEntity
  8
Doc_ Finishes
  6
Continuous
100
AcDbLine
 10
135.126080689604
 20
125.3250496003095
 30
0.0
 11
135.0673151963113
 21
125.0499677334772
 31
0.0
  0
LINE
  5
24A
330
E3
100
AcDbEntity
  8
Doc_ Finishes
  6
Continuous
100
AcDbLine
 10
135.0673151963113
 20
125.0499677334772
 30
0.0
 11
135.0095688564108
 21
124.7748346957633
 31
0.0
  0
LINE
  5
24B
330
E3
100
AcDbEntity
  8
Doc_ Finishes
  6
Continuous
100
AcDbLine
 10
135.0095688564108
 20
124.7748346957633
 30
0.0
 11
134.953178544873
 21
124.4996334302072
 31
0.0
  0
LINE
  5
24C
330
E3
100
AcDbEntity
  8
Doc_ Finishes
  6
Continuous
100
AcDbLine
 10
134.953178544873
 20
124.4996334302072
 30
0.0
 11
134.8984598154679
 21
124.2243426156083
 31
0.0
  0
LINE
  5
24D
330
E3
100
AcDbEntity
  8
Doc_ Finishes
  6
Continuous
100
AcDbLine
 10
134.8984598154679
 20
124.2243426156083
 30
0.0
 11
134.8457111650049
 21
123.948945195006
 31
0.0
  0
LINE
  5
24E
330
E3
100
AcDbEntity
  8
Doc_ Finishes
  6
Continuous
100
AcDbLine
 10
134.8457111650049
 20
123.948945195006
 30
0.0
 11
134.7952353545336
 21
123.6734326399201
 31
0.0
  0
LINE
  5
24F
330
E3
100
AcDbEntity
  8
Doc_ Finishes
  6
Continuous
100
AcDbLine
 10
134.7952353545336
 20
123.6734326399201
 30
0.0
 11
134.7472967669423
 21
123.39778789339
 31
0.0
  0
LINE
  5
250
330
E3
100
AcDbEntity
  8
Doc_ Finishes
  6
Continuous
100
AcDbLine
 10
134.7472967669423
 20
123.39778789339
 30
0.0
 11
134.7021555208792
 21
123.1219938984552
 31
0.0
  0
LINE
  5
251
330
E3
100
AcDbEntity
  8
Doc_ Finishes
  6
Continuous
100
AcDbLine
 10
134.7021555208792
 20
123.1219938984552
 30
0.0
 11
134.6600376210714
 21
122.8460421266355
 31
0.0
  0
LINE
  5
252
330
E3
100
AcDbEntity
  8
Doc_ Finishes
  6
Continuous
100
AcDbLine
 10
134.6600376210714
 20
122.8460421266355
 30
0.0
 11
134.6211605437657
 21
122.5699197852104
 31
0.0
  0
LINE
  5
253
330
E3
100
AcDbEntity
  8
Doc_ Finishes
  6
Continuous
100
AcDbLine
 10
134.6211605437657
 20
122.5699197852104
 30
0.0
 11
134.5857033870478
 21
122.2936183456996
 31
0.0
  0
LINE
  5
254
330
E3
100
AcDbEntity
  8
Doc_ Finishes
  6
Continuous
100
AcDbLine
 10
134.5857033870478
 20
122.2936183456996
 30
0.0
 11
134.553828192043
 21
122.0171292796229
 31
0.0
  0
LINE
  5
255
330
E3
100
AcDbEntity
  8
Doc_ Finishes
  6
Continuous
100
AcDbLine
 10
136.0303682452328
 20
140.8545593218982
 30
0.0
 11
135.9705708058276
 21
140.5795328901877
 31
0.0
  0
LINE
  5
256
330
E3
100
AcDbEntity
  8
Doc_ Finishes
  6
Continuous
100
AcDbLine
 10
135.9705708058276
 20
140.5795328901877
 30
0.0
 11
135.9111187698733
 21
140.3044894015165
 31
0.0
  0
LINE
  5
257
330
E3
100
AcDbEntity
  8
Doc_ Finishes
  6
Continuous
100
AcDbLine
 10
135.9111187698733
 20
140.3044894015165
 30
0.0
 11
135.8523532765807
 21
140.0294117989243
 31
0.0
  0
LINE
  5
258
330
E3
100
AcDbEntity
  8
Doc_ Finishes
  6
Continuous
100
AcDbLine
 10
135.8523532765807
 20
140.0294117989243
 30
0.0
 11
135.7946112009203
 21
139.7542787612104
 31
0.0
  0
LINE
  5
259
330
E3
100
AcDbEntity
  8
Doc_ Finishes
  6
Continuous
100
AcDbLine
 10
135.7946112009203
 20
139.7542787612104
 30
0.0
 11
135.7382208893825
 21
139.4790732314142
 31
0.0
  0
LINE
  5
25A
330
E3
100
AcDbEntity
  8
Doc_ Finishes
  6
Continuous
100
AcDbLine
 10
135.7382208893825
 20
139.4790732314142
 30
0.0
 11
135.6834978957373
 21
139.2037824168152
 31
0.0
  0
LINE
  5
25B
330
E3
100
AcDbEntity
  8
Doc_ Finishes
  6
Continuous
100
AcDbLine
 10
135.6834978957373
 20
139.2037824168152
 30
0.0
 11
135.6307535095145
 21
138.9283892604531
 31
0.0
  0
LINE
  5
25C
330
E3
100
AcDbEntity
  8
Doc_ Finishes
  6
Continuous
100
AcDbLine
 10
135.6307535095145
 20
138.9283892604531
 30
0.0
 11
135.580273434803
 21
138.6528767053672
 31
0.0
  0
LINE
  5
25D
330
E3
100
AcDbEntity
  8
Doc_ Finishes
  6
Continuous
100
AcDbLine
 10
135.580273434803
 20
138.6528767053672
 30
0.0
 11
135.5323348472117
 21
138.377227694597
 31
0.0
  0
LINE
  5
25E
330
E3
100
AcDbEntity
  8
Doc_ Finishes
  6
Continuous
100
AcDbLine
 10
135.5323348472117
 20
138.377227694597
 30
0.0
 11
135.4871936011485
 21
138.1014379639023
 31
0.0
  0
LINE
  5
25F
330
E3
100
AcDbEntity
  8
Doc_ Finishes
  6
Continuous
100
AcDbLine
 10
135.4871936011485
 20
138.1014379639023
 30
0.0
 11
135.4450757013407
 21
137.8254861920826
 31
0.0
  0
LINE
  5
260
330
E3
100
AcDbEntity
  8
Doc_ Finishes
  6
Continuous
100
AcDbLine
 10
135.4450757013407
 20
137.8254861920826
 30
0.0
 11
135.4061986240351
 21
137.5493638506575
 31
0.0
  0
LINE
  5
261
330
E3
100
AcDbEntity
  8
Doc_ Finishes
  6
Continuous
100
AcDbLine
 10
135.4061986240351
 20
137.5493638506575
 30
0.0
 11
135.3707414673172
 21
137.2730624111467
 31
0.0
  0
LINE
  5
262
330
E3
100
AcDbEntity
  8
Doc_ Finishes
  6
Continuous
100
AcDbLine
 10
135.3707414673172
 20
137.2730624111467
 30
0.0
 11
135.3388705365525
 21
136.99657334507
 31
0.0
  0
LINE
  5
263
330
E3
100
AcDbEntity
  8
Doc_ Finishes
  6
Continuous
100
AcDbLine
 10
135.3388705365525
 20
136.99657334507
 30
0.0
 11
135.3107094947046
 21
136.7198923881873
 31
0.0
  0
LINE
  5
264
330
E3
100
AcDbEntity
  8
Doc_ Finishes
  6
Continuous
100
AcDbLine
 10
135.3107094947046
 20
136.7198923881873
 30
0.0
 11
135.2863649477771
 21
136.4430067477781
 31
0.0
  0
LINE
  5
265
330
E3
100
AcDbEntity
  8
Doc_ Finishes
  6
Continuous
100
AcDbLine
 10
135.2863649477771
 20
136.4430067477781
 30
0.0
 11
135.2659136520924
 21
136.1659206880826
 31
0.0
  0
LINE
  5
266
330
E3
100
AcDbEntity
  8
Doc_ Finishes
  6
Continuous
100
AcDbLine
 10
135.2659136520924
 20
136.1659206880826
 30
0.0
 11
135.2494025142919
 21
135.8886256806205
 31
0.0
  0
LINE
  5
267
330
E3
100
AcDbEntity
  8
Doc_ Finishes
  6
Continuous
100
AcDbLine
 10
135.2494025142919
 20
135.8886256806205
 30
0.0
 11
135.2368400628558
 21
135.6111259896319
 31
0.0
  0
LINE
  5
268
330
E3
100
AcDbEntity
  8
Doc_ Finishes
  6
Continuous
100
AcDbLine
 10
135.7646165358147
 20
125.8479008759131
 30
0.0
 11
135.748101133774
 21
125.5706101326912
 31
0.0
  0
LINE
  5
269
330
E3
100
AcDbEntity
  8
Doc_ Finishes
  6
Continuous
100
AcDbLine
 10
135.748101133774
 20
125.5706101326912
 30
0.0
 11
135.7276498380893
 21
125.2935198087555
 31
0.0
  0
LINE
  5
26A
330
E3
100
AcDbEntity
  8
Doc_ Finishes
  6
Continuous
100
AcDbLine
 10
135.7276498380893
 20
125.2935198087555
 30
0.0
 11
135.7033095554019
 21
125.0166384325865
 31
0.0
  0
LINE
  5
26B
330
E3
100
AcDbEntity
  8
Doc_ Finishes
  6
Continuous
100
AcDbLine
 10
135.7033095554019
 20
125.0166384325865
 30
0.0
 11
135.6751485135541
 21
124.7399532114636
 31
0.0
  0
LINE
  5
26C
330
E3
100
AcDbEntity
  8
Doc_ Finishes
  6
Continuous
100
AcDbLine
 10
135.6751485135541
 20
124.7399532114636
 30
0.0
 11
135.6432733185492
 21
124.4634641453869
 31
0.0
  0
LINE
  5
26D
330
E3
100
AcDbEntity
  8
Doc_ Finishes
  6
Continuous
100
AcDbLine
 10
135.6432733185492
 20
124.4634641453869
 30
0.0
 11
135.6078161618313
 21
124.1871669701163
 31
0.0
  0
LINE
  5
26E
330
E3
100
AcDbEntity
  8
Doc_ Finishes
  6
Continuous
100
AcDbLine
 10
135.6078161618313
 20
124.1871669701163
 30
0.0
 11
135.5689390845257
 21
123.9110446286911
 31
0.0
  0
LINE
  5
26F
330
E3
100
AcDbEntity
  8
Doc_ Finishes
  6
Continuous
100
AcDbLine
 10
135.5689390845257
 20
123.9110446286911
 30
0.0
 11
135.526825448958
 21
123.6350928568714
 31
0.0
  0
LINE
  5
270
330
E3
100
AcDbEntity
  8
Doc_ Finishes
  6
Continuous
100
AcDbLine
 10
135.526825448958
 20
123.6350928568714
 30
0.0
 11
135.4816799386547
 21
123.3592988619366
 31
0.0
  0
LINE
  5
271
330
E3
100
AcDbEntity
  8
Doc_ Finishes
  6
Continuous
100
AcDbLine
 10
135.4816799386547
 20
123.3592988619366
 30
0.0
 11
135.4337413510634
 21
123.0836541154065
 31
0.0
  0
LINE
  5
272
330
E3
100
AcDbEntity
  8
Doc_ Finishes
  6
Continuous
100
AcDbLine
 10
135.4337413510634
 20
123.0836541154065
 30
0.0
 11
135.383265540592
 21
122.8081372960805
 31
0.0
  0
LINE
  5
273
330
E3
100
AcDbEntity
  8
Doc_ Finishes
  6
Continuous
100
AcDbLine
 10
135.383265540592
 20
122.8081372960805
 30
0.0
 11
135.3305211543692
 21
122.5327441397183
 31
0.0
  0
LINE
  5
274
330
E3
100
AcDbEntity
  8
Doc_ Finishes
  6
Continuous
100
AcDbLine
 10
135.3305211543692
 20
122.5327441397183
 30
0.0
 11
135.275798160724
 21
122.2574533251194
 31
0.0
  0
LINE
  5
275
330
E3
100
AcDbEntity
  8
Doc_ Finishes
  6
Continuous
100
AcDbLine
 10
135.275798160724
 20
122.2574533251194
 30
0.0
 11
135.2194078491862
 21
121.9822477953232
 31
0.0
  0
HATCH
  5
276
330
E3
100
AcDbEntity
  8
Doc_ Finishes
  6
Continuous
 62
   255
370
     0
100
AcDbHatch
 10
0.0
 20
0.0
 30
0.0
210
0.0
220
0.0
230
1.0
  2
SOLID
 70
     1
 71
     0
 91
        1
 92
        3
 72
     0
 73
     1
 93
        8
 10
184.148473385976
 20
84.0249163843015
 10
178.0786899162932
 20
82.69340909206824
 10
190.0089091107533
 20
81.36190179983497
 10
183.9391256410705
 20
80.0303945076017
 10
180.954022417271
 20
23.07118031631089
 10
291.287215878436
 20
23.07118031631089
 10
291.287215878436
 20
144.1998662785843
 10
187.3021091717533
 20
144.1998662785843
 97
        0
 75
     0
 76
     1
 98
        0
  0
LINE
  5
277
330
E3
100
AcDbEntity
  8
Doc_ Finishes
  6
Continuous
100
AcDbLine
 10
180.9540229270315
 20
23.0711805907793
 30
0.0
 11
183.9391274768209
 21
80.03039719761517
 31
0.0
  0
LINE
  5
278
330
E3
100
AcDbEntity
  8
Doc_ Finishes
  6
Continuous
100
AcDbLine
 10
184.1484718177408
 20
84.02491591578729
 30
0.0
 11
187.3021076661234
 21
144.1998642358434
 31
0.0
  0
LINE
  5
279
330
E3
100
AcDbEntity
  8
Doc_ Finishes
  6
Continuous
100
AcDbLine
 10
184.1484718177408
 20
84.02491591578729
 30
0.0
 11
178.0786884467827
 21
82.69340693380967
 31
0.0
  0
LINE
  5
27A
330
E3
100
AcDbEntity
  8
Doc_ Finishes
  6
Continuous
100
AcDbLine
 10
178.0786884467827
 20
82.69340693380967
 30
0.0
 11
190.008910847779
 21
81.3619022160722
 31
0.0
  0
LINE
  5
27B
330
E3
100
AcDbEntity
  8
Doc_ Finishes
  6
Continuous
100
AcDbLine
 10
190.008910847779
 20
81.3619022160722
 30
0.0
 11
183.9391274768209
 21
80.03039749833472
 31
0.0
  0
HATCH
  5
27C
330
E3
100
AcDbEntity
  8
Doc_ Finishes
  6
Continuous
 62
   255
370
     0
100
AcDbHatch
 10
0.0
 20
0.0
 30
0.0
210
0.0
220
0.0
230
1.0
  2
SOLID
 70
     1
 71
     0
 91
        1
 92
        3
 72
     0
 73
     1
 93
        6
 10
61.91707930632401
 20
97.42558059510542
 10
55.51496989847959
 20
97.09006025831324
 10
55.39384432043011
 20
96.95553667546564
 10
55.50605261061495
 20
94.81447495295181
 10
55.64057619346264
 20
94.69334937490237
 10
62.04268560130705
 20
95.02886971169444
 97
        0
 75
     0
 76
     1
 98
        0
  0
LINE
  5
27D
330
E3
100
AcDbEntity
  8
Doc_ Finishes
  6
Continuous
100
AcDbLine
 10
61.91707729583171
 20
97.42558050658126
 30
0.0
 11
55.51496889847663
 21
97.09006156432358
 31
0.0
  0
LINE
  5
27E
330
E3
100
AcDbEntity
  8
Doc_ Finishes
  6
Continuous
100
AcDbLine
 10
55.51496889847663
 20
97.09006156432358
 30
0.0
 11
55.39384315745797
 21
96.95553758080253
 31
0.0
  0
LINE
  5
27F
330
E3
100
AcDbEntity
  8
Doc_ Finishes
  6
Continuous
100
AcDbLine
 10
55.39384315745797
 20
96.95553758080253
 30
0.0
 11
55.50605237235553
 21
94.81447540202267
 31
0.0
  0
LINE
  5
280
330
E3
100
AcDbEntity
  8
Doc_ Finishes
  6
Continuous
100
AcDbLine
 10
55.50605237235553
 20
94.81447540202267
 30
0.0
 11
55.64057635587657
 21
94.693349661004
 31
0.0
  0
LINE
  5
281
330
E3
100
AcDbEntity
  8
Doc_ Finishes
  6
Continuous
100
AcDbLine
 10
55.64057635587657
 20
94.693349661004
 30
0.0
 11
62.04268475323165
 21
95.0288686032617
 31
0.0
  0
LINE
  5
282
330
E3
100
AcDbEntity
  8
Doc_ Finishes
  6
Continuous
100
AcDbLine
 10
62.04268475323165
 20
95.0288686032617
 30
0.0
 11
61.91707729583171
 21
97.42558050658126
 31
0.0
  0
LINE
  5
283
330
E3
100
AcDbEntity
  8
Doc_ Finishes
  6
Continuous
100
AcDbLine
 10
55.51496889847663
 20
97.09006156432358
 30
0.0
 11
55.64057635587657
 21
94.693349661004
 31
0.0
  0
LINE
  5
284
330
E3
100
AcDbEntity
  8
Doc_ Finishes
  6
Continuous
100
AcDbLine
 10
61.37892166238562
 20
97.39737682233209
 30
0.0
 11
61.50452911978557
 21
95.00066491901254
 31
0.0
  0
LINE
  5
285
330
E3
100
AcDbEntity
  8
Doc_ Finishes
  6
Continuous
100
AcDbLine
 10
61.25779592136697
 20
97.26285283881106
 30
0.0
 11
61.37000513626452
 21
95.12179066003118
 31
0.0
  0
LINE
  5
286
330
E3
100
AcDbEntity
  8
Doc_ Finishes
  6
Continuous
100
AcDbLine
 10
61.25779592136697
 20
97.26285283881106
 30
0.0
 11
61.37892166238562
 21
97.39737682233209
 31
0.0
  0
LINE
  5
287
330
E3
100
AcDbEntity
  8
Doc_ Finishes
  6
Continuous
100
AcDbLine
 10
61.37000513626452
 20
95.12179066003118
 30
0.0
 11
61.50452911978557
 21
95.00066491901254
 31
0.0
  0
LINE
  5
288
330
E3
100
AcDbEntity
  8
Doc_ Finishes
  6
Continuous
100
AcDbLine
 10
61.25779592136697
 20
97.26285283881106
 30
0.0
 11
55.39384315745797
 21
96.95553758080253
 31
0.0
  0
LINE
  5
289
330
E3
100
AcDbEntity
  8
Doc_ Finishes
  6
Continuous
100
AcDbLine
 10
61.37000513626452
 20
95.12179066003118
 30
0.0
 11
55.50605237235553
 21
94.81447540202267
 31
0.0
  0
HATCH
  5
28A
330
E3
100
AcDbEntity
  8
Doc_ Finishes
  6
Continuous
 62
   255
370
     0
100
AcDbHatch
 10
0.0
 20
0.0
 30
0.0
210
0.0
220
0.0
230
1.0
  2
SOLID
 70
     1
 71
     0
 91
        1
 92
        3
 72
     0
 73
     1
 93
        4
 10
63.55941043769531
 20
94.74901970484395
 10
63.39624307419947
 20
97.86243847068476
 10
61.89829877206761
 20
97.78393453632039
 10
62.06146613556343
 20
94.67051577047947
 97
        0
 75
     0
 76
     1
 98
        0
  0
HATCH
  5
28B
330
E3
100
AcDbEntity
  8
Doc_ Finishes
  6
Continuous
 62
   255
370
     0
100
AcDbHatch
 10
0.0
 20
0.0
 30
0.0
210
0.0
220
0.0
230
1.0
  2
SOLID
 70
     1
 71
     0
 91
        1
 92
        3
 72
     1
 73
     1
 93
        4
 10
63.28255849342403
 20
95.25483884342323
 42
0.2405626121623441
 10
63.17378025109346
 20
97.33045135398388
 42
0.0
 10
61.92549333265026
 20
97.26503140868026
 42
0.0
 10
62.0342715749808
 20
95.1894188981196
 42
0.0
 97
        0
 75
     0
 76
     1
 98
        0
  0
ARC
  5
28C
330
E3
100
AcDbEntity
  8
Doc_ Finishes
  6
Continuous
100
AcDbCircle
 10
61.1959582690331
 20
96.18614142774916
 30
0.0
 40
2.285000000000096
100
AcDbArc
 50
335.9475818795685
 51
30.05241812043135
  0
LINE
  5
28D
330
E3
100
AcDbEntity
  8
Doc_ Finishes
  6
Continuous
100
AcDbLine
 10
63.1737787131309
 20
97.33044957342213
 30
0.0
 11
61.92549490585708
 21
97.26503186551975
 31
0.0
  0
LINE
  5
28E
330
E3
100
AcDbEntity
  8
Doc_ Finishes
  6
Continuous
100
AcDbLine
 10
61.92549490585708
 20
97.26503186551975
 30
0.0
 11
62.0342714074464
 21
95.1894172443232
 31
0.0
  0
LINE
  5
28F
330
E3
100
AcDbEntity
  8
Doc_ Finishes
  6
Continuous
100
AcDbLine
 10
62.0342714074464
 20
95.1894172443232
 30
0.0
 11
63.28255947896036
 21
95.25483921646573
 31
0.0
  0
HATCH
  5
290
330
E3
100
AcDbEntity
  8
Doc_ Finishes
  6
Continuous
 62
   255
370
     0
100
AcDbHatch
 10
0.0
 20
0.0
 30
0.0
210
0.0
220
0.0
230
1.0
  2
SOLID
 70
     1
 71
     0
 91
        1
 92
        3
 72
     1
 73
     1
 93
        4
 10
63.3369476145893
 20
94.21703258814307
 42
0.4811252243246882
 10
63.28255849342403
 20
95.25483884342323
 42
0.0
 10
62.0342715749808
 20
95.1894188981196
 42
0.0
 10
62.08866069614608
 20
94.15161264283934
 42
0.0
 97
        0
 75
     0
 76
     1
 98
        0
  0
ARC
  5
291
330
E3
100
AcDbEntity
  8
Doc_ Finishes
  6
Continuous
100
AcDbCircle
 10
62.89532179708355
 20
94.71421629394233
 30
0.0
 40
0.66499999999993
100
AcDbArc
 50
311.6132381910028
 51
54.38676180899628
  0
LINE
  5
292
330
E3
100
AcDbEntity
  8
Doc_ Finishes
  6
Continuous
100
AcDbLine
 10
63.28255947896036
 20
95.25483921646573
 30
0.0
 11
62.0342714074464
 21
95.1894172443232
 31
0.0
  0
LINE
  5
293
330
E3
100
AcDbEntity
  8
Doc_ Finishes
  6
Continuous
100
AcDbLine
 10
62.0342714074464
 20
95.1894172443232
 30
0.0
 11
62.08866179036114
 21
94.15161206584499
 31
0.0
  0
LINE
  5
294
330
E3
100
AcDbEntity
  8
Doc_ Finishes
  6
Continuous
100
AcDbLine
 10
62.08866179036114
 20
94.15161206584499
 30
0.0
 11
63.33694559763496
 21
94.21703403798752
 31
0.0
  0
HATCH
  5
295
330
E3
100
AcDbEntity
  8
Doc_ Finishes
  6
Continuous
 62
   255
370
     0
100
AcDbHatch
 10
0.0
 20
0.0
 30
0.0
210
0.0
220
0.0
230
1.0
  2
SOLID
 70
     1
 71
     0
 91
        1
 92
        3
 72
     1
 73
     1
 93
        4
 10
63.11939112992819
 20
98.36825760926415
 42
0.0
 10
61.87110421148498
 20
98.30283766396042
 42
0.0
 10
61.92549333265026
 20
97.26503140868026
 42
0.0
 10
63.17378025109346
 20
97.33045135398388
 42
0.4811252243246882
 97
        0
 75
     0
 76
     1
 98
        0
  0
LINE
  5
296
330
E3
100
AcDbEntity
  8
Doc_ Finishes
  6
Continuous
100
AcDbLine
 10
61.87110452294235
 20
98.30283704399795
 30
0.0
 11
63.11939259445631
 21
98.36825901614047
 31
0.0
  0
LINE
  5
297
330
E3
100
AcDbEntity
  8
Doc_ Finishes
  6
Continuous
100
AcDbLine
 10
61.92549490585708
 20
97.26503186551975
 30
0.0
 11
61.87110452294235
 21
98.30283704399795
 31
0.0
  0
LINE
  5
298
330
E3
100
AcDbEntity
  8
Doc_ Finishes
  6
Continuous
100
AcDbLine
 10
63.1737787131309
 20
97.33044957342213
 30
0.0
 11
61.92549490585708
 21
97.26503186551975
 31
0.0
  0
ARC
  5
299
330
E3
100
AcDbEntity
  8
Doc_ Finishes
  6
Continuous
100
AcDbCircle
 10
62.73215443358768
 20
97.8276350597832
 30
0.0
 40
0.6649999999999991
100
AcDbArc
 50
311.6132381910023
 51
54.38676180899614
  0
HATCH
  5
29A
330
E3
100
AcDbEntity
  8
Doc_ Finishes
  6
Continuous
 62
   255
370
     0
100
AcDbHatch
 10
0.0
 20
0.0
 30
0.0
210
0.0
220
0.0
230
1.0
  2
SOLID
 70
     1
 71
     0
 91
        1
 92
        3
 72
     0
 73
     1
 93
        4
 10
58.80703702126545
 20
94.49995836776515
 10
58.64386965776962
 20
97.61337713360585
 10
56.56672022548011
 20
97.50451834462059
 10
56.72988758897593
 20
94.39109957877977
 97
        0
 75
     0
 76
     1
 98
        0
  0
HATCH
  5
29B
330
E3
100
AcDbEntity
  8
Doc_ Finishes
  6
Continuous
 62
   255
370
     0
100
AcDbHatch
 10
0.0
 20
0.0
 30
0.0
210
0.0
220
0.0
230
1.0
  2
SOLID
 70
     1
 71
     0
 91
        1
 92
        3
 72
     1
 73
     1
 93
        4
 10
58.43365088863456
 20
95.00071836390767
 42
0.3335801555317839
 10
58.32487264630401
 20
97.07633087446833
 42
0.0
 10
56.940106358111
 20
97.00375834847796
 42
0.3335801555317839
 10
57.04888460044155
 20
94.92814583791753
 42
0.0
 97
        0
 75
     0
 76
     1
 98
        0
  0
ARC
  5
29C
330
E3
100
AcDbEntity
  8
Doc_ Finishes
  6
Continuous
100
AcDbCircle
 10
56.9968000089718
 20
95.96607286848143
 30
0.0
 40
1.731025641025727
100
AcDbArc
 50
326.1046488728483
 51
39.89535112714953
  0
LINE
  5
29D
330
E3
100
AcDbEntity
  8
Doc_ Finishes
  6
Continuous
100
AcDbLine
 10
58.32487287810262
 20
97.07633071109069
 30
0.0
 11
56.94010780108605
 21
97.00375760824274
 31
0.0
  0
ARC
  5
29E
330
E3
100
AcDbEntity
  8
Doc_ Finishes
  6
Continuous
100
AcDbCircle
 10
58.37695723777362
 20
96.0384038439043
 30
0.0
 40
1.731025641025544
100
AcDbArc
 50
146.1046488728487
 51
219.8953511271498
  0
LINE
  5
29F
330
E3
100
AcDbEntity
  8
Doc_ Finishes
  6
Continuous
100
AcDbLine
 10
57.04888430267537
 20
94.92814725128632
 30
0.0
 11
58.43364937969196
 21
95.00072035413427
 31
0.0
  0
HATCH
  5
2A0
330
E3
100
AcDbEntity
  8
Doc_ Finishes
  6
Continuous
 62
   255
370
     0
100
AcDbHatch
 10
0.0
 20
0.0
 30
0.0
210
0.0
220
0.0
230
1.0
  2
SOLID
 70
     1
 71
     0
 91
        1
 92
        3
 72
     1
 73
     1
 93
        4
 10
58.48804000979985
 20
93.96291210862739
 42
0.6671603110635675
 10
58.43365088863456
 20
95.00071836390767
 42
0.0
 10
57.04888460044155
 20
94.92814583791753
 42
0.6671603110635675
 10
57.10327372160683
 20
93.89033958263727
 42
0.0
 97
        0
 75
     0
 76
     1
 98
        0
  0
ARC
  5
2A1
330
E3
100
AcDbEntity
  8
Doc_ Finishes
  6
Continuous
100
AcDbCircle
 10
58.24505184911094
 20
94.47050597290246
 30
0.0
 40
0.5627564102564045
100
AcDbArc
 50
295.5807117678017
 51
70.41928823219868
  0
LINE
  5
2A2
330
E3
100
AcDbEntity
  8
Doc_ Finishes
  6
Continuous
100
AcDbLine
 10
58.43364937969196
 20
95.00072035413427
 30
0.0
 11
57.04888430267537
 21
94.92814725128632
 31
0.0
  0
ARC
  5
2A3
330
E3
100
AcDbEntity
  8
Doc_ Finishes
  6
Continuous
100
AcDbCircle
 10
57.29187276113045
 20
94.42055197364245
 30
0.0
 40
0.562756410256414
100
AcDbArc
 50
115.5807117678005
 51
250.4192882321975
  0
LINE
  5
2A4
330
E3
100
AcDbEntity
  8
Doc_ Finishes
  6
Continuous
100
AcDbLine
 10
57.1032746855901
 20
93.89033780856798
 30
0.0
 11
58.48803976260668
 21
93.96291091141595
 31
0.0
  0
HATCH
  5
2A5
330
E3
100
AcDbEntity
  8
Doc_ Finishes
  6
Continuous
 62
   255
370
     0
100
AcDbHatch
 10
0.0
 20
0.0
 30
0.0
210
0.0
220
0.0
230
1.0
  2
SOLID
 70
     1
 71
     0
 91
        1
 92
        3
 72
     1
 73
     1
 93
        4
 10
58.27048352513874
 20
98.11413712974849
 42
0.0
 10
56.88571723694572
 20
98.04156460375835
 42
0.6671603110635675
 10
56.940106358111
 20
97.00375834847796
 42
0.0
 10
58.32487264630401
 20
97.07633087446833
 42
0.6671603110635675
 97
        0
 75
     0
 76
     1
 98
        0
  0
LINE
  5
2A6
330
E3
100
AcDbEntity
  8
Doc_ Finishes
  6
Continuous
100
AcDbLine
 10
56.88571741817132
 20
98.04156278672092
 30
0.0
 11
58.2704824951879
 21
98.11413588956889
 31
0.0
  0
ARC
  5
2A7
330
E3
100
AcDbEntity
  8
Doc_ Finishes
  6
Continuous
100
AcDbCircle
 10
57.12870539763464
 20
97.53397073948322
 30
0.0
 40
0.5627564102564635
100
AcDbArc
 50
115.5807117678012
 51
250.4192882321986
  0
LINE
  5
2A8
330
E3
100
AcDbEntity
  8
Doc_ Finishes
  6
Continuous
100
AcDbLine
 10
58.32487287810262
 20
97.07633071109069
 30
0.0
 11
56.94010780108605
 21
97.00375760824274
 31
0.0
  0
ARC
  5
2A9
330
E3
100
AcDbEntity
  8
Doc_ Finishes
  6
Continuous
100
AcDbCircle
 10
58.08188448561514
 20
97.58392473874335
 30
0.0
 40
0.5627564102563519
100
AcDbArc
 50
295.5807117678004
 51
70.41928823219831
  0
HATCH
  5
2AA
330
E3
100
AcDbEntity
  8
Doc_ Finishes
  6
Continuous
 62
   255
370
     0
100
AcDbHatch
 10
0.0
 20
0.0
 30
0.0
210
0.0
220
0.0
230
1.0
  2
SOLID
 70
     1
 71
     0
 91
        1
 92
        3
 72
     0
 73
     1
 93
        4
 10
61.44959074930637
 20
98.70286460778921
 10
61.71127053052103
 20
93.70971693401631
 10
62.11072234442286
 20
93.73065131651347
 10
61.84904256320819
 20
98.72379899028638
 97
        0
 75
     0
 76
     1
 98
        0
  0
LINE
  5
2AB
330
E3
100
AcDbEntity
  8
Doc_ Finishes
  6
Continuous
100
AcDbLine
 10
61.44958864989349
 20
98.70286541100938
 30
0.0
 11
61.71127227422342
 21
93.70971738919367
 31
0.0
  0
LINE
  5
2AC
330
E3
100
AcDbEntity
  8
Doc_ Finishes
  6
Continuous
100
AcDbLine
 10
61.71127227422342
 20
93.70971738919367
 30
0.0
 11
62.11072070457657
 21
93.73065054401363
 31
0.0
  0
LINE
  5
2AD
330
E3
100
AcDbEntity
  8
Doc_ Finishes
  6
Continuous
100
AcDbLine
 10
62.11072070457657
 20
93.73065054401363
 30
0.0
 11
61.84904134448678
 21
98.72379856582931
 31
0.0
  0
LINE
  5
2AE
330
E3
100
AcDbEntity
  8
Doc_ Finishes
  6
Continuous
100
AcDbLine
 10
61.84904134448678
 20
98.72379856582931
 30
0.0
 11
61.44958864989349
 21
98.70286541100938
 31
0.0
  0
HATCH
  5
2AF
330
E3
100
AcDbEntity
  8
Doc_ Finishes
  6
Continuous
 62
   255
370
     0
100
AcDbHatch
 10
0.0
 20
0.0
 30
0.0
210
0.0
220
0.0
230
1.0
  2
SOLID
 70
     1
 71
     0
 91
        1
 92
        3
 72
     0
 73
     1
 93
        4
 10
58.99406526281204
 20
98.57417597006912
 10
58.5946134489102
 20
98.55324158757183
 10
58.85629323012487
 20
93.56009391379916
 10
59.2557450440267
 20
93.58102829629632
 97
        0
 75
     0
 76
     1
 98
        0
  0
LINE
  5
2B0
330
E3
100
AcDbEntity
  8
Doc_ Finishes
  6
Continuous
100
AcDbLine
 10
58.99406434663979
 20
98.57417490799224
 30
0.0
 11
58.5946116520465
 21
98.5532417531723
 31
0.0
  0
LINE
  5
2B1
330
E3
100
AcDbEntity
  8
Doc_ Finishes
  6
Continuous
100
AcDbLine
 10
58.5946116520465
 20
98.5532417531723
 30
0.0
 11
58.85629527637643
 21
93.56009373135659
 31
0.0
  0
LINE
  5
2B2
330
E3
100
AcDbEntity
  8
Doc_ Finishes
  6
Continuous
100
AcDbLine
 10
58.85629527637643
 20
93.56009373135659
 30
0.0
 11
59.25574370672958
 21
93.58102688617653
 31
0.0
  0
LINE
  5
2B3
330
E3
100
AcDbEntity
  8
Doc_ Finishes
  6
Continuous
100
AcDbLine
 10
59.25574370672958
 20
93.58102688617653
 30
0.0
 11
58.99406434663979
 21
98.57417490799224
 31
0.0
  0
LINE
  5
2B4
330
E3
100
AcDbEntity
  8
Doc_ Finishes
  6
Continuous
100
AcDbLine
 10
63.55941100544848
 20
94.74901931595907
 30
0.0
 11
63.39624412094442
 21
97.86243911563382
 31
0.0
  0
LINE
  5
2B5
330
E3
100
AcDbEntity
  8
Doc_ Finishes
  6
Continuous
100
AcDbLine
 10
61.89829758227965
 20
97.78393445475886
 30
0.0
 11
62.0614644667837
 21
94.67051465508409
 31
0.0
  0
LINE
  5
2B6
330
E3
100
AcDbEntity
  8
Doc_ Finishes
  6
Continuous
100
AcDbLine
 10
58.80703903858357
 20
94.49995784242707
 30
0.0
 11
58.64386788983938
 21
97.61337764210182
 31
0.0
  0
LINE
  5
2B7
330
E3
100
AcDbEntity
  8
Doc_ Finishes
  6
Continuous
100
AcDbLine
 10
56.56671814219444
 20
97.50452011994993
 30
0.0
 11
56.72988929093862
 21
94.39110032027519
 31
0.0
  0
LINE
  5
2B8
330
E3
100
AcDbEntity
  8
Doc_ Finishes
  6
Dot & Dashed
100
AcDbLine
 10
65.1754983170378
 20
96.39470045408139
 30
0.0
 11
53.85214125077375
 21
95.80126747577259
 31
0.0
  0
HATCH
  5
2B9
330
E3
100
AcDbEntity
  8
Doc_ Finishes
  6
Continuous
 62
   255
370
     0
100
AcDbHatch
 10
0.0
 20
0.0
 30
0.0
210
0.0
220
0.0
230
1.0
  2
SOLID
 70
     1
 71
     0
 91
        1
 92
        3
 72
     0
 73
     1
 93
        6
 10
60.53316977794851
 20
123.8321474694872
 10
54.13106037010409
 20
123.4966271326951
 10
54.0099347920546
 20
123.3621035498474
 10
54.12214308223945
 20
121.2210418273336
 10
54.25666666508713
 20
121.0999162492842
 10
60.65877607293154
 20
121.4354365860762
 97
        0
 75
     0
 76
     1
 98
        0
  0
LINE
  5
2BA
330
E3
100
AcDbEntity
  8
Doc_ Finishes
  6
Continuous
100
AcDbLine
 10
60.53316933108214
 20
123.8321476577238
 30
0.0
 11
54.13106093372707
 21
123.4966287154661
 31
0.0
  0
LINE
  5
2BB
330
E3
100
AcDbEntity
  8
Doc_ Finishes
  6
Continuous
100
AcDbLine
 10
54.13106093372707
 20
123.4966287154661
 30
0.0
 11
54.00993519270841
 21
123.3621047319451
 31
0.0
  0
LINE
  5
2BC
330
E3
100
AcDbEntity
  8
Doc_ Finishes
  6
Continuous
100
AcDbLine
 10
54.00993519270841
 20
123.3621047319451
 30
0.0
 11
54.12214440760596
 21
121.2210425531652
 31
0.0
  0
LINE
  5
2BD
330
E3
100
AcDbEntity
  8
Doc_ Finishes
  6
Continuous
100
AcDbLine
 10
54.12214440760596
 20
121.2210425531652
 30
0.0
 11
54.25666839112701
 21
121.0999168121465
 31
0.0
  0
LINE
  5
2BE
330
E3
100
AcDbEntity
  8
Doc_ Finishes
  6
Continuous
100
AcDbLine
 10
54.25666839112701
 20
121.0999168121465
 30
0.0
 11
60.65877678848209
 21
121.4354357544042
 31
0.0
  0
LINE
  5
2BF
330
E3
100
AcDbEntity
  8
Doc_ Finishes
  6
Continuous
100
AcDbLine
 10
60.65877678848209
 20
121.4354357544042
 30
0.0
 11
60.53316933108214
 21
123.8321476577238
 31
0.0
  0
LINE
  5
2C0
330
E3
100
AcDbEntity
  8
Doc_ Finishes
  6
Continuous
100
AcDbLine
 10
54.13106093372707
 20
123.4966287154661
 30
0.0
 11
54.25666839112701
 21
121.0999168121465
 31
0.0
  0
LINE
  5
2C1
330
E3
100
AcDbEntity
  8
Doc_ Finishes
  6
Continuous
100
AcDbLine
 10
59.99501369763607
 20
123.8039439734746
 30
0.0
 11
60.12062115503601
 21
121.4072320701551
 31
0.0
  0
LINE
  5
2C2
330
E3
100
AcDbEntity
  8
Doc_ Finishes
  6
Continuous
100
AcDbLine
 10
59.87388795661741
 20
123.6694199899536
 30
0.0
 11
59.98609717151496
 21
121.5283578111737
 31
0.0
  0
LINE
  5
2C3
330
E3
100
AcDbEntity
  8
Doc_ Finishes
  6
Continuous
100
AcDbLine
 10
59.87388795661741
 20
123.6694199899536
 30
0.0
 11
59.99501369763607
 21
123.8039439734746
 31
0.0
  0
LINE
  5
2C4
330
E3
100
AcDbEntity
  8
Doc_ Finishes
  6
Continuous
100
AcDbLine
 10
59.98609717151496
 20
121.5283578111737
 30
0.0
 11
60.12062115503601
 21
121.4072320701551
 31
0.0
  0
LINE
  5
2C5
330
E3
100
AcDbEntity
  8
Doc_ Finishes
  6
Continuous
100
AcDbLine
 10
59.87388795661741
 20
123.6694199899536
 30
0.0
 11
54.00993519270841
 21
123.3621047319451
 31
0.0
  0
LINE
  5
2C6
330
E3
100
AcDbEntity
  8
Doc_ Finishes
  6
Continuous
100
AcDbLine
 10
59.98609717151496
 20
121.5283578111737
 30
0.0
 11
54.12214440760596
 21
121.2210425531652
 31
0.0
  0
HATCH
  5
2C7
330
E3
100
AcDbEntity
  8
Doc_ Finishes
  6
Continuous
 62
   255
370
     0
100
AcDbHatch
 10
0.0
 20
0.0
 30
0.0
210
0.0
220
0.0
230
1.0
  2
SOLID
 70
     1
 71
     0
 91
        1
 92
        3
 72
     0
 73
     1
 93
        4
 10
62.17550090931981
 20
121.1555865792258
 10
62.01233354582397
 20
124.2690053450666
 10
60.51438924369209
 20
124.1905014107022
 10
60.67755660718793
 20
121.0770826448613
 97
        0
 75
     0
 76
     1
 98
        0
  0
HATCH
  5
2C8
330
E3
100
AcDbEntity
  8
Doc_ Finishes
  6
Continuous
 62
   255
370
     0
100
AcDbHatch
 10
0.0
 20
0.0
 30
0.0
210
0.0
220
0.0
230
1.0
  2
SOLID
 70
     1
 71
     0
 91
        1
 92
        3
 72
     1
 73
     1
 93
        4
 10
61.89864896504852
 20
121.661405717805
 42
0.2405626121623441
 10
61.78987072271796
 20
123.7370182283657
 42
0.0
 10
60.54158380427474
 20
123.6715982830621
 42
0.0
 10
60.6503620466053
 20
121.5959857725014
 42
0.0
 97
        0
 75
     0
 76
     1
 98
        0
  0
ARC
  5
2C9
330
E3
100
AcDbEntity
  8
Doc_ Finishes
  6
Continuous
100
AcDbCircle
 10
59.81204874065758
 20
122.592708302131
 30
0.0
 40
2.285000000000107
100
AcDbArc
 50
335.9475818795678
 51
30.05241812043058
  0
LINE
  5
2CA
330
E3
100
AcDbEntity
  8
Doc_ Finishes
  6
Continuous
100
AcDbLine
 10
61.78987074838135
 20
123.7370167245647
 30
0.0
 11
60.54158267686739
 21
123.6715990166623
 31
0.0
  0
LINE
  5
2CB
330
E3
100
AcDbEntity
  8
Doc_ Finishes
  6
Continuous
100
AcDbLine
 10
60.54158267686739
 20
123.6715990166623
 30
0.0
 11
60.65036344269685
 21
121.5959843954657
 31
0.0
  0
LINE
  5
2CC
330
E3
100
AcDbEntity
  8
Doc_ Finishes
  6
Continuous
100
AcDbLine
 10
60.65036344269685
 20
121.5959843954657
 30
0.0
 11
61.89864724997068
 21
121.6614063676083
 31
0.0
  0
HATCH
  5
2CD
330
E3
100
AcDbEntity
  8
Doc_ Finishes
  6
Continuous
 62
   255
370
     0
100
AcDbHatch
 10
0.0
 20
0.0
 30
0.0
210
0.0
220
0.0
230
1.0
  2
SOLID
 70
     1
 71
     0
 91
        1
 92
        3
 72
     1
 73
     1
 93
        4
 10
61.9530380862138
 20
120.6235994625249
 42
0.4811252243246882
 10
61.89864896504852
 20
121.661405717805
 42
0.0
 10
60.6503620466053
 20
121.5959857725014
 42
0.0
 10
60.70475116777057
 20
120.5581795172211
 42
0.0
 97
        0
 75
     0
 76
     1
 98
        0
  0
ARC
  5
2CE
330
E3
100
AcDbEntity
  8
Doc_ Finishes
  6
Continuous
100
AcDbCircle
 10
61.51141226870806
 20
121.1207831683241
 30
0.0
 40
0.66499999999993
100
AcDbArc
 50
311.6132381910028
 51
54.38676180899726
  0
LINE
  5
2CF
330
E3
100
AcDbEntity
  8
Doc_ Finishes
  6
Continuous
100
AcDbLine
 10
61.89864724997068
 20
121.6614063676083
 30
0.0
 11
60.65036344269685
 21
121.5959843954657
 31
0.0
  0
LINE
  5
2D0
330
E3
100
AcDbEntity
  8
Doc_ Finishes
  6
Continuous
100
AcDbLine
 10
60.65036344269685
 20
121.5959843954657
 30
0.0
 11
60.70474956137144
 21
120.5581792169875
 31
0.0
  0
LINE
  5
2D1
330
E3
100
AcDbEntity
  8
Doc_ Finishes
  6
Continuous
100
AcDbLine
 10
60.70474956137144
 20
120.5581792169875
 30
0.0
 11
61.9530376328854
 21
120.62360118913
 31
0.0
  0
HATCH
  5
2D2
330
E3
100
AcDbEntity
  8
Doc_ Finishes
  6
Continuous
 62
   255
370
     0
100
AcDbHatch
 10
0.0
 20
0.0
 30
0.0
210
0.0
220
0.0
230
1.0
  2
SOLID
 70
     1
 71
     0
 91
        1
 92
        3
 72
     1
 73
     1
 93
        4
 10
61.73548160155269
 20
124.774824483646
 42
0.0
 10
60.48719468310946
 20
124.7094045383422
 42
0.0
 10
60.54158380427474
 20
123.6715982830621
 42
0.0
 10
61.78987072271796
 20
123.7370182283657
 42
0.4811252243246882
 97
        0
 75
     0
 76
     1
 98
        0
  0
LINE
  5
2D3
330
E3
100
AcDbEntity
  8
Doc_ Finishes
  6
Continuous
100
AcDbLine
 10
60.48719655819279
 20
124.7094041951405
 30
0.0
 11
61.73548036546661
 21
124.774826167283
 31
0.0
  0
LINE
  5
2D4
330
E3
100
AcDbEntity
  8
Doc_ Finishes
  6
Continuous
100
AcDbLine
 10
60.54158267686739
 20
123.6715990166623
 30
0.0
 11
60.48719655819279
 21
124.7094041951405
 31
0.0
  0
LINE
  5
2D5
330
E3
100
AcDbEntity
  8
Doc_ Finishes
  6
Continuous
100
AcDbLine
 10
61.78987074838135
 20
123.7370167245647
 30
0.0
 11
60.54158267686739
 21
123.6715990166623
 31
0.0
  0
ARC
  5
2D6
330
E3
100
AcDbEntity
  8
Doc_ Finishes
  6
Continuous
100
AcDbCircle
 10
61.34824490521218
 20
124.234201934165
 30
0.0
 40
0.6649999999999991
100
AcDbArc
 50
311.6132381910023
 51
54.38676180899614
  0
HATCH
  5
2D7
330
E3
100
AcDbEntity
  8
Doc_ Finishes
  6
Continuous
 62
   255
370
     0
100
AcDbHatch
 10
0.0
 20
0.0
 30
0.0
210
0.0
220
0.0
230
1.0
  2
SOLID
 70
     1
 71
     0
 91
        1
 92
        3
 72
     0
 73
     1
 93
        4
 10
57.42312749288994
 20
120.906525242147
 10
57.25996012939412
 20
124.0199440079877
 10
55.18281069710459
 20
123.9110852190024
 10
55.34597806060043
 20
120.7976664531616
 97
        0
 75
     0
 76
     1
 98
        0
  0
HATCH
  5
2D8
330
E3
100
AcDbEntity
  8
Doc_ Finishes
  6
Continuous
 62
   255
370
     0
100
AcDbHatch
 10
0.0
 20
0.0
 30
0.0
210
0.0
220
0.0
230
1.0
  2
SOLID
 70
     1
 71
     0
 91
        1
 92
        3
 72
     1
 73
     1
 93
        4
 10
57.04974136025906
 20
121.4072852382895
 42
0.3335801555317839
 10
56.9409631179285
 20
123.4828977488501
 42
0.0
 10
55.55619682973549
 20
123.4103252228598
 42
0.3335801555317839
 10
55.66497507206606
 20
121.3347127122993
 42
0.0
 97
        0
 75
     0
 76
     1
 98
        0
  0
ARC
  5
2D9
330
E3
100
AcDbEntity
  8
Doc_ Finishes
  6
Continuous
100
AcDbCircle
 10
55.61289048059629
 20
122.3726397428632
 30
0.0
 40
1.731025641025725
100
AcDbArc
 50
326.1046488728488
 51
39.89535112715001
  0
LINE
  5
2DA
330
E3
100
AcDbEntity
  8
Doc_ Finishes
  6
Continuous
100
AcDbLine
 10
56.94096491335307
 20
123.4828978622332
 30
0.0
 11
55.55619557209635
 21
123.4103247593853
 31
0.0
  0
ARC
  5
2DB
330
E3
100
AcDbEntity
  8
Doc_ Finishes
  6
Continuous
100
AcDbCircle
 10
56.99304770939811
 20
122.4449707182861
 30
0.0
 40
1.731025641025542
100
AcDbArc
 50
146.1046488728492
 51
219.8953511271503
  0
LINE
  5
2DC
330
E3
100
AcDbEntity
  8
Doc_ Finishes
  6
Continuous
100
AcDbLine
 10
55.66497633792581
 20
121.3347144024288
 30
0.0
 11
57.0497414149424
 21
121.4072832410367
 31
0.0
  0
HATCH
  5
2DD
330
E3
100
AcDbEntity
  8
Doc_ Finishes
  6
Continuous
 62
   255
370
     0
100
AcDbHatch
 10
0.0
 20
0.0
 30
0.0
210
0.0
220
0.0
230
1.0
  2
SOLID
 70
     1
 71
     0
 91
        1
 92
        3
 72
     1
 73
     1
 93
        4
 10
57.10413048142435
 20
120.3694789830092
 42
0.6671603110635675
 10
57.04974136025906
 20
121.4072852382895
 42
0.0
 10
55.66497507206606
 20
121.3347127122993
 42
0.6671603110635675
 10
55.71936419323133
 20
120.2969064570191
 42
0.0
 97
        0
 75
     0
 76
     1
 98
        0
  0
ARC
  5
2DE
330
E3
100
AcDbEntity
  8
Doc_ Finishes
  6
Continuous
100
AcDbCircle
 10
56.86114232073544
 20
120.8770728472843
 30
0.0
 40
0.5627564102564045
100
AcDbArc
 50
295.5807117678017
 51
70.41928823219868
  0
LINE
  5
2DF
330
E3
100
AcDbEntity
  8
Doc_ Finishes
  6
Continuous
100
AcDbLine
 10
57.0497414149424
 20
121.4072832410367
 30
0.0
 11
55.66497633792581
 21
121.3347144024288
 31
0.0
  0
ARC
  5
2E0
330
E3
100
AcDbEntity
  8
Doc_ Finishes
  6
Continuous
100
AcDbCircle
 10
55.90796323275495
 20
120.8271188480243
 30
0.0
 40
0.562756410256414
100
AcDbArc
 50
115.5807117678005
 51
250.4192882321975
  0
LINE
  5
2E1
330
E3
100
AcDbEntity
  8
Doc_ Finishes
  6
Continuous
100
AcDbLine
 10
55.71936245660041
 20
120.2969049597105
 30
0.0
 11
57.10413179785713
 21
120.3694780625585
 31
0.0
  0
HATCH
  5
2E2
330
E3
100
AcDbEntity
  8
Doc_ Finishes
  6
Continuous
 62
   255
370
     0
100
AcDbHatch
 10
0.0
 20
0.0
 30
0.0
210
0.0
220
0.0
230
1.0
  2
SOLID
 70
     1
 71
     0
 91
        1
 92
        3
 72
     1
 73
     1
 93
        4
 10
56.88657399676324
 20
124.5207040041303
 42
0.0
 10
55.50180770857022
 20
124.4481314781402
 42
0.6671603110635675
 10
55.55619682973549
 20
123.4103252228598
 42
0.0
 10
56.9409631179285
 20
123.4828977488501
 42
0.6671603110635675
 97
        0
 75
     0
 76
     1
 98
        0
  0
LINE
  5
2E3
330
E3
100
AcDbEntity
  8
Doc_ Finishes
  6
Continuous
100
AcDbLine
 10
55.50180945342176
 20
124.4481299378635
 30
0.0
 11
56.88657453043834
 21
124.5207030407114
 31
0.0
  0
ARC
  5
2E4
330
E3
100
AcDbEntity
  8
Doc_ Finishes
  6
Continuous
100
AcDbCircle
 10
55.74479586925914
 20
123.940537613865
 30
0.0
 40
0.562756410256473
100
AcDbArc
 50
115.5807117678
 51
250.4192882321974
  0
LINE
  5
2E5
330
E3
100
AcDbEntity
  8
Doc_ Finishes
  6
Continuous
100
AcDbLine
 10
56.94096491335307
 20
123.4828978622332
 30
0.0
 11
55.55619557209635
 21
123.4103247593853
 31
0.0
  0
ARC
  5
2E6
330
E3
100
AcDbEntity
  8
Doc_ Finishes
  6
Continuous
100
AcDbCircle
 10
56.69797495723963
 20
123.9904916131252
 30
0.0
 40
0.5627564102563489
100
AcDbArc
 50
295.5807117677998
 51
70.41928823219766
  0
HATCH
  5
2E7
330
E3
100
AcDbEntity
  8
Doc_ Finishes
  6
Continuous
 62
   255
370
     0
100
AcDbHatch
 10
0.0
 20
0.0
 30
0.0
210
0.0
220
0.0
230
1.0
  2
SOLID
 70
     1
 71
     0
 91
        1
 92
        3
 72
     0
 73
     1
 93
        4
 10
60.06568122093086
 20
125.109431482171
 10
60.32736100214553
 20
120.1162838083981
 10
60.72681281604736
 20
120.1372181908953
 10
60.46513303483268
 20
125.1303658646682
 97
        0
 75
     0
 76
     1
 98
        0
  0
LINE
  5
2E8
330
E3
100
AcDbEntity
  8
Doc_ Finishes
  6
Continuous
100
AcDbLine
 10
60.06568068514394
 20
125.1094325621519
 30
0.0
 11
60.32736004523373
 21
120.1162845403362
 31
0.0
  0
LINE
  5
2E9
330
E3
100
AcDbEntity
  8
Doc_ Finishes
  6
Continuous
100
AcDbLine
 10
60.32736004523373
 20
120.1162845403362
 30
0.0
 11
60.72681273982701
 21
120.1372176951561
 31
0.0
  0
LINE
  5
2EA
330
E3
100
AcDbEntity
  8
Doc_ Finishes
  6
Continuous
100
AcDbLine
 10
60.72681273982701
 20
120.1372176951561
 30
0.0
 11
60.46513337973722
 21
125.1303657169719
 31
0.0
  0
LINE
  5
2EB
330
E3
100
AcDbEntity
  8
Doc_ Finishes
  6
Continuous
100
AcDbLine
 10
60.46513337973722
 20
125.1303657169719
 30
0.0
 11
60.06568068514394
 21
125.1094325621519
 31
0.0
  0
HATCH
  5
2EC
330
E3
100
AcDbEntity
  8
Doc_ Finishes
  6
Continuous
 62
   255
370
     0
100
AcDbHatch
 10
0.0
 20
0.0
 30
0.0
210
0.0
220
0.0
230
1.0
  2
SOLID
 70
     1
 71
     0
 91
        1
 92
        3
 72
     0
 73
     1
 93
        4
 10
57.61015573443654
 20
124.9807428444509
 10
57.2107039205347
 20
124.9598084619536
 10
57.47238370174937
 20
119.966660788181
 10
57.8718355156512
 20
119.9875951706781
 97
        0
 75
     0
 76
     1
 98
        0
  0
LINE
  5
2ED
330
E3
100
AcDbEntity
  8
Doc_ Finishes
  6
Continuous
100
AcDbLine
 10
57.61015638189023
 20
124.9807420591348
 30
0.0
 11
57.21070368729695
 21
124.9598089043148
 31
0.0
  0
LINE
  5
2EE
330
E3
100
AcDbEntity
  8
Doc_ Finishes
  6
Continuous
100
AcDbLine
 10
57.21070368729695
 20
124.9598089043148
 30
0.0
 11
57.47238304738674
 21
119.9666608824991
 31
0.0
  0
LINE
  5
2EF
330
E3
100
AcDbEntity
  8
Doc_ Finishes
  6
Continuous
100
AcDbLine
 10
57.47238304738674
 20
119.9666608824991
 30
0.0
 11
57.87183574198003
 21
119.9875940373191
 31
0.0
  0
LINE
  5
2F0
330
E3
100
AcDbEntity
  8
Doc_ Finishes
  6
Continuous
100
AcDbLine
 10
57.87183574198003
 20
119.9875940373191
 30
0.0
 11
57.61015638189023
 21
124.9807420591348
 31
0.0
  0
LINE
  5
2F1
330
E3
100
AcDbEntity
  8
Doc_ Finishes
  6
Continuous
100
AcDbLine
 10
62.17550304069892
 20
121.1555864671016
 30
0.0
 11
62.01233189195474
 21
124.2690062667764
 31
0.0
  0
LINE
  5
2F2
330
E3
100
AcDbEntity
  8
Doc_ Finishes
  6
Continuous
100
AcDbLine
 10
60.51438961753009
 20
124.1905016059014
 30
0.0
 11
60.67755650203414
 21
121.0770818062266
 31
0.0
  0
LINE
  5
2F3
330
E3
100
AcDbEntity
  8
Doc_ Finishes
  6
Continuous
100
AcDbLine
 10
57.42312680959387
 20
120.9065249935696
 30
0.0
 11
57.25995992508981
 21
124.0199447932443
 31
0.0
  0
LINE
  5
2F4
330
E3
100
AcDbEntity
  8
Doc_ Finishes
  6
Continuous
100
AcDbLine
 10
55.18281017744489
 20
123.9110872710925
 30
0.0
 11
55.34597706194893
 21
120.7976674714177
 31
0.0
  0
LINE
  5
2F5
330
E3
100
AcDbEntity
  8
Doc_ Finishes
  6
Dot & Dashed
100
AcDbLine
 10
63.79158608804811
 20
122.8012676052239
 30
0.0
 11
52.46823328602419
 21
122.2078346269151
 31
0.0
  0
HATCH
  5
2F6
330
E3
100
AcDbEntity
  8
Doc_ Finishes
  6
Continuous
 62
   255
370
     0
100
AcDbHatch
 10
0.0
 20
0.0
 30
0.0
210
0.0
220
0.0
230
1.0
  2
SOLID
 70
     1
 71
     0
 91
        1
 92
        3
 72
     1
 73
     1
 93
        2
 10
67.62835949235125
 20
141.117088397469
 42
0.4999999999999998
 10
65.23164860894029
 20
140.9914821024861
 42
0.0
 97
        0
 75
     0
 76
     1
 98
        0
  0
ARC
  5
2F7
330
E3
100
AcDbEntity
  8
Doc_ Finishes
  6
Continuous
100
AcDbCircle
 10
66.47710641126437
 20
140.1555186686985
 30
0.0
 40
1.499999999999978
100
AcDbArc
 50
39.86989764584067
 51
146.1301023541531
  0
LINE
  5
2F8
330
E3
100
AcDbEntity
  8
Doc_ Finishes
  6
Continuous
100
AcDbLine
 10
65.23164983112805
 20
140.991484072615
 30
0.0
 11
67.6283574702075
 21
141.1170872657748
 31
0.0
  0
HATCH
  5
2F9
330
E3
100
AcDbEntity
  8
Doc_ Finishes
  6
Continuous
 62
   255
370
     0
100
AcDbHatch
 10
0.0
 20
0.0
 30
0.0
210
0.0
220
0.0
230
1.0
  2
SOLID
 70
     1
 71
     0
 91
        1
 92
        3
 72
     0
 73
     1
 93
        4
 10
65.75947957465708
 20
141.6199679588349
 10
65.76698384788064
 20
141.4767778957138
 10
67.0452296523665
 20
141.5437679197048
 10
67.03772537914291
 20
141.6869579828258
 97
        0
 75
     0
 76
     1
 98
        0
  0
LINE
  5
2FA
330
E3
100
AcDbEntity
  8
Doc_ Finishes
  6
Continuous
100
AcDbLine
 10
65.75947747496855
 20
141.6199691048288
 30
0.0
 11
65.76698253760516
 21
141.4767759211144
 31
0.0
  0
LINE
  5
2FB
330
E3
100
AcDbEntity
  8
Doc_ Finishes
  6
Continuous
100
AcDbLine
 10
65.76698253760516
 20
141.4767759211144
 30
0.0
 11
67.04523116030364
 21
141.5437671336264
 31
0.0
  0
LINE
  5
2FC
330
E3
100
AcDbEntity
  8
Doc_ Finishes
  6
Continuous
100
AcDbLine
 10
67.04523116030364
 20
141.5437671336264
 30
0.0
 11
67.03772609766703
 21
141.6869560531006
 31
0.0
  0
LINE
  5
2FD
330
E3
100
AcDbEntity
  8
Doc_ Finishes
  6
Continuous
100
AcDbLine
 10
67.03772609766703
 20
141.6869560531006
 30
0.0
 11
65.75947747496855
 21
141.6199691048288
 31
0.0
  0
HATCH
  5
2FE
330
E3
100
AcDbEntity
  8
Doc_ Finishes
  6
Continuous
 62
   255
370
     0
100
AcDbHatch
 10
0.0
 20
0.0
 30
0.0
210
0.0
220
0.0
230
1.0
  2
SOLID
 70
     1
 71
     0
 91
        1
 92
        3
 72
     1
 73
     1
 93
        4
 10
65.03192270198936
 20
140.9810149112374
 42
0.0
 10
65.07379146698374
 20
140.1821112834337
 42
-0.4285714285714285
 10
67.86995416429653
 20
140.3286519609142
 42
0.0
 10
67.82808539930217
 20
141.1275555887178
 42
0.0
 97
        0
 75
     0
 76
     1
 98
        0
  0
LINE
  5
2FF
330
E3
100
AcDbEntity
  8
Doc_ Finishes
  6
Continuous
100
AcDbLine
 10
65.03192135171135
 20
140.9810153630849
 30
0.0
 11
65.07379192559138
 21
140.1821099738983
 31
0.0
  0
ARC
  5
300
330
E3
100
AcDbEntity
  8
Doc_ Finishes
  6
Continuous
100
AcDbCircle
 10
66.54165409063081
 20
138.9238755758345
 30
0.0
 40
1.933333333333324
100
AcDbArc
 50
46.60281897270725
 51
139.3971810273005
  0
LINE
  5
301
330
E3
100
AcDbEntity
  8
Doc_ Finishes
  6
Continuous
100
AcDbLine
 10
67.8699522592641
 20
140.3286505861182
 30
0.0
 11
67.82808594962421
 21
141.1275559753048
 31
0.0
  0
LINE
  5
302
330
E3
100
AcDbEntity
  8
Doc_ Finishes
  6
Continuous
100
AcDbLine
 10
67.82808594962421
 20
141.1275559753048
 30
0.0
 11
65.03192135171135
 21
140.9810153630849
 31
0.0
  0
HATCH
  5
303
330
E3
100
AcDbEntity
  8
Doc_ Finishes
  6
Continuous
 62
   255
370
     0
100
AcDbHatch
 10
0.0
 20
0.0
 30
0.0
210
0.0
220
0.0
230
1.0
  2
SOLID
 70
     1
 71
     0
 91
        1
 92
        3
 72
     0
 73
     1
 93
        5
 10
66.1209097907729
 20
140.8378118370288
 10
67.13413390363648
 20
121.5043440441803
 10
67.48719036675344
 20
120.8819686479352
 10
67.77325680587941
 20
121.5378390561759
 10
66.76003269301582
 20
140.8713068490245
 97
        0
 75
     0
 76
     1
 98
        0
  0
LINE
  5
304
330
E3
100
AcDbEntity
  8
Doc_ Finishes
  6
Continuous
100
AcDbLine
 10
66.12091020452318
 20
140.8378136508903
 30
0.0
 11
67.13413203862636
 21
121.5043458749767
 31
0.0
  0
LINE
  5
305
330
E3
100
AcDbEntity
  8
Doc_ Finishes
  6
Continuous
100
AcDbLine
 10
67.13413203862636
 20
121.5043458749767
 30
0.0
 11
67.48718980055699
 21
120.8819672346354
 31
0.0
  0
LINE
  5
306
330
E3
100
AcDbEntity
  8
Doc_ Finishes
  6
Continuous
100
AcDbLine
 10
67.48718980055699
 20
120.8819672346354
 30
0.0
 11
67.77325634997563
 21
121.5378372169926
 31
0.0
  0
LINE
  5
307
330
E3
100
AcDbEntity
  8
Doc_ Finishes
  6
Continuous
100
AcDbLine
 10
67.77325634997563
 20
121.5378372169926
 30
0.0
 11
66.76003451587243
 21
140.8713049929061
 31
0.0
  0
LINE
  5
308
330
E3
100
AcDbEntity
  8
Doc_ Finishes
  6
Continuous
100
AcDbLine
 10
66.76003451587243
 20
140.8713049929061
 30
0.0
 11
66.12091020452318
 21
140.8378136508903
 31
0.0
  0
LINE
  5
309
330
E3
100
AcDbEntity
  8
Doc_ Finishes
  6
Continuous
100
AcDbLine
 10
66.959758731049
 20
140.8817737024362
 30
0.0
 11
66.97232118248508
 21
140.6042740114476
 31
0.0
  0
LINE
  5
30A
330
E3
100
AcDbEntity
  8
Doc_ Finishes
  6
Continuous
100
AcDbLine
 10
66.97232118248508
 20
140.6042740114476
 30
0.0
 11
66.98094347603688
 21
140.3265653726925
 31
0.0
  0
LINE
  5
30B
330
E3
100
AcDbEntity
  8
Doc_ Finishes
  6
Continuous
100
AcDbLine
 10
66.98094347603688
 20
140.3265653726925
 30
0.0
 11
66.98567678258611
 21
140.048656314651
 31
0.0
  0
LINE
  5
30C
330
E3
100
AcDbEntity
  8
Doc_ Finishes
  6
Continuous
100
AcDbLine
 10
66.98567678258611
 20
140.048656314651
 30
0.0
 11
66.98659359421502
 21
139.7705425730831
 31
0.0
  0
LINE
  5
30D
330
E3
100
AcDbEntity
  8
Doc_ Finishes
  6
Continuous
100
AcDbLine
 10
66.98659359421502
 20
139.7705425730831
 30
0.0
 11
66.98379625268683
 21
139.4922369407092
 31
0.0
  0
LINE
  5
30E
330
E3
100
AcDbEntity
  8
Doc_ Finishes
  6
Continuous
100
AcDbLine
 10
66.98379625268683
 20
139.4922369407092
 30
0.0
 11
66.97741268520558
 21
139.2137436817693
 31
0.0
  0
LINE
  5
30F
330
E3
100
AcDbEntity
  8
Doc_ Finishes
  6
Continuous
100
AcDbLine
 10
66.97741268520558
 20
139.2137436817693
 30
0.0
 11
66.96760919713651
 21
138.9350713247438
 31
0.0
  0
LINE
  5
310
330
E3
100
AcDbEntity
  8
Doc_ Finishes
  6
Continuous
100
AcDbLine
 10
66.96760919713651
 20
138.9350713247438
 30
0.0
 11
66.95456915080541
 21
138.6562283981129
 31
0.0
  0
LINE
  5
311
330
E3
100
AcDbEntity
  8
Doc_ Finishes
  6
Continuous
100
AcDbLine
 10
66.95456915080541
 20
138.6562283981129
 30
0.0
 11
66.93850149397886
 21
138.377227694597
 31
0.0
  0
LINE
  5
312
330
E3
100
AcDbEntity
  8
Doc_ Finishes
  6
Continuous
100
AcDbLine
 10
66.93850149397886
 20
138.377227694597
 30
0.0
 11
66.91964075986424
 21
138.0980820069166
 31
0.0
  0
LINE
  5
313
330
E3
100
AcDbEntity
  8
Doc_ Finishes
  6
Continuous
100
AcDbLine
 10
66.91964075986424
 20
138.0980820069166
 30
0.0
 11
66.8982385386295
 21
137.8187998635518
 31
0.0
  0
LINE
  5
314
330
E3
100
AcDbEntity
  8
Doc_ Finishes
  6
Continuous
100
AcDbLine
 10
66.8982385386295
 20
137.8187998635518
 30
0.0
 11
66.87456774164325
 21
137.5394025857034
 31
0.0
  0
LINE
  5
315
330
E3
100
AcDbEntity
  8
Doc_ Finishes
  6
Continuous
100
AcDbLine
 10
66.87456774164325
 20
137.5394025857034
 30
0.0
 11
66.84892260147477
 21
137.2598987018517
 31
0.0
  0
LINE
  5
316
330
E3
100
AcDbEntity
  8
Doc_ Finishes
  6
Continuous
100
AcDbLine
 10
66.84892260147477
 20
137.2598987018517
 30
0.0
 11
66.82160587917356
 21
136.9803095331973
 31
0.0
  0
LINE
  5
317
330
E3
100
AcDbEntity
  8
Doc_ Finishes
  6
Continuous
100
AcDbLine
 10
66.82160587917356
 20
136.9803095331973
 30
0.0
 11
66.79293739274975
 21
136.7006478724606
 31
0.0
  0
LINE
  5
318
330
E3
100
AcDbEntity
  8
Doc_ Finishes
  6
Continuous
100
AcDbLine
 10
66.79293739274975
 20
136.7006478724606
 30
0.0
 11
66.7632497529338
 21
136.4209307766021
 31
0.0
  0
LINE
  5
319
330
E3
100
AcDbEntity
  8
Doc_ Finishes
  6
Continuous
100
AcDbLine
 10
66.7632497529338
 20
136.4209307766021
 30
0.0
 11
66.73287130621608
 21
136.1411795668226
 31
0.0
  0
LINE
  5
31A
330
E3
100
AcDbEntity
  8
Doc_ Finishes
  6
Continuous
100
AcDbLine
 10
66.73287130621608
 20
136.1411795668226
 30
0.0
 11
66.7021517202876
 21
135.8614113000825
 31
0.0
  0
LINE
  5
31B
330
E3
100
AcDbEntity
  8
Doc_ Finishes
  6
Continuous
100
AcDbLine
 10
66.7021517202876
 20
135.8614113000825
 30
0.0
 11
66.67142787011899
 21
135.5816430333424
 31
0.0
  0
LINE
  5
31C
330
E3
100
AcDbEntity
  8
Doc_ Finishes
  6
Continuous
100
AcDbLine
 10
66.67142787011899
 20
135.5816430333424
 30
0.0
 11
66.64105368764142
 21
135.3018918235629
 31
0.0
  0
LINE
  5
31D
330
E3
100
AcDbEntity
  8
Doc_ Finishes
  6
Continuous
100
AcDbLine
 10
66.64105368764142
 20
135.3018918235629
 30
0.0
 11
66.61136178358532
 21
135.0221747277045
 31
0.0
  0
LINE
  5
31E
330
E3
100
AcDbEntity
  8
Doc_ Finishes
  6
Continuous
100
AcDbLine
 10
66.61136178358532
 20
135.0221747277045
 30
0.0
 11
66.58269329716151
 21
134.7425173312079
 31
0.0
  0
LINE
  5
31F
330
E3
100
AcDbEntity
  8
Doc_ Finishes
  6
Continuous
100
AcDbLine
 10
66.58269329716151
 20
134.7425173312079
 30
0.0
 11
66.55538083910045
 21
134.4629238983133
 31
0.0
  0
LINE
  5
320
330
E3
100
AcDbEntity
  8
Doc_ Finishes
  6
Continuous
100
AcDbLine
 10
66.55538083910045
 20
134.4629238983133
 30
0.0
 11
66.52973569893196
 21
134.1834200144616
 31
0.0
  0
LINE
  5
321
330
E3
100
AcDbEntity
  8
Doc_ Finishes
  6
Continuous
100
AcDbLine
 10
66.52973569893196
 20
134.1834200144616
 30
0.0
 11
66.50606490194572
 21
133.9040227366132
 31
0.0
  0
LINE
  5
322
330
E3
100
AcDbEntity
  8
Doc_ Finishes
  6
Continuous
100
AcDbLine
 10
66.50606490194572
 20
133.9040227366132
 30
0.0
 11
66.48466268071097
 21
133.6247405932485
 31
0.0
  0
LINE
  5
323
330
E3
100
AcDbEntity
  8
Doc_ Finishes
  6
Continuous
100
AcDbLine
 10
66.48466268071097
 20
133.6247405932485
 30
0.0
 11
66.46579768235624
 21
133.345594905568
 31
0.0
  0
LINE
  5
324
330
E3
100
AcDbEntity
  8
Doc_ Finishes
  6
Continuous
100
AcDbLine
 10
66.46579768235624
 20
133.345594905568
 30
0.0
 11
66.44973002552968
 21
133.0665942020521
 31
0.0
  0
LINE
  5
325
330
E3
100
AcDbEntity
  8
Doc_ Finishes
  6
Continuous
100
AcDbLine
 10
66.44973002552968
 20
133.0665942020521
 30
0.0
 11
66.43668997919858
 21
132.7877512754212
 31
0.0
  0
LINE
  5
326
330
E3
100
AcDbEntity
  8
Doc_ Finishes
  6
Continuous
100
AcDbLine
 10
66.43668997919858
 20
132.7877512754212
 30
0.0
 11
66.42688649112951
 21
132.5090789183957
 31
0.0
  0
LINE
  5
327
330
E3
100
AcDbEntity
  8
Doc_ Finishes
  6
Continuous
100
AcDbLine
 10
66.42688649112951
 20
132.5090789183957
 30
0.0
 11
66.42050718788839
 21
132.2305856594558
 31
0.0
  0
LINE
  5
328
330
E3
100
AcDbEntity
  8
Doc_ Finishes
  6
Continuous
100
AcDbLine
 10
66.42050718788839
 20
132.2305856594558
 30
0.0
 11
66.4177098463602
 21
131.9522800270819
 31
0.0
  0
LINE
  5
329
330
E3
100
AcDbEntity
  8
Doc_ Finishes
  6
Continuous
100
AcDbLine
 10
66.4177098463602
 20
131.9522800270819
 30
0.0
 11
66.41862239374896
 21
131.674166285514
 31
0.0
  0
LINE
  5
32A
330
E3
100
AcDbEntity
  8
Doc_ Finishes
  6
Continuous
100
AcDbLine
 10
66.41862239374896
 20
131.674166285514
 30
0.0
 11
66.4233557002982
 21
131.3962572274725
 31
0.0
  0
LINE
  5
32B
330
E3
100
AcDbEntity
  8
Doc_ Finishes
  6
Continuous
100
AcDbLine
 10
66.4233557002982
 20
131.3962572274725
 30
0.0
 11
66.43198225809016
 21
131.1185485887174
 31
0.0
  0
LINE
  5
32C
330
E3
100
AcDbEntity
  8
Doc_ Finishes
  6
Continuous
100
AcDbLine
 10
66.43198225809016
 20
131.1185485887174
 30
0.0
 11
66.44454470952621
 21
130.8410488977288
 31
0.0
  0
LINE
  5
32D
330
E3
100
AcDbEntity
  8
Doc_ Finishes
  6
Continuous
100
AcDbLine
 10
66.44454470952621
 20
130.8410488977288
 30
0.0
 11
66.46105584732673
 21
130.5637538902667
 31
0.0
  0
LINE
  5
32E
330
E3
100
AcDbEntity
  8
Doc_ Finishes
  6
Continuous
100
AcDbLine
 10
67.22143809113881
 20
135.8886256806205
 30
0.0
 11
67.23400054257486
 21
135.6111259896319
 31
0.0
  0
LINE
  5
32F
330
E3
100
AcDbEntity
  8
Doc_ Finishes
  6
Continuous
100
AcDbLine
 10
67.23400054257486
 20
135.6111259896319
 30
0.0
 11
67.2426228361267
 21
135.3334173508768
 31
0.0
  0
LINE
  5
330
330
E3
100
AcDbEntity
  8
Doc_ Finishes
  6
Continuous
100
AcDbLine
 10
67.2426228361267
 20
135.3334173508768
 30
0.0
 11
67.24735614267591
 21
135.0555082928353
 31
0.0
  0
LINE
  5
331
330
E3
100
AcDbEntity
  8
Doc_ Finishes
  6
Continuous
100
AcDbLine
 10
67.24735614267591
 20
135.0555082928353
 30
0.0
 11
67.24827295430481
 21
134.7773988155076
 31
0.0
  0
LINE
  5
332
330
E3
100
AcDbEntity
  8
Doc_ Finishes
  6
Continuous
100
AcDbLine
 10
67.24827295430481
 20
134.7773988155076
 30
0.0
 11
67.24547561277663
 21
134.4990931831336
 31
0.0
  0
LINE
  5
333
330
E3
100
AcDbEntity
  8
Doc_ Finishes
  6
Continuous
100
AcDbLine
 10
67.24547561277663
 20
134.4990931831336
 30
0.0
 11
67.23909204529538
 21
134.2205956599536
 31
0.0
  0
LINE
  5
334
330
E3
100
AcDbEntity
  8
Doc_ Finishes
  6
Continuous
100
AcDbLine
 10
67.23909204529538
 20
134.2205956599536
 30
0.0
 11
67.22928855722631
 21
133.9419233029281
 31
0.0
  0
LINE
  5
335
330
E3
100
AcDbEntity
  8
Doc_ Finishes
  6
Continuous
100
AcDbLine
 10
67.22928855722631
 20
133.9419233029281
 30
0.0
 11
67.2162485108952
 21
133.6630846405373
 31
0.0
  0
LINE
  5
336
330
E3
100
AcDbEntity
  8
Doc_ Finishes
  6
Continuous
100
AcDbLine
 10
67.2162485108952
 20
133.6630846405373
 30
0.0
 11
67.20018085406865
 21
133.3840796727813
 31
0.0
  0
LINE
  5
337
330
E3
100
AcDbEntity
  8
Doc_ Finishes
  6
Continuous
100
AcDbLine
 10
67.20018085406865
 20
133.3840796727813
 30
0.0
 11
67.18132011995404
 21
133.1049339851009
 31
0.0
  0
LINE
  5
338
330
E3
100
AcDbEntity
  8
Doc_ Finishes
  6
Continuous
100
AcDbLine
 10
67.18132011995404
 20
133.1049339851009
 30
0.0
 11
67.1599178987193
 21
132.8256518417361
 31
0.0
  0
LINE
  5
339
330
E3
100
AcDbEntity
  8
Doc_ Finishes
  6
Continuous
100
AcDbLine
 10
67.1599178987193
 20
132.8256518417361
 30
0.0
 11
67.13624710173305
 21
132.5462545638877
 31
0.0
  0
LINE
  5
33A
330
E3
100
AcDbEntity
  8
Doc_ Finishes
  6
Continuous
100
AcDbLine
 10
67.13624710173305
 20
132.5462545638877
 30
0.0
 11
67.11060196156454
 21
132.266750680036
 31
0.0
  0
LINE
  5
33B
330
E3
100
AcDbEntity
  8
Doc_ Finishes
  6
Continuous
100
AcDbLine
 10
67.11060196156454
 20
132.266750680036
 30
0.0
 11
67.08328523926335
 21
131.9871615113816
 31
0.0
  0
LINE
  5
33C
330
E3
100
AcDbEntity
  8
Doc_ Finishes
  6
Continuous
100
AcDbLine
 10
67.08328523926335
 20
131.9871615113816
 30
0.0
 11
67.05462101707968
 21
131.7074998506449
 31
0.0
  0
LINE
  5
33D
330
E3
100
AcDbEntity
  8
Doc_ Finishes
  6
Continuous
100
AcDbLine
 10
67.05462101707968
 20
131.7074998506449
 30
0.0
 11
67.0249291130236
 21
131.4277827547864
 31
0.0
  0
LINE
  5
33E
330
E3
100
AcDbEntity
  8
Doc_ Finishes
  6
Continuous
100
AcDbLine
 10
67.0249291130236
 20
131.4277827547864
 30
0.0
 11
66.99455066630588
 21
131.1480315450069
 31
0.0
  0
LINE
  5
33F
330
E3
100
AcDbEntity
  8
Doc_ Finishes
  6
Continuous
100
AcDbLine
 10
66.99455066630588
 20
131.1480315450069
 30
0.0
 11
66.9638310803774
 21
130.8682632782668
 31
0.0
  0
LINE
  5
340
330
E3
100
AcDbEntity
  8
Doc_ Finishes
  6
Continuous
100
AcDbLine
 10
66.9638310803774
 20
130.8682632782668
 30
0.0
 11
66.93311149444892
 21
130.5884950115268
 31
0.0
  0
LINE
  5
341
330
E3
100
AcDbEntity
  8
Doc_ Finishes
  6
Continuous
100
AcDbLine
 10
66.93311149444892
 20
130.5884950115268
 30
0.0
 11
66.9027330477312
 21
130.3087438017472
 31
0.0
  0
LINE
  5
342
330
E3
100
AcDbEntity
  8
Doc_ Finishes
  6
Continuous
100
AcDbLine
 10
66.9027330477312
 20
130.3087438017472
 30
0.0
 11
66.87304114367512
 21
130.0290309701289
 31
0.0
  0
LINE
  5
343
330
E3
100
AcDbEntity
  8
Doc_ Finishes
  6
Continuous
100
AcDbLine
 10
66.87304114367512
 20
130.0290309701289
 30
0.0
 11
66.84437692149145
 21
129.7493693093922
 31
0.0
  0
LINE
  5
344
330
E3
100
AcDbEntity
  8
Doc_ Finishes
  6
Continuous
100
AcDbLine
 10
66.84437692149145
 20
129.7493693093922
 30
0.0
 11
66.81706019919027
 21
129.4697758764976
 31
0.0
  0
LINE
  5
345
330
E3
100
AcDbEntity
  8
Doc_ Finishes
  6
Continuous
100
AcDbLine
 10
66.81706019919027
 20
129.4697758764976
 30
0.0
 11
66.79141505902176
 21
129.1902719926459
 31
0.0
  0
LINE
  5
346
330
E3
100
AcDbEntity
  8
Doc_ Finishes
  6
Continuous
100
AcDbLine
 10
66.79141505902176
 20
129.1902719926459
 30
0.0
 11
66.76774426203549
 21
128.9108747147975
 31
0.0
  0
LINE
  5
347
330
E3
100
AcDbEntity
  8
Doc_ Finishes
  6
Continuous
100
AcDbLine
 10
66.76774426203549
 20
128.9108747147975
 30
0.0
 11
66.74634204080077
 21
128.6315925714327
 31
0.0
  0
LINE
  5
348
330
E3
100
AcDbEntity
  8
Doc_ Finishes
  6
Continuous
100
AcDbLine
 10
66.74634204080077
 20
128.6315925714327
 30
0.0
 11
66.72747704244603
 21
128.3524468837523
 31
0.0
  0
LINE
  5
349
330
E3
100
AcDbEntity
  8
Doc_ Finishes
  6
Continuous
100
AcDbLine
 10
66.72747704244603
 20
128.3524468837523
 30
0.0
 11
66.71140938561948
 21
128.0734461802364
 31
0.0
  0
LINE
  5
34A
330
E3
100
AcDbEntity
  8
Doc_ Finishes
  6
Continuous
100
AcDbLine
 10
66.71140938561948
 20
128.0734461802364
 30
0.0
 11
66.69836933928835
 21
127.7946032536055
 31
0.0
  0
LINE
  5
34B
330
E3
100
AcDbEntity
  8
Doc_ Finishes
  6
Continuous
100
AcDbLine
 10
66.69836933928835
 20
127.7946032536055
 30
0.0
 11
66.6885658512193
 21
127.51593089658
 31
0.0
  0
LINE
  5
34C
330
E3
100
AcDbEntity
  8
Doc_ Finishes
  6
Continuous
100
AcDbLine
 10
66.6885658512193
 20
127.51593089658
 30
0.0
 11
66.68218654797816
 21
127.2374376376401
 31
0.0
  0
LINE
  5
34D
330
E3
100
AcDbEntity
  8
Doc_ Finishes
  6
Continuous
100
AcDbLine
 10
66.68218654797816
 20
127.2374376376401
 30
0.0
 11
66.67938920644998
 21
126.9591320052662
 31
0.0
  0
LINE
  5
34E
330
E3
100
AcDbEntity
  8
Doc_ Finishes
  6
Continuous
100
AcDbLine
 10
66.67938920644998
 20
126.9591320052662
 30
0.0
 11
66.6803060180789
 21
126.6810182636983
 31
0.0
  0
LINE
  5
34F
330
E3
100
AcDbEntity
  8
Doc_ Finishes
  6
Continuous
100
AcDbLine
 10
66.6803060180789
 20
126.6810182636983
 30
0.0
 11
66.68503506038797
 21
126.4031092056568
 31
0.0
  0
LINE
  5
350
330
E3
100
AcDbEntity
  8
Doc_ Finishes
  6
Continuous
100
AcDbLine
 10
66.68503506038797
 20
126.4031092056568
 30
0.0
 11
66.69366161817996
 21
126.1254005669017
 31
0.0
  0
LINE
  5
351
330
E3
100
AcDbEntity
  8
Doc_ Finishes
  6
Continuous
100
AcDbLine
 10
66.69366161817996
 20
126.1254005669017
 30
0.0
 11
66.70622406961598
 21
125.8479008759131
 31
0.0
  0
LINE
  5
352
330
E3
100
AcDbEntity
  8
Doc_ Finishes
  6
Continuous
100
AcDbLine
 10
66.70622406961598
 20
125.8479008759131
 30
0.0
 11
66.72273520741653
 21
125.5706101326912
 31
0.0
  0
LINE
  5
353
330
E3
100
AcDbEntity
  8
Doc_ Finishes
  6
Continuous
100
AcDbLine
 10
67.48311745122861
 20
130.8954776588048
 30
0.0
 11
67.49567990266463
 21
130.6179779678162
 31
0.0
  0
LINE
  5
354
330
E3
100
AcDbEntity
  8
Doc_ Finishes
  6
Continuous
100
AcDbLine
 10
67.49567990266463
 20
130.6179779678162
 30
0.0
 11
67.5043064604566
 21
130.3402693290611
 31
0.0
  0
LINE
  5
355
330
E3
100
AcDbEntity
  8
Doc_ Finishes
  6
Continuous
100
AcDbLine
 10
67.5043064604566
 20
130.3402693290611
 30
0.0
 11
67.50903550276571
 21
130.0623602710196
 31
0.0
  0
LINE
  5
356
330
E3
100
AcDbEntity
  8
Doc_ Finishes
  6
Continuous
100
AcDbLine
 10
67.50903550276571
 20
130.0623602710196
 30
0.0
 11
67.50995231439461
 21
129.7842507936919
 31
0.0
  0
LINE
  5
357
330
E3
100
AcDbEntity
  8
Doc_ Finishes
  6
Continuous
100
AcDbLine
 10
67.50995231439461
 20
129.7842507936919
 30
0.0
 11
67.50715497286642
 21
129.5059451613179
 31
0.0
  0
LINE
  5
358
330
E3
100
AcDbEntity
  8
Doc_ Finishes
  6
Continuous
100
AcDbLine
 10
67.50715497286642
 20
129.5059451613179
 30
0.0
 11
67.50077140538517
 21
129.227451902378
 31
0.0
  0
LINE
  5
359
330
E3
100
AcDbEntity
  8
Doc_ Finishes
  6
Continuous
100
AcDbLine
 10
67.50077140538517
 20
129.227451902378
 30
0.0
 11
67.49097218155623
 21
128.9487752811124
 31
0.0
  0
LINE
  5
35A
330
E3
100
AcDbEntity
  8
Doc_ Finishes
  6
Continuous
100
AcDbLine
 10
67.49097218155623
 20
128.9487752811124
 30
0.0
 11
67.47793213522513
 21
128.6699366187216
 31
0.0
  0
LINE
  5
35B
330
E3
100
AcDbEntity
  8
Doc_ Finishes
  6
Continuous
100
AcDbLine
 10
67.47793213522513
 20
128.6699366187216
 30
0.0
 11
67.46186021415845
 21
128.3909359152057
 31
0.0
  0
LINE
  5
35C
330
E3
100
AcDbEntity
  8
Doc_ Finishes
  6
Continuous
100
AcDbLine
 10
67.46186021415845
 20
128.3909359152057
 30
0.0
 11
67.44299948004382
 21
128.1117859632851
 31
0.0
  0
LINE
  5
35D
330
E3
100
AcDbEntity
  8
Doc_ Finishes
  6
Continuous
100
AcDbLine
 10
67.44299948004382
 20
128.1117859632851
 30
0.0
 11
67.4215972588091
 21
127.8325038199204
 31
0.0
  0
LINE
  5
35E
330
E3
100
AcDbEntity
  8
Doc_ Finishes
  6
Continuous
100
AcDbLine
 10
67.4215972588091
 20
127.8325038199204
 30
0.0
 11
67.39792646182283
 21
127.553106542072
 31
0.0
  0
LINE
  5
35F
330
E3
100
AcDbEntity
  8
Doc_ Finishes
  6
Continuous
100
AcDbLine
 10
67.39792646182283
 20
127.553106542072
 30
0.0
 11
67.37228132165434
 21
127.2736026582203
 31
0.0
  0
LINE
  5
360
330
E3
100
AcDbEntity
  8
Doc_ Finishes
  6
Continuous
100
AcDbLine
 10
67.37228132165434
 20
127.2736026582203
 30
0.0
 11
67.34496459935316
 21
126.9940134895658
 31
0.0
  0
LINE
  5
361
330
E3
100
AcDbEntity
  8
Doc_ Finishes
  6
Continuous
100
AcDbLine
 10
67.34496459935316
 20
126.9940134895658
 30
0.0
 11
67.31630037716947
 21
126.7143518288292
 31
0.0
  0
LINE
  5
362
330
E3
100
AcDbEntity
  8
Doc_ Finishes
  6
Continuous
100
AcDbLine
 10
67.31630037716947
 20
126.7143518288292
 30
0.0
 11
67.2866084731134
 21
126.4346347329707
 31
0.0
  0
LINE
  5
363
330
E3
100
AcDbEntity
  8
Doc_ Finishes
  6
Continuous
100
AcDbLine
 10
67.2866084731134
 20
126.4346347329707
 30
0.0
 11
67.25623002639567
 21
126.1548835231912
 31
0.0
  0
LINE
  5
364
330
E3
100
AcDbEntity
  8
Doc_ Finishes
  6
Continuous
100
AcDbLine
 10
67.25623002639567
 20
126.1548835231912
 30
0.0
 11
67.2255104404672
 21
125.8751152564511
 31
0.0
  0
LINE
  5
365
330
E3
100
AcDbEntity
  8
Doc_ Finishes
  6
Continuous
100
AcDbLine
 10
67.2255104404672
 20
125.8751152564511
 30
0.0
 11
67.19479085453872
 21
125.595346989711
 31
0.0
  0
LINE
  5
366
330
E3
100
AcDbEntity
  8
Doc_ Finishes
  6
Continuous
100
AcDbLine
 10
67.19479085453872
 20
125.595346989711
 30
0.0
 11
67.164412407821
 21
125.3155957799315
 31
0.0
  0
LINE
  5
367
330
E3
100
AcDbEntity
  8
Doc_ Finishes
  6
Continuous
100
AcDbLine
 10
67.164412407821
 20
125.3155957799315
 30
0.0
 11
67.13472050376492
 21
125.0358829483132
 31
0.0
  0
LINE
  5
368
330
E3
100
AcDbEntity
  8
Doc_ Finishes
  6
Continuous
100
AcDbLine
 10
67.13472050376492
 20
125.0358829483132
 30
0.0
 11
67.10605628158125
 21
124.7562212875765
 31
0.0
  0
LINE
  5
369
330
E3
100
AcDbEntity
  8
Doc_ Finishes
  6
Continuous
100
AcDbLine
 10
67.10605628158125
 20
124.7562212875765
 30
0.0
 11
67.07873955928005
 21
124.4766278546819
 31
0.0
  0
LINE
  5
36A
330
E3
100
AcDbEntity
  8
Doc_ Finishes
  6
Continuous
100
AcDbLine
 10
67.07873955928005
 20
124.4766278546819
 30
0.0
 11
67.05309441911156
 21
124.1971282350703
 31
0.0
  0
LINE
  5
36B
330
E3
100
AcDbEntity
  8
Doc_ Finishes
  6
Continuous
100
AcDbLine
 10
67.05309441911156
 20
124.1971282350703
 30
0.0
 11
67.02942362212531
 21
123.9177266929818
 31
0.0
  0
LINE
  5
36C
330
E3
100
AcDbEntity
  8
Doc_ Finishes
  6
Continuous
100
AcDbLine
 10
67.02942362212531
 20
123.9177266929818
 30
0.0
 11
67.00802140089057
 21
123.638444549617
 31
0.0
  0
LINE
  5
36D
330
E3
100
AcDbEntity
  8
Doc_ Finishes
  6
Continuous
100
AcDbLine
 10
67.00802140089057
 20
123.638444549617
 30
0.0
 11
66.98916066677594
 21
123.3592988619366
 31
0.0
  0
LINE
  5
36E
330
E3
100
AcDbEntity
  8
Doc_ Finishes
  6
Continuous
100
AcDbLine
 10
66.98916066677594
 20
123.3592988619366
 30
0.0
 11
66.9730930099494
 21
123.0802981584207
 31
0.0
  0
LINE
  5
36F
330
E3
100
AcDbEntity
  8
Doc_ Finishes
  6
Continuous
100
AcDbLine
 10
66.9730930099494
 20
123.0802981584207
 30
0.0
 11
66.96004869937816
 21
122.8014552317898
 31
0.0
  0
LINE
  5
370
330
E3
100
AcDbEntity
  8
Doc_ Finishes
  6
Continuous
100
AcDbLine
 10
66.96004869937816
 20
122.8014552317898
 30
0.0
 11
66.95024947554923
 21
122.5227828747643
 31
0.0
  0
LINE
  5
371
330
E3
100
AcDbEntity
  8
Doc_ Finishes
  6
Continuous
100
AcDbLine
 10
66.95024947554923
 20
122.5227828747643
 30
0.0
 11
66.94386590806798
 21
122.2442896158244
 31
0.0
  0
LINE
  5
372
330
E3
100
AcDbEntity
  8
Doc_ Finishes
  6
Continuous
100
AcDbLine
 10
66.94386590806798
 20
122.2442896158244
 30
0.0
 11
66.94106856653978
 21
121.9659839834505
 31
0.0
  0
LINE
  5
373
330
E3
100
AcDbEntity
  8
Doc_ Finishes
  6
Continuous
100
AcDbLine
 10
66.44047236019782
 20
140.8545593218982
 30
0.0
 11
66.4097485100292
 21
140.5747910551581
 31
0.0
  0
LINE
  5
374
330
E3
100
AcDbEntity
  8
Doc_ Finishes
  6
Continuous
100
AcDbLine
 10
66.4097485100292
 20
140.5747910551581
 30
0.0
 11
66.37937432755162
 21
140.2950398453786
 31
0.0
  0
LINE
  5
375
330
E3
100
AcDbEntity
  8
Doc_ Finishes
  6
Continuous
100
AcDbLine
 10
66.37937432755162
 20
140.2950398453786
 30
0.0
 11
66.34968242349554
 21
140.0153227495202
 31
0.0
  0
LINE
  5
376
330
E3
100
AcDbEntity
  8
Doc_ Finishes
  6
Continuous
100
AcDbLine
 10
66.34968242349554
 20
140.0153227495202
 30
0.0
 11
66.32101393707174
 21
139.7356610887834
 31
0.0
  0
LINE
  5
377
330
E3
100
AcDbEntity
  8
Doc_ Finishes
  6
Continuous
100
AcDbLine
 10
66.32101393707174
 20
139.7356610887834
 30
0.0
 11
66.29370147901068
 21
139.456071920129
 31
0.0
  0
LINE
  5
378
330
E3
100
AcDbEntity
  8
Doc_ Finishes
  6
Continuous
100
AcDbLine
 10
66.29370147901068
 20
139.456071920129
 30
0.0
 11
66.26805207460204
 21
139.1765680362772
 31
0.0
  0
LINE
  5
379
330
E3
100
AcDbEntity
  8
Doc_ Finishes
  6
Continuous
100
AcDbLine
 10
66.26805207460204
 20
139.1765680362772
 30
0.0
 11
66.2443855418559
 21
138.8971707584289
 31
0.0
  0
LINE
  5
37A
330
E3
100
AcDbEntity
  8
Doc_ Finishes
  6
Continuous
100
AcDbLine
 10
66.2443855418559
 20
138.8971707584289
 30
0.0
 11
66.22298332062118
 21
138.6178886150641
 31
0.0
  0
LINE
  5
37B
330
E3
100
AcDbEntity
  8
Doc_ Finishes
  6
Continuous
100
AcDbLine
 10
66.22298332062118
 20
138.6178886150641
 30
0.0
 11
66.20411832226644
 21
138.3387429273837
 31
0.0
  0
LINE
  5
37C
330
E3
100
AcDbEntity
  8
Doc_ Finishes
  6
Continuous
100
AcDbLine
 10
66.20411832226644
 20
138.3387429273837
 30
0.0
 11
66.18805066543989
 21
138.0597422238679
 31
0.0
  0
LINE
  5
37D
330
E3
100
AcDbEntity
  8
Doc_ Finishes
  6
Continuous
100
AcDbLine
 10
66.18805066543989
 20
138.0597422238679
 30
0.0
 11
66.17501061910878
 21
137.7808992972369
 31
0.0
  0
LINE
  5
37E
330
E3
100
AcDbEntity
  8
Doc_ Finishes
  6
Continuous
100
AcDbLine
 10
66.17501061910878
 20
137.7808992972369
 30
0.0
 11
66.16520713103971
 21
137.5022269402114
 31
0.0
  0
LINE
  5
37F
330
E3
100
AcDbEntity
  8
Doc_ Finishes
  6
Continuous
100
AcDbLine
 10
66.16520713103971
 20
137.5022269402114
 30
0.0
 11
66.15882782779859
 21
137.2237336812715
 31
0.0
  0
LINE
  5
380
330
E3
100
AcDbEntity
  8
Doc_ Finishes
  6
Continuous
100
AcDbLine
 10
66.15882782779859
 20
137.2237336812715
 30
0.0
 11
66.15603048627041
 21
136.9454280488976
 31
0.0
  0
LINE
  5
381
330
E3
100
AcDbEntity
  8
Doc_ Finishes
  6
Continuous
100
AcDbLine
 10
66.15603048627041
 20
136.9454280488976
 30
0.0
 11
66.15694303365918
 21
136.6673143073297
 31
0.0
  0
LINE
  5
382
330
E3
100
AcDbEntity
  8
Doc_ Finishes
  6
Continuous
100
AcDbLine
 10
66.15694303365918
 20
136.6673143073297
 30
0.0
 11
66.16167634020839
 21
136.3894052492882
 31
0.0
  0
LINE
  5
383
330
E3
100
AcDbEntity
  8
Doc_ Finishes
  6
Continuous
100
AcDbLine
 10
66.16167634020839
 20
136.3894052492882
 30
0.0
 11
66.17030289800036
 21
136.1116966105331
 31
0.0
  0
LINE
  5
384
330
E3
100
AcDbEntity
  8
Doc_ Finishes
  6
Continuous
100
AcDbLine
 10
66.17030289800036
 20
136.1116966105331
 30
0.0
 11
66.1828653494364
 21
135.8341969195445
 31
0.0
  0
LINE
  5
385
330
E3
100
AcDbEntity
  8
Doc_ Finishes
  6
Continuous
100
AcDbLine
 10
66.1828653494364
 20
135.8341969195445
 30
0.0
 11
66.19937648723695
 21
135.5569019120824
 31
0.0
  0
LINE
  5
386
330
E3
100
AcDbEntity
  8
Doc_ Finishes
  6
Continuous
100
AcDbLine
 10
67.7447968113184
 20
125.9023296369891
 30
0.0
 11
67.75735926275445
 21
125.6248299460005
 31
0.0
  0
LINE
  5
387
330
E3
100
AcDbEntity
  8
Doc_ Finishes
  6
Continuous
100
AcDbLine
 10
67.75735926275445
 20
125.6248299460005
 30
0.0
 11
67.7659858205464
 21
125.3471213072454
 31
0.0
  0
LINE
  5
388
330
E3
100
AcDbEntity
  8
Doc_ Finishes
  6
Continuous
100
AcDbLine
 10
67.7659858205464
 20
125.3471213072454
 30
0.0
 11
67.7707148628555
 21
125.0692122492039
 31
0.0
  0
LINE
  5
389
330
E3
100
AcDbEntity
  8
Doc_ Finishes
  6
Continuous
100
AcDbLine
 10
67.7707148628555
 20
125.0692122492039
 30
0.0
 11
67.7716316744844
 21
124.7911027718761
 31
0.0
  0
LINE
  5
38A
330
E3
100
AcDbEntity
  8
Doc_ Finishes
  6
Continuous
100
AcDbLine
 10
67.7716316744844
 20
124.7911027718761
 30
0.0
 11
67.76883433295622
 21
124.5127971395022
 31
0.0
  0
LINE
  5
38B
330
E3
100
AcDbEntity
  8
Doc_ Finishes
  6
Continuous
100
AcDbLine
 10
67.76883433295622
 20
124.5127971395022
 30
0.0
 11
67.76245502971508
 21
124.2343038805623
 31
0.0
  0
LINE
  5
38C
330
E3
100
AcDbEntity
  8
Doc_ Finishes
  6
Continuous
100
AcDbLine
 10
67.76245502971508
 20
124.2343038805623
 30
0.0
 11
67.75265154164603
 21
123.9556315235368
 31
0.0
  0
LINE
  5
38D
330
E3
100
AcDbEntity
  8
Doc_ Finishes
  6
Continuous
100
AcDbLine
 10
67.75265154164603
 20
123.9556315235368
 30
0.0
 11
67.73961149531492
 21
123.6767885969059
 31
0.0
  0
LINE
  5
38E
330
E3
100
AcDbEntity
  8
Doc_ Finishes
  6
Continuous
100
AcDbLine
 10
67.73961149531492
 20
123.6767885969059
 30
0.0
 11
67.72354383848837
 21
123.39778789339
 31
0.0
  0
LINE
  5
38F
330
E3
100
AcDbEntity
  8
Doc_ Finishes
  6
Continuous
100
AcDbLine
 10
67.72354383848837
 20
123.39778789339
 30
0.0
 11
67.70467884013362
 21
123.1186379414694
 31
0.0
  0
LINE
  5
390
330
E3
100
AcDbEntity
  8
Doc_ Finishes
  6
Continuous
100
AcDbLine
 10
67.70467884013362
 20
123.1186379414694
 30
0.0
 11
67.68327661889889
 21
122.8393600623448
 31
0.0
  0
LINE
  5
391
330
E3
100
AcDbEntity
  8
Doc_ Finishes
  6
Continuous
100
AcDbLine
 10
67.68327661889889
 20
122.8393600623448
 30
0.0
 11
67.65960582191263
 21
122.5599585202563
 31
0.0
  0
LINE
  5
392
330
E3
100
AcDbEntity
  8
Doc_ Finishes
  6
Continuous
100
AcDbLine
 10
67.65960582191263
 20
122.5599585202563
 30
0.0
 11
67.63396068174414
 21
122.2804546364046
 31
0.0
  0
LINE
  5
393
330
E3
100
AcDbEntity
  8
Doc_ Finishes
  6
Continuous
100
AcDbLine
 10
67.63396068174414
 20
122.2804546364046
 30
0.0
 11
67.60664395944293
 21
122.0008654677502
 31
0.0
  0
HATCH
  5
394
330
E3
100
AcDbEntity
  8
Doc_ Finishes
  6
Continuous
 62
   255
370
     0
100
AcDbHatch
 10
0.0
 20
0.0
 30
0.0
210
0.0
220
0.0
230
1.0
  2
SOLID
 70
     1
 71
     0
 91
        1
 92
        3
 72
     0
 73
     1
 93
        8
 10
5.119176755622484
 20
23.07118092205953
 10
21.51681953957443
 20
23.07118092205953
 10
18.5317129394845
 20
80.03039694992268
 10
12.4619310429844
 20
81.36190384366407
 10
24.39215040110829
 20
82.69341073740546
 10
18.32236850460821
 20
84.02491174473263
 10
15.16873386575691
 20
144.1998640813364
 10
5.119176755622484
 20
144.1998640813364
 97
        0
 75
     0
 76
     1
 98
        0
  0
LINE
  5
395
330
E3
100
AcDbEntity
  8
Doc_ Finishes
  6
Continuous
100
AcDbLine
 10
21.51682194263933
 20
23.0711805907793
 30
0.0
 11
18.53171312860976
 21
80.03039719761517
 31
0.0
  0
LINE
  5
396
330
E3
100
AcDbEntity
  8
Doc_ Finishes
  6
Continuous
100
AcDbLine
 10
18.3223687876899
 20
84.02491591578729
 30
0.0
 11
15.16873293930729
 21
144.1998642358434
 31
0.0
  0
LINE
  5
397
330
E3
100
AcDbEntity
  8
Doc_ Finishes
  6
Continuous
100
AcDbLine
 10
18.3223687876899
 20
84.02491591578729
 30
0.0
 11
24.39214789440785
 21
82.69340693380967
 31
0.0
  0
LINE
  5
398
330
E3
100
AcDbEntity
  8
Doc_ Finishes
  6
Continuous
100
AcDbLine
 10
24.39214789440785
 20
82.69340693380967
 30
0.0
 11
12.46192975765168
 21
81.3619022160722
 31
0.0
  0
LINE
  5
399
330
E3
100
AcDbEntity
  8
Doc_ Finishes
  6
Continuous
100
AcDbLine
 10
12.46192975765168
 20
81.3619022160722
 30
0.0
 11
18.53171312860976
 21
80.03039749833472
 31
0.0
  0
LWPOLYLINE
  5
39A
330
E3
100
AcDbEntity
  8
Des_ Furniture
  6
Continuous
 62
   251
370
    18
100
AcDbPolyline
 90
        4
 70
   128
 43
0.0
 10
140.337924668516
 20
85.66426719178799
 10
142.4744513877324
 20
126.4316279592593
 10
144.5520883970576
 20
126.3227436174444
 10
142.4155616840146
 20
85.55538296776145
  0
LWPOLYLINE
  5
39B
330
E3
100
AcDbEntity
  8
Des_ Furniture
  6
Continuous
 62
   251
370
    18
100
AcDbPolyline
 90
        2
 70
   128
 43
0.0
 10
109.8919165750155
 20
140.7186141634294
 42
0.3373341105099786
 10
114.5699957977127
 20
132.4734462754231
  0
LWPOLYLINE
  5
39C
330
E3
100
AcDbEntity
  8
Des_ Furniture
  6
Continuous
 62
   251
370
    18
100
AcDbPolyline
 90
        2
 70
   128
 43
0.0
 10
109.4738024766334
 20
132.7405266077397
 10
109.8919165750155
 20
140.7186141634294
  0
LWPOLYLINE
  5
39D
330
E3
100
AcDbEntity
  8
Des_ Furniture
  6
Continuous
100
AcDbPolyline
 90
        6
 70
   128
 43
0.0
 10
152.8966655106585
 20
132.2002148532947
 10
150.4433973609814
 20
139.0600555735253
 42
0.2604542593494868
 10
149.8908093350869
 20
139.4235815837457
 10
107.8446865874884
 20
141.9124559232792
 42
-0.353994670732474
 10
106.8559810526288
 20
142.8859872708168
 10
105.7485336164262
 20
149.2901180461338
  0
LWPOLYLINE
  5
39E
330
E3
100
AcDbEntity
  8
Doc_ Floor
  6
Continuous
100
AcDbPolyline
 90
        3
 70
   128
 43
0.0
 10
21.77307576787436
 20
141.17666072431
 10
41.77307576787447
 20
141.17666072431
 10
21.80048507278295
 20
140.1299415994514
  0
LWPOLYLINE
  5
39F
330
E3
100
AcDbEntity
  8
Doc_ Floor
  6
Continuous
100
AcDbPolyline
 90
        2
 70
   128
 43
0.0
 10
23.64872056208321
 20
142.5074046949467
 42
0.1172793849241032
 10
23.88882661694533
 20
138.9557559315152
  0
LWPOLYLINE
  5
3A0
330
E3
100
AcDbEntity
  8
Des_ Furniture
  6
Continuous
 62
   251
370
    18
100
AcDbPolyline
 90
        4
 70
   128
 43
0.0
 10
62.13291455900709
 20
85.66426719178799
 10
59.99638783979071
 20
126.4316279592593
 10
57.91875083046553
 20
126.3227436174444
 10
60.05527754350845
 20
85.55538296776145
  0
LWPOLYLINE
  5
3A1
330
E3
100
AcDbEntity
  8
Des_ Furniture
  6
Continuous
 62
   251
370
    18
100
AcDbPolyline
 90
        2
 70
   128
 43
0.0
 10
92.57892265250756
 20
140.7186141634294
 42
-0.3373341105099786
 10
87.90084342981037
 20
132.4734462754231
  0
LWPOLYLINE
  5
3A2
330
E3
100
AcDbEntity
  8
Des_ Furniture
  6
Continuous
 62
   251
370
    18
100
AcDbPolyline
 90
        2
 70
   128
 43
0.0
 10
92.99703675088966
 20
132.7405266077397
 10
92.57892265250756
 20
140.7186141634294
  0
LWPOLYLINE
  5
3A3
330
E3
100
AcDbEntity
  8
Des_ Furniture
  6
Continuous
100
AcDbPolyline
 90
        6
 70
   128
 43
0.0
 10
49.57417371686459
 20
132.2002148532947
 10
52.02744186654166
 20
139.0600555735253
 42
-0.2604542593494868
 10
52.58002989243619
 20
139.4235815837457
 10
94.52436015038724
 20
141.9800527860211
 42
0.321620128265106
 10
95.59488728343621
 20
142.7704998928915
 10
96.95870256127323
 20
149.2557344565574
  0
LWPOLYLINE
  5
3A4
330
E3
100
AcDbEntity
  8
Doc_ Floor
  6
Continuous
100
AcDbPolyline
 90
        3
 70
   128
 43
0.0
 10
63.39716292764992
 20
153.2172131157152
 10
83.39716292765003
 20
153.2172131157152
 10
63.42457223255851
 20
152.1704939908565
  0
LWPOLYLINE
  5
3A5
330
E3
100
AcDbEntity
  8
Doc_ Floor
  6
Continuous
100
AcDbPolyline
 90
        2
 70
   128
 43
0.0
 10
65.50846832079297
 20
154.662523977977
 42
0.1172793849241032
 10
65.7485743756551
 20
151.1108752145456
  0
LWPOLYLINE
  5
3A6
330
E3
100
AcDbEntity
  8
Des_ Furniture
  6
Hidden Line
100
AcDbPolyline
 90
        2
 70
   128
 43
0.0
 10
123.1454767555747
 20
131.2157000394203
 10
79.32536247194805
 20
131.2157000394203
  0
LWPOLYLINE
  5
3A7
330
E3
100
AcDbEntity
  8
Des_ Furniture
  6
Double Dashed
 62
   251
370
    18
100
AcDbPolyline
 90
        2
 70
   128
 43
0.0
 10
123.1454767555778
 20
130.2785254199353
 10
79.32536247194805
 20
130.2785254199353
  0
LWPOLYLINE
  5
3A8
330
E3
100
AcDbEntity
  8
Des_ Furniture
  6
Continuous
100
AcDbPolyline
 90
        2
 70
   128
 43
0.0
 10
104.8231034703393
 20
150.1028374990145
 10
97.8900785600387
 20
150.1028374990145
  0
LWPOLYLINE
  5
3A9
330
E3
100
AcDbEntity
  8
Des_ Furniture
  6
Continuous
100
AcDbPolyline
 90
        2
 70
   128
 43
0.0
 10
104.7046231630465
 20
150.1028374990145
 42
-0.3867411807598967
 10
105.7544794691047
 20
149.2557344565574
  0
LWPOLYLINE
  5
3AA
330
E3
100
AcDbEntity
  8
Des_ Furniture
  6
Continuous
100
AcDbPolyline
 90
        2
 70
   128
 43
0.0
 10
98.00855886733146
 20
150.1028374990145
 42
0.3867411807598967
 10
96.95870256127323
 20
149.2557344565574
  0
LINE
  5
3AB
330
E3
100
AcDbEntity
  8
Doc_ Floor
  6
Continuous
100
AcDbLine
 10
151.0918179127053
 20
146.2956828267969
 30
0.0
 11
150.1143304109287
 21
146.3273320170747
 31
0.0
  0
LINE
  5
3AC
330
E3
100
AcDbEntity
  8
Doc_ Floor
  6
Continuous
100
AcDbLine
 10
150.1143304109287
 20
146.3273320170747
 30
0.0
 11
110.1154381319098
 21
147.6223646889424
 31
0.0
  0
LINE
  5
3AD
330
E3
100
AcDbEntity
  8
Doc_ Floor
  6
Continuous
100
AcDbLine
 10
149.5049235890763
 20
145.3465397291939
 30
0.0
 11
150.723737232781
 21
147.3081243049555
 31
0.0
  0
LINE
  5
3AE
330
E3
100
AcDbEntity
  8
Doc_ Floor
  6
Continuous
100
AcDbLine
 10
110.7248449537622
 20
148.6031569768232
 30
0.0
 11
109.5060313100575
 21
146.6415724010616
 31
0.0
  0
LINE
  5
3AF
330
E3
100
AcDbEntity
  8
Doc_ Floor
  6
Continuous
100
AcDbLine
 10
110.1154381319098
 20
147.6223646889424
 30
0.0
 11
109.1379506301332
 21
147.6540138792202
 31
0.0
  0
LINE
  5
3B0
330
E3
100
AcDbEntity
  8
Doc_ Floor
  6
Continuous
100
AcDbLine
 10
150.162870256379
 20
147.8265450350594
 30
0.0
 11
150.0496120384084
 21
144.3283799050151
 31
0.0
  0
LINE
  5
3B1
330
E3
100
AcDbEntity
  8
Doc_ Floor
  6
Continuous
100
AcDbLine
 10
110.1639779773601
 20
149.1215777069271
 30
0.0
 11
110.0507197593895
 21
145.6234125768827
 31
0.0
  0
MTEXT
  5
3B3
330
E3
100
AcDbEntity
  8
Doc_ Floor
  6
Continuous
100
AcDbMText
 10
129.0002275126679
 20
147.511199097714
 30
0.0
 40
2.5
 41
0.0
 71
     7
 72
     1
  1
{X}
  7
GENERATED_STYLE_3
 11
0.9994762860037409
 21
-0.03235975457521548
 31
0.0
 73
     1
 44
1.0
  0
LINE
  5
3B4
330
E3
100
AcDbEntity
  8
Doc_ Floor
  6
Continuous
100
AcDbLine
 10
51.37902269272536
 20
146.2956828267969
 30
0.0
 11
52.35651019450197
 21
146.3273320170747
 31
0.0
  0
LINE
  5
3B5
330
E3
100
AcDbEntity
  8
Doc_ Floor
  6
Continuous
100
AcDbLine
 10
52.35651019450197
 20
146.3273320170747
 30
0.0
 11
92.35540247352084
 21
147.6223646889424
 31
0.0
  0
LINE
  5
3B6
330
E3
100
AcDbEntity
  8
Doc_ Floor
  6
Continuous
100
AcDbLine
 10
52.901198643834
 20
147.3454918412536
 30
0.0
 11
51.81182174516994
 21
145.3091721928959
 31
0.0
  0
LINE
  5
3B7
330
E3
100
AcDbEntity
  8
Doc_ Floor
  6
Continuous
100
AcDbLine
 10
91.8107140241888
 20
146.6042048647635
 30
0.0
 11
92.90009092285287
 21
148.6405245131212
 31
0.0
  0
LINE
  5
3B8
330
E3
100
AcDbEntity
  8
Doc_ Floor
  6
Continuous
100
AcDbLine
 10
92.35540247352084
 20
147.6223646889424
 30
0.0
 11
93.33288997529745
 21
147.6540138792202
 31
0.0
  0
LINE
  5
3B9
330
E3
100
AcDbEntity
  8
Doc_ Floor
  6
Continuous
100
AcDbLine
 10
52.4212285670223
 20
144.3283799050151
 30
0.0
 11
52.30797034905169
 21
147.8265450350594
 31
0.0
  0
LINE
  5
3BA
330
E3
100
AcDbEntity
  8
Doc_ Floor
  6
Continuous
100
AcDbLine
 10
92.42012084604116
 20
145.6234125768827
 30
0.0
 11
92.30686262807056
 21
149.1215777069271
 31
0.0
  0
MTEXT
  5
3BB
330
E3
100
AcDbEntity
  8
Doc_ Floor
  6
Continuous
100
AcDbMText
 10
71.20893943485282
 20
147.4379735885796
 30
0.0
 40
2.5
 41
0.0
 71
     7
 72
     1
  1
{X}
  7
GENERATED_STYLE_3
 11
0.9994762860037409
 21
0.03235975457521483
 31
0.0
 73
     1
 44
1.0
  0
MTEXT
  5
3BC
330
E3
100
AcDbEntity
  8
Doc_ Floor
  6
Continuous
100
AcDbMText
 10
209.6638727245553
 20
169.7899686009703
 30
0.0
 40
2.500000000000001
 41
61.87837262817281
 71
     4
 72
     1
  1
{PROFILED FOAM CLOSURE\P(only required in high risk situations of wind blown moisture entering)}
  7
GENERATED_STYLE_1
 73
     1
 44
1.05445724262312
  0
LINE
  5
3BD
330
E3
100
AcDbEntity
  8
Doc_ Floor
  6
Continuous
100
AcDbLine
 10
127.9487718139697
 20
140.7224147843722
 30
0.0
 11
130.4602045696259
 21
143.6585530646979
 31
0.0
  0
LINE
  5
3BE
330
E3
100
AcDbEntity
  8
Doc_ Floor
  6
Continuous
100
AcDbLine
 10
127.9487718139697
 20
140.7224147843722
 30
0.0
 11
131.5918059741012
 21
142.0094690629483
 31
0.0
  0
LINE
  5
3BF
330
E3
100
AcDbEntity
  8
Doc_ Floor
  6
Continuous
100
AcDbLine
 10
130.4602045696259
 20
143.6585530646979
 30
0.0
 11
131.5918059741012
 21
142.0094690629483
 31
0.0
  0
LWPOLYLINE
  5
3C0
330
E3
100
AcDbEntity
  8
Doc_ Floor
  6
Continuous
100
AcDbPolyline
 90
       17
 70
   128
 43
0.0
 10
131.0260044511872
 20
142.8340125940995
 10
136.5502708210369
 20
146.5068607337595
 10
141.860066437527
 20
149.8720562895526
 10
146.9821521877269
 20
152.9393538630539
 10
151.9432889587062
 20
155.7185080558386
 10
156.7702376375344
 20
158.2192734694818
 10
161.4897591112811
 20
160.4514047055587
 10
166.1286142670158
 20
162.4246563656446
 10
170.7135639918079
 20
164.1487830513145
 10
175.2713691727269
 20
165.6335393641437
 10
179.8287906968425
 20
166.8886799057074
 10
184.4125894512241
 20
167.9239592775806
 10
189.0495263229412
 20
168.7491320813386
 10
193.7663621990633
 20
169.3739529185566
 10
198.5898579666601
 20
169.8081763908096
 10
203.5467745128009
 20
170.0615570996731
 10
208.6638727245553
 20
170.1438496467219
  0
MTEXT
  5
3C1
330
E3
100
AcDbEntity
  8
Doc_ Floor
  6
Continuous
100
AcDbMText
 10
210.5784635852245
 20
62.88046724284145
 30
0.0
 40
2.500000000000001
 41
0.0
 71
     4
 72
     1
  1
{STEEL PURLIN & CLEAT }
  7
GENERATED_STYLE_1
 73
     1
 44
1.0
  0
LINE
  5
3C2
330
E3
100
AcDbEntity
  8
Doc_ Floor
  6
Continuous
100
AcDbLine
 10
143.3309051322721
 20
103.0212059600309
 30
0.0
 11
146.8532058614774
 21
101.4332498406084
 31
0.0
  0
LINE
  5
3C3
330
E3
100
AcDbEntity
  8
Doc_ Floor
  6
Continuous
100
AcDbLine
 10
143.3309051322721
 20
103.0212059600309
 30
0.0
 11
145.5873277994089
 21
99.88484454843287
 31
0.0
  0
LINE
  5
3C4
330
E3
100
AcDbEntity
  8
Doc_ Floor
  6
Continuous
100
AcDbLine
 10
146.8532058614774
 20
101.4332498406084
 30
0.0
 11
145.5873277994089
 21
99.88484454843287
 31
0.0
  0
LWPOLYLINE
  5
3C5
330
E3
100
AcDbEntity
  8
Doc_ Floor
  6
Continuous
100
AcDbPolyline
 90
       15
 70
   128
 43
0.0
 10
146.2202664666418
 20
100.6590468123799
 10
158.3805827836488
 20
90.92384026786843
 10
168.9713469989333
 20
82.83835719983125
 10
173.7340796880208
 20
79.38038714677162
 10
178.1715434951873
 20
76.29419817556786
 10
182.3061114682692
 20
73.56624035713241
 10
186.160156655103
 20
71.18296376237774
 10
189.7560521035253
 20
69.13081846221623
 10
193.1161708613724
 20
67.39625452756037
 10
196.2628859764812
 20
65.96572202932256
 10
199.2185704966878
 20
64.82567103841527
 10
202.005597469829
 20
63.9625516257509
 10
204.6463399437411
 20
63.36281386224189
 10
207.1631709662608
 20
63.01290781880071
 10
209.5784635852245
 20
62.89928356633978
  0
MTEXT
  5
3C6
330
E3
100
AcDbEntity
  8
Doc_ Floor
  6
Continuous
100
AcDbMText
 10
209.2531323810402
 20
185.3178315444673
 30
0.0
 40
2.500000000000001
 41
0.0
 71
     4
 72
     1
  1
{STOPEND SHEET}
  7
GENERATED_STYLE_1
 73
     1
 44
1.0
  0
LINE
  5
3C7
330
E3
100
AcDbEntity
  8
Doc_ Floor
  6
Continuous
100
AcDbLine
 10
112.1543760237101
 20
136.4428617636135
 30
0.0
 11
114.2033562010269
 21
139.7185103149627
 31
0.0
  0
LINE
  5
3C8
330
E3
100
AcDbEntity
  8
Doc_ Floor
  6
Continuous
100
AcDbLine
 10
112.1543760237101
 20
136.4428617636135
 30
0.0
 11
115.5666678859272
 21
138.2551680849889
 31
0.0
  0
LINE
  5
3C9
330
E3
100
AcDbEntity
  8
Doc_ Floor
  6
Continuous
100
AcDbLine
 10
114.2033562010269
 20
139.7185103149627
 30
0.0
 11
115.5666678859272
 21
138.2551680849889
 31
0.0
  0
LWPOLYLINE
  5
3CA
330
E3
100
AcDbEntity
  8
Doc_ Floor
  6
Continuous
100
AcDbPolyline
 90
       17
 70
   128
 43
0.0
 10
114.8850129252971
 20
138.9868379466658
 10
121.7595355627533
 20
145.224747341301
 10
128.3425957854578
 20
150.9393766158385
 10
134.6669636773867
 20
156.1473987595976
 10
140.7654093225163
 20
160.8654867618977
 10
146.6707028048226
 20
165.1103136120583
 10
152.4156142082819
 20
168.8985522993988
 10
158.0329136168702
 20
172.2468758132385
 10
163.5553711145637
 20
175.1719571428969
 10
169.0157567853387
 20
177.6904692776934
 10
174.4468407131713
 20
179.8190852069473
 10
179.8813929820375
 20
181.5744779199782
 10
185.3521836759137
 20
182.9733204061054
 10
190.8919828787758
 20
184.0322856546483
 10
196.5335606746002
 20
184.7680466549264
 10
202.3096871473629
 20
185.197276396259
 10
208.2531323810402
 20
185.3366478679656
  0
MTEXT
  5
3CB
330
E3
100
AcDbEntity
  8
Doc_ Floor
  6
Continuous
100
AcDbMText
 10
209.2531323810402
 20
196.9639367695234
 30
0.0
 40
2.500000000000001
 41
44.20414712541213
 71
     4
 72
     1
  1
{ROLL TOP RIDGE FLASHING}
  7
GENERATED_STYLE_1
 73
     1
 44
1.0
  0
LINE
  5
3CC
330
E3
100
AcDbEntity
  8
Doc_ Floor
  6
Continuous
100
AcDbLine
 10
104.8231024937818
 20
150.1028390612227
 30
0.0
 11
105.8753549178355
 21
153.8204931594667
 31
0.0
  0
LINE
  5
3CD
330
E3
100
AcDbEntity
  8
Doc_ Floor
  6
Continuous
100
AcDbLine
 10
104.8231024937818
 20
150.1028390612227
 30
0.0
 11
107.5932083202332
 21
152.7962951712575
 31
0.0
  0
LINE
  5
3CE
330
E3
100
AcDbEntity
  8
Doc_ Floor
  6
Continuous
100
AcDbLine
 10
105.8753549178355
 20
153.8204931594667
 30
0.0
 11
107.5932083202332
 21
152.7962951712575
 31
0.0
  0
LWPOLYLINE
  5
3CF
330
E3
100
AcDbEntity
  8
Doc_ Floor
  6
Continuous
100
AcDbPolyline
 90
       29
 70
   128
 43
0.0
 10
106.7342808855902
 20
153.308394882178
 10
108.6344538494336
 20
156.3080952769888
 10
110.5736355776758
 20
159.1827961192122
 10
112.5561335238472
 20
161.9344497728558
 10
114.5862551414781
 20
164.5650086019274
 10
116.6683078840989
 20
167.0764249704346
 10
118.8065992052399
 20
169.4706512423851
 10
121.0054365584317
 20
171.7496397817866
 10
123.2691273972044
 20
173.9153429526468
 10
125.6019791750886
 20
175.9697131189734
 10
128.0082993456145
 20
177.9147026447741
 10
130.4923953623127
 20
179.7522638940565
 10
133.0585746787133
 20
181.4843492308284
 10
135.7111447483469
 20
183.1129110190974
 10
138.4544130247438
 20
184.6399016228713
 10
141.2926869614343
 20
186.0672734061577
 10
144.2302740119489
 20
187.3969787329642
 10
147.2714816298179
 20
188.6309699672987
 10
150.4206172685717
 20
189.7711994731688
 10
153.6819883817407
 20
190.8196196145822
 10
157.0599024228553
 20
191.7781827555465
 10
160.5586668454457
 20
192.6488412600695
 10
164.1825891030425
 20
193.4335474921589
 10
167.935976649176
 20
194.1342538158223
 10
171.8231369373765
 20
194.7529125950674
 10
180.0160055541002
 20
195.7518969763336
 10
188.7956545814568
 20
196.4461195480191
 10
198.1965436476891
 20
196.8511992221852
 10
208.2531323810402
 20
196.9827549108936
  0
MTEXT
  5
3D0
330
E3
100
AcDbEntity
  8
Doc_ Floor
  6
Continuous
100
AcDbMText
 10
49.51860407225981
 20
177.4679712779799
 30
0.0
 40
2.5
 41
40.00320353366424
 71
     6
 72
     1
  1
{RIDGE FLASHING PURPOSE MADE TO MATCH ROOF PITCH}
  7
GENERATED_STYLE_1
 73
     1
 44
1.065340909090909
  0
LINE
  5
3D1
330
E3
100
AcDbEntity
  8
Doc_ Floor
  6
Continuous
100
AcDbLine
 10
65.50846724369511
 20
154.6625228091328
 30
0.0
 11
63.23609631845556
 21
157.7873494511672
 31
0.0
  0
LINE
  5
3D2
330
E3
100
AcDbEntity
  8
Doc_ Floor
  6
Continuous
100
AcDbLine
 10
65.50846724369511
 20
154.6625228091328
 30
0.0
 11
65.10294653539052
 21
158.5048846101084
 31
0.0
  0
LINE
  5
3D3
330
E3
100
AcDbEntity
  8
Doc_ Floor
  6
Continuous
100
AcDbLine
 10
63.23609631845556
 20
157.7873494511672
 30
0.0
 11
65.10294653539052
 21
158.5048846101084
 31
0.0
  0
LWPOLYLINE
  5
3D4
330
E3
100
AcDbEntity
  8
Doc_ Floor
  6
Continuous
100
AcDbPolyline
 90
       12
 70
   128
 43
0.0
 10
64.16952224391399
 20
158.1461170721858
 10
62.14097398973371
 20
163.1166806135893
 10
60.27485931938311
 20
167.2506558652272
 10
58.53598765276501
 20
170.601625647586
 10
56.88916840978219
 20
173.2231727811522
 10
55.29921101033746
 20
175.1688800864124
 10
54.51455844566151
 20
175.9050384348298
 10
53.73092487433362
 20
176.4923303838531
 10
52.94391147384166
 20
176.9374537860431
 10
52.14911942167347
 20
177.2471064939607
 10
51.3421498953169
 20
177.4279863601666
 10
50.51860407225981
 20
177.4867912372218
  0
MTEXT
  5
3D5
330
E3
100
AcDbEntity
  8
Doc_ Floor
  6
Continuous
100
AcDbMText
 10
16.26908219632312
 20
148.4363379587596
 30
0.0
 40
2.5
 41
0.0
 71
     1
 72
     1
  1
{ROOF PITCH 3° MIN.}
  7
GENERATED_STYLE_1
 73
     1
 44
1.0
  0
LINE
  5
3D6
330
E3
100
AcDbEntity
  8
Doc_ Finishes
  6
Continuous
100
AcDbLine
 10
188.0460555284574
 20
47.04985175121868
 30
0.0
 11
288.4391377698042
 21
47.04985175121868
 31
0.0
  0
LINE
  5
3D7
330
E3
100
AcDbEntity
  8
Doc_ Finishes
  6
Continuous
100
AcDbLine
 10
288.4391377698042
 20
55.1362198671923
 30
0.0
 11
288.4391377698042
 21
25.52866674521437
 31
0.0
  0
LINE
  5
3D8
330
E3
100
AcDbEntity
  8
Doc_ Finishes
  6
Continuous
100
AcDbLine
 10
188.0460555284574
 20
25.52866674521437
 30
0.0
 11
188.0460555284574
 21
47.04985175121868
 31
0.0
  0
LINE
  5
3D9
330
E3
100
AcDbEntity
  8
Doc_ Finishes
  6
Continuous
100
AcDbLine
 10
264.4691233175573
 20
55.1362198671923
 30
0.0
 11
264.4691233175573
 21
25.52866674521437
 31
0.0
  0
LINE
  5
3DA
330
E3
100
AcDbEntity
  8
Doc_ Finishes
  6
Continuous
100
AcDbLine
 10
188.0460555284574
 20
36.28925924821652
 30
0.0
 11
288.4391377698042
 21
36.28925924821652
 31
0.0
  0
LINE
  5
3DB
330
E3
100
AcDbEntity
  8
Doc_ Finishes
  6
Continuous
100
AcDbLine
 10
188.0460555284574
 20
25.52866674521437
 30
0.0
 11
288.4391377698042
 21
25.52866674521437
 31
0.0
  0
LINE
  5
3DC
330
E3
100
AcDbEntity
  8
Doc_ Finishes
  6
Continuous
100
AcDbLine
 10
264.4691233175573
 20
55.1362198671923
 30
0.0
 11
288.4391377698042
 21
55.1362198671923
 31
0.0
  0
MTEXT
  5
3DD
330
E3
100
AcDbEntity
  8
0
  6
Continuous
100
AcDbMText
 10
191.6019816131285
 20
38.20621019415462
 30
0.0
 40
2.499999999999999
 41
69.01187578516152
 71
     7
 72
     1
  1
\A1;{\fCentury Gothic|b0|i0|c0|p34;LOW, MEDIUM OR HIGH WIND ZONE.\P ROOF PITCH \fArial|b0|i0|c0|p34;\H1.029412x;\U+2265\fCentury Gothic|b0|i0|c0|p34;\H0.971429x; 10\fArial|b0|i0|c0|p34;\H1.029412x;\U+00B0}
  7
GENERATED_STYLE_1
 73
     1
 44
1.056355725756043
  0
MTEXT
  5
3DE
330
E3
100
AcDbEntity
  8
0
  6
Continuous
100
AcDbMText
 10
191.6019816131285
 20
27.78335780802745
 30
0.0
 40
2.5
 41
69.01187578516152
 71
     7
 72
     1
  1
\A1;{\fCentury Gothic|b0|i0|c0|p34;VERY HIGH OR EXTRA WIND ZONE.\P ROOF PITCH \fArial|b0|i0|c0|p34;\H1.029412x;<\fCentury Gothic|b0|i0|c0|p34;\H0.971429x; 10\fArial|b0|i0|c0|p34;\H1.029412x;\U+00B0}
  7
GENERATED_STYLE_1
 73
     1
 44
1.056355725756043
  0
MTEXT
  5
3DF
330
E3
100
AcDbEntity
  8
0
  6
Continuous
100
AcDbMText
 10
276.1013156697165
 20
40.24604085574801
 30
0.0
 40
2.499999999999999
 41
0.0
 71
     8
 72
     1
  1
{130mm}
  7
GENERATED_STYLE_1
 73
     1
 44
1.0
  0
MTEXT
  5
3E0
330
E3
100
AcDbEntity
  8
0
  6
Continuous
100
AcDbMText
 10
276.1013156697165
 20
29.00726133429032
 30
0.0
 40
2.499999999999999
 41
0.0
 71
     8
 72
     1
  1
{200mm}
  7
GENERATED_STYLE_1
 73
     1
 44
1.0
  0
MTEXT
  5
3E1
330
E3
100
AcDbEntity
  8
0
  6
Continuous
100
AcDbMText
 10
276.1013156697165
 20
50.1281049211645
 30
0.0
 40
2.499999999999999
 41
0.0
 71
     8
 72
     1
  1
{X}
  7
GENERATED_STYLE_1
 73
     1
 44
1.0
  0
MTEXT
  5
3E2
330
E3
100
AcDbEntity
  8
Doc_ Floor
  6
Continuous
100
AcDbMText
 10
210.8134209524476
 20
53.04585783099873
 30
0.0
 40
2.5
 41
0.0
 71
     4
 72
     1
  1
{STRUCTURAL STEEL}
  7
GENERATED_STYLE_1
 73
     1
 44
1.0
  0
LINE
  5
3E3
330
E3
100
AcDbEntity
  8
Doc_ Floor
  6
Continuous
100
AcDbLine
 10
166.0396682229964
 20
53.06467333108402
 30
0.0
 11
169.7717183959343
 21
54.06467602077044
 31
0.0
  0
LINE
  5
3E4
330
E3
100
AcDbEntity
  8
Doc_ Floor
  6
Continuous
100
AcDbLine
 10
166.0396682229964
 20
53.06467333108402
 30
0.0
 11
169.7717183959343
 21
52.06467490563772
 31
0.0
  0
LINE
  5
3E5
330
E3
100
AcDbEntity
  8
Doc_ Floor
  6
Continuous
100
AcDbLine
 10
169.7717183959343
 20
54.06467602077044
 30
0.0
 11
169.7717183959343
 21
52.06467490563772
 31
0.0
  0
LWPOLYLINE
  5
3E6
330
E3
100
AcDbEntity
  8
Doc_ Floor
  6
Continuous
100
AcDbPolyline
 90
        2
 70
   128
 43
0.0
 10
169.7717194552149
 20
53.06467415449701
 10
209.8134209524476
 20
53.06467415449701
  0
MTEXT
  5
3E7
330
E3
100
AcDbEntity
  8
Doc_ Floor
  6
Continuous
100
AcDbMText
 10
209.9564116784511
 20
112.3239727326098
 30
0.0
 40
2.5
 41
52.37208768273649
 71
     4
 72
     1
  1
{BMT 0.55 RIDGE FLASHING NOTCHED TURN-DOWN OVER ROOFING, 5mm MAX GAP TO CLEAR OF TROUGH OR ROOFING}
  7
GENERATED_STYLE_1
 73
     1
 44
1.062946161486498
  0
LINE
  5
3E8
330
E3
100
AcDbEntity
  8
Doc_ Floor
  6
Continuous
100
AcDbLine
 10
152.2572560626473
 20
133.988134873265
 30
0.0
 11
155.8560487313841
 21
132.5821168234183
 31
0.0
  0
LINE
  5
3E9
330
E3
100
AcDbEntity
  8
Doc_ Floor
  6
Continuous
100
AcDbLine
 10
152.2572560626473
 20
133.988134873265
 30
0.0
 11
154.6708927350604
 21
130.9710911648686
 31
0.0
  0
LINE
  5
3EA
330
E3
100
AcDbEntity
  8
Doc_ Floor
  6
Continuous
100
AcDbLine
 10
155.8560487313841
 20
132.5821168234183
 30
0.0
 11
154.6708927350604
 21
130.9710911648686
 31
0.0
  0
LWPOLYLINE
  5
3EB
330
E3
100
AcDbEntity
  8
Doc_ Floor
  6
Continuous
100
AcDbPolyline
 90
       17
 70
   128
 43
0.0
 10
155.2634703747071
 20
131.7766019465248
 10
158.9551150329214
 20
129.1658870935033
 10
162.5180776716178
 20
126.773349578794
 10
165.970337699929
 20
124.5921255992146
 10
169.3298745269882
 20
122.6153513515827
 10
172.6146675619283
 20
120.836163032716
 10
175.8426962138824
 20
119.247696839432
 10
179.0319398919835
 20
117.8430889685486
 10
182.2003780053644
 20
116.6154756168832
 10
185.3659899631584
 20
115.5579929812535
 10
188.5467551744983
 20
114.6637772584773
 10
191.7606530485171
 20
113.925964645372
 10
195.025662994348
 20
113.3376913387554
 10
198.3597644211238
 20
112.8920935354451
 10
201.7809367379776
 20
112.5823074322588
 10
205.3071593540424
 20
112.4014692260141
 10
208.9564116784511
 20
112.3427151135286
  0
MTEXT
  5
3EC
330
E3
100
AcDbEntity
  8
Doc_ Floor
  6
Continuous
100
AcDbMText
 10
210.5092905013921
 20
86.86883443547549
 30
0.0
 40
2.5
 41
63.74107021605329
 71
     4
 72
     1
  1
{ROOFING UNDERLAY LAID OVER SAFETY NETTING}
  7
GENERATED_STYLE_1
 73
     1
 44
1.070162922071087
  0
LINE
  5
3ED
330
E3
100
AcDbEntity
  8
Doc_ Floor
  6
Continuous
100
AcDbLine
 10
153.3476862286246
 20
128.6956926291336
 30
0.0
 11
156.2544865368254
 21
126.1503634286487
 31
0.0
  0
LINE
  5
3EE
330
E3
100
AcDbEntity
  8
Doc_ Floor
  6
Continuous
100
AcDbLine
 10
153.3476862286246
 20
128.6956926291336
 30
0.0
 11
154.5923838099453
 21
125.037972425979
 31
0.0
  0
LINE
  5
3EF
330
E3
100
AcDbEntity
  8
Doc_ Floor
  6
Continuous
100
AcDbLine
 10
156.2544865368254
 20
126.1503634286487
 30
0.0
 11
154.5923838099453
 21
125.037972425979
 31
0.0
  0
LWPOLYLINE
  5
3F0
330
E3
100
AcDbEntity
  8
Doc_ Floor
  6
Continuous
100
AcDbPolyline
 90
       17
 70
   128
 43
0.0
 10
155.42343696589
 20
125.5941679547548
 10
159.0365400965783
 20
120.3890570781314
 10
162.5320191980129
 20
115.6198681384295
 10
165.9284297826135
 20
111.2727879681805
 10
169.2443273627995
 20
107.3340033999154
 10
172.4982674509904
 20
103.7897012661655
 10
175.7088055596057
 20
100.6260683994621
 10
178.8944972010649
 20
97.82929163233622
 10
182.0738978877876
 20
95.38555779731922
 10
185.2655631321932
 20
93.28105372694223
 10
188.4880484467011
 20
91.5019662537365
 10
191.7599093437311
 20
90.0344822102332
 10
195.0997013357024
 20
88.86478842896356
 10
198.5259799350347
 20
87.97907174245876
 10
202.0573006541474
 20
87.36351898325003
 10
205.71221900546
 20
87.00431698386858
 10
209.5092905013921
 20
86.88765257684561
  0
MTEXT
  5
3F1
330
E3
100
AcDbEntity
  8
Doc_ Floor
  6
Continuous
100
AcDbMText
 10
209.6211430255793
 20
150.7148512826001
 30
0.0
 40
2.500000000000001
 41
55.02639797738767
 71
     4
 72
     1
  1
{SCREW FIXING WITH 12x55 STEEL TEK & NEO WITH SELECTED WASHER SYSTEM}
  7
GENERATED_STYLE_1
 73
     1
 44
1.065340909090909
  0
LINE
  5
3F2
330
E3
100
AcDbEntity
  8
Doc_ Floor
  6
Continuous
100
AcDbLine
 10
137.5999028472745
 20
141.2148918774982
 30
0.0
 11
140.6569365996517
 21
143.5776732220681
 31
0.0
  0
LINE
  5
3F3
330
E3
100
AcDbEntity
  8
Doc_ Floor
  6
Continuous
100
AcDbLine
 10
137.5999028472745
 20
141.2148918774982
 30
0.0
 11
141.4287640639845
 21
141.7326004794996
 31
0.0
  0
LINE
  5
3F4
330
E3
100
AcDbEntity
  8
Doc_ Floor
  6
Continuous
100
AcDbLine
 10
140.6569365996517
 20
143.5776732220681
 30
0.0
 11
141.4287640639845
 21
141.7326004794996
 31
0.0
  0
LWPOLYLINE
  5
3F5
330
E3
100
AcDbEntity
  8
Doc_ Floor
  6
Continuous
100
AcDbPolyline
 90
       13
 70
   128
 43
0.0
 10
141.0428501036903
 20
142.6551365426182
 10
143.9417656330123
 20
143.7383650567119
 10
146.9198482026952
 20
144.7314214839529
 10
149.9979828120414
 20
145.6371049830844
 10
153.1970544603536
 20
146.458214712849
 10
156.5379481469342
 20
147.1975498319898
 10
160.041548871086
 20
147.8579094992498
 10
163.7287416321115
 20
148.4420928733717
 10
167.6204114293132
 20
148.9528991130986
 10
176.1007221294555
 20
149.7655768243389
 10
185.6495609659335
 20
150.318335902914
 10
196.434007933168
 20
150.6335696187672
 10
208.6211430255793
 20
150.733671241842
  0
MTEXT
  5
3F6
102
{ACAD_XDICTIONARY
360
42F
102
}
330
E3
100
AcDbEntity
  8
Doc_ Floor
  6
Continuous
100
AcDbMText
 10
210.2479127977496
 20
136.4764648124871
 30
0.0
 40
2.5
 41
0.0
 71
     4
 72
     1
  1
TRS PROFILED METAL ROOFING}
  7
GENERATED_STYLE_1
 73
     1
 44
1.0
  0
LINE
  5
3F7
330
E3
100
AcDbEntity
  8
Doc_ Floor
  6
Continuous
100
AcDbLine
 10
168.6449867536925
 20
133.4399966536642
 30
0.0
 11
172.2072647341581
 21
134.9361138333113
 31
0.0
  0
LINE
  5
3F8
330
E3
100
AcDbEntity
  8
Doc_ Floor
  6
Continuous
100
AcDbLine
 10
168.6449867536925
 20
133.4399966536642
 30
0.0
 11
172.4780695681357
 21
132.9545342355593
 31
0.0
  0
LINE
  5
3F9
330
E3
100
AcDbEntity
  8
Doc_ Floor
  6
Continuous
100
AcDbLine
 10
172.2072647341581
 20
134.9361138333113
 30
0.0
 11
172.4780695681357
 21
132.9545342355593
 31
0.0
  0
LWPOLYLINE
  5
3FA
330
E3
100
AcDbEntity
  8
Doc_ Floor
  6
Continuous
100
AcDbPolyline
 90
        5
 70
   128
 43
0.0
 10
172.342669068725
 20
133.9453233149799
 10
182.3042283616584
 20
135.1452661545099
 10
191.2774980815666
 20
135.9327572743696
 10
200.0096642273102
 20
136.3640208697859
 10
209.2479127977496
 20
136.4952811359854
  0
ENDBLK
  5
E5
330
E3
100
AcDbEntity
  8
0
100
AcDbBlockEnd
  0
BLOCK
  5
400
330
3FF
100
AcDbEntity
  8
0
100
AcDbBlockBegin
  2
C-TRS9-01 TOP RIDGE DETAIL - SQ_STORY_MARKER
 70
     0
 10
0.0
 20
0.0
 30
0.0
  3
C-TRS9-01 TOP RIDGE DETAIL - SQ_STORY_MARKER
  1

  0
ENDBLK
  5
401
330
3FF
100
AcDbEntity
  8
0
100
AcDbBlockEnd
  0
ENDSEC
  0
SECTION
  2
ENTITIES
  0
HATCH
  5
3F
330
1F
100
AcDbEntity
  8
Doc_ Finishes
  6
Continuous
100
AcDbHatch
 10
0.0
 20
0.0
 30
0.0
210
0.0
220
0.0
230
1.0
  2
SOLID
 70
     1
 71
     0
 91
        1
 92
        3
 72
     0
 73
     1
 93
       54
 10
25.4117749414874
 20
16.87044408857867
 10
24.89356552397386
 20
16.5825499677378
 10
24.5480925789648
 20
16.29465584689693
 10
24.12584786839818
 20
16.02595466744544
 10
23.76118198199976
 20
15.60370995687884
 10
23.39651609560134
 20
15.33500877742737
 10
23.07023609198168
 20
14.89357112547136
 10
22.49444785029994
 20
14.45213347351537
 10
21.93785255000758
 20
14.02988876294876
 10
21.43883607388343
 20
13.81876640766546
 10
20.74789018386533
 20
13.39652169709885
 10
20.09533017662603
 20
12.99346992792163
 10
19.63469958328064
 20
12.55203227596564
 10
18.90536781048376
 20
12.12978756539902
 10
18.59828074825351
 20
11.7459287376112
 10
18.04168544796116
 20
11.28529814426581
 10
17.36993249933246
 20
10.8630534336992
 10
16.73656543348255
 20
10.42161578174319
 10
16.04561954346446
 20
10.15291460229172
 10
15.1051654153843
 20
9.692284008946325
 10
14.39502658397681
 20
9.020531060317637
 10
13.83843128368446
 20
8.598286349751023
 10
13.12829245227699
 20
8.137655756405634
 10
12.84039833143612
 20
7.98411222529051
 10
12.37976773809073
 20
7.81137575278599
 10
12.07268067586046
 20
7.523481631945121
 10
12.0151018516923
 20
7.216394569714853
 10
12.14945244141803
 20
6.890114566095209
 10
12.4373465622589
 20
6.563834562475543
 10
12.8787842142149
 20
6.659799269422514
 10
13.51215128006482
 20
7.06285103859973
 10
14.01116775618899
 20
7.389131042219374
 10
14.33744775980864
 20
7.696218104449641
 10
14.51018423231316
 20
7.907340459732938
 10
15.01303929671522
 20
8.421711288968723
 10
15.33548071205699
 20
8.652026585641417
 10
15.75004824606785
 20
8.99749953065046
 10
16.14158425041142
 20
9.204783297655894
 10
17.24709767444037
 20
9.75754000967037
 10
18.23745345013295
 20
10.47151742935572
 10
19.4120614631637
 20
11.1624633193738
 10
19.84966052684182
 20
11.64612544238645
 10
20.49454335752537
 20
12.06069297639732
 10
21.78430901889248
 20
12.9819541630881
 10
22.36009726057419
 20
13.25833251909534
 10
23.6498629219413
 20
14.24868829478776
 10
23.85714668894673
 20
14.64022429913134
 10
24.68628175696843
 20
15.23904407048036
 10
25.28510152831745
 20
15.72270619349301
 10
25.81482671066464
 20
16.1142421978366
 10
26.27545730401003
 20
16.52880973184745
 10
26.22939424467549
 20
16.7821565581874
 10
26.09120506667188
 20
16.89731420652375
 10
25.56147988432467
 20
16.89731420652375
 97
        0
 75
     0
 76
     1
 98
        0
  0
LINE
  5
41
330
1F
100
AcDbEntity
  8
Doc_ Finishes
  6
Continuous
100
AcDbLine
 10
25.41177616050354
 20
16.87044600708104
 30
0.0
 11
24.89356363099921
 21
16.58254868214004
 31
0.0
  0
LINE
  5
42
330
1F
100
AcDbEntity
  8
Doc_ Finishes
  6
Continuous
100
AcDbLine
 10
24.89356363099921
 20
16.58254868214004
 30
0.0
 11
24.54809303697876
 21
16.29465578284815
 31
0.0
  0
LINE
  5
43
330
1F
100
AcDbEntity
  8
Doc_ Finishes
  6
Continuous
100
AcDbLine
 10
24.54809303697876
 20
16.29465578284815
 30
0.0
 11
24.12584628245476
 21
16.02595249803305
 31
0.0
  0
LINE
  5
44
330
1F
100
AcDbEntity
  8
Doc_ Finishes
  6
Continuous
100
AcDbLine
 10
24.12584628245476
 20
16.02595249803305
 30
0.0
 11
23.76118164830842
 21
15.60371016915814
 31
0.0
  0
LINE
  5
45
330
1F
100
AcDbEntity
  8
Doc_ Finishes
  6
Continuous
100
AcDbLine
 10
23.76118164830842
 20
15.60371016915814
 30
0.0
 11
23.39651701416208
 21
15.33500688434304
 31
0.0
  0
LINE
  5
46
330
1F
100
AcDbEntity
  8
Doc_ Finishes
  6
Continuous
100
AcDbLine
 10
23.39651701416208
 20
15.33500688434304
 30
0.0
 11
23.07023603461841
 21
14.89357051534225
 31
0.0
  0
LINE
  5
47
330
1F
100
AcDbEntity
  8
Doc_ Finishes
  6
Continuous
100
AcDbLine
 10
23.07023603461841
 20
14.89357051534225
 30
0.0
 11
22.49444581038552
 21
14.45213414634146
 31
0.0
  0
LINE
  5
48
330
1F
100
AcDbEntity
  8
Doc_ Finishes
  6
Continuous
100
AcDbLine
 10
22.49444581038552
 20
14.45213414634146
 30
0.0
 11
21.93785405192762
 21
14.02988739181747
 31
0.0
  0
LINE
  5
49
330
1F
100
AcDbEntity
  8
Doc_ Finishes
  6
Continuous
100
AcDbLine
 10
21.93785405192762
 20
14.02988739181747
 30
0.0
 11
21.43883556254917
 21
13.81876622738001
 31
0.0
  0
LINE
  5
4A
330
1F
100
AcDbEntity
  8
Doc_ Finishes
  6
Continuous
100
AcDbLine
 10
21.43883556254917
 20
13.81876622738001
 30
0.0
 11
20.74788994885916
 21
13.39652389850511
 31
0.0
  0
LINE
  5
4B
330
1F
100
AcDbEntity
  8
Doc_ Finishes
  6
Continuous
100
AcDbLine
 10
20.74788994885916
 20
13.39652389850511
 30
0.0
 11
20.09532798977183
 21
12.993471184107
 31
0.0
  0
LINE
  5
4C
330
1F
100
AcDbEntity
  8
Doc_ Finishes
  6
Continuous
100
AcDbLine
 10
20.09532798977183
 20
12.993471184107
 30
0.0
 11
19.63469758064516
 21
12.55203038945712
 31
0.0
  0
LINE
  5
4D
330
1F
100
AcDbEntity
  8
Doc_ Finishes
  6
Continuous
100
AcDbLine
 10
19.63469758064516
 20
12.55203038945712
 30
0.0
 11
18.90536831235248
 21
12.12978806058222
 31
0.0
  0
LINE
  5
4E
330
1F
100
AcDbEntity
  8
Doc_ Finishes
  6
Continuous
100
AcDbLine
 10
18.90536831235248
 20
12.12978806058222
 30
0.0
 11
18.5982813729347
 21
11.74592938630999
 31
0.0
  0
LINE
  5
4F
330
1F
100
AcDbEntity
  8
Doc_ Finishes
  6
Continuous
100
AcDbLine
 10
18.5982813729347
 20
11.74592938630999
 30
0.0
 11
18.0416851888277
 21
11.28529897718332
 31
0.0
  0
LINE
  5
50
330
1F
100
AcDbEntity
  8
Doc_ Finishes
  6
Continuous
100
AcDbLine
 10
18.0416851888277
 20
11.28529897718332
 30
0.0
 11
17.36993361526357
 21
10.86305222265932
 31
0.0
  0
LINE
  5
51
330
1F
100
AcDbEntity
  8
Doc_ Finishes
  6
Continuous
100
AcDbLine
 10
17.36993361526357
 20
10.86305222265932
 30
0.0
 11
16.73656569630212
 21
10.42161585365854
 31
0.0
  0
LINE
  5
52
330
1F
100
AcDbEntity
  8
Doc_ Finishes
  6
Continuous
100
AcDbLine
 10
16.73656569630212
 20
10.42161585365854
 30
0.0
 11
16.04562008261211
 21
10.15291256884343
 31
0.0
  0
LINE
  5
53
330
1F
100
AcDbEntity
  8
Doc_ Finishes
  6
Continuous
100
AcDbLine
 10
16.04562008261211
 20
10.15291256884343
 30
0.0
 11
15.10516522423289
 21
9.692282159716758
 31
0.0
  0
LINE
  5
54
330
1F
100
AcDbEntity
  8
Doc_ Finishes
  6
Continuous
100
AcDbLine
 10
15.10516522423289
 20
9.692282159716758
 30
0.0
 11
14.39502557041699
 21
9.020530586152635
 31
0.0
  0
LINE
  5
55
330
1F
100
AcDbEntity
  8
Doc_ Finishes
  6
Continuous
100
AcDbLine
 10
14.39502557041699
 20
9.020530586152635
 30
0.0
 11
13.83842938630999
 21
8.598288257277733
 31
0.0
  0
LINE
  5
56
330
1F
100
AcDbEntity
  8
Doc_ Finishes
  6
Continuous
100
AcDbLine
 10
13.83842938630999
 20
8.598288257277733
 30
0.0
 11
13.12829415814319
 21
8.137657848151063
 31
0.0
  0
LINE
  5
57
330
1F
100
AcDbEntity
  8
Doc_ Finishes
  6
Continuous
100
AcDbLine
 10
13.12829415814319
 20
8.137657848151063
 30
0.0
 11
12.8403968332022
 21
7.984114378442171
 31
0.0
  0
LINE
  5
58
330
1F
100
AcDbEntity
  8
Doc_ Finishes
  6
Continuous
100
AcDbLine
 10
12.8403968332022
 20
7.984114378442171
 30
0.0
 11
12.37976642407553
 21
7.811376868607396
 31
0.0
  0
LINE
  5
59
330
1F
100
AcDbEntity
  8
Doc_ Finishes
  6
Continuous
100
AcDbLine
 10
12.37976642407553
 20
7.811376868607396
 30
0.0
 11
12.07267948465775
 21
7.523479543666405
 31
0.0
  0
LINE
  5
5A
330
1F
100
AcDbEntity
  8
Doc_ Finishes
  6
Continuous
100
AcDbLine
 10
12.07267948465775
 20
7.523479543666405
 30
0.0
 11
12.01510178992919
 21
7.216392604248622
 31
0.0
  0
LINE
  5
5B
330
1F
100
AcDbEntity
  8
Doc_ Finishes
  6
Continuous
100
AcDbLine
 10
12.01510178992919
 20
7.216392604248622
 30
0.0
 11
12.1494512195122
 21
6.890116050354051
 31
0.0
  0
LINE
  5
5C
330
1F
100
AcDbEntity
  8
Doc_ Finishes
  6
Continuous
100
AcDbLine
 10
12.1494512195122
 20
6.890116050354051
 30
0.0
 11
12.43734854445319
 21
6.563835070810386
 31
0.0
  0
LINE
  5
5D
330
1F
100
AcDbEntity
  8
Doc_ Finishes
  6
Continuous
100
AcDbLine
 10
12.43734854445319
 20
6.563835070810386
 30
0.0
 11
12.87878491345397
 21
6.659800845790715
 31
0.0
  0
LINE
  5
5E
330
1F
100
AcDbEntity
  8
Doc_ Finishes
  6
Continuous
100
AcDbLine
 10
12.87878491345397
 20
6.659800845790715
 30
0.0
 11
13.51215283241542
 21
7.062849134539732
 31
0.0
  0
LINE
  5
5F
330
1F
100
AcDbEntity
  8
Doc_ Finishes
  6
Continuous
100
AcDbLine
 10
13.51215283241542
 20
7.062849134539732
 30
0.0
 11
14.01116689614477
 21
7.389130114083398
 31
0.0
  0
LINE
  5
60
330
1F
100
AcDbEntity
  8
Doc_ Finishes
  6
Continuous
100
AcDbLine
 10
14.01116689614477
 20
7.389130114083398
 30
0.0
 11
14.33744787568843
 21
7.69621705350118
 31
0.0
  0
LINE
  5
61
330
1F
100
AcDbEntity
  8
Doc_ Finishes
  6
Continuous
100
AcDbLine
 10
14.33744787568843
 20
7.69621705350118
 30
0.0
 11
14.51018538552321
 21
7.907342643587726
 31
0.0
  0
LINE
  5
62
330
1F
100
AcDbEntity
  8
Doc_ Finishes
  6
Continuous
100
AcDbLine
 10
14.51018538552321
 20
7.907342643587726
 30
0.0
 11
15.01304091266719
 21
8.421709284028323
 31
0.0
  0
LINE
  5
63
330
1F
100
AcDbEntity
  8
Doc_ Finishes
  6
Continuous
100
AcDbLine
 10
15.01304091266719
 20
8.421709284028323
 30
0.0
 11
15.33548042879622
 21
8.65202448859166
 31
0.0
  0
LINE
  5
64
330
1F
100
AcDbEntity
  8
Doc_ Finishes
  6
Continuous
100
AcDbLine
 10
15.33548042879622
 20
8.65202448859166
 30
0.0
 11
15.75004868214005
 21
8.997499508261212
 31
0.0
  0
LINE
  5
65
330
1F
100
AcDbEntity
  8
Doc_ Finishes
  6
Continuous
100
AcDbLine
 10
15.75004868214005
 20
8.997499508261212
 30
0.0
 11
16.14158585759245
 21
9.204783634933122
 31
0.0
  0
LINE
  5
66
330
1F
100
AcDbEntity
  8
Doc_ Finishes
  6
Continuous
100
AcDbLine
 10
16.14158585759245
 20
9.204783634933122
 30
0.0
 11
17.24709972462628
 21
9.75753835562549
 31
0.0
  0
LINE
  5
67
330
1F
100
AcDbEntity
  8
Doc_ Finishes
  6
Continuous
100
AcDbLine
 10
17.24709972462628
 20
9.75753835562549
 30
0.0
 11
18.2374537765539
 21
10.47151947285602
 31
0.0
  0
LINE
  5
68
330
1F
100
AcDbEntity
  8
Doc_ Finishes
  6
Continuous
100
AcDbLine
 10
18.2374537765539
 20
10.47151947285602
 30
0.0
 11
19.41206087726199
 21
11.16246508654602
 31
0.0
  0
LINE
  5
69
330
1F
100
AcDbEntity
  8
Doc_ Finishes
  6
Continuous
100
AcDbLine
 10
19.41206087726199
 20
11.16246508654602
 30
0.0
 11
19.84966020849724
 21
11.64612657356412
 31
0.0
  0
LINE
  5
6A
330
1F
100
AcDbEntity
  8
Doc_ Finishes
  6
Continuous
100
AcDbLine
 10
19.84966020849724
 20
11.64612657356412
 30
0.0
 11
20.4945436664044
 21
12.06069482690795
 31
0.0
  0
LINE
  5
6B
330
1F
100
AcDbEntity
  8
Doc_ Finishes
  6
Continuous
100
AcDbLine
 10
20.4945436664044
 20
12.06069482690795
 30
0.0
 11
21.78431058221873
 21
12.98195564516129
 31
0.0
  0
LINE
  5
6C
330
1F
100
AcDbEntity
  8
Doc_ Finishes
  6
Continuous
100
AcDbLine
 10
21.78431058221873
 20
12.98195564516129
 30
0.0
 11
22.36009638080252
 21
13.25833300550747
 31
0.0
  0
LINE
  5
6D
330
1F
100
AcDbEntity
  8
Doc_ Finishes
  6
Continuous
100
AcDbLine
 10
22.36009638080252
 20
13.25833300550747
 30
0.0
 11
23.64986329661684
 21
14.24868705743509
 31
0.0
  0
LINE
  5
6E
330
1F
100
AcDbEntity
  8
Doc_ Finishes
  6
Continuous
100
AcDbLine
 10
23.64986329661684
 20
14.24868705743509
 30
0.0
 11
23.85714742328875
 21
14.64022423288749
 31
0.0
  0
LINE
  5
6F
330
1F
100
AcDbEntity
  8
Doc_ Finishes
  6
Continuous
100
AcDbLine
 10
23.85714742328875
 20
14.64022423288749
 30
0.0
 11
24.68628392997639
 21
15.2390455350118
 31
0.0
  0
LINE
  5
70
330
1F
100
AcDbEntity
  8
Doc_ Finishes
  6
Continuous
100
AcDbLine
 10
24.68628392997639
 20
15.2390455350118
 30
0.0
 11
25.28510080645161
 21
15.7227070220299
 31
0.0
  0
LINE
  5
71
330
1F
100
AcDbEntity
  8
Doc_ Finishes
  6
Continuous
100
AcDbLine
 10
25.28510080645161
 20
15.7227070220299
 30
0.0
 11
25.81482887490165
 21
16.1142441974823
 31
0.0
  0
LINE
  5
72
330
1F
100
AcDbEntity
  8
Doc_ Finishes
  6
Continuous
100
AcDbLine
 10
25.81482887490165
 20
16.1142441974823
 30
0.0
 11
26.27545928402832
 21
16.52880802517702
 31
0.0
  0
LINE
  5
73
330
1F
100
AcDbEntity
  8
Doc_ Finishes
  6
Continuous
100
AcDbLine
 10
26.27545928402832
 20
16.52880802517702
 30
0.0
 11
26.22939270259638
 21
16.78215873328088
 31
0.0
  0
LINE
  5
74
330
1F
100
AcDbEntity
  8
Doc_ Finishes
  6
Continuous
100
AcDbLine
 10
26.22939270259638
 20
16.78215873328088
 30
0.0
 11
26.09120623524784
 21
16.897314122738
 31
0.0
  0
LINE
  5
75
330
1F
100
AcDbEntity
  8
Doc_ Finishes
  6
Continuous
100
AcDbLine
 10
26.09120623524784
 20
16.897314122738
 30
0.0
 11
25.56147816679779
 21
16.897314122738
 31
0.0
  0
LINE
  5
76
330
1F
100
AcDbEntity
  8
Doc_ Finishes
  6
Continuous
100
AcDbLine
 10
25.56147816679779
 20
16.897314122738
 30
0.0
 11
25.41177616050354
 21
16.87044600708104
 31
0.0
  0
HATCH
  5
77
330
1F
100
AcDbEntity
  8
Doc_ Finishes
  6
Continuous
100
AcDbHatch
 10
0.0
 20
0.0
 30
0.0
210
0.0
220
0.0
230
1.0
  2
SOLID
 70
     1
 71
     0
 91
        1
 92
        3
 72
     0
 73
     1
 93
       39
 10
25.65360600299377
 20
13.12014334109181
 10
25.21600693931564
 20
12.77467039608275
 10
24.54809257896482
 20
12.24494521373555
 10
23.92624127794851
 20
11.85340920939199
 10
23.32742150659951
 20
11.32368402704478
 10
22.72860173525051
 20
11.04730567103754
 10
22.08371890456697
 20
10.56364354802488
 10
21.62308831122158
 20
10.33332825135219
 10
21.231552306878
 20
10.03391836567767
 10
20.81698477286715
 20
9.619350831666825
 10
20.4024172388563
 20
9.38903553499415
 10
19.91875511584363
 20
9.043562589985086
 10
19.66540828950367
 20
8.859310352646935
 10
19.25084075549282
 20
8.582931996639696
 10
18.09926427212933
 20
7.753796928618002
 10
17.75379132712029
 20
7.477418572610764
 10
17.2931607337749
 20
7.316197864939873
 10
17.22406614477309
 20
6.993756449598113
 10
17.3622553227767
 20
6.717378093590874
 10
17.63863367878394
 20
6.602220445254527
 10
18.00713815346025
 20
6.8325357419272
 10
18.26048497980021
 20
7.131945627601722
 10
18.55989486547472
 20
7.362260924274415
 10
19.31993534449462
 20
7.707733869283458
 10
19.84966052684182
 20
8.122301403294307
 10
20.88607936186895
 20
8.882341882314256
 10
21.20852077721072
 20
9.342972475659646
 10
22.01462431556515
 20
9.734508480003234
 10
22.5673810275796
 20
10.05694989534501
 10
23.46561068460312
 20
10.60970660735953
 10
23.88017821861399
 20
11.07033720070492
 10
24.31777728229212
 20
11.34671555671216
 10
24.70931328663568
 20
11.30065249737762
 10
25.21600693931562
 20
11.55399932371759
 10
26.0681735370046
 20
12.17585062473387
 10
26.41364648201364
 20
12.49829204007566
 10
26.39061495234636
 20
12.77467039608289
 10
26.22939424467547
 20
13.00498569275559
 10
26.04514200733731
 20
13.05104875209013
 97
        0
 75
     0
 76
     1
 98
        0
  0
LINE
  5
78
330
1F
100
AcDbEntity
  8
Doc_ Finishes
  6
Continuous
100
AcDbLine
 10
25.65360690401259
 20
13.12014211250983
 30
0.0
 11
25.21600757277734
 21
12.77467151848938
 31
0.0
  0
LINE
  5
79
330
1F
100
AcDbEntity
  8
Doc_ Finishes
  6
Continuous
100
AcDbLine
 10
25.21600757277734
 20
12.77467151848938
 30
0.0
 11
24.54809303697876
 21
12.24494345003934
 31
0.0
  0
LINE
  5
7A
330
1F
100
AcDbEntity
  8
Doc_ Finishes
  6
Continuous
100
AcDbLine
 10
24.54809303697876
 20
12.24494345003934
 30
0.0
 11
23.92624065696302
 21
11.85341070023603
 31
0.0
  0
LINE
  5
7B
330
1F
100
AcDbEntity
  8
Doc_ Finishes
  6
Continuous
100
AcDbLine
 10
23.92624065696302
 20
11.85341070023603
 30
0.0
 11
23.32741935483871
 21
11.32368263178599
 31
0.0
  0
LINE
  5
7C
330
1F
100
AcDbEntity
  8
Doc_ Finishes
  6
Continuous
100
AcDbLine
 10
23.32741935483871
 20
11.32368263178599
 30
0.0
 11
22.72860247836349
 21
11.04730527143981
 31
0.0
  0
LINE
  5
7D
330
1F
100
AcDbEntity
  8
Doc_ Finishes
  6
Continuous
100
AcDbLine
 10
22.72860247836349
 20
11.04730527143981
 30
0.0
 11
22.08371902045633
 21
10.56364378442171
 31
0.0
  0
LINE
  5
7E
330
1F
100
AcDbEntity
  8
Doc_ Finishes
  6
Continuous
100
AcDbLine
 10
22.08371902045633
 20
10.56364378442171
 30
0.0
 11
21.62308861132966
 21
10.33332857985838
 31
0.0
  0
LINE
  5
7F
330
1F
100
AcDbEntity
  8
Doc_ Finishes
  6
Continuous
100
AcDbLine
 10
21.62308861132966
 20
10.33332857985838
 30
0.0
 11
21.23155143587726
 21
10.03392014162077
 31
0.0
  0
LINE
  5
80
330
1F
100
AcDbEntity
  8
Doc_ Finishes
  6
Continuous
100
AcDbLine
 10
21.23155143587726
 20
10.03392014162077
 30
0.0
 11
20.81698318253344
 21
9.619351888276947
 31
0.0
  0
LINE
  5
81
330
1F
100
AcDbEntity
  8
Doc_ Finishes
  6
Continuous
100
AcDbLine
 10
20.81698318253344
 20
9.619351888276947
 30
0.0
 11
20.40241935483871
 21
9.389036683713611
 31
0.0
  0
LINE
  5
82
330
1F
100
AcDbEntity
  8
Doc_ Finishes
  6
Continuous
100
AcDbLine
 10
20.40241935483871
 20
9.389036683713611
 30
0.0
 11
19.91875344217151
 21
9.04356166404406
 31
0.0
  0
LINE
  5
83
330
1F
100
AcDbEntity
  8
Doc_ Finishes
  6
Continuous
100
AcDbLine
 10
19.91875344217151
 20
9.04356166404406
 30
0.0
 11
19.66540715971676
 21
8.859308615263572
 31
0.0
  0
LINE
  5
84
330
1F
100
AcDbEntity
  8
Doc_ Finishes
  6
Continuous
100
AcDbLine
 10
19.66540715971676
 20
8.859308615263572
 30
0.0
 11
19.25083890637293
 21
8.582931254917387
 31
0.0
  0
LINE
  5
85
330
1F
100
AcDbEntity
  8
Doc_ Finishes
  6
Continuous
100
AcDbLine
 10
19.25083890637293
 20
8.582931254917387
 30
0.0
 11
18.09926288355625
 21
7.75379474822974
 31
0.0
  0
LINE
  5
86
330
1F
100
AcDbEntity
  8
Doc_ Finishes
  6
Continuous
100
AcDbLine
 10
18.09926288355625
 20
7.75379474822974
 30
0.0
 11
17.7537922895358
 21
7.477417387883556
 31
0.0
  0
LINE
  5
87
330
1F
100
AcDbEntity
  8
Doc_ Finishes
  6
Continuous
100
AcDbLine
 10
17.7537922895358
 20
7.477417387883556
 30
0.0
 11
17.29316188040913
 21
7.316199842643588
 31
0.0
  0
LINE
  5
88
330
1F
100
AcDbEntity
  8
Doc_ Finishes
  6
Continuous
100
AcDbLine
 10
17.29316188040913
 20
7.316199842643588
 30
0.0
 11
17.22406422108576
 21
6.993755900865461
 31
0.0
  0
LINE
  5
89
330
1F
100
AcDbEntity
  8
Doc_ Finishes
  6
Continuous
100
AcDbLine
 10
17.22406422108576
 20
6.993755900865461
 30
0.0
 11
17.3622551140834
 21
6.717378540519276
 31
0.0
  0
LINE
  5
8A
330
1F
100
AcDbEntity
  8
Doc_ Finishes
  6
Continuous
100
AcDbLine
 10
17.3622551140834
 20
6.717378540519276
 30
0.0
 11
17.63863247442958
 21
6.602218725413059
 31
0.0
  0
LINE
  5
8B
330
1F
100
AcDbEntity
  8
Doc_ Finishes
  6
Continuous
100
AcDbLine
 10
17.63863247442958
 20
6.602218725413059
 30
0.0
 11
18.00713857199056
 21
6.832533929976396
 31
0.0
  0
LINE
  5
8C
330
1F
100
AcDbEntity
  8
Doc_ Finishes
  6
Continuous
100
AcDbLine
 10
18.00713857199056
 20
6.832533929976396
 30
0.0
 11
18.26048485444532
 21
7.1319467938631
 31
0.0
  0
LINE
  5
8D
330
1F
100
AcDbEntity
  8
Doc_ Finishes
  6
Continuous
100
AcDbLine
 10
18.26048485444532
 20
7.1319467938631
 30
0.0
 11
18.55989329268293
 21
7.362261998426435
 31
0.0
  0
LINE
  5
8E
330
1F
100
AcDbEntity
  8
Doc_ Finishes
  6
Continuous
100
AcDbLine
 10
18.55989329268293
 20
7.362261998426435
 30
0.0
 11
19.3199365656963
 21
7.707732592446892
 31
0.0
  0
LINE
  5
8F
330
1F
100
AcDbEntity
  8
Doc_ Finishes
  6
Continuous
100
AcDbLine
 10
19.3199365656963
 20
7.707732592446892
 30
0.0
 11
19.84966020849724
 21
8.122300845790717
 31
0.0
  0
LINE
  5
90
330
1F
100
AcDbEntity
  8
Doc_ Finishes
  6
Continuous
100
AcDbLine
 10
19.84966020849724
 20
8.122300845790717
 30
0.0
 11
20.8860808418568
 21
8.882339693154996
 31
0.0
  0
LINE
  5
91
330
1F
100
AcDbEntity
  8
Doc_ Finishes
  6
Continuous
100
AcDbLine
 10
20.8860808418568
 20
8.882339693154996
 30
0.0
 11
21.20852035798584
 21
9.342974527930762
 31
0.0
  0
LINE
  5
92
330
1F
100
AcDbEntity
  8
Doc_ Finishes
  6
Continuous
100
AcDbLine
 10
21.20852035798584
 20
9.342974527930762
 30
0.0
 11
22.01462578678206
 21
9.734507277734066
 31
0.0
  0
LINE
  5
93
330
1F
100
AcDbEntity
  8
Doc_ Finishes
  6
Continuous
100
AcDbLine
 10
22.01462578678206
 20
9.734507277734066
 30
0.0
 11
22.56738050747443
 21
10.05695121951219
 31
0.0
  0
LINE
  5
94
330
1F
100
AcDbEntity
  8
Doc_ Finishes
  6
Continuous
100
AcDbLine
 10
22.56738050747443
 20
10.05695121951219
 30
0.0
 11
23.46561024783635
 21
10.60970594020456
 31
0.0
  0
LINE
  5
95
330
1F
100
AcDbEntity
  8
Doc_ Finishes
  6
Continuous
100
AcDbLine
 10
23.46561024783635
 20
10.60970594020456
 30
0.0
 11
23.88017850118017
 21
11.07033634933124
 31
0.0
  0
LINE
  5
96
330
1F
100
AcDbEntity
  8
Doc_ Finishes
  6
Continuous
100
AcDbLine
 10
23.88017850118017
 20
11.07033634933124
 30
0.0
 11
24.31777783241542
 21
11.34671370967742
 31
0.0
  0
LINE
  5
97
330
1F
100
AcDbEntity
  8
Doc_ Finishes
  6
Continuous
100
AcDbLine
 10
24.31777783241542
 20
11.34671370967742
 30
0.0
 11
24.70931500786781
 21
11.30065155389457
 31
0.0
  0
LINE
  5
98
330
1F
100
AcDbEntity
  8
Doc_ Finishes
  6
Continuous
100
AcDbLine
 10
24.70931500786781
 20
11.30065155389457
 30
0.0
 11
25.21600757277734
 21
11.55399783634933
 31
0.0
  0
LINE
  5
99
330
1F
100
AcDbEntity
  8
Doc_ Finishes
  6
Continuous
100
AcDbLine
 10
25.21600757277734
 20
11.55399783634933
 30
0.0
 11
26.06817515735641
 21
12.17585021636507
 31
0.0
  0
LINE
  5
9A
330
1F
100
AcDbEntity
  8
Doc_ Finishes
  6
Continuous
100
AcDbLine
 10
26.06817515735641
 20
12.17585021636507
 30
0.0
 11
26.41364575137687
 21
12.49829415814319
 31
0.0
  0
LINE
  5
9B
330
1F
100
AcDbEntity
  8
Doc_ Finishes
  6
Continuous
100
AcDbLine
 10
26.41364575137687
 20
12.49829415814319
 30
0.0
 11
26.39061467348544
 21
12.77467151848938
 31
0.0
  0
LINE
  5
9C
330
1F
100
AcDbEntity
  8
Doc_ Finishes
  6
Continuous
100
AcDbLine
 10
26.39061467348544
 20
12.77467151848938
 30
0.0
 11
26.22939270259638
 21
13.00498672305271
 31
0.0
  0
LINE
  5
9D
330
1F
100
AcDbEntity
  8
Doc_ Finishes
  6
Continuous
100
AcDbLine
 10
26.22939270259638
 20
13.00498672305271
 30
0.0
 11
26.04514407946499
 21
13.05104887883556
 31
0.0
  0
LINE
  5
9E
330
1F
100
AcDbEntity
  8
Doc_ Finishes
  6
Continuous
100
AcDbLine
 10
26.04514407946499
 20
13.05104887883556
 30
0.0
 11
25.65360690401259
 21
13.12014211250983
 31
0.0
  0
HATCH
  5
9F
330
1F
100
AcDbEntity
  8
Doc_ Finishes
  6
Continuous
100
AcDbHatch
 10
0.0
 20
0.0
 30
0.0
210
0.0
220
0.0
230
1.0
  2
SOLID
 70
     1
 71
     0
 91
        1
 92
        3
 72
     0
 73
     1
 93
       47
 10
26.06817353700455
 20
15.74573772316067
 10
26.30309513961077
 20
15.62136746295728
 10
26.4412843176144
 20
15.4002647781515
 10
26.93876535842742
 20
15.17916209334572
 10
27.82317609765057
 20
14.40530269652538
 10
28.9286895216795
 20
13.74199464210799
 10
29.59199757609689
 20
13.3827027792986
 10
30.20002995931278
 20
13.07868658769064
 10
31.55428390374827
 20
12.08372450606458
 10
32.07940278016201
 20
11.69679480765445
 10
32.88090001258301
 20
11.08876242443854
 10
33.59948373820179
 20
10.50836787682334
 10
34.5668079842271
 20
9.817421986805197
 10
35.06428902504011
 20
9.458130123995785
 10
35.81051058625965
 20
8.933011247582023
 10
36.61200781868061
 20
8.407892371168286
 10
36.77783483228498
 20
8.186789686362482
 10
37.38586721550091
 20
7.744584316750918
 10
38.18736444792187
 20
6.915449248729224
 10
38.7953968311378
 20
6.44560604351692
 10
39.56925622795804
 20
6.169227687509681
 10
40.23256428237543
 20
6.086314180707507
 10
40.48130480278193
 20
6.30741686551329
 10
40.14965077557326
 20
6.611433057121246
 10
39.48634272115586
 20
6.998362755531397
 10
38.76775899553708
 20
7.357654618340788
 10
38.18736444792187
 20
8.048600508358874
 10
36.99893751709078
 20
8.822459905179112
 10
36.47381864067705
 20
9.319940945992132
 10
36.22507812027052
 20
9.734508480003
 10
35.174840367443
 20
10.31490302761817
 10
34.73263499783144
 20
10.78474623283046
 10
34.2351539570184
 20
11.17167593124059
 10
33.48893239579888
 20
11.61388130085215
 10
32.85326217698223
 20
12.16663801286669
 10
32.35578113616918
 20
12.58120554687754
 10
31.69247308175183
 20
12.99577308088841
 10
31.22262987653952
 20
13.32742710809708
 10
30.7251488357265
 20
13.5761676285036
 10
29.93747052110587
 20
14.06443605744977
 10
29.43077686842594
 20
14.38687747279155
 10
28.92408321574601
 20
14.70931888813342
 10
28.62467333007151
 20
15.100854892477
 10
27.95675896972068
 20
15.67664313415887
 10
27.47309684670803
 20
15.9530214901661
 10
26.82821401602446
 20
16.36758902417695
 10
26.50577260068269
 20
16.22939984617334
 97
        0
 75
     0
 76
     1
 98
        0
  0
LINE
  5
A0
330
1F
100
AcDbEntity
  8
Doc_ Finishes
  6
Continuous
100
AcDbLine
 10
26.30309303697875
 20
15.62136850904799
 30
0.0
 11
26.06817515735641
 21
15.74573809992132
 31
0.0
  0
LINE
  5
A1
330
1F
100
AcDbEntity
  8
Doc_ Finishes
  6
Continuous
100
AcDbLine
 10
26.4412839299764
 20
15.40026308025177
 30
0.0
 11
26.30309303697875
 21
15.62136850904799
 31
0.0
  0
LINE
  5
A2
330
1F
100
AcDbEntity
  8
Doc_ Finishes
  6
Continuous
100
AcDbLine
 10
26.9387667191188
 20
15.17916207710464
 30
0.0
 11
26.4412839299764
 21
15.40026308025177
 31
0.0
  0
LINE
  5
A3
330
1F
100
AcDbEntity
  8
Doc_ Finishes
  6
Continuous
100
AcDbLine
 10
27.82317515735641
 20
14.40530192761605
 30
0.0
 11
26.9387667191188
 21
15.17916207710464
 31
0.0
  0
LINE
  5
A4
330
1F
100
AcDbEntity
  8
Doc_ Finishes
  6
Continuous
100
AcDbLine
 10
28.92868902439024
 20
13.74199449252557
 30
0.0
 11
27.82317515735641
 21
14.40530192761605
 31
0.0
  0
LINE
  5
A5
330
1F
100
AcDbEntity
  8
Doc_ Finishes
  6
Continuous
100
AcDbLine
 10
29.59199645948072
 20
13.3827025963808
 30
0.0
 11
28.92868902439024
 21
13.74199449252557
 31
0.0
  0
LINE
  5
A6
330
1F
100
AcDbEntity
  8
Doc_ Finishes
  6
Continuous
100
AcDbLine
 10
30.20003196302124
 20
13.07868705743509
 30
0.0
 11
29.59199645948072
 21
13.3827025963808
 31
0.0
  0
LINE
  5
A7
330
1F
100
AcDbEntity
  8
Doc_ Finishes
  6
Continuous
100
AcDbLine
 10
31.55428501180173
 20
12.08372590479937
 30
0.0
 11
30.20003196302124
 21
13.07868705743509
 31
0.0
  0
LINE
  5
A8
330
1F
100
AcDbEntity
  8
Doc_ Finishes
  6
Continuous
100
AcDbLine
 10
32.07940155389457
 20
11.69679583005508
 30
0.0
 11
31.55428501180173
 21
12.08372590479937
 31
0.0
  0
LINE
  5
A9
330
1F
100
AcDbEntity
  8
Doc_ Finishes
  6
Continuous
100
AcDbLine
 10
32.88089988198269
 20
11.08876032651456
 30
0.0
 11
32.07940155389457
 21
11.69679583005508
 31
0.0
  0
LINE
  5
AA
330
1F
100
AcDbEntity
  8
Doc_ Finishes
  6
Continuous
100
AcDbLine
 10
33.59948367427223
 20
10.50836742722266
 30
0.0
 11
32.88089988198269
 21
11.08876032651456
 31
0.0
  0
LINE
  5
AB
330
1F
100
AcDbEntity
  8
Doc_ Finishes
  6
Continuous
100
AcDbLine
 10
34.56680664830842
 20
9.817421813532652
 30
0.0
 11
33.59948367427223
 21
10.50836742722266
 31
0.0
  0
LINE
  5
AC
330
1F
100
AcDbEntity
  8
Doc_ Finishes
  6
Continuous
100
AcDbLine
 10
35.06428943745082
 20
9.458129917387884
 30
0.0
 11
34.56680664830842
 21
9.817421813532652
 31
0.0
  0
LINE
  5
AD
330
1F
100
AcDbEntity
  8
Doc_ Finishes
  6
Continuous
100
AcDbLine
 10
35.81051140833988
 20
8.933013375295044
 30
0.0
 11
35.06428943745082
 21
9.458129917387884
 31
0.0
  0
LINE
  5
AE
330
1F
100
AcDbEntity
  8
Doc_ Finishes
  6
Continuous
100
AcDbLine
 10
36.61200973642801
 20
8.407892407553108
 30
0.0
 11
35.81051140833988
 21
8.933013375295044
 31
0.0
  0
LINE
  5
AF
330
1F
100
AcDbEntity
  8
Doc_ Finishes
  6
Continuous
100
AcDbLine
 10
36.77783438237608
 20
8.18679140440598
 30
0.0
 11
36.61200973642801
 21
8.407892407553108
 31
0.0
  0
LINE
  5
B0
330
1F
100
AcDbEntity
  8
Doc_ Finishes
  6
Continuous
100
AcDbLine
 10
37.38586546026751
 20
7.744584972462627
 30
0.0
 11
36.77783438237608
 21
8.18679140440598
 31
0.0
  0
LINE
  5
B1
330
1F
100
AcDbEntity
  8
Doc_ Finishes
  6
Continuous
100
AcDbLine
 10
38.18736378835562
 20
6.915448465774981
 30
0.0
 11
37.38586546026751
 21
7.744584972462627
 31
0.0
  0
LINE
  5
B2
330
1F
100
AcDbEntity
  8
Doc_ Finishes
  6
Continuous
100
AcDbLine
 10
38.79539486624704
 20
6.4456038552321
 30
0.0
 11
38.18736378835562
 21
6.915448465774981
 31
0.0
  0
LINE
  5
B3
330
1F
100
AcDbEntity
  8
Doc_ Finishes
  6
Continuous
100
AcDbLine
 10
39.56925501573564
 20
6.169226494885916
 30
0.0
 11
38.79539486624704
 21
6.4456038552321
 31
0.0
  0
LINE
  5
B4
330
1F
100
AcDbEntity
  8
Doc_ Finishes
  6
Continuous
100
AcDbLine
 10
40.23256245082612
 20
6.086316384736428
 30
0.0
 11
39.56925501573564
 21
6.169226494885916
 31
0.0
  0
LINE
  5
B5
330
1F
100
AcDbEntity
  8
Doc_ Finishes
  6
Continuous
100
AcDbLine
 10
40.48130605822187
 20
6.307417387883556
 30
0.0
 11
40.23256245082612
 21
6.086316384736428
 31
0.0
  0
LINE
  5
B6
330
1F
100
AcDbEntity
  8
Doc_ Finishes
  6
Continuous
100
AcDbLine
 10
40.14965234067663
 20
6.611432926829268
 30
0.0
 11
40.48130605822187
 21
6.307417387883556
 31
0.0
  0
LINE
  5
B7
330
1F
100
AcDbEntity
  8
Doc_ Finishes
  6
Continuous
100
AcDbLine
 10
39.48634490558615
 20
6.998363001573564
 30
0.0
 11
40.14965234067663
 21
6.611432926829268
 31
0.0
  0
LINE
  5
B8
330
1F
100
AcDbEntity
  8
Doc_ Finishes
  6
Continuous
100
AcDbLine
 10
38.76776111329661
 20
7.357654897718332
 30
0.0
 11
39.48634490558615
 21
6.998363001573564
 31
0.0
  0
LINE
  5
B9
330
1F
100
AcDbEntity
  8
Doc_ Finishes
  6
Continuous
100
AcDbLine
 10
38.18736378835562
 20
8.048600511408338
 30
0.0
 11
38.76776111329661
 21
7.357654897718332
 31
0.0
  0
LINE
  5
BA
330
1F
100
AcDbEntity
  8
Doc_ Finishes
  6
Continuous
100
AcDbLine
 10
36.9989353855232
 20
8.822460660896931
 30
0.0
 11
38.18736378835562
 21
8.048600511408338
 31
0.0
  0
LINE
  5
BB
330
1F
100
AcDbEntity
  8
Doc_ Finishes
  6
Continuous
100
AcDbLine
 10
36.47381884343037
 20
9.319939024390242
 30
0.0
 11
36.9989353855232
 21
8.822460660896931
 31
0.0
  0
LINE
  5
BC
330
1F
100
AcDbEntity
  8
Doc_ Finishes
  6
Continuous
100
AcDbLine
 10
36.22507966168371
 20
9.734507277734066
 30
0.0
 11
36.47381884343037
 21
9.319939024390242
 31
0.0
  0
LINE
  5
BD
330
1F
100
AcDbEntity
  8
Doc_ Finishes
  6
Continuous
100
AcDbLine
 10
35.17484215184894
 20
10.31490460267506
 30
0.0
 11
36.22507966168371
 21
9.734507277734066
 31
0.0
  0
LINE
  5
BE
330
1F
100
AcDbEntity
  8
Doc_ Finishes
  6
Continuous
100
AcDbLine
 10
34.73263571990559
 20
10.78474478756884
 30
0.0
 11
35.17484215184894
 21
10.31490460267506
 31
0.0
  0
LINE
  5
BF
330
1F
100
AcDbEntity
  8
Doc_ Finishes
  6
Continuous
100
AcDbLine
 10
34.23515293076317
 20
11.17167486231314
 30
0.0
 11
34.73263571990559
 21
10.78474478756884
 31
0.0
  0
LINE
  5
C0
330
1F
100
AcDbEntity
  8
Doc_ Finishes
  6
Continuous
100
AcDbLine
 10
33.48893095987412
 20
11.61388129425649
 30
0.0
 11
34.23515293076317
 21
11.17167486231314
 31
0.0
  0
LINE
  5
C1
330
1F
100
AcDbEntity
  8
Doc_ Finishes
  6
Continuous
100
AcDbLine
 10
32.85326170338316
 20
12.16663601494886
 30
0.0
 11
33.48893095987412
 21
11.61388129425649
 31
0.0
  0
LINE
  5
C2
330
1F
100
AcDbEntity
  8
Doc_ Finishes
  6
Continuous
100
AcDbLine
 10
32.35578333988985
 20
12.58120426829268
 30
0.0
 11
32.85326170338316
 21
12.16663601494886
 31
0.0
  0
LINE
  5
C3
330
1F
100
AcDbEntity
  8
Doc_ Finishes
  6
Continuous
100
AcDbLine
 10
31.69247147915027
 20
12.99577252163651
 30
0.0
 11
32.35578333988985
 21
12.58120426829268
 31
0.0
  0
LINE
  5
C4
330
1F
100
AcDbEntity
  8
Doc_ Finishes
  6
Continuous
100
AcDbLine
 10
31.22263129425649
 20
13.32742623918175
 30
0.0
 11
31.69247147915027
 21
12.99577252163651
 31
0.0
  0
LINE
  5
C5
330
1F
100
AcDbEntity
  8
Doc_ Finishes
  6
Continuous
100
AcDbLine
 10
30.72514850511408
 20
13.5761654209284
 30
0.0
 11
31.22263129425649
 21
13.32742623918175
 31
0.0
  0
LINE
  5
C6
330
1F
100
AcDbEntity
  8
Doc_ Finishes
  6
Continuous
100
AcDbLine
 10
29.93747147915028
 20
14.0644340086546
 30
0.0
 11
30.72514850511408
 21
13.5761654209284
 31
0.0
  0
LINE
  5
C7
330
1F
100
AcDbEntity
  8
Doc_ Finishes
  6
Continuous
100
AcDbLine
 10
29.43077891424075
 20
14.38687795043273
 30
0.0
 11
29.93747147915028
 21
14.0644340086546
 31
0.0
  0
LINE
  5
C8
330
1F
100
AcDbEntity
  8
Doc_ Finishes
  6
Continuous
100
AcDbLine
 10
28.92408192368214
 20
14.70931746656176
 30
0.0
 11
29.43077891424075
 21
14.38687795043273
 31
0.0
  0
LINE
  5
C9
330
1F
100
AcDbEntity
  8
Doc_ Finishes
  6
Continuous
100
AcDbLine
 10
28.62467348544453
 20
15.10085464201416
 30
0.0
 11
28.92408192368214
 21
14.70931746656176
 31
0.0
  0
LINE
  5
CA
330
1F
100
AcDbEntity
  8
Doc_ Finishes
  6
Continuous
100
AcDbLine
 10
27.95675894964595
 20
15.67664486624705
 30
0.0
 11
28.62467348544453
 21
15.10085464201416
 31
0.0
  0
LINE
  5
CB
330
1F
100
AcDbEntity
  8
Doc_ Finishes
  6
Continuous
100
AcDbLine
 10
27.47309746262785
 20
15.95302222659323
 30
0.0
 11
27.95675894964595
 21
15.67664486624705
 31
0.0
  0
LINE
  5
CC
330
1F
100
AcDbEntity
  8
Doc_ Finishes
  6
Continuous
100
AcDbLine
 10
26.82821400472069
 20
16.36759047993706
 30
0.0
 11
27.47309746262785
 21
15.95302222659323
 31
0.0
  0
LINE
  5
CD
330
1F
100
AcDbEntity
  8
Doc_ Finishes
  6
Continuous
100
AcDbLine
 10
26.50577448859166
 20
16.22939958693942
 30
0.0
 11
26.82821400472069
 21
16.36759047993706
 31
0.0
  0
LINE
  5
CE
330
1F
100
AcDbEntity
  8
Doc_ Finishes
  6
Continuous
100
AcDbLine
 10
26.06817515735641
 20
15.74573809992132
 30
0.0
 11
26.50577448859166
 21
16.22939958693942
 31
0.0
  0
LINE
  5
CF
330
1F
100
AcDbEntity
  8
Doc_ Finishes
  6
Continuous
 62
   254
370
    18
100
AcDbLine
 10
95.43333841463415
 20
5.093360051140834
 30
0.0
 11
95.43333841463415
 21
20.69901750590086
 31
0.0
  0
LINE
  5
D0
330
1F
100
AcDbEntity
  8
Doc_ Finishes
  6
Continuous
 62
   254
370
    18
100
AcDbLine
 10
5.000000983477577
 20
20.69901750590086
 30
0.0
 11
288.2406845003933
 21
20.69901750590086
 31
0.0
  0
LINE
  5
D1
330
1F
100
AcDbEntity
  8
Doc_ Finishes
  6
Continuous
 62
   254
370
    18
100
AcDbLine
 10
288.2406845003933
 20
20.69901750590086
 30
0.0
 11
288.2406845003933
 21
5.000000983477577
 31
0.0
  0
LINE
  5
D2
330
1F
100
AcDbEntity
  8
Doc_ Finishes
  6
Continuous
 62
   254
370
    18
100
AcDbLine
 10
288.2406845003933
 20
5.000000983477577
 30
0.0
 11
5.000000983477577
 21
5.000000983477577
 31
0.0
  0
LINE
  5
D3
330
1F
100
AcDbEntity
  8
Doc_ Finishes
  6
Continuous
 62
   254
370
    18
100
AcDbLine
 10
5.000000983477577
 20
20.69901750590086
 30
0.0
 11
5.000000983477577
 21
5.000000983477577
 31
0.0
  0
LINE
  5
D4
330
1F
100
AcDbEntity
  8
Doc_ Finishes
  6
Continuous
 62
   254
370
    18
100
AcDbLine
 10
188.291944826908
 20
5.093360051140834
 30
0.0
 11
188.291944826908
 21
20.69901750590086
 31
0.0
  0
LINE
  5
D5
330
1F
100
AcDbEntity
  8
Doc_ Finishes
  6
Continuous
 62
   254
370
    18
100
AcDbLine
 10
188.291944826908
 20
12.8961909913454
 30
0.0
 11
288.2406845003933
 21
12.8961909913454
 31
0.0
  0
MTEXT
  5
D7
330
1F
100
AcDbEntity
  8
0
  6
Continuous
100
AcDbMText
 10
208.3494767103412
 20
15.00228834043999
 30
0.0
 40
2.25
 41
0.0
 71
     7
 72
     1
  1
{C-TRS9-01}
  7
GENERATED_STYLE_1
 73
     1
 44
1.0
  0
MTEXT
  5
D8
330
1F
100
AcDbEntity
  8
0
  6
Continuous
100
AcDbMText
 10
208.3494767103412
 20
11.03300550383743
 30
0.0
 40
3.0
 41
0.0
 71
     1
 72
     1
  1
{TOP RIDGE DETAIL - SQUARE TOP}
  7
GENERATED_STYLE_1
 73
     1
 44
1.0
  0
MTEXT
  5
DA
330
1F
100
AcDbEntity
  8
Doc_ Floor
  6
Continuous
100
AcDbMText
 10
27.78353726544612
 20
13.33283672870609
 30
0.0
 40
5.603347280334726
 41
0.0
 71
     1
 72
     1
  1
{The Roofing Store}
  7
GENERATED_STYLE_2
 73
     1
 44
1.0
  0
MTEXT
  5
DC
102
{ACAD_XDICTIONARY
360
42D
102
}
330
1F
100
AcDbEntity
  8
0
  6
Continuous
100
AcDbMText
 10
100.7389238446655
 20
5.628836745729685
 30
0.0
 40
1.5
 41
0.0
 71
     7
 72
     1
  1
{P: HEAD OFFICE              09 277 2717\P    ALBANY             09 972 0060\P    KATIKAIT            07 549 5190\P    WELLINGTON              04 974 5792\P    CHRISTCHURCH03 348 6528}
  7
GENERATED_STYLE_1
 73
     1
 44
1.062946161486498
  0
MTEXT
  5
DD
330
1F
100
AcDbEntity
  8
0
  6
Continuous
100
AcDbMText
 10
147.4184566143587
 20
8.449084231526156
 30
0.0
 40
1.5
 41
0.0
 71
     7
 72
     1
  1
{WEB: www.theroofingstore.co.nz}
  7
GENERATED_STYLE_1
 73
     1
 44
1.0
  0
MTEXT
  5
DE
330
1F
100
AcDbEntity
  8
0
  6
Continuous
100
AcDbMText
 10
147.4184566143587
 20
5.870946023411262
 30
0.0
 40
1.5
 41
0.0
 71
     7
 72
     1
  1
{Copyright \U+00A9 The Roofing Store 2013}
  7
GENERATED_STYLE_1
 73
     1
 44
1.0
  0
MTEXT
  5
DF
330
1F
100
AcDbEntity
  8
0
  6
Continuous
100
AcDbMText
 10
271.9546684065315
 20
15.01595667428533
 30
0.0
 40
2.25
 41
0.0
 71
     7
 72
     1
  1
{1:5}
  7
GENERATED_STYLE_1
 73
     1
 44
1.0
  0
MTEXT
  5
E0
330
1F
100
AcDbEntity
  8
0
  6
Continuous
100
AcDbMText
 10
262.8396605309016
 20
15.51746459162148
 30
0.0
 40
1.5
 41
0.0
 71
     7
 72
     1
  1
{SCALE:}
  7
GENERATED_STYLE_1
 73
     1
 44
1.0
  0
MTEXT
  5
E1
330
1F
100
AcDbEntity
  8
0
  6
Continuous
100
AcDbMText
 10
189.5066235617487
 20
15.48695559872207
 30
0.0
 40
1.5
 41
0.0
 71
     7
 72
     1
  1
{DETAIL NUMBER:}
  7
GENERATED_STYLE_1
 73
     1
 44
1.0
  0
MTEXT
  5
E2
330
1F
100
AcDbEntity
  8
0
  6
Continuous
100
AcDbMText
 10
189.5066235617487
 20
9.005462392315325
 30
0.0
 40
1.5
 41
0.0
 71
     7
 72
     1
  1
{TITLE:}
  7
GENERATED_STYLE_1
 73
     1
 44
1.0
  0
INSERT
  5
3FB
102
{ACAD_XDICTIONARY
360
3FC
102
}
330
1F
100
AcDbEntity
  8
0
  6
Continuous
100
AcDbBlockReference
  2
Drawing_1_2
 10
146.4275516021832
 20
-813.3809652398878
 30
0.0
  0
ENDSEC
  0
SECTION
  2
OBJECTS
  0
DICTIONARY
  5
C
330
0
100
AcDbDictionary
281
     1
  3
ACAD_GROUP
350
D
  3
ACAD_LAYOUT
350
1A
  3
ACAD_MATERIAL
350
3B
  3
ACAD_MLEADERSTYLE
350
428
  3
ACAD_MLINESTYLE
350
17
  3
ACAD_PLOTSETTINGS
350
19
  3
ACAD_PLOTSTYLENAME
350
E
  3
ACAD_SCALELIST
350
402
  3
ACAD_VISUALSTYLE
350
2A
  3
AcDbVariableDictionary
350
426
  3
WATERMARKS
350
424
  0
DICTIONARY
  5
42F
330
3F6
100
AcDbDictionary
280
     1
281
     1
  3
ACAD_MTEXT_RT
360
430
  0
DICTIONARY
  5
42D
330
DC
100
AcDbDictionary
280
     1
281
     1
  3
ACAD_MTEXT_RT
360
42E
  0
DICTIONARY
  5
3FC
330
3FB
100
AcDbDictionary
280
     1
281
     1
  3
ACAD_FILTER
360
3FD
  0
DICTIONARY
  5
D
102
{ACAD_REACTORS
330
C
102
}
330
C
100
AcDbDictionary
281
     1
  0
DICTIONARY
  5
1A
102
{ACAD_REACTORS
330
C
102
}
330
C
100
AcDbDictionary
281
     1
  3
Layout1
350
1E
  3
Model
350
22
  0
DICTIONARY
  5
3B
102
{ACAD_REACTORS
330
C
102
}
330
C
100
AcDbDictionary
281
     1
  3
ByBlock
350
3D
  3
ByLayer
350
3C
  3
Global
350
3E
  0
DICTIONARY
  5
428
102
{ACAD_REACTORS
330
C
102
}
330
C
100
AcDbDictionary
281
     1
  0
DICTIONARY
  5
17
102
{ACAD_REACTORS
330
C
102
}
330
C
100
AcDbDictionary
281
     1
  3
Standard
350
18
  0
DICTIONARY
  5
19
102
{ACAD_REACTORS
330
C
102
}
330
C
100
AcDbDictionary
281
     1
  0
ACDBDICTIONARYWDFLT
  5
E
102
{ACAD_REACTORS
330
C
102
}
330
C
100
AcDbDictionary
281
     1
  3
Normal
350
F
100
AcDbDictionaryWithDefault
340
F
  0
DICTIONARY
  5
402
102
{ACAD_REACTORS
330
C
102
}
330
C
100
AcDbDictionary
281
     1
  3
A0
350
403
  3
A1
350
404
  3
A2
350
405
  3
A3
350
406
  3
A4
350
407
  3
A5
350
408
  3
A6
350
409
  3
A7
350
40A
  3
A8
350
40B
  3
A9
350
40C
  3
B0
350
40D
  3
B1
350
40E
  3
B2
350
40F
  3
B3
350
410
  3
B4
350
411
  3
B5
350
412
  3
B6
350
413
  3
B7
350
414
  3
B8
350
415
  3
B9
350
416
  3
C0
350
417
  3
C1
350
418
  3
C2
350
419
  3
C3
350
41A
  3
C4
350
41B
  3
C5
350
41C
  3
C6
350
41D
  3
C7
350
41E
  3
C8
350
41F
  3
C9
350
420
  3
D0
350
421
  3
D1
350
422
  3
D2
350
423
  0
DICTIONARY
  5
2A
102
{ACAD_REACTORS
330
C
102
}
330
C
100
AcDbDictionary
281
     1
  3
2dWireframe
350
2F
  3
3D Hidden
350
31
  3
3dWireframe
350
30
  3
Basic
350
32
  3
Brighten
350
36
  3
ColorChange
350
3A
  3
Conceptual
350
34
  3
Dim
350
35
  3
Facepattern
350
39
  3
Flat
350
2B
  3
FlatWithEdges
350
2C
  3
Gouraud
350
2D
  3
GouraudWithEdges
350
2E
  3
Linepattern
350
38
  3
Realistic
350
33
  3
Thicken
350
37
  0
DICTIONARY
  5
426
102
{ACAD_REACTORS
330
C
102
}
330
C
100
AcDbDictionary
281
     1
  3
CANNOSCALE
350
42A
  3
DIMASSOC
350
42B
  3
HIDETEXT
350
42C
  3
XCLIPFRAME
350
429
  0
DICTIONARY
  5
424
102
{ACAD_REACTORS
330
C
102
}
330
C
100
AcDbDictionary
281
     1
  3
AC_WATERMARK
350
425
  0
XRECORD
  5
430
102
{ACAD_REACTORS
330
42F
102
}
330
42F
100
AcDbXrecord
280
     1
 40
28146.0
  1
{\pt7.49999;TRS PROFILED METAL ROOFING}
  0
XRECORD
  5
42E
102
{ACAD_REACTORS
330
42D
102
}
330
42D
100
AcDbXrecord
280
     1
 40
892718.0
  1
{P: HEAD OFFICE ^I^I09 277 2717\P    ALBANY ^I^I09 972 0060\P    KATIKAIT^I^I07 549 5190\P    WELLINGTON^I^I04 974 5792\P    CHRISTCHURCH^I03 348 6528}
  0
DICTIONARY
  5
3FD
102
{ACAD_REACTORS
330
3FC
102
}
330
3FC
100
AcDbDictionary
280
     1
281
     1
  3
SPATIAL
360
3FE
  0
LAYOUT
  5
1E
102
{ACAD_REACTORS
330
1A
102
}
330
1A
100
AcDbPlotSettings
  1

  2
none_device
  4

  6

 40
0.0
 41
0.0
 42
0.0
 43
0.0
 44
0.0
 45
0.0
 46
0.0
 47
0.0
 48
0.0
 49
0.0
140
0.0
141
0.0
142
1.0
143
1.0
 70
   688
 72
     0
 73
     0
 74
     5
  7

 75
    16
147
1.0
148
0.0
149
0.0
100
AcDbLayout
  1
Layout1
 70
     1
 71
     1
 10
0.0
 20
0.0
 11
12.0
 21
9.0
 12
0.0
 22
0.0
 32
0.0
 14
1.000000000000000E+20
 24
1.000000000000000E+20
 34
1.000000000000000E+20
 15
-1.000000000000000E+20
 25
-1.000000000000000E+20
 35
-1.000000000000000E+20
146
0.0
 13
0.0
 23
0.0
 33
0.0
 16
1.0
 26
0.0
 36
0.0
 17
0.0
 27
1.0
 37
0.0
 76
     0
330
1B
  0
LAYOUT
  5
22
102
{ACAD_REACTORS
330
1A
102
}
330
1A
100
AcDbPlotSettings
  1

  2
none_device
  4

  6

 40
0.0
 41
0.0
 42
0.0
 43
0.0
 44
0.0
 45
0.0
 46
0.0
 47
0.0
 48
0.0
 49
0.0
140
0.0
141
0.0
142
1.0
143
1.0
 70
  1712
 72
     0
 73
     0
 74
     0
  7

 75
     0
147
1.0
148
0.0
149
0.0
100
AcDbLayout
  1
Model
 70
     1
 71
     0
 10
0.0
 20
0.0
 11
12.0
 21
9.0
 12
0.0
 22
0.0
 32
0.0
 14
1.000000000000000E+20
 24
1.000000000000000E+20
 34
1.000000000000000E+20
 15
-1.000000000000000E+20
 25
-1.000000000000000E+20
 35
-1.000000000000000E+20
146
0.0
 13
0.0
 23
0.0
 33
0.0
 16
1.0
 26
0.0
 36
0.0
 17
0.0
 27
1.0
 37
0.0
 76
     0
330
1F
331
29
  0
MATERIAL
  5
3D
102
{ACAD_REACTORS
330
3B
102
}
102
{ACAD_XDICTIONARY
360
453
102
}
330
3B
100
AcDbMaterial
  1
ByBlock
  0
MATERIAL
  5
3C
102
{ACAD_REACTORS
330
3B
102
}
102
{ACAD_XDICTIONARY
360
451
102
}
330
3B
100
AcDbMaterial
  1
ByLayer
  0
MATERIAL
  5
3E
102
{ACAD_REACTORS
330
3B
102
}
102
{ACAD_XDICTIONARY
360
455
102
}
330
3B
100
AcDbMaterial
  1
Global
  0
MLINESTYLE
  5
18
102
{ACAD_REACTORS
330
17
102
}
330
17
100
AcDbMlineStyle
  2
Standard
 70
     0
  3

 62
   256
 51
90.0
 52
90.0
 71
     2
 49
0.5
 62
   256
  6
BYLAYER
 49
-0.5
 62
   256
  6
BYLAYER
  0
ACDBPLACEHOLDER
  5
F
102
{ACAD_REACTORS
330
E
102
}
330
E
  0
SCALE
  5
403
102
{ACAD_REACTORS
330
402
102
}
330
402
100
AcDbScale
 70
     0
300
1:1
140
1.0
141
1.0
290
     1
  0
SCALE
  5
404
102
{ACAD_REACTORS
330
402
102
}
330
402
100
AcDbScale
 70
     0
300
1:2
140
1.0
141
2.0
290
     0
  0
SCALE
  5
405
102
{ACAD_REACTORS
330
402
102
}
330
402
100
AcDbScale
 70
     0
300
1:4
140
1.0
141
4.0
290
     0
  0
SCALE
  5
406
102
{ACAD_REACTORS
330
402
102
}
330
402
100
AcDbScale
 70
     0
300
1:5
140
1.0
141
5.0
290
     0
  0
SCALE
  5
407
102
{ACAD_REACTORS
330
402
102
}
330
402
100
AcDbScale
 70
     0
300
1:8
140
1.0
141
8.0
290
     0
  0
SCALE
  5
408
102
{ACAD_REACTORS
330
402
102
}
330
402
100
AcDbScale
 70
     0
300
1:10
140
1.0
141
10.0
290
     0
  0
SCALE
  5
409
102
{ACAD_REACTORS
330
402
102
}
330
402
100
AcDbScale
 70
     0
300
1:16
140
1.0
141
16.0
290
     0
  0
SCALE
  5
40A
102
{ACAD_REACTORS
330
402
102
}
330
402
100
AcDbScale
 70
     0
300
1:20
140
1.0
141
20.0
290
     0
  0
SCALE
  5
40B
102
{ACAD_REACTORS
330
402
102
}
330
402
100
AcDbScale
 70
     0
300
1:30
140
1.0
141
30.0
290
     0
  0
SCALE
  5
40C
102
{ACAD_REACTORS
330
402
102
}
330
402
100
AcDbScale
 70
     0
300
1:40
140
1.0
141
40.0
290
     0
  0
SCALE
  5
40D
102
{ACAD_REACTORS
330
402
102
}
330
402
100
AcDbScale
 70
     0
300
1:50
140
1.0
141
50.0
290
     0
  0
SCALE
  5
40E
102
{ACAD_REACTORS
330
402
102
}
330
402
100
AcDbScale
 70
     0
300
1:100
140
1.0
141
100.0
290
     0
  0
SCALE
  5
40F
102
{ACAD_REACTORS
330
402
102
}
330
402
100
AcDbScale
 70
     0
300
2:1
140
2.0
141
1.0
290
     0
  0
SCALE
  5
410
102
{ACAD_REACTORS
330
402
102
}
330
402
100
AcDbScale
 70
     0
300
4:1
140
4.0
141
1.0
290
     0
  0
SCALE
  5
411
102
{ACAD_REACTORS
330
402
102
}
330
402
100
AcDbScale
 70
     0
300
8:1
140
8.0
141
1.0
290
     0
  0
SCALE
  5
412
102
{ACAD_REACTORS
330
402
102
}
330
402
100
AcDbScale
 70
     0
300
10:1
140
10.0
141
1.0
290
     0
  0
SCALE
  5
413
102
{ACAD_REACTORS
330
402
102
}
330
402
100
AcDbScale
 70
     0
300
100:1
140
100.0
141
1.0
290
     0
  0
SCALE
  5
414
102
{ACAD_REACTORS
330
402
102
}
330
402
100
AcDbScale
 70
     0
300
1/128" = 1'-0"
140
0.0078125
141
12.0
290
     0
  0
SCALE
  5
415
102
{ACAD_REACTORS
330
402
102
}
330
402
100
AcDbScale
 70
     0
300
1/64" = 1'-0"
140
0.015625
141
12.0
290
     0
  0
SCALE
  5
416
102
{ACAD_REACTORS
330
402
102
}
330
402
100
AcDbScale
 70
     0
300
1/32" = 1'-0"
140
0.03125
141
12.0
290
     0
  0
SCALE
  5
417
102
{ACAD_REACTORS
330
402
102
}
330
402
100
AcDbScale
 70
     0
300
1/16" = 1'-0"
140
0.0625
141
12.0
290
     0
  0
SCALE
  5
418
102
{ACAD_REACTORS
330
402
102
}
330
402
100
AcDbScale
 70
     0
300
3/32" = 1'-0"
140
0.09375
141
12.0
290
     0
  0
SCALE
  5
419
102
{ACAD_REACTORS
330
402
102
}
330
402
100
AcDbScale
 70
     0
300
1/8" = 1'-0"
140
0.125
141
12.0
290
     0
  0
SCALE
  5
41A
102
{ACAD_REACTORS
330
402
102
}
330
402
100
AcDbScale
 70
     0
300
3/16" = 1'-0"
140
0.1875
141
12.0
290
     0
  0
SCALE
  5
41B
102
{ACAD_REACTORS
330
402
102
}
330
402
100
AcDbScale
 70
     0
300
1/4" = 1'-0"
140
0.25
141
12.0
290
     0
  0
SCALE
  5
41C
102
{ACAD_REACTORS
330
402
102
}
330
402
100
AcDbScale
 70
     0
300
3/8" = 1'-0"
140
0.375
141
12.0
290
     0
  0
SCALE
  5
41D
102
{ACAD_REACTORS
330
402
102
}
330
402
100
AcDbScale
 70
     0
300
1/2" = 1'-0"
140
0.5
141
12.0
290
     0
  0
SCALE
  5
41E
102
{ACAD_REACTORS
330
402
102
}
330
402
100
AcDbScale
 70
     0
300
3/4" = 1'-0"
140
0.75
141
12.0
290
     0
  0
SCALE
  5
41F
102
{ACAD_REACTORS
330
402
102
}
330
402
100
AcDbScale
 70
     0
300
1" = 1'-0"
140
1.0
141
12.0
290
     0
  0
SCALE
  5
420
102
{ACAD_REACTORS
330
402
102
}
330
402
100
AcDbScale
 70
     0
300
1-1/2" = 1'-0"
140
1.5
141
12.0
290
     0
  0
SCALE
  5
421
102
{ACAD_REACTORS
330
402
102
}
330
402
100
AcDbScale
 70
     0
300
3" = 1'-0"
140
3.0
141
12.0
290
     0
  0
SCALE
  5
422
102
{ACAD_REACTORS
330
402
102
}
330
402
100
AcDbScale
 70
     0
300
6" = 1'-0"
140
6.0
141
12.0
290
     0
  0
SCALE
  5
423
102
{ACAD_REACTORS
330
402
102
}
330
402
100
AcDbScale
 70
     0
300
1'-0" = 1'-0"
140
12.0
141
12.0
290
     0
  0
VISUALSTYLE
  5
2F
102
{ACAD_REACTORS
330
2A
102
}
102
{ACAD_XDICTIONARY
360
439
102
}
330
2A
100
AcDbVisualStyle
  2
2dWireframe
 70
     4
 71
     0
 72
     2
 73
     0
 90
        0
 40
-0.6
 41
-30.0
 62
     5
 63
     7
 74
     1
 91
        4
 64
     7
 65
   257
 75
     1
175
     1
 42
1.0
 92
        0
 66
   257
 43
1.0
 76
     1
 77
     6
 78
     2
 67
     7
 79
     5
170
     0
171
     0
290
     0
174
     0
 93
        1
 44
0.0
173
     0
291
     0
 45
0.0
1001
ACAD
1000
AcDbSavedByObjectVersion
1070
     0
  0
VISUALSTYLE
  5
31
102
{ACAD_REACTORS
330
2A
102
}
102
{ACAD_XDICTIONARY
360
43D
102
}
330
2A
100
AcDbVisualStyle
  2
3D Hidden
 70
     6
 71
     1
 72
     2
 73
     2
 90
        0
 40
-0.6
 41
-30.0
 62
     5
 63
     7
 74
     2
 91
        2
 64
     7
 65
   257
 75
     2
175
     1
 42
40.0
 92
        0
 66
   257
 43
1.0
 76
     1
 77
     6
 78
     2
 67
     7
 79
     3
170
     0
171
     0
290
     0
174
     0
 93
        1
 44
0.0
173
     0
291
     0
 45
0.0
1001
ACAD
1000
AcDbSavedByObjectVersion
1070
     0
  0
VISUALSTYLE
  5
30
102
{ACAD_REACTORS
330
2A
102
}
102
{ACAD_XDICTIONARY
360
43B
102
}
330
2A
100
AcDbVisualStyle
  2
3dWireframe
 70
     5
 71
     0
 72
     2
 73
     0
 90
        0
 40
-0.6
 41
-30.0
 62
     5
 63
     7
 74
     1
 91
        4
 64
     7
 65
   257
 75
     1
175
     1
 42
1.0
 92
        0
 66
   257
 43
1.0
 76
     1
 77
     6
 78
     2
 67
     7
 79
     5
170
     0
171
     0
290
     0
174
     0
 93
        1
 44
0.0
173
     0
291
     0
 45
0.0
1001
ACAD
1000
AcDbSavedByObjectVersion
1070
     0
  0
VISUALSTYLE
  5
32
102
{ACAD_REACTORS
330
2A
102
}
102
{ACAD_XDICTIONARY
360
43F
102
}
330
2A
100
AcDbVisualStyle
  2
Basic
 70
     7
 71
     1
 72
     0
 73
     1
 90
        0
 40
-0.6
 41
-30.0
 62
     5
 63
     7
 74
     0
 91
        4
 64
     7
 65
   257
 75
     1
175
     1
 42
1.0
 92
        8
 66
     7
 43
1.0
 76
     1
 77
     6
 78
     2
 67
     7
 79
     5
170
     0
171
     0
290
     0
174
     0
 93
        1
 44
0.0
173
     0
291
     1
 45
0.0
1001
ACAD
1000
AcDbSavedByObjectVersion
1070
     0
  0
VISUALSTYLE
  5
36
102
{ACAD_REACTORS
330
2A
102
}
102
{ACAD_XDICTIONARY
360
447
102
}
330
2A
100
AcDbVisualStyle
  2
Brighten
 70
    12
 71
     2
 72
     2
 73
     0
 90
        0
 40
-0.6
 41
-30.0
 62
     5
 63
     7
 74
     1
 91
        4
 64
     7
 65
   257
 75
     1
175
     1
 42
1.0
 92
        8
 66
     7
 43
1.0
 76
     1
 77
     6
 78
     2
 67
     7
 79
     5
170
     0
171
     0
290
     0
174
     0
 93
        1
 44
50.0
173
     0
291
     1
 45
0.0
1001
ACAD
1000
AcDbSavedByObjectVersion
1070
     0
  0
VISUALSTYLE
  5
3A
102
{ACAD_REACTORS
330
2A
102
}
102
{ACAD_XDICTIONARY
360
44F
102
}
330
2A
100
AcDbVisualStyle
  2
ColorChange
 70
    16
 71
     2
 72
     2
 73
     3
 90
        0
 40
-0.6
 41
-30.0
 62
     5
 63
     8
 74
     1
 91
        4
 64
     7
 65
   257
 75
     1
175
     1
 42
1.0
 92
        8
 66
     8
 43
1.0
 76
     1
 77
     6
 78
     2
 67
     7
 79
     5
170
     0
171
     0
290
     0
174
     0
 93
        1
 44
0.0
173
     0
291
     1
 45
0.0
1001
ACAD
1000
AcDbSavedByObjectVersion
1070
     0
  0
VISUALSTYLE
  5
34
102
{ACAD_REACTORS
330
2A
102
}
102
{ACAD_XDICTIONARY
360
443
102
}
330
2A
100
AcDbVisualStyle
  2
Conceptual
 70
     9
 71
     3
 72
     2
 73
     0
 90
        0
 40
-0.6
 41
-30.0
 62
     5
 63
     7
 74
     2
 91
        2
 64
     7
 65
   257
 75
     1
175
     1
 42
40.0
 92
        8
 66
     7
 43
1.0
 76
     1
 77
     6
 78
     2
 67
     7
 79
     3
170
     0
171
     0
290
     0
174
     0
 93
        1
 44
0.0
173
     0
291
     0
 45
0.0
1001
ACAD
1000
AcDbSavedByObjectVersion
1070
     0
  0
VISUALSTYLE
  5
35
102
{ACAD_REACTORS
330
2A
102
}
102
{ACAD_XDICTIONARY
360
445
102
}
330
2A
100
AcDbVisualStyle
  2
Dim
 70
    11
 71
     2
 72
     2
 73
     0
 90
        0
 40
-0.6
 41
-30.0
 62
     5
 63
     7
 74
     1
 91
        4
 64
     7
 65
   257
 75
     1
175
     1
 42
1.0
 92
        8
 66
     7
 43
1.0
 76
     1
 77
     6
 78
     2
 67
     7
 79
     5
170
     0
171
     0
290
     0
174
     0
 93
        1
 44
-50.0
173
     0
291
     1
 45
0.0
1001
ACAD
1000
AcDbSavedByObjectVersion
1070
     0
  0
VISUALSTYLE
  5
39
102
{ACAD_REACTORS
330
2A
102
}
102
{ACAD_XDICTIONARY
360
44D
102
}
330
2A
100
AcDbVisualStyle
  2
Facepattern
 70
    15
 71
     2
 72
     2
 73
     0
 90
        0
 40
-0.6
 41
-30.0
 62
     5
 63
     7
 74
     1
 91
        4
 64
     7
 65
   257
 75
     1
175
     1
 42
1.0
 92
        8
 66
     7
 43
1.0
 76
     1
 77
     6
 78
     2
 67
     7
 79
     5
170
     0
171
     0
290
     0
174
     0
 93
        1
 44
0.0
173
     0
291
     1
 45
0.0
1001
ACAD
1000
AcDbSavedByObjectVersion
1070
     0
  0
VISUALSTYLE
  5
2B
102
{ACAD_REACTORS
330
2A
102
}
102
{ACAD_XDICTIONARY
360
431
102
}
330
2A
100
AcDbVisualStyle
  2
Flat
 70
     0
 71
     2
 72
     1
 73
     1
 90
        2
 40
-0.6
 41
30.0
 62
     5
 63
     7
 74
     0
 91
        4
 64
     7
 65
   257
 75
     1
175
     1
 42
1.0
 92
        8
 66
     7
 43
1.0
 76
     1
 77
     6
 78
     2
 67
     7
 79
     5
170
     0
171
     0
290
     0
174
     0
 93
       13
 44
0.0
173
     0
291
     1
 45
0.0
1001
ACAD
1000
AcDbSavedByObjectVersion
1070
     0
  0
VISUALSTYLE
  5
2C
102
{ACAD_REACTORS
330
2A
102
}
102
{ACAD_XDICTIONARY
360
433
102
}
330
2A
100
AcDbVisualStyle
  2
FlatWithEdges
 70
     1
 71
     2
 72
     1
 73
     1
 90
        2
 40
-0.6
 41
30.0
 62
     5
 63
     7
 74
     1
 91
        4
 64
     7
 65
   257
 75
     1
175
     1
 42
1.0
 92
        0
 66
   257
 43
1.0
 76
     1
 77
     6
 78
     2
 67
     7
 79
     5
170
     0
171
     0
290
     0
174
     0
 93
       13
 44
0.0
173
     0
291
     1
 45
0.0
1001
ACAD
1000
AcDbSavedByObjectVersion
1070
     0
  0
VISUALSTYLE
  5
2D
102
{ACAD_REACTORS
330
2A
102
}
102
{ACAD_XDICTIONARY
360
435
102
}
330
2A
100
AcDbVisualStyle
  2
Gouraud
 70
     2
 71
     2
 72
     2
 73
     1
 90
        2
 40
-0.6
 41
30.0
 62
     5
 63
     7
 74
     0
 91
        4
 64
     7
 65
   257
 75
     1
175
     1
 42
1.0
 92
        0
 66
     7
 43
1.0
 76
     1
 77
     6
 78
     2
 67
     7
 79
     5
170
     0
171
     0
290
     0
174
     0
 93
       13
 44
0.0
173
     0
291
     1
 45
0.0
1001
ACAD
1000
AcDbSavedByObjectVersion
1070
     0
  0
VISUALSTYLE
  5
2E
102
{ACAD_REACTORS
330
2A
102
}
102
{ACAD_XDICTIONARY
360
437
102
}
330
2A
100
AcDbVisualStyle
  2
GouraudWithEdges
 70
     3
 71
     2
 72
     2
 73
     1
 90
        2
 40
-0.6
 41
30.0
 62
     5
 63
     7
 74
     1
 91
        4
 64
     7
 65
   257
 75
     1
175
     1
 42
1.0
 92
        0
 66
   257
 43
1.0
 76
     1
 77
     6
 78
     2
 67
     7
 79
     5
170
     0
171
     0
290
     0
174
     0
 93
       13
 44
0.0
173
     0
291
     1
 45
0.0
1001
ACAD
1000
AcDbSavedByObjectVersion
1070
     0
  0
VISUALSTYLE
  5
38
102
{ACAD_REACTORS
330
2A
102
}
102
{ACAD_XDICTIONARY
360
44B
102
}
330
2A
100
AcDbVisualStyle
  2
Linepattern
 70
    14
 71
     2
 72
     2
 73
     0
 90
        0
 40
-0.6
 41
-30.0
 62
     5
 63
     7
 74
     1
 91
        4
 64
     7
 65
   257
 75
     7
175
     7
 42
1.0
 92
        8
 66
     7
 43
1.0
 76
     1
 77
     6
 78
     2
 67
     7
 79
     5
170
     0
171
     0
290
     0
174
     0
 93
        1
 44
0.0
173
     0
291
     1
 45
0.0
1001
ACAD
1000
AcDbSavedByObjectVersion
1070
     0
  0
VISUALSTYLE
  5
33
102
{ACAD_REACTORS
330
2A
102
}
102
{ACAD_XDICTIONARY
360
441
102
}
330
2A
100
AcDbVisualStyle
  2
Realistic
 70
     8
 71
     2
 72
     2
 73
     0
 90
        0
 40
-0.6
 41
-30.0
 62
     5
 63
     7
 74
     1
 91
        0
 64
     7
 65
   257
 75
     1
175
     1
 42
1.0
 92
        8
 66
     8
 43
1.0
 76
     1
 77
     6
 78
     2
 67
     7
 79
     5
170
     0
171
     0
290
     0
174
     0
 93
       13
 44
0.0
173
     0
291
     0
 45
0.0
1001
ACAD
1000
AcDbSavedByObjectVersion
1070
     0
  0
VISUALSTYLE
  5
37
102
{ACAD_REACTORS
330
2A
102
}
102
{ACAD_XDICTIONARY
360
449
102
}
330
2A
100
AcDbVisualStyle
  2
Thicken
 70
    13
 71
     2
 72
     2
 73
     0
 90
        0
 40
-0.6
 41
-30.0
 62
     5
 63
     7
 74
     1
 91
        4
 64
     7
 65
   257
 75
     1
175
     1
 42
1.0
 92
       12
 66
     7
 43
1.0
 76
     1
 77
     6
 78
     2
 67
     7
 79
     5
170
     0
171
     0
290
     0
174
     0
 93
        1
 44
0.0
173
     0
291
     1
 45
0.0
1001
ACAD
1000
AcDbSavedByObjectVersion
1070
     0
  0
DICTIONARYVAR
  5
42A
102
{ACAD_REACTORS
330
426
102
}
330
426
100
DictionaryVariables
280
     0
  1
1:1
  0
DICTIONARYVAR
  5
42B
102
{ACAD_REACTORS
330
426
102
}
330
426
100
DictionaryVariables
280
     0
  1
2
  0
DICTIONARYVAR
  5
42C
102
{ACAD_REACTORS
330
426
102
}
330
426
100
DictionaryVariables
280
     0
  1
1
  0
DICTIONARYVAR
  5
429
102
{ACAD_REACTORS
330
426
102
}
330
426
100
DictionaryVariables
280
     0
  1
0
  0
XRECORD
  5
425
102
{ACAD_REACTORS
330
424
102
}
330
424
100
AcDbXrecord
280
     1
1000
This DWG file was created in ArchiCAD(TM)®
  0
SPATIAL_FILTER
  5
3FE
102
{ACAD_REACTORS
330
3FD
102
}
330
3FD
100
AcDbFilter
100
AcDbSpatialFilter
 70
     4
 10
5.119176893281521
 20
23.07118089149883
 10
291.2872152271137
 20
23.07118089149883
 10
291.2872152271137
 20
232.3201984551413
 10
5.119176893281521
 20
232.3201984551413
210
0.0
220
0.0
230
1.0
 11
0.0
 21
0.0
 31
0.0
 71
     1
 72
     0
 73
     0
 40
1.0
 40
0.0
 40
0.0
 40
0.0
 40
0.0
 40
1.0
 40
0.0
 40
0.0
 40
0.0
 40
0.0
 40
1.0
 40
0.0
 40
1.0
 40
0.0
 40
0.0
 40
0.0
 40
0.0
 40
1.0
 40
0.0
 40
0.0
 40
0.0
 40
0.0
 40
1.0
 40
0.0
  0
DICTIONARY
  5
453
330
3D
100
AcDbDictionary
280
     1
281
     1
  3
ACAD_XREC_ROUNDTRIP
360
454
  0
DICTIONARY
  5
451
330
3C
100
AcDbDictionary
280
     1
281
     1
  3
ACAD_XREC_ROUNDTRIP
360
452
  0
DICTIONARY
  5
455
330
3E
100
AcDbDictionary
280
     1
281
     1
  3
ACAD_XREC_ROUNDTRIP
360
456
  0
DICTIONARY
  5
439
330
2F
100
AcDbDictionary
280
     1
281
     1
  3
ACAD_XREC_ROUNDTRIP
360
43A
  0
DICTIONARY
  5
43D
330
31
100
AcDbDictionary
280
     1
281
     1
  3
ACAD_XREC_ROUNDTRIP
360
43E
  0
DICTIONARY
  5
43B
330
30
100
AcDbDictionary
280
     1
281
     1
  3
ACAD_XREC_ROUNDTRIP
360
43C
  0
DICTIONARY
  5
43F
330
32
100
AcDbDictionary
280
     1
281
     1
  3
ACAD_XREC_ROUNDTRIP
360
440
  0
DICTIONARY
  5
447
330
36
100
AcDbDictionary
280
     1
281
     1
  3
ACAD_XREC_ROUNDTRIP
360
448
  0
DICTIONARY
  5
44F
330
3A
100
AcDbDictionary
280
     1
281
     1
  3
ACAD_XREC_ROUNDTRIP
360
450
  0
DICTIONARY
  5
443
330
34
100
AcDbDictionary
280
     1
281
     1
  3
ACAD_XREC_ROUNDTRIP
360
444
  0
DICTIONARY
  5
445
330
35
100
AcDbDictionary
280
     1
281
     1
  3
ACAD_XREC_ROUNDTRIP
360
446
  0
DICTIONARY
  5
44D
330
39
100
AcDbDictionary
280
     1
281
     1
  3
ACAD_XREC_ROUNDTRIP
360
44E
  0
DICTIONARY
  5
431
330
2B
100
AcDbDictionary
280
     1
281
     1
  3
ACAD_XREC_ROUNDTRIP
360
432
  0
DICTIONARY
  5
433
330
2C
100
AcDbDictionary
280
     1
281
     1
  3
ACAD_XREC_ROUNDTRIP
360
434
  0
DICTIONARY
  5
435
330
2D
100
AcDbDictionary
280
     1
281
     1
  3
ACAD_XREC_ROUNDTRIP
360
436
  0
DICTIONARY
  5
437
330
2E
100
AcDbDictionary
280
     1
281
     1
  3
ACAD_XREC_ROUNDTRIP
360
438
  0
DICTIONARY
  5
44B
330
38
100
AcDbDictionary
280
     1
281
     1
  3
ACAD_XREC_ROUNDTRIP
360
44C
  0
DICTIONARY
  5
441
330
33
100
AcDbDictionary
280
     1
281
     1
  3
ACAD_XREC_ROUNDTRIP
360
442
  0
DICTIONARY
  5
449
330
37
100
AcDbDictionary
280
     1
281
     1
  3
ACAD_XREC_ROUNDTRIP
360
44A
  0
XRECORD
  5
454
102
{ACAD_REACTORS
330
453
102
}
330
453
100
AcDbXrecord
280
     1
102
MATERIAL
148
0.0
149
0.0
149
0.0
 93
        0
 94
      127
282
     0
 72
     1
 77
     1
171
     1
175
     1
179
     1
273
     0
  0
XRECORD
  5
452
102
{ACAD_REACTORS
330
451
102
}
330
451
100
AcDbXrecord
280
     1
102
MATERIAL
148
0.0
149
0.0
149
0.0
 93
        0
 94
      127
282
     0
 72
     1
 77
     1
171
     1
175
     1
179
     1
273
     0
  0
XRECORD
  5
456
102
{ACAD_REACTORS
330
455
102
}
330
455
100
AcDbXrecord
280
     1
102
MATERIAL
148
0.0
149
0.0
149
0.0
 93
        0
 94
      127
282
     0
 72
     1
 77
     1
171
     1
175
     1
179
     1
273
     0
  0
XRECORD
  5
43A
102
{ACAD_REACTORS
330
439
102
}
330
439
100
AcDbXrecord
280
     1
102
RTVSPropertyOp0
 70
     1
102
RTVSPropertyOp1
 70
     1
102
RTVSPropertyOp2
 70
     1
102
RTVSPropertyOp3
 70
     1
102
RTVSPropertyOp4
 70
     1
102
RTVSPropertyOp5
 70
     1
102
RTVSPropertyOp6
 70
     1
102
RTVSPropertyOp7
 70
     1
102
RTVSPropertyOp8
 70
     1
102
RTVSPropertyOp9
 70
     1
102
RTVSPropertyOp10
 70
     1
102
RTVSPropertyOp11
 70
     1
102
RTVSPropertyOp12
 70
     1
102
RTVSPropertyOp13
 70
     1
102
RTVSPropertyOp14
 70
     1
102
RTVSPropertyOp15
 70
     1
102
RTVSPropertyOp16
 70
     1
102
RTVSPropertyOp17
 70
     1
102
RTVSPropertyOp18
 70
     1
102
RTVSPropertyOp19
 70
     1
102
RTVSPropertyOp20
 70
     1
102
RTVSPropertyOp21
 70
     1
102
RTVSPropertyOp22
 70
     1
102
RTVSPropertyOp23
 70
     1
102
RTVSPropertyOp24
 70
     1
102
RTVSPropertyOp25
 70
     1
102
RTVSPropertyOp26
 70
     1
102
RTVSPropertyOp27
 70
     1
102
RTVSPropertyOp28
 70
     1
102
RTVSPropertyOp29
 70
     1
102
RTVSPropertyOp30
 70
     1
102
RTVSPropertyOp31
 70
     1
102
RTVSPropertyOp32
 70
     1
  0
XRECORD
  5
43E
102
{ACAD_REACTORS
330
43D
102
}
330
43D
100
AcDbXrecord
280
     1
102
RTVSPropertyOp0
 70
     1
102
RTVSPropertyOp1
 70
     1
102
RTVSPropertyOp2
 70
     1
102
RTVSPropertyOp3
 70
     1
102
RTVSPropertyOp4
 70
     1
102
RTVSPropertyOp5
 70
     1
102
RTVSPropertyOp6
 70
     1
102
RTVSPropertyOp7
 70
     1
102
RTVSPropertyOp8
 70
     1
102
RTVSPropertyOp9
 70
     1
102
RTVSPropertyOp10
 70
     1
102
RTVSPropertyOp11
 70
     1
102
RTVSPropertyOp12
 70
     1
102
RTVSPropertyOp13
 70
     1
102
RTVSPropertyOp14
 70
     1
102
RTVSPropertyOp15
 70
     1
102
RTVSPropertyOp16
 70
     1
102
RTVSPropertyOp17
 70
     1
102
RTVSPropertyOp18
 70
     1
102
RTVSPropertyOp19
 70
     1
102
RTVSPropertyOp20
 70
     1
102
RTVSPropertyOp21
 70
     1
102
RTVSPropertyOp22
 70
     1
102
RTVSPropertyOp23
 70
     1
102
RTVSPropertyOp24
 70
     1
102
RTVSPropertyOp25
 70
     1
102
RTVSPropertyOp26
 70
     1
102
RTVSPropertyOp27
 70
     1
102
RTVSPropertyOp28
 70
     1
102
RTVSPropertyOp29
 70
     1
102
RTVSPropertyOp30
 70
     1
102
RTVSPropertyOp31
 70
     1
102
RTVSPropertyOp32
 70
     1
  0
XRECORD
  5
43C
102
{ACAD_REACTORS
330
43B
102
}
330
43B
100
AcDbXrecord
280
     1
102
RTVSPropertyOp0
 70
     1
102
RTVSPropertyOp1
 70
     1
102
RTVSPropertyOp2
 70
     1
102
RTVSPropertyOp3
 70
     1
102
RTVSPropertyOp4
 70
     1
102
RTVSPropertyOp5
 70
     1
102
RTVSPropertyOp6
 70
     1
102
RTVSPropertyOp7
 70
     1
102
RTVSPropertyOp8
 70
     1
102
RTVSPropertyOp9
 70
     1
102
RTVSPropertyOp10
 70
     1
102
RTVSPropertyOp11
 70
     1
102
RTVSPropertyOp12
 70
     1
102
RTVSPropertyOp13
 70
     1
102
RTVSPropertyOp14
 70
     1
102
RTVSPropertyOp15
 70
     1
102
RTVSPropertyOp16
 70
     1
102
RTVSPropertyOp17
 70
     1
102
RTVSPropertyOp18
 70
     1
102
RTVSPropertyOp19
 70
     1
102
RTVSPropertyOp20
 70
     1
102
RTVSPropertyOp21
 70
     1
102
RTVSPropertyOp22
 70
     1
102
RTVSPropertyOp23
 70
     1
102
RTVSPropertyOp24
 70
     1
102
RTVSPropertyOp25
 70
     1
102
RTVSPropertyOp26
 70
     1
102
RTVSPropertyOp27
 70
     1
102
RTVSPropertyOp28
 70
     1
102
RTVSPropertyOp29
 70
     1
102
RTVSPropertyOp30
 70
     1
102
RTVSPropertyOp31
 70
     1
102
RTVSPropertyOp32
 70
     1
  0
XRECORD
  5
440
102
{ACAD_REACTORS
330
43F
102
}
330
43F
100
AcDbXrecord
280
     1
102
RTVSPropertyOp0
 70
     1
102
RTVSPropertyOp1
 70
     1
102
RTVSPropertyOp2
 70
     1
102
RTVSPropertyOp3
 70
     1
102
RTVSPropertyOp4
 70
     1
102
RTVSPropertyOp5
 70
     1
102
RTVSPropertyOp6
 70
     1
102
RTVSPropertyOp7
 70
     1
102
RTVSPropertyOp8
 70
     1
102
RTVSPropertyOp9
 70
     1
102
RTVSPropertyOp10
 70
     1
102
RTVSPropertyOp11
 70
     1
102
RTVSPropertyOp12
 70
     1
102
RTVSPropertyOp13
 70
     1
102
RTVSPropertyOp14
 70
     1
102
RTVSPropertyOp15
 70
     1
102
RTVSPropertyOp16
 70
     1
102
RTVSPropertyOp17
 70
     1
102
RTVSPropertyOp18
 70
     1
102
RTVSPropertyOp19
 70
     1
102
RTVSPropertyOp20
 70
     1
102
RTVSPropertyOp21
 70
     1
102
RTVSPropertyOp22
 70
     1
102
RTVSPropertyOp23
 70
     1
102
RTVSPropertyOp24
 70
     1
102
RTVSPropertyOp25
 70
     1
102
RTVSPropertyOp26
 70
     1
102
RTVSPropertyOp27
 70
     1
102
RTVSPropertyOp28
 70
     1
102
RTVSPropertyOp29
 70
     1
102
RTVSPropertyOp30
 70
     1
102
RTVSPropertyOp31
 70
     1
102
RTVSPropertyOp32
 70
     1
  0
XRECORD
  5
448
102
{ACAD_REACTORS
330
447
102
}
330
447
100
AcDbXrecord
280
     1
102
RTVSPropertyOp0
 70
     1
102
RTVSPropertyOp1
 70
     1
102
RTVSPropertyOp2
 70
     1
102
RTVSPropertyOp3
 70
     1
102
RTVSPropertyOp4
 70
     1
102
RTVSPropertyOp5
 70
     1
102
RTVSPropertyOp6
 70
     1
102
RTVSPropertyOp7
 70
     1
102
RTVSPropertyOp8
 70
     1
102
RTVSPropertyOp9
 70
     1
102
RTVSPropertyOp10
 70
     1
102
RTVSPropertyOp11
 70
     1
102
RTVSPropertyOp12
 70
     1
102
RTVSPropertyOp13
 70
     1
102
RTVSPropertyOp14
 70
     1
102
RTVSPropertyOp15
 70
     1
102
RTVSPropertyOp16
 70
     1
102
RTVSPropertyOp17
 70
     1
102
RTVSPropertyOp18
 70
     1
102
RTVSPropertyOp19
 70
     1
102
RTVSPropertyOp20
 70
     1
102
RTVSPropertyOp21
 70
     1
102
RTVSPropertyOp22
 70
     1
102
RTVSPropertyOp23
 70
     1
102
RTVSPropertyOp24
 70
     1
102
RTVSPropertyOp25
 70
     1
102
RTVSPropertyOp26
 70
     1
102
RTVSPropertyOp27
 70
     1
102
RTVSPropertyOp28
 70
     1
102
RTVSPropertyOp29
 70
     1
102
RTVSPropertyOp30
 70
     1
102
RTVSPropertyOp31
 70
     1
102
RTVSPropertyOp32
 70
     1
  0
XRECORD
  5
450
102
{ACAD_REACTORS
330
44F
102
}
330
44F
100
AcDbXrecord
280
     1
102
RTVSPropertyOp0
 70
     1
102
RTVSPropertyOp1
 70
     1
102
RTVSPropertyOp2
 70
     1
102
RTVSPropertyOp3
 70
     1
102
RTVSPropertyOp4
 70
     1
102
RTVSPropertyOp5
 70
     1
102
RTVSPropertyOp6
 70
     1
102
RTVSPropertyOp7
 70
     1
102
RTVSPropertyOp8
 70
     1
102
RTVSPropertyOp9
 70
     1
102
RTVSPropertyOp10
 70
     1
102
RTVSPropertyOp11
 70
     1
102
RTVSPropertyOp12
 70
     1
102
RTVSPropertyOp13
 70
     1
102
RTVSPropertyOp14
 70
     1
102
RTVSPropertyOp15
 70
     1
102
RTVSPropertyOp16
 70
     1
102
RTVSPropertyOp17
 70
     1
102
RTVSPropertyOp18
 70
     1
102
RTVSPropertyOp19
 70
     1
102
RTVSPropertyOp20
 70
     1
102
RTVSPropertyOp21
 70
     1
102
RTVSPropertyOp22
 70
     1
102
RTVSPropertyOp23
 70
     1
102
RTVSPropertyOp24
 70
     1
102
RTVSPropertyOp25
 70
     1
102
RTVSPropertyOp26
 70
     1
102
RTVSPropertyOp27
 70
     1
102
RTVSPropertyOp28
 70
     1
102
RTVSPropertyOp29
 70
     1
102
RTVSPropertyOp30
 70
     1
102
RTVSPropertyOp31
 70
     1
102
RTVSPropertyOp32
 70
     1
  0
XRECORD
  5
444
102
{ACAD_REACTORS
330
443
102
}
330
443
100
AcDbXrecord
280
     1
102
RTVSPropertyOp0
 70
     1
102
RTVSPropertyOp1
 70
     1
102
RTVSPropertyOp2
 70
     1
102
RTVSPropertyOp3
 70
     1
102
RTVSPropertyOp4
 70
     1
102
RTVSPropertyOp5
 70
     1
102
RTVSPropertyOp6
 70
     1
102
RTVSPropertyOp7
 70
     1
102
RTVSPropertyOp8
 70
     1
102
RTVSPropertyOp9
 70
     1
102
RTVSPropertyOp10
 70
     1
102
RTVSPropertyOp11
 70
     1
102
RTVSPropertyOp12
 70
     1
102
RTVSPropertyOp13
 70
     1
102
RTVSPropertyOp14
 70
     1
102
RTVSPropertyOp15
 70
     1
102
RTVSPropertyOp16
 70
     1
102
RTVSPropertyOp17
 70
     1
102
RTVSPropertyOp18
 70
     1
102
RTVSPropertyOp19
 70
     1
102
RTVSPropertyOp20
 70
     1
102
RTVSPropertyOp21
 70
     1
102
RTVSPropertyOp22
 70
     1
102
RTVSPropertyOp23
 70
     1
102
RTVSPropertyOp24
 70
     1
102
RTVSPropertyOp25
 70
     1
102
RTVSPropertyOp26
 70
     1
102
RTVSPropertyOp27
 70
     1
102
RTVSPropertyOp28
 70
     1
102
RTVSPropertyOp29
 70
     1
102
RTVSPropertyOp30
 70
     1
102
RTVSPropertyOp31
 70
     1
102
RTVSPropertyOp32
 70
     1
  0
XRECORD
  5
446
102
{ACAD_REACTORS
330
445
102
}
330
445
100
AcDbXrecord
280
     1
102
RTVSPropertyOp0
 70
     1
102
RTVSPropertyOp1
 70
     1
102
RTVSPropertyOp2
 70
     1
102
RTVSPropertyOp3
 70
     1
102
RTVSPropertyOp4
 70
     1
102
RTVSPropertyOp5
 70
     1
102
RTVSPropertyOp6
 70
     1
102
RTVSPropertyOp7
 70
     1
102
RTVSPropertyOp8
 70
     1
102
RTVSPropertyOp9
 70
     1
102
RTVSPropertyOp10
 70
     1
102
RTVSPropertyOp11
 70
     1
102
RTVSPropertyOp12
 70
     1
102
RTVSPropertyOp13
 70
     1
102
RTVSPropertyOp14
 70
     1
102
RTVSPropertyOp15
 70
     1
102
RTVSPropertyOp16
 70
     1
102
RTVSPropertyOp17
 70
     1
102
RTVSPropertyOp18
 70
     1
102
RTVSPropertyOp19
 70
     1
102
RTVSPropertyOp20
 70
     1
102
RTVSPropertyOp21
 70
     1
102
RTVSPropertyOp22
 70
     1
102
RTVSPropertyOp23
 70
     1
102
RTVSPropertyOp24
 70
     1
102
RTVSPropertyOp25
 70
     1
102
RTVSPropertyOp26
 70
     1
102
RTVSPropertyOp27
 70
     1
102
RTVSPropertyOp28
 70
     1
102
RTVSPropertyOp29
 70
     1
102
RTVSPropertyOp30
 70
     1
102
RTVSPropertyOp31
 70
     1
102
RTVSPropertyOp32
 70
     1
  0
XRECORD
  5
44E
102
{ACAD_REACTORS
330
44D
102
}
330
44D
100
AcDbXrecord
280
     1
102
RTVSPropertyOp0
 70
     1
102
RTVSPropertyOp1
 70
     1
102
RTVSPropertyOp2
 70
     1
102
RTVSPropertyOp3
 70
     1
102
RTVSPropertyOp4
 70
     1
102
RTVSPropertyOp5
 70
     1
102
RTVSPropertyOp6
 70
     1
102
RTVSPropertyOp7
 70
     1
102
RTVSPropertyOp8
 70
     1
102
RTVSPropertyOp9
 70
     1
102
RTVSPropertyOp10
 70
     1
102
RTVSPropertyOp11
 70
     1
102
RTVSPropertyOp12
 70
     1
102
RTVSPropertyOp13
 70
     1
102
RTVSPropertyOp14
 70
     1
102
RTVSPropertyOp15
 70
     1
102
RTVSPropertyOp16
 70
     1
102
RTVSPropertyOp17
 70
     1
102
RTVSPropertyOp18
 70
     1
102
RTVSPropertyOp19
 70
     1
102
RTVSPropertyOp20
 70
     1
102
RTVSPropertyOp21
 70
     1
102
RTVSPropertyOp22
 70
     1
102
RTVSPropertyOp23
 70
     1
102
RTVSPropertyOp24
 70
     1
102
RTVSPropertyOp25
 70
     1
102
RTVSPropertyOp26
 70
     1
102
RTVSPropertyOp27
 70
     1
102
RTVSPropertyOp28
 70
     1
102
RTVSPropertyOp29
 70
     1
102
RTVSPropertyOp30
 70
     1
102
RTVSPropertyOp31
 70
     1
102
RTVSPropertyOp32
 70
     1
  0
XRECORD
  5
432
102
{ACAD_REACTORS
330
431
102
}
330
431
100
AcDbXrecord
280
     1
102
RTVSPropertyOp0
 70
     1
102
RTVSPropertyOp1
 70
     1
102
RTVSPropertyOp2
 70
     1
102
RTVSPropertyOp3
 70
     1
102
RTVSPropertyOp4
 70
     1
102
RTVSPropertyOp5
 70
     1
102
RTVSPropertyOp6
 70
     1
102
RTVSPropertyOp7
 70
     1
102
RTVSPropertyOp8
 70
     1
102
RTVSPropertyOp9
 70
     1
102
RTVSPropertyOp10
 70
     1
102
RTVSPropertyOp11
 70
     1
102
RTVSPropertyOp12
 70
     1
102
RTVSPropertyOp13
 70
     1
102
RTVSPropertyOp14
 70
     1
102
RTVSPropertyOp15
 70
     1
102
RTVSPropertyOp16
 70
     1
102
RTVSPropertyOp17
 70
     1
102
RTVSPropertyOp18
 70
     1
102
RTVSPropertyOp19
 70
     1
102
RTVSPropertyOp20
 70
     1
102
RTVSPropertyOp21
 70
     1
102
RTVSPropertyOp22
 70
     1
102
RTVSPropertyOp23
 70
     1
102
RTVSPropertyOp24
 70
     1
102
RTVSPropertyOp25
 70
     1
102
RTVSPropertyOp26
 70
     1
102
RTVSPropertyOp27
 70
     1
102
RTVSPropertyOp28
 70
     1
102
RTVSPropertyOp29
 70
     1
102
RTVSPropertyOp30
 70
     1
102
RTVSPropertyOp31
 70
     1
102
RTVSPropertyOp32
 70
     1
  0
XRECORD
  5
434
102
{ACAD_REACTORS
330
433
102
}
330
433
100
AcDbXrecord
280
     1
102
RTVSPropertyOp0
 70
     1
102
RTVSPropertyOp1
 70
     1
102
RTVSPropertyOp2
 70
     1
102
RTVSPropertyOp3
 70
     1
102
RTVSPropertyOp4
 70
     1
102
RTVSPropertyOp5
 70
     1
102
RTVSPropertyOp6
 70
     1
102
RTVSPropertyOp7
 70
     1
102
RTVSPropertyOp8
 70
     1
102
RTVSPropertyOp9
 70
     1
102
RTVSPropertyOp10
 70
     1
102
RTVSPropertyOp11
 70
     1
102
RTVSPropertyOp12
 70
     1
102
RTVSPropertyOp13
 70
     1
102
RTVSPropertyOp14
 70
     1
102
RTVSPropertyOp15
 70
     1
102
RTVSPropertyOp16
 70
     1
102
RTVSPropertyOp17
 70
     1
102
RTVSPropertyOp18
 70
     1
102
RTVSPropertyOp19
 70
     1
102
RTVSPropertyOp20
 70
     1
102
RTVSPropertyOp21
 70
     1
102
RTVSPropertyOp22
 70
     1
102
RTVSPropertyOp23
 70
     1
102
RTVSPropertyOp24
 70
     1
102
RTVSPropertyOp25
 70
     1
102
RTVSPropertyOp26
 70
     1
102
RTVSPropertyOp27
 70
     1
102
RTVSPropertyOp28
 70
     1
102
RTVSPropertyOp29
 70
     1
102
RTVSPropertyOp30
 70
     1
102
RTVSPropertyOp31
 70
     1
102
RTVSPropertyOp32
 70
     1
  0
XRECORD
  5
436
102
{ACAD_REACTORS
330
435
102
}
330
435
100
AcDbXrecord
280
     1
102
RTVSPropertyOp0
 70
     1
102
RTVSPropertyOp1
 70
     1
102
RTVSPropertyOp2
 70
     1
102
RTVSPropertyOp3
 70
     1
102
RTVSPropertyOp4
 70
     1
102
RTVSPropertyOp5
 70
     1
102
RTVSPropertyOp6
 70
     1
102
RTVSPropertyOp7
 70
     1
102
RTVSPropertyOp8
 70
     1
102
RTVSPropertyOp9
 70
     1
102
RTVSPropertyOp10
 70
     1
102
RTVSPropertyOp11
 70
     1
102
RTVSPropertyOp12
 70
     1
102
RTVSPropertyOp13
 70
     1
102
RTVSPropertyOp14
 70
     1
102
RTVSPropertyOp15
 70
     1
102
RTVSPropertyOp16
 70
     1
102
RTVSPropertyOp17
 70
     1
102
RTVSPropertyOp18
 70
     1
102
RTVSPropertyOp19
 70
     1
102
RTVSPropertyOp20
 70
     1
102
RTVSPropertyOp21
 70
     1
102
RTVSPropertyOp22
 70
     1
102
RTVSPropertyOp23
 70
     1
102
RTVSPropertyOp24
 70
     1
102
RTVSPropertyOp25
 70
     1
102
RTVSPropertyOp26
 70
     1
102
RTVSPropertyOp27
 70
     1
102
RTVSPropertyOp28
 70
     1
102
RTVSPropertyOp29
 70
     1
102
RTVSPropertyOp30
 70
     1
102
RTVSPropertyOp31
 70
     1
102
RTVSPropertyOp32
 70
     1
  0
XRECORD
  5
438
102
{ACAD_REACTORS
330
437
102
}
330
437
100
AcDbXrecord
280
     1
102
RTVSPropertyOp0
 70
     1
102
RTVSPropertyOp1
 70
     1
102
RTVSPropertyOp2
 70
     1
102
RTVSPropertyOp3
 70
     1
102
RTVSPropertyOp4
 70
     1
102
RTVSPropertyOp5
 70
     1
102
RTVSPropertyOp6
 70
     1
102
RTVSPropertyOp7
 70
     1
102
RTVSPropertyOp8
 70
     1
102
RTVSPropertyOp9
 70
     1
102
RTVSPropertyOp10
 70
     1
102
RTVSPropertyOp11
 70
     1
102
RTVSPropertyOp12
 70
     1
102
RTVSPropertyOp13
 70
     1
102
RTVSPropertyOp14
 70
     1
102
RTVSPropertyOp15
 70
     1
102
RTVSPropertyOp16
 70
     1
102
RTVSPropertyOp17
 70
     1
102
RTVSPropertyOp18
 70
     1
102
RTVSPropertyOp19
 70
     1
102
RTVSPropertyOp20
 70
     1
102
RTVSPropertyOp21
 70
     1
102
RTVSPropertyOp22
 70
     1
102
RTVSPropertyOp23
 70
     1
102
RTVSPropertyOp24
 70
     1
102
RTVSPropertyOp25
 70
     1
102
RTVSPropertyOp26
 70
     1
102
RTVSPropertyOp27
 70
     1
102
RTVSPropertyOp28
 70
     1
102
RTVSPropertyOp29
 70
     1
102
RTVSPropertyOp30
 70
     1
102
RTVSPropertyOp31
 70
     1
102
RTVSPropertyOp32
 70
     1
  0
XRECORD
  5
44C
102
{ACAD_REACTORS
330
44B
102
}
330
44B
100
AcDbXrecord
280
     1
102
RTVSPropertyOp0
 70
     1
102
RTVSPropertyOp1
 70
     1
102
RTVSPropertyOp2
 70
     1
102
RTVSPropertyOp3
 70
     1
102
RTVSPropertyOp4
 70
     1
102
RTVSPropertyOp5
 70
     1
102
RTVSPropertyOp6
 70
     1
102
RTVSPropertyOp7
 70
     1
102
RTVSPropertyOp8
 70
     1
102
RTVSPropertyOp9
 70
     1
102
RTVSPropertyOp10
 70
     1
102
RTVSPropertyOp11
 70
     1
102
RTVSPropertyOp12
 70
     1
102
RTVSPropertyOp13
 70
     1
102
RTVSPropertyOp14
 70
     1
102
RTVSPropertyOp15
 70
     1
102
RTVSPropertyOp16
 70
     1
102
RTVSPropertyOp17
 70
     1
102
RTVSPropertyOp18
 70
     1
102
RTVSPropertyOp19
 70
     1
102
RTVSPropertyOp20
 70
     1
102
RTVSPropertyOp21
 70
     1
102
RTVSPropertyOp22
 70
     1
102
RTVSPropertyOp23
 70
     1
102
RTVSPropertyOp24
 70
     1
102
RTVSPropertyOp25
 70
     1
102
RTVSPropertyOp26
 70
     1
102
RTVSPropertyOp27
 70
     1
102
RTVSPropertyOp28
 70
     1
102
RTVSPropertyOp29
 70
     1
102
RTVSPropertyOp30
 70
     1
102
RTVSPropertyOp31
 70
     1
102
RTVSPropertyOp32
 70
     1
  0
XRECORD
  5
442
102
{ACAD_REACTORS
330
441
102
}
330
441
100
AcDbXrecord
280
     1
102
RTVSPropertyOp0
 70
     1
102
RTVSPropertyOp1
 70
     1
102
RTVSPropertyOp2
 70
     1
102
RTVSPropertyOp3
 70
     1
102
RTVSPropertyOp4
 70
     1
102
RTVSPropertyOp5
 70
     1
102
RTVSPropertyOp6
 70
     1
102
RTVSPropertyOp7
 70
     1
102
RTVSPropertyOp8
 70
     1
102
RTVSPropertyOp9
 70
     1
102
RTVSPropertyOp10
 70
     1
102
RTVSPropertyOp11
 70
     1
102
RTVSPropertyOp12
 70
     1
102
RTVSPropertyOp13
 70
     1
102
RTVSPropertyOp14
 70
     1
102
RTVSPropertyOp15
 70
     1
102
RTVSPropertyOp16
 70
     1
102
RTVSPropertyOp17
 70
     1
102
RTVSPropertyOp18
 70
     1
102
RTVSPropertyOp19
 70
     1
102
RTVSPropertyOp20
 70
     1
102
RTVSPropertyOp21
 70
     1
102
RTVSPropertyOp22
 70
     1
102
RTVSPropertyOp23
 70
     1
102
RTVSPropertyOp24
 70
     1
102
RTVSPropertyOp25
 70
     1
102
RTVSPropertyOp26
 70
     1
102
RTVSPropertyOp27
 70
     1
102
RTVSPropertyOp28
 70
     1
102
RTVSPropertyOp29
 70
     1
102
RTVSPropertyOp30
 70
     1
102
RTVSPropertyOp31
 70
     1
102
RTVSPropertyOp32
 70
     1
  0
XRECORD
  5
44A
102
{ACAD_REACTORS
330
449
102
}
330
449
100
AcDbXrecord
280
     1
102
RTVSPropertyOp0
 70
     1
102
RTVSPropertyOp1
 70
     1
102
RTVSPropertyOp2
 70
     1
102
RTVSPropertyOp3
 70
     1
102
RTVSPropertyOp4
 70
     1
102
RTVSPropertyOp5
 70
     1
102
RTVSPropertyOp6
 70
     1
102
RTVSPropertyOp7
 70
     1
102
RTVSPropertyOp8
 70
     1
102
RTVSPropertyOp9
 70
     1
102
RTVSPropertyOp10
 70
     1
102
RTVSPropertyOp11
 70
     1
102
RTVSPropertyOp12
 70
     1
102
RTVSPropertyOp13
 70
     1
102
RTVSPropertyOp14
 70
     1
102
RTVSPropertyOp15
 70
     1
102
RTVSPropertyOp16
 70
     1
102
RTVSPropertyOp17
 70
     1
102
RTVSPropertyOp18
 70
     1
102
RTVSPropertyOp19
 70
     1
102
RTVSPropertyOp20
 70
     1
102
RTVSPropertyOp21
 70
     1
102
RTVSPropertyOp22
 70
     1
102
RTVSPropertyOp23
 70
     1
102
RTVSPropertyOp24
 70
     1
102
RTVSPropertyOp25
 70
     1
102
RTVSPropertyOp26
 70
     1
102
RTVSPropertyOp27
 70
     1
102
RTVSPropertyOp28
 70
     1
102
RTVSPropertyOp29
 70
     1
102
RTVSPropertyOp30
 70
     1
102
RTVSPropertyOp31
 70
     1
102
RTVSPropertyOp32
 70
     1
  0
ENDSEC
  0
EOF
