  0
SECTION
  2
HEADER
  9
$ACADVER
  1
AC1015
  9
$ACADMAINTVER
 70
     6
  9
$DWGCODEPAGE
  3
ANSI_949
  9
$INSBASE
 10
0.0
 20
0.0
 30
0.0
  9
$EXTMIN
 10
1.000000000000000E+20
 20
1.000000000000000E+20
 30
1.000000000000000E+20
  9
$EXTMAX
 10
-1.000000000000000E+20
 20
-1.000000000000000E+20
 30
-1.000000000000000E+20
  9
$LIMMIN
 10
0.0
 20
0.0
  9
$LIMMAX
 10
12.0
 20
9.0
  9
$ORTHOMODE
 70
     0
  9
$REGENMODE
 70
     1
  9
$FILLMODE
 70
     1
  9
$QTEXTMODE
 70
     0
  9
$MIRRTEXT
 70
     1
  9
$LTSCALE
 40
1.0
  9
$ATTMODE
 70
     1
  9
$TEXTSIZE
 40
0.2
  9
$TRACEWID
 40
0.05
  9
$TEXTSTYLE
  7
Standard
  9
$CLAYER
  8
0
  9
$CELTYPE
  6
ByLayer
  9
$CECOLOR
 62
   256
  9
$CELTSCALE
 40
1.0
  9
$DISPSILH
 70
     0
  9
$DIMSCALE
 40
1.0
  9
$DIMASZ
 40
0.18
  9
$DIMEXO
 40
0.0625
  9
$DIMDLI
 40
0.38
  9
$DIMRND
 40
0.0
  9
$DIMDLE
 40
0.0
  9
$DIMEXE
 40
0.18
  9
$DIMTP
 40
0.0
  9
$DIMTM
 40
0.0
  9
$DIMTXT
 40
0.18
  9
$DIMCEN
 40
0.09
  9
$DIMTSZ
 40
0.0
  9
$DIMTOL
 70
     0
  9
$DIMLIM
 70
     0
  9
$DIMTIH
 70
     1
  9
$DIMTOH
 70
     1
  9
$DIMSE1
 70
     0
  9
$DIMSE2
 70
     0
  9
$DIMTAD
 70
     0
  9
$DIMZIN
 70
     0
  9
$DIMBLK
  1

  9
$DIMASO
 70
     1
  9
$DIMSHO
 70
     1
  9
$DIMPOST
  1

  9
$DIMAPOST
  1

  9
$DIMALT
 70
     0
  9
$DIMALTD
 70
     2
  9
$DIMALTF
 40
25.4
  9
$DIMLFAC
 40
1.0
  9
$DIMTOFL
 70
     0
  9
$DIMTVP
 40
0.0
  9
$DIMTIX
 70
     0
  9
$DIMSOXD
 70
     0
  9
$DIMSAH
 70
     0
  9
$DIMBLK1
  1

  9
$DIMBLK2
  1

  9
$DIMSTYLE
  2
Standard
  9
$DIMCLRD
 70
     0
  9
$DIMCLRE
 70
     0
  9
$DIMCLRT
 70
     0
  9
$DIMTFAC
 40
1.0
  9
$DIMGAP
 40
0.09
  9
$DIMJUST
 70
     0
  9
$DIMSD1
 70
     0
  9
$DIMSD2
 70
     0
  9
$DIMTOLJ
 70
     1
  9
$DIMTZIN
 70
     0
  9
$DIMALTZ
 70
     0
  9
$DIMALTTZ
 70
     0
  9
$DIMUPT
 70
     0
  9
$DIMDEC
 70
     4
  9
$DIMTDEC
 70
     4
  9
$DIMALTU
 70
     2
  9
$DIMALTTD
 70
     2
  9
$DIMTXSTY
  7
Standard
  9
$DIMAUNIT
 70
     0
  9
$DIMADEC
 70
     0
  9
$DIMALTRND
 40
0.0
  9
$DIMAZIN
 70
     0
  9
$DIMDSEP
 70
    46
  9
$DIMATFIT
 70
     3
  9
$DIMFRAC
 70
     0
  9
$DIMLDRBLK
  1

  9
$DIMLUNIT
 70
     2
  9
$DIMLWD
 70
    -2
  9
$DIMLWE
 70
    -2
  9
$DIMTMOVE
 70
     0
  9
$LUNITS
 70
     2
  9
$LUPREC
 70
     4
  9
$SKETCHINC
 40
0.1
  9
$FILLETRAD
 40
0.5
  9
$AUNITS
 70
     0
  9
$AUPREC
 70
     0
  9
$MENU
  1
.
  9
$ELEVATION
 40
0.0
  9
$PELEVATION
 40
0.0
  9
$THICKNESS
 40
0.0
  9
$LIMCHECK
 70
     0
  9
$CHAMFERA
 40
0.5
  9
$CHAMFERB
 40
0.5
  9
$CHAMFERC
 40
1.0
  9
$CHAMFERD
 40
0.0
  9
$SKPOLY
 70
     0
  9
$TDCREATE
 40
2456522.616688113
  9
$TDUCREATE
 40
2456522.116688113
  9
$TDUPDATE
 40
2456522.616715532
  9
$TDUUPDATE
 40
2456522.116715532
  9
$TDINDWG
 40
0.0000000116
  9
$TDUSRTIMER
 40
0.0000000116
  9
$USRTIMER
 70
     1
  9
$ANGBASE
 50
0.0
  9
$ANGDIR
 70
     0
  9
$PDMODE
 70
     0
  9
$PDSIZE
 40
0.0
  9
$PLINEWID
 40
0.0
  9
$SPLFRAME
 70
     0
  9
$SPLINETYPE
 70
     6
  9
$SPLINESEGS
 70
     8
  9
$HANDSEED
  5
3D4
  9
$SURFTAB1
 70
     6
  9
$SURFTAB2
 70
     6
  9
$SURFTYPE
 70
     6
  9
$SURFU
 70
     6
  9
$SURFV
 70
     6
  9
$UCSBASE
  2

  9
$UCSNAME
  2

  9
$UCSORG
 10
0.0
 20
0.0
 30
0.0
  9
$UCSXDIR
 10
1.0
 20
0.0
 30
0.0
  9
$UCSYDIR
 10
0.0
 20
1.0
 30
0.0
  9
$UCSORTHOREF
  2

  9
$UCSORTHOVIEW
 70
     0
  9
$UCSORGTOP
 10
0.0
 20
0.0
 30
0.0
  9
$UCSORGBOTTOM
 10
0.0
 20
0.0
 30
0.0
  9
$UCSORGLEFT
 10
0.0
 20
0.0
 30
0.0
  9
$UCSORGRIGHT
 10
0.0
 20
0.0
 30
0.0
  9
$UCSORGFRONT
 10
0.0
 20
0.0
 30
0.0
  9
$UCSORGBACK
 10
0.0
 20
0.0
 30
0.0
  9
$PUCSBASE
  2

  9
$PUCSNAME
  2

  9
$PUCSORG
 10
0.0
 20
0.0
 30
0.0
  9
$PUCSXDIR
 10
1.0
 20
0.0
 30
0.0
  9
$PUCSYDIR
 10
0.0
 20
1.0
 30
0.0
  9
$PUCSORTHOREF
  2

  9
$PUCSORTHOVIEW
 70
     0
  9
$PUCSORGTOP
 10
0.0
 20
0.0
 30
0.0
  9
$PUCSORGBOTTOM
 10
0.0
 20
0.0
 30
0.0
  9
$PUCSORGLEFT
 10
0.0
 20
0.0
 30
0.0
  9
$PUCSORGRIGHT
 10
0.0
 20
0.0
 30
0.0
  9
$PUCSORGFRONT
 10
0.0
 20
0.0
 30
0.0
  9
$PUCSORGBACK
 10
0.0
 20
0.0
 30
0.0
  9
$USERI1
 70
     0
  9
$USERI2
 70
     0
  9
$USERI3
 70
     0
  9
$USERI4
 70
     0
  9
$USERI5
 70
     0
  9
$USERR1
 40
0.0
  9
$USERR2
 40
0.0
  9
$USERR3
 40
0.0
  9
$USERR4
 40
0.0
  9
$USERR5
 40
0.0
  9
$WORLDVIEW
 70
     1
  9
$SHADEDGE
 70
     3
  9
$SHADEDIF
 70
    70
  9
$TILEMODE
 70
     1
  9
$MAXACTVP
 70
    64
  9
$PINSBASE
 10
0.0
 20
0.0
 30
0.0
  9
$PLIMCHECK
 70
     0
  9
$PEXTMIN
 10
1.000000000000000E+20
 20
1.000000000000000E+20
 30
1.000000000000000E+20
  9
$PEXTMAX
 10
-1.000000000000000E+20
 20
-1.000000000000000E+20
 30
-1.000000000000000E+20
  9
$PLIMMIN
 10
0.0
 20
0.0
  9
$PLIMMAX
 10
12.0
 20
9.0
  9
$UNITMODE
 70
     0
  9
$VISRETAIN
 70
     1
  9
$PLINEGEN
 70
     0
  9
$PSLTSCALE
 70
     1
  9
$TREEDEPTH
 70
  3020
  9
$CMLSTYLE
  2
Standard
  9
$CMLJUST
 70
     0
  9
$CMLSCALE
 40
1.0
  9
$PROXYGRAPHICS
 70
     1
  9
$MEASUREMENT
 70
     0
  9
$CELWEIGHT
370
    -1
  9
$ENDCAPS
280
     0
  9
$JOINSTYLE
280
     0
  9
$LWDISPLAY
290
     1
  9
$INSUNITS
 70
     4
  9
$HYPERLINKBASE
  1

  9
$STYLESHEET
  1

  9
$XEDIT
290
     1
  9
$CEPSNTYPE
380
     0
  9
$PSTYLEMODE
290
     1
  9
$FINGERPRINTGUID
  2
{38C631CA-F395-45D9-ACAC-3CEF337A4E5D}
  9
$VERSIONGUID
  2
{FAEB1C32-E019-11D5-929B-00C0DF256EC4}
  9
$EXTNAMES
290
     1
  9
$PSVPSCALE
 40
0.0
  9
$OLESTARTUP
290
     0
  0
ENDSEC
  0
SECTION
  2
CLASSES
  0
CLASS
  1
ACDBDICTIONARYWDFLT
  2
AcDbDictionaryWithDefault
  3
ObjectDBX Classes
 90
        0
280
     0
281
     0
  0
CLASS
  1
VISUALSTYLE
  2
AcDbVisualStyle
  3
ObjectDBX Classes
 90
     4095
280
     0
281
     0
  0
CLASS
  1
MATERIAL
  2
AcDbMaterial
  3
ObjectDBX Classes
 90
     1153
280
     0
281
     0
  0
CLASS
  1
WIPEOUT
  2
AcDbWipeout
  3
WipeOut|AutoCAD Express Tool|expresstools@autodesk.com
 90
      127
280
     0
281
     1
  0
CLASS
  1
SPATIAL_FILTER
  2
AcDbSpatialFilter
  3
ObjectDBX Classes
 90
        0
280
     0
281
     0
  0
CLASS
  1
SCALE
  2
AcDbScale
  3
ObjectDBX Classes
 90
     1153
280
     0
281
     0
  0
CLASS
  1
DICTIONARYVAR
  2
AcDbDictionaryVar
  3
ObjectDBX Classes
 90
        0
280
     0
281
     0
  0
CLASS
  1
ACDBPLACEHOLDER
  2
AcDbPlaceHolder
  3
ObjectDBX Classes
 90
        0
280
     0
281
     0
  0
CLASS
  1
LAYOUT
  2
AcDbLayout
  3
ObjectDBX Classes
 90
        0
280
     0
281
     0
  0
ENDSEC
  0
SECTION
  2
TABLES
  0
TABLE
  2
VPORT
  5
8
330
0
100
AcDbSymbolTable
 70
     1
  0
VPORT
  5
29
330
8
100
AcDbSymbolTableRecord
100
AcDbViewportTableRecord
  2
*Active
 70
     0
 10
0.0
 20
0.0
 11
1.0
 21
1.0
 12
146.6203427419354
 22
99.6837366575805
 13
0.0
 23
0.0
 14
0.5
 24
0.5
 15
0.5
 25
0.5
 16
0.0
 26
0.0
 36
1.0
 17
0.0
 27
0.0
 37
0.0
 40
199.2199106680757
 41
1.450183850692541
 42
50.0
 43
0.0
 44
0.0
 50
0.0
 51
0.0
 71
     0
 72
   100
 73
     1
 74
     3
 75
     0
 76
     0
 77
     0
 78
     0
281
     0
 65
     1
110
0.0
120
0.0
130
0.0
111
1.0
121
0.0
131
0.0
112
0.0
122
1.0
132
0.0
 79
     0
146
0.0
  0
ENDTAB
  0
TABLE
  2
LTYPE
  5
5
330
0
100
AcDbSymbolTable
 70
     5
  0
LTYPE
  5
14
330
5
100
AcDbSymbolTableRecord
100
AcDbLinetypeTableRecord
  2
ByBlock
 70
     0
  3

 72
    65
 73
     0
 40
0.0
  0
LTYPE
  5
15
330
5
100
AcDbSymbolTableRecord
100
AcDbLinetypeTableRecord
  2
ByLayer
 70
     0
  3

 72
    65
 73
     0
 40
0.0
  0
LTYPE
  5
16
330
5
100
AcDbSymbolTableRecord
100
AcDbLinetypeTableRecord
  2
Continuous
 70
     0
  3
Solid line
 72
    65
 73
     0
 40
0.0
  0
LTYPE
  5
117
330
5
100
AcDbSymbolTableRecord
100
AcDbLinetypeTableRecord
  2
Double Dashed
 70
     0
  3
- - - - - 
 72
    65
 73
     4
 40
10.93611073493958
 49
5.291666507720947
 74
     0
 49
-2.116666555404663
 74
     0
 49
1.411111116409302
 74
     0
 49
-2.116666555404668
 74
     0
  0
LTYPE
  5
119
330
5
100
AcDbSymbolTableRecord
100
AcDbLinetypeTableRecord
  2
Hidden Line
 70
     0
  3
- - - - - 
 72
    65
 73
     2
 40
3.912222232818603
 49
2.822222232818604
 74
     0
 49
-1.089999999999999
 74
     0
  0
LTYPE
  5
29B
330
5
100
AcDbSymbolTableRecord
100
AcDbLinetypeTableRecord
  2
Dot & Dashed
 70
     0
  3
- - - - - 
 72
    65
 73
     4
 40
6.702777624130249
 49
3.527777671813965
 74
     0
 49
-1.763888835906982
 74
     0
 49
0.0
 74
     0
 49
-1.411111116409302
 74
     0
  0
LTYPE
  5
378
330
5
100
AcDbSymbolTableRecord
100
AcDbLinetypeTableRecord
  2
Wipeout_Contour
 70
     0
  3
- - - - - 
 72
    65
 73
     2
 40
1000.0
 49
0.0
 74
     0
 49
-1000.0
 74
     0
  0
ENDTAB
  0
TABLE
  2
LAYER
  5
2
330
0
100
AcDbSymbolTable
 70
     4
  0
LAYER
  5
10
330
2
100
AcDbSymbolTableRecord
100
AcDbLayerTableRecord
  2
0
 70
     0
 62
     7
  6
Continuous
370
    -3
390
F
  0
LAYER
  5
40
330
2
100
AcDbSymbolTableRecord
100
AcDbLayerTableRecord
  2
Doc_ Finishes
 70
     0
 62
     7
  6
Continuous
370
    -3
390
F
  0
LAYER
  5
DB
330
2
100
AcDbSymbolTableRecord
100
AcDbLayerTableRecord
  2
Doc_ Floor
 70
     0
 62
     7
  6
Continuous
370
    -3
390
F
  0
LAYER
  5
E7
330
2
100
AcDbSymbolTableRecord
100
AcDbLayerTableRecord
  2
Des_ Furniture
 70
     0
 62
     7
  6
Continuous
370
    -3
390
F
  0
ENDTAB
  0
TABLE
  2
STYLE
  5
3
330
0
100
AcDbSymbolTable
 70
     3
  0
STYLE
  5
11
330
3
100
AcDbSymbolTableRecord
100
AcDbTextStyleTableRecord
  2
Standard
 70
     0
 40
0.0
 41
1.0
 50
0.0
 71
     0
 42
0.2
  3
txt
  4

  0
STYLE
  5
D6
330
3
100
AcDbSymbolTableRecord
100
AcDbTextStyleTableRecord
  2
GENERATED_STYLE_1
 70
     0
 40
0.0
 41
1.0
 50
0.0
 71
     0
 42
0.2
  3

  4

1001
ACAD
1000
Century Gothic
1071
       34
  0
STYLE
  5
D9
330
3
100
AcDbSymbolTableRecord
100
AcDbTextStyleTableRecord
  2
GENERATED_STYLE_2
 70
     0
 40
0.0
 41
1.0
 50
0.0
 71
     0
 42
0.2
  3

  4

1001
ACAD
1000
DilleniaUPC
1071
 33554450
  0
ENDTAB
  0
TABLE
  2
VIEW
  5
6
330
0
100
AcDbSymbolTable
 70
     0
  0
ENDTAB
  0
TABLE
  2
UCS
  5
7
330
0
100
AcDbSymbolTable
 70
     0
  0
ENDTAB
  0
TABLE
  2
APPID
  5
9
330
0
100
AcDbSymbolTable
 70
     1
  0
APPID
  5
12
330
9
100
AcDbSymbolTableRecord
100
AcDbRegAppTableRecord
  2
ACAD
 70
     0
  0
ENDTAB
  0
TABLE
  2
DIMSTYLE
  5
A
330
0
100
AcDbSymbolTable
 70
     1
100
AcDbDimStyleTable
  0
DIMSTYLE
105
27
330
A
100
AcDbSymbolTableRecord
100
AcDbDimStyleTableRecord
  2
Standard
 70
     0
178
     0
340
11
  0
ENDTAB
  0
TABLE
  2
BLOCK_RECORD
  5
1
330
0
100
AcDbSymbolTable
 70
     3
  0
BLOCK_RECORD
  5
1F
330
1
100
AcDbSymbolTableRecord
100
AcDbBlockTableRecord
  2
*Model_Space
340
22
  0
BLOCK_RECORD
  5
1B
330
1
100
AcDbSymbolTableRecord
100
AcDbBlockTableRecord
  2
*Paper_Space
340
1E
  0
BLOCK_RECORD
  5
E3
330
1
100
AcDbSymbolTableRecord
100
AcDbBlockTableRecord
  2
Drawing_1_2
340
0
102
{BLKREFS
331
37A
102
}
  0
BLOCK_RECORD
  5
37E
330
1
100
AcDbSymbolTableRecord
100
AcDbBlockTableRecord
  2
C-TRS9-02 TYPICAL ROOF LAYOUT_STORY_MARKER
340
0
  0
ENDTAB
  0
ENDSEC
  0
SECTION
  2
BLOCKS
  0
BLOCK
  5
20
330
1F
100
AcDbEntity
  8
0
100
AcDbBlockBegin
  2
*Model_Space
 70
     0
 10
0.0
 20
0.0
 30
0.0
  3
*Model_Space
  1

  0
ENDBLK
  5
21
330
1F
100
AcDbEntity
  8
0
100
AcDbBlockEnd
  0
BLOCK
  5
1C
330
1B
100
AcDbEntity
 67
     1
  8
0
100
AcDbBlockBegin
  2
*Paper_Space
 70
     0
 10
0.0
 20
0.0
 30
0.0
  3
*Paper_Space
  1

  0
ENDBLK
  5
1D
330
1B
100
AcDbEntity
 67
     1
  8
0
100
AcDbBlockEnd
  0
BLOCK
  5
E4
330
E3
100
AcDbEntity
  8
0
100
AcDbBlockBegin
  2
Drawing_1_2
 70
     0
 10
149.8814017357194
 20
-776.1458097790336
 30
0.0
  3
Drawing_1_2
  1

  0
HATCH
  5
E6
330
E3
100
AcDbEntity
  8
Des_ Furniture
  6
Continuous
 62
   255
370
     0
100
AcDbHatch
 10
0.0
 20
0.0
 30
0.0
210
0.0
220
0.0
230
1.0
  2
SOLID
 70
     1
 71
     0
 91
        1
 92
        3
 72
     0
 73
     1
 93
      140
 10
51.48705351715013
 20
143.1511213061967
 10
51.40419256705376
 20
143.1395688669219
 10
51.32462624916035
 20
143.1135690557525
 10
51.2507528643906
 20
143.0742489346603
 10
51.18481045204651
 20
143.02292744113
 10
51.12882642203946
 20
142.9607121995591
 10
51.08449163836089
 20
142.889694569066
 10
51.05314696376954
 20
142.8121478404517
 10
51.03575006689713
 20
142.7303252221633
 10
51.03283259946398
 20
142.6466578705181
 10
51.62527562413408
 20
131.342171537096
 10
53.36700675940995
 20
128.6796778465099
 10
53.47167867189576
 20
126.6824187770005
 10
52.01779529595618
 20
123.8524500264369
 10
52.12246720844269
 20
121.8551909569278
 10
53.86419834371787
 20
119.1926972663413
 10
53.96887025620367
 20
117.1954381968323
 10
52.51498688026482
 20
114.3654694462686
 10
53.10742990493492
 20
103.0609831128465
 10
53.11907449774278
 20
102.9781269923127
 10
53.1449298271914
 20
102.8985531024528
 10
53.18421020282837
 20
102.8246776347125
 10
53.23572223487343
 20
102.7587452080684
 10
53.29790092660343
 20
102.7027592625653
 10
53.36885664206559
 20
102.658421234058
 10
53.44643332956575
 20
102.6270781295447
 10
53.52827392318585
 20
102.6096821747199
 10
53.61189334061348
 20
102.6067621951611
 10
67.63265200856787
 20
103.3415590208119
 10
67.715516118138
 20
103.3532040323081
 10
67.79507203266613
 20
103.3790584197092
 10
67.86895748670199
 20
103.4183393187053
 10
67.93489191060524
 20
103.4698514554229
 10
67.99087446076777
 20
103.5320299692106
 10
68.03522167666694
 20
103.6029861661631
 10
68.06656458145406
 20
103.6805628431964
 10
68.08394523727424
 20
103.7624026350293
 10
68.0868729262533
 20
103.8460224564908
 10
67.87543566303192
 20
107.8804857768993
 10
67.86378294211538
 20
107.963349482436
 10
67.83794385371898
 20
108.0429061987509
 10
67.79866315444899
 20
108.116791663254
 10
67.74714183033957
 20
108.1827256056662
 10
67.68496671189205
 20
108.238708333771
 10
67.61400851768023
 20
108.2830554449984
 10
67.53642185435191
 20
108.314397826426
 10
67.45460003785034
 20
108.3317794242937
 10
67.37097222735265
 20
108.3347066945848
 10
65.85305533452562
 20
108.2551560410955
 10
65.86561596402427
 20
108.0154849527545
 10
67.38353285685129
 20
108.0950356062438
 10
67.42534623874029
 20
108.0935819573934
 10
67.46625819371042
 20
108.0848711858688
 10
67.50505152537421
 20
108.0691999951551
 10
67.54051958946597
 20
108.0470458887728
 10
67.57162816799942
 20
108.0190355988488
 10
67.59736833410393
 20
107.9860775672188
 10
67.6170086837393
 20
107.9491348349674
 10
67.62994820052818
 20
107.9093575235287
 10
67.63576457469092
 20
107.8679251474011
 10
67.84720183791231
 20
103.8334618269925
 10
67.84574797971794
 20
103.7916524396213
 10
67.83703762688143
 20
103.7507324956152
 10
67.82136622682324
 20
103.7119431584692
 10
67.79921264380044
 20
103.6764651080826
 10
67.77120130715753
 20
103.6453765021396
 10
67.73824411290315
 20
103.6196203579628
 10
67.70130138065136
 20
103.5999800083275
 10
67.66152344118177
 20
103.5870524750929
 10
67.62009137906924
 20
103.5812301091532
 10
53.59933271111483
 20
102.8464332835021
 10
53.55752300972849
 20
102.8478931334735
 10
53.51660369375377
 20
102.8565915027559
 10
53.47781435660774
 20
102.8722629028135
 10
53.4423354688455
 20
102.8944324639092
 10
53.41124790962208
 20
102.9224238279614
 10
53.38549124208551
 20
102.9553910085113
 10
53.36585110179382
 20
102.9923297462449
 10
53.35292314987168
 20
103.0321156747511
 10
53.34710099327592
 20
103.0735437423448
 10
52.75804619841276
 20
114.3133787996866
 10
54.21192957435232
 20
117.1433475502507
 10
54.10048120225193
 20
119.2699091719198
 10
52.35875006697603
 20
121.932402862506
 10
52.26085775426248
 20
123.8002994620831
 10
53.71474113020133
 20
126.6302682126469
 10
53.60328647778637
 20
128.7569496698602
 10
51.8615553425112
 20
131.4194433604466
 10
51.2725036878057
 20
142.6592185000164
 10
51.2739675153097
 20
142.7009523055585
 10
51.28266630327946
 20
142.7418636324969
 10
51.29833330711666
 20
142.7807368545239
 10
51.32050653172915
 20
142.8161458382184
 10
51.34849684906276
 20
142.8472533700329
 10
51.38146382026865
 20
142.8730140320873
 10
51.41839627768736
 20
142.8927740079231
 10
51.45818367160022
 20
142.9056739982183
 10
51.49961414664806
 20
142.9114502178557
 10
65.52037281460247
 20
143.6462470435067
 10
65.56218410305351
 20
143.6448333398378
 10
65.60309396458496
 20
143.6361625134946
 10
65.64189357656406
 20
143.6203714872366
 10
65.6773626873748
 20
143.5981974082633
 10
65.70847126590823
 20
143.5701871183394
 10
65.73420829185511
 20
143.5372890044817
 10
65.75385282836638
 20
143.5002663818672
 10
65.76679234515527
 20
143.4604890704288
 10
65.7726045324421
 20
143.4191365846636
 10
65.98404179566349
 20
139.3846732642554
 10
65.98258395993614
 20
139.3429397727288
 10
65.9738731884116
 20
139.3020278177591
 10
65.95820618457442
 20
139.2631545957321
 10
65.93604893803447
 20
139.2277464494128
 10
65.90803864811053
 20
139.196637870879
 10
65.87508166319982
 20
139.1708777321842
 10
65.83814521126332
 20
139.1511175470047
 10
65.79836580638673
 20
139.1382179753972
 10
65.75693133682041
 20
139.1324415464158
 10
64.23901444399338
 20
139.0528908929266
 10
64.25157507349202
 20
138.8132198045856
 10
65.76949196631905
 20
138.8927704580748
 10
65.852360905451
 20
138.9043233160375
 10
65.93190924801296
 20
138.9303221851594
 10
66.00579261907787
 20
138.9696428296112
 10
66.07173702868157
 20
139.0209644278133
 10
66.12771766334807
 20
139.0831794914422
 10
66.1720616344181
 20
139.1541976034262
 10
66.2034061092837
 20
139.2317443215735
 10
66.22078770715139
 20
139.3135661380747
 10
66.22371288400448
 20
139.3972338937537
 10
66.0122756207831
 20
143.4316972141623
 10
66.0006208064286
 20
143.51460086488
 10
65.9747817180322
 20
143.5941575811952
 10
65.93550311220017
 20
143.6680031005168
 10
65.8839786479331
 20
143.7339969607013
 10
65.82180143604762
 20
143.7900196339875
 10
65.75085370902701
 20
143.8341670193078
 10
65.67326495226072
 20
143.8655493459165
 10
65.59143476200592
 20
143.8830907245098
 10
65.50781218510383
 20
143.8859181318477
 97
        0
 75
     0
 76
     1
 98
        0
  0
HATCH
  5
E8
330
E3
100
AcDbEntity
  8
Des_ Furniture
  6
Continuous
100
AcDbHatch
 10
0.0
 20
0.0
 30
0.0
210
0.0
220
0.0
230
1.0
  2
Steel_0002
 70
     0
 71
     0
 91
        1
 92
        3
 72
     0
 73
     1
 93
      140
 10
51.48705351715013
 20
143.1511213061967
 10
51.40419256705376
 20
143.1395688669219
 10
51.32462624916035
 20
143.1135690557525
 10
51.2507528643906
 20
143.0742489346603
 10
51.18481045204651
 20
143.02292744113
 10
51.12882642203946
 20
142.9607121995591
 10
51.08449163836089
 20
142.889694569066
 10
51.05314696376954
 20
142.8121478404517
 10
51.03575006689713
 20
142.7303252221633
 10
51.03283259946398
 20
142.6466578705181
 10
51.62527562413408
 20
131.342171537096
 10
53.36700675940995
 20
128.6796778465099
 10
53.47167867189576
 20
126.6824187770005
 10
52.01779529595618
 20
123.8524500264369
 10
52.12246720844269
 20
121.8551909569278
 10
53.86419834371787
 20
119.1926972663413
 10
53.96887025620367
 20
117.1954381968323
 10
52.51498688026482
 20
114.3654694462686
 10
53.10742990493492
 20
103.0609831128465
 10
53.11907449774278
 20
102.9781269923127
 10
53.1449298271914
 20
102.8985531024528
 10
53.18421020282837
 20
102.8246776347125
 10
53.23572223487343
 20
102.7587452080684
 10
53.29790092660343
 20
102.7027592625653
 10
53.36885664206559
 20
102.658421234058
 10
53.44643332956575
 20
102.6270781295447
 10
53.52827392318585
 20
102.6096821747199
 10
53.61189334061348
 20
102.6067621951611
 10
67.63265200856787
 20
103.3415590208119
 10
67.715516118138
 20
103.3532040323081
 10
67.79507203266613
 20
103.3790584197092
 10
67.86895748670199
 20
103.4183393187053
 10
67.93489191060524
 20
103.4698514554229
 10
67.99087446076777
 20
103.5320299692106
 10
68.03522167666694
 20
103.6029861661631
 10
68.06656458145406
 20
103.6805628431964
 10
68.08394523727424
 20
103.7624026350293
 10
68.0868729262533
 20
103.8460224564908
 10
67.87543566303192
 20
107.8804857768993
 10
67.86378294211538
 20
107.963349482436
 10
67.83794385371898
 20
108.0429061987509
 10
67.79866315444899
 20
108.116791663254
 10
67.74714183033957
 20
108.1827256056662
 10
67.68496671189205
 20
108.238708333771
 10
67.61400851768023
 20
108.2830554449984
 10
67.53642185435191
 20
108.314397826426
 10
67.45460003785034
 20
108.3317794242937
 10
67.37097222735265
 20
108.3347066945848
 10
65.85305533452562
 20
108.2551560410955
 10
65.86561596402427
 20
108.0154849527545
 10
67.38353285685129
 20
108.0950356062438
 10
67.42534623874029
 20
108.0935819573934
 10
67.46625819371042
 20
108.0848711858688
 10
67.50505152537421
 20
108.0691999951551
 10
67.54051958946597
 20
108.0470458887728
 10
67.57162816799942
 20
108.0190355988488
 10
67.59736833410393
 20
107.9860775672188
 10
67.6170086837393
 20
107.9491348349674
 10
67.62994820052818
 20
107.9093575235287
 10
67.63576457469092
 20
107.8679251474011
 10
67.84720183791231
 20
103.8334618269925
 10
67.84574797971794
 20
103.7916524396213
 10
67.83703762688143
 20
103.7507324956152
 10
67.82136622682324
 20
103.7119431584692
 10
67.79921264380044
 20
103.6764651080826
 10
67.77120130715753
 20
103.6453765021396
 10
67.73824411290315
 20
103.6196203579628
 10
67.70130138065136
 20
103.5999800083275
 10
67.66152344118177
 20
103.5870524750929
 10
67.62009137906924
 20
103.5812301091532
 10
53.59933271111483
 20
102.8464332835021
 10
53.55752300972849
 20
102.8478931334735
 10
53.51660369375377
 20
102.8565915027559
 10
53.47781435660774
 20
102.8722629028135
 10
53.4423354688455
 20
102.8944324639092
 10
53.41124790962208
 20
102.9224238279614
 10
53.38549124208551
 20
102.9553910085113
 10
53.36585110179382
 20
102.9923297462449
 10
53.35292314987168
 20
103.0321156747511
 10
53.34710099327592
 20
103.0735437423448
 10
52.75804619841276
 20
114.3133787996866
 10
54.21192957435232
 20
117.1433475502507
 10
54.10048120225193
 20
119.2699091719198
 10
52.35875006697603
 20
121.932402862506
 10
52.26085775426248
 20
123.8002994620831
 10
53.71474113020133
 20
126.6302682126469
 10
53.60328647778637
 20
128.7569496698602
 10
51.8615553425112
 20
131.4194433604466
 10
51.2725036878057
 20
142.6592185000164
 10
51.2739675153097
 20
142.7009523055585
 10
51.28266630327946
 20
142.7418636324969
 10
51.29833330711666
 20
142.7807368545239
 10
51.32050653172915
 20
142.8161458382184
 10
51.34849684906276
 20
142.8472533700329
 10
51.38146382026865
 20
142.8730140320873
 10
51.41839627768736
 20
142.8927740079231
 10
51.45818367160022
 20
142.9056739982183
 10
51.49961414664806
 20
142.9114502178557
 10
65.52037281460247
 20
143.6462470435067
 10
65.56218410305351
 20
143.6448333398378
 10
65.60309396458496
 20
143.6361625134946
 10
65.64189357656406
 20
143.6203714872366
 10
65.6773626873748
 20
143.5981974082633
 10
65.70847126590823
 20
143.5701871183394
 10
65.73420829185511
 20
143.5372890044817
 10
65.75385282836638
 20
143.5002663818672
 10
65.76679234515527
 20
143.4604890704288
 10
65.7726045324421
 20
143.4191365846636
 10
65.98404179566349
 20
139.3846732642554
 10
65.98258395993614
 20
139.3429397727288
 10
65.9738731884116
 20
139.3020278177591
 10
65.95820618457442
 20
139.2631545957321
 10
65.93604893803447
 20
139.2277464494128
 10
65.90803864811053
 20
139.196637870879
 10
65.87508166319982
 20
139.1708777321842
 10
65.83814521126332
 20
139.1511175470047
 10
65.79836580638673
 20
139.1382179753972
 10
65.75693133682041
 20
139.1324415464158
 10
64.23901444399338
 20
139.0528908929266
 10
64.25157507349202
 20
138.8132198045856
 10
65.76949196631905
 20
138.8927704580748
 10
65.852360905451
 20
138.9043233160375
 10
65.93190924801296
 20
138.9303221851594
 10
66.00579261907787
 20
138.9696428296112
 10
66.07173702868157
 20
139.0209644278133
 10
66.12771766334807
 20
139.0831794914422
 10
66.1720616344181
 20
139.1541976034262
 10
66.2034061092837
 20
139.2317443215735
 10
66.22078770715139
 20
139.3135661380747
 10
66.22371288400448
 20
139.3972338937537
 10
66.0122756207831
 20
143.4316972141623
 10
66.0006208064286
 20
143.51460086488
 10
65.9747817180322
 20
143.5941575811952
 10
65.93550311220017
 20
143.6680031005168
 10
65.8839786479331
 20
143.7339969607013
 10
65.82180143604762
 20
143.7900196339875
 10
65.75085370902701
 20
143.8341670193078
 10
65.67326495226072
 20
143.8655493459165
 10
65.59143476200592
 20
143.8830907245098
 10
65.50781218510383
 20
143.8859181318477
 97
        0
 75
     0
 76
     2
 52
0.0
 41
1.0
 77
     0
 78
     2
 53
44.99999999999999
 43
149.8814017357194
 44
-776.1458097790336
 45
-1.590990257669732
 46
1.590990257669732
 79
     0
 53
44.99999999999999
 43
149.3510716498295
 44
-775.6154796931437
 45
-1.590990257669732
 46
1.590990257669732
 79
     0
 98
        0
  0
HATCH
  5
E9
330
E3
100
AcDbEntity
  8
Des_ Furniture
  6
Continuous
 62
   255
370
     0
100
AcDbHatch
 10
0.0
 20
0.0
 30
0.0
210
0.0
220
0.0
230
1.0
  2
SOLID
 70
     1
 71
     0
 91
        1
 92
        3
 72
     0
 73
     1
 93
      140
 10
231.2403697729733
 20
152.5715934299271
 10
231.1575088228769
 20
152.560040990652
 10
231.0779425049835
 20
152.5340411794826
 10
231.0040691202137
 20
152.4947210583907
 10
230.9381267078696
 20
152.4433995648603
 10
230.8821426778626
 20
152.3811843232892
 10
230.837807894184
 20
152.3101666927961
 10
230.8064632195927
 20
152.2326199641817
 10
230.7890663227203
 20
152.1507973458937
 10
230.7861488552871
 20
152.0671299942481
 10
231.3785918799572
 20
140.7626436608265
 10
233.1203230152331
 20
138.10014997024
 10
233.2249949277189
 20
136.1028909007309
 10
231.7711115517793
 20
133.2729221501673
 10
231.8757834642658
 20
131.2756630806579
 10
233.617514599541
 20
128.6131693900717
 10
233.7221865120268
 20
126.6159103205623
 10
232.2683031360879
 20
123.7859415699987
 10
232.860746160758
 20
112.4814552365769
 10
232.8723907535659
 20
112.3985991160431
 10
232.8982460830145
 20
112.3190252261832
 10
232.9375264586515
 20
112.2451497584428
 10
232.9890384906965
 20
112.1792173317985
 10
233.0512171824265
 20
112.1232313862958
 10
233.1221728978887
 20
112.0788933577881
 10
233.1997495853889
 20
112.0475502532752
 10
233.281590179009
 20
112.0301542984503
 10
233.3652095964366
 20
112.0272343188912
 10
247.385968264391
 20
112.7620311445422
 10
247.4688323739611
 20
112.7736761560385
 10
247.5483882884893
 20
112.7995305434393
 10
247.6222737425251
 20
112.8388114424357
 10
247.6882081664284
 20
112.890323579153
 10
247.7441907165909
 20
112.9525020929411
 10
247.7885379324901
 20
113.0234582898936
 10
247.8198808372772
 20
113.1010349669267
 10
247.8372614930974
 20
113.1828747587598
 10
247.8401891820764
 20
113.2664945802212
 10
247.628751918855
 20
117.3009579006293
 10
247.6170991979385
 20
117.3838216061661
 10
247.5912601095421
 20
117.4633783224813
 10
247.5519794102721
 20
117.5372637869841
 10
247.5004580861627
 20
117.6031977293966
 10
247.4382829677152
 20
117.6591804575014
 10
247.3673247735034
 20
117.7035275687288
 10
247.2897381101751
 20
117.734869950156
 10
247.2079162936735
 20
117.7522515480237
 10
247.1242884831758
 20
117.7551788183152
 10
245.6063715903488
 20
117.6756281648259
 10
245.6189322198474
 20
117.4359570764846
 10
247.1368491126744
 20
117.5155077299742
 10
247.1786624945634
 20
117.5140540811238
 10
247.2195744495336
 20
117.5053433095993
 10
247.2583677811974
 20
117.4896721188855
 10
247.2938358452891
 20
117.4675180125028
 10
247.3249444238226
 20
117.4395077225788
 10
247.3506845899271
 20
117.4065496909492
 10
247.3703249395624
 20
117.3696069586974
 10
247.3832644563513
 20
117.3298296472591
 10
247.389080830514
 20
117.288397271131
 10
247.6005180937354
 20
113.2539339507229
 10
247.5990642355411
 20
113.2121245633516
 10
247.5903538827046
 20
113.1712046193456
 10
247.5746824826464
 20
113.1324152821992
 10
247.5525288996236
 20
113.0969372318127
 10
247.5245175629807
 20
113.0658486258699
 10
247.4915603687263
 20
113.0400924816929
 10
247.4546176364745
 20
113.0204521320578
 10
247.4148396970049
 20
113.0075245988234
 10
247.3734076348924
 20
113.0017022328832
 10
233.3526489669379
 20
112.2669054072325
 10
233.3108392655516
 20
112.2683652572035
 10
233.2699199495769
 20
112.277063626486
 10
233.2311306124309
 20
112.2927350265438
 10
233.1956517246686
 20
112.3149045876391
 10
233.1645641654452
 20
112.3428959516918
 10
233.1388074979086
 20
112.3758631322417
 10
233.1191673576169
 20
112.4128018699749
 10
233.1062394056948
 20
112.4525877984812
 10
233.100417249099
 20
112.4940158660752
 10
232.5113624542359
 20
123.733850923417
 10
233.9652458301754
 20
126.5638196739808
 10
233.8537974580751
 20
128.6903812956499
 10
232.1120663227992
 20
131.3528749862364
 10
232.0141740100856
 20
133.2207715858133
 10
233.4680573860245
 20
136.0507403363772
 10
233.3566027336095
 20
138.1774217935906
 10
231.6148715983343
 20
140.8399154841767
 10
231.0258199436288
 20
152.0796906237464
 10
231.0272837711328
 20
152.1214244292889
 10
231.0359825591026
 20
152.162335756227
 10
231.0516495629398
 20
152.2012089782542
 10
231.0738227875523
 20
152.2366179619489
 10
231.1018131048859
 20
152.267725493763
 10
231.1347800760918
 20
152.2934861558177
 10
231.1717125335105
 20
152.3132461316532
 10
231.2114999274233
 20
152.3261461219484
 10
231.2529304024712
 20
152.3319223415861
 10
245.2736890704256
 20
153.0667191672368
 10
245.3155003588766
 20
153.0653054635678
 10
245.3564102204081
 20
153.0566346372246
 10
245.3952098323872
 20
153.040843610967
 10
245.4306789431979
 20
153.0186695319937
 10
245.4617875217314
 20
152.9906592420698
 10
245.4875245476782
 20
152.9577611282118
 10
245.5071690841895
 20
152.9207385055976
 10
245.5201086009784
 20
152.8809611941589
 10
245.5259207882652
 20
152.8396087083941
 10
245.7373580514866
 20
148.8051453879855
 10
245.7359002157593
 20
148.7634118964589
 10
245.7271894442347
 20
148.7224999414891
 10
245.7115224403976
 20
148.6836267194622
 10
245.6893651938576
 20
148.6482185731429
 10
245.6613549039337
 20
148.6171099946094
 10
245.628397919023
 20
148.5913498559146
 10
245.5914614670865
 20
148.571589670735
 10
245.5516820622099
 20
148.5586900991276
 10
245.5102475926436
 20
148.5529136701462
 10
243.9923306998165
 20
148.4733630166569
 10
244.0048913293152
 20
148.2336919283159
 10
245.5228082221422
 20
148.3132425818052
 10
245.6056771612741
 20
148.3247954397676
 10
245.6852255038361
 20
148.3507943088899
 10
245.759108874901
 20
148.3901149533417
 10
245.8250532845047
 20
148.4414365515437
 10
245.8810339191712
 20
148.5036516151727
 10
245.9253778902412
 20
148.5746697271562
 10
245.9567223651069
 20
148.6522164453035
 10
245.9741039629745
 20
148.7340382618046
 10
245.9770291398276
 20
148.8177060174838
 10
245.7655918766062
 20
152.8521693378923
 10
245.7539370622517
 20
152.9350729886104
 10
245.7280979738553
 20
153.0146297049253
 10
245.6888193680233
 20
153.0884752242471
 10
245.6372949037562
 20
153.1544690844316
 10
245.5751176918708
 20
153.2104917577175
 10
245.5041699648501
 20
153.2546391430379
 10
245.4265812080839
 20
153.286021469647
 10
245.3447510178291
 20
153.3035628482402
 10
245.261128440927
 20
153.3063902555778
 97
        0
 75
     0
 76
     1
 98
        0
  0
HATCH
  5
EA
330
E3
100
AcDbEntity
  8
Des_ Furniture
  6
Continuous
100
AcDbHatch
 10
0.0
 20
0.0
 30
0.0
210
0.0
220
0.0
230
1.0
  2
Steel_0002
 70
     0
 71
     0
 91
        1
 92
        3
 72
     0
 73
     1
 93
      140
 10
231.2403697729733
 20
152.5715934299271
 10
231.1575088228769
 20
152.560040990652
 10
231.0779425049835
 20
152.5340411794826
 10
231.0040691202137
 20
152.4947210583907
 10
230.9381267078696
 20
152.4433995648603
 10
230.8821426778626
 20
152.3811843232892
 10
230.837807894184
 20
152.3101666927961
 10
230.8064632195927
 20
152.2326199641817
 10
230.7890663227203
 20
152.1507973458937
 10
230.7861488552871
 20
152.0671299942481
 10
231.3785918799572
 20
140.7626436608265
 10
233.1203230152331
 20
138.10014997024
 10
233.2249949277189
 20
136.1028909007309
 10
231.7711115517793
 20
133.2729221501673
 10
231.8757834642658
 20
131.2756630806579
 10
233.617514599541
 20
128.6131693900717
 10
233.7221865120268
 20
126.6159103205623
 10
232.2683031360879
 20
123.7859415699987
 10
232.860746160758
 20
112.4814552365769
 10
232.8723907535659
 20
112.3985991160431
 10
232.8982460830145
 20
112.3190252261832
 10
232.9375264586515
 20
112.2451497584428
 10
232.9890384906965
 20
112.1792173317985
 10
233.0512171824265
 20
112.1232313862958
 10
233.1221728978887
 20
112.0788933577881
 10
233.1997495853889
 20
112.0475502532752
 10
233.281590179009
 20
112.0301542984503
 10
233.3652095964366
 20
112.0272343188912
 10
247.385968264391
 20
112.7620311445422
 10
247.4688323739611
 20
112.7736761560385
 10
247.5483882884893
 20
112.7995305434393
 10
247.6222737425251
 20
112.8388114424357
 10
247.6882081664284
 20
112.890323579153
 10
247.7441907165909
 20
112.9525020929411
 10
247.7885379324901
 20
113.0234582898936
 10
247.8198808372772
 20
113.1010349669267
 10
247.8372614930974
 20
113.1828747587598
 10
247.8401891820764
 20
113.2664945802212
 10
247.628751918855
 20
117.3009579006293
 10
247.6170991979385
 20
117.3838216061661
 10
247.5912601095421
 20
117.4633783224813
 10
247.5519794102721
 20
117.5372637869841
 10
247.5004580861627
 20
117.6031977293966
 10
247.4382829677152
 20
117.6591804575014
 10
247.3673247735034
 20
117.7035275687288
 10
247.2897381101751
 20
117.734869950156
 10
247.2079162936735
 20
117.7522515480237
 10
247.1242884831758
 20
117.7551788183152
 10
245.6063715903488
 20
117.6756281648259
 10
245.6189322198474
 20
117.4359570764846
 10
247.1368491126744
 20
117.5155077299742
 10
247.1786624945634
 20
117.5140540811238
 10
247.2195744495336
 20
117.5053433095993
 10
247.2583677811974
 20
117.4896721188855
 10
247.2938358452891
 20
117.4675180125028
 10
247.3249444238226
 20
117.4395077225788
 10
247.3506845899271
 20
117.4065496909492
 10
247.3703249395624
 20
117.3696069586974
 10
247.3832644563513
 20
117.3298296472591
 10
247.389080830514
 20
117.288397271131
 10
247.6005180937354
 20
113.2539339507229
 10
247.5990642355411
 20
113.2121245633516
 10
247.5903538827046
 20
113.1712046193456
 10
247.5746824826464
 20
113.1324152821992
 10
247.5525288996236
 20
113.0969372318127
 10
247.5245175629807
 20
113.0658486258699
 10
247.4915603687263
 20
113.0400924816929
 10
247.4546176364745
 20
113.0204521320578
 10
247.4148396970049
 20
113.0075245988234
 10
247.3734076348924
 20
113.0017022328832
 10
233.3526489669379
 20
112.2669054072325
 10
233.3108392655516
 20
112.2683652572035
 10
233.2699199495769
 20
112.277063626486
 10
233.2311306124309
 20
112.2927350265438
 10
233.1956517246686
 20
112.3149045876391
 10
233.1645641654452
 20
112.3428959516918
 10
233.1388074979086
 20
112.3758631322417
 10
233.1191673576169
 20
112.4128018699749
 10
233.1062394056948
 20
112.4525877984812
 10
233.100417249099
 20
112.4940158660752
 10
232.5113624542359
 20
123.733850923417
 10
233.9652458301754
 20
126.5638196739808
 10
233.8537974580751
 20
128.6903812956499
 10
232.1120663227992
 20
131.3528749862364
 10
232.0141740100856
 20
133.2207715858133
 10
233.4680573860245
 20
136.0507403363772
 10
233.3566027336095
 20
138.1774217935906
 10
231.6148715983343
 20
140.8399154841767
 10
231.0258199436288
 20
152.0796906237464
 10
231.0272837711328
 20
152.1214244292889
 10
231.0359825591026
 20
152.162335756227
 10
231.0516495629398
 20
152.2012089782542
 10
231.0738227875523
 20
152.2366179619489
 10
231.1018131048859
 20
152.267725493763
 10
231.1347800760918
 20
152.2934861558177
 10
231.1717125335105
 20
152.3132461316532
 10
231.2114999274233
 20
152.3261461219484
 10
231.2529304024712
 20
152.3319223415861
 10
245.2736890704256
 20
153.0667191672368
 10
245.3155003588766
 20
153.0653054635678
 10
245.3564102204081
 20
153.0566346372246
 10
245.3952098323872
 20
153.040843610967
 10
245.4306789431979
 20
153.0186695319937
 10
245.4617875217314
 20
152.9906592420698
 10
245.4875245476782
 20
152.9577611282118
 10
245.5071690841895
 20
152.9207385055976
 10
245.5201086009784
 20
152.8809611941589
 10
245.5259207882652
 20
152.8396087083941
 10
245.7373580514866
 20
148.8051453879855
 10
245.7359002157593
 20
148.7634118964589
 10
245.7271894442347
 20
148.7224999414891
 10
245.7115224403976
 20
148.6836267194622
 10
245.6893651938576
 20
148.6482185731429
 10
245.6613549039337
 20
148.6171099946094
 10
245.628397919023
 20
148.5913498559146
 10
245.5914614670865
 20
148.571589670735
 10
245.5516820622099
 20
148.5586900991276
 10
245.5102475926436
 20
148.5529136701462
 10
243.9923306998165
 20
148.4733630166569
 10
244.0048913293152
 20
148.2336919283159
 10
245.5228082221422
 20
148.3132425818052
 10
245.6056771612741
 20
148.3247954397676
 10
245.6852255038361
 20
148.3507943088899
 10
245.759108874901
 20
148.3901149533417
 10
245.8250532845047
 20
148.4414365515437
 10
245.8810339191712
 20
148.5036516151727
 10
245.9253778902412
 20
148.5746697271562
 10
245.9567223651069
 20
148.6522164453035
 10
245.9741039629745
 20
148.7340382618046
 10
245.9770291398276
 20
148.8177060174838
 10
245.7655918766062
 20
152.8521693378923
 10
245.7539370622517
 20
152.9350729886104
 10
245.7280979738553
 20
153.0146297049253
 10
245.6888193680233
 20
153.0884752242471
 10
245.6372949037562
 20
153.1544690844316
 10
245.5751176918708
 20
153.2104917577175
 10
245.5041699648501
 20
153.2546391430379
 10
245.4265812080839
 20
153.286021469647
 10
245.3447510178291
 20
153.3035628482402
 10
245.261128440927
 20
153.3063902555778
 97
        0
 75
     0
 76
     2
 52
0.0
 41
1.0
 77
     0
 78
     2
 53
44.99999999999999
 43
149.8814017357194
 44
-776.1458097790336
 45
-1.590990257669732
 46
1.590990257669732
 79
     0
 53
44.99999999999999
 43
149.3510716498295
 44
-775.6154796931437
 45
-1.590990257669732
 46
1.590990257669732
 79
     0
 98
        0
  0
LINE
  5
EB
330
E3
100
AcDbEntity
  8
Des_ Furniture
  6
Continuous
100
AcDbLine
 10
51.62527627134904
 20
131.3421702891164
 30
0.0
 11
53.36700338444105
 21
128.6796782975348
 31
0.0
  0
LINE
  5
EC
330
E3
100
AcDbEntity
  8
Des_ Furniture
  6
Continuous
100
AcDbLine
 10
52.01779508389031
 20
123.8524513743557
 30
0.0
 11
52.12246728417269
 21
121.8551927386171
 31
0.0
  0
LINE
  5
ED
330
E3
100
AcDbEntity
  8
Des_ Furniture
  6
Continuous
100
AcDbLine
 10
52.26086193789814
 20
123.8003013719111
 30
0.0
 11
52.35875320335965
 21
121.9324038975409
 31
0.0
  0
LINE
  5
EE
330
E3
100
AcDbEntity
  8
Des_ Furniture
  6
Continuous
100
AcDbLine
 10
53.47167558472344
 20
126.6824157847609
 30
0.0
 11
52.01779508389031
 21
123.8524513743557
 31
0.0
  0
LINE
  5
EF
330
E3
100
AcDbEntity
  8
Des_ Furniture
  6
Continuous
100
AcDbLine
 10
53.36700338444105
 20
128.6796782975348
 30
0.0
 11
53.47167558472344
 21
126.6824157847609
 31
0.0
  0
LINE
  5
F0
330
E3
100
AcDbEntity
  8
Des_ Furniture
  6
Continuous
100
AcDbLine
 10
51.86155443646532
 20
131.4194434806057
 30
0.0
 11
53.60328542659267
 21
128.7569476119887
 31
0.0
  0
LINE
  5
F1
330
E3
100
AcDbEntity
  8
Des_ Furniture
  6
Continuous
100
AcDbLine
 10
53.71473856169593
 20
126.6302696593517
 30
0.0
 11
52.26086193789814
 21
123.8003013719111
 31
0.0
  0
LINE
  5
F2
330
E3
100
AcDbEntity
  8
Des_ Furniture
  6
Continuous
100
AcDbLine
 10
53.60328542659267
 20
128.7569476119887
 30
0.0
 11
53.71473856169593
 21
126.6302696593517
 31
0.0
  0
LINE
  5
F3
330
E3
100
AcDbEntity
  8
Des_ Furniture
  6
Continuous
100
AcDbLine
 10
52.12246728417269
 20
121.8551927386171
 30
0.0
 11
53.8641943972647
 21
119.1927007470355
 31
0.0
  0
LINE
  5
F4
330
E3
100
AcDbEntity
  8
Des_ Furniture
  6
Continuous
100
AcDbLine
 10
53.96887435161778
 20
117.1954382342616
 30
0.0
 11
52.51498609671394
 21
114.365469946821
 31
0.0
  0
LINE
  5
F5
330
E3
100
AcDbEntity
  8
Des_ Furniture
  6
Continuous
100
AcDbLine
 10
53.8641943972647
 20
119.1927007470355
 30
0.0
 11
53.96887435161778
 21
117.1954382342616
 31
0.0
  0
LINE
  5
F6
330
E3
100
AcDbEntity
  8
Des_ Furniture
  6
Continuous
100
AcDbLine
 10
52.35875320335965
 20
121.9324038975409
 30
0.0
 11
54.10048031645167
 21
119.2699080289239
 31
0.0
  0
LINE
  5
F7
330
E3
100
AcDbEntity
  8
Des_ Furniture
  6
Continuous
100
AcDbLine
 10
54.21192957451957
 20
117.1433463873472
 30
0.0
 11
52.7580451966511
 21
114.3133780999067
 31
0.0
  0
LINE
  5
F8
330
E3
100
AcDbEntity
  8
Des_ Furniture
  6
Continuous
100
AcDbLine
 10
54.10048031645167
 20
119.2699080289239
 30
0.0
 11
54.21192957451957
 21
117.1433463873472
 31
0.0
  0
LINE
  5
F9
330
E3
100
AcDbEntity
  8
Des_ Furniture
  6
Continuous
100
AcDbLine
 10
64.23901304209195
 20
139.0528918497286
 30
0.0
 11
64.25157463661432
 21
138.8132212786843
 31
0.0
  0
LINE
  5
FA
330
E3
100
AcDbEntity
  8
Des_ Furniture
  6
Continuous
100
AcDbLine
 10
65.85305775012063
 20
108.2551536838889
 30
0.0
 11
65.86561546760767
 21
108.0154869898798
 31
0.0
  0
LINE
  5
FB
330
E3
100
AcDbEntity
  8
Des_ Furniture
  6
Continuous
100
AcDbLine
 10
231.3785922581729
 20
140.7626450523188
 30
0.0
 11
233.1203193712649
 21
138.1001491837018
 31
0.0
  0
LINE
  5
FC
330
E3
100
AcDbEntity
  8
Des_ Furniture
  6
Continuous
100
AcDbLine
 10
231.7711110707141
 20
133.2729222605227
 30
0.0
 11
231.8757832709965
 21
131.2756597477488
 31
0.0
  0
LINE
  5
FD
330
E3
100
AcDbEntity
  8
Des_ Furniture
  6
Continuous
100
AcDbLine
 10
232.014177924722
 20
133.2207683810428
 30
0.0
 11
232.1120691901835
 21
131.3528747837079
 31
0.0
  0
LINE
  5
FE
330
E3
100
AcDbEntity
  8
Des_ Furniture
  6
Continuous
100
AcDbLine
 10
233.2249915715472
 20
136.1028905479632
 30
0.0
 11
231.7711110707141
 21
133.2729222605227
 31
0.0
  0
LINE
  5
FF
330
E3
100
AcDbEntity
  8
Des_ Furniture
  6
Continuous
100
AcDbLine
 10
233.1203193712649
 20
138.1001491837018
 30
0.0
 11
233.2249915715472
 21
136.1028905479632
 31
0.0
  0
LINE
  5
100
330
E3
100
AcDbEntity
  8
Des_ Furniture
  6
Continuous
100
AcDbLine
 10
231.6148704232891
 20
140.8399143667728
 30
0.0
 11
233.3566014134165
 21
138.1774223751911
 31
0.0
  0
LINE
  5
101
330
E3
100
AcDbEntity
  8
Des_ Furniture
  6
Continuous
100
AcDbLine
 10
233.4680545485198
 20
136.0507405455187
 30
0.0
 11
232.014177924722
 21
133.2207683810428
 31
0.0
  0
LINE
  5
102
330
E3
100
AcDbEntity
  8
Des_ Furniture
  6
Continuous
100
AcDbLine
 10
233.3566014134165
 20
138.1774223751911
 30
0.0
 11
233.4680545485198
 21
136.0507405455187
 31
0.0
  0
LINE
  5
103
330
E3
100
AcDbEntity
  8
Des_ Furniture
  6
Continuous
100
AcDbLine
 10
231.8757832709965
 20
131.2756597477488
 30
0.0
 11
233.6175181381592
 21
128.6131716332025
 31
0.0
  0
LINE
  5
104
330
E3
100
AcDbEntity
  8
Des_ Furniture
  6
Continuous
100
AcDbLine
 10
233.7221903384416
 20
126.6159091204286
 30
0.0
 11
232.2683020835378
 21
123.785940832988
 31
0.0
  0
LINE
  5
105
330
E3
100
AcDbEntity
  8
Des_ Furniture
  6
Continuous
100
AcDbLine
 10
233.6175181381592
 20
128.6131716332025
 30
0.0
 11
233.7221903384416
 21
126.6159091204286
 31
0.0
  0
LINE
  5
106
330
E3
100
AcDbEntity
  8
Des_ Furniture
  6
Continuous
100
AcDbLine
 10
232.1120691901835
 20
131.3528747837079
 30
0.0
 11
233.8537963032755
 21
128.6903827921263
 31
0.0
  0
LINE
  5
107
330
E3
100
AcDbEntity
  8
Des_ Furniture
  6
Continuous
100
AcDbLine
 10
233.9652455613434
 20
126.5638172735142
 30
0.0
 11
232.5113611834749
 21
123.7338489860737
 31
0.0
  0
LINE
  5
108
330
E3
100
AcDbEntity
  8
Des_ Furniture
  6
Continuous
100
AcDbLine
 10
233.8537963032755
 20
128.6903827921263
 30
0.0
 11
233.9652455613434
 21
126.5638172735142
 31
0.0
  0
LINE
  5
109
330
E3
100
AcDbEntity
  8
Des_ Furniture
  6
Continuous
100
AcDbLine
 10
243.9923329059511
 20
148.4733627358956
 30
0.0
 11
244.0048906234381
 21
148.2336921648513
 31
0.0
  0
LINE
  5
10A
330
E3
100
AcDbEntity
  8
Des_ Furniture
  6
Continuous
100
AcDbLine
 10
245.6063737369444
 20
117.6756284470912
 30
0.0
 11
245.6189314544315
 21
117.4359578760468
 31
0.0
  0
LINE
  5
10B
330
E3
100
AcDbEntity
  8
Des_ Furniture
  6
Continuous
 62
   251
370
    18
100
AcDbLine
 10
18.49613414444898
 20
48.10498122172108
 30
0.0
 11
278.6793242777146
 21
61.74060626392945
 31
0.0
  0
LINE
  5
10C
330
E3
100
AcDbEntity
  8
Des_ Furniture
  6
Continuous
 62
   251
370
    18
100
AcDbLine
 10
18.49613050045031
 20
98.57415644368261
 30
0.0
 11
278.6793249597321
 21
112.2097754305858
 31
0.0
  0
LINE
  5
10D
330
E3
100
AcDbEntity
  8
Des_ Furniture
  6
Continuous
 62
   251
370
    18
100
AcDbLine
 10
18.49613406537021
 20
96.85178245914216
 30
0.0
 11
278.6793258113276
 21
110.4874013038461
 31
0.0
  0
LINE
  5
10E
330
E3
100
AcDbEntity
  8
Des_ Furniture
  6
Continuous
 62
   251
370
    18
100
AcDbLine
 10
18.49613350712005
 20
49.82732322210478
 30
0.0
 11
278.6793245379603
 21
63.46294831135305
 31
0.0
  0
LWPOLYLINE
  5
10F
330
E3
100
AcDbEntity
  8
Des_ Furniture
  6
Continuous
100
AcDbPolyline
 90
       32
 70
   128
 43
0.0
 10
64.25157507349202
 20
138.8132198045856
 10
65.76949196631905
 20
138.8927704580748
 10
65.852360905451
 20
138.9043233160375
 10
65.93190924801296
 20
138.9303221851594
 10
66.00579261907787
 20
138.9696428296112
 10
66.07173702868157
 20
139.0209644278133
 10
66.12771766334807
 20
139.0831794914422
 10
66.1720616344181
 20
139.1541976034262
 10
66.2034061092837
 20
139.2317443215735
 10
66.22078770715139
 20
139.3135661380747
 10
66.22371288400448
 20
139.3972338937537
 10
66.0122756207831
 20
143.4316972141623
 10
66.0006208064286
 20
143.51460086488
 10
65.9747817180322
 20
143.5941575811952
 10
65.93550311220017
 20
143.6680031005168
 10
65.8839786479331
 20
143.7339969607013
 10
65.82180143604762
 20
143.7900196339875
 10
65.75085370902701
 20
143.8341670193078
 10
65.67326495226072
 20
143.8655493459165
 10
65.59143476200592
 20
143.8830907245098
 10
65.50781218510383
 20
143.8859181318477
 10
51.48705351715013
 20
143.1511213061967
 10
51.40419256705376
 20
143.1395688669219
 10
51.32462624916035
 20
143.1135690557525
 10
51.2507528643906
 20
143.0742489346603
 10
51.18481045204651
 20
143.02292744113
 10
51.12882642203946
 20
142.9607121995591
 10
51.08449163836089
 20
142.889694569066
 10
51.05314696376954
 20
142.8121478404517
 10
51.03575006689713
 20
142.7303252221633
 10
51.03283259946398
 20
142.6466578705181
 10
51.62527562413408
 20
131.342171537096
  0
LWPOLYLINE
  5
110
330
E3
100
AcDbEntity
  8
Des_ Furniture
  6
Continuous
100
AcDbPolyline
 90
       32
 70
   128
 43
0.0
 10
64.23901444399338
 20
139.0528908929266
 10
65.75693133682041
 20
139.1324415464158
 10
65.79836580638673
 20
139.1382179753972
 10
65.83814521126332
 20
139.1511175470047
 10
65.87508166319982
 20
139.1708777321842
 10
65.90803864811053
 20
139.196637870879
 10
65.93604893803447
 20
139.2277464494128
 10
65.95820618457442
 20
139.2631545957321
 10
65.9738731884116
 20
139.3020278177591
 10
65.98258395993614
 20
139.3429397727288
 10
65.98404179566349
 20
139.3846732642554
 10
65.7726045324421
 20
143.4191365846636
 10
65.76679234515527
 20
143.4604890704288
 10
65.75385282836638
 20
143.5002663818672
 10
65.73420829185511
 20
143.5372890044817
 10
65.70847126590823
 20
143.5701871183394
 10
65.6773626873748
 20
143.5981974082633
 10
65.64189357656406
 20
143.6203714872366
 10
65.60309396458496
 20
143.6361625134946
 10
65.56218410305351
 20
143.6448333398378
 10
65.52037281460247
 20
143.6462470435067
 10
51.49961414664806
 20
142.9114502178557
 10
51.45818367160022
 20
142.9056739982183
 10
51.41839627768736
 20
142.8927740079231
 10
51.38146382026865
 20
142.8730140320873
 10
51.34849684906276
 20
142.8472533700329
 10
51.32050653172915
 20
142.8161458382184
 10
51.29833330711666
 20
142.7807368545239
 10
51.28266630327946
 20
142.7418636324969
 10
51.2739675153097
 20
142.7009523055585
 10
51.2725036878057
 20
142.6592185000164
 10
51.8615553425112
 20
131.4194433604466
  0
LWPOLYLINE
  5
111
330
E3
100
AcDbEntity
  8
Des_ Furniture
  6
Continuous
100
AcDbPolyline
 90
       32
 70
   128
 43
0.0
 10
52.51498688026482
 20
114.3654694462686
 10
53.10742990493492
 20
103.0609831128465
 10
53.11907449774278
 20
102.9781269923127
 10
53.1449298271914
 20
102.8985531024528
 10
53.18421020282837
 20
102.8246776347125
 10
53.23572223487343
 20
102.7587452080684
 10
53.29790092660343
 20
102.7027592625653
 10
53.36885664206559
 20
102.658421234058
 10
53.44643332956575
 20
102.6270781295447
 10
53.52827392318585
 20
102.6096821747199
 10
53.61189334061348
 20
102.6067621951611
 10
67.63265200856787
 20
103.3415590208119
 10
67.715516118138
 20
103.3532040323081
 10
67.79507203266613
 20
103.3790584197092
 10
67.86895748670199
 20
103.4183393187053
 10
67.93489191060524
 20
103.4698514554229
 10
67.99087446076777
 20
103.5320299692106
 10
68.03522167666694
 20
103.6029861661631
 10
68.06656458145406
 20
103.6805628431964
 10
68.08394523727424
 20
103.7624026350293
 10
68.0868729262533
 20
103.8460224564908
 10
67.87543566303192
 20
107.8804857768993
 10
67.86378294211538
 20
107.963349482436
 10
67.83794385371898
 20
108.0429061987509
 10
67.79866315444899
 20
108.116791663254
 10
67.74714183033957
 20
108.1827256056662
 10
67.68496671189205
 20
108.238708333771
 10
67.61400851768023
 20
108.2830554449984
 10
67.53642185435191
 20
108.314397826426
 10
67.45460003785034
 20
108.3317794242937
 10
67.37097222735265
 20
108.3347066945848
 10
65.85305533452562
 20
108.2551560410955
  0
LWPOLYLINE
  5
112
330
E3
100
AcDbEntity
  8
Des_ Furniture
  6
Continuous
100
AcDbPolyline
 90
       32
 70
   128
 43
0.0
 10
52.75804619841276
 20
114.3133787996866
 10
53.34710099327592
 20
103.0735437423448
 10
53.35292314987168
 20
103.0321156747511
 10
53.36585110179382
 20
102.9923297462449
 10
53.38549124208551
 20
102.9553910085113
 10
53.41124790962208
 20
102.9224238279614
 10
53.4423354688455
 20
102.8944324639092
 10
53.47781435660774
 20
102.8722629028135
 10
53.51660369375377
 20
102.8565915027559
 10
53.55752300972849
 20
102.8478931334735
 10
53.59933271111483
 20
102.8464332835021
 10
67.62009137906924
 20
103.5812301091532
 10
67.66152344118177
 20
103.5870524750929
 10
67.70130138065136
 20
103.5999800083275
 10
67.73824411290315
 20
103.6196203579628
 10
67.77120130715753
 20
103.6453765021396
 10
67.79921264380044
 20
103.6764651080826
 10
67.82136622682324
 20
103.7119431584692
 10
67.83703762688143
 20
103.7507324956152
 10
67.84574797971794
 20
103.7916524396213
 10
67.84720183791231
 20
103.8334618269925
 10
67.63576457469092
 20
107.8679251474011
 10
67.62994820052818
 20
107.9093575235287
 10
67.6170086837393
 20
107.9491348349674
 10
67.59736833410393
 20
107.9860775672188
 10
67.57162816799942
 20
108.0190355988488
 10
67.54051958946597
 20
108.0470458887728
 10
67.50505152537421
 20
108.0691999951551
 10
67.46625819371042
 20
108.0848711858688
 10
67.42534623874029
 20
108.0935819573934
 10
67.38353285685129
 20
108.0950356062438
 10
65.86561596402427
 20
108.0154849527545
  0
LWPOLYLINE
  5
113
330
E3
100
AcDbEntity
  8
Des_ Furniture
  6
Continuous
100
AcDbPolyline
 90
       32
 70
   128
 43
0.0
 10
244.0048913293152
 20
148.2336919283159
 10
245.5228082221422
 20
148.3132425818052
 10
245.6056771612741
 20
148.3247954397676
 10
245.6852255038361
 20
148.3507943088899
 10
245.759108874901
 20
148.3901149533417
 10
245.8250532845047
 20
148.4414365515437
 10
245.8810339191712
 20
148.5036516151727
 10
245.9253778902412
 20
148.5746697271562
 10
245.9567223651069
 20
148.6522164453035
 10
245.9741039629745
 20
148.7340382618046
 10
245.9770291398276
 20
148.8177060174838
 10
245.7655918766062
 20
152.8521693378923
 10
245.7539370622517
 20
152.9350729886104
 10
245.7280979738553
 20
153.0146297049253
 10
245.6888193680233
 20
153.0884752242471
 10
245.6372949037562
 20
153.1544690844316
 10
245.5751176918708
 20
153.2104917577175
 10
245.5041699648501
 20
153.2546391430379
 10
245.4265812080839
 20
153.286021469647
 10
245.3447510178291
 20
153.3035628482402
 10
245.261128440927
 20
153.3063902555778
 10
231.2403697729733
 20
152.5715934299271
 10
231.1575088228769
 20
152.560040990652
 10
231.0779425049835
 20
152.5340411794826
 10
231.0040691202137
 20
152.4947210583907
 10
230.9381267078696
 20
152.4433995648603
 10
230.8821426778626
 20
152.3811843232892
 10
230.837807894184
 20
152.3101666927961
 10
230.8064632195927
 20
152.2326199641817
 10
230.7890663227203
 20
152.1507973458937
 10
230.7861488552871
 20
152.0671299942481
 10
231.3785918799572
 20
140.7626436608265
  0
LWPOLYLINE
  5
114
330
E3
100
AcDbEntity
  8
Des_ Furniture
  6
Continuous
100
AcDbPolyline
 90
       32
 70
   128
 43
0.0
 10
243.9923306998165
 20
148.4733630166569
 10
245.5102475926436
 20
148.5529136701462
 10
245.5516820622099
 20
148.5586900991276
 10
245.5914614670865
 20
148.571589670735
 10
245.628397919023
 20
148.5913498559146
 10
245.6613549039337
 20
148.6171099946094
 10
245.6893651938576
 20
148.6482185731429
 10
245.7115224403976
 20
148.6836267194622
 10
245.7271894442347
 20
148.7224999414891
 10
245.7359002157593
 20
148.7634118964589
 10
245.7373580514866
 20
148.8051453879855
 10
245.5259207882652
 20
152.8396087083941
 10
245.5201086009784
 20
152.8809611941589
 10
245.5071690841895
 20
152.9207385055976
 10
245.4875245476782
 20
152.9577611282118
 10
245.4617875217314
 20
152.9906592420698
 10
245.4306789431979
 20
153.0186695319937
 10
245.3952098323872
 20
153.040843610967
 10
245.3564102204081
 20
153.0566346372246
 10
245.3155003588766
 20
153.0653054635678
 10
245.2736890704256
 20
153.0667191672368
 10
231.2529304024712
 20
152.3319223415861
 10
231.2114999274233
 20
152.3261461219484
 10
231.1717125335105
 20
152.3132461316532
 10
231.1347800760918
 20
152.2934861558177
 10
231.1018131048859
 20
152.267725493763
 10
231.0738227875523
 20
152.2366179619489
 10
231.0516495629398
 20
152.2012089782542
 10
231.0359825591026
 20
152.162335756227
 10
231.0272837711328
 20
152.1214244292889
 10
231.0258199436288
 20
152.0796906237464
 10
231.6148715983343
 20
140.8399154841767
  0
LWPOLYLINE
  5
115
330
E3
100
AcDbEntity
  8
Des_ Furniture
  6
Continuous
100
AcDbPolyline
 90
       32
 70
   128
 43
0.0
 10
232.2683031360879
 20
123.7859415699987
 10
232.860746160758
 20
112.4814552365769
 10
232.8723907535659
 20
112.3985991160431
 10
232.8982460830145
 20
112.3190252261832
 10
232.9375264586515
 20
112.2451497584428
 10
232.9890384906965
 20
112.1792173317985
 10
233.0512171824265
 20
112.1232313862958
 10
233.1221728978887
 20
112.0788933577881
 10
233.1997495853889
 20
112.0475502532752
 10
233.281590179009
 20
112.0301542984503
 10
233.3652095964366
 20
112.0272343188912
 10
247.385968264391
 20
112.7620311445422
 10
247.4688323739611
 20
112.7736761560385
 10
247.5483882884893
 20
112.7995305434393
 10
247.6222737425251
 20
112.8388114424357
 10
247.6882081664284
 20
112.890323579153
 10
247.7441907165909
 20
112.9525020929411
 10
247.7885379324901
 20
113.0234582898936
 10
247.8198808372772
 20
113.1010349669267
 10
247.8372614930974
 20
113.1828747587598
 10
247.8401891820764
 20
113.2664945802212
 10
247.628751918855
 20
117.3009579006293
 10
247.6170991979385
 20
117.3838216061661
 10
247.5912601095421
 20
117.4633783224813
 10
247.5519794102721
 20
117.5372637869841
 10
247.5004580861627
 20
117.6031977293966
 10
247.4382829677152
 20
117.6591804575014
 10
247.3673247735034
 20
117.7035275687288
 10
247.2897381101751
 20
117.734869950156
 10
247.2079162936735
 20
117.7522515480237
 10
247.1242884831758
 20
117.7551788183152
 10
245.6063715903488
 20
117.6756281648259
  0
LWPOLYLINE
  5
116
330
E3
100
AcDbEntity
  8
Des_ Furniture
  6
Continuous
100
AcDbPolyline
 90
       32
 70
   128
 43
0.0
 10
232.5113624542359
 20
123.733850923417
 10
233.100417249099
 20
112.4940158660752
 10
233.1062394056948
 20
112.4525877984812
 10
233.1191673576169
 20
112.4128018699749
 10
233.1388074979086
 20
112.3758631322417
 10
233.1645641654452
 20
112.3428959516918
 10
233.1956517246686
 20
112.3149045876391
 10
233.2311306124309
 20
112.2927350265438
 10
233.2699199495769
 20
112.277063626486
 10
233.3108392655516
 20
112.2683652572035
 10
233.3526489669379
 20
112.2669054072325
 10
247.3734076348924
 20
113.0017022328832
 10
247.4148396970049
 20
113.0075245988234
 10
247.4546176364745
 20
113.0204521320578
 10
247.4915603687263
 20
113.0400924816929
 10
247.5245175629807
 20
113.0658486258699
 10
247.5525288996236
 20
113.0969372318127
 10
247.5746824826464
 20
113.1324152821992
 10
247.5903538827046
 20
113.1712046193456
 10
247.5990642355411
 20
113.2121245633516
 10
247.6005180937354
 20
113.2539339507229
 10
247.389080830514
 20
117.288397271131
 10
247.3832644563513
 20
117.3298296472591
 10
247.3703249395624
 20
117.3696069586974
 10
247.3506845899271
 20
117.4065496909492
 10
247.3249444238226
 20
117.4395077225788
 10
247.2938358452891
 20
117.4675180125028
 10
247.2583677811974
 20
117.4896721188855
 10
247.2195744495336
 20
117.5053433095993
 10
247.1786624945634
 20
117.5140540811238
 10
247.1368491126744
 20
117.5155077299742
 10
245.6189322198474
 20
117.4359570764846
  0
LINE
  5
118
330
E3
100
AcDbEntity
  8
Des_ Furniture
  6
Double Dashed
 62
   251
370
    18
100
AcDbLine
 10
18.49613050045022
 20
142.5796899122619
 30
0.0
 11
278.679324959732
 21
156.2153088991651
 31
0.0
  0
LINE
  5
11A
330
E3
100
AcDbEntity
  8
Des_ Furniture
  6
Hidden Line
100
AcDbLine
 10
18.49613050045022
 20
143.7841671394497
 30
0.0
 11
278.679324959732
 21
157.4197861263529
 31
0.0
  0
LINE
  5
11B
330
E3
100
AcDbEntity
  8
Des_ Furniture
  6
Continuous
 62
   251
370
    18
100
AcDbLine
 10
18.49613050045022
 20
145.1607152342453
 30
0.0
 11
278.679324959732
 21
158.7963405031706
 31
0.0
  0
LINE
  5
11C
330
E3
100
AcDbEntity
  8
Des_ Furniture
  6
Continuous
 62
   251
370
    18
100
AcDbLine
 10
18.49613050045021
 20
153.1607196224614
 30
0.0
 11
278.6793249597319
 21
166.7963386093646
 31
0.0
  0
HATCH
  5
11D
330
E3
100
AcDbEntity
  8
Des_ Furniture
  6
Continuous
 62
   255
370
     0
100
AcDbHatch
 10
0.0
 20
0.0
 30
0.0
210
0.0
220
0.0
230
1.0
  2
SOLID
 70
     1
 71
     0
 91
        1
 92
        3
 72
     1
 73
     1
 93
        2
 10
60.83534101570816
 20
156.1807205406179
 42
0.48
 10
55.84219334193529
 20
155.9190407594032
 42
0.0
 97
        0
 75
     0
 76
     1
 98
        0
  0
ARC
  5
11E
330
E3
100
AcDbEntity
  8
Des_ Furniture
  6
Continuous
100
AcDbCircle
 10
58.44365715779195
 20
154.0484606241066
 30
0.0
 40
3.204166666666661
100
AcDbArc
 50
41.71798835138931
 51
144.2820116486107
  0
LINE
  5
11F
330
E3
100
AcDbEntity
  8
Des_ Furniture
  6
Continuous
100
AcDbLine
 10
55.84219192140229
 20
155.9190424061565
 30
0.0
 11
60.83534044926636
 21
156.1807190298272
 31
0.0
  0
HATCH
  5
120
330
E3
100
AcDbEntity
  8
Des_ Furniture
  6
Continuous
 62
   255
370
     0
100
AcDbHatch
 10
0.0
 20
0.0
 30
0.0
210
0.0
220
0.0
230
1.0
  2
SOLID
 70
     1
 71
     0
 91
        1
 92
        3
 72
     0
 73
     1
 93
        4
 10
57.63684112908727
 20
157.2147410797206
 10
57.64022032176998
 20
157.1502622422473
 10
58.91846612625583
 20
157.2172522662383
 10
58.91508693357311
 20
157.2817311037115
 97
        0
 75
     0
 76
     1
 98
        0
  0
LINE
  5
121
330
E3
100
AcDbEntity
  8
Des_ Furniture
  6
Continuous
100
AcDbLine
 10
57.63684056697279
 20
157.2147398648561
 30
0.0
 11
57.64022134179487
 21
157.15026089001
 31
0.0
  0
LINE
  5
122
330
E3
100
AcDbEntity
  8
Des_ Furniture
  6
Continuous
100
AcDbLine
 10
57.64022134179487
 20
157.15026089001
 30
0.0
 11
58.91846438736493
 21
157.2172521837606
 31
0.0
  0
LINE
  5
123
330
E3
100
AcDbEntity
  8
Des_ Furniture
  6
Continuous
100
AcDbLine
 10
58.91846438736493
 20
157.2172521837606
 30
0.0
 11
58.9150874895782
 21
157.2817311586068
 31
0.0
  0
LINE
  5
124
330
E3
100
AcDbEntity
  8
Des_ Furniture
  6
Continuous
100
AcDbLine
 10
58.9150874895782
 20
157.2817311586068
 30
0.0
 11
57.63684056697279
 21
157.2147398648561
 31
0.0
  0
HATCH
  5
125
330
E3
100
AcDbEntity
  8
Des_ Furniture
  6
Continuous
 62
   255
370
     0
100
AcDbHatch
 10
0.0
 20
0.0
 30
0.0
210
0.0
220
0.0
230
1.0
  2
SOLID
 70
     1
 71
     0
 91
        1
 92
        3
 72
     1
 73
     1
 93
        4
 10
55.64246743498438
 20
155.9085735681546
 42
0.0
 10
55.68433619997873
 20
155.1096699403508
 42
-0.2222222222222222
 10
61.07693568765343
 20
155.3922841040629
 42
0.0
 10
61.03506692265907
 20
156.1911877318666
 42
0.0
 97
        0
 75
     0
 76
     1
 98
        0
  0
LINE
  5
126
330
E3
100
AcDbEntity
  8
Des_ Furniture
  6
Continuous
100
AcDbLine
 10
55.64246644553197
 20
155.9085744107212
 30
0.0
 11
55.68433455023786
 21
155.1096686302046
 31
0.0
  0
ARC
  5
127
330
E3
100
AcDbEntity
  8
Des_ Furniture
  6
Continuous
100
AcDbCircle
 10
58.68287609111932
 20
149.4838914589992
 30
0.0
 40
6.375000000000029
100
AcDbArc
 50
67.94238458169933
 51
118.0576154183053
  0
LINE
  5
128
330
E3
100
AcDbEntity
  8
Des_ Furniture
  6
Continuous
100
AcDbLine
 10
61.07693402984256
 20
155.3922851217812
 30
0.0
 11
61.03506592513668
 21
156.1911870252625
 31
0.0
  0
LINE
  5
129
330
E3
100
AcDbEntity
  8
Des_ Furniture
  6
Continuous
100
AcDbLine
 10
61.03506592513668
 20
156.1911870252625
 30
0.0
 11
55.64246644553197
 21
155.9085744107212
 31
0.0
  0
HATCH
  5
12A
330
E3
100
AcDbEntity
  8
Des_ Furniture
  6
Continuous
 62
   255
370
     0
100
AcDbHatch
 10
0.0
 20
0.0
 30
0.0
210
0.0
220
0.0
230
1.0
  2
SOLID
 70
     1
 71
     0
 91
        1
 92
        3
 72
     0
 73
     1
 93
        5
 10
58.02967291894885
 20
155.8334072370619
 10
59.04289703181234
 20
136.4999394442133
 10
59.39595349492929
 20
135.8775640479681
 10
59.68201993405528
 20
136.5334344562088
 10
58.66879582119178
 20
155.8669022490574
 97
        0
 75
     0
 76
     1
 98
        0
  0
LINE
  5
12B
330
E3
100
AcDbEntity
  8
Des_ Furniture
  6
Continuous
100
AcDbLine
 10
58.02967341937712
 20
155.833406449425
 30
0.0
 11
59.04289783680796
 21
136.4999377377891
 31
0.0
  0
LINE
  5
12C
330
E3
100
AcDbEntity
  8
Des_ Furniture
  6
Continuous
100
AcDbLine
 10
59.04289783680796
 20
136.4999377377891
 30
0.0
 11
59.39595230655812
 21
135.8775650077006
 31
0.0
  0
LINE
  5
12D
330
E3
100
AcDbEntity
  8
Des_ Furniture
  6
Continuous
100
AcDbLine
 10
59.39595230655812
 20
135.8775650077006
 30
0.0
 11
59.68201935959299
 21
136.5334353231821
 31
0.0
  0
LINE
  5
12E
330
E3
100
AcDbEntity
  8
Des_ Furniture
  6
Continuous
100
AcDbLine
 10
59.68201935959299
 20
136.5334353231821
 30
0.0
 11
58.66879494216214
 21
155.866904034818
 31
0.0
  0
LINE
  5
12F
330
E3
100
AcDbEntity
  8
Des_ Furniture
  6
Continuous
100
AcDbLine
 10
58.66879494216214
 20
155.866904034818
 30
0.0
 11
58.02967341937712
 21
155.833406449425
 31
0.0
  0
LINE
  5
130
330
E3
100
AcDbEntity
  8
Des_ Furniture
  6
Continuous
100
AcDbLine
 10
58.86852041803247
 20
155.877368153218
 30
0.0
 11
58.88108201255483
 21
155.5998693482987
 31
0.0
  0
LINE
  5
131
330
E3
100
AcDbEntity
  8
Des_ Furniture
  6
Continuous
100
AcDbLine
 10
58.88108201255483
 20
155.5998693482987
 30
0.0
 11
58.8897084162006
 21
155.3221611834707
 31
0.0
  0
LINE
  5
132
330
E3
100
AcDbEntity
  8
Des_ Furniture
  6
Continuous
100
AcDbLine
 10
58.8897084162006
 20
155.3221611834707
 30
0.0
 11
58.89444227635857
 21
155.0442514128046
 31
0.0
  0
LINE
  5
133
330
E3
100
AcDbEntity
  8
Des_ Furniture
  6
Continuous
100
AcDbLine
 10
58.89444227635857
 20
155.0442514128046
 30
0.0
 11
58.89535725670032
 21
154.7661400363006
 31
0.0
  0
LINE
  5
134
330
E3
100
AcDbEntity
  8
Des_ Furniture
  6
Continuous
100
AcDbLine
 10
58.89535725670032
 20
154.7661400363006
 30
0.0
 11
58.89255803718022
 21
154.4878348080292
 31
0.0
  0
LINE
  5
135
330
E3
100
AcDbEntity
  8
Des_ Furniture
  6
Continuous
100
AcDbLine
 10
58.89255803718022
 20
154.4878348080292
 30
0.0
 11
58.88617643700002
 21
154.2093396050259
 31
0.0
  0
LINE
  5
136
330
E3
100
AcDbEntity
  8
Des_ Furniture
  6
Continuous
100
AcDbLine
 10
58.88617643700002
 20
154.2093396050259
 30
0.0
 11
58.8763752916443
 21
153.930669935432
 31
0.0
  0
LINE
  5
137
330
E3
100
AcDbEntity
  8
Des_ Furniture
  6
Continuous
100
AcDbLine
 10
58.8763752916443
 20
153.930669935432
 30
0.0
 11
58.86333294473897
 21
153.6518257992474
 31
0.0
  0
LINE
  5
138
330
E3
100
AcDbEntity
  8
Des_ Furniture
  6
Continuous
100
AcDbLine
 10
58.86333294473897
 20
153.6518257992474
 30
0.0
 11
58.84726651026345
 21
153.3728227046137
 31
0.0
  0
LINE
  5
139
330
E3
100
AcDbEntity
  8
Des_ Furniture
  6
Continuous
100
AcDbLine
 10
58.84726651026345
 20
153.3728227046137
 30
0.0
 11
58.82840473330317
 21
153.0936761596722
 31
0.0
  0
LINE
  5
13A
330
E3
100
AcDbEntity
  8
Des_ Furniture
  6
Continuous
100
AcDbLine
 10
58.82840473330317
 20
153.0936761596722
 30
0.0
 11
58.80699962115563
 21
152.8143977955289
 31
0.0
  0
LINE
  5
13B
330
E3
100
AcDbEntity
  8
Des_ Furniture
  6
Continuous
100
AcDbLine
 10
58.80699962115563
 20
152.8143977955289
 30
0.0
 11
58.7833303203658
 21
152.5349953662545
 31
0.0
  0
LINE
  5
13C
330
E3
100
AcDbEntity
  8
Des_ Furniture
  6
Continuous
100
AcDbLine
 10
58.7833303203658
 20
152.5349953662545
 30
0.0
 11
58.7576837315493
 21
152.2554921340611
 31
0.0
  0
LINE
  5
13D
330
E3
100
AcDbEntity
  8
Des_ Furniture
  6
Continuous
100
AcDbLine
 10
58.7576837315493
 20
152.2554921340611
 30
0.0
 11
58.73037001753383
 21
151.97590360709
 31
0.0
  0
LINE
  5
13E
330
E3
100
AcDbEntity
  8
Des_ Furniture
  6
Continuous
100
AcDbLine
 10
58.73037001753383
 20
151.97590360709
 30
0.0
 11
58.70170321818248
 21
151.6962414164474
 31
0.0
  0
LINE
  5
13F
330
E3
100
AcDbEntity
  8
Des_ Furniture
  6
Continuous
100
AcDbLine
 10
58.70170321818248
 20
151.6962414164474
 30
0.0
 11
58.67201288149967
 21
151.4165288243453
 31
0.0
  0
LINE
  5
140
330
E3
100
AcDbEntity
  8
Des_ Furniture
  6
Continuous
100
AcDbLine
 10
58.67201288149967
 20
151.4165288243453
 30
0.0
 11
58.64163630956054
 21
151.1367774618897
 31
0.0
  0
LINE
  5
141
330
E3
100
AcDbEntity
  8
Des_ Furniture
  6
Continuous
100
AcDbLine
 10
58.64163630956054
 20
151.1367774618897
 30
0.0
 11
58.61091468147559
 21
150.8570067142574
 31
0.0
  0
LINE
  5
142
330
E3
100
AcDbEntity
  8
Des_ Furniture
  6
Continuous
100
AcDbLine
 10
58.61091468147559
 20
150.8570067142574
 30
0.0
 11
58.58019305339064
 21
150.5772398436605
 31
0.0
  0
LINE
  5
143
330
E3
100
AcDbEntity
  8
Des_ Furniture
  6
Continuous
100
AcDbLine
 10
58.58019305339064
 20
150.5772398436605
 30
0.0
 11
58.54981648145151
 21
150.2974884812049
 31
0.0
  0
LINE
  5
144
330
E3
100
AcDbEntity
  8
Des_ Furniture
  6
Continuous
100
AcDbLine
 10
58.54981648145151
 20
150.2974884812049
 30
0.0
 11
58.5201261447687
 21
150.0177720120674
 31
0.0
  0
LINE
  5
145
330
E3
100
AcDbEntity
  8
Des_ Furniture
  6
Continuous
100
AcDbLine
 10
58.5201261447687
 20
150.0177720120674
 30
0.0
 11
58.49145934541734
 21
149.7381098214248
 31
0.0
  0
LINE
  5
146
330
E3
100
AcDbEntity
  8
Des_ Furniture
  6
Continuous
100
AcDbLine
 10
58.49145934541734
 20
149.7381098214248
 30
0.0
 11
58.46414175436654
 21
149.4585212944538
 31
0.0
  0
LINE
  5
147
330
E3
100
AcDbEntity
  8
Des_ Furniture
  6
Continuous
100
AcDbLine
 10
58.46414175436654
 20
149.4585212944538
 30
0.0
 11
58.43849516555003
 21
149.1790180622604
 31
0.0
  0
LINE
  5
148
330
E3
100
AcDbEntity
  8
Des_ Furniture
  6
Continuous
100
AcDbLine
 10
58.43849516555003
 20
149.1790180622604
 30
0.0
 11
58.4148258647602
 21
148.8996195100214
 31
0.0
  0
LINE
  5
149
330
E3
100
AcDbEntity
  8
Des_ Furniture
  6
Continuous
100
AcDbLine
 10
58.4148258647602
 20
148.8996195100214
 30
0.0
 11
58.39342462964802
 21
148.6203372688427
 31
0.0
  0
LINE
  5
14A
330
E3
100
AcDbEntity
  8
Des_ Furniture
  6
Continuous
100
AcDbLine
 10
58.39342462964802
 20
148.6203372688427
 30
0.0
 11
58.37456285268773
 21
148.3411907239012
 31
0.0
  0
LINE
  5
14B
330
E3
100
AcDbEntity
  8
Des_ Furniture
  6
Continuous
100
AcDbLine
 10
58.37456285268773
 20
148.3411907239012
 30
0.0
 11
58.35849641821221
 21
148.0621876292674
 31
0.0
  0
LINE
  5
14C
330
E3
100
AcDbEntity
  8
Des_ Furniture
  6
Continuous
100
AcDbLine
 10
58.35849641821221
 20
148.0621876292674
 30
0.0
 11
58.34545407130689
 21
147.7833473701183
 31
0.0
  0
LINE
  5
14D
330
E3
100
AcDbEntity
  8
Des_ Furniture
  6
Continuous
100
AcDbLine
 10
58.34545407130689
 20
147.7833473701183
 30
0.0
 11
58.33565292595116
 21
147.504673823489
 31
0.0
  0
LINE
  5
14E
330
E3
100
AcDbEntity
  8
Des_ Furniture
  6
Continuous
100
AcDbLine
 10
58.33565292595116
 20
147.504673823489
 30
0.0
 11
58.32927132577097
 21
147.2261786204857
 31
0.0
  0
LINE
  5
14F
330
E3
100
AcDbEntity
  8
Des_ Furniture
  6
Continuous
100
AcDbLine
 10
58.32927132577097
 20
147.2261786204857
 30
0.0
 11
58.32647210625086
 21
146.9478733922143
 31
0.0
  0
LINE
  5
150
330
E3
100
AcDbEntity
  8
Des_ Furniture
  6
Continuous
100
AcDbLine
 10
58.32647210625086
 20
146.9478733922143
 30
0.0
 11
58.32738708659261
 21
146.6697620157103
 31
0.0
  0
LINE
  5
151
330
E3
100
AcDbEntity
  8
Des_ Furniture
  6
Continuous
100
AcDbLine
 10
58.32738708659261
 20
146.6697620157103
 30
0.0
 11
58.33212094675059
 21
146.3918522450442
 31
0.0
  0
LINE
  5
152
330
E3
100
AcDbEntity
  8
Des_ Furniture
  6
Continuous
100
AcDbLine
 10
58.33212094675059
 20
146.3918522450442
 30
0.0
 11
58.34074347336099
 21
146.1141440802162
 31
0.0
  0
LINE
  5
153
330
E3
100
AcDbEntity
  8
Des_ Furniture
  6
Continuous
100
AcDbLine
 10
58.34074347336099
 20
146.1141440802162
 30
0.0
 11
58.35330506788337
 21
145.8366452752969
 31
0.0
  0
LINE
  5
154
330
E3
100
AcDbEntity
  8
Des_ Furniture
  6
Continuous
100
AcDbLine
 10
58.35330506788337
 20
145.8366452752969
 30
0.0
 11
58.36982123845907
 21
145.559351953251
 31
0.0
  0
LINE
  5
155
330
E3
100
AcDbEntity
  8
Des_ Furniture
  6
Continuous
100
AcDbLine
 10
59.13020091873842
 20
150.8842235023892
 30
0.0
 11
59.1427625132608
 21
150.6067208204346
 31
0.0
  0
LINE
  5
156
330
E3
100
AcDbEntity
  8
Des_ Furniture
  6
Continuous
100
AcDbLine
 10
59.1427625132608
 20
150.6067208204346
 30
0.0
 11
59.15138891690655
 21
150.3290126556066
 31
0.0
  0
LINE
  5
157
330
E3
100
AcDbEntity
  8
Des_ Furniture
  6
Continuous
100
AcDbLine
 10
59.15138891690655
 20
150.3290126556066
 30
0.0
 11
59.15611890002918
 21
150.0511028849405
 31
0.0
  0
LINE
  5
158
330
E3
100
AcDbEntity
  8
Des_ Furniture
  6
Continuous
100
AcDbLine
 10
59.15611890002918
 20
150.0511028849405
 30
0.0
 11
59.15703388037093
 21
149.7729915084365
 31
0.0
  0
LINE
  5
159
330
E3
100
AcDbEntity
  8
Des_ Furniture
  6
Continuous
100
AcDbLine
 10
59.15703388037093
 20
149.7729915084365
 30
0.0
 11
59.15423853788617
 21
149.4946862801652
 31
0.0
  0
LINE
  5
15A
330
E3
100
AcDbEntity
  8
Des_ Furniture
  6
Continuous
100
AcDbLine
 10
59.15423853788617
 20
149.4946862801652
 30
0.0
 11
59.14785693770598
 21
149.2161949541971
 31
0.0
  0
LINE
  5
15B
330
E3
100
AcDbEntity
  8
Des_ Furniture
  6
Continuous
100
AcDbLine
 10
59.14785693770598
 20
149.2161949541971
 30
0.0
 11
59.13805191531491
 21
148.9375214075679
 31
0.0
  0
LINE
  5
15C
330
E3
100
AcDbEntity
  8
Des_ Furniture
  6
Continuous
100
AcDbLine
 10
59.13805191531491
 20
148.9375214075679
 30
0.0
 11
59.12501344544493
 21
148.6586772713834
 31
0.0
  0
LINE
  5
15D
330
E3
100
AcDbEntity
  8
Des_ Furniture
  6
Continuous
100
AcDbLine
 10
59.12501344544493
 20
148.6586772713834
 30
0.0
 11
59.10894701096941
 21
148.379678053785
 31
0.0
  0
LINE
  5
15E
330
E3
100
AcDbEntity
  8
Des_ Furniture
  6
Continuous
100
AcDbLine
 10
59.10894701096941
 20
148.379678053785
 30
0.0
 11
59.09008135697376
 21
148.1005276318081
 31
0.0
  0
LINE
  5
15F
330
E3
100
AcDbEntity
  8
Des_ Furniture
  6
Continuous
100
AcDbLine
 10
59.09008135697376
 20
148.1005276318081
 30
0.0
 11
59.06868012186159
 21
147.8212492676648
 31
0.0
  0
LINE
  5
160
330
E3
100
AcDbEntity
  8
Des_ Furniture
  6
Continuous
100
AcDbLine
 10
59.06868012186159
 20
147.8212492676648
 30
0.0
 11
59.04501082107176
 21
147.5418507154257
 31
0.0
  0
LINE
  5
161
330
E3
100
AcDbEntity
  8
Des_ Furniture
  6
Continuous
100
AcDbLine
 10
59.04501082107176
 20
147.5418507154257
 30
0.0
 11
59.01936423225526
 21
147.2623474832323
 31
0.0
  0
LINE
  5
162
330
E3
100
AcDbEntity
  8
Des_ Furniture
  6
Continuous
100
AcDbLine
 10
59.01936423225526
 20
147.2623474832323
 30
0.0
 11
58.99205051823979
 21
146.982755079226
 31
0.0
  0
LINE
  5
163
330
E3
100
AcDbEntity
  8
Des_ Furniture
  6
Continuous
100
AcDbLine
 10
58.99205051823979
 20
146.982755079226
 30
0.0
 11
58.96338371888844
 21
146.7030928885833
 31
0.0
  0
LINE
  5
164
330
E3
100
AcDbEntity
  8
Des_ Furniture
  6
Continuous
100
AcDbLine
 10
58.96338371888844
 20
146.7030928885833
 30
0.0
 11
58.93369338220563
 21
146.4233802964812
 31
0.0
  0
LINE
  5
165
330
E3
100
AcDbEntity
  8
Des_ Furniture
  6
Continuous
100
AcDbLine
 10
58.93369338220563
 20
146.4233802964812
 30
0.0
 11
58.9033168102665
 21
146.1436289340257
 31
0.0
  0
LINE
  5
166
330
E3
100
AcDbEntity
  8
Des_ Furniture
  6
Continuous
100
AcDbLine
 10
58.9033168102665
 20
146.1436289340257
 30
0.0
 11
58.87259518218155
 21
145.8638581863934
 31
0.0
  0
LINE
  5
167
330
E3
100
AcDbEntity
  8
Des_ Furniture
  6
Continuous
100
AcDbLine
 10
58.87259518218155
 20
145.8638581863934
 30
0.0
 11
58.84187355409659
 21
145.5840913157964
 31
0.0
  0
LINE
  5
168
330
E3
100
AcDbEntity
  8
Des_ Furniture
  6
Continuous
100
AcDbLine
 10
58.84187355409659
 20
145.5840913157964
 30
0.0
 11
58.81149698215746
 21
145.3043399533408
 31
0.0
  0
LINE
  5
169
330
E3
100
AcDbEntity
  8
Des_ Furniture
  6
Continuous
100
AcDbLine
 10
58.81149698215746
 20
145.3043399533408
 30
0.0
 11
58.78180664547466
 21
145.0246234842034
 31
0.0
  0
LINE
  5
16A
330
E3
100
AcDbEntity
  8
Des_ Furniture
  6
Continuous
100
AcDbLine
 10
58.78180664547466
 20
145.0246234842034
 30
0.0
 11
58.7531398461233
 21
144.7449612935608
 31
0.0
  0
LINE
  5
16B
330
E3
100
AcDbEntity
  8
Des_ Furniture
  6
Continuous
100
AcDbLine
 10
58.7531398461233
 20
144.7449612935608
 30
0.0
 11
58.72582225507249
 21
144.4653727665898
 31
0.0
  0
LINE
  5
16C
330
E3
100
AcDbEntity
  8
Des_ Furniture
  6
Continuous
100
AcDbLine
 10
58.72582225507249
 20
144.4653727665898
 30
0.0
 11
58.70017566625599
 21
144.1858695343963
 31
0.0
  0
LINE
  5
16D
330
E3
100
AcDbEntity
  8
Des_ Furniture
  6
Continuous
100
AcDbLine
 10
58.70017566625599
 20
144.1858695343963
 30
0.0
 11
58.67650636546615
 21
143.9064709821573
 31
0.0
  0
LINE
  5
16E
330
E3
100
AcDbEntity
  8
Des_ Furniture
  6
Continuous
100
AcDbLine
 10
58.67650636546615
 20
143.9064709821573
 30
0.0
 11
58.65510513035397
 21
143.6271887409786
 31
0.0
  0
LINE
  5
16F
330
E3
100
AcDbEntity
  8
Des_ Furniture
  6
Continuous
100
AcDbLine
 10
58.65510513035397
 20
143.6271887409786
 30
0.0
 11
58.63624335339369
 21
143.3480421960371
 31
0.0
  0
LINE
  5
170
330
E3
100
AcDbEntity
  8
Des_ Furniture
  6
Continuous
100
AcDbLine
 10
58.63624335339369
 20
143.3480421960371
 30
0.0
 11
58.62017304188281
 21
143.0690391014034
 31
0.0
  0
LINE
  5
171
330
E3
100
AcDbEntity
  8
Des_ Furniture
  6
Continuous
100
AcDbLine
 10
58.62017304188281
 20
143.0690391014034
 30
0.0
 11
58.60713457201285
 21
142.7901988422542
 31
0.0
  0
LINE
  5
172
330
E3
100
AcDbEntity
  8
Des_ Furniture
  6
Continuous
100
AcDbLine
 10
58.60713457201285
 20
142.7901988422542
 30
0.0
 11
58.59732954962177
 21
142.5115252956249
 31
0.0
  0
LINE
  5
173
330
E3
100
AcDbEntity
  8
Des_ Furniture
  6
Continuous
100
AcDbLine
 10
58.59732954962177
 20
142.5115252956249
 30
0.0
 11
58.59095182647692
 21
142.233033969657
 31
0.0
  0
LINE
  5
174
330
E3
100
AcDbEntity
  8
Des_ Furniture
  6
Continuous
100
AcDbLine
 10
58.59095182647692
 20
142.233033969657
 30
0.0
 11
58.58815260695682
 21
141.9547248643502
 31
0.0
  0
LINE
  5
175
330
E3
100
AcDbEntity
  8
Des_ Furniture
  6
Continuous
100
AcDbLine
 10
58.58815260695682
 20
141.9547248643502
 30
0.0
 11
58.58906758729857
 21
141.6766173648815
 31
0.0
  0
LINE
  5
176
330
E3
100
AcDbEntity
  8
Des_ Furniture
  6
Continuous
100
AcDbLine
 10
58.58906758729857
 20
141.6766173648815
 30
0.0
 11
58.59380144745653
 21
141.3987037171802
 31
0.0
  0
LINE
  5
177
330
E3
100
AcDbEntity
  8
Des_ Furniture
  6
Continuous
100
AcDbLine
 10
58.59380144745653
 20
141.3987037171802
 30
0.0
 11
58.60242397406695
 21
141.1209994293875
 31
0.0
  0
LINE
  5
178
330
E3
100
AcDbEntity
  8
Des_ Furniture
  6
Continuous
100
AcDbLine
 10
58.60242397406695
 20
141.1209994293875
 30
0.0
 11
58.61498556858933
 21
140.8434967474329
 31
0.0
  0
LINE
  5
179
330
E3
100
AcDbEntity
  8
Des_ Furniture
  6
Continuous
100
AcDbLine
 10
58.61498556858933
 20
140.8434967474329
 30
0.0
 11
58.63150173916503
 21
140.5662034253869
 31
0.0
  0
LINE
  5
17A
330
E3
100
AcDbEntity
  8
Des_ Furniture
  6
Continuous
100
AcDbLine
 10
59.39188141944437
 20
145.8910749745252
 30
0.0
 11
59.40444301396676
 21
145.6135722925705
 31
0.0
  0
LINE
  5
17B
330
E3
100
AcDbEntity
  8
Des_ Furniture
  6
Continuous
100
AcDbLine
 10
59.40444301396676
 20
145.6135722925705
 30
0.0
 11
59.41306941761251
 21
145.3358680047779
 31
0.0
  0
LINE
  5
17C
330
E3
100
AcDbEntity
  8
Des_ Furniture
  6
Continuous
100
AcDbLine
 10
59.41306941761251
 20
145.3358680047779
 30
0.0
 11
59.41779940073513
 21
145.0579543570765
 31
0.0
  0
LINE
  5
17D
330
E3
100
AcDbEntity
  8
Des_ Furniture
  6
Continuous
100
AcDbLine
 10
59.41779940073513
 20
145.0579543570765
 30
0.0
 11
59.41871438107689
 21
144.7798429805725
 31
0.0
  0
LINE
  5
17E
330
E3
100
AcDbEntity
  8
Des_ Furniture
  6
Continuous
100
AcDbLine
 10
59.41871438107689
 20
144.7798429805725
 30
0.0
 11
59.41591516155678
 21
144.5015377523011
 31
0.0
  0
LINE
  5
17F
330
E3
100
AcDbEntity
  8
Des_ Furniture
  6
Continuous
100
AcDbLine
 10
59.41591516155678
 20
144.5015377523011
 30
0.0
 11
59.40953743841194
 21
144.2230464263331
 31
0.0
  0
LINE
  5
180
330
E3
100
AcDbEntity
  8
Des_ Furniture
  6
Continuous
100
AcDbLine
 10
59.40953743841194
 20
144.2230464263331
 30
0.0
 11
59.39973241602086
 21
143.9443728797038
 31
0.0
  0
LINE
  5
181
330
E3
100
AcDbEntity
  8
Des_ Furniture
  6
Continuous
100
AcDbLine
 10
59.39973241602086
 20
143.9443728797038
 30
0.0
 11
59.38669394615088
 21
143.6655287435193
 31
0.0
  0
LINE
  5
182
330
E3
100
AcDbEntity
  8
Des_ Furniture
  6
Continuous
100
AcDbLine
 10
59.38669394615088
 20
143.6655287435193
 30
0.0
 11
59.37062363464002
 21
143.3865295259209
 31
0.0
  0
LINE
  5
183
330
E3
100
AcDbEntity
  8
Des_ Furniture
  6
Continuous
100
AcDbLine
 10
59.37062363464002
 20
143.3865295259209
 30
0.0
 11
59.35176185767972
 21
143.1073829809794
 31
0.0
  0
LINE
  5
184
330
E3
100
AcDbEntity
  8
Des_ Furniture
  6
Continuous
100
AcDbLine
 10
59.35176185767972
 20
143.1073829809794
 30
0.0
 11
59.33036062256755
 21
142.8281007398007
 31
0.0
  0
LINE
  5
185
330
E3
100
AcDbEntity
  8
Des_ Furniture
  6
Continuous
100
AcDbLine
 10
59.33036062256755
 20
142.8281007398007
 30
0.0
 11
59.30669132177771
 21
142.5487021875617
 31
0.0
  0
LINE
  5
186
330
E3
100
AcDbEntity
  8
Des_ Furniture
  6
Continuous
100
AcDbLine
 10
59.30669132177771
 20
142.5487021875617
 30
0.0
 11
59.28104473296121
 21
142.2691989553683
 31
0.0
  0
LINE
  5
187
330
E3
100
AcDbEntity
  8
Des_ Furniture
  6
Continuous
100
AcDbLine
 10
59.28104473296121
 20
142.2691989553683
 30
0.0
 11
59.25373101894574
 21
141.9896065513619
 31
0.0
  0
LINE
  5
188
330
E3
100
AcDbEntity
  8
Des_ Furniture
  6
Continuous
100
AcDbLine
 10
59.25373101894574
 20
141.9896065513619
 30
0.0
 11
59.22506034255904
 21
141.7099482377546
 31
0.0
  0
LINE
  5
189
330
E3
100
AcDbEntity
  8
Des_ Furniture
  6
Continuous
100
AcDbLine
 10
59.22506034255904
 20
141.7099482377546
 30
0.0
 11
59.19537000587624
 21
141.4302317686172
 31
0.0
  0
LINE
  5
18A
330
E3
100
AcDbEntity
  8
Des_ Furniture
  6
Continuous
100
AcDbLine
 10
59.19537000587624
 20
141.4302317686172
 30
0.0
 11
59.16499343393711
 21
141.1504804061616
 31
0.0
  0
LINE
  5
18B
330
E3
100
AcDbEntity
  8
Des_ Furniture
  6
Continuous
100
AcDbLine
 10
59.16499343393711
 20
141.1504804061616
 30
0.0
 11
59.13427180585216
 21
140.8707135355646
 31
0.0
  0
LINE
  5
18C
330
E3
100
AcDbEntity
  8
Des_ Furniture
  6
Continuous
100
AcDbLine
 10
59.13427180585216
 20
140.8707135355646
 30
0.0
 11
59.10355405480254
 21
140.5909427879323
 31
0.0
  0
LINE
  5
18D
330
E3
100
AcDbEntity
  8
Des_ Furniture
  6
Continuous
100
AcDbLine
 10
59.10355405480254
 20
140.5909427879323
 30
0.0
 11
59.07317748286342
 21
140.3111914254768
 31
0.0
  0
LINE
  5
18E
330
E3
100
AcDbEntity
  8
Des_ Furniture
  6
Continuous
100
AcDbLine
 10
59.07317748286342
 20
140.3111914254768
 30
0.0
 11
59.04348714618062
 21
140.0314749563393
 31
0.0
  0
LINE
  5
18F
330
E3
100
AcDbEntity
  8
Des_ Furniture
  6
Continuous
100
AcDbLine
 10
59.04348714618062
 20
140.0314749563393
 30
0.0
 11
59.01481646979391
 21
139.7518166427321
 31
0.0
  0
LINE
  5
190
330
E3
100
AcDbEntity
  8
Des_ Furniture
  6
Continuous
100
AcDbLine
 10
59.01481646979391
 20
139.7518166427321
 30
0.0
 11
58.98750275577845
 21
139.4722242387257
 31
0.0
  0
LINE
  5
191
330
E3
100
AcDbEntity
  8
Des_ Furniture
  6
Continuous
100
AcDbLine
 10
58.98750275577845
 20
139.4722242387257
 30
0.0
 11
58.96185616696194
 21
139.1927210065323
 31
0.0
  0
LINE
  5
192
330
E3
100
AcDbEntity
  8
Des_ Furniture
  6
Continuous
100
AcDbLine
 10
58.96185616696194
 20
139.1927210065323
 30
0.0
 11
58.93818686617211
 21
138.9133224542932
 31
0.0
  0
LINE
  5
193
330
E3
100
AcDbEntity
  8
Des_ Furniture
  6
Continuous
100
AcDbLine
 10
58.93818686617211
 20
138.9133224542932
 30
0.0
 11
58.91678563105993
 21
138.6340402131146
 31
0.0
  0
LINE
  5
194
330
E3
100
AcDbEntity
  8
Des_ Furniture
  6
Continuous
100
AcDbLine
 10
58.91678563105993
 20
138.6340402131146
 30
0.0
 11
58.89792385409964
 21
138.354893668173
 31
0.0
  0
LINE
  5
195
330
E3
100
AcDbEntity
  8
Des_ Furniture
  6
Continuous
100
AcDbLine
 10
58.89792385409964
 20
138.354893668173
 30
0.0
 11
58.88185354258877
 21
138.0758944505747
 31
0.0
  0
LINE
  5
196
330
E3
100
AcDbEntity
  8
Des_ Furniture
  6
Continuous
100
AcDbLine
 10
58.88185354258877
 20
138.0758944505747
 30
0.0
 11
58.8688150727188
 21
137.7970503143902
 31
0.0
  0
LINE
  5
197
330
E3
100
AcDbEntity
  8
Des_ Furniture
  6
Continuous
100
AcDbLine
 10
58.8688150727188
 20
137.7970503143902
 30
0.0
 11
58.85901005032773
 21
137.5183767677609
 31
0.0
  0
LINE
  5
198
330
E3
100
AcDbEntity
  8
Des_ Furniture
  6
Continuous
100
AcDbLine
 10
58.85901005032773
 20
137.5183767677609
 30
0.0
 11
58.85263232718288
 21
137.2398854417929
 31
0.0
  0
LINE
  5
199
330
E3
100
AcDbEntity
  8
Des_ Furniture
  6
Continuous
100
AcDbLine
 10
58.85263232718288
 20
137.2398854417929
 30
0.0
 11
58.84983310766277
 21
136.9615802135215
 31
0.0
  0
LINE
  5
19A
330
E3
100
AcDbEntity
  8
Des_ Furniture
  6
Continuous
100
AcDbLine
 10
58.34923418076963
 20
155.8501552421215
 30
0.0
 11
58.31851255268468
 21
155.5703844944892
 31
0.0
  0
LINE
  5
19B
330
E3
100
AcDbEntity
  8
Des_ Furniture
  6
Continuous
100
AcDbLine
 10
58.31851255268468
 20
155.5703844944892
 30
0.0
 11
58.28813598074555
 21
155.2906331320336
 31
0.0
  0
LINE
  5
19C
330
E3
100
AcDbEntity
  8
Des_ Furniture
  6
Continuous
100
AcDbLine
 10
58.28813598074555
 20
155.2906331320336
 30
0.0
 11
58.25844564406275
 21
155.0109205399315
 31
0.0
  0
LINE
  5
19D
330
E3
100
AcDbEntity
  8
Des_ Furniture
  6
Continuous
100
AcDbLine
 10
58.25844564406275
 20
155.0109205399315
 30
0.0
 11
58.22977884471139
 21
154.7312583492889
 31
0.0
  0
LINE
  5
19E
330
E3
100
AcDbEntity
  8
Des_ Furniture
  6
Continuous
100
AcDbLine
 10
58.22977884471139
 20
154.7312583492889
 30
0.0
 11
58.20246125366058
 21
154.4516659452825
 31
0.0
  0
LINE
  5
19F
330
E3
100
AcDbEntity
  8
Des_ Furniture
  6
Continuous
100
AcDbLine
 10
58.20246125366058
 20
154.4516659452825
 30
0.0
 11
58.17681854187942
 21
154.1721665901245
 31
0.0
  0
LINE
  5
1A0
330
E3
100
AcDbEntity
  8
Des_ Furniture
  6
Continuous
100
AcDbLine
 10
58.17681854187942
 20
154.1721665901245
 30
0.0
 11
58.15314924108959
 21
153.8927641608501
 31
0.0
  0
LINE
  5
1A1
330
E3
100
AcDbEntity
  8
Des_ Furniture
  6
Continuous
100
AcDbLine
 10
58.15314924108959
 20
153.8927641608501
 30
0.0
 11
58.13174412894207
 21
153.6134857967068
 31
0.0
  0
LINE
  5
1A2
330
E3
100
AcDbEntity
  8
Des_ Furniture
  6
Continuous
100
AcDbLine
 10
58.13174412894207
 20
153.6134857967068
 30
0.0
 11
58.11288235198177
 21
153.3343353747299
 31
0.0
  0
LINE
  5
1A3
330
E3
100
AcDbEntity
  8
Des_ Furniture
  6
Continuous
100
AcDbLine
 10
58.11288235198177
 20
153.3343353747299
 30
0.0
 11
58.09681591750625
 21
153.0553361571315
 31
0.0
  0
LINE
  5
1A4
330
E3
100
AcDbEntity
  8
Des_ Furniture
  6
Continuous
100
AcDbLine
 10
58.09681591750625
 20
153.0553361571315
 30
0.0
 11
58.08377357060093
 21
152.776492020947
 31
0.0
  0
LINE
  5
1A5
330
E3
100
AcDbEntity
  8
Des_ Furniture
  6
Continuous
100
AcDbLine
 10
58.08377357060093
 20
152.776492020947
 30
0.0
 11
58.07397242524521
 21
152.4978223513531
 31
0.0
  0
LINE
  5
1A6
330
E3
100
AcDbEntity
  8
Des_ Furniture
  6
Continuous
100
AcDbLine
 10
58.07397242524521
 20
152.4978223513531
 30
0.0
 11
58.06759082506501
 21
152.2193271483497
 31
0.0
  0
LINE
  5
1A7
330
E3
100
AcDbEntity
  8
Des_ Furniture
  6
Continuous
100
AcDbLine
 10
58.06759082506501
 20
152.2193271483497
 30
0.0
 11
58.0647916055449
 21
151.9410219200784
 31
0.0
  0
LINE
  5
1A8
330
E3
100
AcDbEntity
  8
Des_ Furniture
  6
Continuous
100
AcDbLine
 10
58.0647916055449
 20
151.9410219200784
 30
0.0
 11
58.06570658588665
 21
151.6629105435743
 31
0.0
  0
LINE
  5
1A9
330
E3
100
AcDbEntity
  8
Des_ Furniture
  6
Continuous
100
AcDbLine
 10
58.06570658588665
 20
151.6629105435743
 30
0.0
 11
58.07044044604462
 21
151.3850007729083
 31
0.0
  0
LINE
  5
1AA
330
E3
100
AcDbEntity
  8
Des_ Furniture
  6
Continuous
100
AcDbLine
 10
58.07044044604462
 20
151.3850007729083
 30
0.0
 11
58.07906684969038
 21
151.1072926080803
 31
0.0
  0
LINE
  5
1AB
330
E3
100
AcDbEntity
  8
Des_ Furniture
  6
Continuous
100
AcDbLine
 10
58.07906684969038
 20
151.1072926080803
 30
0.0
 11
58.09162844421276
 21
150.829793803161
 31
0.0
  0
LINE
  5
1AC
330
E3
100
AcDbEntity
  8
Des_ Furniture
  6
Continuous
100
AcDbLine
 10
58.09162844421276
 20
150.829793803161
 30
0.0
 11
58.10814073775312
 21
150.552500481115
 31
0.0
  0
LINE
  5
1AD
330
E3
100
AcDbEntity
  8
Des_ Furniture
  6
Continuous
100
AcDbLine
 10
59.65356192015033
 20
140.8979264466611
 30
0.0
 11
59.66612351467271
 21
140.6204276417418
 31
0.0
  0
LINE
  5
1AE
330
E3
100
AcDbEntity
  8
Des_ Furniture
  6
Continuous
100
AcDbLine
 10
59.66612351467271
 20
140.6204276417418
 30
0.0
 11
59.67474604128312
 21
140.3427194769138
 31
0.0
  0
LINE
  5
1AF
330
E3
100
AcDbEntity
  8
Des_ Furniture
  6
Continuous
100
AcDbLine
 10
59.67474604128312
 20
140.3427194769138
 30
0.0
 11
59.67947990144109
 21
140.0648097062477
 31
0.0
  0
LINE
  5
1B0
330
E3
100
AcDbEntity
  8
Des_ Furniture
  6
Continuous
100
AcDbLine
 10
59.67947990144109
 20
140.0648097062477
 30
0.0
 11
59.68039488178285
 21
139.7866983297437
 31
0.0
  0
LINE
  5
1B1
330
E3
100
AcDbEntity
  8
Des_ Furniture
  6
Continuous
100
AcDbLine
 10
59.68039488178285
 20
139.7866983297437
 30
0.0
 11
59.67759566226273
 21
139.508389224437
 31
0.0
  0
LINE
  5
1B2
330
E3
100
AcDbEntity
  8
Des_ Furniture
  6
Continuous
100
AcDbLine
 10
59.67759566226273
 20
139.508389224437
 30
0.0
 11
59.67121793911789
 21
139.229897898469
 31
0.0
  0
LINE
  5
1B3
330
E3
100
AcDbEntity
  8
Des_ Furniture
  6
Continuous
100
AcDbLine
 10
59.67121793911789
 20
139.229897898469
 30
0.0
 11
59.66141291672682
 21
138.9512243518397
 31
0.0
  0
LINE
  5
1B4
330
E3
100
AcDbEntity
  8
Des_ Furniture
  6
Continuous
100
AcDbLine
 10
59.66141291672682
 20
138.9512243518397
 30
0.0
 11
59.64837444685684
 21
138.6723840926905
 31
0.0
  0
LINE
  5
1B5
330
E3
100
AcDbEntity
  8
Des_ Furniture
  6
Continuous
100
AcDbLine
 10
59.64837444685684
 20
138.6723840926905
 30
0.0
 11
59.63230413534598
 21
138.3933809980568
 31
0.0
  0
LINE
  5
1B6
330
E3
100
AcDbEntity
  8
Des_ Furniture
  6
Continuous
100
AcDbLine
 10
59.63230413534598
 20
138.3933809980568
 30
0.0
 11
59.61344235838568
 21
138.1142344531153
 31
0.0
  0
LINE
  5
1B7
330
E3
100
AcDbEntity
  8
Des_ Furniture
  6
Continuous
100
AcDbLine
 10
59.61344235838568
 20
138.1142344531153
 30
0.0
 11
59.5920411232735
 21
137.8349522119366
 31
0.0
  0
LINE
  5
1B8
330
E3
100
AcDbEntity
  8
Des_ Furniture
  6
Continuous
100
AcDbLine
 10
59.5920411232735
 20
137.8349522119366
 30
0.0
 11
59.56837182248367
 21
137.5555536596976
 31
0.0
  0
LINE
  5
1B9
330
E3
100
AcDbEntity
  8
Des_ Furniture
  6
Continuous
100
AcDbLine
 10
59.56837182248367
 20
137.5555536596976
 30
0.0
 11
59.54272523366716
 21
137.2760504275042
 31
0.0
  0
LINE
  5
1BA
330
E3
100
AcDbEntity
  8
Des_ Furniture
  6
Continuous
100
AcDbLine
 10
59.54272523366716
 20
137.2760504275042
 30
0.0
 11
59.51540764261635
 21
136.9964619005331
 31
0.0
  0
HATCH
  5
1BB
330
E3
100
AcDbEntity
  8
Des_ Furniture
  6
Continuous
 62
   255
370
     0
100
AcDbHatch
 10
0.0
 20
0.0
 30
0.0
210
0.0
220
0.0
230
1.0
  2
SOLID
 70
     1
 71
     0
 91
        1
 92
        3
 72
     1
 73
     1
 93
        2
 10
238.8138561883793
 20
165.5081769447602
 42
0.4999999999999998
 10
236.4171453049683
 20
165.3825706497771
 42
0.0
 97
        0
 75
     0
 76
     1
 98
        0
  0
ARC
  5
1BC
330
E3
100
AcDbEntity
  8
Des_ Furniture
  6
Continuous
100
AcDbCircle
 10
237.6626031072925
 20
164.5466072159895
 30
0.0
 40
1.50000000000001
100
AcDbArc
 50
39.86989764584379
 51
146.1301023541549
  0
LINE
  5
1BD
330
E3
100
AcDbEntity
  8
Des_ Furniture
  6
Continuous
100
AcDbLine
 10
236.4171447469787
 20
165.3825716468808
 30
0.0
 11
238.8138543344579
 21
165.5081759609984
 31
0.0
  0
HATCH
  5
1BE
330
E3
100
AcDbEntity
  8
Des_ Furniture
  6
Continuous
 62
   255
370
     0
100
AcDbHatch
 10
0.0
 20
0.0
 30
0.0
210
0.0
220
0.0
230
1.0
  2
SOLID
 70
     1
 71
     0
 91
        1
 92
        3
 72
     0
 73
     1
 93
        4
 10
236.9449762706851
 20
166.0110565061259
 10
236.9524805439087
 20
165.8678664430049
 10
238.2307263483945
 20
165.9348564669958
 10
238.223222075171
 20
166.0780465301169
 97
        0
 75
     0
 76
     1
 98
        0
  0
LINE
  5
1BF
330
E3
100
AcDbEntity
  8
Des_ Furniture
  6
Continuous
100
AcDbLine
 10
236.9449759701451
 20
166.0110545846752
 30
0.0
 11
236.9524819105757
 21
165.8678679152616
 31
0.0
  0
LINE
  5
1C0
330
E3
100
AcDbEntity
  8
Des_ Furniture
  6
Continuous
100
AcDbLine
 10
236.9524819105757
 20
165.8678679152616
 30
0.0
 11
238.2307249561457
 21
165.9348553319769
 31
0.0
  0
LINE
  5
1C1
330
E3
100
AcDbEntity
  8
Des_ Furniture
  6
Continuous
100
AcDbLine
 10
238.2307249561457
 20
165.9348553319769
 30
0.0
 11
238.2232228927504
 21
166.0780458784259
 31
0.0
  0
LINE
  5
1C2
330
E3
100
AcDbEntity
  8
Des_ Furniture
  6
Continuous
100
AcDbLine
 10
238.2232228927504
 20
166.0780458784259
 30
0.0
 11
236.9449759701451
 21
166.0110545846752
 31
0.0
  0
HATCH
  5
1C3
330
E3
100
AcDbEntity
  8
Des_ Furniture
  6
Continuous
 62
   255
370
     0
100
AcDbHatch
 10
0.0
 20
0.0
 30
0.0
210
0.0
220
0.0
230
1.0
  2
SOLID
 70
     1
 71
     0
 91
        1
 92
        3
 72
     1
 73
     1
 93
        4
 10
236.2174193980174
 20
165.3721034585285
 42
0.0
 10
236.2592881630118
 20
164.5731998307248
 42
-0.4285714285714285
 10
239.0554508603246
 20
164.7197405082051
 42
0.0
 10
239.0135820953302
 20
165.5186441360088
 42
0.0
 97
        0
 75
     0
 76
     1
 98
        0
  0
LINE
  5
1C4
330
E3
100
AcDbEntity
  8
Des_ Furniture
  6
Continuous
100
AcDbLine
 10
236.2174192711084
 20
165.3721036514455
 30
0.0
 11
236.2592873758143
 21
164.5732017479642
 31
0.0
  0
ARC
  5
1C5
330
E3
100
AcDbEntity
  8
Des_ Furniture
  6
Continuous
100
AcDbCircle
 10
237.7271507866588
 20
163.3149641231255
 30
0.0
 40
1.933333333333346
100
AcDbArc
 50
46.60281897270549
 51
139.3971810272978
  0
LINE
  5
1C6
330
E3
100
AcDbEntity
  8
Des_ Furniture
  6
Continuous
100
AcDbLine
 10
239.0554517920695
 20
164.7197420529524
 30
0.0
 11
239.0135836873636
 21
165.5186439564337
 31
0.0
  0
LINE
  5
1C7
330
E3
100
AcDbEntity
  8
Des_ Furniture
  6
Continuous
100
AcDbLine
 10
239.0135836873636
 20
165.5186439564337
 30
0.0
 11
236.2174192711084
 21
165.3721036514455
 31
0.0
  0
HATCH
  5
1C8
330
E3
100
AcDbEntity
  8
Des_ Furniture
  6
Continuous
 62
   255
370
     0
100
AcDbHatch
 10
0.0
 20
0.0
 30
0.0
210
0.0
220
0.0
230
1.0
  2
SOLID
 70
     1
 71
     0
 91
        1
 92
        3
 72
     0
 73
     1
 93
        5
 10
237.306406486801
 20
165.2289003843199
 10
238.3196305996644
 20
145.8954325914714
 10
238.6726870627814
 20
145.2730571952262
 10
238.9587535019074
 20
145.9289276034669
 10
237.9455293890439
 20
165.2623953963156
 97
        0
 75
     0
 76
     1
 98
        0
  0
LINE
  5
1C9
330
E3
100
AcDbEntity
  8
Des_ Furniture
  6
Continuous
100
AcDbLine
 10
237.3064048362434
 20
165.2289014738904
 30
0.0
 11
238.3196292536743
 21
145.8954327622545
 31
0.0
  0
LINE
  5
1CA
330
E3
100
AcDbEntity
  8
Des_ Furniture
  6
Continuous
100
AcDbLine
 10
238.3196292536743
 20
145.8954327622545
 30
0.0
 11
238.6726876004598
 21
145.2730561551306
 31
0.0
  0
LINE
  5
1CB
330
E3
100
AcDbEntity
  8
Des_ Furniture
  6
Continuous
100
AcDbLine
 10
238.6726876004598
 20
145.2730561551306
 30
0.0
 11
238.9587546534947
 21
145.9289264706122
 31
0.0
  0
LINE
  5
1CC
330
E3
100
AcDbEntity
  8
Des_ Furniture
  6
Continuous
100
AcDbLine
 10
238.9587546534947
 20
145.9289264706122
 30
0.0
 11
237.9455302360638
 21
165.262395182248
 31
0.0
  0
LINE
  5
1CD
330
E3
100
AcDbEntity
  8
Des_ Furniture
  6
Continuous
100
AcDbLine
 10
237.9455302360638
 20
165.262395182248
 30
0.0
 11
237.3064048362434
 21
165.2289014738904
 31
0.0
  0
LINE
  5
1CE
330
E3
100
AcDbEntity
  8
Des_ Furniture
  6
Continuous
100
AcDbLine
 10
238.1452557119342
 20
165.2728631776834
 30
0.0
 11
238.1578173064565
 21
164.9953604957287
 31
0.0
  0
LINE
  5
1CF
330
E3
100
AcDbEntity
  8
Des_ Furniture
  6
Continuous
100
AcDbLine
 10
238.1578173064565
 20
164.9953604957287
 30
0.0
 11
238.1664398330669
 21
164.717656207936
 31
0.0
  0
LINE
  5
1D0
330
E3
100
AcDbEntity
  8
Des_ Furniture
  6
Continuous
100
AcDbLine
 10
238.1664398330669
 20
164.717656207936
 30
0.0
 11
238.1711736932249
 21
164.4397425602347
 31
0.0
  0
LINE
  5
1D1
330
E3
100
AcDbEntity
  8
Des_ Furniture
  6
Continuous
100
AcDbLine
 10
238.1711736932249
 20
164.4397425602347
 30
0.0
 11
238.1720886735667
 21
164.1616311837306
 31
0.0
  0
LINE
  5
1D2
330
E3
100
AcDbEntity
  8
Des_ Furniture
  6
Continuous
100
AcDbLine
 10
238.1720886735667
 20
164.1616311837306
 30
0.0
 11
238.1692894540465
 21
163.8833259554593
 31
0.0
  0
LINE
  5
1D3
330
E3
100
AcDbEntity
  8
Des_ Furniture
  6
Continuous
100
AcDbLine
 10
238.1692894540465
 20
163.8833259554593
 30
0.0
 11
238.1629117309017
 21
163.6048346294913
 31
0.0
  0
LINE
  5
1D4
330
E3
100
AcDbEntity
  8
Des_ Furniture
  6
Continuous
100
AcDbLine
 10
238.1629117309017
 20
163.6048346294913
 30
0.0
 11
238.1531067085106
 21
163.326161082862
 31
0.0
  0
LINE
  5
1D5
330
E3
100
AcDbEntity
  8
Des_ Furniture
  6
Continuous
100
AcDbLine
 10
238.1531067085106
 20
163.326161082862
 30
0.0
 11
238.1400682386407
 21
163.0473169466775
 31
0.0
  0
LINE
  5
1D6
330
E3
100
AcDbEntity
  8
Des_ Furniture
  6
Continuous
100
AcDbLine
 10
238.1400682386407
 20
163.0473169466775
 30
0.0
 11
238.1239979271298
 21
162.7683177290791
 31
0.0
  0
LINE
  5
1D7
330
E3
100
AcDbEntity
  8
Des_ Furniture
  6
Continuous
100
AcDbLine
 10
238.1239979271298
 20
162.7683177290791
 30
0.0
 11
238.1051361501695
 21
162.4891711841376
 31
0.0
  0
LINE
  5
1D8
330
E3
100
AcDbEntity
  8
Des_ Furniture
  6
Continuous
100
AcDbLine
 10
238.1051361501695
 20
162.4891711841376
 30
0.0
 11
238.0837349150573
 21
162.209888942959
 31
0.0
  0
LINE
  5
1D9
330
E3
100
AcDbEntity
  8
Des_ Furniture
  6
Continuous
100
AcDbLine
 10
238.0837349150573
 20
162.209888942959
 30
0.0
 11
238.0600656142674
 21
161.9304903907199
 31
0.0
  0
LINE
  5
1DA
330
E3
100
AcDbEntity
  8
Des_ Furniture
  6
Continuous
100
AcDbLine
 10
238.0600656142674
 20
161.9304903907199
 30
0.0
 11
238.034419025451
 21
161.6509871585265
 31
0.0
  0
LINE
  5
1DB
330
E3
100
AcDbEntity
  8
Des_ Furniture
  6
Continuous
100
AcDbLine
 10
238.034419025451
 20
161.6509871585265
 30
0.0
 11
238.0071053114355
 21
161.3713947545201
 31
0.0
  0
LINE
  5
1DC
330
E3
100
AcDbEntity
  8
Des_ Furniture
  6
Continuous
100
AcDbLine
 10
238.0071053114355
 20
161.3713947545201
 30
0.0
 11
237.9784346350488
 21
161.0917364409129
 31
0.0
  0
LINE
  5
1DD
330
E3
100
AcDbEntity
  8
Des_ Furniture
  6
Continuous
100
AcDbLine
 10
237.9784346350488
 20
161.0917364409129
 30
0.0
 11
237.948744298366
 21
160.8120199717754
 31
0.0
  0
LINE
  5
1DE
330
E3
100
AcDbEntity
  8
Des_ Furniture
  6
Continuous
100
AcDbLine
 10
237.948744298366
 20
160.8120199717754
 30
0.0
 11
237.9183677264269
 21
160.5322686093199
 31
0.0
  0
LINE
  5
1DF
330
E3
100
AcDbEntity
  8
Des_ Furniture
  6
Continuous
100
AcDbLine
 10
237.9183677264269
 20
160.5322686093199
 30
0.0
 11
237.8876460983419
 21
160.2525017387229
 31
0.0
  0
LINE
  5
1E0
330
E3
100
AcDbEntity
  8
Des_ Furniture
  6
Continuous
100
AcDbLine
 10
237.8876460983419
 20
160.2525017387229
 30
0.0
 11
237.8569283472923
 21
159.9727309910905
 31
0.0
  0
LINE
  5
1E1
330
E3
100
AcDbEntity
  8
Des_ Furniture
  6
Continuous
100
AcDbLine
 10
237.8569283472923
 20
159.9727309910905
 30
0.0
 11
237.8265517753532
 21
159.692979628635
 31
0.0
  0
LINE
  5
1E2
330
E3
100
AcDbEntity
  8
Des_ Furniture
  6
Continuous
100
AcDbLine
 10
237.8265517753532
 20
159.692979628635
 30
0.0
 11
237.7968614386704
 21
159.4132670365329
 31
0.0
  0
LINE
  5
1E3
330
E3
100
AcDbEntity
  8
Des_ Furniture
  6
Continuous
100
AcDbLine
 10
237.7968614386704
 20
159.4132670365329
 30
0.0
 11
237.7681907622837
 21
159.1336048458903
 31
0.0
  0
LINE
  5
1E4
330
E3
100
AcDbEntity
  8
Des_ Furniture
  6
Continuous
100
AcDbLine
 10
237.7681907622837
 20
159.1336048458903
 30
0.0
 11
237.7408770482682
 21
158.8540124418839
 31
0.0
  0
LINE
  5
1E5
330
E3
100
AcDbEntity
  8
Des_ Furniture
  6
Continuous
100
AcDbLine
 10
237.7408770482682
 20
158.8540124418839
 30
0.0
 11
237.7152304594517
 21
158.5745092096905
 31
0.0
  0
LINE
  5
1E6
330
E3
100
AcDbEntity
  8
Des_ Furniture
  6
Continuous
100
AcDbLine
 10
237.7152304594517
 20
158.5745092096905
 30
0.0
 11
237.6915611586619
 21
158.2951106574514
 31
0.0
  0
LINE
  5
1E7
330
E3
100
AcDbEntity
  8
Des_ Furniture
  6
Continuous
100
AcDbLine
 10
237.6915611586619
 20
158.2951106574514
 30
0.0
 11
237.6701599235497
 21
158.0158284162728
 31
0.0
  0
LINE
  5
1E8
330
E3
100
AcDbEntity
  8
Des_ Furniture
  6
Continuous
100
AcDbLine
 10
237.6701599235497
 20
158.0158284162728
 30
0.0
 11
237.6512942695541
 21
157.7366818713313
 31
0.0
  0
LINE
  5
1E9
330
E3
100
AcDbEntity
  8
Des_ Furniture
  6
Continuous
100
AcDbLine
 10
237.6512942695541
 20
157.7366818713313
 30
0.0
 11
237.6352278350786
 21
157.4576826537329
 31
0.0
  0
LINE
  5
1EA
330
E3
100
AcDbEntity
  8
Des_ Furniture
  6
Continuous
100
AcDbLine
 10
237.6352278350786
 20
157.4576826537329
 30
0.0
 11
237.6221893652086
 21
157.1788385175483
 31
0.0
  0
LINE
  5
1EB
330
E3
100
AcDbEntity
  8
Des_ Furniture
  6
Continuous
100
AcDbLine
 10
237.6221893652086
 20
157.1788385175483
 30
0.0
 11
237.6123843428175
 21
156.9001649709191
 31
0.0
  0
LINE
  5
1EC
330
E3
100
AcDbEntity
  8
Des_ Furniture
  6
Continuous
100
AcDbLine
 10
237.6123843428175
 20
156.9001649709191
 30
0.0
 11
237.6060027426373
 21
156.6216736449511
 31
0.0
  0
LINE
  5
1ED
330
E3
100
AcDbEntity
  8
Des_ Furniture
  6
Continuous
100
AcDbLine
 10
237.6060027426373
 20
156.6216736449511
 30
0.0
 11
237.6032074001526
 21
156.3433684166797
 31
0.0
  0
LINE
  5
1EE
330
E3
100
AcDbEntity
  8
Des_ Furniture
  6
Continuous
100
AcDbLine
 10
237.6032074001526
 20
156.3433684166797
 30
0.0
 11
237.6041223804943
 21
156.0652570401757
 31
0.0
  0
LINE
  5
1EF
330
E3
100
AcDbEntity
  8
Des_ Furniture
  6
Continuous
100
AcDbLine
 10
237.6041223804943
 20
156.0652570401757
 30
0.0
 11
237.6088523636169
 21
155.7873472695097
 31
0.0
  0
LINE
  5
1F0
330
E3
100
AcDbEntity
  8
Des_ Furniture
  6
Continuous
100
AcDbLine
 10
237.6088523636169
 20
155.7873472695097
 30
0.0
 11
237.6174787672627
 21
155.5096391046816
 31
0.0
  0
LINE
  5
1F1
330
E3
100
AcDbEntity
  8
Des_ Furniture
  6
Continuous
100
AcDbLine
 10
237.6174787672627
 20
155.5096391046816
 30
0.0
 11
237.630040361785
 21
155.232136422727
 31
0.0
  0
LINE
  5
1F2
330
E3
100
AcDbEntity
  8
Des_ Furniture
  6
Continuous
100
AcDbLine
 10
237.630040361785
 20
155.232136422727
 30
0.0
 11
237.6465526553254
 21
154.954843100681
 31
0.0
  0
LINE
  5
1F3
330
E3
100
AcDbEntity
  8
Des_ Furniture
  6
Continuous
100
AcDbLine
 10
238.4069362126401
 20
160.2797146498193
 30
0.0
 11
238.4194978071625
 21
160.0022158449
 31
0.0
  0
LINE
  5
1F4
330
E3
100
AcDbEntity
  8
Des_ Furniture
  6
Continuous
100
AcDbLine
 10
238.4194978071625
 20
160.0022158449
 30
0.0
 11
238.4281203337729
 21
159.724507680072
 31
0.0
  0
LINE
  5
1F5
330
E3
100
AcDbEntity
  8
Des_ Furniture
  6
Continuous
100
AcDbLine
 10
238.4281203337729
 20
159.724507680072
 30
0.0
 11
238.4328541939308
 21
159.446597909406
 31
0.0
  0
LINE
  5
1F6
330
E3
100
AcDbEntity
  8
Des_ Furniture
  6
Continuous
100
AcDbLine
 10
238.4328541939308
 20
159.446597909406
 30
0.0
 11
238.4337691742726
 21
159.1684865329019
 31
0.0
  0
LINE
  5
1F7
330
E3
100
AcDbEntity
  8
Des_ Furniture
  6
Continuous
100
AcDbLine
 10
238.4337691742726
 20
159.1684865329019
 30
0.0
 11
238.4309699547525
 21
158.8901813046306
 31
0.0
  0
LINE
  5
1F8
330
E3
100
AcDbEntity
  8
Des_ Furniture
  6
Continuous
100
AcDbLine
 10
238.4309699547525
 20
158.8901813046306
 30
0.0
 11
238.4245922316077
 21
158.6116861016272
 31
0.0
  0
LINE
  5
1F9
330
E3
100
AcDbEntity
  8
Des_ Furniture
  6
Continuous
100
AcDbLine
 10
238.4245922316077
 20
158.6116861016272
 30
0.0
 11
238.4147872092165
 21
158.3330125549979
 31
0.0
  0
LINE
  5
1FA
330
E3
100
AcDbEntity
  8
Des_ Furniture
  6
Continuous
100
AcDbLine
 10
238.4147872092165
 20
158.3330125549979
 30
0.0
 11
238.4017487393466
 21
158.0541722958488
 31
0.0
  0
LINE
  5
1FB
330
E3
100
AcDbEntity
  8
Des_ Furniture
  6
Continuous
100
AcDbLine
 10
238.4017487393466
 20
158.0541722958488
 30
0.0
 11
238.3856784278357
 21
157.7751692012151
 31
0.0
  0
LINE
  5
1FC
330
E3
100
AcDbEntity
  8
Des_ Furniture
  6
Continuous
100
AcDbLine
 10
238.3856784278357
 20
157.7751692012151
 30
0.0
 11
238.3668166508754
 21
157.4960226562735
 31
0.0
  0
LINE
  5
1FD
330
E3
100
AcDbEntity
  8
Des_ Furniture
  6
Continuous
100
AcDbLine
 10
238.3668166508754
 20
157.4960226562735
 30
0.0
 11
238.3454154157633
 21
157.2167404150949
 31
0.0
  0
LINE
  5
1FE
330
E3
100
AcDbEntity
  8
Des_ Furniture
  6
Continuous
100
AcDbLine
 10
238.3454154157633
 20
157.2167404150949
 30
0.0
 11
238.3217461149734
 21
156.9373418628558
 31
0.0
  0
LINE
  5
1FF
330
E3
100
AcDbEntity
  8
Des_ Furniture
  6
Continuous
100
AcDbLine
 10
238.3217461149734
 20
156.9373418628558
 30
0.0
 11
238.2960995261569
 21
156.6578386306624
 31
0.0
  0
LINE
  5
200
330
E3
100
AcDbEntity
  8
Des_ Furniture
  6
Continuous
100
AcDbLine
 10
238.2960995261569
 20
156.6578386306624
 30
0.0
 11
238.2687819351061
 21
156.3782501036914
 31
0.0
  0
LINE
  5
201
330
E3
100
AcDbEntity
  8
Des_ Furniture
  6
Continuous
100
AcDbLine
 10
238.2687819351061
 20
156.3782501036914
 30
0.0
 11
238.2401151357548
 21
156.0985879130488
 31
0.0
  0
LINE
  5
202
330
E3
100
AcDbEntity
  8
Des_ Furniture
  6
Continuous
100
AcDbLine
 10
238.2401151357548
 20
156.0985879130488
 30
0.0
 11
238.2104247990719
 21
155.8188714439113
 31
0.0
  0
LINE
  5
203
330
E3
100
AcDbEntity
  8
Des_ Furniture
  6
Continuous
100
AcDbLine
 10
238.2104247990719
 20
155.8188714439113
 30
0.0
 11
238.1800482271329
 21
155.5391200814558
 31
0.0
  0
LINE
  5
204
330
E3
100
AcDbEntity
  8
Des_ Furniture
  6
Continuous
100
AcDbLine
 10
238.1800482271329
 20
155.5391200814558
 30
0.0
 11
238.1493265990479
 21
155.2593532108588
 31
0.0
  0
LINE
  5
205
330
E3
100
AcDbEntity
  8
Des_ Furniture
  6
Continuous
100
AcDbLine
 10
238.1493265990479
 20
155.2593532108588
 30
0.0
 11
238.1186049709629
 21
154.9795824632265
 31
0.0
  0
LINE
  5
206
330
E3
100
AcDbEntity
  8
Des_ Furniture
  6
Continuous
100
AcDbLine
 10
238.1186049709629
 20
154.9795824632265
 30
0.0
 11
238.0882283990238
 21
154.6998311007709
 31
0.0
  0
LINE
  5
207
330
E3
100
AcDbEntity
  8
Des_ Furniture
  6
Continuous
100
AcDbLine
 10
238.0882283990238
 20
154.6998311007709
 30
0.0
 11
238.058538062341
 21
154.4201185086688
 31
0.0
  0
LINE
  5
208
330
E3
100
AcDbEntity
  8
Des_ Furniture
  6
Continuous
100
AcDbLine
 10
238.058538062341
 20
154.4201185086688
 30
0.0
 11
238.0298712629896
 21
154.1404563180262
 31
0.0
  0
LINE
  5
209
330
E3
100
AcDbEntity
  8
Des_ Furniture
  6
Continuous
100
AcDbLine
 10
238.0298712629896
 20
154.1404563180262
 30
0.0
 11
238.0025575489742
 21
153.8608639140198
 31
0.0
  0
LINE
  5
20A
330
E3
100
AcDbEntity
  8
Des_ Furniture
  6
Continuous
100
AcDbLine
 10
238.0025575489742
 20
153.8608639140198
 30
0.0
 11
237.9769109601577
 21
153.5813645588618
 31
0.0
  0
LINE
  5
20B
330
E3
100
AcDbEntity
  8
Des_ Furniture
  6
Continuous
100
AcDbLine
 10
237.9769109601577
 20
153.5813645588618
 30
0.0
 11
237.9532416593678
 21
153.3019621295874
 31
0.0
  0
LINE
  5
20C
330
E3
100
AcDbEntity
  8
Des_ Furniture
  6
Continuous
100
AcDbLine
 10
237.9532416593678
 20
153.3019621295874
 30
0.0
 11
237.9318365472203
 21
153.0226837654441
 31
0.0
  0
LINE
  5
20D
330
E3
100
AcDbEntity
  8
Des_ Furniture
  6
Continuous
100
AcDbLine
 10
237.9318365472203
 20
153.0226837654441
 30
0.0
 11
237.91297477026
 21
152.7435333434672
 31
0.0
  0
LINE
  5
20E
330
E3
100
AcDbEntity
  8
Des_ Furniture
  6
Continuous
100
AcDbLine
 10
237.91297477026
 20
152.7435333434672
 30
0.0
 11
237.8969083357845
 21
152.4645341258688
 31
0.0
  0
LINE
  5
20F
330
E3
100
AcDbEntity
  8
Des_ Furniture
  6
Continuous
100
AcDbLine
 10
237.8969083357845
 20
152.4645341258688
 30
0.0
 11
237.8838659888792
 21
152.1856899896843
 31
0.0
  0
LINE
  5
210
330
E3
100
AcDbEntity
  8
Des_ Furniture
  6
Continuous
100
AcDbLine
 10
237.8838659888792
 20
152.1856899896843
 30
0.0
 11
237.8740648435234
 21
151.9070203200903
 31
0.0
  0
LINE
  5
211
330
E3
100
AcDbEntity
  8
Des_ Furniture
  6
Continuous
100
AcDbLine
 10
237.8740648435234
 20
151.9070203200903
 30
0.0
 11
237.8676832433432
 21
151.628525117087
 31
0.0
  0
LINE
  5
212
330
E3
100
AcDbEntity
  8
Des_ Furniture
  6
Continuous
100
AcDbLine
 10
237.8676832433432
 20
151.628525117087
 30
0.0
 11
237.8648840238232
 21
151.3502198888156
 31
0.0
  0
LINE
  5
213
330
E3
100
AcDbEntity
  8
Des_ Furniture
  6
Continuous
100
AcDbLine
 10
237.8648840238232
 20
151.3502198888156
 30
0.0
 11
237.8657990041649
 21
151.0721085123116
 31
0.0
  0
LINE
  5
214
330
E3
100
AcDbEntity
  8
Des_ Furniture
  6
Continuous
100
AcDbLine
 10
237.8657990041649
 20
151.0721085123116
 30
0.0
 11
237.8705328643229
 21
150.7941987416456
 31
0.0
  0
LINE
  5
215
330
E3
100
AcDbEntity
  8
Des_ Furniture
  6
Continuous
100
AcDbLine
 10
237.8705328643229
 20
150.7941987416456
 30
0.0
 11
237.8791592679686
 21
150.5164905768176
 31
0.0
  0
LINE
  5
216
330
E3
100
AcDbEntity
  8
Des_ Furniture
  6
Continuous
100
AcDbLine
 10
237.8791592679686
 20
150.5164905768176
 30
0.0
 11
237.891720862491
 21
150.2389917718983
 31
0.0
  0
LINE
  5
217
330
E3
100
AcDbEntity
  8
Des_ Furniture
  6
Continuous
100
AcDbLine
 10
237.891720862491
 20
150.2389917718983
 30
0.0
 11
237.9082331560313
 21
149.9616984498523
 31
0.0
  0
LINE
  5
218
330
E3
100
AcDbEntity
  8
Des_ Furniture
  6
Continuous
100
AcDbLine
 10
238.668616713346
 20
155.2865661219552
 30
0.0
 11
238.6811783078684
 21
155.0090673170359
 31
0.0
  0
LINE
  5
219
330
E3
100
AcDbEntity
  8
Des_ Furniture
  6
Continuous
100
AcDbLine
 10
238.6811783078684
 20
155.0090673170359
 30
0.0
 11
238.6898008344788
 21
154.7313591522079
 31
0.0
  0
LINE
  5
21A
330
E3
100
AcDbEntity
  8
Des_ Furniture
  6
Continuous
100
AcDbLine
 10
238.6898008344788
 20
154.7313591522079
 30
0.0
 11
238.6945346946368
 21
154.4534493815419
 31
0.0
  0
LINE
  5
21B
330
E3
100
AcDbEntity
  8
Des_ Furniture
  6
Continuous
100
AcDbLine
 10
238.6945346946368
 20
154.4534493815419
 30
0.0
 11
238.6954496749786
 21
154.1753380050378
 31
0.0
  0
LINE
  5
21C
330
E3
100
AcDbEntity
  8
Des_ Furniture
  6
Continuous
100
AcDbLine
 10
238.6954496749786
 20
154.1753380050378
 30
0.0
 11
238.6926504554584
 21
153.8970327767665
 31
0.0
  0
LINE
  5
21D
330
E3
100
AcDbEntity
  8
Des_ Furniture
  6
Continuous
100
AcDbLine
 10
238.6926504554584
 20
153.8970327767665
 30
0.0
 11
238.6862688552783
 21
153.6185375737631
 31
0.0
  0
LINE
  5
21E
330
E3
100
AcDbEntity
  8
Des_ Furniture
  6
Continuous
100
AcDbLine
 10
238.6862688552783
 20
153.6185375737631
 30
0.0
 11
238.6764677099225
 21
153.3398640271339
 31
0.0
  0
LINE
  5
21F
330
E3
100
AcDbEntity
  8
Des_ Furniture
  6
Continuous
100
AcDbLine
 10
238.6764677099225
 20
153.3398640271339
 30
0.0
 11
238.6634253630172
 21
153.0610237679847
 31
0.0
  0
LINE
  5
220
330
E3
100
AcDbEntity
  8
Des_ Furniture
  6
Continuous
100
AcDbLine
 10
238.6634253630172
 20
153.0610237679847
 30
0.0
 11
238.6473589285417
 21
152.782020673351
 31
0.0
  0
LINE
  5
221
330
E3
100
AcDbEntity
  8
Des_ Furniture
  6
Continuous
100
AcDbLine
 10
238.6473589285417
 20
152.782020673351
 30
0.0
 11
238.6284971515814
 21
152.5028741284095
 31
0.0
  0
LINE
  5
222
330
E3
100
AcDbEntity
  8
Des_ Furniture
  6
Continuous
100
AcDbLine
 10
238.6284971515814
 20
152.5028741284095
 30
0.0
 11
238.6070920394339
 21
152.2235957642662
 31
0.0
  0
LINE
  5
223
330
E3
100
AcDbEntity
  8
Des_ Furniture
  6
Continuous
100
AcDbLine
 10
238.6070920394339
 20
152.2235957642662
 30
0.0
 11
238.5834227386441
 21
151.9441933349918
 31
0.0
  0
LINE
  5
224
330
E3
100
AcDbEntity
  8
Des_ Furniture
  6
Continuous
100
AcDbLine
 10
238.5834227386441
 20
151.9441933349918
 30
0.0
 11
238.5577800268629
 21
151.6646901027983
 31
0.0
  0
LINE
  5
225
330
E3
100
AcDbEntity
  8
Des_ Furniture
  6
Continuous
100
AcDbLine
 10
238.5577800268629
 20
151.6646901027983
 30
0.0
 11
238.5304624358121
 21
151.3851015758273
 31
0.0
  0
LINE
  5
226
330
E3
100
AcDbEntity
  8
Des_ Furniture
  6
Continuous
100
AcDbLine
 10
238.5304624358121
 20
151.3851015758273
 30
0.0
 11
238.5017956364607
 21
151.1054393851847
 31
0.0
  0
LINE
  5
227
330
E3
100
AcDbEntity
  8
Des_ Furniture
  6
Continuous
100
AcDbLine
 10
238.5017956364607
 20
151.1054393851847
 30
0.0
 11
238.4721052997779
 21
150.8257229160472
 31
0.0
  0
LINE
  5
228
330
E3
100
AcDbEntity
  8
Des_ Furniture
  6
Continuous
100
AcDbLine
 10
238.4721052997779
 20
150.8257229160472
 30
0.0
 11
238.4417287278388
 21
150.545975430627
 31
0.0
  0
LINE
  5
229
330
E3
100
AcDbEntity
  8
Des_ Furniture
  6
Continuous
100
AcDbLine
 10
238.4417287278388
 20
150.545975430627
 30
0.0
 11
238.4110070997538
 21
150.2662046829947
 31
0.0
  0
LINE
  5
22A
330
E3
100
AcDbEntity
  8
Des_ Furniture
  6
Continuous
100
AcDbLine
 10
238.4110070997538
 20
150.2662046829947
 30
0.0
 11
238.3802854716689
 21
149.9864339353624
 31
0.0
  0
LINE
  5
22B
330
E3
100
AcDbEntity
  8
Des_ Furniture
  6
Continuous
100
AcDbLine
 10
238.3802854716689
 20
149.9864339353624
 30
0.0
 11
238.3499088997297
 21
149.7066864499422
 31
0.0
  0
LINE
  5
22C
330
E3
100
AcDbEntity
  8
Des_ Furniture
  6
Continuous
100
AcDbLine
 10
238.3499088997297
 20
149.7066864499422
 30
0.0
 11
238.3202185630469
 21
149.4269699808047
 31
0.0
  0
LINE
  5
22D
330
E3
100
AcDbEntity
  8
Des_ Furniture
  6
Continuous
100
AcDbLine
 10
238.3202185630469
 20
149.4269699808047
 30
0.0
 11
238.2915517636956
 21
149.1473077901621
 31
0.0
  0
LINE
  5
22E
330
E3
100
AcDbEntity
  8
Des_ Furniture
  6
Continuous
100
AcDbLine
 10
238.2915517636956
 20
149.1473077901621
 30
0.0
 11
238.2642341726448
 21
148.8677192631911
 31
0.0
  0
LINE
  5
22F
330
E3
100
AcDbEntity
  8
Des_ Furniture
  6
Continuous
100
AcDbLine
 10
238.2642341726448
 20
148.8677192631911
 30
0.0
 11
238.2385914608636
 21
148.5882160309977
 31
0.0
  0
LINE
  5
230
330
E3
100
AcDbEntity
  8
Des_ Furniture
  6
Continuous
100
AcDbLine
 10
238.2385914608636
 20
148.5882160309977
 30
0.0
 11
238.2149221600738
 21
148.3088136017233
 31
0.0
  0
LINE
  5
231
330
E3
100
AcDbEntity
  8
Des_ Furniture
  6
Continuous
100
AcDbLine
 10
238.2149221600738
 20
148.3088136017233
 30
0.0
 11
238.1935170479262
 21
148.02953523758
 31
0.0
  0
LINE
  5
232
330
E3
100
AcDbEntity
  8
Des_ Furniture
  6
Continuous
100
AcDbLine
 10
238.1935170479262
 20
148.02953523758
 30
0.0
 11
238.174655270966
 21
147.7503886926385
 31
0.0
  0
LINE
  5
233
330
E3
100
AcDbEntity
  8
Des_ Furniture
  6
Continuous
100
AcDbLine
 10
238.174655270966
 20
147.7503886926385
 30
0.0
 11
238.1585888364904
 21
147.4713855980047
 31
0.0
  0
LINE
  5
234
330
E3
100
AcDbEntity
  8
Des_ Furniture
  6
Continuous
100
AcDbLine
 10
238.1585888364904
 20
147.4713855980047
 30
0.0
 11
238.1455464895851
 21
147.1925453388556
 31
0.0
  0
LINE
  5
235
330
E3
100
AcDbEntity
  8
Des_ Furniture
  6
Continuous
100
AcDbLine
 10
238.1455464895851
 20
147.1925453388556
 30
0.0
 11
238.1357453442294
 21
146.9138717922263
 31
0.0
  0
LINE
  5
236
330
E3
100
AcDbEntity
  8
Des_ Furniture
  6
Continuous
100
AcDbLine
 10
238.1357453442294
 20
146.9138717922263
 30
0.0
 11
238.1293637440492
 21
146.635376589223
 31
0.0
  0
LINE
  5
237
330
E3
100
AcDbEntity
  8
Des_ Furniture
  6
Continuous
100
AcDbLine
 10
238.1293637440492
 20
146.635376589223
 30
0.0
 11
238.1265645245291
 21
146.3570713609516
 31
0.0
  0
LINE
  5
238
330
E3
100
AcDbEntity
  8
Des_ Furniture
  6
Continuous
100
AcDbLine
 10
237.6259694746713
 20
165.2456463895516
 30
0.0
 11
237.5952478465864
 21
164.9658795189546
 31
0.0
  0
LINE
  5
239
330
E3
100
AcDbEntity
  8
Des_ Furniture
  6
Continuous
100
AcDbLine
 10
237.5952478465864
 20
164.9658795189546
 30
0.0
 11
237.5648712746472
 21
164.6861281564991
 31
0.0
  0
LINE
  5
23A
330
E3
100
AcDbEntity
  8
Des_ Furniture
  6
Continuous
100
AcDbLine
 10
237.5648712746472
 20
164.6861281564991
 30
0.0
 11
237.5351809379644
 21
164.4064116873616
 31
0.0
  0
LINE
  5
23B
330
E3
100
AcDbEntity
  8
Des_ Furniture
  6
Continuous
100
AcDbLine
 10
237.5351809379644
 20
164.4064116873616
 30
0.0
 11
237.5065141386131
 21
164.1267533737544
 31
0.0
  0
LINE
  5
23C
330
E3
100
AcDbEntity
  8
Des_ Furniture
  6
Continuous
100
AcDbLine
 10
237.5065141386131
 20
164.1267533737544
 30
0.0
 11
237.4791965475623
 21
163.847160969748
 31
0.0
  0
LINE
  5
23D
330
E3
100
AcDbEntity
  8
Des_ Furniture
  6
Continuous
100
AcDbLine
 10
237.4791965475623
 20
163.847160969748
 30
0.0
 11
237.4535499587457
 21
163.5676577375546
 31
0.0
  0
LINE
  5
23E
330
E3
100
AcDbEntity
  8
Des_ Furniture
  6
Continuous
100
AcDbLine
 10
237.4535499587457
 20
163.5676577375546
 30
0.0
 11
237.4298806579559
 21
163.2882591853155
 31
0.0
  0
LINE
  5
23F
330
E3
100
AcDbEntity
  8
Des_ Furniture
  6
Continuous
100
AcDbLine
 10
237.4298806579559
 20
163.2882591853155
 30
0.0
 11
237.4084794228438
 21
163.0089769441369
 31
0.0
  0
LINE
  5
240
330
E3
100
AcDbEntity
  8
Des_ Furniture
  6
Continuous
100
AcDbLine
 10
237.4084794228438
 20
163.0089769441369
 30
0.0
 11
237.3896176458834
 21
162.7298303991953
 31
0.0
  0
LINE
  5
241
330
E3
100
AcDbEntity
  8
Des_ Furniture
  6
Continuous
100
AcDbLine
 10
237.3896176458834
 20
162.7298303991953
 30
0.0
 11
237.3735473343725
 21
162.450831181597
 31
0.0
  0
LINE
  5
242
330
E3
100
AcDbEntity
  8
Des_ Furniture
  6
Continuous
100
AcDbLine
 10
237.3735473343725
 20
162.450831181597
 30
0.0
 11
237.3605088645026
 21
162.1719870454124
 31
0.0
  0
LINE
  5
243
330
E3
100
AcDbEntity
  8
Des_ Furniture
  6
Continuous
100
AcDbLine
 10
237.3605088645026
 20
162.1719870454124
 30
0.0
 11
237.3507038421116
 21
161.8933134987832
 31
0.0
  0
LINE
  5
244
330
E3
100
AcDbEntity
  8
Des_ Furniture
  6
Continuous
100
AcDbLine
 10
237.3507038421116
 20
161.8933134987832
 30
0.0
 11
237.3443261189667
 21
161.6148221728152
 31
0.0
  0
LINE
  5
245
330
E3
100
AcDbEntity
  8
Des_ Furniture
  6
Continuous
100
AcDbLine
 10
237.3443261189667
 20
161.6148221728152
 30
0.0
 11
237.3415268994465
 21
161.3365169445438
 31
0.0
  0
LINE
  5
246
330
E3
100
AcDbEntity
  8
Des_ Furniture
  6
Continuous
100
AcDbLine
 10
237.3415268994465
 20
161.3365169445438
 30
0.0
 11
237.3424418797883
 21
161.0584055680398
 31
0.0
  0
LINE
  5
247
330
E3
100
AcDbEntity
  8
Des_ Furniture
  6
Continuous
100
AcDbLine
 10
237.3424418797883
 20
161.0584055680398
 30
0.0
 11
237.3471757399463
 21
160.7804919203384
 31
0.0
  0
LINE
  5
248
330
E3
100
AcDbEntity
  8
Des_ Furniture
  6
Continuous
100
AcDbLine
 10
237.3471757399463
 20
160.7804919203384
 30
0.0
 11
237.3557982665567
 21
160.5027876325457
 31
0.0
  0
LINE
  5
249
330
E3
100
AcDbEntity
  8
Des_ Furniture
  6
Continuous
100
AcDbLine
 10
237.3557982665567
 20
160.5027876325457
 30
0.0
 11
237.3683598610791
 21
160.2252849505911
 31
0.0
  0
LINE
  5
24A
330
E3
100
AcDbEntity
  8
Des_ Furniture
  6
Continuous
100
AcDbLine
 10
237.3683598610791
 20
160.2252849505911
 30
0.0
 11
237.3848760316548
 21
159.9479916285451
 31
0.0
  0
LINE
  5
24B
330
E3
100
AcDbEntity
  8
Des_ Furniture
  6
Continuous
100
AcDbLine
 10
238.9302933370166
 20
150.2934214711265
 30
0.0
 11
238.942854931539
 21
150.0159187891719
 31
0.0
  0
LINE
  5
24C
330
E3
100
AcDbEntity
  8
Des_ Furniture
  6
Continuous
100
AcDbLine
 10
238.942854931539
 20
150.0159187891719
 30
0.0
 11
238.9514813351848
 21
149.7382106243438
 31
0.0
  0
LINE
  5
24D
330
E3
100
AcDbEntity
  8
Des_ Furniture
  6
Continuous
100
AcDbLine
 10
238.9514813351848
 20
149.7382106243438
 30
0.0
 11
238.9562151953428
 21
149.4603008536778
 31
0.0
  0
LINE
  5
24E
330
E3
100
AcDbEntity
  8
Des_ Furniture
  6
Continuous
100
AcDbLine
 10
238.9562151953428
 20
149.4603008536778
 30
0.0
 11
238.9571301756845
 21
149.1821894771738
 31
0.0
  0
LINE
  5
24F
330
E3
100
AcDbEntity
  8
Des_ Furniture
  6
Continuous
100
AcDbLine
 10
238.9571301756845
 20
149.1821894771738
 30
0.0
 11
238.9543309561644
 21
148.9038842489024
 31
0.0
  0
LINE
  5
250
330
E3
100
AcDbEntity
  8
Des_ Furniture
  6
Continuous
100
AcDbLine
 10
238.9543309561644
 20
148.9038842489024
 30
0.0
 11
238.9479493559842
 21
148.6253890458991
 31
0.0
  0
LINE
  5
251
330
E3
100
AcDbEntity
  8
Des_ Furniture
  6
Continuous
100
AcDbLine
 10
238.9479493559842
 20
148.6253890458991
 30
0.0
 11
238.9381482106285
 21
148.3467193763051
 31
0.0
  0
LINE
  5
252
330
E3
100
AcDbEntity
  8
Des_ Furniture
  6
Continuous
100
AcDbLine
 10
238.9381482106285
 20
148.3467193763051
 30
0.0
 11
238.9251058637232
 21
148.0678752401207
 31
0.0
  0
LINE
  5
253
330
E3
100
AcDbEntity
  8
Des_ Furniture
  6
Continuous
100
AcDbLine
 10
238.9251058637232
 20
148.0678752401207
 30
0.0
 11
238.9090394292476
 21
147.7888760225223
 31
0.0
  0
LINE
  5
254
330
E3
100
AcDbEntity
  8
Des_ Furniture
  6
Continuous
100
AcDbLine
 10
238.9090394292476
 20
147.7888760225223
 30
0.0
 11
238.8901776522874
 21
147.5097256005454
 31
0.0
  0
LINE
  5
255
330
E3
100
AcDbEntity
  8
Des_ Furniture
  6
Continuous
100
AcDbLine
 10
238.8901776522874
 20
147.5097256005454
 30
0.0
 11
238.8687725401398
 21
147.2304472364021
 31
0.0
  0
LINE
  5
256
330
E3
100
AcDbEntity
  8
Des_ Furniture
  6
Continuous
100
AcDbLine
 10
238.8687725401398
 20
147.2304472364021
 30
0.0
 11
238.84510323935
 21
146.951048684163
 31
0.0
  0
LINE
  5
257
330
E3
100
AcDbEntity
  8
Des_ Furniture
  6
Continuous
100
AcDbLine
 10
238.84510323935
 20
146.951048684163
 30
0.0
 11
238.8194566505335
 21
146.6715454519696
 31
0.0
  0
LINE
  5
258
330
E3
100
AcDbEntity
  8
Des_ Furniture
  6
Continuous
100
AcDbLine
 10
238.8194566505335
 20
146.6715454519696
 30
0.0
 11
238.792142936518
 21
146.3919530479633
 31
0.0
  0
HATCH
  5
259
330
E3
100
AcDbEntity
  8
Des_ Furniture
  6
Continuous
 62
   255
370
     0
100
AcDbHatch
 10
0.0
 20
0.0
 30
0.0
210
0.0
220
0.0
230
1.0
  2
SOLID
 70
     1
 71
     0
 91
        1
 92
        3
 72
     0
 73
     1
 93
        8
 10
18.49613307478958
 20
41.94425249731437
 10
39.79997005236671
 20
41.94425249731437
 10
36.79593414102031
 20
99.26464279721998
 10
42.72615654143382
 20
100.5961450013997
 10
30.65637564076247
 20
101.9276524237189
 10
36.58659282303654
 20
103.259159846038
 10
33.58255691169015
 20
160.5795501459436
 10
18.49613307478958
 20
160.5795501459436
 97
        0
 75
     0
 76
     1
 98
        0
  0
LINE
  5
25A
330
E3
100
AcDbEntity
  8
Des_ Furniture
  6
Continuous
100
AcDbLine
 10
39.79996953161677
 20
41.94425249731437
 30
0.0
 11
36.7959378652638
 21
99.26464214060314
 31
0.0
  0
LINE
  5
25B
330
E3
100
AcDbEntity
  8
Des_ Furniture
  6
Continuous
100
AcDbLine
 10
36.58659346469903
 20
103.2591594120805
 30
0.0
 11
33.58255792131071
 21
160.5795490553693
 31
0.0
  0
LINE
  5
25C
330
E3
100
AcDbEntity
  8
Des_ Furniture
  6
Continuous
100
AcDbLine
 10
36.58659346469903
 20
103.2591594120805
 30
0.0
 11
30.6563732476783
 21
101.9276536549215
 31
0.0
  0
LINE
  5
25D
330
E3
100
AcDbEntity
  8
Des_ Furniture
  6
Continuous
100
AcDbLine
 10
30.6563732476783
 20
101.9276536549215
 30
0.0
 11
42.72615420524917
 21
100.5961478977624
 31
0.0
  0
LINE
  5
25E
330
E3
100
AcDbEntity
  8
Des_ Furniture
  6
Continuous
100
AcDbLine
 10
42.72615420524917
 20
100.5961478977624
 30
0.0
 11
36.7959378652638
 21
99.2646421406034
 31
0.0
  0
HATCH
  5
25F
330
E3
100
AcDbEntity
  8
Des_ Furniture
  6
Continuous
 62
   255
370
     0
100
AcDbHatch
 10
0.0
 20
0.0
 30
0.0
210
0.0
220
0.0
230
1.0
  2
SOLID
 70
     1
 71
     0
 91
        1
 92
        3
 72
     0
 73
     1
 93
        6
 10
49.02814034272804
 20
134.1825253539612
 10
55.25651622071019
 20
134.5089407022664
 10
55.37764179875968
 20
134.643464285114
 10
55.26543350857484
 20
136.7845260076278
 10
55.13090992572715
 20
136.9056515856772
 10
48.90253404774499
 20
136.5792362373722
 97
        0
 75
     0
 76
     1
 98
        0
  0
LINE
  5
260
330
E3
100
AcDbEntity
  8
Des_ Furniture
  6
Continuous
100
AcDbLine
 10
49.02813946460182
 20
134.18252515425
 30
0.0
 11
55.25651533086753
 21
134.508940514135
 31
0.0
  0
LINE
  5
261
330
E3
100
AcDbEntity
  8
Des_ Furniture
  6
Continuous
100
AcDbLine
 10
55.25651533086753
 20
134.508940514135
 30
0.0
 11
55.37764166916007
 21
134.6434658865847
 31
0.0
  0
LINE
  5
262
330
E3
100
AcDbEntity
  8
Des_ Furniture
  6
Continuous
100
AcDbLine
 10
55.37764166916007
 20
134.6434658865847
 30
0.0
 11
55.26543251216427
 21
136.784527640357
 31
0.0
  0
LINE
  5
263
330
E3
100
AcDbEntity
  8
Des_ Furniture
  6
Continuous
100
AcDbLine
 10
55.26543251216427
 20
136.784527640357
 30
0.0
 11
55.13091101674988
 21
136.9056501016142
 31
0.0
  0
LINE
  5
264
330
E3
100
AcDbEntity
  8
Des_ Furniture
  6
Continuous
100
AcDbLine
 10
55.13091101674988
 20
136.9056501016142
 30
0.0
 11
48.90253515048417
 21
136.5792347417292
 31
0.0
  0
LINE
  5
265
330
E3
100
AcDbEntity
  8
Des_ Furniture
  6
Continuous
100
AcDbLine
 10
48.90253515048417
 20
136.5792347417292
 30
0.0
 11
49.02813946460182
 21
134.18252515425
 31
0.0
  0
LINE
  5
266
330
E3
100
AcDbEntity
  8
Des_ Furniture
  6
Continuous
100
AcDbLine
 10
55.25651533086753
 20
134.508940514135
 30
0.0
 11
55.13091101674988
 21
136.9056501016142
 31
0.0
  0
LINE
  5
267
330
E3
100
AcDbEntity
  8
Des_ Furniture
  6
Continuous
100
AcDbLine
 10
49.39256527902299
 20
134.2016234303665
 30
0.0
 11
49.26695708787
 21
136.5983330178456
 31
0.0
  0
LINE
  5
268
330
E3
100
AcDbEntity
  8
Des_ Furniture
  6
Continuous
100
AcDbLine
 10
49.5136877402802
 20
134.3361488028162
 30
0.0
 11
49.40148246031973
 21
136.4772105565885
 31
0.0
  0
LINE
  5
269
330
E3
100
AcDbEntity
  8
Des_ Furniture
  6
Continuous
100
AcDbLine
 10
49.5136877402802
 20
134.3361488028162
 30
0.0
 11
49.39256527902299
 21
134.2016234303665
 31
0.0
  0
LINE
  5
26A
330
E3
100
AcDbEntity
  8
Des_ Furniture
  6
Continuous
100
AcDbLine
 10
49.40148246031973
 20
136.4772105565885
 30
0.0
 11
49.26695708787
 21
136.5983330178456
 31
0.0
  0
LINE
  5
26B
330
E3
100
AcDbEntity
  8
Des_ Furniture
  6
Continuous
100
AcDbLine
 10
49.5136877402802
 20
134.3361488028162
 30
0.0
 11
55.37764166916007
 21
134.6434658865847
 31
0.0
  0
LINE
  5
26C
330
E3
100
AcDbEntity
  8
Des_ Furniture
  6
Continuous
100
AcDbLine
 10
49.40148246031973
 20
136.4772105565885
 30
0.0
 11
55.26543251216427
 21
136.784527640357
 31
0.0
  0
HATCH
  5
26D
330
E3
100
AcDbEntity
  8
Des_ Furniture
  6
Continuous
 62
   255
370
     0
100
AcDbHatch
 10
0.0
 20
0.0
 30
0.0
210
0.0
220
0.0
230
1.0
  2
SOLID
 70
     1
 71
     0
 91
        1
 92
        3
 72
     0
 73
     1
 93
        4
 10
47.38580921135674
 20
136.8590862442227
 10
47.54897657485257
 20
133.7456674783819
 10
49.04692087698444
 20
133.8241714127463
 10
48.88375351348859
 20
136.9375901785872
 97
        0
 75
     0
 76
     1
 98
        0
  0
HATCH
  5
26E
330
E3
100
AcDbEntity
  8
Des_ Furniture
  6
Continuous
 62
   255
370
     0
100
AcDbHatch
 10
0.0
 20
0.0
 30
0.0
210
0.0
220
0.0
230
1.0
  2
SOLID
 70
     1
 71
     0
 91
        1
 92
        3
 72
     1
 73
     1
 93
        4
 10
47.66266115562804
 20
136.3532671056434
 42
0.2405626121623441
 10
47.77143939795858
 20
134.2776545950828
 42
0.0
 10
49.01972631640179
 20
134.3430745403864
 42
0.0
 10
48.91094807407123
 20
136.4186870509471
 42
0.0
 97
        0
 75
     0
 76
     1
 98
        0
  0
ARC
  5
26F
330
E3
100
AcDbEntity
  8
Des_ Furniture
  6
Continuous
100
AcDbCircle
 10
49.74926138001896
 20
135.4219645213175
 30
0.0
 40
2.285000000000112
100
AcDbArc
 50
155.9475818795675
 51
210.0524181204302
  0
LINE
  5
270
330
E3
100
AcDbEntity
  8
Des_ Furniture
  6
Continuous
100
AcDbLine
 10
47.77144110445177
 20
134.2776559705449
 30
0.0
 11
49.01972629790011
 21
134.3430731879449
 31
0.0
  0
LINE
  5
271
330
E3
100
AcDbEntity
  8
Des_ Furniture
  6
Continuous
100
AcDbLine
 10
49.01972629790011
 20
134.3430731879449
 30
0.0
 11
48.91094831718588
 21
136.4186867080344
 31
0.0
  0
LINE
  5
272
330
E3
100
AcDbEntity
  8
Des_ Furniture
  6
Continuous
100
AcDbLine
 10
48.91094831718588
 20
136.4186867080344
 30
0.0
 11
47.66265924670219
 21
136.3532656135991
 31
0.0
  0
HATCH
  5
273
330
E3
100
AcDbEntity
  8
Des_ Furniture
  6
Continuous
 62
   255
370
     0
100
AcDbHatch
 10
0.0
 20
0.0
 30
0.0
210
0.0
220
0.0
230
1.0
  2
SOLID
 70
     1
 71
     0
 91
        1
 92
        3
 72
     1
 73
     1
 93
        4
 10
47.60827203446274
 20
137.3910733609236
 42
0.4811252243246882
 10
47.66266115562804
 20
136.3532671056434
 42
0.0
 10
48.91094807407123
 20
136.4186870509471
 42
0.0
 10
48.85655895290594
 20
137.4564933062273
 42
0.0
 97
        0
 75
     0
 76
     1
 98
        0
  0
ARC
  5
274
330
E3
100
AcDbEntity
  8
Des_ Furniture
  6
Continuous
100
AcDbCircle
 10
48.04989785196849
 20
136.8938896551243
 30
0.0
 40
0.66499999999993
100
AcDbArc
 50
131.6132381910028
 51
234.3867618089973
  0
LINE
  5
275
330
E3
100
AcDbEntity
  8
Des_ Furniture
  6
Continuous
100
AcDbLine
 10
47.66265924670219
 20
136.3532656135991
 30
0.0
 11
48.91094831718588
 21
136.4186867080344
 31
0.0
  0
LINE
  5
276
330
E3
100
AcDbEntity
  8
Des_ Furniture
  6
Continuous
100
AcDbLine
 10
48.91094831718588
 20
136.4186867080344
 30
0.0
 11
48.85655738831109
 21
137.4564915295615
 31
0.0
  0
LINE
  5
277
330
E3
100
AcDbEntity
  8
Des_ Furniture
  6
Continuous
100
AcDbLine
 10
48.85655738831109
 20
137.4564915295615
 30
0.0
 11
47.60827219486274
 21
137.3910743121615
 31
0.0
  0
HATCH
  5
278
330
E3
100
AcDbEntity
  8
Des_ Furniture
  6
Continuous
 62
   255
370
     0
100
AcDbHatch
 10
0.0
 20
0.0
 30
0.0
210
0.0
220
0.0
230
1.0
  2
SOLID
 70
     1
 71
     0
 91
        1
 92
        3
 72
     1
 73
     1
 93
        4
 10
47.82582851912384
 20
133.2398483398025
 42
0.0
 10
49.07411543756708
 20
133.3052682851063
 42
0.0
 10
49.01972631640179
 20
134.3430745403864
 42
0.0
 10
47.77143939795858
 20
134.2776545950828
 42
0.4811252243246882
 97
        0
 75
     0
 76
     1
 98
        0
  0
LINE
  5
279
330
E3
100
AcDbEntity
  8
Des_ Furniture
  6
Continuous
100
AcDbLine
 10
49.0741172267749
 20
133.3052683664178
 30
0.0
 11
47.82582815629121
 21
133.2398472719825
 31
0.0
  0
LINE
  5
27A
330
E3
100
AcDbEntity
  8
Des_ Furniture
  6
Continuous
100
AcDbLine
 10
49.01972629790011
 20
134.3430731879449
 30
0.0
 11
49.0741172267749
 21
133.3052683664178
 31
0.0
  0
LINE
  5
27B
330
E3
100
AcDbEntity
  8
Des_ Furniture
  6
Continuous
100
AcDbLine
 10
47.77144110445177
 20
134.2776559705449
 30
0.0
 11
49.01972629790011
 21
134.3430731879449
 31
0.0
  0
ARC
  5
27C
330
E3
100
AcDbEntity
  8
Des_ Furniture
  6
Continuous
100
AcDbCircle
 10
48.21306521546436
 20
133.7804708892835
 30
0.0
 40
0.6649999999999946
100
AcDbArc
 50
131.6132381910018
 51
234.3867618089956
  0
HATCH
  5
27D
330
E3
100
AcDbEntity
  8
Des_ Furniture
  6
Continuous
 62
   255
370
     0
100
AcDbHatch
 10
0.0
 20
0.0
 30
0.0
210
0.0
220
0.0
230
1.0
  2
SOLID
 70
     1
 71
     0
 91
        1
 92
        3
 72
     0
 73
     1
 93
        4
 10
51.96444909792433
 20
137.0990425928145
 10
52.12761646142017
 20
133.9856238269738
 10
54.20476589370968
 20
134.0944826159589
 10
54.04159853021385
 20
137.2079013817998
 97
        0
 75
     0
 76
     1
 98
        0
  0
HATCH
  5
27E
330
E3
100
AcDbEntity
  8
Des_ Furniture
  6
Continuous
 62
   255
370
     0
100
AcDbHatch
 10
0.0
 20
0.0
 30
0.0
210
0.0
220
0.0
230
1.0
  2
SOLID
 70
     1
 71
     0
 91
        1
 92
        3
 72
     1
 73
     1
 93
        4
 10
52.33783523055523
 20
136.5982825966719
 42
0.3335801555317839
 10
52.44661347288579
 20
134.5226700861113
 42
0.0
 10
53.83137976107879
 20
134.5952426121017
 42
0.3335801555317839
 10
53.72260151874823
 20
136.6708551226621
 42
0.0
 97
        0
 75
     0
 76
     1
 98
        0
  0
ARC
  5
27F
330
E3
100
AcDbEntity
  8
Des_ Furniture
  6
Continuous
100
AcDbCircle
 10
53.774686110218
 20
135.6329280920982
 30
0.0
 40
1.731025641025718
100
AcDbArc
 50
146.1046488728492
 51
219.8953511271503
  0
LINE
  5
280
330
E3
100
AcDbEntity
  8
Des_ Furniture
  6
Continuous
100
AcDbLine
 10
52.44661457838001
 20
134.5226690962967
 30
0.0
 11
53.83137917009268
 21
134.5952433209461
 31
0.0
  0
ARC
  5
281
330
E3
100
AcDbEntity
  8
Des_ Furniture
  6
Continuous
100
AcDbCircle
 10
52.39452888141617
 20
135.5605971166753
 30
0.0
 40
1.731025641025535
100
AcDbArc
 50
326.1046488728496
 51
39.89535112715065
  0
LINE
  5
282
330
E3
100
AcDbEntity
  8
Des_ Furniture
  6
Continuous
100
AcDbLine
 10
53.72260118937844
 20
136.6708568410356
 30
0.0
 11
52.33783659766577
 21
136.5982826163861
 31
0.0
  0
HATCH
  5
283
330
E3
100
AcDbEntity
  8
Des_ Furniture
  6
Continuous
 62
   255
370
     0
100
AcDbHatch
 10
0.0
 20
0.0
 30
0.0
210
0.0
220
0.0
230
1.0
  2
SOLID
 70
     1
 71
     0
 91
        1
 92
        3
 72
     1
 73
     1
 93
        4
 10
52.28344610938996
 20
137.6360888519522
 42
0.6671603110635675
 10
52.33783523055523
 20
136.5982825966719
 42
0.0
 10
53.72260151874823
 20
136.6708551226621
 42
0.6671603110635675
 10
53.66821239758296
 20
137.7086613779423
 42
0.0
 97
        0
 75
     0
 76
     1
 98
        0
  0
ARC
  5
284
330
E3
100
AcDbEntity
  8
Des_ Furniture
  6
Continuous
100
AcDbCircle
 10
52.52643427007885
 20
137.1284949876772
 30
0.0
 40
0.5627564102564016
100
AcDbArc
 50
115.5807117678011
 51
250.4192882321981
  0
LINE
  5
285
330
E3
100
AcDbEntity
  8
Des_ Furniture
  6
Continuous
100
AcDbLine
 10
52.33783659766577
 20
136.5982826163861
 30
0.0
 11
53.72260118937844
 21
136.6708568410356
 31
0.0
  0
ARC
  5
286
330
E3
100
AcDbEntity
  8
Des_ Furniture
  6
Continuous
100
AcDbCircle
 10
53.47961335805933
 20
137.1784489869372
 30
0.0
 40
0.5627564102564016
100
AcDbArc
 50
295.5807117678011
 51
70.41928823219803
  0
LINE
  5
287
330
E3
100
AcDbEntity
  8
Des_ Furniture
  6
Continuous
100
AcDbLine
 10
53.66821413753901
 20
137.7086616625627
 30
0.0
 11
52.28344566879099
 21
137.6360874379132
 31
0.0
  0
HATCH
  5
288
330
E3
100
AcDbEntity
  8
Des_ Furniture
  6
Continuous
 62
   255
370
     0
100
AcDbHatch
 10
0.0
 20
0.0
 30
0.0
210
0.0
220
0.0
230
1.0
  2
SOLID
 70
     1
 71
     0
 91
        1
 92
        3
 72
     1
 73
     1
 93
        4
 10
52.50100259405107
 20
133.484863830831
 42
0.0
 10
53.88576888224407
 20
133.5574363568213
 42
0.6671603110635675
 10
53.83137976107879
 20
134.5952426121017
 42
0.0
 10
52.44661347288579
 20
134.5226700861113
 42
0.6671603110635675
 97
        0
 75
     0
 76
     1
 98
        0
  0
LINE
  5
289
330
E3
100
AcDbEntity
  8
Des_ Furniture
  6
Continuous
100
AcDbLine
 10
53.88577009896746
 20
133.5574346223837
 30
0.0
 11
52.50100163021945
 21
133.4848642747695
 31
0.0
  0
ARC
  5
28A
330
E3
100
AcDbEntity
  8
Des_ Furniture
  6
Continuous
100
AcDbCircle
 10
53.64278072155515
 20
134.0650302210964
 30
0.0
 40
0.5627564102564605
100
AcDbArc
 50
295.5807117678006
 51
70.41928823219793
  0
LINE
  5
28B
330
E3
100
AcDbEntity
  8
Des_ Furniture
  6
Continuous
100
AcDbLine
 10
52.44661457838001
 20
134.5226690962967
 30
0.0
 11
53.83137917009268
 21
134.5952433209461
 31
0.0
  0
ARC
  5
28C
330
E3
100
AcDbEntity
  8
Des_ Furniture
  6
Continuous
100
AcDbCircle
 10
52.68960163357469
 20
134.0150762218362
 30
0.0
 40
0.5627564102564016
100
AcDbArc
 50
115.5807117678011
 51
250.4192882321981
  0
HATCH
  5
28D
330
E3
100
AcDbEntity
  8
Des_ Furniture
  6
Continuous
 62
   255
370
     0
100
AcDbHatch
 10
0.0
 20
0.0
 30
0.0
210
0.0
220
0.0
230
1.0
  2
SOLID
 70
     1
 71
     0
 91
        1
 92
        3
 72
     0
 73
     1
 93
        4
 10
49.49562889974568
 20
132.9052413412774
 10
49.233949118531
 20
137.8983890150504
 10
48.83449730462919
 20
137.8774546325532
 10
49.09617708584383
 20
132.8843069587803
 97
        0
 75
     0
 76
     1
 98
        0
  0
LINE
  5
28E
330
E3
100
AcDbEntity
  8
Des_ Furniture
  6
Continuous
100
AcDbLine
 10
49.49562850963661
 20
132.9052397364106
 30
0.0
 11
49.23394800893066
 21
137.8983882642746
 31
0.0
  0
LINE
  5
28F
330
E3
100
AcDbEntity
  8
Des_ Furniture
  6
Continuous
100
AcDbLine
 10
49.23394800893066
 20
137.8983882642746
 30
0.0
 11
48.83449705719002
 21
137.8774561504393
 31
0.0
  0
LINE
  5
290
330
E3
100
AcDbEntity
  8
Des_ Furniture
  6
Continuous
100
AcDbLine
 10
48.83449705719002
 20
137.8774561504393
 30
0.0
 11
49.09617755789597
 21
132.8843076225753
 31
0.0
  0
LINE
  5
291
330
E3
100
AcDbEntity
  8
Des_ Furniture
  6
Continuous
100
AcDbLine
 10
49.09617755789597
 20
132.8843076225753
 30
0.0
 11
49.49562850963661
 21
132.9052397364106
 31
0.0
  0
HATCH
  5
292
330
E3
100
AcDbEntity
  8
Des_ Furniture
  6
Continuous
 62
   255
370
     0
100
AcDbHatch
 10
0.0
 20
0.0
 30
0.0
210
0.0
220
0.0
230
1.0
  2
SOLID
 70
     1
 71
     0
 91
        1
 92
        3
 72
     0
 73
     1
 93
        4
 10
51.77742085637775
 20
133.0248249905105
 10
52.17687267027958
 20
133.0457593730078
 10
51.91519288906492
 20
138.0389070467805
 10
51.51574107516308
 20
138.0179726642833
 97
        0
 75
     0
 76
     1
 98
        0
  0
LINE
  5
293
330
E3
100
AcDbEntity
  8
Des_ Furniture
  6
Continuous
100
AcDbLine
 10
51.77742276944822
 20
133.0248268916706
 30
0.0
 11
52.17687372118886
 21
133.0457590055058
 31
0.0
  0
LINE
  5
294
330
E3
100
AcDbEntity
  8
Des_ Furniture
  6
Continuous
100
AcDbLine
 10
52.17687372118886
 20
133.0457590055058
 30
0.0
 11
51.91519322048291
 21
138.0389075333699
 31
0.0
  0
LINE
  5
295
330
E3
100
AcDbEntity
  8
Des_ Furniture
  6
Continuous
100
AcDbLine
 10
51.91519322048291
 20
138.0389075333699
 30
0.0
 11
51.51574226874227
 21
138.0179715424993
 31
0.0
  0
LINE
  5
296
330
E3
100
AcDbEntity
  8
Des_ Furniture
  6
Continuous
100
AcDbLine
 10
51.51574226874227
 20
138.0179715424993
 30
0.0
 11
51.77742276944822
 21
133.0248268916706
 31
0.0
  0
LINE
  5
297
330
E3
100
AcDbEntity
  8
Des_ Furniture
  6
Continuous
100
AcDbLine
 10
47.38580790668573
 20
136.8590869071038
 30
0.0
 11
47.54897681627475
 21
133.7456685654872
 31
0.0
  0
LINE
  5
298
330
E3
100
AcDbEntity
  8
Des_ Furniture
  6
Continuous
100
AcDbLine
 10
49.04691982381983
 20
133.8241707771813
 30
0.0
 11
48.88375479126616
 21
136.9375891187979
 31
0.0
  0
LINE
  5
299
330
E3
100
AcDbEntity
  8
Des_ Furniture
  6
Continuous
100
AcDbLine
 10
51.96445095455905
 20
137.0990443787639
 30
0.0
 11
52.12761598711272
 21
133.9856221601119
 31
0.0
  0
LINE
  5
29A
330
E3
100
AcDbEntity
  8
Des_ Furniture
  6
Continuous
100
AcDbLine
 10
54.2047648131994
 20
134.0944815585684
 30
0.0
 11
54.04159978064574
 21
137.207899900185
 31
0.0
  0
LINE
  5
29C
330
E3
100
AcDbEntity
  8
Des_ Furniture
  6
Dot & Dashed
100
AcDbLine
 10
45.76972387806484
 20
135.2134055906484
 30
0.0
 11
56.91934477466009
 21
135.7977329728826
 31
0.0
  0
HATCH
  5
29D
330
E3
100
AcDbEntity
  8
Des_ Furniture
  6
Continuous
 62
   255
370
     0
100
AcDbHatch
 10
0.0
 20
0.0
 30
0.0
210
0.0
220
0.0
230
1.0
  2
SOLID
 70
     1
 71
     0
 91
        1
 92
        3
 72
     0
 73
     1
 93
        6
 10
50.42261906389821
 20
108.4326531538872
 10
56.65099494188038
 20
108.7590685021924
 10
56.77212051992986
 20
108.8935920850399
 10
56.65991222974501
 20
111.0346538075537
 10
56.52538864689734
 20
111.1557793856033
 10
50.29701276891517
 20
110.8293640372983
 97
        0
 75
     0
 76
     1
 98
        0
  0
LINE
  5
29E
330
E3
100
AcDbEntity
  8
Des_ Furniture
  6
Continuous
100
AcDbLine
 10
50.4226199068926
 20
108.4326521161182
 30
0.0
 11
56.65099577315831
 21
108.7590674760032
 31
0.0
  0
LINE
  5
29F
330
E3
100
AcDbEntity
  8
Des_ Furniture
  6
Continuous
100
AcDbLine
 10
56.65099577315831
 20
108.7590674760032
 30
0.0
 11
56.77212211145086
 21
108.8935928484529
 31
0.0
  0
LINE
  5
2A0
330
E3
100
AcDbEntity
  8
Des_ Furniture
  6
Continuous
100
AcDbLine
 10
56.77212211145086
 20
108.8935928484529
 30
0.0
 11
56.65991295445505
 21
111.0346546022252
 31
0.0
  0
LINE
  5
2A1
330
E3
100
AcDbEntity
  8
Des_ Furniture
  6
Continuous
100
AcDbLine
 10
56.65991295445505
 20
111.0346546022252
 30
0.0
 11
56.52538758200531
 21
111.1557809405177
 31
0.0
  0
LINE
  5
2A2
330
E3
100
AcDbEntity
  8
Des_ Furniture
  6
Continuous
100
AcDbLine
 10
56.52538758200531
 20
111.1557809405177
 30
0.0
 11
50.2970117157396
 21
110.8293655806328
 31
0.0
  0
LINE
  5
2A3
330
E3
100
AcDbEntity
  8
Des_ Furniture
  6
Continuous
100
AcDbLine
 10
50.2970117157396
 20
110.8293655806328
 30
0.0
 11
50.4226199068926
 21
108.4326521161182
 31
0.0
  0
LINE
  5
2A4
330
E3
100
AcDbEntity
  8
Des_ Furniture
  6
Continuous
100
AcDbLine
 10
56.65099577315831
 20
108.7590674760032
 30
0.0
 11
56.52538758200531
 21
111.1557809405177
 31
0.0
  0
LINE
  5
2A5
330
E3
100
AcDbEntity
  8
Des_ Furniture
  6
Continuous
100
AcDbLine
 10
50.78704184427843
 20
108.4517503922346
 30
0.0
 11
50.66143753016078
 21
110.8484638567492
 31
0.0
  0
LINE
  5
2A6
330
E3
100
AcDbEntity
  8
Des_ Furniture
  6
Continuous
100
AcDbLine
 10
50.90816818257098
 20
108.5862757646844
 30
0.0
 11
50.79595902557517
 21
110.7273375184566
 31
0.0
  0
LINE
  5
2A7
330
E3
100
AcDbEntity
  8
Des_ Furniture
  6
Continuous
100
AcDbLine
 10
50.90816818257098
 20
108.5862757646844
 30
0.0
 11
50.78704184427843
 21
108.4517503922346
 31
0.0
  0
LINE
  5
2A8
330
E3
100
AcDbEntity
  8
Des_ Furniture
  6
Continuous
100
AcDbLine
 10
50.79595902557517
 20
110.7273375184566
 30
0.0
 11
50.66143753016078
 21
110.8484638567492
 31
0.0
  0
LINE
  5
2A9
330
E3
100
AcDbEntity
  8
Des_ Furniture
  6
Continuous
100
AcDbLine
 10
50.90816818257098
 20
108.5862757646844
 30
0.0
 11
56.77212211145086
 21
108.8935928484529
 31
0.0
  0
LINE
  5
2AA
330
E3
100
AcDbEntity
  8
Des_ Furniture
  6
Continuous
100
AcDbLine
 10
50.79595902557517
 20
110.7273375184566
 30
0.0
 11
56.65991295445505
 21
111.0346546022252
 31
0.0
  0
HATCH
  5
2AB
330
E3
100
AcDbEntity
  8
Des_ Furniture
  6
Continuous
 62
   255
370
     0
100
AcDbHatch
 10
0.0
 20
0.0
 30
0.0
210
0.0
220
0.0
230
1.0
  2
SOLID
 70
     1
 71
     0
 91
        1
 92
        3
 72
     0
 73
     1
 93
        4
 10
48.78028793252691
 20
111.1092140441486
 10
48.94345529602276
 20
107.9957952783079
 10
50.4413995981546
 20
108.0742992126723
 10
50.27823223465877
 20
111.1877179785132
 97
        0
 75
     0
 76
     1
 98
        0
  0
HATCH
  5
2AC
330
E3
100
AcDbEntity
  8
Des_ Furniture
  6
Continuous
 62
   255
370
     0
100
AcDbHatch
 10
0.0
 20
0.0
 30
0.0
210
0.0
220
0.0
230
1.0
  2
SOLID
 70
     1
 71
     0
 91
        1
 92
        3
 72
     1
 73
     1
 93
        4
 10
49.0571398767982
 20
110.6033949055695
 42
0.2405626121623441
 10
49.16591811912877
 20
108.5277823950088
 42
0.0
 10
50.41420503757196
 20
108.5932023403124
 42
0.0
 10
50.30542679524142
 20
110.6688148508731
 42
0.0
 97
        0
 75
     0
 76
     1
 98
        0
  0
ARC
  5
2AD
330
E3
100
AcDbEntity
  8
Des_ Furniture
  6
Continuous
100
AcDbCircle
 10
51.14374010118914
 20
109.6720923212435
 30
0.0
 40
2.285000000000108
100
AcDbArc
 50
155.9475818795682
 51
210.052418120431
  0
LINE
  5
2AE
330
E3
100
AcDbEntity
  8
Des_ Furniture
  6
Continuous
100
AcDbLine
 10
49.1659176697072
 20
108.5277829324131
 30
0.0
 11
50.41420674019089
 21
108.5932040268484
 31
0.0
  0
LINE
  5
2AF
330
E3
100
AcDbEntity
  8
Des_ Furniture
  6
Continuous
100
AcDbLine
 10
50.41420674019089
 20
108.5932040268484
 30
0.0
 11
50.30542488244131
 21
110.6688136699026
 31
0.0
  0
LINE
  5
2B0
330
E3
100
AcDbEntity
  8
Des_ Furniture
  6
Continuous
100
AcDbLine
 10
50.30542488244131
 20
110.6688136699026
 30
0.0
 11
49.05713968899298
 21
110.6033964525026
 31
0.0
  0
HATCH
  5
2B1
330
E3
100
AcDbEntity
  8
Des_ Furniture
  6
Continuous
 62
   255
370
     0
100
AcDbHatch
 10
0.0
 20
0.0
 30
0.0
210
0.0
220
0.0
230
1.0
  2
SOLID
 70
     1
 71
     0
 91
        1
 92
        3
 72
     1
 73
     1
 93
        4
 10
49.00275075563292
 20
111.6412011608495
 42
0.4811252243246882
 10
49.0571398767982
 20
110.6033949055695
 42
0.0
 10
50.30542679524142
 20
110.6688148508731
 42
0.0
 10
50.25103767407614
 20
111.7066211061534
 42
0.0
 97
        0
 75
     0
 76
     1
 98
        0
  0
ARC
  5
2B2
330
E3
100
AcDbEntity
  8
Des_ Furniture
  6
Continuous
100
AcDbCircle
 10
49.44437657313862
 20
111.1440174550503
 30
0.0
 40
0.6649999999998609
100
AcDbArc
 50
131.6132381910033
 51
234.3867618089973
  0
LINE
  5
2B3
330
E3
100
AcDbEntity
  8
Des_ Furniture
  6
Continuous
100
AcDbLine
 10
49.05713968899298
 20
110.6033964525026
 30
0.0
 11
50.30542488244131
 21
110.6688136699026
 31
0.0
  0
LINE
  5
2B4
330
E3
100
AcDbEntity
  8
Des_ Furniture
  6
Continuous
100
AcDbLine
 10
50.30542488244131
 20
110.6688136699026
 30
0.0
 11
50.25103783060187
 21
111.706622368465
 31
0.0
  0
LINE
  5
2B5
330
E3
100
AcDbEntity
  8
Des_ Furniture
  6
Continuous
100
AcDbLine
 10
50.25103783060187
 20
111.706622368465
 30
0.0
 11
49.00275263715352
 21
111.6412012740297
 31
0.0
  0
HATCH
  5
2B6
330
E3
100
AcDbEntity
  8
Des_ Furniture
  6
Continuous
 62
   255
370
     0
100
AcDbHatch
 10
0.0
 20
0.0
 30
0.0
210
0.0
220
0.0
230
1.0
  2
SOLID
 70
     1
 71
     0
 91
        1
 92
        3
 72
     1
 73
     1
 93
        4
 10
49.22030724029403
 20
107.4899761397284
 42
0.0
 10
50.46859415873725
 20
107.5553960850323
 42
0.0
 10
50.41420503757196
 20
108.5932023403124
 42
0.0
 10
49.16591811912877
 20
108.5277823950088
 42
0.4811252243246882
 97
        0
 75
     0
 76
     1
 98
        0
  0
LINE
  5
2B7
330
E3
100
AcDbEntity
  8
Des_ Furniture
  6
Continuous
100
AcDbLine
 10
50.46859379203033
 20
107.555395328286
 30
0.0
 11
49.22030859858199
 21
107.4899742338506
 31
0.0
  0
LINE
  5
2B8
330
E3
100
AcDbEntity
  8
Des_ Furniture
  6
Continuous
100
AcDbLine
 10
50.41420674019089
 20
108.5932040268484
 30
0.0
 11
50.46859379203033
 21
107.555395328286
 31
0.0
  0
LINE
  5
2B9
330
E3
100
AcDbEntity
  8
Des_ Furniture
  6
Continuous
100
AcDbLine
 10
49.1659176697072
 20
108.5277829324131
 30
0.0
 11
50.41420674019089
 21
108.5932040268484
 31
0.0
  0
ARC
  5
2BA
330
E3
100
AcDbEntity
  8
Des_ Furniture
  6
Continuous
100
AcDbCircle
 10
49.60754393663458
 20
108.0305986892094
 30
0.0
 40
0.6650000000000638
100
AcDbArc
 50
131.6132381910013
 51
234.3867618089955
  0
HATCH
  5
2BB
330
E3
100
AcDbEntity
  8
Des_ Furniture
  6
Continuous
 62
   255
370
     0
100
AcDbHatch
 10
0.0
 20
0.0
 30
0.0
210
0.0
220
0.0
230
1.0
  2
SOLID
 70
     1
 71
     0
 91
        1
 92
        3
 72
     0
 73
     1
 93
        4
 10
53.35892781909452
 20
111.3491703927405
 10
53.52209518259035
 20
108.2357516268997
 10
55.59924461487986
 20
108.3446104158848
 10
55.43607725138403
 20
111.4580291817259
 97
        0
 75
     0
 76
     1
 98
        0
  0
HATCH
  5
2BC
330
E3
100
AcDbEntity
  8
Des_ Furniture
  6
Continuous
 62
   255
370
     0
100
AcDbHatch
 10
0.0
 20
0.0
 30
0.0
210
0.0
220
0.0
230
1.0
  2
SOLID
 70
     1
 71
     0
 91
        1
 92
        3
 72
     1
 73
     1
 93
        4
 10
53.73231395172541
 20
110.848410396598
 42
0.3335801555317839
 10
53.84109219405596
 20
108.7727978860373
 42
0.0
 10
55.22585848224897
 20
108.8453704120276
 42
0.3335801555317839
 10
55.11708023991842
 20
110.920982922588
 42
0.0
 97
        0
 75
     0
 76
     1
 98
        0
  0
ARC
  5
2BD
330
E3
100
AcDbEntity
  8
Des_ Furniture
  6
Continuous
100
AcDbCircle
 10
55.16916483138817
 20
109.8830558920242
 30
0.0
 40
1.731025641025727
100
AcDbArc
 50
146.1046488728483
 51
219.8953511271495
  0
LINE
  5
2BE
330
E3
100
AcDbEntity
  8
Des_ Furniture
  6
Continuous
100
AcDbLine
 10
53.84109114363544
 20
108.7727960581648
 30
0.0
 11
55.22585961238347
 21
108.8453702828143
 31
0.0
  0
ARC
  5
2BF
330
E3
100
AcDbEntity
  8
Des_ Furniture
  6
Continuous
100
AcDbCircle
 10
53.78900760258635
 20
109.8107249166012
 30
0.0
 40
1.731025641025544
100
AcDbArc
 50
326.1046488728487
 51
39.8953511271498
  0
LINE
  5
2C0
330
E3
100
AcDbEntity
  8
Des_ Furniture
  6
Continuous
100
AcDbLine
 10
55.11708163166923
 20
110.9209838029038
 30
0.0
 11
53.73231316292121
 21
110.8484095782543
 31
0.0
  0
HATCH
  5
2C1
330
E3
100
AcDbEntity
  8
Des_ Furniture
  6
Continuous
 62
   255
370
     0
100
AcDbHatch
 10
0.0
 20
0.0
 30
0.0
210
0.0
220
0.0
230
1.0
  2
SOLID
 70
     1
 71
     0
 91
        1
 92
        3
 72
     1
 73
     1
 93
        4
 10
53.67792483056014
 20
111.8862166518783
 42
0.6671603110635675
 10
53.73231395172541
 20
110.848410396598
 42
0.0
 10
55.11708023991842
 20
110.920982922588
 42
0.6671603110635675
 10
55.06269111875314
 20
111.9587891778684
 42
0.0
 97
        0
 75
     0
 76
     1
 98
        0
  0
ARC
  5
2C2
330
E3
100
AcDbEntity
  8
Des_ Furniture
  6
Continuous
100
AcDbCircle
 10
53.92091299124903
 20
111.3786227876032
 30
0.0
 40
0.562756410256414
100
AcDbArc
 50
115.5807117678005
 51
250.4192882321975
  0
LINE
  5
2C3
330
E3
100
AcDbEntity
  8
Des_ Furniture
  6
Continuous
100
AcDbLine
 10
53.73231316292121
 20
110.8484095782543
 30
0.0
 11
55.11708163166923
 21
110.9209838029038
 31
0.0
  0
ARC
  5
2C4
330
E3
100
AcDbEntity
  8
Des_ Furniture
  6
Continuous
100
AcDbCircle
 10
54.8740920792295
 20
111.4285767868631
 30
0.0
 40
0.562756410256473
100
AcDbArc
 50
295.5807117677999
 51
70.41928823219746
  0
LINE
  5
2C5
330
E3
100
AcDbEntity
  8
Des_ Furniture
  6
Continuous
100
AcDbLine
 10
55.06269070279444
 20
111.9587886244309
 30
0.0
 11
53.67792611108176
 21
111.8862182768167
 31
0.0
  0
HATCH
  5
2C6
330
E3
100
AcDbEntity
  8
Des_ Furniture
  6
Continuous
 62
   255
370
     0
100
AcDbHatch
 10
0.0
 20
0.0
 30
0.0
210
0.0
220
0.0
230
1.0
  2
SOLID
 70
     1
 71
     0
 91
        1
 92
        3
 72
     1
 73
     1
 93
        4
 10
53.89548131522123
 20
107.734991630757
 42
0.0
 10
55.28024760341424
 20
107.8075641567473
 42
0.6671603110635675
 10
55.22585848224897
 20
108.8453704120276
 42
0.0
 10
53.84109219405596
 20
108.7727978860373
 42
0.6671603110635675
 97
        0
 75
     0
 76
     1
 98
        0
  0
LINE
  5
2C7
330
E3
100
AcDbEntity
  8
Des_ Furniture
  6
Continuous
100
AcDbLine
 10
55.2802466642229
 20
107.8075654612872
 30
0.0
 11
53.89548207251022
 21
107.7349912366377
 31
0.0
  0
ARC
  5
2C8
330
E3
100
AcDbEntity
  8
Des_ Furniture
  6
Continuous
100
AcDbCircle
 10
55.03725944272534
 20
108.3151580210224
 30
0.0
 40
0.562756410256414
100
AcDbArc
 50
295.5807117678005
 51
70.41928823219756
  0
LINE
  5
2C9
330
E3
100
AcDbEntity
  8
Des_ Furniture
  6
Continuous
100
AcDbLine
 10
53.84109114363544
 20
108.7727960581648
 30
0.0
 11
55.22585961238347
 21
108.8453702828143
 31
0.0
  0
ARC
  5
2CA
330
E3
100
AcDbEntity
  8
Des_ Furniture
  6
Continuous
100
AcDbCircle
 10
54.08408035474488
 20
108.2652040217622
 30
0.0
 40
0.562756410256473
100
AcDbArc
 50
115.5807117678
 51
250.4192882321974
  0
HATCH
  5
2CB
330
E3
100
AcDbEntity
  8
Des_ Furniture
  6
Continuous
 62
   255
370
     0
100
AcDbHatch
 10
0.0
 20
0.0
 30
0.0
210
0.0
220
0.0
230
1.0
  2
SOLID
 70
     1
 71
     0
 91
        1
 92
        3
 72
     0
 73
     1
 93
        4
 10
50.89010762091586
 20
107.1553691412035
 10
50.62842783970119
 20
112.1485168149764
 10
50.22897602579935
 20
112.1275824324792
 10
50.49065580701404
 20
107.1344347587063
 97
        0
 75
     0
 76
     1
 98
        0
  0
LINE
  5
2CC
330
E3
100
AcDbEntity
  8
Des_ Furniture
  6
Continuous
100
AcDbLine
 10
50.8901089519274
 20
107.1553705753141
 30
0.0
 11
50.62842845122144
 21
112.1485152261428
 31
0.0
  0
LINE
  5
2CD
330
E3
100
AcDbEntity
  8
Des_ Furniture
  6
Continuous
100
AcDbLine
 10
50.62842845122144
 20
112.1485152261428
 30
0.0
 11
50.2289774994808
 21
112.1275831123075
 31
0.0
  0
LINE
  5
2CE
330
E3
100
AcDbEntity
  8
Des_ Furniture
  6
Continuous
100
AcDbLine
 10
50.2289774994808
 20
112.1275831123075
 30
0.0
 11
50.49065412315141
 21
107.1344345844435
 31
0.0
  0
LINE
  5
2CF
330
E3
100
AcDbEntity
  8
Des_ Furniture
  6
Continuous
100
AcDbLine
 10
50.49065412315141
 20
107.1344345844435
 30
0.0
 11
50.8901089519274
 21
107.1553705753141
 31
0.0
  0
HATCH
  5
2D0
330
E3
100
AcDbEntity
  8
Des_ Furniture
  6
Continuous
 62
   255
370
     0
100
AcDbHatch
 10
0.0
 20
0.0
 30
0.0
210
0.0
220
0.0
230
1.0
  2
SOLID
 70
     1
 71
     0
 91
        1
 92
        3
 72
     0
 73
     1
 93
        4
 10
53.17189957754793
 20
107.2749527904365
 10
53.57135139144977
 20
107.2958871729337
 10
53.3096716102351
 20
112.2890348467065
 10
52.91021979633327
 20
112.2681004642093
 97
        0
 75
     0
 76
     1
 98
        0
  0
LINE
  5
2D1
330
E3
100
AcDbEntity
  8
Des_ Furniture
  6
Continuous
100
AcDbLine
 10
53.17189933470365
 20
107.2749538535387
 30
0.0
 11
53.57135028644429
 21
107.295885967374
 31
0.0
  0
LINE
  5
2D2
330
E3
100
AcDbEntity
  8
Des_ Furniture
  6
Continuous
100
AcDbLine
 10
53.57135028644429
 20
107.295885967374
 30
0.0
 11
53.30966978573833
 21
112.2890344952381
 31
0.0
  0
LINE
  5
2D3
330
E3
100
AcDbEntity
  8
Des_ Furniture
  6
Continuous
100
AcDbLine
 10
53.30966978573833
 20
112.2890344952381
 30
0.0
 11
52.91021883399769
 21
112.2681023814028
 31
0.0
  0
LINE
  5
2D4
330
E3
100
AcDbEntity
  8
Des_ Furniture
  6
Continuous
100
AcDbLine
 10
52.91021883399769
 20
112.2681023814028
 30
0.0
 11
53.17189933470365
 21
107.2749538535387
 31
0.0
  0
LINE
  5
2D5
330
E3
100
AcDbEntity
  8
Des_ Furniture
  6
Continuous
100
AcDbLine
 10
48.78028834897651
 20
111.109213868972
 30
0.0
 11
48.94345338153018
 21
107.9957955273554
 31
0.0
  0
LINE
  5
2D6
330
E3
100
AcDbEntity
  8
Des_ Furniture
  6
Continuous
100
AcDbLine
 10
50.44140026611061
 20
108.0742977390495
 30
0.0
 11
50.27823135652159
 21
111.1877160806661
 31
0.0
  0
LINE
  5
2D7
330
E3
100
AcDbEntity
  8
Des_ Furniture
  6
Continuous
100
AcDbLine
 10
53.35892751981449
 20
111.349171340632
 30
0.0
 11
53.5220964294035
 21
108.2357529990154
 31
0.0
  0
LINE
  5
2D8
330
E3
100
AcDbEntity
  8
Des_ Furniture
  6
Continuous
100
AcDbLine
 10
55.59924525549019
 20
108.3446085204366
 30
0.0
 11
55.43607634590117
 21
111.4580307390885
 31
0.0
  0
LINE
  5
2D9
330
E3
100
AcDbEntity
  8
Des_ Furniture
  6
Dot & Dashed
100
AcDbLine
 10
47.16420044332028
 20
109.4635325525166
 30
0.0
 11
58.31382521695087
 21
110.0478599347508
 31
0.0
  0
HATCH
  5
2DA
330
E3
100
AcDbEntity
  8
Des_ Furniture
  6
Continuous
 62
   255
370
     0
100
AcDbHatch
 10
0.0
 20
0.0
 30
0.0
210
0.0
220
0.0
230
1.0
  2
SOLID
 70
     1
 71
     0
 91
        1
 92
        3
 72
     0
 73
     1
 93
        6
 10
228.7814565985512
 20
143.6029974776917
 10
235.0098324765333
 20
143.9294128259968
 10
235.1309580545828
 20
144.0639364088444
 10
235.018749764398
 20
146.2049981313581
 10
234.8842261815503
 20
146.3261237094077
 10
228.6558503035681
 20
145.9997083611026
 97
        0
 75
     0
 76
     1
 98
        0
  0
LINE
  5
2DB
330
E3
100
AcDbEntity
  8
Des_ Furniture
  6
Continuous
100
AcDbLine
 10
228.7814554514256
 20
143.6029960404171
 30
0.0
 11
235.0098313176913
 21
143.929411400302
 31
0.0
  0
LINE
  5
2DC
330
E3
100
AcDbEntity
  8
Des_ Furniture
  6
Continuous
100
AcDbLine
 10
235.0098313176913
 20
143.929411400302
 30
0.0
 11
235.1309576559839
 21
144.0639367727518
 31
0.0
  0
LINE
  5
2DD
330
E3
100
AcDbEntity
  8
Des_ Furniture
  6
Continuous
100
AcDbLine
 10
235.1309576559839
 20
144.0639367727518
 30
0.0
 11
235.0187484989881
 21
146.204998526524
 31
0.0
  0
LINE
  5
2DE
330
E3
100
AcDbEntity
  8
Des_ Furniture
  6
Continuous
100
AcDbLine
 10
235.0187484989881
 20
146.204998526524
 30
0.0
 11
234.8842270035737
 21
146.3261248648166
 31
0.0
  0
LINE
  5
2DF
330
E3
100
AcDbEntity
  8
Des_ Furniture
  6
Continuous
100
AcDbLine
 10
234.8842270035737
 20
146.3261248648166
 30
0.0
 11
228.655851137308
 21
145.9997095049316
 31
0.0
  0
LINE
  5
2E0
330
E3
100
AcDbEntity
  8
Des_ Furniture
  6
Continuous
100
AcDbLine
 10
228.655851137308
 20
145.9997095049316
 30
0.0
 11
228.7814554514256
 21
143.6029960404171
 31
0.0
  0
LINE
  5
2E1
330
E3
100
AcDbEntity
  8
Des_ Furniture
  6
Continuous
100
AcDbLine
 10
235.0098313176913
 20
143.929411400302
 30
0.0
 11
234.8842270035737
 21
146.3261248648166
 31
0.0
  0
LINE
  5
2E2
330
E3
100
AcDbEntity
  8
Des_ Furniture
  6
Continuous
100
AcDbLine
 10
229.1458812658468
 20
143.6220943165334
 30
0.0
 11
229.0202730746938
 21
146.018807781048
 31
0.0
  0
LINE
  5
2E3
330
E3
100
AcDbEntity
  8
Des_ Furniture
  6
Continuous
100
AcDbLine
 10
229.267003727104
 20
143.7566196889832
 30
0.0
 11
229.1547984471435
 21
145.8976814427554
 31
0.0
  0
LINE
  5
2E4
330
E3
100
AcDbEntity
  8
Des_ Furniture
  6
Continuous
100
AcDbLine
 10
229.267003727104
 20
143.7566196889832
 30
0.0
 11
229.1458812658468
 21
143.6220943165334
 31
0.0
  0
LINE
  5
2E5
330
E3
100
AcDbEntity
  8
Des_ Furniture
  6
Continuous
100
AcDbLine
 10
229.1547984471435
 20
145.8976814427554
 30
0.0
 11
229.0202730746938
 21
146.018807781048
 31
0.0
  0
LINE
  5
2E6
330
E3
100
AcDbEntity
  8
Des_ Furniture
  6
Continuous
100
AcDbLine
 10
229.267003727104
 20
143.7566196889832
 30
0.0
 11
235.1309576559839
 21
144.0639367727518
 31
0.0
  0
LINE
  5
2E7
330
E3
100
AcDbEntity
  8
Des_ Furniture
  6
Continuous
100
AcDbLine
 10
229.1547984471435
 20
145.8976814427554
 30
0.0
 11
235.0187484989881
 21
146.204998526524
 31
0.0
  0
HATCH
  5
2E8
330
E3
100
AcDbEntity
  8
Des_ Furniture
  6
Continuous
 62
   255
370
     0
100
AcDbHatch
 10
0.0
 20
0.0
 30
0.0
210
0.0
220
0.0
230
1.0
  2
SOLID
 70
     1
 71
     0
 91
        1
 92
        3
 72
     0
 73
     1
 93
        4
 10
227.1391254671798
 20
146.2795583679531
 10
227.3022928306757
 20
143.1661396021123
 10
228.8002371328076
 20
143.2446435364767
 10
228.6370697693117
 20
146.3580623023176
 97
        0
 75
     0
 76
     1
 98
        0
  0
HATCH
  5
2E9
330
E3
100
AcDbEntity
  8
Des_ Furniture
  6
Continuous
 62
   255
370
     0
100
AcDbHatch
 10
0.0
 20
0.0
 30
0.0
210
0.0
220
0.0
230
1.0
  2
SOLID
 70
     1
 71
     0
 91
        1
 92
        3
 72
     1
 73
     1
 93
        4
 10
227.4159774114511
 20
145.7737392293739
 42
0.2405626121623441
 10
227.5247556537817
 20
143.6981267188132
 42
0.0
 10
228.7730425722249
 20
143.7635466641168
 42
0.0
 10
228.6642643298943
 20
145.8391591746775
 42
0.0
 97
        0
 75
     0
 76
     1
 98
        0
  0
ARC
  5
2EA
330
E3
100
AcDbEntity
  8
Des_ Furniture
  6
Continuous
100
AcDbCircle
 10
229.5025776358421
 20
144.8424366450479
 30
0.0
 40
2.285000000000136
100
AcDbArc
 50
155.9475818795671
 51
210.0524181204295
  0
LINE
  5
2EB
330
E3
100
AcDbEntity
  8
Des_ Furniture
  6
Continuous
100
AcDbLine
 10
227.5247570912756
 20
143.6981268567119
 30
0.0
 11
228.7730422847239
 21
143.7635479511472
 31
0.0
  0
LINE
  5
2EC
330
E3
100
AcDbEntity
  8
Des_ Furniture
  6
Continuous
100
AcDbLine
 10
228.7730422847239
 20
143.7635479511472
 30
0.0
 11
228.6642643040097
 21
145.8391575942014
 31
0.0
  0
LINE
  5
2ED
330
E3
100
AcDbEntity
  8
Des_ Furniture
  6
Continuous
100
AcDbLine
 10
228.6642643040097
 20
145.8391575942014
 30
0.0
 11
227.4159791105613
 21
145.7737403768014
 31
0.0
  0
HATCH
  5
2EE
330
E3
100
AcDbEntity
  8
Des_ Furniture
  6
Continuous
 62
   255
370
     0
100
AcDbHatch
 10
0.0
 20
0.0
 30
0.0
210
0.0
220
0.0
230
1.0
  2
SOLID
 70
     1
 71
     0
 91
        1
 92
        3
 72
     1
 73
     1
 93
        4
 10
227.3615882902859
 20
146.811545484654
 42
0.4811252243246882
 10
227.4159774114511
 20
145.7737392293739
 42
0.0
 10
228.6642643298943
 20
145.8391591746775
 42
0.0
 10
228.6098752087291
 20
146.8769654299577
 42
0.0
 97
        0
 75
     0
 76
     1
 98
        0
  0
ARC
  5
2EF
330
E3
100
AcDbEntity
  8
Des_ Furniture
  6
Continuous
100
AcDbCircle
 10
227.8032141077916
 20
146.3143617788548
 30
0.0
 40
0.6649999999999393
100
AcDbArc
 50
131.6132381910037
 51
234.3867618089962
  0
LINE
  5
2F0
330
E3
100
AcDbEntity
  8
Des_ Furniture
  6
Continuous
100
AcDbLine
 10
227.4159791105613
 20
145.7737403768014
 30
0.0
 11
228.6642643040097
 21
145.8391575942014
 31
0.0
  0
LINE
  5
2F1
330
E3
100
AcDbEntity
  8
Des_ Furniture
  6
Continuous
100
AcDbLine
 10
228.6642643040097
 20
145.8391575942014
 30
0.0
 11
228.6098733751349
 21
146.8769662927638
 31
0.0
  0
LINE
  5
2F2
330
E3
100
AcDbEntity
  8
Des_ Furniture
  6
Continuous
100
AcDbLine
 10
228.6098733751349
 20
146.8769662927638
 30
0.0
 11
227.3615881816866
 21
146.8115451983285
 31
0.0
  0
HATCH
  5
2F3
330
E3
100
AcDbEntity
  8
Des_ Furniture
  6
Continuous
 62
   255
370
     0
100
AcDbHatch
 10
0.0
 20
0.0
 30
0.0
210
0.0
220
0.0
230
1.0
  2
SOLID
 70
     1
 71
     0
 91
        1
 92
        3
 72
     1
 73
     1
 93
        4
 10
227.5791447749469
 20
142.6603204635329
 42
0.0
 10
228.8274316933902
 20
142.7257404088367
 42
0.0
 10
228.7730425722249
 20
143.7635466641168
 42
0.0
 10
227.5247556537817
 20
143.6981267188132
 42
0.4811252243246882
 97
        0
 75
     0
 76
     1
 98
        0
  0
LINE
  5
2F4
330
E3
100
AcDbEntity
  8
Des_ Furniture
  6
Continuous
100
AcDbLine
 10
228.8274332135987
 20
142.7257392525848
 30
0.0
 11
227.579144143115
 21
142.6603220351848
 31
0.0
  0
LINE
  5
2F5
330
E3
100
AcDbEntity
  8
Des_ Furniture
  6
Continuous
100
AcDbLine
 10
228.7730422847239
 20
143.7635479511472
 30
0.0
 11
228.8274332135987
 21
142.7257392525848
 31
0.0
  0
LINE
  5
2F6
330
E3
100
AcDbEntity
  8
Des_ Furniture
  6
Continuous
100
AcDbLine
 10
227.5247570912756
 20
143.6981268567119
 30
0.0
 11
228.7730422847239
 21
143.7635479511472
 31
0.0
  0
ARC
  5
2F7
330
E3
100
AcDbEntity
  8
Des_ Furniture
  6
Continuous
100
AcDbCircle
 10
227.9663814712875
 20
143.2009430130139
 30
0.0
 40
0.6649999999999807
100
AcDbArc
 50
131.6132381910005
 51
234.3867618089971
  0
HATCH
  5
2F8
330
E3
100
AcDbEntity
  8
Des_ Furniture
  6
Continuous
 62
   255
370
     0
100
AcDbHatch
 10
0.0
 20
0.0
 30
0.0
210
0.0
220
0.0
230
1.0
  2
SOLID
 70
     1
 71
     0
 91
        1
 92
        3
 72
     0
 73
     1
 93
        4
 10
231.7177653537474
 20
146.5195147165449
 10
231.8809327172433
 20
143.4060959507041
 10
233.9580821495328
 20
143.5149547396893
 10
233.794914786037
 20
146.6283735055302
 97
        0
 75
     0
 76
     1
 98
        0
  0
HATCH
  5
2F9
330
E3
100
AcDbEntity
  8
Des_ Furniture
  6
Continuous
 62
   255
370
     0
100
AcDbHatch
 10
0.0
 20
0.0
 30
0.0
210
0.0
220
0.0
230
1.0
  2
SOLID
 70
     1
 71
     0
 91
        1
 92
        3
 72
     1
 73
     1
 93
        4
 10
232.0911514863784
 20
146.0187547204024
 42
0.3335801555317839
 10
232.1999297287089
 20
143.9431422098417
 42
0.0
 10
233.5846960169019
 20
144.015714735832
 42
0.3335801555317839
 10
233.4759177745713
 20
146.0913272463925
 42
0.0
 97
        0
 75
     0
 76
     1
 98
        0
  0
ARC
  5
2FA
330
E3
100
AcDbEntity
  8
Des_ Furniture
  6
Continuous
100
AcDbCircle
 10
233.5280023660411
 20
145.0534002158286
 30
0.0
 40
1.7310256410257
100
AcDbArc
 50
146.1046488728489
 51
219.8953511271505
  0
LINE
  5
2FB
330
E3
100
AcDbEntity
  8
Des_ Furniture
  6
Continuous
100
AcDbLine
 10
232.1999305652038
 20
143.943143859499
 30
0.0
 11
233.5846951569165
 21
144.0157142071131
 31
0.0
  0
ARC
  5
2FC
330
E3
100
AcDbEntity
  8
Des_ Furniture
  6
Continuous
100
AcDbCircle
 10
232.1478451372392
 20
144.9810692404057
 30
0.0
 40
1.731025641025639
100
AcDbArc
 50
326.1046488728486
 51
39.89535112714958
  0
LINE
  5
2FD
330
E3
100
AcDbEntity
  8
Des_ Furniture
  6
Continuous
100
AcDbLine
 10
233.4759171762022
 20
146.0913277272026
 30
0.0
 11
232.0911525844896
 21
146.0187535025532
 31
0.0
  0
HATCH
  5
2FE
330
E3
100
AcDbEntity
  8
Des_ Furniture
  6
Continuous
 62
   255
370
     0
100
AcDbHatch
 10
0.0
 20
0.0
 30
0.0
210
0.0
220
0.0
230
1.0
  2
SOLID
 70
     1
 71
     0
 91
        1
 92
        3
 72
     1
 73
     1
 93
        4
 10
232.0367623652131
 20
147.0565609756827
 42
0.6671603110635675
 10
232.0911514863784
 20
146.0187547204024
 42
0.0
 10
233.4759177745713
 20
146.0913272463925
 42
0.6671603110635675
 10
233.4215286534061
 20
147.1291335016728
 42
0.0
 97
        0
 75
     0
 76
     1
 98
        0
  0
ARC
  5
2FF
330
E3
100
AcDbEntity
  8
Des_ Furniture
  6
Continuous
100
AcDbCircle
 10
232.279750525902
 20
146.5489671114076
 30
0.0
 40
0.5627564102564045
100
AcDbArc
 50
115.5807117678017
 51
250.4192882321987
  0
LINE
  5
300
330
E3
100
AcDbEntity
  8
Des_ Furniture
  6
Continuous
100
AcDbLine
 10
232.0911525844896
 20
146.0187535025532
 30
0.0
 11
233.4759171762022
 21
146.0913277272026
 31
0.0
  0
ARC
  5
301
330
E3
100
AcDbEntity
  8
Des_ Furniture
  6
Continuous
100
AcDbCircle
 10
233.2329296138824
 20
146.5989211106676
 30
0.0
 40
0.5627564102564045
100
AcDbArc
 50
295.5807117678017
 51
70.41928823219868
  0
LINE
  5
302
330
E3
100
AcDbEntity
  8
Des_ Furniture
  6
Continuous
100
AcDbLine
 10
233.4215301243628
 20
147.1291325487297
 30
0.0
 11
232.0367616556148
 21
147.0565622011156
 31
0.0
  0
HATCH
  5
303
330
E3
100
AcDbEntity
  8
Des_ Furniture
  6
Continuous
 62
   255
370
     0
100
AcDbHatch
 10
0.0
 20
0.0
 30
0.0
210
0.0
220
0.0
230
1.0
  2
SOLID
 70
     1
 71
     0
 91
        1
 92
        3
 72
     1
 73
     1
 93
        4
 10
232.2543188498742
 20
142.9053359545615
 42
0.0
 10
233.6390851380672
 20
142.9779084805517
 42
0.6671603110635675
 10
233.5846960169019
 20
144.015714735832
 42
0.0
 10
232.1999297287089
 20
143.9431422098417
 42
0.6671603110635675
 97
        0
 75
     0
 76
     1
 98
        0
  0
LINE
  5
304
330
E3
100
AcDbEntity
  8
Des_ Furniture
  6
Continuous
100
AcDbLine
 10
233.6390860857913
 20
142.977909385586
 30
0.0
 11
232.2543176170432
 21
142.9053351609366
 31
0.0
  0
ARC
  5
305
330
E3
100
AcDbEntity
  8
Des_ Furniture
  6
Continuous
100
AcDbCircle
 10
233.3960969773783
 20
143.4855023448268
 30
0.0
 40
0.5627564102564045
100
AcDbArc
 50
295.5807117678017
 51
70.41928823219868
  0
LINE
  5
306
330
E3
100
AcDbEntity
  8
Des_ Furniture
  6
Continuous
100
AcDbLine
 10
232.1999305652038
 20
143.943143859499
 30
0.0
 11
233.5846951569165
 21
144.0157142071131
 31
0.0
  0
ARC
  5
307
330
E3
100
AcDbEntity
  8
Des_ Furniture
  6
Continuous
100
AcDbCircle
 10
232.4429178893978
 20
143.4355483455666
 30
0.0
 40
0.5627564102564045
100
AcDbArc
 50
115.5807117678017
 51
250.4192882321987
  0
HATCH
  5
308
330
E3
100
AcDbEntity
  8
Des_ Furniture
  6
Continuous
 62
   255
370
     0
100
AcDbHatch
 10
0.0
 20
0.0
 30
0.0
210
0.0
220
0.0
230
1.0
  2
SOLID
 70
     1
 71
     0
 91
        1
 92
        3
 72
     0
 73
     1
 93
        4
 10
229.2489451555688
 20
142.3257134650079
 10
228.9872653743541
 20
147.3188611387808
 10
228.5878135604523
 20
147.2979267562836
 10
228.849493341667
 20
142.3047790825107
 97
        0
 75
     0
 76
     1
 98
        0
  0
LINE
  5
309
330
E3
100
AcDbEntity
  8
Des_ Furniture
  6
Continuous
100
AcDbLine
 10
229.2489444964604
 20
142.3257144996129
 30
0.0
 11
228.9872639957545
 21
147.318863027477
 31
0.0
  0
LINE
  5
30A
330
E3
100
AcDbEntity
  8
Des_ Furniture
  6
Continuous
100
AcDbLine
 10
228.9872639957545
 20
147.318863027477
 30
0.0
 11
228.5878130440138
 21
147.2979270366063
 31
0.0
  0
LINE
  5
30B
330
E3
100
AcDbEntity
  8
Des_ Furniture
  6
Continuous
100
AcDbLine
 10
228.5878130440138
 20
147.2979270366063
 30
0.0
 11
228.8494935447198
 21
142.3047785087423
 31
0.0
  0
LINE
  5
30C
330
E3
100
AcDbEntity
  8
Des_ Furniture
  6
Continuous
100
AcDbLine
 10
228.8494935447198
 20
142.3047785087423
 30
0.0
 11
229.2489444964604
 21
142.3257144996129
 31
0.0
  0
HATCH
  5
30D
330
E3
100
AcDbEntity
  8
Des_ Furniture
  6
Continuous
 62
   255
370
     0
100
AcDbHatch
 10
0.0
 20
0.0
 30
0.0
210
0.0
220
0.0
230
1.0
  2
SOLID
 70
     1
 71
     0
 91
        1
 92
        3
 72
     0
 73
     1
 93
        4
 10
231.5307371122009
 20
142.4452971142409
 10
231.9301889261027
 20
142.4662314967381
 10
231.668509144888
 20
147.4593791705109
 10
231.2690573309862
 20
147.4384447880137
 97
        0
 75
     0
 76
     1
 98
        0
  0
LINE
  5
30E
330
E3
100
AcDbEntity
  8
Des_ Furniture
  6
Continuous
100
AcDbLine
 10
231.5307387562721
 20
142.4452977778376
 30
0.0
 11
231.9301897080126
 21
142.4662298916728
 31
0.0
  0
LINE
  5
30F
330
E3
100
AcDbEntity
  8
Des_ Furniture
  6
Continuous
100
AcDbLine
 10
231.9301897080126
 20
142.4662298916728
 30
0.0
 11
231.6685092073067
 21
147.4593784195369
 31
0.0
  0
LINE
  5
310
330
E3
100
AcDbEntity
  8
Des_ Furniture
  6
Continuous
100
AcDbLine
 10
231.6685092073067
 20
147.4593784195369
 30
0.0
 11
231.2690582555661
 21
147.4384463057016
 31
0.0
  0
LINE
  5
311
330
E3
100
AcDbEntity
  8
Des_ Furniture
  6
Continuous
100
AcDbLine
 10
231.2690582555661
 20
147.4384463057016
 30
0.0
 11
231.5307387562721
 21
142.4452977778376
 31
0.0
  0
LINE
  5
312
330
E3
100
AcDbEntity
  8
Des_ Furniture
  6
Continuous
100
AcDbLine
 10
227.1391238935095
 20
146.2795577932708
 30
0.0
 11
227.3022928030985
 21
143.1661394516542
 31
0.0
  0
LINE
  5
313
330
E3
100
AcDbEntity
  8
Des_ Furniture
  6
Continuous
100
AcDbLine
 10
228.8002358106436
 20
143.2446416633483
 30
0.0
 11
228.6370707780899
 21
146.3580638820003
 31
0.0
  0
LINE
  5
314
330
E3
100
AcDbEntity
  8
Des_ Furniture
  6
Continuous
100
AcDbLine
 10
231.7177669413828
 20
146.5195152649308
 30
0.0
 11
231.8809319739366
 21
143.4060969233142
 31
0.0
  0
LINE
  5
315
330
E3
100
AcDbEntity
  8
Des_ Furniture
  6
Continuous
100
AcDbLine
 10
233.9580808000232
 20
143.5149563217707
 30
0.0
 11
233.7949157674695
 21
146.6283746633873
 31
0.0
  0
LINE
  5
316
330
E3
100
AcDbEntity
  8
Des_ Furniture
  6
Dot & Dashed
100
AcDbLine
 10
225.5230398648886
 20
144.6338764768154
 30
0.0
 11
236.6726607614839
 21
145.2182038590497
 31
0.0
  0
HATCH
  5
317
330
E3
100
AcDbEntity
  8
Des_ Furniture
  6
Continuous
 62
   255
370
     0
100
AcDbHatch
 10
0.0
 20
0.0
 30
0.0
210
0.0
220
0.0
230
1.0
  2
SOLID
 70
     1
 71
     0
 91
        1
 92
        3
 72
     0
 73
     1
 93
        6
 10
230.1759353197213
 20
117.8531252776176
 10
236.4043111977035
 20
118.1795406259228
 10
236.525436775753
 20
118.3140642087703
 10
236.4132284855681
 20
120.4551259312842
 10
236.2787049027204
 20
120.5762515093337
 10
230.0503290247383
 20
120.2498361610287
 97
        0
 75
     0
 76
     1
 98
        0
  0
LINE
  5
318
330
E3
100
AcDbEntity
  8
Des_ Furniture
  6
Continuous
100
AcDbLine
 10
230.1759358937164
 20
117.8531268793206
 30
0.0
 11
236.4043117599821
 21
118.1795422392055
 31
0.0
  0
LINE
  5
319
330
E3
100
AcDbEntity
  8
Des_ Furniture
  6
Continuous
100
AcDbLine
 10
236.4043117599821
 20
118.1795422392055
 30
0.0
 11
236.5254380982746
 21
118.3140637346199
 31
0.0
  0
LINE
  5
31A
330
E3
100
AcDbEntity
  8
Des_ Furniture
  6
Continuous
100
AcDbLine
 10
236.5254380982746
 20
118.3140637346199
 30
0.0
 11
236.4132289412789
 21
120.4551254883922
 31
0.0
  0
LINE
  5
31B
330
E3
100
AcDbEntity
  8
Des_ Furniture
  6
Continuous
100
AcDbLine
 10
236.4132289412789
 20
120.4551254883922
 30
0.0
 11
236.2787035688291
 21
120.5762518266847
 31
0.0
  0
LINE
  5
31C
330
E3
100
AcDbEntity
  8
Des_ Furniture
  6
Continuous
100
AcDbLine
 10
236.2787035688291
 20
120.5762518266847
 30
0.0
 11
230.0503277025634
 21
120.2498364667998
 31
0.0
  0
LINE
  5
31D
330
E3
100
AcDbEntity
  8
Des_ Furniture
  6
Continuous
100
AcDbLine
 10
230.0503277025634
 20
120.2498364667998
 30
0.0
 11
230.1759358937164
 21
117.8531268793206
 31
0.0
  0
LINE
  5
31E
330
E3
100
AcDbEntity
  8
Des_ Furniture
  6
Continuous
100
AcDbLine
 10
236.4043117599821
 20
118.1795422392055
 30
0.0
 11
236.2787035688291
 21
120.5762518266847
 31
0.0
  0
LINE
  5
31F
330
E3
100
AcDbEntity
  8
Des_ Furniture
  6
Continuous
100
AcDbLine
 10
230.5403578311022
 20
117.872225155437
 30
0.0
 11
230.4147535169846
 21
120.2689347429162
 31
0.0
  0
LINE
  5
320
330
E3
100
AcDbEntity
  8
Des_ Furniture
  6
Continuous
100
AcDbLine
 10
230.6614841693948
 20
118.0067466508514
 30
0.0
 11
230.549275012399
 21
120.1478084046236
 31
0.0
  0
LINE
  5
321
330
E3
100
AcDbEntity
  8
Des_ Furniture
  6
Continuous
100
AcDbLine
 10
230.6614841693948
 20
118.0067466508514
 30
0.0
 11
230.5403578311022
 21
117.872225155437
 31
0.0
  0
LINE
  5
322
330
E3
100
AcDbEntity
  8
Des_ Furniture
  6
Continuous
100
AcDbLine
 10
230.549275012399
 20
120.1478084046236
 30
0.0
 11
230.4147535169846
 21
120.2689347429162
 31
0.0
  0
LINE
  5
323
330
E3
100
AcDbEntity
  8
Des_ Furniture
  6
Continuous
100
AcDbLine
 10
230.6614841693948
 20
118.0067466508514
 30
0.0
 11
236.5254380982746
 21
118.3140637346199
 31
0.0
  0
LINE
  5
324
330
E3
100
AcDbEntity
  8
Des_ Furniture
  6
Continuous
100
AcDbLine
 10
230.549275012399
 20
120.1478084046236
 30
0.0
 11
236.4132289412789
 21
120.4551254883922
 31
0.0
  0
HATCH
  5
325
330
E3
100
AcDbEntity
  8
Des_ Furniture
  6
Continuous
 62
   255
370
     0
100
AcDbHatch
 10
0.0
 20
0.0
 30
0.0
210
0.0
220
0.0
230
1.0
  2
SOLID
 70
     1
 71
     0
 91
        1
 92
        3
 72
     0
 73
     1
 93
        4
 10
228.53360418835
 20
120.5296861678791
 10
228.6967715518459
 20
117.4162674020384
 10
230.1947158539778
 20
117.4947713364026
 10
230.0315484904819
 20
120.6081901022437
 97
        0
 75
     0
 76
     1
 98
        0
  0
HATCH
  5
326
330
E3
100
AcDbEntity
  8
Des_ Furniture
  6
Continuous
 62
   255
370
     0
100
AcDbHatch
 10
0.0
 20
0.0
 30
0.0
210
0.0
220
0.0
230
1.0
  2
SOLID
 70
     1
 71
     0
 91
        1
 92
        3
 72
     1
 73
     1
 93
        4
 10
228.8104561326213
 20
120.0238670292998
 42
0.2405626121623441
 10
228.9192343749519
 20
117.9482545187392
 42
0.0
 10
230.1675212933951
 20
118.0136744640429
 42
0.0
 10
230.0587430510645
 20
120.0892869746034
 42
0.0
 97
        0
 75
     0
 76
     1
 98
        0
  0
ARC
  5
327
330
E3
100
AcDbEntity
  8
Des_ Furniture
  6
Continuous
100
AcDbCircle
 10
230.8970563570121
 20
119.0925644449739
 30
0.0
 40
2.284999999999959
100
AcDbArc
 50
155.9475818795685
 51
210.0524181204315
  0
LINE
  5
328
330
E3
100
AcDbEntity
  8
Des_ Furniture
  6
Continuous
100
AcDbLine
 10
228.919233656531
 20
117.9482538185801
 30
0.0
 11
230.1675227270147
 21
118.0136749130154
 31
0.0
  0
LINE
  5
329
330
E3
100
AcDbEntity
  8
Des_ Furniture
  6
Continuous
100
AcDbLine
 10
230.1675227270147
 20
118.0136749130154
 30
0.0
 11
230.0587447463004
 21
120.0892884331049
 31
0.0
  0
LINE
  5
32A
330
E3
100
AcDbEntity
  8
Des_ Furniture
  6
Continuous
100
AcDbLine
 10
230.0587447463004
 20
120.0892884331049
 30
0.0
 11
228.8104556758168
 21
120.0238673386696
 31
0.0
  0
HATCH
  5
32B
330
E3
100
AcDbEntity
  8
Des_ Furniture
  6
Continuous
 62
   255
370
     0
100
AcDbHatch
 10
0.0
 20
0.0
 30
0.0
210
0.0
220
0.0
230
1.0
  2
SOLID
 70
     1
 71
     0
 91
        1
 92
        3
 72
     1
 73
     1
 93
        4
 10
228.756067011456
 20
121.06167328458
 42
0.4811252243246882
 10
228.8104561326213
 20
120.0238670292998
 42
0.0
 10
230.0587430510645
 20
120.0892869746034
 42
0.0
 10
230.0043539298993
 20
121.1270932298838
 42
0.0
 97
        0
 75
     0
 76
     1
 98
        0
  0
ARC
  5
32C
330
E3
100
AcDbEntity
  8
Des_ Furniture
  6
Continuous
100
AcDbCircle
 10
229.1976928289618
 20
120.5644895787807
 30
0.0
 40
0.6649999999999393
100
AcDbArc
 50
131.6132381910037
 51
234.3867618089962
  0
LINE
  5
32D
330
E3
100
AcDbEntity
  8
Des_ Furniture
  6
Continuous
100
AcDbLine
 10
228.8104556758168
 20
120.0238673386696
 30
0.0
 11
230.0587447463004
 21
120.0892884331049
 31
0.0
  0
LINE
  5
32E
330
E3
100
AcDbEntity
  8
Des_ Furniture
  6
Continuous
100
AcDbLine
 10
230.0587447463004
 20
120.0892884331049
 30
0.0
 11
230.0043538174257
 21
121.127093254632
 31
0.0
  0
LINE
  5
32F
330
E3
100
AcDbEntity
  8
Des_ Furniture
  6
Continuous
100
AcDbLine
 10
230.0043538174257
 20
121.127093254632
 30
0.0
 11
228.7560686239773
 21
121.0616721601967
 31
0.0
  0
HATCH
  5
330
330
E3
100
AcDbEntity
  8
Des_ Furniture
  6
Continuous
 62
   255
370
     0
100
AcDbHatch
 10
0.0
 20
0.0
 30
0.0
210
0.0
220
0.0
230
1.0
  2
SOLID
 70
     1
 71
     0
 91
        1
 92
        3
 72
     1
 73
     1
 93
        4
 10
228.9736234961172
 20
116.9104482634589
 42
0.0
 10
230.2219104145604
 20
116.9758682087627
 42
0.0
 10
230.1675212933951
 20
118.0136744640429
 42
0.0
 10
228.9192343749519
 20
117.9482545187392
 42
0.4811252243246882
 97
        0
 75
     0
 76
     1
 98
        0
  0
LINE
  5
331
330
E3
100
AcDbEntity
  8
Des_ Furniture
  6
Continuous
100
AcDbLine
 10
230.2219097788542
 20
116.9758700914883
 30
0.0
 11
228.9736245854058
 21
116.910448997053
 31
0.0
  0
LINE
  5
332
330
E3
100
AcDbEntity
  8
Des_ Furniture
  6
Continuous
100
AcDbLine
 10
230.1675227270147
 20
118.0136749130154
 30
0.0
 11
230.2219097788542
 21
116.9758700914883
 31
0.0
  0
LINE
  5
333
330
E3
100
AcDbEntity
  8
Des_ Furniture
  6
Continuous
100
AcDbLine
 10
228.919233656531
 20
117.9482538185801
 30
0.0
 11
230.1675227270147
 21
118.0136749130154
 31
0.0
  0
ARC
  5
334
330
E3
100
AcDbEntity
  8
Des_ Furniture
  6
Continuous
100
AcDbCircle
 10
229.3608601924577
 20
117.4510708129399
 30
0.0
 40
0.6650000000000775
100
AcDbArc
 50
131.6132381910027
 51
234.386761808996
  0
HATCH
  5
335
330
E3
100
AcDbEntity
  8
Des_ Furniture
  6
Continuous
 62
   255
370
     0
100
AcDbHatch
 10
0.0
 20
0.0
 30
0.0
210
0.0
220
0.0
230
1.0
  2
SOLID
 70
     1
 71
     0
 91
        1
 92
        3
 72
     0
 73
     1
 93
        4
 10
233.1122440749176
 20
120.7696425164709
 10
233.2754114384135
 20
117.6562237506301
 10
235.352560870703
 20
117.7650825396153
 10
235.1893935072072
 20
120.8785013054562
 97
        0
 75
     0
 76
     1
 98
        0
  0
HATCH
  5
336
330
E3
100
AcDbEntity
  8
Des_ Furniture
  6
Continuous
 62
   255
370
     0
100
AcDbHatch
 10
0.0
 20
0.0
 30
0.0
210
0.0
220
0.0
230
1.0
  2
SOLID
 70
     1
 71
     0
 91
        1
 92
        3
 72
     1
 73
     1
 93
        4
 10
233.4856302075485
 20
120.2688825203283
 42
0.3335801555317839
 10
233.5944084498791
 20
118.1932700097678
 42
0.0
 10
234.9791747380721
 20
118.265842535758
 42
0.3335801555317839
 10
234.8703964957415
 20
120.3414550463184
 42
0.0
 97
        0
 75
     0
 76
     1
 98
        0
  0
ARC
  5
337
330
E3
100
AcDbEntity
  8
Des_ Furniture
  6
Continuous
100
AcDbCircle
 10
234.9224810872112
 20
119.3035280157546
 30
0.0
 40
1.731025641025647
100
AcDbArc
 50
146.1046488728482
 51
219.8953511271492
  0
LINE
  5
338
330
E3
100
AcDbEntity
  8
Des_ Furniture
  6
Continuous
100
AcDbLine
 10
233.5944071304592
 20
118.1932708213672
 30
0.0
 11
234.9791755992073
 21
118.2658411689813
 31
0.0
  0
ARC
  5
339
330
E3
100
AcDbEntity
  8
Des_ Furniture
  6
Continuous
100
AcDbCircle
 10
233.5423238584095
 20
119.2311970403316
 30
0.0
 40
1.731025641025523
100
AcDbArc
 50
326.1046488728493
 51
39.89535112715065
  0
LINE
  5
33A
330
E3
100
AcDbEntity
  8
Des_ Furniture
  6
Continuous
100
AcDbLine
 10
234.870397618493
 20
120.3414546890708
 30
0.0
 11
233.485629149745
 21
120.2688843414567
 31
0.0
  0
HATCH
  5
33B
330
E3
100
AcDbEntity
  8
Des_ Furniture
  6
Continuous
 62
   255
370
     0
100
AcDbHatch
 10
0.0
 20
0.0
 30
0.0
210
0.0
220
0.0
230
1.0
  2
SOLID
 70
     1
 71
     0
 91
        1
 92
        3
 72
     1
 73
     1
 93
        4
 10
233.4312410863832
 20
121.3066887756087
 42
0.6671603110635675
 10
233.4856302075485
 20
120.2688825203283
 42
0.0
 10
234.8703964957415
 20
120.3414550463184
 42
0.6671603110635675
 10
234.8160073745763
 20
121.3792613015988
 42
0.0
 97
        0
 75
     0
 76
     1
 98
        0
  0
ARC
  5
33C
330
E3
100
AcDbEntity
  8
Des_ Furniture
  6
Continuous
100
AcDbCircle
 10
233.6742292470722
 20
120.7990949113336
 30
0.0
 40
0.5627564102564666
100
AcDbArc
 50
115.5807117678018
 51
250.4192882321979
  0
LINE
  5
33D
330
E3
100
AcDbEntity
  8
Des_ Furniture
  6
Continuous
100
AcDbLine
 10
233.485629149745
 20
120.2688843414567
 30
0.0
 11
234.870397618493
 21
120.3414546890708
 31
0.0
  0
ARC
  5
33E
330
E3
100
AcDbEntity
  8
Des_ Furniture
  6
Continuous
100
AcDbCircle
 10
234.6274083350526
 20
120.8490489105936
 30
0.0
 40
0.5627564102564666
100
AcDbArc
 50
295.5807117678018
 51
70.41928823219793
  0
LINE
  5
33F
330
E3
100
AcDbEntity
  8
Des_ Furniture
  6
Continuous
100
AcDbLine
 10
234.8160066896183
 20
121.3792595105979
 30
0.0
 11
233.4312420979056
 21
121.3066891629838
 31
0.0
  0
HATCH
  5
340
330
E3
100
AcDbEntity
  8
Des_ Furniture
  6
Continuous
 62
   255
370
     0
100
AcDbHatch
 10
0.0
 20
0.0
 30
0.0
210
0.0
220
0.0
230
1.0
  2
SOLID
 70
     1
 71
     0
 91
        1
 92
        3
 72
     1
 73
     1
 93
        4
 10
233.6487975710444
 20
117.1554637544874
 42
0.0
 10
235.0335638592374
 20
117.2280362804777
 42
0.6671603110635675
 10
234.9791747380721
 20
118.265842535758
 42
0.0
 10
233.5944084498791
 20
118.1932700097678
 42
0.6671603110635675
 97
        0
 75
     0
 76
     1
 98
        0
  0
LINE
  5
341
330
E3
100
AcDbEntity
  8
Des_ Furniture
  6
Continuous
100
AcDbLine
 10
235.0335626510467
 20
117.2280363474542
 30
0.0
 11
233.648798059334
 21
117.1554621228047
 31
0.0
  0
ARC
  5
342
330
E3
100
AcDbEntity
  8
Des_ Furniture
  6
Continuous
100
AcDbCircle
 10
234.7905756985485
 20
117.7356301447528
 30
0.0
 40
0.5627564102564045
100
AcDbArc
 50
295.5807117678017
 51
70.41928823219868
  0
LINE
  5
343
330
E3
100
AcDbEntity
  8
Des_ Furniture
  6
Continuous
100
AcDbLine
 10
233.5944071304592
 20
118.1932708213672
 30
0.0
 11
234.9791755992073
 21
118.2658411689813
 31
0.0
  0
ARC
  5
344
330
E3
100
AcDbEntity
  8
Des_ Furniture
  6
Continuous
100
AcDbCircle
 10
233.837396610568
 20
117.6856761454926
 30
0.0
 40
0.5627564102564666
100
AcDbArc
 50
115.5807117678018
 51
250.4192882321979
  0
HATCH
  5
345
330
E3
100
AcDbEntity
  8
Des_ Furniture
  6
Continuous
 62
   255
370
     0
100
AcDbHatch
 10
0.0
 20
0.0
 30
0.0
210
0.0
220
0.0
230
1.0
  2
SOLID
 70
     1
 71
     0
 91
        1
 92
        3
 72
     0
 73
     1
 93
        4
 10
230.643423876739
 20
116.5758412649339
 10
230.3817440955243
 20
121.5689889387068
 10
229.9822922816225
 20
121.5480545562096
 10
230.2439720628371
 20
116.5549068824366
 97
        0
 75
     0
 76
     1
 98
        0
  0
LINE
  5
346
330
E3
100
AcDbEntity
  8
Des_ Furniture
  6
Continuous
100
AcDbLine
 10
230.6434249387512
 20
116.5758414614811
 30
0.0
 11
230.3817444380452
 21
121.5689899893451
 31
0.0
  0
LINE
  5
347
330
E3
100
AcDbEntity
  8
Des_ Furniture
  6
Continuous
100
AcDbLine
 10
230.3817444380452
 20
121.5689899893451
 30
0.0
 11
229.9822934863046
 21
121.5480539984745
 31
0.0
  0
LINE
  5
348
330
E3
100
AcDbEntity
  8
Des_ Furniture
  6
Continuous
100
AcDbLine
 10
229.9822934863046
 20
121.5480539984745
 30
0.0
 11
230.2439739870106
 21
116.5549054706104
 31
0.0
  0
LINE
  5
349
330
E3
100
AcDbEntity
  8
Des_ Furniture
  6
Continuous
100
AcDbLine
 10
230.2439739870106
 20
116.5549054706104
 30
0.0
 11
230.6434249387512
 21
116.5758414614811
 31
0.0
  0
HATCH
  5
34A
330
E3
100
AcDbEntity
  8
Des_ Furniture
  6
Continuous
 62
   255
370
     0
100
AcDbHatch
 10
0.0
 20
0.0
 30
0.0
210
0.0
220
0.0
230
1.0
  2
SOLID
 70
     1
 71
     0
 91
        1
 92
        3
 72
     0
 73
     1
 93
        4
 10
232.9252158333711
 20
116.6954249141669
 10
233.3246676472729
 20
116.7163592966641
 10
233.0629878660582
 20
121.7095069704369
 10
232.6635360521564
 20
121.6885725879396
 97
        0
 75
     0
 76
     1
 98
        0
  0
LINE
  5
34B
330
E3
100
AcDbEntity
  8
Des_ Furniture
  6
Continuous
100
AcDbLine
 10
232.9252153215274
 20
116.6954247397057
 30
0.0
 11
233.3246662732681
 21
116.7163607305764
 31
0.0
  0
LINE
  5
34C
330
E3
100
AcDbEntity
  8
Des_ Furniture
  6
Continuous
100
AcDbLine
 10
233.3246662732681
 20
116.7163607305764
 30
0.0
 11
233.0629896495975
 21
121.7095053814051
 31
0.0
  0
LINE
  5
34D
330
E3
100
AcDbEntity
  8
Des_ Furniture
  6
Continuous
100
AcDbLine
 10
233.0629896495975
 20
121.7095053814051
 30
0.0
 11
232.6635348208215
 21
121.6885732675698
 31
0.0
  0
LINE
  5
34E
330
E3
100
AcDbEntity
  8
Des_ Furniture
  6
Continuous
100
AcDbLine
 10
232.6635348208215
 20
121.6885732675698
 30
0.0
 11
232.9252153215274
 21
116.6954247397057
 31
0.0
  0
LINE
  5
34F
330
E3
100
AcDbEntity
  8
Des_ Furniture
  6
Continuous
100
AcDbLine
 10
228.5336043358003
 20
120.529684755139
 30
0.0
 11
228.6967732453894
 21
117.4162664135224
 31
0.0
  0
LINE
  5
350
330
E3
100
AcDbEntity
  8
Des_ Furniture
  6
Continuous
100
AcDbLine
 10
230.1947162529344
 20
117.4947725022519
 30
0.0
 11
230.0315473433454
 21
120.6081908438685
 31
0.0
  0
LINE
  5
351
330
E3
100
AcDbEntity
  8
Des_ Furniture
  6
Continuous
100
AcDbLine
 10
233.1122435066383
 20
120.769642226799
 30
0.0
 11
233.2754124162273
 21
117.6562238851824
 31
0.0
  0
LINE
  5
352
330
E3
100
AcDbEntity
  8
Des_ Furniture
  6
Continuous
100
AcDbLine
 10
235.352561242314
 20
117.7650832836389
 30
0.0
 11
235.189392332725
 21
120.8785016252555
 31
0.0
  0
LINE
  5
353
330
E3
100
AcDbEntity
  8
Des_ Furniture
  6
Dot & Dashed
100
AcDbLine
 10
226.9175164301441
 20
118.8840073157189
 30
0.0
 11
238.0671412037746
 21
119.4683308209178
 31
0.0
  0
HATCH
  5
354
330
E3
100
AcDbEntity
  8
Des_ Furniture
  6
Continuous
 62
   255
370
     0
100
AcDbHatch
 10
0.0
 20
0.0
 30
0.0
210
0.0
220
0.0
230
1.0
  2
SOLID
 70
     1
 71
     0
 91
        1
 92
        3
 72
     0
 73
     1
 93
        8
 10
275.8828314106704
 20
118.6102787538493
 10
263.9526117953679
 20
117.2787732540129
 10
270.0223959673659
 20
115.9472677541765
 10
273.0264299210747
 20
58.62687634468437
 10
278.6793225209999
 20
58.62687634468437
 10
278.6793225209999
 20
177.2621756631779
 10
266.8090186436738
 20
177.2621756631779
 10
269.8130525973825
 20
119.9417842536857
 97
        0
 75
     0
 76
     1
 98
        0
  0
LINE
  5
355
330
E3
100
AcDbEntity
  8
Des_ Furniture
  6
Continuous
100
AcDbLine
 10
273.0264270778856
 20
58.62687970858485
 30
0.0
 11
270.0223954115326
 21
115.9472654748383
 31
0.0
  0
LINE
  5
356
330
E3
100
AcDbEntity
  8
Des_ Furniture
  6
Continuous
100
AcDbLine
 10
269.8130510109679
 20
119.9417866233507
 30
0.0
 11
266.8090154675796
 21
177.2621723896042
 31
0.0
  0
LINE
  5
357
330
E3
100
AcDbEntity
  8
Des_ Furniture
  6
Continuous
100
AcDbLine
 10
269.8130510109679
 20
119.9417866233507
 30
0.0
 11
275.8828328693533
 21
118.6102808661917
 31
0.0
  0
LINE
  5
358
330
E3
100
AcDbEntity
  8
Des_ Furniture
  6
Continuous
100
AcDbLine
 10
275.8828328693533
 20
118.6102808661917
 30
0.0
 11
263.9526135531472
 21
117.2787712319973
 31
0.0
  0
LINE
  5
359
330
E3
100
AcDbEntity
  8
Des_ Furniture
  6
Continuous
100
AcDbLine
 10
263.9526135531472
 20
117.2787712319973
 30
0.0
 11
270.0223954115326
 21
115.9472654748383
 31
0.0
  0
LWPOLYLINE
  5
35A
330
E3
100
AcDbEntity
  8
Doc_ Floor
  6
Continuous
100
AcDbPolyline
 90
        4
 70
   128
 43
0.0
 10
53.24712829472703
 20
100.3953783793762
 10
51.08519510930594
 20
141.6475312573048
 10
49.08793603843657
 20
141.542859370774
 10
51.24986922385748
 20
100.2907064928452
  0
LWPOLYLINE
  5
35B
330
E3
100
AcDbEntity
  8
Doc_ Floor
  6
Continuous
100
AcDbPolyline
 90
        4
 70
   128
 43
0.0
 10
233.0004445505501
 20
109.8158505031065
 10
230.8385113651291
 20
151.0680033810352
 10
228.8412522942597
 20
150.9633314945045
 10
231.0031854796806
 20
109.7111786165756
  0
LWPOLYLINE
  5
35C
330
E3
100
AcDbEntity
  8
Doc_ Floor
  6
Continuous
100
AcDbPolyline
 90
        3
 70
   128
 43
0.0
 10
123.7154625257085
 20
162.1950788058536
 10
143.7154625257086
 20
162.1950788058536
 10
123.742871830617
 20
161.1483596809947
  0
LWPOLYLINE
  5
35D
330
E3
100
AcDbEntity
  8
Doc_ Floor
  6
Continuous
100
AcDbPolyline
 90
        2
 70
   128
 43
0.0
 10
125.5911073199174
 20
163.5258227764901
 42
0.1172793849241032
 10
125.8312133747795
 20
159.9741740130588
  0
MTEXT
  5
35E
330
E3
100
AcDbEntity
  8
Doc_ Floor
  6
Continuous
100
AcDbMText
 10
105.1430499746713
 20
191.8367067734492
 30
0.0
 40
2.500000000000001
 41
47.58923797006123
 71
     4
 72
     1
  1
{12X55 STEELTEK & NEO WITH SELECTED WASHER SYSTEM}
  7
GENERATED_STYLE_1
 73
     1
 44
1.070162922071087
  0
LINE
  5
35F
330
E3
100
AcDbEntity
  8
Doc_ Floor
  6
Continuous
100
AcDbLine
 10
237.6259694746713
 20
165.2456463895516
 30
0.0
 11
234.2923277713079
 21
167.1988580267196
 31
0.0
  0
LINE
  5
360
330
E3
100
AcDbEntity
  8
Doc_ Floor
  6
Continuous
100
AcDbLine
 10
237.6259694746713
 20
165.2456463895516
 30
0.0
 11
235.7155564306923
 21
168.604000316213
 31
0.0
  0
LINE
  5
361
330
E3
100
AcDbEntity
  8
Doc_ Floor
  6
Continuous
100
AcDbLine
 10
234.2923277713079
 20
167.1988580267196
 30
0.0
 11
235.7155564306923
 21
168.604000316213
 31
0.0
  0
LWPOLYLINE
  5
362
330
E3
100
AcDbEntity
  8
Doc_ Floor
  6
Continuous
100
AcDbPolyline
 90
       17
 70
   128
 43
0.0
 10
235.0039405491144
 20
167.9014281267272
 10
231.5281162106712
 20
171.119626686198
 10
227.9630559901671
 20
174.068831259243
 10
224.2820631780628
 20
176.7575095749141
 10
220.4584410648191
 20
179.1941293622627
 10
216.4654929408966
 20
181.3871583503403
 10
212.2765220967562
 20
183.3450642681986
 10
207.8648318228586
 20
185.0763148448891
 10
203.2037254096646
 20
186.5893778094635
 10
198.266506147635
 20
187.8927208909732
 10
193.0264773272305
 20
188.9948118184698
 10
187.4569422389118
 20
189.904118321005
 10
181.5312041731397
 20
190.6291081276302
 10
175.222566420375
 20
191.1782489673971
 10
168.5043322710784
 20
191.5600085693573
 10
161.3498050157106
 20
191.7828546625622
 10
153.7322879447326
 20
191.8552549760635
  0
MTEXT
  5
363
330
E3
100
AcDbEntity
  8
Doc_ Floor
  6
Continuous
100
AcDbMText
 10
155.5739448576834
 20
88.2055953057198
 30
0.0
 40
2.500000000000001
 41
0.0
 71
     6
 72
     1
  1
{STEEL PURLIN & CLEAT}
  7
GENERATED_STYLE_1
 73
     1
 44
1.0
  0
LINE
  5
364
330
E3
100
AcDbEntity
  8
Doc_ Floor
  6
Continuous
100
AcDbLine
 10
230.7886005272975
 20
113.8057345997891
 30
0.0
 11
229.5038673245576
 21
110.1618835442887
 31
0.0
  0
LINE
  5
365
330
E3
100
AcDbEntity
  8
Doc_ Floor
  6
Continuous
100
AcDbLine
 10
230.7886005272975
 20
113.8057345997891
 30
0.0
 11
227.8540608424936
 21
111.2924309283373
 31
0.0
  0
LINE
  5
366
330
E3
100
AcDbEntity
  8
Doc_ Floor
  6
Continuous
100
AcDbLine
 10
229.5038673245576
 20
110.1618835442887
 30
0.0
 11
227.8540608424936
 21
111.2924309283373
 31
0.0
  0
LWPOLYLINE
  5
367
330
E3
100
AcDbEntity
  8
Doc_ Floor
  6
Continuous
100
AcDbPolyline
 90
       17
 70
   128
 43
0.0
 10
228.6789651179908
 20
110.7271575940717
 10
226.2878538003343
 20
107.7062363758005
 10
223.7215389964062
 20
104.9374146073452
 10
220.9571228118759
 20
102.4127995268019
 10
217.9717073524125
 20
100.1244983722666
 10
214.7423947236854
 20
98.06461838183539
 10
211.2462870313637
 20
96.22526679360433
 10
207.4604863811167
 20
94.59855084566952
 10
203.3620948786138
 20
93.176577776127
 10
198.928214629524
 20
91.95145482307286
 10
194.1359477395168
 20
90.91528922460313
 10
188.9623963142612
 20
90.06018821881389
 10
183.3846624594267
 20
89.37825904380121
 10
177.3798482806824
 20
88.86160893766117
 10
170.9250558836976
 20
88.50234513848982
 10
163.9973873741415
 20
88.29257488438321
 10
156.5739448576834
 20
88.22440541343745
  0
MTEXT
  5
368
330
E3
100
AcDbEntity
  8
Doc_ Floor
  6
Continuous
100
AcDbMText
 10
152.2490492205345
 20
121.6641368982653
 30
0.0
 40
2.500000000000001
 41
0.0
 71
     6
 72
     1
  1
{SAFETY MESH}
  7
GENERATED_STYLE_1
 73
     1
 44
1.0
  0
LINE
  5
369
330
E3
100
AcDbEntity
  8
Doc_ Floor
  6
Continuous
100
AcDbLine
 10
184.0504392887629
 20
150.7755928490182
 30
0.0
 11
183.0723485656412
 21
147.0377391945087
 31
0.0
  0
LINE
  5
36A
330
E3
100
AcDbEntity
  8
Doc_ Floor
  6
Continuous
100
AcDbLine
 10
184.0504392887629
 20
150.7755928490182
 30
0.0
 11
181.3344635945776
 21
148.0275618265887
 31
0.0
  0
LINE
  5
36B
330
E3
100
AcDbEntity
  8
Doc_ Floor
  6
Continuous
100
AcDbLine
 10
183.0723485656412
 20
147.0377391945087
 30
0.0
 11
181.3344635945776
 21
148.0275618265887
 31
0.0
  0
LWPOLYLINE
  5
36C
330
E3
100
AcDbEntity
  8
Doc_ Floor
  6
Continuous
100
AcDbPolyline
 90
       16
 70
   128
 43
0.0
 10
182.2034058109143
 20
147.5326512318357
 10
178.1715177538739
 20
140.8797479010815
 10
176.2623880581405
 20
137.9790405467144
 10
174.4116252738743
 20
135.3500325513304
 10
172.6095974182827
 20
132.983626278662
 10
170.8466725085727
 20
130.8707240924414
 10
169.1132185619514
 20
129.002228356401
 10
167.3996035956261
 20
127.3690414342731
 10
165.6961956268038
 20
125.9620656897901
 10
163.9933626726918
 20
124.7722034866843
 10
162.2814727504972
 20
123.7903571886881
 10
160.550893877427
 20
123.0074291595338
 10
158.7919940706885
 20
122.4143217629538
 10
156.9951413474888
 20
122.0019373626805
 10
155.1507037250351
 20
121.761178322446
 10
153.2490492205345
 20
121.6829470059829
  0
MTEXT
  5
36D
330
E3
100
AcDbEntity
  8
Doc_ Floor
  6
Continuous
100
AcDbMText
 10
152.2490492205345
 20
133.6401171062446
 30
0.0
 40
2.500000000000001
 41
0.0
 71
     6
 72
     1
  1
{ROOF UNDERLAY}
  7
GENERATED_STYLE_1
 73
     1
 44
1.0
  0
LINE
  5
36E
330
E3
100
AcDbEntity
  8
Doc_ Floor
  6
Continuous
100
AcDbLine
 10
177.0307101068354
 20
151.6121834131019
 30
0.0
 11
176.1295746583046
 21
147.8550376307088
 31
0.0
  0
LINE
  5
36F
330
E3
100
AcDbEntity
  8
Doc_ Floor
  6
Continuous
100
AcDbLine
 10
177.0307101068354
 20
151.6121834131019
 30
0.0
 11
174.3717307092776
 21
148.8089666695516
 31
0.0
  0
LINE
  5
370
330
E3
100
AcDbEntity
  8
Doc_ Floor
  6
Continuous
100
AcDbLine
 10
176.1295746583046
 20
147.8550376307088
 30
0.0
 11
174.3717307092776
 21
148.8089666695516
 31
0.0
  0
LWPOLYLINE
  5
371
330
E3
100
AcDbEntity
  8
Doc_ Floor
  6
Continuous
100
AcDbPolyline
 90
       14
 70
   128
 43
0.0
 10
175.2506514436482
 20
148.3320026120975
 10
172.9191682745999
 20
144.565096503273
 10
170.5744245215695
 20
141.4307139112944
 10
169.3804591642349
 20
140.0881715847962
 10
168.1632337467136
 20
138.8887033183183
 10
166.9160999642751
 20
137.8272901721302
 10
165.6324095121889
 20
136.8989132065015
 10
164.3055140857248
 20
136.0985534817018
 10
162.928765380152
 20
135.4211920580007
 10
161.4955150907405
 20
134.8618099956678
 10
159.9991149127596
 20
134.4153883549727
 10
158.432916541479
 20
134.076908196185
 10
156.7902716721682
 20
133.8413505795743
 10
153.2490492205345
 20
133.6589272139622
  0
MTEXT
  5
372
330
E3
100
AcDbEntity
  8
Doc_ Floor
  6
Continuous
100
AcDbMText
 10
99.17162799301991
 20
177.7386990743859
 30
0.0
 40
2.5
 41
0.0
 71
     4
 72
     1
  1
{TRS PROFILED METAL ROOFING}
  7
GENERATED_STYLE_1
 73
     1
 44
1.0
  0
LINE
  5
373
330
E3
100
AcDbEntity
  8
Doc_ Floor
  6
Continuous
100
AcDbLine
 10
177.9674251087402
 20
161.037826264421
 30
0.0
 11
175.1414656758478
 21
163.6726207154879
 31
0.0
  0
LINE
  5
374
330
E3
100
AcDbEntity
  8
Doc_ Floor
  6
Continuous
100
AcDbLine
 10
177.9674251087402
 20
161.037826264421
 30
0.0
 11
176.8374709110996
 21
164.7326060562318
 31
0.0
  0
LINE
  5
375
330
E3
100
AcDbEntity
  8
Doc_ Floor
  6
Continuous
100
AcDbLine
 10
175.1414656758478
 20
163.6726207154879
 30
0.0
 11
176.8374709110996
 21
164.7326060562318
 31
0.0
  0
LWPOLYLINE
  5
376
330
E3
100
AcDbEntity
  8
Doc_ Floor
  6
Continuous
100
AcDbPolyline
 90
       14
 70
   128
 43
0.0
 10
175.9894669085029
 20
164.2026124391984
 10
173.5236153852628
 20
167.6816176924651
 10
171.0672878213517
 20
170.5767470233761
 10
169.8257786235119
 20
171.8169172611554
 10
168.5663501347453
 20
172.9249893701944
 10
167.2822355947989
 20
173.9055869677761
 10
165.9666682434195
 20
174.7633336711832
 10
164.6128813203542
 20
175.5028530976987
 10
163.2141080653498
 20
176.1287688646055
 10
161.7635817181535
 20
176.6457045891864
 10
160.2545355185121
 20
177.0582838887243
 10
158.6802027061727
 20
177.3711303805021
 10
157.0338165208821
 20
177.5888676818026
 10
153.4978169904353
 20
177.7575091821036
  0
WIPEOUT
  5
377
330
E3
100
AcDbEntity
  8
Doc_ Floor
  6
Wipeout_Contour
 62
   254
 48
863.3408716384414
370
     0
 92
      296
310
28010000060000000C0000000E000000120000000C00000016000000000000C20C00000014000000010000006C000000070000000400000045C8D881BCCD5D4013AA443D649A64400000000000000000D10874FD531C634013AA443D649A64400000000000000000D10874FD531C63408CB2CED6EB29654000000000000000
310
0045C8D881BCCD5D408CB2CED6EB29654000000000000000000C0000000E000000FE00000084000000060000000500000045C8D881BCCD5D4013AA443D649A64400000000000000000D10874FD531C634013AA443D649A64400000000000000000D10874FD531C63408CB2CED6EB296540000000000000000045C8D881BCCD
310
5D408CB2CED6EB296540000000000000000045C8D881BCCD5D4013AA443D649A64400000000000000000
100
AcDbWipeout
 90
        0
 10
119.214630567266
 20
164.824736246214
 30
0.0
 11
33.67062212460355
 21
0.0
 31
0.0
 12
0.0
 22
4.485302705379382
 32
0.0
 13
1.0
 23
1.0
340
0
 70
    15
280
     1
281
    50
282
    50
283
     0
360
0
 71
     2
 91
        5
 14
-0.5000000000000002
 24
0.5000000000000032
 14
0.4999999999999998
 24
0.5000000000000032
 14
0.4999999999999998
 24
-0.4999999999999968
 14
-0.5000000000000002
 24
-0.4999999999999968
 14
-0.5000000000000002
 24
0.5000000000000032
  0
MTEXT
  5
379
330
E3
100
AcDbEntity
  8
Doc_ Floor
  6
Continuous
100
AcDbMText
 10
119.214630567266
 20
168.3800389515933
 30
0.0
 40
2.5
 41
0.0
 71
     1
 72
     1
  1
{ROOF PITCH 3° MIN.}
  7
GENERATED_STYLE_1
 73
     1
 44
1.0
  0
ENDBLK
  5
E5
330
E3
100
AcDbEntity
  8
0
100
AcDbBlockEnd
  0
BLOCK
  5
37F
330
37E
100
AcDbEntity
  8
0
100
AcDbBlockBegin
  2
C-TRS9-02 TYPICAL ROOF LAYOUT_STORY_MARKER
 70
     0
 10
0.0
 20
0.0
 30
0.0
  3
C-TRS9-02 TYPICAL ROOF LAYOUT_STORY_MARKER
  1

  0
ENDBLK
  5
380
330
37E
100
AcDbEntity
  8
0
100
AcDbBlockEnd
  0
ENDSEC
  0
SECTION
  2
ENTITIES
  0
HATCH
  5
3F
330
1F
100
AcDbEntity
  8
Doc_ Finishes
  6
Continuous
100
AcDbHatch
 10
0.0
 20
0.0
 30
0.0
210
0.0
220
0.0
230
1.0
  2
SOLID
 70
     1
 71
     0
 91
        1
 92
        3
 72
     0
 73
     1
 93
       54
 10
25.4117749414874
 20
16.87044408857867
 10
24.89356552397386
 20
16.5825499677378
 10
24.5480925789648
 20
16.29465584689693
 10
24.12584786839818
 20
16.02595466744544
 10
23.76118198199976
 20
15.60370995687884
 10
23.39651609560134
 20
15.33500877742737
 10
23.07023609198168
 20
14.89357112547136
 10
22.49444785029994
 20
14.45213347351537
 10
21.93785255000758
 20
14.02988876294876
 10
21.43883607388343
 20
13.81876640766546
 10
20.74789018386533
 20
13.39652169709885
 10
20.09533017662603
 20
12.99346992792163
 10
19.63469958328064
 20
12.55203227596564
 10
18.90536781048376
 20
12.12978756539902
 10
18.59828074825351
 20
11.7459287376112
 10
18.04168544796116
 20
11.28529814426581
 10
17.36993249933246
 20
10.8630534336992
 10
16.73656543348255
 20
10.42161578174319
 10
16.04561954346446
 20
10.15291460229172
 10
15.1051654153843
 20
9.692284008946325
 10
14.39502658397681
 20
9.020531060317637
 10
13.83843128368446
 20
8.598286349751023
 10
13.12829245227699
 20
8.137655756405634
 10
12.84039833143612
 20
7.98411222529051
 10
12.37976773809073
 20
7.81137575278599
 10
12.07268067586046
 20
7.523481631945121
 10
12.0151018516923
 20
7.216394569714853
 10
12.14945244141803
 20
6.890114566095209
 10
12.4373465622589
 20
6.563834562475543
 10
12.8787842142149
 20
6.659799269422514
 10
13.51215128006482
 20
7.06285103859973
 10
14.01116775618899
 20
7.389131042219374
 10
14.33744775980864
 20
7.696218104449641
 10
14.51018423231316
 20
7.907340459732938
 10
15.01303929671522
 20
8.421711288968723
 10
15.33548071205699
 20
8.652026585641417
 10
15.75004824606785
 20
8.99749953065046
 10
16.14158425041142
 20
9.204783297655894
 10
17.24709767444037
 20
9.75754000967037
 10
18.23745345013295
 20
10.47151742935572
 10
19.4120614631637
 20
11.1624633193738
 10
19.84966052684182
 20
11.64612544238645
 10
20.49454335752537
 20
12.06069297639732
 10
21.78430901889248
 20
12.9819541630881
 10
22.36009726057419
 20
13.25833251909534
 10
23.6498629219413
 20
14.24868829478776
 10
23.85714668894673
 20
14.64022429913134
 10
24.68628175696843
 20
15.23904407048036
 10
25.28510152831745
 20
15.72270619349301
 10
25.81482671066464
 20
16.1142421978366
 10
26.27545730401003
 20
16.52880973184745
 10
26.22939424467549
 20
16.7821565581874
 10
26.09120506667188
 20
16.89731420652375
 10
25.56147988432467
 20
16.89731420652375
 97
        0
 75
     0
 76
     1
 98
        0
  0
LINE
  5
41
330
1F
100
AcDbEntity
  8
Doc_ Finishes
  6
Continuous
100
AcDbLine
 10
25.41177616050354
 20
16.87044600708104
 30
0.0
 11
24.89356363099921
 21
16.58254868214004
 31
0.0
  0
LINE
  5
42
330
1F
100
AcDbEntity
  8
Doc_ Finishes
  6
Continuous
100
AcDbLine
 10
24.89356363099921
 20
16.58254868214004
 30
0.0
 11
24.54809303697876
 21
16.29465578284815
 31
0.0
  0
LINE
  5
43
330
1F
100
AcDbEntity
  8
Doc_ Finishes
  6
Continuous
100
AcDbLine
 10
24.54809303697876
 20
16.29465578284815
 30
0.0
 11
24.12584628245476
 21
16.02595249803305
 31
0.0
  0
LINE
  5
44
330
1F
100
AcDbEntity
  8
Doc_ Finishes
  6
Continuous
100
AcDbLine
 10
24.12584628245476
 20
16.02595249803305
 30
0.0
 11
23.76118164830842
 21
15.60371016915814
 31
0.0
  0
LINE
  5
45
330
1F
100
AcDbEntity
  8
Doc_ Finishes
  6
Continuous
100
AcDbLine
 10
23.76118164830842
 20
15.60371016915814
 30
0.0
 11
23.39651701416208
 21
15.33500688434304
 31
0.0
  0
LINE
  5
46
330
1F
100
AcDbEntity
  8
Doc_ Finishes
  6
Continuous
100
AcDbLine
 10
23.39651701416208
 20
15.33500688434304
 30
0.0
 11
23.07023603461841
 21
14.89357051534225
 31
0.0
  0
LINE
  5
47
330
1F
100
AcDbEntity
  8
Doc_ Finishes
  6
Continuous
100
AcDbLine
 10
23.07023603461841
 20
14.89357051534225
 30
0.0
 11
22.49444581038552
 21
14.45213414634146
 31
0.0
  0
LINE
  5
48
330
1F
100
AcDbEntity
  8
Doc_ Finishes
  6
Continuous
100
AcDbLine
 10
22.49444581038552
 20
14.45213414634146
 30
0.0
 11
21.93785405192762
 21
14.02988739181747
 31
0.0
  0
LINE
  5
49
330
1F
100
AcDbEntity
  8
Doc_ Finishes
  6
Continuous
100
AcDbLine
 10
21.93785405192762
 20
14.02988739181747
 30
0.0
 11
21.43883556254917
 21
13.81876622738001
 31
0.0
  0
LINE
  5
4A
330
1F
100
AcDbEntity
  8
Doc_ Finishes
  6
Continuous
100
AcDbLine
 10
21.43883556254917
 20
13.81876622738001
 30
0.0
 11
20.74788994885916
 21
13.39652389850511
 31
0.0
  0
LINE
  5
4B
330
1F
100
AcDbEntity
  8
Doc_ Finishes
  6
Continuous
100
AcDbLine
 10
20.74788994885916
 20
13.39652389850511
 30
0.0
 11
20.09532798977183
 21
12.993471184107
 31
0.0
  0
LINE
  5
4C
330
1F
100
AcDbEntity
  8
Doc_ Finishes
  6
Continuous
100
AcDbLine
 10
20.09532798977183
 20
12.993471184107
 30
0.0
 11
19.63469758064516
 21
12.55203038945712
 31
0.0
  0
LINE
  5
4D
330
1F
100
AcDbEntity
  8
Doc_ Finishes
  6
Continuous
100
AcDbLine
 10
19.63469758064516
 20
12.55203038945712
 30
0.0
 11
18.90536831235248
 21
12.12978806058222
 31
0.0
  0
LINE
  5
4E
330
1F
100
AcDbEntity
  8
Doc_ Finishes
  6
Continuous
100
AcDbLine
 10
18.90536831235248
 20
12.12978806058222
 30
0.0
 11
18.5982813729347
 21
11.74592938630999
 31
0.0
  0
LINE
  5
4F
330
1F
100
AcDbEntity
  8
Doc_ Finishes
  6
Continuous
100
AcDbLine
 10
18.5982813729347
 20
11.74592938630999
 30
0.0
 11
18.0416851888277
 21
11.28529897718332
 31
0.0
  0
LINE
  5
50
330
1F
100
AcDbEntity
  8
Doc_ Finishes
  6
Continuous
100
AcDbLine
 10
18.0416851888277
 20
11.28529897718332
 30
0.0
 11
17.36993361526357
 21
10.86305222265932
 31
0.0
  0
LINE
  5
51
330
1F
100
AcDbEntity
  8
Doc_ Finishes
  6
Continuous
100
AcDbLine
 10
17.36993361526357
 20
10.86305222265932
 30
0.0
 11
16.73656569630212
 21
10.42161585365854
 31
0.0
  0
LINE
  5
52
330
1F
100
AcDbEntity
  8
Doc_ Finishes
  6
Continuous
100
AcDbLine
 10
16.73656569630212
 20
10.42161585365854
 30
0.0
 11
16.04562008261211
 21
10.15291256884343
 31
0.0
  0
LINE
  5
53
330
1F
100
AcDbEntity
  8
Doc_ Finishes
  6
Continuous
100
AcDbLine
 10
16.04562008261211
 20
10.15291256884343
 30
0.0
 11
15.10516522423289
 21
9.692282159716758
 31
0.0
  0
LINE
  5
54
330
1F
100
AcDbEntity
  8
Doc_ Finishes
  6
Continuous
100
AcDbLine
 10
15.10516522423289
 20
9.692282159716758
 30
0.0
 11
14.39502557041699
 21
9.020530586152635
 31
0.0
  0
LINE
  5
55
330
1F
100
AcDbEntity
  8
Doc_ Finishes
  6
Continuous
100
AcDbLine
 10
14.39502557041699
 20
9.020530586152635
 30
0.0
 11
13.83842938630999
 21
8.598288257277733
 31
0.0
  0
LINE
  5
56
330
1F
100
AcDbEntity
  8
Doc_ Finishes
  6
Continuous
100
AcDbLine
 10
13.83842938630999
 20
8.598288257277733
 30
0.0
 11
13.12829415814319
 21
8.137657848151063
 31
0.0
  0
LINE
  5
57
330
1F
100
AcDbEntity
  8
Doc_ Finishes
  6
Continuous
100
AcDbLine
 10
13.12829415814319
 20
8.137657848151063
 30
0.0
 11
12.8403968332022
 21
7.984114378442171
 31
0.0
  0
LINE
  5
58
330
1F
100
AcDbEntity
  8
Doc_ Finishes
  6
Continuous
100
AcDbLine
 10
12.8403968332022
 20
7.984114378442171
 30
0.0
 11
12.37976642407553
 21
7.811376868607396
 31
0.0
  0
LINE
  5
59
330
1F
100
AcDbEntity
  8
Doc_ Finishes
  6
Continuous
100
AcDbLine
 10
12.37976642407553
 20
7.811376868607396
 30
0.0
 11
12.07267948465775
 21
7.523479543666405
 31
0.0
  0
LINE
  5
5A
330
1F
100
AcDbEntity
  8
Doc_ Finishes
  6
Continuous
100
AcDbLine
 10
12.07267948465775
 20
7.523479543666405
 30
0.0
 11
12.01510178992919
 21
7.216392604248622
 31
0.0
  0
LINE
  5
5B
330
1F
100
AcDbEntity
  8
Doc_ Finishes
  6
Continuous
100
AcDbLine
 10
12.01510178992919
 20
7.216392604248622
 30
0.0
 11
12.1494512195122
 21
6.890116050354051
 31
0.0
  0
LINE
  5
5C
330
1F
100
AcDbEntity
  8
Doc_ Finishes
  6
Continuous
100
AcDbLine
 10
12.1494512195122
 20
6.890116050354051
 30
0.0
 11
12.43734854445319
 21
6.563835070810386
 31
0.0
  0
LINE
  5
5D
330
1F
100
AcDbEntity
  8
Doc_ Finishes
  6
Continuous
100
AcDbLine
 10
12.43734854445319
 20
6.563835070810386
 30
0.0
 11
12.87878491345397
 21
6.659800845790715
 31
0.0
  0
LINE
  5
5E
330
1F
100
AcDbEntity
  8
Doc_ Finishes
  6
Continuous
100
AcDbLine
 10
12.87878491345397
 20
6.659800845790715
 30
0.0
 11
13.51215283241542
 21
7.062849134539732
 31
0.0
  0
LINE
  5
5F
330
1F
100
AcDbEntity
  8
Doc_ Finishes
  6
Continuous
100
AcDbLine
 10
13.51215283241542
 20
7.062849134539732
 30
0.0
 11
14.01116689614477
 21
7.389130114083398
 31
0.0
  0
LINE
  5
60
330
1F
100
AcDbEntity
  8
Doc_ Finishes
  6
Continuous
100
AcDbLine
 10
14.01116689614477
 20
7.389130114083398
 30
0.0
 11
14.33744787568843
 21
7.69621705350118
 31
0.0
  0
LINE
  5
61
330
1F
100
AcDbEntity
  8
Doc_ Finishes
  6
Continuous
100
AcDbLine
 10
14.33744787568843
 20
7.69621705350118
 30
0.0
 11
14.51018538552321
 21
7.907342643587726
 31
0.0
  0
LINE
  5
62
330
1F
100
AcDbEntity
  8
Doc_ Finishes
  6
Continuous
100
AcDbLine
 10
14.51018538552321
 20
7.907342643587726
 30
0.0
 11
15.01304091266719
 21
8.421709284028323
 31
0.0
  0
LINE
  5
63
330
1F
100
AcDbEntity
  8
Doc_ Finishes
  6
Continuous
100
AcDbLine
 10
15.01304091266719
 20
8.421709284028323
 30
0.0
 11
15.33548042879622
 21
8.65202448859166
 31
0.0
  0
LINE
  5
64
330
1F
100
AcDbEntity
  8
Doc_ Finishes
  6
Continuous
100
AcDbLine
 10
15.33548042879622
 20
8.65202448859166
 30
0.0
 11
15.75004868214005
 21
8.997499508261212
 31
0.0
  0
LINE
  5
65
330
1F
100
AcDbEntity
  8
Doc_ Finishes
  6
Continuous
100
AcDbLine
 10
15.75004868214005
 20
8.997499508261212
 30
0.0
 11
16.14158585759245
 21
9.204783634933122
 31
0.0
  0
LINE
  5
66
330
1F
100
AcDbEntity
  8
Doc_ Finishes
  6
Continuous
100
AcDbLine
 10
16.14158585759245
 20
9.204783634933122
 30
0.0
 11
17.24709972462628
 21
9.75753835562549
 31
0.0
  0
LINE
  5
67
330
1F
100
AcDbEntity
  8
Doc_ Finishes
  6
Continuous
100
AcDbLine
 10
17.24709972462628
 20
9.75753835562549
 30
0.0
 11
18.2374537765539
 21
10.47151947285602
 31
0.0
  0
LINE
  5
68
330
1F
100
AcDbEntity
  8
Doc_ Finishes
  6
Continuous
100
AcDbLine
 10
18.2374537765539
 20
10.47151947285602
 30
0.0
 11
19.41206087726199
 21
11.16246508654602
 31
0.0
  0
LINE
  5
69
330
1F
100
AcDbEntity
  8
Doc_ Finishes
  6
Continuous
100
AcDbLine
 10
19.41206087726199
 20
11.16246508654602
 30
0.0
 11
19.84966020849724
 21
11.64612657356412
 31
0.0
  0
LINE
  5
6A
330
1F
100
AcDbEntity
  8
Doc_ Finishes
  6
Continuous
100
AcDbLine
 10
19.84966020849724
 20
11.64612657356412
 30
0.0
 11
20.4945436664044
 21
12.06069482690795
 31
0.0
  0
LINE
  5
6B
330
1F
100
AcDbEntity
  8
Doc_ Finishes
  6
Continuous
100
AcDbLine
 10
20.4945436664044
 20
12.06069482690795
 30
0.0
 11
21.78431058221873
 21
12.98195564516129
 31
0.0
  0
LINE
  5
6C
330
1F
100
AcDbEntity
  8
Doc_ Finishes
  6
Continuous
100
AcDbLine
 10
21.78431058221873
 20
12.98195564516129
 30
0.0
 11
22.36009638080252
 21
13.25833300550747
 31
0.0
  0
LINE
  5
6D
330
1F
100
AcDbEntity
  8
Doc_ Finishes
  6
Continuous
100
AcDbLine
 10
22.36009638080252
 20
13.25833300550747
 30
0.0
 11
23.64986329661684
 21
14.24868705743509
 31
0.0
  0
LINE
  5
6E
330
1F
100
AcDbEntity
  8
Doc_ Finishes
  6
Continuous
100
AcDbLine
 10
23.64986329661684
 20
14.24868705743509
 30
0.0
 11
23.85714742328875
 21
14.64022423288749
 31
0.0
  0
LINE
  5
6F
330
1F
100
AcDbEntity
  8
Doc_ Finishes
  6
Continuous
100
AcDbLine
 10
23.85714742328875
 20
14.64022423288749
 30
0.0
 11
24.68628392997639
 21
15.2390455350118
 31
0.0
  0
LINE
  5
70
330
1F
100
AcDbEntity
  8
Doc_ Finishes
  6
Continuous
100
AcDbLine
 10
24.68628392997639
 20
15.2390455350118
 30
0.0
 11
25.28510080645161
 21
15.7227070220299
 31
0.0
  0
LINE
  5
71
330
1F
100
AcDbEntity
  8
Doc_ Finishes
  6
Continuous
100
AcDbLine
 10
25.28510080645161
 20
15.7227070220299
 30
0.0
 11
25.81482887490165
 21
16.1142441974823
 31
0.0
  0
LINE
  5
72
330
1F
100
AcDbEntity
  8
Doc_ Finishes
  6
Continuous
100
AcDbLine
 10
25.81482887490165
 20
16.1142441974823
 30
0.0
 11
26.27545928402832
 21
16.52880802517702
 31
0.0
  0
LINE
  5
73
330
1F
100
AcDbEntity
  8
Doc_ Finishes
  6
Continuous
100
AcDbLine
 10
26.27545928402832
 20
16.52880802517702
 30
0.0
 11
26.22939270259638
 21
16.78215873328088
 31
0.0
  0
LINE
  5
74
330
1F
100
AcDbEntity
  8
Doc_ Finishes
  6
Continuous
100
AcDbLine
 10
26.22939270259638
 20
16.78215873328088
 30
0.0
 11
26.09120623524784
 21
16.897314122738
 31
0.0
  0
LINE
  5
75
330
1F
100
AcDbEntity
  8
Doc_ Finishes
  6
Continuous
100
AcDbLine
 10
26.09120623524784
 20
16.897314122738
 30
0.0
 11
25.56147816679779
 21
16.897314122738
 31
0.0
  0
LINE
  5
76
330
1F
100
AcDbEntity
  8
Doc_ Finishes
  6
Continuous
100
AcDbLine
 10
25.56147816679779
 20
16.897314122738
 30
0.0
 11
25.41177616050354
 21
16.87044600708104
 31
0.0
  0
HATCH
  5
77
330
1F
100
AcDbEntity
  8
Doc_ Finishes
  6
Continuous
100
AcDbHatch
 10
0.0
 20
0.0
 30
0.0
210
0.0
220
0.0
230
1.0
  2
SOLID
 70
     1
 71
     0
 91
        1
 92
        3
 72
     0
 73
     1
 93
       39
 10
25.65360600299377
 20
13.12014334109181
 10
25.21600693931564
 20
12.77467039608275
 10
24.54809257896482
 20
12.24494521373555
 10
23.92624127794851
 20
11.85340920939199
 10
23.32742150659951
 20
11.32368402704478
 10
22.72860173525051
 20
11.04730567103754
 10
22.08371890456697
 20
10.56364354802488
 10
21.62308831122158
 20
10.33332825135219
 10
21.231552306878
 20
10.03391836567767
 10
20.81698477286715
 20
9.619350831666825
 10
20.4024172388563
 20
9.38903553499415
 10
19.91875511584363
 20
9.043562589985086
 10
19.66540828950367
 20
8.859310352646935
 10
19.25084075549282
 20
8.582931996639696
 10
18.09926427212933
 20
7.753796928618002
 10
17.75379132712029
 20
7.477418572610764
 10
17.2931607337749
 20
7.316197864939873
 10
17.22406614477309
 20
6.993756449598113
 10
17.3622553227767
 20
6.717378093590874
 10
17.63863367878394
 20
6.602220445254527
 10
18.00713815346025
 20
6.8325357419272
 10
18.26048497980021
 20
7.131945627601722
 10
18.55989486547472
 20
7.362260924274415
 10
19.31993534449462
 20
7.707733869283458
 10
19.84966052684182
 20
8.122301403294307
 10
20.88607936186895
 20
8.882341882314256
 10
21.20852077721072
 20
9.342972475659646
 10
22.01462431556515
 20
9.734508480003234
 10
22.5673810275796
 20
10.05694989534501
 10
23.46561068460312
 20
10.60970660735953
 10
23.88017821861399
 20
11.07033720070492
 10
24.31777728229212
 20
11.34671555671216
 10
24.70931328663568
 20
11.30065249737762
 10
25.21600693931562
 20
11.55399932371759
 10
26.0681735370046
 20
12.17585062473387
 10
26.41364648201364
 20
12.49829204007566
 10
26.39061495234636
 20
12.77467039608289
 10
26.22939424467547
 20
13.00498569275559
 10
26.04514200733731
 20
13.05104875209013
 97
        0
 75
     0
 76
     1
 98
        0
  0
LINE
  5
78
330
1F
100
AcDbEntity
  8
Doc_ Finishes
  6
Continuous
100
AcDbLine
 10
25.65360690401259
 20
13.12014211250983
 30
0.0
 11
25.21600757277734
 21
12.77467151848938
 31
0.0
  0
LINE
  5
79
330
1F
100
AcDbEntity
  8
Doc_ Finishes
  6
Continuous
100
AcDbLine
 10
25.21600757277734
 20
12.77467151848938
 30
0.0
 11
24.54809303697876
 21
12.24494345003934
 31
0.0
  0
LINE
  5
7A
330
1F
100
AcDbEntity
  8
Doc_ Finishes
  6
Continuous
100
AcDbLine
 10
24.54809303697876
 20
12.24494345003934
 30
0.0
 11
23.92624065696302
 21
11.85341070023603
 31
0.0
  0
LINE
  5
7B
330
1F
100
AcDbEntity
  8
Doc_ Finishes
  6
Continuous
100
AcDbLine
 10
23.92624065696302
 20
11.85341070023603
 30
0.0
 11
23.32741935483871
 21
11.32368263178599
 31
0.0
  0
LINE
  5
7C
330
1F
100
AcDbEntity
  8
Doc_ Finishes
  6
Continuous
100
AcDbLine
 10
23.32741935483871
 20
11.32368263178599
 30
0.0
 11
22.72860247836349
 21
11.04730527143981
 31
0.0
  0
LINE
  5
7D
330
1F
100
AcDbEntity
  8
Doc_ Finishes
  6
Continuous
100
AcDbLine
 10
22.72860247836349
 20
11.04730527143981
 30
0.0
 11
22.08371902045633
 21
10.56364378442171
 31
0.0
  0
LINE
  5
7E
330
1F
100
AcDbEntity
  8
Doc_ Finishes
  6
Continuous
100
AcDbLine
 10
22.08371902045633
 20
10.56364378442171
 30
0.0
 11
21.62308861132966
 21
10.33332857985838
 31
0.0
  0
LINE
  5
7F
330
1F
100
AcDbEntity
  8
Doc_ Finishes
  6
Continuous
100
AcDbLine
 10
21.62308861132966
 20
10.33332857985838
 30
0.0
 11
21.23155143587726
 21
10.03392014162077
 31
0.0
  0
LINE
  5
80
330
1F
100
AcDbEntity
  8
Doc_ Finishes
  6
Continuous
100
AcDbLine
 10
21.23155143587726
 20
10.03392014162077
 30
0.0
 11
20.81698318253344
 21
9.619351888276947
 31
0.0
  0
LINE
  5
81
330
1F
100
AcDbEntity
  8
Doc_ Finishes
  6
Continuous
100
AcDbLine
 10
20.81698318253344
 20
9.619351888276947
 30
0.0
 11
20.40241935483871
 21
9.389036683713611
 31
0.0
  0
LINE
  5
82
330
1F
100
AcDbEntity
  8
Doc_ Finishes
  6
Continuous
100
AcDbLine
 10
20.40241935483871
 20
9.389036683713611
 30
0.0
 11
19.91875344217151
 21
9.04356166404406
 31
0.0
  0
LINE
  5
83
330
1F
100
AcDbEntity
  8
Doc_ Finishes
  6
Continuous
100
AcDbLine
 10
19.91875344217151
 20
9.04356166404406
 30
0.0
 11
19.66540715971676
 21
8.859308615263572
 31
0.0
  0
LINE
  5
84
330
1F
100
AcDbEntity
  8
Doc_ Finishes
  6
Continuous
100
AcDbLine
 10
19.66540715971676
 20
8.859308615263572
 30
0.0
 11
19.25083890637293
 21
8.582931254917387
 31
0.0
  0
LINE
  5
85
330
1F
100
AcDbEntity
  8
Doc_ Finishes
  6
Continuous
100
AcDbLine
 10
19.25083890637293
 20
8.582931254917387
 30
0.0
 11
18.09926288355625
 21
7.75379474822974
 31
0.0
  0
LINE
  5
86
330
1F
100
AcDbEntity
  8
Doc_ Finishes
  6
Continuous
100
AcDbLine
 10
18.09926288355625
 20
7.75379474822974
 30
0.0
 11
17.7537922895358
 21
7.477417387883556
 31
0.0
  0
LINE
  5
87
330
1F
100
AcDbEntity
  8
Doc_ Finishes
  6
Continuous
100
AcDbLine
 10
17.7537922895358
 20
7.477417387883556
 30
0.0
 11
17.29316188040913
 21
7.316199842643588
 31
0.0
  0
LINE
  5
88
330
1F
100
AcDbEntity
  8
Doc_ Finishes
  6
Continuous
100
AcDbLine
 10
17.29316188040913
 20
7.316199842643588
 30
0.0
 11
17.22406422108576
 21
6.993755900865461
 31
0.0
  0
LINE
  5
89
330
1F
100
AcDbEntity
  8
Doc_ Finishes
  6
Continuous
100
AcDbLine
 10
17.22406422108576
 20
6.993755900865461
 30
0.0
 11
17.3622551140834
 21
6.717378540519276
 31
0.0
  0
LINE
  5
8A
330
1F
100
AcDbEntity
  8
Doc_ Finishes
  6
Continuous
100
AcDbLine
 10
17.3622551140834
 20
6.717378540519276
 30
0.0
 11
17.63863247442958
 21
6.602218725413059
 31
0.0
  0
LINE
  5
8B
330
1F
100
AcDbEntity
  8
Doc_ Finishes
  6
Continuous
100
AcDbLine
 10
17.63863247442958
 20
6.602218725413059
 30
0.0
 11
18.00713857199056
 21
6.832533929976396
 31
0.0
  0
LINE
  5
8C
330
1F
100
AcDbEntity
  8
Doc_ Finishes
  6
Continuous
100
AcDbLine
 10
18.00713857199056
 20
6.832533929976396
 30
0.0
 11
18.26048485444532
 21
7.1319467938631
 31
0.0
  0
LINE
  5
8D
330
1F
100
AcDbEntity
  8
Doc_ Finishes
  6
Continuous
100
AcDbLine
 10
18.26048485444532
 20
7.1319467938631
 30
0.0
 11
18.55989329268293
 21
7.362261998426435
 31
0.0
  0
LINE
  5
8E
330
1F
100
AcDbEntity
  8
Doc_ Finishes
  6
Continuous
100
AcDbLine
 10
18.55989329268293
 20
7.362261998426435
 30
0.0
 11
19.3199365656963
 21
7.707732592446892
 31
0.0
  0
LINE
  5
8F
330
1F
100
AcDbEntity
  8
Doc_ Finishes
  6
Continuous
100
AcDbLine
 10
19.3199365656963
 20
7.707732592446892
 30
0.0
 11
19.84966020849724
 21
8.122300845790717
 31
0.0
  0
LINE
  5
90
330
1F
100
AcDbEntity
  8
Doc_ Finishes
  6
Continuous
100
AcDbLine
 10
19.84966020849724
 20
8.122300845790717
 30
0.0
 11
20.8860808418568
 21
8.882339693154996
 31
0.0
  0
LINE
  5
91
330
1F
100
AcDbEntity
  8
Doc_ Finishes
  6
Continuous
100
AcDbLine
 10
20.8860808418568
 20
8.882339693154996
 30
0.0
 11
21.20852035798584
 21
9.342974527930762
 31
0.0
  0
LINE
  5
92
330
1F
100
AcDbEntity
  8
Doc_ Finishes
  6
Continuous
100
AcDbLine
 10
21.20852035798584
 20
9.342974527930762
 30
0.0
 11
22.01462578678206
 21
9.734507277734066
 31
0.0
  0
LINE
  5
93
330
1F
100
AcDbEntity
  8
Doc_ Finishes
  6
Continuous
100
AcDbLine
 10
22.01462578678206
 20
9.734507277734066
 30
0.0
 11
22.56738050747443
 21
10.05695121951219
 31
0.0
  0
LINE
  5
94
330
1F
100
AcDbEntity
  8
Doc_ Finishes
  6
Continuous
100
AcDbLine
 10
22.56738050747443
 20
10.05695121951219
 30
0.0
 11
23.46561024783635
 21
10.60970594020456
 31
0.0
  0
LINE
  5
95
330
1F
100
AcDbEntity
  8
Doc_ Finishes
  6
Continuous
100
AcDbLine
 10
23.46561024783635
 20
10.60970594020456
 30
0.0
 11
23.88017850118017
 21
11.07033634933124
 31
0.0
  0
LINE
  5
96
330
1F
100
AcDbEntity
  8
Doc_ Finishes
  6
Continuous
100
AcDbLine
 10
23.88017850118017
 20
11.07033634933124
 30
0.0
 11
24.31777783241542
 21
11.34671370967742
 31
0.0
  0
LINE
  5
97
330
1F
100
AcDbEntity
  8
Doc_ Finishes
  6
Continuous
100
AcDbLine
 10
24.31777783241542
 20
11.34671370967742
 30
0.0
 11
24.70931500786781
 21
11.30065155389457
 31
0.0
  0
LINE
  5
98
330
1F
100
AcDbEntity
  8
Doc_ Finishes
  6
Continuous
100
AcDbLine
 10
24.70931500786781
 20
11.30065155389457
 30
0.0
 11
25.21600757277734
 21
11.55399783634933
 31
0.0
  0
LINE
  5
99
330
1F
100
AcDbEntity
  8
Doc_ Finishes
  6
Continuous
100
AcDbLine
 10
25.21600757277734
 20
11.55399783634933
 30
0.0
 11
26.06817515735641
 21
12.17585021636507
 31
0.0
  0
LINE
  5
9A
330
1F
100
AcDbEntity
  8
Doc_ Finishes
  6
Continuous
100
AcDbLine
 10
26.06817515735641
 20
12.17585021636507
 30
0.0
 11
26.41364575137687
 21
12.49829415814319
 31
0.0
  0
LINE
  5
9B
330
1F
100
AcDbEntity
  8
Doc_ Finishes
  6
Continuous
100
AcDbLine
 10
26.41364575137687
 20
12.49829415814319
 30
0.0
 11
26.39061467348544
 21
12.77467151848938
 31
0.0
  0
LINE
  5
9C
330
1F
100
AcDbEntity
  8
Doc_ Finishes
  6
Continuous
100
AcDbLine
 10
26.39061467348544
 20
12.77467151848938
 30
0.0
 11
26.22939270259638
 21
13.00498672305271
 31
0.0
  0
LINE
  5
9D
330
1F
100
AcDbEntity
  8
Doc_ Finishes
  6
Continuous
100
AcDbLine
 10
26.22939270259638
 20
13.00498672305271
 30
0.0
 11
26.04514407946499
 21
13.05104887883556
 31
0.0
  0
LINE
  5
9E
330
1F
100
AcDbEntity
  8
Doc_ Finishes
  6
Continuous
100
AcDbLine
 10
26.04514407946499
 20
13.05104887883556
 30
0.0
 11
25.65360690401259
 21
13.12014211250983
 31
0.0
  0
HATCH
  5
9F
330
1F
100
AcDbEntity
  8
Doc_ Finishes
  6
Continuous
100
AcDbHatch
 10
0.0
 20
0.0
 30
0.0
210
0.0
220
0.0
230
1.0
  2
SOLID
 70
     1
 71
     0
 91
        1
 92
        3
 72
     0
 73
     1
 93
       47
 10
26.06817353700455
 20
15.74573772316067
 10
26.30309513961077
 20
15.62136746295728
 10
26.4412843176144
 20
15.4002647781515
 10
26.93876535842742
 20
15.17916209334572
 10
27.82317609765057
 20
14.40530269652538
 10
28.9286895216795
 20
13.74199464210799
 10
29.59199757609689
 20
13.3827027792986
 10
30.20002995931278
 20
13.07868658769064
 10
31.55428390374827
 20
12.08372450606458
 10
32.07940278016201
 20
11.69679480765445
 10
32.88090001258301
 20
11.08876242443854
 10
33.59948373820179
 20
10.50836787682334
 10
34.5668079842271
 20
9.817421986805197
 10
35.06428902504011
 20
9.458130123995785
 10
35.81051058625965
 20
8.933011247582023
 10
36.61200781868061
 20
8.407892371168286
 10
36.77783483228498
 20
8.186789686362482
 10
37.38586721550091
 20
7.744584316750918
 10
38.18736444792187
 20
6.915449248729224
 10
38.7953968311378
 20
6.44560604351692
 10
39.56925622795804
 20
6.169227687509681
 10
40.23256428237543
 20
6.086314180707507
 10
40.48130480278193
 20
6.30741686551329
 10
40.14965077557326
 20
6.611433057121246
 10
39.48634272115586
 20
6.998362755531397
 10
38.76775899553708
 20
7.357654618340788
 10
38.18736444792187
 20
8.048600508358874
 10
36.99893751709078
 20
8.822459905179112
 10
36.47381864067705
 20
9.319940945992132
 10
36.22507812027052
 20
9.734508480003
 10
35.174840367443
 20
10.31490302761817
 10
34.73263499783144
 20
10.78474623283046
 10
34.2351539570184
 20
11.17167593124059
 10
33.48893239579888
 20
11.61388130085215
 10
32.85326217698223
 20
12.16663801286669
 10
32.35578113616918
 20
12.58120554687754
 10
31.69247308175183
 20
12.99577308088841
 10
31.22262987653952
 20
13.32742710809708
 10
30.7251488357265
 20
13.5761676285036
 10
29.93747052110587
 20
14.06443605744977
 10
29.43077686842594
 20
14.38687747279155
 10
28.92408321574601
 20
14.70931888813342
 10
28.62467333007151
 20
15.100854892477
 10
27.95675896972068
 20
15.67664313415887
 10
27.47309684670803
 20
15.9530214901661
 10
26.82821401602446
 20
16.36758902417695
 10
26.50577260068269
 20
16.22939984617334
 97
        0
 75
     0
 76
     1
 98
        0
  0
LINE
  5
A0
330
1F
100
AcDbEntity
  8
Doc_ Finishes
  6
Continuous
100
AcDbLine
 10
26.30309303697875
 20
15.62136850904799
 30
0.0
 11
26.06817515735641
 21
15.74573809992132
 31
0.0
  0
LINE
  5
A1
330
1F
100
AcDbEntity
  8
Doc_ Finishes
  6
Continuous
100
AcDbLine
 10
26.4412839299764
 20
15.40026308025177
 30
0.0
 11
26.30309303697875
 21
15.62136850904799
 31
0.0
  0
LINE
  5
A2
330
1F
100
AcDbEntity
  8
Doc_ Finishes
  6
Continuous
100
AcDbLine
 10
26.9387667191188
 20
15.17916207710464
 30
0.0
 11
26.4412839299764
 21
15.40026308025177
 31
0.0
  0
LINE
  5
A3
330
1F
100
AcDbEntity
  8
Doc_ Finishes
  6
Continuous
100
AcDbLine
 10
27.82317515735641
 20
14.40530192761605
 30
0.0
 11
26.9387667191188
 21
15.17916207710464
 31
0.0
  0
LINE
  5
A4
330
1F
100
AcDbEntity
  8
Doc_ Finishes
  6
Continuous
100
AcDbLine
 10
28.92868902439024
 20
13.74199449252557
 30
0.0
 11
27.82317515735641
 21
14.40530192761605
 31
0.0
  0
LINE
  5
A5
330
1F
100
AcDbEntity
  8
Doc_ Finishes
  6
Continuous
100
AcDbLine
 10
29.59199645948072
 20
13.3827025963808
 30
0.0
 11
28.92868902439024
 21
13.74199449252557
 31
0.0
  0
LINE
  5
A6
330
1F
100
AcDbEntity
  8
Doc_ Finishes
  6
Continuous
100
AcDbLine
 10
30.20003196302124
 20
13.07868705743509
 30
0.0
 11
29.59199645948072
 21
13.3827025963808
 31
0.0
  0
LINE
  5
A7
330
1F
100
AcDbEntity
  8
Doc_ Finishes
  6
Continuous
100
AcDbLine
 10
31.55428501180173
 20
12.08372590479937
 30
0.0
 11
30.20003196302124
 21
13.07868705743509
 31
0.0
  0
LINE
  5
A8
330
1F
100
AcDbEntity
  8
Doc_ Finishes
  6
Continuous
100
AcDbLine
 10
32.07940155389457
 20
11.69679583005508
 30
0.0
 11
31.55428501180173
 21
12.08372590479937
 31
0.0
  0
LINE
  5
A9
330
1F
100
AcDbEntity
  8
Doc_ Finishes
  6
Continuous
100
AcDbLine
 10
32.88089988198269
 20
11.08876032651456
 30
0.0
 11
32.07940155389457
 21
11.69679583005508
 31
0.0
  0
LINE
  5
AA
330
1F
100
AcDbEntity
  8
Doc_ Finishes
  6
Continuous
100
AcDbLine
 10
33.59948367427223
 20
10.50836742722266
 30
0.0
 11
32.88089988198269
 21
11.08876032651456
 31
0.0
  0
LINE
  5
AB
330
1F
100
AcDbEntity
  8
Doc_ Finishes
  6
Continuous
100
AcDbLine
 10
34.56680664830842
 20
9.817421813532652
 30
0.0
 11
33.59948367427223
 21
10.50836742722266
 31
0.0
  0
LINE
  5
AC
330
1F
100
AcDbEntity
  8
Doc_ Finishes
  6
Continuous
100
AcDbLine
 10
35.06428943745082
 20
9.458129917387884
 30
0.0
 11
34.56680664830842
 21
9.817421813532652
 31
0.0
  0
LINE
  5
AD
330
1F
100
AcDbEntity
  8
Doc_ Finishes
  6
Continuous
100
AcDbLine
 10
35.81051140833988
 20
8.933013375295044
 30
0.0
 11
35.06428943745082
 21
9.458129917387884
 31
0.0
  0
LINE
  5
AE
330
1F
100
AcDbEntity
  8
Doc_ Finishes
  6
Continuous
100
AcDbLine
 10
36.61200973642801
 20
8.407892407553108
 30
0.0
 11
35.81051140833988
 21
8.933013375295044
 31
0.0
  0
LINE
  5
AF
330
1F
100
AcDbEntity
  8
Doc_ Finishes
  6
Continuous
100
AcDbLine
 10
36.77783438237608
 20
8.18679140440598
 30
0.0
 11
36.61200973642801
 21
8.407892407553108
 31
0.0
  0
LINE
  5
B0
330
1F
100
AcDbEntity
  8
Doc_ Finishes
  6
Continuous
100
AcDbLine
 10
37.38586546026751
 20
7.744584972462627
 30
0.0
 11
36.77783438237608
 21
8.18679140440598
 31
0.0
  0
LINE
  5
B1
330
1F
100
AcDbEntity
  8
Doc_ Finishes
  6
Continuous
100
AcDbLine
 10
38.18736378835562
 20
6.915448465774981
 30
0.0
 11
37.38586546026751
 21
7.744584972462627
 31
0.0
  0
LINE
  5
B2
330
1F
100
AcDbEntity
  8
Doc_ Finishes
  6
Continuous
100
AcDbLine
 10
38.79539486624704
 20
6.4456038552321
 30
0.0
 11
38.18736378835562
 21
6.915448465774981
 31
0.0
  0
LINE
  5
B3
330
1F
100
AcDbEntity
  8
Doc_ Finishes
  6
Continuous
100
AcDbLine
 10
39.56925501573564
 20
6.169226494885916
 30
0.0
 11
38.79539486624704
 21
6.4456038552321
 31
0.0
  0
LINE
  5
B4
330
1F
100
AcDbEntity
  8
Doc_ Finishes
  6
Continuous
100
AcDbLine
 10
40.23256245082612
 20
6.086316384736428
 30
0.0
 11
39.56925501573564
 21
6.169226494885916
 31
0.0
  0
LINE
  5
B5
330
1F
100
AcDbEntity
  8
Doc_ Finishes
  6
Continuous
100
AcDbLine
 10
40.48130605822187
 20
6.307417387883556
 30
0.0
 11
40.23256245082612
 21
6.086316384736428
 31
0.0
  0
LINE
  5
B6
330
1F
100
AcDbEntity
  8
Doc_ Finishes
  6
Continuous
100
AcDbLine
 10
40.14965234067663
 20
6.611432926829268
 30
0.0
 11
40.48130605822187
 21
6.307417387883556
 31
0.0
  0
LINE
  5
B7
330
1F
100
AcDbEntity
  8
Doc_ Finishes
  6
Continuous
100
AcDbLine
 10
39.48634490558615
 20
6.998363001573564
 30
0.0
 11
40.14965234067663
 21
6.611432926829268
 31
0.0
  0
LINE
  5
B8
330
1F
100
AcDbEntity
  8
Doc_ Finishes
  6
Continuous
100
AcDbLine
 10
38.76776111329661
 20
7.357654897718332
 30
0.0
 11
39.48634490558615
 21
6.998363001573564
 31
0.0
  0
LINE
  5
B9
330
1F
100
AcDbEntity
  8
Doc_ Finishes
  6
Continuous
100
AcDbLine
 10
38.18736378835562
 20
8.048600511408338
 30
0.0
 11
38.76776111329661
 21
7.357654897718332
 31
0.0
  0
LINE
  5
BA
330
1F
100
AcDbEntity
  8
Doc_ Finishes
  6
Continuous
100
AcDbLine
 10
36.9989353855232
 20
8.822460660896931
 30
0.0
 11
38.18736378835562
 21
8.048600511408338
 31
0.0
  0
LINE
  5
BB
330
1F
100
AcDbEntity
  8
Doc_ Finishes
  6
Continuous
100
AcDbLine
 10
36.47381884343037
 20
9.319939024390242
 30
0.0
 11
36.9989353855232
 21
8.822460660896931
 31
0.0
  0
LINE
  5
BC
330
1F
100
AcDbEntity
  8
Doc_ Finishes
  6
Continuous
100
AcDbLine
 10
36.22507966168371
 20
9.734507277734066
 30
0.0
 11
36.47381884343037
 21
9.319939024390242
 31
0.0
  0
LINE
  5
BD
330
1F
100
AcDbEntity
  8
Doc_ Finishes
  6
Continuous
100
AcDbLine
 10
35.17484215184894
 20
10.31490460267506
 30
0.0
 11
36.22507966168371
 21
9.734507277734066
 31
0.0
  0
LINE
  5
BE
330
1F
100
AcDbEntity
  8
Doc_ Finishes
  6
Continuous
100
AcDbLine
 10
34.73263571990559
 20
10.78474478756884
 30
0.0
 11
35.17484215184894
 21
10.31490460267506
 31
0.0
  0
LINE
  5
BF
330
1F
100
AcDbEntity
  8
Doc_ Finishes
  6
Continuous
100
AcDbLine
 10
34.23515293076317
 20
11.17167486231314
 30
0.0
 11
34.73263571990559
 21
10.78474478756884
 31
0.0
  0
LINE
  5
C0
330
1F
100
AcDbEntity
  8
Doc_ Finishes
  6
Continuous
100
AcDbLine
 10
33.48893095987412
 20
11.61388129425649
 30
0.0
 11
34.23515293076317
 21
11.17167486231314
 31
0.0
  0
LINE
  5
C1
330
1F
100
AcDbEntity
  8
Doc_ Finishes
  6
Continuous
100
AcDbLine
 10
32.85326170338316
 20
12.16663601494886
 30
0.0
 11
33.48893095987412
 21
11.61388129425649
 31
0.0
  0
LINE
  5
C2
330
1F
100
AcDbEntity
  8
Doc_ Finishes
  6
Continuous
100
AcDbLine
 10
32.35578333988985
 20
12.58120426829268
 30
0.0
 11
32.85326170338316
 21
12.16663601494886
 31
0.0
  0
LINE
  5
C3
330
1F
100
AcDbEntity
  8
Doc_ Finishes
  6
Continuous
100
AcDbLine
 10
31.69247147915027
 20
12.99577252163651
 30
0.0
 11
32.35578333988985
 21
12.58120426829268
 31
0.0
  0
LINE
  5
C4
330
1F
100
AcDbEntity
  8
Doc_ Finishes
  6
Continuous
100
AcDbLine
 10
31.22263129425649
 20
13.32742623918175
 30
0.0
 11
31.69247147915027
 21
12.99577252163651
 31
0.0
  0
LINE
  5
C5
330
1F
100
AcDbEntity
  8
Doc_ Finishes
  6
Continuous
100
AcDbLine
 10
30.72514850511408
 20
13.5761654209284
 30
0.0
 11
31.22263129425649
 21
13.32742623918175
 31
0.0
  0
LINE
  5
C6
330
1F
100
AcDbEntity
  8
Doc_ Finishes
  6
Continuous
100
AcDbLine
 10
29.93747147915028
 20
14.0644340086546
 30
0.0
 11
30.72514850511408
 21
13.5761654209284
 31
0.0
  0
LINE
  5
C7
330
1F
100
AcDbEntity
  8
Doc_ Finishes
  6
Continuous
100
AcDbLine
 10
29.43077891424075
 20
14.38687795043273
 30
0.0
 11
29.93747147915028
 21
14.0644340086546
 31
0.0
  0
LINE
  5
C8
330
1F
100
AcDbEntity
  8
Doc_ Finishes
  6
Continuous
100
AcDbLine
 10
28.92408192368214
 20
14.70931746656176
 30
0.0
 11
29.43077891424075
 21
14.38687795043273
 31
0.0
  0
LINE
  5
C9
330
1F
100
AcDbEntity
  8
Doc_ Finishes
  6
Continuous
100
AcDbLine
 10
28.62467348544453
 20
15.10085464201416
 30
0.0
 11
28.92408192368214
 21
14.70931746656176
 31
0.0
  0
LINE
  5
CA
330
1F
100
AcDbEntity
  8
Doc_ Finishes
  6
Continuous
100
AcDbLine
 10
27.95675894964595
 20
15.67664486624705
 30
0.0
 11
28.62467348544453
 21
15.10085464201416
 31
0.0
  0
LINE
  5
CB
330
1F
100
AcDbEntity
  8
Doc_ Finishes
  6
Continuous
100
AcDbLine
 10
27.47309746262785
 20
15.95302222659323
 30
0.0
 11
27.95675894964595
 21
15.67664486624705
 31
0.0
  0
LINE
  5
CC
330
1F
100
AcDbEntity
  8
Doc_ Finishes
  6
Continuous
100
AcDbLine
 10
26.82821400472069
 20
16.36759047993706
 30
0.0
 11
27.47309746262785
 21
15.95302222659323
 31
0.0
  0
LINE
  5
CD
330
1F
100
AcDbEntity
  8
Doc_ Finishes
  6
Continuous
100
AcDbLine
 10
26.50577448859166
 20
16.22939958693942
 30
0.0
 11
26.82821400472069
 21
16.36759047993706
 31
0.0
  0
LINE
  5
CE
330
1F
100
AcDbEntity
  8
Doc_ Finishes
  6
Continuous
100
AcDbLine
 10
26.06817515735641
 20
15.74573809992132
 30
0.0
 11
26.50577448859166
 21
16.22939958693942
 31
0.0
  0
LINE
  5
CF
330
1F
100
AcDbEntity
  8
Doc_ Finishes
  6
Continuous
 62
   254
370
    18
100
AcDbLine
 10
95.43333841463415
 20
5.093360051140834
 30
0.0
 11
95.43333841463415
 21
20.69901750590086
 31
0.0
  0
LINE
  5
D0
330
1F
100
AcDbEntity
  8
Doc_ Finishes
  6
Continuous
 62
   254
370
    18
100
AcDbLine
 10
5.000000983477577
 20
20.69901750590086
 30
0.0
 11
288.2406845003933
 21
20.69901750590086
 31
0.0
  0
LINE
  5
D1
330
1F
100
AcDbEntity
  8
Doc_ Finishes
  6
Continuous
 62
   254
370
    18
100
AcDbLine
 10
288.2406845003933
 20
20.69901750590086
 30
0.0
 11
288.2406845003933
 21
5.000000983477577
 31
0.0
  0
LINE
  5
D2
330
1F
100
AcDbEntity
  8
Doc_ Finishes
  6
Continuous
 62
   254
370
    18
100
AcDbLine
 10
288.2406845003933
 20
5.000000983477577
 30
0.0
 11
5.000000983477577
 21
5.000000983477577
 31
0.0
  0
LINE
  5
D3
330
1F
100
AcDbEntity
  8
Doc_ Finishes
  6
Continuous
 62
   254
370
    18
100
AcDbLine
 10
5.000000983477577
 20
20.69901750590086
 30
0.0
 11
5.000000983477577
 21
5.000000983477577
 31
0.0
  0
LINE
  5
D4
330
1F
100
AcDbEntity
  8
Doc_ Finishes
  6
Continuous
 62
   254
370
    18
100
AcDbLine
 10
188.291944826908
 20
5.093360051140834
 30
0.0
 11
188.291944826908
 21
20.69901750590086
 31
0.0
  0
LINE
  5
D5
330
1F
100
AcDbEntity
  8
Doc_ Finishes
  6
Continuous
 62
   254
370
    18
100
AcDbLine
 10
188.291944826908
 20
12.8961909913454
 30
0.0
 11
288.2406845003933
 21
12.8961909913454
 31
0.0
  0
MTEXT
  5
D7
330
1F
100
AcDbEntity
  8
0
  6
Continuous
100
AcDbMText
 10
208.3494767103412
 20
15.00228834043999
 30
0.0
 40
2.25
 41
0.0
 71
     7
 72
     1
  1
{C-TRS9-02}
  7
GENERATED_STYLE_1
 73
     1
 44
1.0
  0
MTEXT
  5
D8
330
1F
100
AcDbEntity
  8
0
  6
Continuous
100
AcDbMText
 10
208.3494767103412
 20
11.03300550383743
 30
0.0
 40
3.0
 41
0.0
 71
     1
 72
     1
  1
{TYPICAL ROOF LAYOUT}
  7
GENERATED_STYLE_1
 73
     1
 44
1.0
  0
MTEXT
  5
DA
330
1F
100
AcDbEntity
  8
Doc_ Floor
  6
Continuous
100
AcDbMText
 10
27.78353726544612
 20
13.33283672870609
 30
0.0
 40
5.603347280334726
 41
0.0
 71
     1
 72
     1
  1
{The Roofing Store}
  7
GENERATED_STYLE_2
 73
     1
 44
1.0
  0
MTEXT
  5
DC
102
{ACAD_XDICTIONARY
360
3AC
102
}
330
1F
100
AcDbEntity
  8
0
  6
Continuous
100
AcDbMText
 10
100.7389238446655
 20
5.628836745729685
 30
0.0
 40
1.5
 41
0.0
 71
     7
 72
     1
  1
{P: HEAD OFFICE              09 277 2717\P    ALBANY             09 972 0060\P    KATIKAIT            07 549 5190\P    WELLINGTON              04 974 5792\P    CHRISTCHURCH03 348 6528}
  7
GENERATED_STYLE_1
 73
     1
 44
1.062946161486498
  0
MTEXT
  5
DD
330
1F
100
AcDbEntity
  8
0
  6
Continuous
100
AcDbMText
 10
147.4184566143587
 20
8.449084231526156
 30
0.0
 40
1.5
 41
0.0
 71
     7
 72
     1
  1
{WEB: www.theroofingstore.co.nz}
  7
GENERATED_STYLE_1
 73
     1
 44
1.0
  0
MTEXT
  5
DE
330
1F
100
AcDbEntity
  8
0
  6
Continuous
100
AcDbMText
 10
147.4184566143587
 20
5.870946023411262
 30
0.0
 40
1.5
 41
0.0
 71
     7
 72
     1
  1
{Copyright \U+00A9 The Roofing Store 2013}
  7
GENERATED_STYLE_1
 73
     1
 44
1.0
  0
MTEXT
  5
DF
330
1F
100
AcDbEntity
  8
0
  6
Continuous
100
AcDbMText
 10
271.9546684065315
 20
15.01595667428533
 30
0.0
 40
2.25
 41
0.0
 71
     7
 72
     1
  1
{1:5}
  7
GENERATED_STYLE_1
 73
     1
 44
1.0
  0
MTEXT
  5
E0
330
1F
100
AcDbEntity
  8
0
  6
Continuous
100
AcDbMText
 10
262.8396605309016
 20
15.51746459162148
 30
0.0
 40
1.5
 41
0.0
 71
     7
 72
     1
  1
{SCALE:}
  7
GENERATED_STYLE_1
 73
     1
 44
1.0
  0
MTEXT
  5
E1
330
1F
100
AcDbEntity
  8
0
  6
Continuous
100
AcDbMText
 10
189.5066235617487
 20
15.48695559872207
 30
0.0
 40
1.5
 41
0.0
 71
     7
 72
     1
  1
{DETAIL NUMBER:}
  7
GENERATED_STYLE_1
 73
     1
 44
1.0
  0
MTEXT
  5
E2
330
1F
100
AcDbEntity
  8
0
  6
Continuous
100
AcDbMText
 10
189.5066235617487
 20
9.005462392315325
 30
0.0
 40
1.5
 41
0.0
 71
     7
 72
     1
  1
{TITLE:}
  7
GENERATED_STYLE_1
 73
     1
 44
1.0
  0
INSERT
  5
37A
102
{ACAD_XDICTIONARY
360
37B
102
}
330
1F
100
AcDbEntity
  8
0
  6
Continuous
100
AcDbBlockReference
  2
Drawing_1_2
 10
149.8814017357194
 20
-776.1458097790336
 30
0.0
  0
ENDSEC
  0
SECTION
  2
OBJECTS
  0
DICTIONARY
  5
C
330
0
100
AcDbDictionary
281
     1
  3
ACAD_GROUP
350
D
  3
ACAD_LAYOUT
350
1A
  3
ACAD_MATERIAL
350
3B
  3
ACAD_MLEADERSTYLE
350
3A7
  3
ACAD_MLINESTYLE
350
17
  3
ACAD_PLOTSETTINGS
350
19
  3
ACAD_PLOTSTYLENAME
350
E
  3
ACAD_SCALELIST
350
381
  3
ACAD_VISUALSTYLE
350
2A
  3
AcDbVariableDictionary
350
3A5
  3
WATERMARKS
350
3A3
  0
DICTIONARY
  5
3AC
330
DC
100
AcDbDictionary
280
     1
281
     1
  3
ACAD_MTEXT_RT
360
3AD
  0
DICTIONARY
  5
37B
330
37A
100
AcDbDictionary
280
     1
281
     1
  3
ACAD_FILTER
360
37C
  0
DICTIONARY
  5
D
102
{ACAD_REACTORS
330
C
102
}
330
C
100
AcDbDictionary
281
     1
  0
DICTIONARY
  5
1A
102
{ACAD_REACTORS
330
C
102
}
330
C
100
AcDbDictionary
281
     1
  3
Layout1
350
1E
  3
Model
350
22
  0
DICTIONARY
  5
3B
102
{ACAD_REACTORS
330
C
102
}
330
C
100
AcDbDictionary
281
     1
  3
ByBlock
350
3D
  3
ByLayer
350
3C
  3
Global
350
3E
  0
DICTIONARY
  5
3A7
102
{ACAD_REACTORS
330
C
102
}
330
C
100
AcDbDictionary
281
     1
  0
DICTIONARY
  5
17
102
{ACAD_REACTORS
330
C
102
}
330
C
100
AcDbDictionary
281
     1
  3
Standard
350
18
  0
DICTIONARY
  5
19
102
{ACAD_REACTORS
330
C
102
}
330
C
100
AcDbDictionary
281
     1
  0
ACDBDICTIONARYWDFLT
  5
E
102
{ACAD_REACTORS
330
C
102
}
330
C
100
AcDbDictionary
281
     1
  3
Normal
350
F
100
AcDbDictionaryWithDefault
340
F
  0
DICTIONARY
  5
381
102
{ACAD_REACTORS
330
C
102
}
330
C
100
AcDbDictionary
281
     1
  3
A0
350
382
  3
A1
350
383
  3
A2
350
384
  3
A3
350
385
  3
A4
350
386
  3
A5
350
387
  3
A6
350
388
  3
A7
350
389
  3
A8
350
38A
  3
A9
350
38B
  3
B0
350
38C
  3
B1
350
38D
  3
B2
350
38E
  3
B3
350
38F
  3
B4
350
390
  3
B5
350
391
  3
B6
350
392
  3
B7
350
393
  3
B8
350
394
  3
B9
350
395
  3
C0
350
396
  3
C1
350
397
  3
C2
350
398
  3
C3
350
399
  3
C4
350
39A
  3
C5
350
39B
  3
C6
350
39C
  3
C7
350
39D
  3
C8
350
39E
  3
C9
350
39F
  3
D0
350
3A0
  3
D1
350
3A1
  3
D2
350
3A2
  0
DICTIONARY
  5
2A
102
{ACAD_REACTORS
330
C
102
}
330
C
100
AcDbDictionary
281
     1
  3
2dWireframe
350
2F
  3
3D Hidden
350
31
  3
3dWireframe
350
30
  3
Basic
350
32
  3
Brighten
350
36
  3
ColorChange
350
3A
  3
Conceptual
350
34
  3
Dim
350
35
  3
Facepattern
350
39
  3
Flat
350
2B
  3
FlatWithEdges
350
2C
  3
Gouraud
350
2D
  3
GouraudWithEdges
350
2E
  3
Linepattern
350
38
  3
Realistic
350
33
  3
Thicken
350
37
  0
DICTIONARY
  5
3A5
102
{ACAD_REACTORS
330
C
102
}
330
C
100
AcDbDictionary
281
     1
  3
CANNOSCALE
350
3A9
  3
DIMASSOC
350
3AA
  3
HIDETEXT
350
3AB
  3
XCLIPFRAME
350
3A8
  0
DICTIONARY
  5
3A3
102
{ACAD_REACTORS
330
C
102
}
330
C
100
AcDbDictionary
281
     1
  3
AC_WATERMARK
350
3A4
  0
XRECORD
  5
3AD
102
{ACAD_REACTORS
330
3AC
102
}
330
3AC
100
AcDbXrecord
280
     1
 40
892718.0
  1
{P: HEAD OFFICE ^I^I09 277 2717\P    ALBANY ^I^I09 972 0060\P    KATIKAIT^I^I07 549 5190\P    WELLINGTON^I^I04 974 5792\P    CHRISTCHURCH^I03 348 6528}
  0
DICTIONARY
  5
37C
102
{ACAD_REACTORS
330
37B
102
}
330
37B
100
AcDbDictionary
280
     1
281
     1
  3
SPATIAL
360
37D
  0
LAYOUT
  5
1E
102
{ACAD_REACTORS
330
1A
102
}
330
1A
100
AcDbPlotSettings
  1

  2
none_device
  4

  6

 40
0.0
 41
0.0
 42
0.0
 43
0.0
 44
0.0
 45
0.0
 46
0.0
 47
0.0
 48
0.0
 49
0.0
140
0.0
141
0.0
142
1.0
143
1.0
 70
   688
 72
     0
 73
     0
 74
     5
  7

 75
    16
147
1.0
148
0.0
149
0.0
100
AcDbLayout
  1
Layout1
 70
     1
 71
     1
 10
0.0
 20
0.0
 11
12.0
 21
9.0
 12
0.0
 22
0.0
 32
0.0
 14
1.000000000000000E+20
 24
1.000000000000000E+20
 34
1.000000000000000E+20
 15
-1.000000000000000E+20
 25
-1.000000000000000E+20
 35
-1.000000000000000E+20
146
0.0
 13
0.0
 23
0.0
 33
0.0
 16
1.0
 26
0.0
 36
0.0
 17
0.0
 27
1.0
 37
0.0
 76
     0
330
1B
  0
LAYOUT
  5
22
102
{ACAD_REACTORS
330
1A
102
}
330
1A
100
AcDbPlotSettings
  1

  2
none_device
  4

  6

 40
0.0
 41
0.0
 42
0.0
 43
0.0
 44
0.0
 45
0.0
 46
0.0
 47
0.0
 48
0.0
 49
0.0
140
0.0
141
0.0
142
1.0
143
1.0
 70
  1712
 72
     0
 73
     0
 74
     0
  7

 75
     0
147
1.0
148
0.0
149
0.0
100
AcDbLayout
  1
Model
 70
     1
 71
     0
 10
0.0
 20
0.0
 11
12.0
 21
9.0
 12
0.0
 22
0.0
 32
0.0
 14
1.000000000000000E+20
 24
1.000000000000000E+20
 34
1.000000000000000E+20
 15
-1.000000000000000E+20
 25
-1.000000000000000E+20
 35
-1.000000000000000E+20
146
0.0
 13
0.0
 23
0.0
 33
0.0
 16
1.0
 26
0.0
 36
0.0
 17
0.0
 27
1.0
 37
0.0
 76
     0
330
1F
331
29
  0
MATERIAL
  5
3D
102
{ACAD_REACTORS
330
3B
102
}
102
{ACAD_XDICTIONARY
360
3D0
102
}
330
3B
100
AcDbMaterial
  1
ByBlock
  0
MATERIAL
  5
3C
102
{ACAD_REACTORS
330
3B
102
}
102
{ACAD_XDICTIONARY
360
3CE
102
}
330
3B
100
AcDbMaterial
  1
ByLayer
  0
MATERIAL
  5
3E
102
{ACAD_REACTORS
330
3B
102
}
102
{ACAD_XDICTIONARY
360
3D2
102
}
330
3B
100
AcDbMaterial
  1
Global
  0
MLINESTYLE
  5
18
102
{ACAD_REACTORS
330
17
102
}
330
17
100
AcDbMlineStyle
  2
Standard
 70
     0
  3

 62
   256
 51
90.0
 52
90.0
 71
     2
 49
0.5
 62
   256
  6
BYLAYER
 49
-0.5
 62
   256
  6
BYLAYER
  0
ACDBPLACEHOLDER
  5
F
102
{ACAD_REACTORS
330
E
102
}
330
E
  0
SCALE
  5
382
102
{ACAD_REACTORS
330
381
102
}
330
381
100
AcDbScale
 70
     0
300
1:1
140
1.0
141
1.0
290
     1
  0
SCALE
  5
383
102
{ACAD_REACTORS
330
381
102
}
330
381
100
AcDbScale
 70
     0
300
1:2
140
1.0
141
2.0
290
     0
  0
SCALE
  5
384
102
{ACAD_REACTORS
330
381
102
}
330
381
100
AcDbScale
 70
     0
300
1:4
140
1.0
141
4.0
290
     0
  0
SCALE
  5
385
102
{ACAD_REACTORS
330
381
102
}
330
381
100
AcDbScale
 70
     0
300
1:5
140
1.0
141
5.0
290
     0
  0
SCALE
  5
386
102
{ACAD_REACTORS
330
381
102
}
330
381
100
AcDbScale
 70
     0
300
1:8
140
1.0
141
8.0
290
     0
  0
SCALE
  5
387
102
{ACAD_REACTORS
330
381
102
}
330
381
100
AcDbScale
 70
     0
300
1:10
140
1.0
141
10.0
290
     0
  0
SCALE
  5
388
102
{ACAD_REACTORS
330
381
102
}
330
381
100
AcDbScale
 70
     0
300
1:16
140
1.0
141
16.0
290
     0
  0
SCALE
  5
389
102
{ACAD_REACTORS
330
381
102
}
330
381
100
AcDbScale
 70
     0
300
1:20
140
1.0
141
20.0
290
     0
  0
SCALE
  5
38A
102
{ACAD_REACTORS
330
381
102
}
330
381
100
AcDbScale
 70
     0
300
1:30
140
1.0
141
30.0
290
     0
  0
SCALE
  5
38B
102
{ACAD_REACTORS
330
381
102
}
330
381
100
AcDbScale
 70
     0
300
1:40
140
1.0
141
40.0
290
     0
  0
SCALE
  5
38C
102
{ACAD_REACTORS
330
381
102
}
330
381
100
AcDbScale
 70
     0
300
1:50
140
1.0
141
50.0
290
     0
  0
SCALE
  5
38D
102
{ACAD_REACTORS
330
381
102
}
330
381
100
AcDbScale
 70
     0
300
1:100
140
1.0
141
100.0
290
     0
  0
SCALE
  5
38E
102
{ACAD_REACTORS
330
381
102
}
330
381
100
AcDbScale
 70
     0
300
2:1
140
2.0
141
1.0
290
     0
  0
SCALE
  5
38F
102
{ACAD_REACTORS
330
381
102
}
330
381
100
AcDbScale
 70
     0
300
4:1
140
4.0
141
1.0
290
     0
  0
SCALE
  5
390
102
{ACAD_REACTORS
330
381
102
}
330
381
100
AcDbScale
 70
     0
300
8:1
140
8.0
141
1.0
290
     0
  0
SCALE
  5
391
102
{ACAD_REACTORS
330
381
102
}
330
381
100
AcDbScale
 70
     0
300
10:1
140
10.0
141
1.0
290
     0
  0
SCALE
  5
392
102
{ACAD_REACTORS
330
381
102
}
330
381
100
AcDbScale
 70
     0
300
100:1
140
100.0
141
1.0
290
     0
  0
SCALE
  5
393
102
{ACAD_REACTORS
330
381
102
}
330
381
100
AcDbScale
 70
     0
300
1/128" = 1'-0"
140
0.0078125
141
12.0
290
     0
  0
SCALE
  5
394
102
{ACAD_REACTORS
330
381
102
}
330
381
100
AcDbScale
 70
     0
300
1/64" = 1'-0"
140
0.015625
141
12.0
290
     0
  0
SCALE
  5
395
102
{ACAD_REACTORS
330
381
102
}
330
381
100
AcDbScale
 70
     0
300
1/32" = 1'-0"
140
0.03125
141
12.0
290
     0
  0
SCALE
  5
396
102
{ACAD_REACTORS
330
381
102
}
330
381
100
AcDbScale
 70
     0
300
1/16" = 1'-0"
140
0.0625
141
12.0
290
     0
  0
SCALE
  5
397
102
{ACAD_REACTORS
330
381
102
}
330
381
100
AcDbScale
 70
     0
300
3/32" = 1'-0"
140
0.09375
141
12.0
290
     0
  0
SCALE
  5
398
102
{ACAD_REACTORS
330
381
102
}
330
381
100
AcDbScale
 70
     0
300
1/8" = 1'-0"
140
0.125
141
12.0
290
     0
  0
SCALE
  5
399
102
{ACAD_REACTORS
330
381
102
}
330
381
100
AcDbScale
 70
     0
300
3/16" = 1'-0"
140
0.1875
141
12.0
290
     0
  0
SCALE
  5
39A
102
{ACAD_REACTORS
330
381
102
}
330
381
100
AcDbScale
 70
     0
300
1/4" = 1'-0"
140
0.25
141
12.0
290
     0
  0
SCALE
  5
39B
102
{ACAD_REACTORS
330
381
102
}
330
381
100
AcDbScale
 70
     0
300
3/8" = 1'-0"
140
0.375
141
12.0
290
     0
  0
SCALE
  5
39C
102
{ACAD_REACTORS
330
381
102
}
330
381
100
AcDbScale
 70
     0
300
1/2" = 1'-0"
140
0.5
141
12.0
290
     0
  0
SCALE
  5
39D
102
{ACAD_REACTORS
330
381
102
}
330
381
100
AcDbScale
 70
     0
300
3/4" = 1'-0"
140
0.75
141
12.0
290
     0
  0
SCALE
  5
39E
102
{ACAD_REACTORS
330
381
102
}
330
381
100
AcDbScale
 70
     0
300
1" = 1'-0"
140
1.0
141
12.0
290
     0
  0
SCALE
  5
39F
102
{ACAD_REACTORS
330
381
102
}
330
381
100
AcDbScale
 70
     0
300
1-1/2" = 1'-0"
140
1.5
141
12.0
290
     0
  0
SCALE
  5
3A0
102
{ACAD_REACTORS
330
381
102
}
330
381
100
AcDbScale
 70
     0
300
3" = 1'-0"
140
3.0
141
12.0
290
     0
  0
SCALE
  5
3A1
102
{ACAD_REACTORS
330
381
102
}
330
381
100
AcDbScale
 70
     0
300
6" = 1'-0"
140
6.0
141
12.0
290
     0
  0
SCALE
  5
3A2
102
{ACAD_REACTORS
330
381
102
}
330
381
100
AcDbScale
 70
     0
300
1'-0" = 1'-0"
140
12.0
141
12.0
290
     0
  0
VISUALSTYLE
  5
2F
102
{ACAD_REACTORS
330
2A
102
}
102
{ACAD_XDICTIONARY
360
3B6
102
}
330
2A
100
AcDbVisualStyle
  2
2dWireframe
 70
     4
 71
     0
 72
     2
 73
     0
 90
        0
 40
-0.6
 41
-30.0
 62
     5
 63
     7
 74
     1
 91
        4
 64
     7
 65
   257
 75
     1
175
     1
 42
1.0
 92
        0
 66
   257
 43
1.0
 76
     1
 77
     6
 78
     2
 67
     7
 79
     5
170
     0
171
     0
290
     0
174
     0
 93
        1
 44
0.0
173
     0
291
     0
 45
0.0
1001
ACAD
1000
AcDbSavedByObjectVersion
1070
     0
  0
VISUALSTYLE
  5
31
102
{ACAD_REACTORS
330
2A
102
}
102
{ACAD_XDICTIONARY
360
3BA
102
}
330
2A
100
AcDbVisualStyle
  2
3D Hidden
 70
     6
 71
     1
 72
     2
 73
     2
 90
        0
 40
-0.6
 41
-30.0
 62
     5
 63
     7
 74
     2
 91
        2
 64
     7
 65
   257
 75
     2
175
     1
 42
40.0
 92
        0
 66
   257
 43
1.0
 76
     1
 77
     6
 78
     2
 67
     7
 79
     3
170
     0
171
     0
290
     0
174
     0
 93
        1
 44
0.0
173
     0
291
     0
 45
0.0
1001
ACAD
1000
AcDbSavedByObjectVersion
1070
     0
  0
VISUALSTYLE
  5
30
102
{ACAD_REACTORS
330
2A
102
}
102
{ACAD_XDICTIONARY
360
3B8
102
}
330
2A
100
AcDbVisualStyle
  2
3dWireframe
 70
     5
 71
     0
 72
     2
 73
     0
 90
        0
 40
-0.6
 41
-30.0
 62
     5
 63
     7
 74
     1
 91
        4
 64
     7
 65
   257
 75
     1
175
     1
 42
1.0
 92
        0
 66
   257
 43
1.0
 76
     1
 77
     6
 78
     2
 67
     7
 79
     5
170
     0
171
     0
290
     0
174
     0
 93
        1
 44
0.0
173
     0
291
     0
 45
0.0
1001
ACAD
1000
AcDbSavedByObjectVersion
1070
     0
  0
VISUALSTYLE
  5
32
102
{ACAD_REACTORS
330
2A
102
}
102
{ACAD_XDICTIONARY
360
3BC
102
}
330
2A
100
AcDbVisualStyle
  2
Basic
 70
     7
 71
     1
 72
     0
 73
     1
 90
        0
 40
-0.6
 41
-30.0
 62
     5
 63
     7
 74
     0
 91
        4
 64
     7
 65
   257
 75
     1
175
     1
 42
1.0
 92
        8
 66
     7
 43
1.0
 76
     1
 77
     6
 78
     2
 67
     7
 79
     5
170
     0
171
     0
290
     0
174
     0
 93
        1
 44
0.0
173
     0
291
     1
 45
0.0
1001
ACAD
1000
AcDbSavedByObjectVersion
1070
     0
  0
VISUALSTYLE
  5
36
102
{ACAD_REACTORS
330
2A
102
}
102
{ACAD_XDICTIONARY
360
3C4
102
}
330
2A
100
AcDbVisualStyle
  2
Brighten
 70
    12
 71
     2
 72
     2
 73
     0
 90
        0
 40
-0.6
 41
-30.0
 62
     5
 63
     7
 74
     1
 91
        4
 64
     7
 65
   257
 75
     1
175
     1
 42
1.0
 92
        8
 66
     7
 43
1.0
 76
     1
 77
     6
 78
     2
 67
     7
 79
     5
170
     0
171
     0
290
     0
174
     0
 93
        1
 44
50.0
173
     0
291
     1
 45
0.0
1001
ACAD
1000
AcDbSavedByObjectVersion
1070
     0
  0
VISUALSTYLE
  5
3A
102
{ACAD_REACTORS
330
2A
102
}
102
{ACAD_XDICTIONARY
360
3CC
102
}
330
2A
100
AcDbVisualStyle
  2
ColorChange
 70
    16
 71
     2
 72
     2
 73
     3
 90
        0
 40
-0.6
 41
-30.0
 62
     5
 63
     8
 74
     1
 91
        4
 64
     7
 65
   257
 75
     1
175
     1
 42
1.0
 92
        8
 66
     8
 43
1.0
 76
     1
 77
     6
 78
     2
 67
     7
 79
     5
170
     0
171
     0
290
     0
174
     0
 93
        1
 44
0.0
173
     0
291
     1
 45
0.0
1001
ACAD
1000
AcDbSavedByObjectVersion
1070
     0
  0
VISUALSTYLE
  5
34
102
{ACAD_REACTORS
330
2A
102
}
102
{ACAD_XDICTIONARY
360
3C0
102
}
330
2A
100
AcDbVisualStyle
  2
Conceptual
 70
     9
 71
     3
 72
     2
 73
     0
 90
        0
 40
-0.6
 41
-30.0
 62
     5
 63
     7
 74
     2
 91
        2
 64
     7
 65
   257
 75
     1
175
     1
 42
40.0
 92
        8
 66
     7
 43
1.0
 76
     1
 77
     6
 78
     2
 67
     7
 79
     3
170
     0
171
     0
290
     0
174
     0
 93
        1
 44
0.0
173
     0
291
     0
 45
0.0
1001
ACAD
1000
AcDbSavedByObjectVersion
1070
     0
  0
VISUALSTYLE
  5
35
102
{ACAD_REACTORS
330
2A
102
}
102
{ACAD_XDICTIONARY
360
3C2
102
}
330
2A
100
AcDbVisualStyle
  2
Dim
 70
    11
 71
     2
 72
     2
 73
     0
 90
        0
 40
-0.6
 41
-30.0
 62
     5
 63
     7
 74
     1
 91
        4
 64
     7
 65
   257
 75
     1
175
     1
 42
1.0
 92
        8
 66
     7
 43
1.0
 76
     1
 77
     6
 78
     2
 67
     7
 79
     5
170
     0
171
     0
290
     0
174
     0
 93
        1
 44
-50.0
173
     0
291
     1
 45
0.0
1001
ACAD
1000
AcDbSavedByObjectVersion
1070
     0
  0
VISUALSTYLE
  5
39
102
{ACAD_REACTORS
330
2A
102
}
102
{ACAD_XDICTIONARY
360
3CA
102
}
330
2A
100
AcDbVisualStyle
  2
Facepattern
 70
    15
 71
     2
 72
     2
 73
     0
 90
        0
 40
-0.6
 41
-30.0
 62
     5
 63
     7
 74
     1
 91
        4
 64
     7
 65
   257
 75
     1
175
     1
 42
1.0
 92
        8
 66
     7
 43
1.0
 76
     1
 77
     6
 78
     2
 67
     7
 79
     5
170
     0
171
     0
290
     0
174
     0
 93
        1
 44
0.0
173
     0
291
     1
 45
0.0
1001
ACAD
1000
AcDbSavedByObjectVersion
1070
     0
  0
VISUALSTYLE
  5
2B
102
{ACAD_REACTORS
330
2A
102
}
102
{ACAD_XDICTIONARY
360
3AE
102
}
330
2A
100
AcDbVisualStyle
  2
Flat
 70
     0
 71
     2
 72
     1
 73
     1
 90
        2
 40
-0.6
 41
30.0
 62
     5
 63
     7
 74
     0
 91
        4
 64
     7
 65
   257
 75
     1
175
     1
 42
1.0
 92
        8
 66
     7
 43
1.0
 76
     1
 77
     6
 78
     2
 67
     7
 79
     5
170
     0
171
     0
290
     0
174
     0
 93
       13
 44
0.0
173
     0
291
     1
 45
0.0
1001
ACAD
1000
AcDbSavedByObjectVersion
1070
     0
  0
VISUALSTYLE
  5
2C
102
{ACAD_REACTORS
330
2A
102
}
102
{ACAD_XDICTIONARY
360
3B0
102
}
330
2A
100
AcDbVisualStyle
  2
FlatWithEdges
 70
     1
 71
     2
 72
     1
 73
     1
 90
        2
 40
-0.6
 41
30.0
 62
     5
 63
     7
 74
     1
 91
        4
 64
     7
 65
   257
 75
     1
175
     1
 42
1.0
 92
        0
 66
   257
 43
1.0
 76
     1
 77
     6
 78
     2
 67
     7
 79
     5
170
     0
171
     0
290
     0
174
     0
 93
       13
 44
0.0
173
     0
291
     1
 45
0.0
1001
ACAD
1000
AcDbSavedByObjectVersion
1070
     0
  0
VISUALSTYLE
  5
2D
102
{ACAD_REACTORS
330
2A
102
}
102
{ACAD_XDICTIONARY
360
3B2
102
}
330
2A
100
AcDbVisualStyle
  2
Gouraud
 70
     2
 71
     2
 72
     2
 73
     1
 90
        2
 40
-0.6
 41
30.0
 62
     5
 63
     7
 74
     0
 91
        4
 64
     7
 65
   257
 75
     1
175
     1
 42
1.0
 92
        0
 66
     7
 43
1.0
 76
     1
 77
     6
 78
     2
 67
     7
 79
     5
170
     0
171
     0
290
     0
174
     0
 93
       13
 44
0.0
173
     0
291
     1
 45
0.0
1001
ACAD
1000
AcDbSavedByObjectVersion
1070
     0
  0
VISUALSTYLE
  5
2E
102
{ACAD_REACTORS
330
2A
102
}
102
{ACAD_XDICTIONARY
360
3B4
102
}
330
2A
100
AcDbVisualStyle
  2
GouraudWithEdges
 70
     3
 71
     2
 72
     2
 73
     1
 90
        2
 40
-0.6
 41
30.0
 62
     5
 63
     7
 74
     1
 91
        4
 64
     7
 65
   257
 75
     1
175
     1
 42
1.0
 92
        0
 66
   257
 43
1.0
 76
     1
 77
     6
 78
     2
 67
     7
 79
     5
170
     0
171
     0
290
     0
174
     0
 93
       13
 44
0.0
173
     0
291
     1
 45
0.0
1001
ACAD
1000
AcDbSavedByObjectVersion
1070
     0
  0
VISUALSTYLE
  5
38
102
{ACAD_REACTORS
330
2A
102
}
102
{ACAD_XDICTIONARY
360
3C8
102
}
330
2A
100
AcDbVisualStyle
  2
Linepattern
 70
    14
 71
     2
 72
     2
 73
     0
 90
        0
 40
-0.6
 41
-30.0
 62
     5
 63
     7
 74
     1
 91
        4
 64
     7
 65
   257
 75
     7
175
     7
 42
1.0
 92
        8
 66
     7
 43
1.0
 76
     1
 77
     6
 78
     2
 67
     7
 79
     5
170
     0
171
     0
290
     0
174
     0
 93
        1
 44
0.0
173
     0
291
     1
 45
0.0
1001
ACAD
1000
AcDbSavedByObjectVersion
1070
     0
  0
VISUALSTYLE
  5
33
102
{ACAD_REACTORS
330
2A
102
}
102
{ACAD_XDICTIONARY
360
3BE
102
}
330
2A
100
AcDbVisualStyle
  2
Realistic
 70
     8
 71
     2
 72
     2
 73
     0
 90
        0
 40
-0.6
 41
-30.0
 62
     5
 63
     7
 74
     1
 91
        0
 64
     7
 65
   257
 75
     1
175
     1
 42
1.0
 92
        8
 66
     8
 43
1.0
 76
     1
 77
     6
 78
     2
 67
     7
 79
     5
170
     0
171
     0
290
     0
174
     0
 93
       13
 44
0.0
173
     0
291
     0
 45
0.0
1001
ACAD
1000
AcDbSavedByObjectVersion
1070
     0
  0
VISUALSTYLE
  5
37
102
{ACAD_REACTORS
330
2A
102
}
102
{ACAD_XDICTIONARY
360
3C6
102
}
330
2A
100
AcDbVisualStyle
  2
Thicken
 70
    13
 71
     2
 72
     2
 73
     0
 90
        0
 40
-0.6
 41
-30.0
 62
     5
 63
     7
 74
     1
 91
        4
 64
     7
 65
   257
 75
     1
175
     1
 42
1.0
 92
       12
 66
     7
 43
1.0
 76
     1
 77
     6
 78
     2
 67
     7
 79
     5
170
     0
171
     0
290
     0
174
     0
 93
        1
 44
0.0
173
     0
291
     1
 45
0.0
1001
ACAD
1000
AcDbSavedByObjectVersion
1070
     0
  0
DICTIONARYVAR
  5
3A9
102
{ACAD_REACTORS
330
3A5
102
}
330
3A5
100
DictionaryVariables
280
     0
  1
1:1
  0
DICTIONARYVAR
  5
3AA
102
{ACAD_REACTORS
330
3A5
102
}
330
3A5
100
DictionaryVariables
280
     0
  1
2
  0
DICTIONARYVAR
  5
3AB
102
{ACAD_REACTORS
330
3A5
102
}
330
3A5
100
DictionaryVariables
280
     0
  1
1
  0
DICTIONARYVAR
  5
3A8
102
{ACAD_REACTORS
330
3A5
102
}
330
3A5
100
DictionaryVariables
280
     0
  1
0
  0
XRECORD
  5
3A4
102
{ACAD_REACTORS
330
3A3
102
}
330
3A3
100
AcDbXrecord
280
     1
1000
This DWG file was created in ArchiCAD(TM)®
  0
SPATIAL_FILTER
  5
37D
102
{ACAD_REACTORS
330
37C
102
}
330
37C
100
AcDbFilter
100
AcDbSpatialFilter
 70
     4
 10
18.496133301405
 20
41.94425249731464
 10
278.6793229565776
 20
41.94425249731464
 10
278.6793229565776
 20
197.3405556125196
 10
18.496133301405
 20
197.3405556125196
210
0.0
220
0.0
230
1.0
 11
0.0
 21
0.0
 31
0.0
 71
     1
 72
     0
 73
     0
 40
1.0
 40
0.0
 40
0.0
 40
0.0
 40
0.0
 40
1.0
 40
0.0
 40
0.0
 40
0.0
 40
0.0
 40
1.0
 40
0.0
 40
1.0
 40
0.0
 40
0.0
 40
0.0
 40
0.0
 40
1.0
 40
0.0
 40
0.0
 40
0.0
 40
0.0
 40
1.0
 40
0.0
  0
DICTIONARY
  5
3D0
330
3D
100
AcDbDictionary
280
     1
281
     1
  3
ACAD_XREC_ROUNDTRIP
360
3D1
  0
DICTIONARY
  5
3CE
330
3C
100
AcDbDictionary
280
     1
281
     1
  3
ACAD_XREC_ROUNDTRIP
360
3CF
  0
DICTIONARY
  5
3D2
330
3E
100
AcDbDictionary
280
     1
281
     1
  3
ACAD_XREC_ROUNDTRIP
360
3D3
  0
DICTIONARY
  5
3B6
330
2F
100
AcDbDictionary
280
     1
281
     1
  3
ACAD_XREC_ROUNDTRIP
360
3B7
  0
DICTIONARY
  5
3BA
330
31
100
AcDbDictionary
280
     1
281
     1
  3
ACAD_XREC_ROUNDTRIP
360
3BB
  0
DICTIONARY
  5
3B8
330
30
100
AcDbDictionary
280
     1
281
     1
  3
ACAD_XREC_ROUNDTRIP
360
3B9
  0
DICTIONARY
  5
3BC
330
32
100
AcDbDictionary
280
     1
281
     1
  3
ACAD_XREC_ROUNDTRIP
360
3BD
  0
DICTIONARY
  5
3C4
330
36
100
AcDbDictionary
280
     1
281
     1
  3
ACAD_XREC_ROUNDTRIP
360
3C5
  0
DICTIONARY
  5
3CC
330
3A
100
AcDbDictionary
280
     1
281
     1
  3
ACAD_XREC_ROUNDTRIP
360
3CD
  0
DICTIONARY
  5
3C0
330
34
100
AcDbDictionary
280
     1
281
     1
  3
ACAD_XREC_ROUNDTRIP
360
3C1
  0
DICTIONARY
  5
3C2
330
35
100
AcDbDictionary
280
     1
281
     1
  3
ACAD_XREC_ROUNDTRIP
360
3C3
  0
DICTIONARY
  5
3CA
330
39
100
AcDbDictionary
280
     1
281
     1
  3
ACAD_XREC_ROUNDTRIP
360
3CB
  0
DICTIONARY
  5
3AE
330
2B
100
AcDbDictionary
280
     1
281
     1
  3
ACAD_XREC_ROUNDTRIP
360
3AF
  0
DICTIONARY
  5
3B0
330
2C
100
AcDbDictionary
280
     1
281
     1
  3
ACAD_XREC_ROUNDTRIP
360
3B1
  0
DICTIONARY
  5
3B2
330
2D
100
AcDbDictionary
280
     1
281
     1
  3
ACAD_XREC_ROUNDTRIP
360
3B3
  0
DICTIONARY
  5
3B4
330
2E
100
AcDbDictionary
280
     1
281
     1
  3
ACAD_XREC_ROUNDTRIP
360
3B5
  0
DICTIONARY
  5
3C8
330
38
100
AcDbDictionary
280
     1
281
     1
  3
ACAD_XREC_ROUNDTRIP
360
3C9
  0
DICTIONARY
  5
3BE
330
33
100
AcDbDictionary
280
     1
281
     1
  3
ACAD_XREC_ROUNDTRIP
360
3BF
  0
DICTIONARY
  5
3C6
330
37
100
AcDbDictionary
280
     1
281
     1
  3
ACAD_XREC_ROUNDTRIP
360
3C7
  0
XRECORD
  5
3D1
102
{ACAD_REACTORS
330
3D0
102
}
330
3D0
100
AcDbXrecord
280
     1
102
MATERIAL
148
0.0
149
0.0
149
0.0
 93
        0
 94
      127
282
     0
 72
     1
 77
     1
171
     1
175
     1
179
     1
273
     0
  0
XRECORD
  5
3CF
102
{ACAD_REACTORS
330
3CE
102
}
330
3CE
100
AcDbXrecord
280
     1
102
MATERIAL
148
0.0
149
0.0
149
0.0
 93
        0
 94
      127
282
     0
 72
     1
 77
     1
171
     1
175
     1
179
     1
273
     0
  0
XRECORD
  5
3D3
102
{ACAD_REACTORS
330
3D2
102
}
330
3D2
100
AcDbXrecord
280
     1
102
MATERIAL
148
0.0
149
0.0
149
0.0
 93
        0
 94
      127
282
     0
 72
     1
 77
     1
171
     1
175
     1
179
     1
273
     0
  0
XRECORD
  5
3B7
102
{ACAD_REACTORS
330
3B6
102
}
330
3B6
100
AcDbXrecord
280
     1
102
RTVSPropertyOp0
 70
     1
102
RTVSPropertyOp1
 70
     1
102
RTVSPropertyOp2
 70
     1
102
RTVSPropertyOp3
 70
     1
102
RTVSPropertyOp4
 70
     1
102
RTVSPropertyOp5
 70
     1
102
RTVSPropertyOp6
 70
     1
102
RTVSPropertyOp7
 70
     1
102
RTVSPropertyOp8
 70
     1
102
RTVSPropertyOp9
 70
     1
102
RTVSPropertyOp10
 70
     1
102
RTVSPropertyOp11
 70
     1
102
RTVSPropertyOp12
 70
     1
102
RTVSPropertyOp13
 70
     1
102
RTVSPropertyOp14
 70
     1
102
RTVSPropertyOp15
 70
     1
102
RTVSPropertyOp16
 70
     1
102
RTVSPropertyOp17
 70
     1
102
RTVSPropertyOp18
 70
     1
102
RTVSPropertyOp19
 70
     1
102
RTVSPropertyOp20
 70
     1
102
RTVSPropertyOp21
 70
     1
102
RTVSPropertyOp22
 70
     1
102
RTVSPropertyOp23
 70
     1
102
RTVSPropertyOp24
 70
     1
102
RTVSPropertyOp25
 70
     1
102
RTVSPropertyOp26
 70
     1
102
RTVSPropertyOp27
 70
     1
102
RTVSPropertyOp28
 70
     1
102
RTVSPropertyOp29
 70
     1
102
RTVSPropertyOp30
 70
     1
102
RTVSPropertyOp31
 70
     1
102
RTVSPropertyOp32
 70
     1
  0
XRECORD
  5
3BB
102
{ACAD_REACTORS
330
3BA
102
}
330
3BA
100
AcDbXrecord
280
     1
102
RTVSPropertyOp0
 70
     1
102
RTVSPropertyOp1
 70
     1
102
RTVSPropertyOp2
 70
     1
102
RTVSPropertyOp3
 70
     1
102
RTVSPropertyOp4
 70
     1
102
RTVSPropertyOp5
 70
     1
102
RTVSPropertyOp6
 70
     1
102
RTVSPropertyOp7
 70
     1
102
RTVSPropertyOp8
 70
     1
102
RTVSPropertyOp9
 70
     1
102
RTVSPropertyOp10
 70
     1
102
RTVSPropertyOp11
 70
     1
102
RTVSPropertyOp12
 70
     1
102
RTVSPropertyOp13
 70
     1
102
RTVSPropertyOp14
 70
     1
102
RTVSPropertyOp15
 70
     1
102
RTVSPropertyOp16
 70
     1
102
RTVSPropertyOp17
 70
     1
102
RTVSPropertyOp18
 70
     1
102
RTVSPropertyOp19
 70
     1
102
RTVSPropertyOp20
 70
     1
102
RTVSPropertyOp21
 70
     1
102
RTVSPropertyOp22
 70
     1
102
RTVSPropertyOp23
 70
     1
102
RTVSPropertyOp24
 70
     1
102
RTVSPropertyOp25
 70
     1
102
RTVSPropertyOp26
 70
     1
102
RTVSPropertyOp27
 70
     1
102
RTVSPropertyOp28
 70
     1
102
RTVSPropertyOp29
 70
     1
102
RTVSPropertyOp30
 70
     1
102
RTVSPropertyOp31
 70
     1
102
RTVSPropertyOp32
 70
     1
  0
XRECORD
  5
3B9
102
{ACAD_REACTORS
330
3B8
102
}
330
3B8
100
AcDbXrecord
280
     1
102
RTVSPropertyOp0
 70
     1
102
RTVSPropertyOp1
 70
     1
102
RTVSPropertyOp2
 70
     1
102
RTVSPropertyOp3
 70
     1
102
RTVSPropertyOp4
 70
     1
102
RTVSPropertyOp5
 70
     1
102
RTVSPropertyOp6
 70
     1
102
RTVSPropertyOp7
 70
     1
102
RTVSPropertyOp8
 70
     1
102
RTVSPropertyOp9
 70
     1
102
RTVSPropertyOp10
 70
     1
102
RTVSPropertyOp11
 70
     1
102
RTVSPropertyOp12
 70
     1
102
RTVSPropertyOp13
 70
     1
102
RTVSPropertyOp14
 70
     1
102
RTVSPropertyOp15
 70
     1
102
RTVSPropertyOp16
 70
     1
102
RTVSPropertyOp17
 70
     1
102
RTVSPropertyOp18
 70
     1
102
RTVSPropertyOp19
 70
     1
102
RTVSPropertyOp20
 70
     1
102
RTVSPropertyOp21
 70
     1
102
RTVSPropertyOp22
 70
     1
102
RTVSPropertyOp23
 70
     1
102
RTVSPropertyOp24
 70
     1
102
RTVSPropertyOp25
 70
     1
102
RTVSPropertyOp26
 70
     1
102
RTVSPropertyOp27
 70
     1
102
RTVSPropertyOp28
 70
     1
102
RTVSPropertyOp29
 70
     1
102
RTVSPropertyOp30
 70
     1
102
RTVSPropertyOp31
 70
     1
102
RTVSPropertyOp32
 70
     1
  0
XRECORD
  5
3BD
102
{ACAD_REACTORS
330
3BC
102
}
330
3BC
100
AcDbXrecord
280
     1
102
RTVSPropertyOp0
 70
     1
102
RTVSPropertyOp1
 70
     1
102
RTVSPropertyOp2
 70
     1
102
RTVSPropertyOp3
 70
     1
102
RTVSPropertyOp4
 70
     1
102
RTVSPropertyOp5
 70
     1
102
RTVSPropertyOp6
 70
     1
102
RTVSPropertyOp7
 70
     1
102
RTVSPropertyOp8
 70
     1
102
RTVSPropertyOp9
 70
     1
102
RTVSPropertyOp10
 70
     1
102
RTVSPropertyOp11
 70
     1
102
RTVSPropertyOp12
 70
     1
102
RTVSPropertyOp13
 70
     1
102
RTVSPropertyOp14
 70
     1
102
RTVSPropertyOp15
 70
     1
102
RTVSPropertyOp16
 70
     1
102
RTVSPropertyOp17
 70
     1
102
RTVSPropertyOp18
 70
     1
102
RTVSPropertyOp19
 70
     1
102
RTVSPropertyOp20
 70
     1
102
RTVSPropertyOp21
 70
     1
102
RTVSPropertyOp22
 70
     1
102
RTVSPropertyOp23
 70
     1
102
RTVSPropertyOp24
 70
     1
102
RTVSPropertyOp25
 70
     1
102
RTVSPropertyOp26
 70
     1
102
RTVSPropertyOp27
 70
     1
102
RTVSPropertyOp28
 70
     1
102
RTVSPropertyOp29
 70
     1
102
RTVSPropertyOp30
 70
     1
102
RTVSPropertyOp31
 70
     1
102
RTVSPropertyOp32
 70
     1
  0
XRECORD
  5
3C5
102
{ACAD_REACTORS
330
3C4
102
}
330
3C4
100
AcDbXrecord
280
     1
102
RTVSPropertyOp0
 70
     1
102
RTVSPropertyOp1
 70
     1
102
RTVSPropertyOp2
 70
     1
102
RTVSPropertyOp3
 70
     1
102
RTVSPropertyOp4
 70
     1
102
RTVSPropertyOp5
 70
     1
102
RTVSPropertyOp6
 70
     1
102
RTVSPropertyOp7
 70
     1
102
RTVSPropertyOp8
 70
     1
102
RTVSPropertyOp9
 70
     1
102
RTVSPropertyOp10
 70
     1
102
RTVSPropertyOp11
 70
     1
102
RTVSPropertyOp12
 70
     1
102
RTVSPropertyOp13
 70
     1
102
RTVSPropertyOp14
 70
     1
102
RTVSPropertyOp15
 70
     1
102
RTVSPropertyOp16
 70
     1
102
RTVSPropertyOp17
 70
     1
102
RTVSPropertyOp18
 70
     1
102
RTVSPropertyOp19
 70
     1
102
RTVSPropertyOp20
 70
     1
102
RTVSPropertyOp21
 70
     1
102
RTVSPropertyOp22
 70
     1
102
RTVSPropertyOp23
 70
     1
102
RTVSPropertyOp24
 70
     1
102
RTVSPropertyOp25
 70
     1
102
RTVSPropertyOp26
 70
     1
102
RTVSPropertyOp27
 70
     1
102
RTVSPropertyOp28
 70
     1
102
RTVSPropertyOp29
 70
     1
102
RTVSPropertyOp30
 70
     1
102
RTVSPropertyOp31
 70
     1
102
RTVSPropertyOp32
 70
     1
  0
XRECORD
  5
3CD
102
{ACAD_REACTORS
330
3CC
102
}
330
3CC
100
AcDbXrecord
280
     1
102
RTVSPropertyOp0
 70
     1
102
RTVSPropertyOp1
 70
     1
102
RTVSPropertyOp2
 70
     1
102
RTVSPropertyOp3
 70
     1
102
RTVSPropertyOp4
 70
     1
102
RTVSPropertyOp5
 70
     1
102
RTVSPropertyOp6
 70
     1
102
RTVSPropertyOp7
 70
     1
102
RTVSPropertyOp8
 70
     1
102
RTVSPropertyOp9
 70
     1
102
RTVSPropertyOp10
 70
     1
102
RTVSPropertyOp11
 70
     1
102
RTVSPropertyOp12
 70
     1
102
RTVSPropertyOp13
 70
     1
102
RTVSPropertyOp14
 70
     1
102
RTVSPropertyOp15
 70
     1
102
RTVSPropertyOp16
 70
     1
102
RTVSPropertyOp17
 70
     1
102
RTVSPropertyOp18
 70
     1
102
RTVSPropertyOp19
 70
     1
102
RTVSPropertyOp20
 70
     1
102
RTVSPropertyOp21
 70
     1
102
RTVSPropertyOp22
 70
     1
102
RTVSPropertyOp23
 70
     1
102
RTVSPropertyOp24
 70
     1
102
RTVSPropertyOp25
 70
     1
102
RTVSPropertyOp26
 70
     1
102
RTVSPropertyOp27
 70
     1
102
RTVSPropertyOp28
 70
     1
102
RTVSPropertyOp29
 70
     1
102
RTVSPropertyOp30
 70
     1
102
RTVSPropertyOp31
 70
     1
102
RTVSPropertyOp32
 70
     1
  0
XRECORD
  5
3C1
102
{ACAD_REACTORS
330
3C0
102
}
330
3C0
100
AcDbXrecord
280
     1
102
RTVSPropertyOp0
 70
     1
102
RTVSPropertyOp1
 70
     1
102
RTVSPropertyOp2
 70
     1
102
RTVSPropertyOp3
 70
     1
102
RTVSPropertyOp4
 70
     1
102
RTVSPropertyOp5
 70
     1
102
RTVSPropertyOp6
 70
     1
102
RTVSPropertyOp7
 70
     1
102
RTVSPropertyOp8
 70
     1
102
RTVSPropertyOp9
 70
     1
102
RTVSPropertyOp10
 70
     1
102
RTVSPropertyOp11
 70
     1
102
RTVSPropertyOp12
 70
     1
102
RTVSPropertyOp13
 70
     1
102
RTVSPropertyOp14
 70
     1
102
RTVSPropertyOp15
 70
     1
102
RTVSPropertyOp16
 70
     1
102
RTVSPropertyOp17
 70
     1
102
RTVSPropertyOp18
 70
     1
102
RTVSPropertyOp19
 70
     1
102
RTVSPropertyOp20
 70
     1
102
RTVSPropertyOp21
 70
     1
102
RTVSPropertyOp22
 70
     1
102
RTVSPropertyOp23
 70
     1
102
RTVSPropertyOp24
 70
     1
102
RTVSPropertyOp25
 70
     1
102
RTVSPropertyOp26
 70
     1
102
RTVSPropertyOp27
 70
     1
102
RTVSPropertyOp28
 70
     1
102
RTVSPropertyOp29
 70
     1
102
RTVSPropertyOp30
 70
     1
102
RTVSPropertyOp31
 70
     1
102
RTVSPropertyOp32
 70
     1
  0
XRECORD
  5
3C3
102
{ACAD_REACTORS
330
3C2
102
}
330
3C2
100
AcDbXrecord
280
     1
102
RTVSPropertyOp0
 70
     1
102
RTVSPropertyOp1
 70
     1
102
RTVSPropertyOp2
 70
     1
102
RTVSPropertyOp3
 70
     1
102
RTVSPropertyOp4
 70
     1
102
RTVSPropertyOp5
 70
     1
102
RTVSPropertyOp6
 70
     1
102
RTVSPropertyOp7
 70
     1
102
RTVSPropertyOp8
 70
     1
102
RTVSPropertyOp9
 70
     1
102
RTVSPropertyOp10
 70
     1
102
RTVSPropertyOp11
 70
     1
102
RTVSPropertyOp12
 70
     1
102
RTVSPropertyOp13
 70
     1
102
RTVSPropertyOp14
 70
     1
102
RTVSPropertyOp15
 70
     1
102
RTVSPropertyOp16
 70
     1
102
RTVSPropertyOp17
 70
     1
102
RTVSPropertyOp18
 70
     1
102
RTVSPropertyOp19
 70
     1
102
RTVSPropertyOp20
 70
     1
102
RTVSPropertyOp21
 70
     1
102
RTVSPropertyOp22
 70
     1
102
RTVSPropertyOp23
 70
     1
102
RTVSPropertyOp24
 70
     1
102
RTVSPropertyOp25
 70
     1
102
RTVSPropertyOp26
 70
     1
102
RTVSPropertyOp27
 70
     1
102
RTVSPropertyOp28
 70
     1
102
RTVSPropertyOp29
 70
     1
102
RTVSPropertyOp30
 70
     1
102
RTVSPropertyOp31
 70
     1
102
RTVSPropertyOp32
 70
     1
  0
XRECORD
  5
3CB
102
{ACAD_REACTORS
330
3CA
102
}
330
3CA
100
AcDbXrecord
280
     1
102
RTVSPropertyOp0
 70
     1
102
RTVSPropertyOp1
 70
     1
102
RTVSPropertyOp2
 70
     1
102
RTVSPropertyOp3
 70
     1
102
RTVSPropertyOp4
 70
     1
102
RTVSPropertyOp5
 70
     1
102
RTVSPropertyOp6
 70
     1
102
RTVSPropertyOp7
 70
     1
102
RTVSPropertyOp8
 70
     1
102
RTVSPropertyOp9
 70
     1
102
RTVSPropertyOp10
 70
     1
102
RTVSPropertyOp11
 70
     1
102
RTVSPropertyOp12
 70
     1
102
RTVSPropertyOp13
 70
     1
102
RTVSPropertyOp14
 70
     1
102
RTVSPropertyOp15
 70
     1
102
RTVSPropertyOp16
 70
     1
102
RTVSPropertyOp17
 70
     1
102
RTVSPropertyOp18
 70
     1
102
RTVSPropertyOp19
 70
     1
102
RTVSPropertyOp20
 70
     1
102
RTVSPropertyOp21
 70
     1
102
RTVSPropertyOp22
 70
     1
102
RTVSPropertyOp23
 70
     1
102
RTVSPropertyOp24
 70
     1
102
RTVSPropertyOp25
 70
     1
102
RTVSPropertyOp26
 70
     1
102
RTVSPropertyOp27
 70
     1
102
RTVSPropertyOp28
 70
     1
102
RTVSPropertyOp29
 70
     1
102
RTVSPropertyOp30
 70
     1
102
RTVSPropertyOp31
 70
     1
102
RTVSPropertyOp32
 70
     1
  0
XRECORD
  5
3AF
102
{ACAD_REACTORS
330
3AE
102
}
330
3AE
100
AcDbXrecord
280
     1
102
RTVSPropertyOp0
 70
     1
102
RTVSPropertyOp1
 70
     1
102
RTVSPropertyOp2
 70
     1
102
RTVSPropertyOp3
 70
     1
102
RTVSPropertyOp4
 70
     1
102
RTVSPropertyOp5
 70
     1
102
RTVSPropertyOp6
 70
     1
102
RTVSPropertyOp7
 70
     1
102
RTVSPropertyOp8
 70
     1
102
RTVSPropertyOp9
 70
     1
102
RTVSPropertyOp10
 70
     1
102
RTVSPropertyOp11
 70
     1
102
RTVSPropertyOp12
 70
     1
102
RTVSPropertyOp13
 70
     1
102
RTVSPropertyOp14
 70
     1
102
RTVSPropertyOp15
 70
     1
102
RTVSPropertyOp16
 70
     1
102
RTVSPropertyOp17
 70
     1
102
RTVSPropertyOp18
 70
     1
102
RTVSPropertyOp19
 70
     1
102
RTVSPropertyOp20
 70
     1
102
RTVSPropertyOp21
 70
     1
102
RTVSPropertyOp22
 70
     1
102
RTVSPropertyOp23
 70
     1
102
RTVSPropertyOp24
 70
     1
102
RTVSPropertyOp25
 70
     1
102
RTVSPropertyOp26
 70
     1
102
RTVSPropertyOp27
 70
     1
102
RTVSPropertyOp28
 70
     1
102
RTVSPropertyOp29
 70
     1
102
RTVSPropertyOp30
 70
     1
102
RTVSPropertyOp31
 70
     1
102
RTVSPropertyOp32
 70
     1
  0
XRECORD
  5
3B1
102
{ACAD_REACTORS
330
3B0
102
}
330
3B0
100
AcDbXrecord
280
     1
102
RTVSPropertyOp0
 70
     1
102
RTVSPropertyOp1
 70
     1
102
RTVSPropertyOp2
 70
     1
102
RTVSPropertyOp3
 70
     1
102
RTVSPropertyOp4
 70
     1
102
RTVSPropertyOp5
 70
     1
102
RTVSPropertyOp6
 70
     1
102
RTVSPropertyOp7
 70
     1
102
RTVSPropertyOp8
 70
     1
102
RTVSPropertyOp9
 70
     1
102
RTVSPropertyOp10
 70
     1
102
RTVSPropertyOp11
 70
     1
102
RTVSPropertyOp12
 70
     1
102
RTVSPropertyOp13
 70
     1
102
RTVSPropertyOp14
 70
     1
102
RTVSPropertyOp15
 70
     1
102
RTVSPropertyOp16
 70
     1
102
RTVSPropertyOp17
 70
     1
102
RTVSPropertyOp18
 70
     1
102
RTVSPropertyOp19
 70
     1
102
RTVSPropertyOp20
 70
     1
102
RTVSPropertyOp21
 70
     1
102
RTVSPropertyOp22
 70
     1
102
RTVSPropertyOp23
 70
     1
102
RTVSPropertyOp24
 70
     1
102
RTVSPropertyOp25
 70
     1
102
RTVSPropertyOp26
 70
     1
102
RTVSPropertyOp27
 70
     1
102
RTVSPropertyOp28
 70
     1
102
RTVSPropertyOp29
 70
     1
102
RTVSPropertyOp30
 70
     1
102
RTVSPropertyOp31
 70
     1
102
RTVSPropertyOp32
 70
     1
  0
XRECORD
  5
3B3
102
{ACAD_REACTORS
330
3B2
102
}
330
3B2
100
AcDbXrecord
280
     1
102
RTVSPropertyOp0
 70
     1
102
RTVSPropertyOp1
 70
     1
102
RTVSPropertyOp2
 70
     1
102
RTVSPropertyOp3
 70
     1
102
RTVSPropertyOp4
 70
     1
102
RTVSPropertyOp5
 70
     1
102
RTVSPropertyOp6
 70
     1
102
RTVSPropertyOp7
 70
     1
102
RTVSPropertyOp8
 70
     1
102
RTVSPropertyOp9
 70
     1
102
RTVSPropertyOp10
 70
     1
102
RTVSPropertyOp11
 70
     1
102
RTVSPropertyOp12
 70
     1
102
RTVSPropertyOp13
 70
     1
102
RTVSPropertyOp14
 70
     1
102
RTVSPropertyOp15
 70
     1
102
RTVSPropertyOp16
 70
     1
102
RTVSPropertyOp17
 70
     1
102
RTVSPropertyOp18
 70
     1
102
RTVSPropertyOp19
 70
     1
102
RTVSPropertyOp20
 70
     1
102
RTVSPropertyOp21
 70
     1
102
RTVSPropertyOp22
 70
     1
102
RTVSPropertyOp23
 70
     1
102
RTVSPropertyOp24
 70
     1
102
RTVSPropertyOp25
 70
     1
102
RTVSPropertyOp26
 70
     1
102
RTVSPropertyOp27
 70
     1
102
RTVSPropertyOp28
 70
     1
102
RTVSPropertyOp29
 70
     1
102
RTVSPropertyOp30
 70
     1
102
RTVSPropertyOp31
 70
     1
102
RTVSPropertyOp32
 70
     1
  0
XRECORD
  5
3B5
102
{ACAD_REACTORS
330
3B4
102
}
330
3B4
100
AcDbXrecord
280
     1
102
RTVSPropertyOp0
 70
     1
102
RTVSPropertyOp1
 70
     1
102
RTVSPropertyOp2
 70
     1
102
RTVSPropertyOp3
 70
     1
102
RTVSPropertyOp4
 70
     1
102
RTVSPropertyOp5
 70
     1
102
RTVSPropertyOp6
 70
     1
102
RTVSPropertyOp7
 70
     1
102
RTVSPropertyOp8
 70
     1
102
RTVSPropertyOp9
 70
     1
102
RTVSPropertyOp10
 70
     1
102
RTVSPropertyOp11
 70
     1
102
RTVSPropertyOp12
 70
     1
102
RTVSPropertyOp13
 70
     1
102
RTVSPropertyOp14
 70
     1
102
RTVSPropertyOp15
 70
     1
102
RTVSPropertyOp16
 70
     1
102
RTVSPropertyOp17
 70
     1
102
RTVSPropertyOp18
 70
     1
102
RTVSPropertyOp19
 70
     1
102
RTVSPropertyOp20
 70
     1
102
RTVSPropertyOp21
 70
     1
102
RTVSPropertyOp22
 70
     1
102
RTVSPropertyOp23
 70
     1
102
RTVSPropertyOp24
 70
     1
102
RTVSPropertyOp25
 70
     1
102
RTVSPropertyOp26
 70
     1
102
RTVSPropertyOp27
 70
     1
102
RTVSPropertyOp28
 70
     1
102
RTVSPropertyOp29
 70
     1
102
RTVSPropertyOp30
 70
     1
102
RTVSPropertyOp31
 70
     1
102
RTVSPropertyOp32
 70
     1
  0
XRECORD
  5
3C9
102
{ACAD_REACTORS
330
3C8
102
}
330
3C8
100
AcDbXrecord
280
     1
102
RTVSPropertyOp0
 70
     1
102
RTVSPropertyOp1
 70
     1
102
RTVSPropertyOp2
 70
     1
102
RTVSPropertyOp3
 70
     1
102
RTVSPropertyOp4
 70
     1
102
RTVSPropertyOp5
 70
     1
102
RTVSPropertyOp6
 70
     1
102
RTVSPropertyOp7
 70
     1
102
RTVSPropertyOp8
 70
     1
102
RTVSPropertyOp9
 70
     1
102
RTVSPropertyOp10
 70
     1
102
RTVSPropertyOp11
 70
     1
102
RTVSPropertyOp12
 70
     1
102
RTVSPropertyOp13
 70
     1
102
RTVSPropertyOp14
 70
     1
102
RTVSPropertyOp15
 70
     1
102
RTVSPropertyOp16
 70
     1
102
RTVSPropertyOp17
 70
     1
102
RTVSPropertyOp18
 70
     1
102
RTVSPropertyOp19
 70
     1
102
RTVSPropertyOp20
 70
     1
102
RTVSPropertyOp21
 70
     1
102
RTVSPropertyOp22
 70
     1
102
RTVSPropertyOp23
 70
     1
102
RTVSPropertyOp24
 70
     1
102
RTVSPropertyOp25
 70
     1
102
RTVSPropertyOp26
 70
     1
102
RTVSPropertyOp27
 70
     1
102
RTVSPropertyOp28
 70
     1
102
RTVSPropertyOp29
 70
     1
102
RTVSPropertyOp30
 70
     1
102
RTVSPropertyOp31
 70
     1
102
RTVSPropertyOp32
 70
     1
  0
XRECORD
  5
3BF
102
{ACAD_REACTORS
330
3BE
102
}
330
3BE
100
AcDbXrecord
280
     1
102
RTVSPropertyOp0
 70
     1
102
RTVSPropertyOp1
 70
     1
102
RTVSPropertyOp2
 70
     1
102
RTVSPropertyOp3
 70
     1
102
RTVSPropertyOp4
 70
     1
102
RTVSPropertyOp5
 70
     1
102
RTVSPropertyOp6
 70
     1
102
RTVSPropertyOp7
 70
     1
102
RTVSPropertyOp8
 70
     1
102
RTVSPropertyOp9
 70
     1
102
RTVSPropertyOp10
 70
     1
102
RTVSPropertyOp11
 70
     1
102
RTVSPropertyOp12
 70
     1
102
RTVSPropertyOp13
 70
     1
102
RTVSPropertyOp14
 70
     1
102
RTVSPropertyOp15
 70
     1
102
RTVSPropertyOp16
 70
     1
102
RTVSPropertyOp17
 70
     1
102
RTVSPropertyOp18
 70
     1
102
RTVSPropertyOp19
 70
     1
102
RTVSPropertyOp20
 70
     1
102
RTVSPropertyOp21
 70
     1
102
RTVSPropertyOp22
 70
     1
102
RTVSPropertyOp23
 70
     1
102
RTVSPropertyOp24
 70
     1
102
RTVSPropertyOp25
 70
     1
102
RTVSPropertyOp26
 70
     1
102
RTVSPropertyOp27
 70
     1
102
RTVSPropertyOp28
 70
     1
102
RTVSPropertyOp29
 70
     1
102
RTVSPropertyOp30
 70
     1
102
RTVSPropertyOp31
 70
     1
102
RTVSPropertyOp32
 70
     1
  0
XRECORD
  5
3C7
102
{ACAD_REACTORS
330
3C6
102
}
330
3C6
100
AcDbXrecord
280
     1
102
RTVSPropertyOp0
 70
     1
102
RTVSPropertyOp1
 70
     1
102
RTVSPropertyOp2
 70
     1
102
RTVSPropertyOp3
 70
     1
102
RTVSPropertyOp4
 70
     1
102
RTVSPropertyOp5
 70
     1
102
RTVSPropertyOp6
 70
     1
102
RTVSPropertyOp7
 70
     1
102
RTVSPropertyOp8
 70
     1
102
RTVSPropertyOp9
 70
     1
102
RTVSPropertyOp10
 70
     1
102
RTVSPropertyOp11
 70
     1
102
RTVSPropertyOp12
 70
     1
102
RTVSPropertyOp13
 70
     1
102
RTVSPropertyOp14
 70
     1
102
RTVSPropertyOp15
 70
     1
102
RTVSPropertyOp16
 70
     1
102
RTVSPropertyOp17
 70
     1
102
RTVSPropertyOp18
 70
     1
102
RTVSPropertyOp19
 70
     1
102
RTVSPropertyOp20
 70
     1
102
RTVSPropertyOp21
 70
     1
102
RTVSPropertyOp22
 70
     1
102
RTVSPropertyOp23
 70
     1
102
RTVSPropertyOp24
 70
     1
102
RTVSPropertyOp25
 70
     1
102
RTVSPropertyOp26
 70
     1
102
RTVSPropertyOp27
 70
     1
102
RTVSPropertyOp28
 70
     1
102
RTVSPropertyOp29
 70
     1
102
RTVSPropertyOp30
 70
     1
102
RTVSPropertyOp31
 70
     1
102
RTVSPropertyOp32
 70
     1
  0
ENDSEC
  0
EOF
